  0
SECTION
  2
HEADER
  9
$ACADVER
  1
AC1032
  9
$ACADMAINTVER
 90
        4
  9
$DWGCODEPAGE
  3
ANSI_1252
  9
$LASTSAVEDBY
  1
mariehp
  9
$REQUIREDVERSIONS
160
                 0
  9
$INSBASE
 10
0.0
 20
0.0
 30
0.0
  9
$EXTMIN
 10
0.0
 20
0.0
 30
0.0
  9
$EXTMAX
 10
181.3333333333
 20
117.3333333333
 30
0.0
  9
$LIMMIN
 10
0.0
 20
0.0
  9
$LIMMAX
 10
181.3333333333
 20
117.3333333333
  9
$ORTHOMODE
 70
     0
  9
$REGENMODE
 70
     1
  9
$FILLMODE
 70
     1
  9
$QTEXTMODE
 70
     0
  9
$MIRRTEXT
 70
     0
  9
$LTSCALE
 40
9.973333333300001
  9
$ATTMODE
 70
     1
  9
$TEXTSIZE
 40
0.2
  9
$TRACEWID
 40
0.05
  9
$TEXTSTYLE
  7
STANDARD
  9
$CLAYER
  8
0
  9
$CELTYPE
  6
BYLAYER
  9
$CECOLOR
 62
   256
  9
$CELTSCALE
 40
1.0
  9
$DISPSILH
 70
     0
  9
$DIMSCALE
 40
1.0
  9
$DIMASZ
 40
2.0
  9
$DIMEXO
 40
0.0625
  9
$DIMDLI
 40
6.890666666699999
  9
$DIMRND
 40
0.0
  9
$DIMDLE
 40
0.0
  9
$DIMEXE
 40
0.125
  9
$DIMTP
 40
0.001
  9
$DIMTM
 40
0.001
  9
$DIMTXT
 40
1.333333333299999
  9
$DIMCEN
 40
1.631999999999999
  9
$DIMTSZ
 40
0.0
  9
$DIMTOL
 70
     1
  9
$DIMLIM
 70
     0
  9
$DIMTIH
 70
     1
  9
$DIMTOH
 70
     1
  9
$DIMSE1
 70
     0
  9
$DIMSE2
 70
     0
  9
$DIMTAD
 70
     0
  9
$DIMZIN
 70
     0
  9
$DIMBLK
  1
_FILLED
  9
$DIMASO
 70
     1
  9
$DIMSHO
 70
     1
  9
$DIMPOST
  1

  9
$DIMAPOST
  1

  9
$DIMALT
 70
     1
  9
$DIMALTD
 70
     2
  9
$DIMALTF
 40
25.4
  9
$DIMLFAC
 40
1.0
  9
$DIMTOFL
 70
     0
  9
$DIMTVP
 40
0.0
  9
$DIMTIX
 70
     0
  9
$DIMSOXD
 70
     0
  9
$DIMSAH
 70
     0
  9
$DIMBLK1
  1

  9
$DIMBLK2
  1

  9
$DIMSTYLE
  2
STANDARD
  9
$DIMCLRD
 70
     0
  9
$DIMCLRE
 70
     0
  9
$DIMCLRT
 70
     0
  9
$DIMTFAC
 40
1.0
  9
$DIMGAP
 40
0.09
  9
$DIMJUST
 70
     0
  9
$DIMSD1
 70
     0
  9
$DIMSD2
 70
     0
  9
$DIMTOLJ
 70
     1
  9
$DIMTZIN
 70
     0
  9
$DIMALTZ
 70
     0
  9
$DIMALTTZ
 70
     0
  9
$DIMUPT
 70
     0
  9
$DIMDEC
 70
     4
  9
$DIMTDEC
 70
     4
  9
$DIMALTU
 70
     2
  9
$DIMALTTD
 70
     2
  9
$DIMTXSTY
  7
STANDARD
  9
$DIMAUNIT
 70
     0
  9
$DIMADEC
 70
     0
  9
$DIMALTRND
 40
0.0
  9
$DIMAZIN
 70
     0
  9
$DIMDSEP
 70
    46
  9
$DIMATFIT
 70
     3
  9
$DIMFRAC
 70
     0
  9
$DIMLDRBLK
  1

  9
$DIMLUNIT
 70
     2
  9
$DIMLWD
 70
    -2
  9
$DIMLWE
 70
    -2
  9
$DIMTMOVE
 70
     0
  9
$DIMFXL
 40
1.0
  9
$DIMFXLON
 70
     0
  9
$DIMJOGANG
 40
0.7853981633974483
  9
$DIMTFILL
 70
     0
  9
$DIMTFILLCLR
 70
     0
  9
$DIMARCSYM
 70
     0
  9
$DIMLTYPE
  6

  9
$DIMLTEX1
  6

  9
$DIMLTEX2
  6

  9
$DIMTXTDIRECTION
 70
     0
  9
$LUNITS
 70
     2
  9
$LUPREC
 70
     4
  9
$SKETCHINC
 40
0.1
  9
$FILLETRAD
 40
0.0
  9
$AUNITS
 70
     0
  9
$AUPREC
 70
     0
  9
$MENU
  1
.
  9
$ELEVATION
 40
0.0
  9
$PELEVATION
 40
0.0
  9
$THICKNESS
 40
0.0
  9
$LIMCHECK
 70
     0
  9
$CHAMFERA
 40
0.0
  9
$CHAMFERB
 40
0.0
  9
$CHAMFERC
 40
0.0
  9
$CHAMFERD
 40
0.0
  9
$SKPOLY
 70
     0
  9
$TDCREATE
 40
2458663.413159722
  9
$TDUCREATE
 40
2458663.579826389
  9
$TDUPDATE
 40
2458663.616446759
  9
$TDUUPDATE
 40
2458663.783113426
  9
$TDINDWG
 40
0.0083449074
  9
$TDUSRTIMER
 40
0.0083449074
  9
$USRTIMER
 70
     1
  9
$ANGBASE
 50
0.0
  9
$ANGDIR
 70
     0
  9
$PDMODE
 70
     3
  9
$PDSIZE
 40
0.03125
  9
$PLINEWID
 40
0.0
  9
$SPLFRAME
 70
     0
  9
$SPLINETYPE
 70
     6
  9
$SPLINESEGS
 70
     8
  9
$HANDSEED
  5
1A76
  9
$SURFTAB1
 70
     6
  9
$SURFTAB2
 70
     6
  9
$SURFTYPE
 70
     6
  9
$SURFU
 70
     6
  9
$SURFV
 70
     6
  9
$UCSBASE
  2

  9
$UCSNAME
  2

  9
$UCSORG
 10
0.0
 20
0.0
 30
0.0
  9
$UCSXDIR
 10
1.0
 20
0.0
 30
0.0
  9
$UCSYDIR
 10
0.0
 20
1.0
 30
0.0
  9
$UCSORTHOREF
  2

  9
$UCSORTHOVIEW
 70
     0
  9
$UCSORGTOP
 10
0.0
 20
0.0
 30
0.0
  9
$UCSORGBOTTOM
 10
0.0
 20
0.0
 30
0.0
  9
$UCSORGLEFT
 10
0.0
 20
0.0
 30
0.0
  9
$UCSORGRIGHT
 10
0.0
 20
0.0
 30
0.0
  9
$UCSORGFRONT
 10
0.0
 20
0.0
 30
0.0
  9
$UCSORGBACK
 10
0.0
 20
0.0
 30
0.0
  9
$PUCSBASE
  2

  9
$PUCSNAME
  2

  9
$PUCSORG
 10
0.0
 20
0.0
 30
0.0
  9
$PUCSXDIR
 10
1.0
 20
0.0
 30
0.0
  9
$PUCSYDIR
 10
0.0
 20
1.0
 30
0.0
  9
$PUCSORTHOREF
  2

  9
$PUCSORTHOVIEW
 70
     0
  9
$PUCSORGTOP
 10
0.0
 20
0.0
 30
0.0
  9
$PUCSORGBOTTOM
 10
0.0
 20
0.0
 30
0.0
  9
$PUCSORGLEFT
 10
0.0
 20
0.0
 30
0.0
  9
$PUCSORGRIGHT
 10
0.0
 20
0.0
 30
0.0
  9
$PUCSORGFRONT
 10
0.0
 20
0.0
 30
0.0
  9
$PUCSORGBACK
 10
0.0
 20
0.0
 30
0.0
  9
$USERI1
 70
     0
  9
$USERI2
 70
     0
  9
$USERI3
 70
     0
  9
$USERI4
 70
     0
  9
$USERI5
 70
     0
  9
$USERR1
 40
0.0
  9
$USERR2
 40
0.0
  9
$USERR3
 40
0.0
  9
$USERR4
 40
0.0
  9
$USERR5
 40
0.0
  9
$WORLDVIEW
 70
     1
  9
$SHADEDGE
 70
     3
  9
$SHADEDIF
 70
    70
  9
$TILEMODE
 70
     1
  9
$MAXACTVP
 70
    64
  9
$PINSBASE
 10
0.0
 20
0.0
 30
0.0
  9
$PLIMCHECK
 70
     0
  9
$PEXTMIN
 10
1.000000000000000E+20
 20
1.000000000000000E+20
 30
1.000000000000000E+20
  9
$PEXTMAX
 10
-1.000000000000000E+20
 20
-1.000000000000000E+20
 30
-1.000000000000000E+20
  9
$PLIMMIN
 10
0.0
 20
0.0
  9
$PLIMMAX
 10
12.0
 20
9.0
  9
$UNITMODE
 70
     0
  9
$VISRETAIN
 70
     1
  9
$PLINEGEN
 70
     0
  9
$PSLTSCALE
 70
     1
  9
$TREEDEPTH
 70
  3020
  9
$CMLSTYLE
  2
Standard
  9
$CMLJUST
 70
     0
  9
$CMLSCALE
 40
1.0
  9
$PROXYGRAPHICS
 70
     1
  9
$MEASUREMENT
 70
     0
  9
$CELWEIGHT
370
    -1
  9
$ENDCAPS
280
     0
  9
$JOINSTYLE
280
     0
  9
$LWDISPLAY
290
     0
  9
$INSUNITS
 70
     1
  9
$HYPERLINKBASE
  1

  9
$STYLESHEET
  1

  9
$XEDIT
290
     1
  9
$CEPSNTYPE
380
     0
  9
$PSTYLEMODE
290
     1
  9
$FINGERPRINTGUID
  2
{E3D91262-8D82-6E4B-B0C9-BC787C2407CD}
  9
$VERSIONGUID
  2
{A7EDD22B-B2BB-994B-964B-92D03C617F5C}
  9
$EXTNAMES
290
     1
  9
$PSVPSCALE
 40
0.0
  9
$OLESTARTUP
290
     0
  9
$SORTENTS
280
   127
  9
$INDEXCTL
280
     0
  9
$HIDETEXT
280
     0
  9
$XCLIPFRAME
280
     2
  9
$HALOGAP
280
     0
  9
$OBSCOLOR
 70
   257
  9
$OBSLTYPE
280
     0
  9
$INTERSECTIONDISPLAY
280
     0
  9
$INTERSECTIONCOLOR
 70
   257
  9
$DIMASSOC
280
     1
  9
$PROJECTNAME
  1

  9
$CAMERADISPLAY
290
     0
  9
$LENSLENGTH
 40
50.0
  9
$CAMERAHEIGHT
 40
0.0
  9
$STEPSPERSEC
 40
2.0
  9
$STEPSIZE
 40
6.0
  9
$3DDWFPREC
 40
2.0
  9
$PSOLWIDTH
 40
0.25
  9
$PSOLHEIGHT
 40
4.0
  9
$LOFTANG1
 40
1.570796326794896
  9
$LOFTANG2
 40
1.570796326794896
  9
$LOFTMAG1
 40
0.0
  9
$LOFTMAG2
 40
0.0
  9
$LOFTPARAM
 70
     7
  9
$LOFTNORMALS
280
     1
  9
$LATITUDE
 40
37.795
  9
$LONGITUDE
 40
-122.394
  9
$NORTHDIRECTION
 40
0.0
  9
$TIMEZONE
 70
 -8000
  9
$LIGHTGLYPHDISPLAY
280
     1
  9
$TILEMODELIGHTSYNCH
280
     1
  9
$CMATERIAL
347
1981
  9
$SOLIDHIST
280
     0
  9
$SHOWHIST
280
     1
  9
$DWFFRAME
280
     2
  9
$DGNFRAME
280
     0
  9
$REALWORLDSCALE
290
     1
  9
$INTERFERECOLOR
 62
     1
  9
$INTERFEREOBJVS
345
19A3
  9
$INTERFEREVPVS
346
19A0
  9
$CSHADOW
280
     0
  9
$SHADOWPLANELOCATION
 40
0.0
  0
ENDSEC
  0
SECTION
  2
CLASSES
  0
CLASS
  1
ACDBDICTIONARYWDFLT
  2
AcDbDictionaryWithDefault
  3
ObjectDBX Classes
 90
        0
 91
        1
280
     0
281
     0
  0
CLASS
  1
MATERIAL
  2
AcDbMaterial
  3
ObjectDBX Classes
 90
     1153
 91
        3
280
     0
281
     0
  0
CLASS
  1
VISUALSTYLE
  2
AcDbVisualStyle
  3
ObjectDBX Classes
 90
     4095
 91
       24
280
     0
281
     0
  0
CLASS
  1
TABLESTYLE
  2
AcDbTableStyle
  3
ObjectDBX Classes
 90
     4095
 91
        1
280
     0
281
     0
  0
CLASS
  1
SCALE
  2
AcDbScale
  3
ObjectDBX Classes
 90
     1153
 91
       17
280
     0
281
     0
  0
CLASS
  1
MLEADERSTYLE
  2
AcDbMLeaderStyle
  3
ACDB_MLEADERSTYLE_CLASS
 90
     4095
 91
        1
280
     0
281
     0
  0
CLASS
  1
ACDBSECTIONVIEWSTYLE
  2
AcDbSectionViewStyle
  3
ObjectDBX Classes
 90
     1025
 91
        1
280
     0
281
     0
  0
CLASS
  1
ACDBDETAILVIEWSTYLE
  2
AcDbDetailViewStyle
  3
ObjectDBX Classes
 90
     1025
 91
        1
280
     0
281
     0
  0
CLASS
  1
CELLSTYLEMAP
  2
AcDbCellStyleMap
  3
ObjectDBX Classes
 90
     1152
 91
        2
280
     0
281
     0
  0
CLASS
  1
DICTIONARYVAR
  2
AcDbDictionaryVar
  3
ObjectDBX Classes
 90
        0
 91
       21
280
     0
281
     0
  0
ENDSEC
  0
SECTION
  2
TABLES
  0
TABLE
  2
VPORT
  5
8
102
{ACAD_XDICTIONARY
360
19D0
102
}
330
0
100
AcDbSymbolTable
 70
     1
  0
VPORT
  5
1F4
330
8
100
AcDbSymbolTableRecord
100
AcDbViewportTableRecord
  2
*ACTIVE
 70
     0
 10
0.0
 20
0.0
 11
1.0
 21
1.0
 12
125.5428952879177
 22
32.66692182642828
 13
0.0
 23
0.0
 14
1.0
 24
1.0
 15
0.0
 25
0.0
 16
0.0
 26
0.0
 36
1.0
 17
0.0
 27
0.0
 37
0.0
 40
73.3989895593968
 41
2.212355212355212
 42
50.0
 43
0.0
 44
0.0
 50
0.0
 51
0.0
 71
     0
 72
   100
 73
     1
 74
     1
 75
     0
 76
     0
 77
     0
 78
     0
281
     0
 65
     1
110
0.0
120
0.0
130
0.0
111
1.0
121
0.0
131
0.0
112
0.0
122
1.0
132
0.0
 79
     0
146
0.0
348
199F
 60
     3
 61
     5
292
     1
282
     1
141
0.0
142
0.0
 63
   250
421
  3355443
1001
ACAD_NAV_VCDISPLAY
1070
     3
  0
ENDTAB
  0
TABLE
  2
LTYPE
  5
5
330
0
100
AcDbSymbolTable
 70
     6
  0
LTYPE
  5
14
330
5
100
AcDbSymbolTableRecord
100
AcDbLinetypeTableRecord
  2
BYBLOCK
 70
     0
  3

 72
    65
 73
     0
 40
0.0
  0
LTYPE
  5
15
330
5
100
AcDbSymbolTableRecord
100
AcDbLinetypeTableRecord
  2
BYLAYER
 70
     0
  3

 72
    65
 73
     0
 40
0.0
  0
LTYPE
  5
16
330
5
100
AcDbSymbolTableRecord
100
AcDbLinetypeTableRecord
  2
CONTINUOUS
 70
     0
  3
Solid line
 72
    65
 73
     0
 40
0.0
  0
LTYPE
  5
1F5
330
5
100
AcDbSymbolTableRecord
100
AcDbLinetypeTableRecord
  2
CENTER
 70
     0
  3
____ _ ____ _ ____ _ ____ _ ____ _ ____ _ ____
 72
    65
 73
     4
 40
0.6
 49
0.375
 74
     0
 49
-0.075
 74
     0
 49
0.075
 74
     0
 49
-0.075
 74
     0
  0
LTYPE
  5
1F6
330
5
100
AcDbSymbolTableRecord
100
AcDbLinetypeTableRecord
  2
HIDDEN
 70
     0
  3
- - - - - - - - - - - - - - - - - - - -
 72
    65
 73
     2
 40
0.2
 49
0.1
 74
     0
 49
-0.1
 74
     0
  0
LTYPE
  5
1F7
330
5
100
AcDbSymbolTableRecord
100
AcDbLinetypeTableRecord
  2
PHANTOM
 70
     0
  3
_____ _ _ _____ _ _ _____ _ _ _____
 72
    65
 73
     6
 40
0.8
 49
0.45
 74
     0
 49
-0.05
 74
     0
 49
0.1
 74
     0
 49
-0.05
 74
     0
 49
0.1
 74
     0
 49
-0.05
 74
     0
  0
LTYPE
  5
1F8
330
5
100
AcDbSymbolTableRecord
100
AcDbLinetypeTableRecord
  2
DOT
 70
     0
  3
. . . . . . . . . . . . . . . . . . . .
 72
    65
 73
     2
 40
0.2
 49
0.1
 74
     0
 49
-0.1
 74
     0
  0
LTYPE
  5
1F9
330
5
100
AcDbSymbolTableRecord
100
AcDbLinetypeTableRecord
  2
DASHED
 70
     0
  3
- - - - - - - - - - - - - - - - - - - -
 72
    65
 73
     2
 40
0.2
 49
0.1
 74
     0
 49
-0.1
 74
     0
  0
ENDTAB
  0
TABLE
  2
LAYER
  5
2
102
{ACAD_XDICTIONARY
360
1A65
102
}
330
0
100
AcDbSymbolTable
 70
    32
  0
LAYER
  5
10
102
{ACAD_XDICTIONARY
360
1A22
102
}
330
2
100
AcDbSymbolTableRecord
100
AcDbLayerTableRecord
  2
0
 70
     0
 62
     7
  6
CONTINUOUS
370
    -3
390
F
347
1991
348
0
  0
LAYER
  5
1FA
102
{ACAD_XDICTIONARY
360
1A24
102
}
330
2
100
AcDbSymbolTableRecord
100
AcDbLayerTableRecord
  2
DEFAULT_1
 70
     0
 62
     7
  6
CENTER
370
    -3
390
F
347
1991
348
0
  0
LAYER
  5
1FB
102
{ACAD_XDICTIONARY
360
1A26
102
}
330
2
100
AcDbSymbolTableRecord
100
AcDbLayerTableRecord
  2
DEFAULT_2
 70
     0
 62
     8
  6
HIDDEN
370
    -3
390
F
347
1991
348
0
  0
LAYER
  5
1FC
102
{ACAD_XDICTIONARY
360
1A28
102
}
330
2
100
AcDbSymbolTableRecord
100
AcDbLayerTableRecord
  2
DEFAULT_3
 70
     0
 62
     7
  6
PHANTOM
370
    -3
390
F
347
1991
348
0
  0
LAYER
  5
1FD
102
{ACAD_XDICTIONARY
360
1A2A
102
}
330
2
100
AcDbSymbolTableRecord
100
AcDbLayerTableRecord
  2
0_DEFAULT
 70
     0
 62
     7
  6
CONTINUOUS
370
    -3
390
F
347
1991
348
0
  0
LAYER
  5
1FE
102
{ACAD_XDICTIONARY
360
1A2C
102
}
330
2
100
AcDbSymbolTableRecord
100
AcDbLayerTableRecord
  2
1_CURVES
 70
     0
 62
     7
  6
CONTINUOUS
370
    -3
390
F
347
1991
348
0
  0
LAYER
  5
1FF
102
{ACAD_XDICTIONARY
360
1A2E
102
}
330
2
100
AcDbSymbolTableRecord
100
AcDbLayerTableRecord
  2
1_CURVES_CHROMO_INV
 70
     0
 62
     7
  6
CONTINUOUS
370
    -3
390
F
347
1991
348
0
  0
LAYER
  5
200
102
{ACAD_XDICTIONARY
360
1A30
102
}
330
2
100
AcDbSymbolTableRecord
100
AcDbLayerTableRecord
  2
1_CURVES_DOT
 70
     0
 62
     7
  6
CONTINUOUS
370
    -3
390
F
347
1991
348
0
  0
LAYER
  5
201
102
{ACAD_XDICTIONARY
360
1A32
102
}
330
2
100
AcDbSymbolTableRecord
100
AcDbLayerTableRecord
  2
1_CURVES_JETS
 70
     0
 62
     7
  6
CONTINUOUS
370
    -3
390
F
347
1991
348
0
  0
LAYER
  5
202
102
{ACAD_XDICTIONARY
360
1A34
102
}
330
2
100
AcDbSymbolTableRecord
100
AcDbLayerTableRecord
  2
1_CURVES_SPEC_FRONT
 70
     0
 62
     7
  6
CONTINUOUS
370
    -3
390
F
347
1991
348
0
  0
LAYER
  5
203
102
{ACAD_XDICTIONARY
360
1A36
102
}
330
2
100
AcDbSymbolTableRecord
100
AcDbLayerTableRecord
  2
1_CURVES_SPEC_RIGHT
 70
     0
 62
     7
  6
CONTINUOUS
370
    -3
390
F
347
1991
348
0
  0
LAYER
  5
204
102
{ACAD_XDICTIONARY
360
1A38
102
}
330
2
100
AcDbSymbolTableRecord
100
AcDbLayerTableRecord
  2
2_PLANES
 70
     0
 62
     7
  6
CONTINUOUS
370
    -3
390
F
347
1991
348
0
  0
LAYER
  5
205
102
{ACAD_XDICTIONARY
360
1A3A
102
}
330
2
100
AcDbSymbolTableRecord
100
AcDbLayerTableRecord
  2
2_PLANES_CHROMO_INV
 70
     0
 62
     7
  6
CONTINUOUS
370
    -3
390
F
347
1991
348
0
  0
LAYER
  5
206
102
{ACAD_XDICTIONARY
360
1A3C
102
}
330
2
100
AcDbSymbolTableRecord
100
AcDbLayerTableRecord
  2
2_PLANES_JETS
 70
     0
 62
     7
  6
CONTINUOUS
370
    -3
390
F
347
1991
348
0
  0
LAYER
  5
207
102
{ACAD_XDICTIONARY
360
1A3E
102
}
330
2
100
AcDbSymbolTableRecord
100
AcDbLayerTableRecord
  2
3_POINTS
 70
     0
 62
     7
  6
CONTINUOUS
370
    -3
390
F
347
1991
348
0
  0
LAYER
  5
208
102
{ACAD_XDICTIONARY
360
1A40
102
}
330
2
100
AcDbSymbolTableRecord
100
AcDbLayerTableRecord
  2
3_POINTS_JETS
 70
     0
 62
     7
  6
CONTINUOUS
370
    -3
390
F
347
1991
348
0
  0
LAYER
  5
209
102
{ACAD_XDICTIONARY
360
1A42
102
}
330
2
100
AcDbSymbolTableRecord
100
AcDbLayerTableRecord
  2
3_POINTS_SPEC
 70
     0
 62
     7
  6
CONTINUOUS
370
    -3
390
F
347
1991
348
0
  0
LAYER
  5
20A
102
{ACAD_XDICTIONARY
360
1A44
102
}
330
2
100
AcDbSymbolTableRecord
100
AcDbLayerTableRecord
  2
4_CSYS
 70
     0
 62
     7
  6
CONTINUOUS
370
    -3
390
F
347
1991
348
0
  0
LAYER
  5
20B
102
{ACAD_XDICTIONARY
360
1A46
102
}
330
2
100
AcDbSymbolTableRecord
100
AcDbLayerTableRecord
  2
5_AXIS
 70
     0
 62
     7
  6
CONTINUOUS
370
    -3
390
F
347
1991
348
0
  0
LAYER
  5
20C
102
{ACAD_XDICTIONARY
360
1A48
102
}
330
2
100
AcDbSymbolTableRecord
100
AcDbLayerTableRecord
  2
5_AXIS_CHROMO_INV
 70
     0
 62
     7
  6
CONTINUOUS
370
    -3
390
F
347
1991
348
0
  0
LAYER
  5
20D
102
{ACAD_XDICTIONARY
360
1A4A
102
}
330
2
100
AcDbSymbolTableRecord
100
AcDbLayerTableRecord
  2
5_AXIS_JETS
 70
     0
 62
     7
  6
CONTINUOUS
370
    -3
390
F
347
1991
348
0
  0
LAYER
  5
20E
102
{ACAD_XDICTIONARY
360
1A4C
102
}
330
2
100
AcDbSymbolTableRecord
100
AcDbLayerTableRecord
  2
6_SURFACES
 70
     0
 62
     7
  6
CONTINUOUS
370
    -3
390
F
347
1991
348
0
  0
LAYER
  5
20F
102
{ACAD_XDICTIONARY
360
1A4E
102
}
330
2
100
AcDbSymbolTableRecord
100
AcDbLayerTableRecord
  2
6_SURFACES_CHROMO_INV
 70
     0
 62
     7
  6
CONTINUOUS
370
    -3
390
F
347
1991
348
0
  0
LAYER
  5
210
102
{ACAD_XDICTIONARY
360
1A50
102
}
330
2
100
AcDbSymbolTableRecord
100
AcDbLayerTableRecord
  2
6_SURFACES_FOAM
 70
     0
 62
     7
  6
CONTINUOUS
370
    -3
390
F
347
1991
348
0
  0
LAYER
  5
211
102
{ACAD_XDICTIONARY
360
1A52
102
}
330
2
100
AcDbSymbolTableRecord
100
AcDbLayerTableRecord
  2
6_SURFACES_JUPE
 70
     0
 62
     7
  6
CONTINUOUS
370
    -3
390
F
347
1991
348
0
  0
LAYER
  5
212
102
{ACAD_XDICTIONARY
360
1A54
102
}
330
2
100
AcDbSymbolTableRecord
100
AcDbLayerTableRecord
  2
6_SURFACES_OFFSET_FIBRE_ACRYLIQ
 70
     0
 62
     7
  6
CONTINUOUS
370
    -3
390
F
347
1991
348
0
  0
LAYER
  5
213
102
{ACAD_XDICTIONARY
360
1A56
102
}
330
2
100
AcDbSymbolTableRecord
100
AcDbLayerTableRecord
  2
6_SURFACES_TOOLING
 70
     0
 62
     7
  6
CONTINUOUS
370
    -3
390
F
347
1991
348
0
  0
LAYER
  5
214
102
{ACAD_XDICTIONARY
360
1A58
102
}
330
2
100
AcDbSymbolTableRecord
100
AcDbLayerTableRecord
  2
6_SURFACES_TOOLING_DROP-IN
 70
     0
 62
     7
  6
CONTINUOUS
370
    -3
390
F
347
1991
348
0
  0
LAYER
  5
215
102
{ACAD_XDICTIONARY
360
1A5A
102
}
330
2
100
AcDbSymbolTableRecord
100
AcDbLayerTableRecord
  2
6_SURFACES_TOOLING_FS
 70
     0
 62
     7
  6
CONTINUOUS
370
    -3
390
F
347
1991
348
0
  0
LAYER
  5
216
102
{ACAD_XDICTIONARY
360
1A5C
102
}
330
2
100
AcDbSymbolTableRecord
100
AcDbLayerTableRecord
  2
7_NOTES
 70
     0
 62
     7
  6
CONTINUOUS
370
    -3
390
F
347
1991
348
0
  0
LAYER
  5
217
102
{ACAD_XDICTIONARY
360
1A5E
102
}
330
2
100
AcDbSymbolTableRecord
100
AcDbLayerTableRecord
  2
DEGAGEMENT_SERIGRAPHIE
 70
     0
 62
     7
  6
CONTINUOUS
370
    -3
390
F
347
1991
348
0
  0
LAYER
  5
218
102
{ACAD_XDICTIONARY
360
1A60
102
}
330
2
100
AcDbSymbolTableRecord
100
AcDbLayerTableRecord
  2
XSEC_DATUMS
 70
     0
 62
     7
  6
CONTINUOUS
370
    -3
390
F
347
1991
348
0
  0
ENDTAB
  0
TABLE
  2
STYLE
  5
3
330
0
100
AcDbSymbolTable
 70
     2
  0
STYLE
  5
11
330
3
100
AcDbSymbolTableRecord
100
AcDbTextStyleTableRecord
  2
STANDARD
 70
     0
 40
0.0
 41
1.0
 50
0.0
 71
     0
 42
0.2
  3
trium.ttf
  4

  0
STYLE
  5
219
330
3
100
AcDbSymbolTableRecord
100
AcDbTextStyleTableRecord
  2
TEXTSTYLE_1
 70
     0
 40
0.0
 41
0.8
 50
0.0
 71
     0
 42
0.2
  3
gdt
  4

  0
ENDTAB
  0
TABLE
  2
VIEW
  5
6
330
0
100
AcDbSymbolTable
 70
     1
  0
ENDTAB
  0
TABLE
  2
UCS
  5
7
330
0
100
AcDbSymbolTable
 70
     0
  0
ENDTAB
  0
TABLE
  2
APPID
  5
9
330
0
100
AcDbSymbolTable
 70
     3
  0
APPID
  5
21A
330
9
100
AcDbSymbolTableRecord
100
AcDbRegAppTableRecord
  2
ACAD
 70
     0
  0
APPID
  5
1A0A
330
9
100
AcDbSymbolTableRecord
100
AcDbRegAppTableRecord
  2
ACAD_MLEADERVER
 70
     0
  0
APPID
  5
1A6B
330
9
100
AcDbSymbolTableRecord
100
AcDbRegAppTableRecord
  2
ACAD_NAV_VCDISPLAY
 70
     0
  0
ENDTAB
  0
TABLE
  2
DIMSTYLE
  5
A
330
0
100
AcDbSymbolTable
 70
     1
100
AcDbDimStyleTable
 71
     0
  0
DIMSTYLE
105
21E
330
A
100
AcDbSymbolTableRecord
100
AcDbDimStyleTableRecord
  2
STANDARD
 70
     0
 41
2.0
 44
0.125
 47
0.001
 48
0.001
 71
     1
 78
     4
 79
     1
140
1.333333333299999
170
     1
179
     3
271
     3
272
     3
284
     4
340
11
341
21D
342
21D
343
21D
344
21D
  0
ENDTAB
  0
TABLE
  2
BLOCK_RECORD
  5
1
330
0
100
AcDbSymbolTable
 70
     1
  0
BLOCK_RECORD
  5
21B
330
1
100
AcDbSymbolTableRecord
100
AcDbBlockTableRecord
  2
*Model_Space
340
197C
 70
     0
280
     1
281
     0
  0
BLOCK_RECORD
  5
21C
330
1
100
AcDbSymbolTableRecord
100
AcDbBlockTableRecord
  2
*Paper_Space
340
197D
 70
     0
280
     1
281
     0
  0
BLOCK_RECORD
  5
21D
330
1
100
AcDbSymbolTableRecord
100
AcDbBlockTableRecord
  2
_FILLED
340
0
 70
     0
280
     1
281
     0
  0
ENDTAB
  0
ENDSEC
  0
SECTION
  2
BLOCKS
  0
BLOCK
  5
20
330
21B
100
AcDbEntity
  8
0
100
AcDbBlockBegin
  2
*Model_Space
 70
     0
 10
0.0
 20
0.0
 30
0.0
  3
*Model_Space
  1

  0
ENDBLK
  5
21
330
21B
100
AcDbEntity
  8
0
100
AcDbBlockEnd
  0
BLOCK
  5
1C
330
21C
100
AcDbEntity
 67
     1
  8
0
100
AcDbBlockBegin
  2
*Paper_Space
 70
     0
 10
0.0
 20
0.0
 30
0.0
  3
*Paper_Space
  1

  0
ENDBLK
  5
1D
330
21C
100
AcDbEntity
 67
     1
  8
0
100
AcDbBlockEnd
  0
BLOCK
  5
21F
330
21D
100
AcDbEntity
  8
0
100
AcDbBlockBegin
  2
_FILLED
 70
     0
 10
0.0
 20
0.0
 30
0.0
  3
_FILLED
  1

  0
SOLID
  5
220
330
21D
100
AcDbEntity
  8
0
  6
ByBlock
 62
     0
100
AcDbTrace
 10
0.0
 20
0.0
 30
0.0
 11
-1.0
 21
0.1666666667
 31
0.0
 12
-1.0
 22
-0.1666666667
 32
0.0
 13
-1.0
 23
-0.1666666667
 33
0.0
  0
ENDBLK
  5
221
330
21D
100
AcDbEntity
  8
0
  6
ByBlock
 62
     0
100
AcDbBlockEnd
  0
ENDSEC
  0
SECTION
  2
ENTITIES
  0
LINE
  5
252
330
21B
100
AcDbEntity
  8
0
  6
Continuous
 62
     7
100
AcDbLine
 10
94.44216569299999
 20
43.886990468
 30
0.0
 11
94.4421647493
 21
43.84810761859999
 31
0.0
  0
LWPOLYLINE
  5
253
330
21B
100
AcDbEntity
  8
0
  6
Continuous
 62
     7
100
AcDbPolyline
 90
       16
 70
     0
 43
0.0
 10
96.82982837309999
 20
16.5564338846
 10
96.83358226030001
 20
16.5180355376
 10
96.84027172309999
 20
16.4756067555
 10
96.85048464760001
 20
16.436657692
 10
96.86436228959999
 20
16.4009921902
 10
96.88168921329999
 20
16.3683916549
 10
96.90219531830001
 20
16.3386976456
 10
96.9256177275
 20
16.3118753129
 10
96.9517640575
 20
16.2879496903
 10
96.9805474824
 20
16.2669984878
 10
97.01194033040001
 20
16.2492009494
 10
97.0459707886
 20
16.2348188336
 10
97.0827736384
 20
16.2241424705
 10
97.1225364866
 20
16.2174105896
 10
97.1654560065
 20
16.214491151
 10
97.20340143930002
 20
16.2141166661
  0
LINE
  5
254
330
21B
100
AcDbEntity
  8
0
  6
Continuous
 62
     7
100
AcDbLine
 10
94.44205103059999
 20
43.84932887359999
 30
0.0
 11
94.44216425270001
 21
43.848110276
 31
0.0
  0
LINE
  5
255
330
21B
100
AcDbEntity
  8
6_SURFACES
  6
Continuous
 62
     7
100
AcDbLine
 10
94.4420510227
 20
43.84932896409999
 30
0.0
 11
96.829828117
 21
16.5564339311
 31
0.0
  0
LWPOLYLINE
  5
256
330
21B
100
AcDbEntity
  8
0
  6
Continuous
 62
     7
100
AcDbPolyline
 90
       16
 70
     0
 43
0.0
 10
130.4119120987
 20
16.2141166661
 10
130.4498575448
 20
16.2144911509
 10
130.4927770837
 20
16.2174105895
 10
130.53253995
 20
16.2241424721
 10
130.569342815
 20
16.2348188391
 10
130.6033732839
 20
16.2492009602
 10
130.6347661375
 20
16.2669985041
 10
130.6635495645
 20
16.2879497118
 10
130.6896958946
 20
16.3118753398
 10
130.7131183014
 20
16.3386976778
 10
130.7336244004
 20
16.3683916904
 10
130.7509513142
 20
16.4009922245
 10
130.7648289432
 20
16.4366577204
 10
130.7750418527
 20
16.475606775
 10
130.7817312975
 20
16.5180355468
 10
130.7854851649
 20
16.5564338849
  0
LINE
  5
257
330
21B
100
AcDbEntity
  8
0
  6
Continuous
 62
     7
100
AcDbLine
 10
130.4119089266
 20
16.2141166661
 30
0.0
 11
97.20340461260001
 21
16.2141166661
 31
0.0
  0
LWPOLYLINE
  5
258
330
21B
100
AcDbEntity
  8
DEFAULT_2
  6
HIDDEN
 62
     8
100
AcDbPolyline
 90
       15
 70
     0
 43
0.0
 10
95.8233956169
 20
43.6569454825
 10
96.09868524680001
 20
42.62669677819999
 10
96.41731869819999
 20
41.4157812409
 10
96.74509559309999
 20
40.14687002699999
 10
97.08142120079999
 20
38.8165840619
 10
97.4247007337
 20
37.4241321086
 10
97.7732140532
 20
35.9678223295
 10
98.1254324176
 20
34.4433225968
 10
98.48098431110001
 20
32.8382132693
 10
98.8395564402
 20
31.1342454333
 10
99.1979913692
 20
29.3183986883
 10
99.5445599077
 20
27.4142374756
 10
99.86526157870002
 20
25.4586398823
 10
100.1470737987
 20
23.4890241614
 10
100.3293450455
 20
21.9952742822
  0
LWPOLYLINE
  5
259
330
21B
100
AcDbEntity
  8
DEFAULT_2
  6
HIDDEN
 62
     8
100
AcDbPolyline
 90
       81
 70
     0
 43
0.0
 10
100.3293448563
 20
21.9952759686
 10
100.3319774208
 20
21.9718475168
 10
100.3360607093
 20
21.936539369
 10
100.3403679544
 20
21.9018546822
 10
100.3450401868
 20
21.8677915338
 10
100.350185458
 20
21.8343548433
 10
100.3558831745
 20
21.8015547585
 10
100.3621880953
 20
21.769405173
 10
100.3691339766
 20
21.7379223926
 10
100.376736954
 20
21.7071236307
 10
100.3850030982
 20
21.6770102501
 10
100.3939308724
 20
21.6475749163
 10
100.4035103178
 20
21.6188138854
 10
100.4137255474
 20
21.5907237461
 10
100.4245562542
 20
21.5633011063
 10
100.4359789506
 20
21.5365423593
 10
100.4479679808
 20
21.5104435221
 10
100.4604963428
 20
21.4850001349
 10
100.4735363482
 20
21.4602072102
 10
100.4870601463
 20
21.4360592211
 10
100.5010416652
 20
21.4125476189
 10
100.5154514262
 20
21.3896700488
 10
100.530256788
 20
21.367428652
 10
100.5454251566
 20
21.3458246151
 10
100.5609241874
 20
21.3248581827
 10
100.5767219441
 20
21.3045286795
 10
100.5927870183
 20
21.2848345418
 10
100.6090886156
 20
21.2657733575
 10
100.6255966091
 20
21.2473419121
 10
100.6422815647
 20
21.2295362409
 10
100.659114739
 20
21.2123516853
 10
100.676068051
 20
21.1957829535
 10
100.693114054
 20
21.1798241618
 10
100.7102252874
 20
21.1644694055
 10
100.7273679107
 20
21.1497180077
 10
100.7445065888
 20
21.1355693813
 10
100.761606654
 20
21.1220211298
 10
100.778634132
 20
21.1090691725
 10
100.7955557375
 20
21.0967078789
 10
100.8123388422
 20
21.0849302096
 10
100.8289544004
 20
21.0737258879
 10
100.8453835628
 20
21.0630776726
 10
100.8616084523
 20
21.052968226
 10
100.8776135563
 20
21.0433792986
 10
100.8933856391
 20
21.0342919452
 10
100.9089134965
 20
21.0256868039
 10
100.9241877087
 20
21.0175443359
 10
100.9392003981
 20
21.009845026
 10
100.9539449921
 20
21.0025695511
 10
100.968409854
 20
20.9957017773
 10
100.9825727295
 20
20.9892307227
 10
100.9964126091
 20
20.9831445165
 10
101.0099112634
 20
20.9774299144
 10
101.0230533808
 20
20.9720725078
 10
101.035826703
 20
20.9670569224
 10
101.0482221358
 20
20.9623670127
 10
101.0602338132
 20
20.9579860584
 10
101.071859029
 20
20.9538969844
 10
101.0830902004
 20
20.9500852088
 10
101.0939233341
 20
20.9465356014
 10
101.104361092
 20
20.9432317228
 10
101.1144078212
 20
20.9401576409
 10
101.124069587
 20
20.9372979486
 10
101.1333541207
 20
20.9346377991
 10
101.1422706899
 20
20.9321629516
 10
101.1508299106
 20
20.929859817
 10
101.1590435196
 20
20.9277155008
 10
101.1669241277
 20
20.9257178357
 10
101.1744849565
 20
20.9238554058
 10
101.1817400059
 20
20.9221174589
 10
101.1887056251
 20
20.9204935031
 10
101.1953980497
 20
20.9189738646
 10
101.2018327484
 20
20.9175497603
 10
101.2080244171
 20
20.9162132179
 10
101.2139869841
 20
20.9149570015
 10
101.2197336221
 20
20.9137745428
 10
101.2252767672
 20
20.9126598784
 10
101.2306281431
 20
20.911607592
 10
101.2357987888
 20
20.9106127613
 10
101.2407990887
 20
20.9096709109
 10
101.2503272493
 20
20.9079302001
  0
LWPOLYLINE
  5
25A
330
21B
100
AcDbEntity
  8
DEFAULT_2
  6
HIDDEN
 62
     8
100
AcDbPolyline
 90
       81
 70
     0
 43
0.0
 10
126.3774004393
 20
20.9102120811
 10
126.3825119457
 20
20.9111867905
 10
126.3878019061
 20
20.9122175676
 10
126.3932785987
 20
20.9133086791
 10
126.3989507047
 20
20.9144647672
 10
126.4048273059
 20
20.9156908806
 10
126.4109178756
 20
20.9169925085
 10
126.4172322635
 20
20.9183756148
 10
126.4237806727
 20
20.9198466743
 10
126.4305736273
 20
20.9214127095
 10
126.4376219325
 20
20.9230813278
 10
126.4449366241
 20
20.9248607589
 10
126.4525289105
 20
20.9267598932
 10
126.4604088122
 20
20.9287879804
 10
126.4685875301
 20
20.930955273
 10
126.4770786973
 20
20.9332734727
 10
126.485895307
 20
20.9357550178
 10
126.4950494574
 20
20.9384130549
 10
126.5045521148
 20
20.9412614015
 10
126.5144128954
 20
20.9443145018
 10
126.524639885
 20
20.9475873761
 10
126.535239509
 20
20.9510955722
 10
126.5462164681
 20
20.9548551236
 10
126.5575737443
 20
20.95888252
 10
126.5693126756
 20
20.9631946959
 10
126.5814330277
 20
20.9678090144
 10
126.59392842
 20
20.9727413823
 10
126.6067918699
 20
20.9780081631
 10
126.6200164817
 20
20.9836264571
 10
126.6335925097
 20
20.9896128226
 10
126.6475073573
 20
20.9959830723
 10
126.661745584
 20
21.0027520518
 10
126.6762873028
 20
21.0099325848
 10
126.6911066069
 20
21.0175342225
 10
126.706181088
 20
21.0255677787
 10
126.7214877318
 20
21.0340433231
 10
126.7370025088
 20
21.0429698474
 10
126.7527003466
 20
21.052355108
 10
126.7685551023
 20
21.062205457
 10
126.784539544
 20
21.072525667
 10
126.8006253524
 20
21.0833187548
 10
126.8167831454
 20
21.0945858079
 10
126.8329825326
 20
21.1063258208
 10
126.8491938921
 20
21.1185368415
 10
126.8654058292
 20
21.1312299367
 10
126.881611919
 20
21.1444209852
 10
126.8978038476
 20
21.1581257421
 10
126.9139722046
 20
21.1723604895
 10
126.9301063023
 20
21.1871419512
 10
126.946194013
 20
21.2024872061
 10
126.9622216216
 20
21.2184135975
 10
126.9781736924
 20
21.23493864
 10
126.9940329507
 20
21.2520799215
 10
127.0097804625
 20
21.2698553292
 10
127.0253937297
 20
21.2882808258
 10
127.0408435773
 20
21.3073660626
 10
127.0560992457
 20
21.3271196078
 10
127.0711288647
 20
21.3475493921
 10
127.085899498
 20
21.3686626502
 10
127.1003772211
 20
21.3904658674
 10
127.1145272396
 20
21.4129647316
 10
127.1283140532
 20
21.4361640936
 10
127.1417036314
 20
21.4600715366
 10
127.1546608509
 20
21.4846929567
 10
127.1671481401
 20
21.5100286387
 10
127.1791286335
 20
21.5360775788
 10
127.1905668084
 20
21.5628375388
 10
127.2014292569
 20
21.5903051467
 10
127.2116856161
 20
21.6184760559
 10
127.2213096806
 20
21.6473451714
 10
127.2302807275
 20
21.6769069533
 10
127.2385850884
 20
21.7071558045
 10
127.2462186804
 20
21.7380894266
 10
127.2531861294
 20
21.7696963708
 10
127.2595032076
 20
21.8019490723
 10
127.265204267
 20
21.8348208743
 10
127.2703453372
 20
21.8682876295
 10
127.2750073441
 20
21.9023290944
 10
127.2792995163
 20
21.9369304204
 10
127.2833629416
 20
21.9720837111
 10
127.2859688048
 20
21.9952759707
  0
LINE
  5
25B
330
21B
100
AcDbEntity
  8
DEFAULT_2
  6
HIDDEN
 62
     8
100
AcDbLine
 10
126.3676816741
 20
20.9084154972
 30
0.0
 11
126.3774004393
 21
20.9102120811
 31
0.0
  0
LINE
  5
25C
330
21B
100
AcDbEntity
  8
DEFAULT_2
  6
HIDDEN
 62
     8
100
AcDbLine
 10
126.3585868642
 20
20.9068000257
 30
0.0
 11
126.3676816741
 21
20.9084154972
 31
0.0
  0
LINE
  5
25D
330
21B
100
AcDbEntity
  8
DEFAULT_2
  6
HIDDEN
 62
     8
100
AcDbLine
 10
126.3500735327
 20
20.905343898
 30
0.0
 11
126.3585868642
 21
20.9068000257
 31
0.0
  0
LINE
  5
25E
330
21B
100
AcDbEntity
  8
DEFAULT_2
  6
HIDDEN
 62
     8
100
AcDbLine
 10
126.3421178552
 20
20.9040308342
 30
0.0
 11
126.3500735327
 21
20.905343898
 31
0.0
  0
LINE
  5
25F
330
21B
100
AcDbEntity
  8
DEFAULT_2
  6
HIDDEN
 62
     8
100
AcDbLine
 10
126.33469909
 20
20.9028467971
 30
0.0
 11
126.3421178552
 21
20.9040308342
 31
0.0
  0
LINE
  5
260
330
21B
100
AcDbEntity
  8
DEFAULT_2
  6
HIDDEN
 62
     8
100
AcDbLine
 10
126.3277991153
 20
20.9017796547
 30
0.0
 11
126.33469909
 21
20.9028467971
 31
0.0
  0
LINE
  5
261
330
21B
100
AcDbEntity
  8
DEFAULT_2
  6
HIDDEN
 62
     8
100
AcDbLine
 10
126.318361015
 20
20.9003716364
 30
0.0
 11
126.3277991153
 21
20.9017796547
 31
0.0
  0
LINE
  5
262
330
21B
100
AcDbEntity
  8
DEFAULT_2
  6
HIDDEN
 62
     8
100
AcDbLine
 10
126.309738648
 20
20.8991358139
 30
0.0
 11
126.318361015
 21
20.9003716364
 31
0.0
  0
LINE
  5
263
330
21B
100
AcDbEntity
  8
DEFAULT_2
  6
HIDDEN
 62
     8
100
AcDbLine
 10
126.3016128628
 20
20.8980137314
 30
0.0
 11
126.309738648
 21
20.8991358139
 31
0.0
  0
LINE
  5
264
330
21B
100
AcDbEntity
  8
DEFAULT_2
  6
HIDDEN
 62
     8
100
AcDbLine
 10
126.293873257
 20
20.8969820359
 30
0.0
 11
126.3016128628
 21
20.8980137314
 31
0.0
  0
LINE
  5
265
330
21B
100
AcDbEntity
  8
DEFAULT_2
  6
HIDDEN
 62
     8
100
AcDbLine
 10
126.2840826798
 20
20.8957267439
 30
0.0
 11
126.293873257
 21
20.8969820359
 31
0.0
  0
LINE
  5
266
330
21B
100
AcDbEntity
  8
DEFAULT_2
  6
HIDDEN
 62
     8
100
AcDbLine
 10
126.2748193171
 20
20.8945880906
 30
0.0
 11
126.2840826798
 21
20.8957267439
 31
0.0
  0
LINE
  5
267
330
21B
100
AcDbEntity
  8
DEFAULT_2
  6
HIDDEN
 62
     8
100
AcDbLine
 10
126.2660115055
 20
20.8935476091
 30
0.0
 11
126.2748193171
 21
20.8945880906
 31
0.0
  0
LINE
  5
268
330
21B
100
AcDbEntity
  8
DEFAULT_2
  6
HIDDEN
 62
     8
100
AcDbLine
 10
126.2555508882
 20
20.8923626239
 30
0.0
 11
126.2660115055
 21
20.8935476091
 31
0.0
  0
LINE
  5
269
330
21B
100
AcDbEntity
  8
DEFAULT_2
  6
HIDDEN
 62
     8
100
AcDbLine
 10
126.2515167832
 20
20.8919197301
 30
0.0
 11
126.2555508882
 21
20.8923626239
 31
0.0
  0
LINE
  5
26A
330
21B
100
AcDbEntity
  8
DEFAULT_2
  6
HIDDEN
 62
     8
100
AcDbLine
 10
101.352958648
 20
20.8931272791
 30
0.0
 11
101.3643321654
 21
20.8918615349
 31
0.0
  0
LINE
  5
26B
330
21B
100
AcDbEntity
  8
DEFAULT_2
  6
HIDDEN
 62
     8
100
AcDbLine
 10
101.343281186
 20
20.8942545238
 30
0.0
 11
101.352958648
 21
20.8931272791
 31
0.0
  0
LINE
  5
26C
330
21B
100
AcDbEntity
  8
DEFAULT_2
  6
HIDDEN
 62
     8
100
AcDbLine
 10
101.3329991958
 20
20.8955057831
 30
0.0
 11
101.343281186
 21
20.8942545238
 31
0.0
  0
LINE
  5
26D
330
21B
100
AcDbEntity
  8
DEFAULT_2
  6
HIDDEN
 62
     8
100
AcDbLine
 10
101.3248301437
 20
20.8965412377
 30
0.0
 11
101.3329991958
 21
20.8955057831
 31
0.0
  0
LINE
  5
26E
330
21B
100
AcDbEntity
  8
DEFAULT_2
  6
HIDDEN
 62
     8
100
AcDbLine
 10
101.3162111721
 20
20.8976751977
 30
0.0
 11
101.3248301437
 21
20.8965412377
 31
0.0
  0
LINE
  5
26F
330
21B
100
AcDbEntity
  8
DEFAULT_2
  6
HIDDEN
 62
     8
100
AcDbLine
 10
101.3070756643
 20
20.8989255254
 30
0.0
 11
101.3162111721
 21
20.8976751977
 31
0.0
  0
LINE
  5
270
330
21B
100
AcDbEntity
  8
DEFAULT_2
  6
HIDDEN
 62
     8
100
AcDbLine
 10
101.2973455895
 20
20.9003142819
 30
0.0
 11
101.3070756643
 21
20.8989255254
 31
0.0
  0
LINE
  5
271
330
21B
100
AcDbEntity
  8
DEFAULT_2
  6
HIDDEN
 62
     8
100
AcDbLine
 10
101.2904835367
 20
20.9013303727
 30
0.0
 11
101.2973455895
 21
20.9003142819
 31
0.0
  0
LINE
  5
272
330
21B
100
AcDbEntity
  8
DEFAULT_2
  6
HIDDEN
 62
     8
100
AcDbLine
 10
101.2832846797
 20
20.902429991
 30
0.0
 11
101.2904835367
 21
20.9013303727
 31
0.0
  0
LINE
  5
273
330
21B
100
AcDbEntity
  8
DEFAULT_2
  6
HIDDEN
 62
     8
100
AcDbLine
 10
101.2757131095
 20
20.9036247531
 30
0.0
 11
101.2832846797
 21
20.902429991
 31
0.0
  0
LINE
  5
274
330
21B
100
AcDbEntity
  8
DEFAULT_2
  6
HIDDEN
 62
     8
100
AcDbLine
 10
101.2677281502
 20
20.9049283654
 30
0.0
 11
101.2757131095
 21
20.9036247531
 31
0.0
  0
LINE
  5
275
330
21B
100
AcDbEntity
  8
DEFAULT_2
  6
HIDDEN
 62
     8
100
AcDbLine
 10
101.2592836567
 20
20.9063570716
 30
0.0
 11
101.2677281502
 21
20.9049283654
 31
0.0
  0
LINE
  5
276
330
21B
100
AcDbEntity
  8
DEFAULT_2
  6
HIDDEN
 62
     8
100
AcDbLine
 10
101.2503272493
 20
20.9079302001
 30
0.0
 11
101.2592836567
 21
20.9063570716
 31
0.0
  0
LINE
  5
277
330
21B
100
AcDbEntity
  8
DEFAULT_2
  6
HIDDEN
 62
     8
100
AcDbLine
 10
126.2398578709
 20
20.890681631
 30
0.0
 11
126.2515167832
 21
20.8919197301
 31
0.0
  0
LINE
  5
278
330
21B
100
AcDbEntity
  8
DEFAULT_2
  6
HIDDEN
 62
     8
100
AcDbLine
 10
126.2287667581
 20
20.8895585638
 30
0.0
 11
126.2398578709
 21
20.890681631
 31
0.0
  0
LINE
  5
279
330
21B
100
AcDbEntity
  8
DEFAULT_2
  6
HIDDEN
 62
     8
100
AcDbLine
 10
126.2164043688
 20
20.8883651684
 30
0.0
 11
126.2287667581
 21
20.8895585638
 31
0.0
  0
LINE
  5
27A
330
21B
100
AcDbEntity
  8
DEFAULT_2
  6
HIDDEN
 62
     8
100
AcDbLine
 10
126.2028703567
 20
20.8871237408
 30
0.0
 11
126.2164043688
 21
20.8883651684
 31
0.0
  0
LINE
  5
27B
330
21B
100
AcDbEntity
  8
DEFAULT_2
  6
HIDDEN
 62
     8
100
AcDbLine
 10
126.188203432
 20
20.8858483814
 30
0.0
 11
126.2028703567
 21
20.8871237408
 31
0.0
  0
LINE
  5
27C
330
21B
100
AcDbEntity
  8
DEFAULT_2
  6
HIDDEN
 62
     8
100
AcDbLine
 10
126.1723750421
 20
20.8845456255
 30
0.0
 11
126.188203432
 21
20.8858483814
 31
0.0
  0
LINE
  5
27D
330
21B
100
AcDbEntity
  8
DEFAULT_2
  6
HIDDEN
 62
     8
100
AcDbLine
 10
126.1538295511
 20
20.8831055323
 30
0.0
 11
126.1723750421
 21
20.8845456255
 31
0.0
  0
LINE
  5
27E
330
21B
100
AcDbEntity
  8
DEFAULT_2
  6
HIDDEN
 62
     8
100
AcDbLine
 10
126.1326620872
 20
20.881561025
 30
0.0
 11
126.1538295511
 21
20.8831055323
 31
0.0
  0
LINE
  5
27F
330
21B
100
AcDbEntity
  8
DEFAULT_2
  6
HIDDEN
 62
     8
100
AcDbLine
 10
126.1074741257
 20
20.8798402815
 30
0.0
 11
126.1326620872
 21
20.881561025
 31
0.0
  0
LINE
  5
280
330
21B
100
AcDbEntity
  8
DEFAULT_2
  6
HIDDEN
 62
     8
100
AcDbLine
 10
126.0769798903
 20
20.877897481
 30
0.0
 11
126.1074741257
 21
20.8798402815
 31
0.0
  0
LINE
  5
281
330
21B
100
AcDbEntity
  8
DEFAULT_2
  6
HIDDEN
 62
     8
100
AcDbLine
 10
126.0602663507
 20
20.8768869353
 30
0.0
 11
126.0769798903
 21
20.877897481
 31
0.0
  0
LINE
  5
282
330
21B
100
AcDbEntity
  8
DEFAULT_2
  6
HIDDEN
 62
     8
100
AcDbLine
 10
126.0541910929
 20
20.8765279066
 30
0.0
 11
126.0602663507
 21
20.8768869353
 31
0.0
  0
LINE
  5
283
330
21B
100
AcDbEntity
  8
DEFAULT_2
  6
HIDDEN
 62
     8
100
AcDbLine
 10
126.0495169755
 20
20.8762544848
 30
0.0
 11
126.0541910929
 21
20.8765279066
 31
0.0
  0
LINE
  5
284
330
21B
100
AcDbEntity
  8
DEFAULT_2
  6
HIDDEN
 62
     8
100
AcDbLine
 10
126.0460699589
 20
20.8760543499
 30
0.0
 11
126.0495169755
 21
20.8762544848
 31
0.0
  0
LINE
  5
285
330
21B
100
AcDbEntity
  8
DEFAULT_2
  6
HIDDEN
 62
     8
100
AcDbLine
 10
126.0426667558
 20
20.8758579751
 30
0.0
 11
126.0460699589
 21
20.8760543499
 31
0.0
  0
LINE
  5
286
330
21B
100
AcDbEntity
  8
DEFAULT_2
  6
HIDDEN
 62
     8
100
AcDbLine
 10
126.0393014299
 20
20.8756649425
 30
0.0
 11
126.0426667558
 21
20.8758579751
 31
0.0
  0
LINE
  5
287
330
21B
100
AcDbEntity
  8
DEFAULT_2
  6
HIDDEN
 62
     8
100
AcDbLine
 10
126.0370759033
 20
20.8755379046
 30
0.0
 11
126.0393014299
 21
20.8756649425
 31
0.0
  0
LINE
  5
288
330
21B
100
AcDbEntity
  8
DEFAULT_2
  6
HIDDEN
 62
     8
100
AcDbLine
 10
126.0337599736
 20
20.8753495133
 30
0.0
 11
126.0370759033
 21
20.8755379046
 31
0.0
  0
LINE
  5
289
330
21B
100
AcDbEntity
  8
DEFAULT_2
  6
HIDDEN
 62
     8
100
AcDbLine
 10
126.031561446
 20
20.8752251805
 30
0.0
 11
126.0337599736
 21
20.8753495133
 31
0.0
  0
LINE
  5
28A
330
21B
100
AcDbEntity
  8
DEFAULT_2
  6
HIDDEN
 62
     8
100
AcDbLine
 10
126.0282767998
 20
20.8750402576
 30
0.0
 11
126.031561446
 21
20.8752251805
 31
0.0
  0
LINE
  5
28B
330
21B
100
AcDbEntity
  8
DEFAULT_2
  6
HIDDEN
 62
     8
100
AcDbLine
 10
126.0260927775
 20
20.8749178397
 30
0.0
 11
126.0282767998
 21
20.8750402576
 31
0.0
  0
LINE
  5
28C
330
21B
100
AcDbEntity
  8
DEFAULT_2
  6
HIDDEN
 62
     8
100
AcDbLine
 10
126.0239108435
 20
20.8747959608
 30
0.0
 11
126.0260927775
 21
20.8749178397
 31
0.0
  0
LINE
  5
28D
330
21B
100
AcDbEntity
  8
DEFAULT_2
  6
HIDDEN
 62
     8
100
AcDbLine
 10
126.0217287659
 20
20.8746744881
 30
0.0
 11
126.0239108435
 21
20.8747959608
 31
0.0
  0
LINE
  5
28E
330
21B
100
AcDbEntity
  8
DEFAULT_2
  6
HIDDEN
 62
     8
100
AcDbLine
 10
126.0195442292
 20
20.8745532855
 30
0.0
 11
126.0217287659
 21
20.8746744881
 31
0.0
  0
LINE
  5
28F
330
21B
100
AcDbEntity
  8
DEFAULT_2
  6
HIDDEN
 62
     8
100
AcDbLine
 10
126.0173548636
 20
20.8744322159
 30
0.0
 11
126.0195442292
 21
20.8745532855
 31
0.0
  0
LINE
  5
290
330
21B
100
AcDbEntity
  8
DEFAULT_2
  6
HIDDEN
 62
     8
100
AcDbLine
 10
126.0140593637
 20
20.8742507181
 30
0.0
 11
126.0173548636
 21
20.8744322159
 31
0.0
  0
LWPOLYLINE
  5
291
330
21B
100
AcDbEntity
  8
DEFAULT_2
  6
HIDDEN
 62
     8
100
AcDbPolyline
 90
        3
 70
     0
 43
0.0
 10
126.0107501853
 20
20.8740693379
 10
126.0118547593
 20
20.8741297856
 10
126.0140593637
 20
20.8742507181
  0
LINE
  5
292
330
21B
100
AcDbEntity
  8
DEFAULT_2
  6
HIDDEN
 62
     8
100
AcDbLine
 10
126.0085364784
 20
20.8739484761
 30
0.0
 11
126.0107501853
 21
20.8740693379
 31
0.0
  0
LINE
  5
293
330
21B
100
AcDbEntity
  8
DEFAULT_2
  6
HIDDEN
 62
     8
100
AcDbLine
 10
126.0063166305
 20
20.8738276514
 30
0.0
 11
126.0085364784
 21
20.8739484761
 31
0.0
  0
LINE
  5
294
330
21B
100
AcDbEntity
  8
DEFAULT_2
  6
HIDDEN
 62
     8
100
AcDbLine
 10
126.0040905091
 20
20.8737068518
 30
0.0
 11
126.0063166305
 21
20.8738276514
 31
0.0
  0
LINE
  5
295
330
21B
100
AcDbEntity
  8
DEFAULT_2
  6
HIDDEN
 62
     8
100
AcDbLine
 10
126.0018579074
 20
20.8735860612
 30
0.0
 11
126.0040905091
 21
20.8737068518
 31
0.0
  0
LINE
  5
296
330
21B
100
AcDbEntity
  8
DEFAULT_2
  6
HIDDEN
 62
     8
100
AcDbLine
 10
125.9996185311
 20
20.8734652587
 30
0.0
 11
126.0018579074
 21
20.8735860612
 31
0.0
  0
LWPOLYLINE
  5
297
330
21B
100
AcDbEntity
  8
DEFAULT_2
  6
HIDDEN
 62
     8
100
AcDbPolyline
 90
        3
 70
     0
 43
0.0
 10
125.9962458674
 20
20.8732839735
 10
125.9973719849
 20
20.8733444181
 10
125.9996185311
 20
20.8734652587
  0
LINE
  5
298
330
21B
100
AcDbEntity
  8
DEFAULT_2
  6
HIDDEN
 62
     8
100
AcDbLine
 10
125.9939875583
 20
20.8731630122
 30
0.0
 11
125.9962458674
 21
20.8732839735
 31
0.0
  0
LWPOLYLINE
  5
299
330
21B
100
AcDbEntity
  8
DEFAULT_2
  6
HIDDEN
 62
     8
100
AcDbPolyline
 90
        3
 70
     0
 43
0.0
 10
125.9905834506
 20
20.8729813027
 10
125.991720521
 20
20.873041917
 10
125.9939875583
 20
20.8731630122
  0
LINE
  5
29A
330
21B
100
AcDbEntity
  8
DEFAULT_2
  6
HIDDEN
 62
     8
100
AcDbLine
 10
125.9883015337
 20
20.8728599021
 30
0.0
 11
125.9905834506
 21
20.8729813027
 31
0.0
  0
LWPOLYLINE
  5
29B
330
21B
100
AcDbEntity
  8
DEFAULT_2
  6
HIDDEN
 62
     8
100
AcDbPolyline
 90
        3
 70
     0
 43
0.0
 10
125.9848567223
 20
20.8726772299
 10
125.9860081698
 20
20.872738211
 10
125.9883015337
 20
20.8728599021
  0
LINE
  5
29C
330
21B
100
AcDbEntity
  8
DEFAULT_2
  6
HIDDEN
 62
     8
100
AcDbLine
 10
125.9825431616
 20
20.8725549342
 30
0.0
 11
125.9848567223
 21
20.8726772299
 31
0.0
  0
LWPOLYLINE
  5
29D
330
21B
100
AcDbEntity
  8
DEFAULT_2
  6
HIDDEN
 62
     8
100
AcDbPolyline
 90
        3
 70
     0
 43
0.0
 10
125.9790419525
 20
20.872370427
 10
125.9802135636
 20
20.8724320943
 10
125.9825431616
 20
20.8725549342
  0
LWPOLYLINE
  5
29E
330
21B
100
AcDbEntity
  8
DEFAULT_2
  6
HIDDEN
 62
     8
100
AcDbPolyline
 90
        3
 70
     0
 43
0.0
 10
125.9754952798
 20
20.8721841889
 10
125.9766831808
 20
20.8722464942
 10
125.9790419525
 20
20.872370427
  0
LWPOLYLINE
  5
29F
330
21B
100
AcDbEntity
  8
DEFAULT_2
  6
HIDDEN
 62
     8
100
AcDbPolyline
 90
        9
 70
     0
 43
0.0
 10
115.7758554265
 20
20.3440255265
 10
116.962962416
 20
20.4063023914
 10
118.1636939351
 20
20.46890462
 10
119.3587913806
 20
20.5309445841
 10
120.5653623993
 20
20.5933903923
 10
121.8024077203
 20
20.657273492
 10
123.0892006364
 20
20.7236182211
 10
124.4481000887
 20
20.7935948369
 10
125.942678938
 20
20.8704845237
  0
LWPOLYLINE
  5
2A0
330
21B
100
AcDbEntity
  8
DEFAULT_2
  6
HIDDEN
 62
     8
100
AcDbPolyline
 90
        3
 70
     0
 43
0.0
 10
125.9719148812
 20
20.8719968192
 10
125.9731086603
 20
20.8720592233
 10
125.9754952798
 20
20.8721841889
  0
LWPOLYLINE
  5
2A1
330
21B
100
AcDbEntity
  8
DEFAULT_2
  6
HIDDEN
 62
     8
100
AcDbPolyline
 90
        4
 70
     0
 43
0.0
 10
125.9671991922
 20
20.8717509462
 10
125.9683634572
 20
20.8718115589
 10
125.9695394808
 20
20.8718728435
 10
125.9719148812
 20
20.8719968192
  0
LWPOLYLINE
  5
2A2
330
21B
100
AcDbEntity
  8
DEFAULT_2
  6
HIDDEN
 62
     8
100
AcDbPolyline
 90
        4
 70
     0
 43
0.0
 10
125.9626778941
 20
20.8715160892
 10
125.9637886222
 20
20.8715737111
 10
125.9649120782
 20
20.8716320416
 10
125.9671991922
 20
20.8717509462
  0
LWPOLYLINE
  5
2A3
330
21B
100
AcDbEntity
  8
DEFAULT_2
  6
HIDDEN
 62
     8
100
AcDbPolyline
 90
        4
 70
     0
 43
0.0
 10
125.9583371794
 20
20.8712913269
 10
125.9594110523
 20
20.8713468724
 10
125.9604909473
 20
20.8714027679
 10
125.9626778941
 20
20.8715160892
  0
LWPOLYLINE
  5
2A4
330
21B
100
AcDbEntity
  8
DEFAULT_2
  6
HIDDEN
 62
     8
100
AcDbPolyline
 90
        7
 70
     0
 43
0.0
 10
125.950722062
 20
20.8708983791
 10
125.9518494801
 20
20.8709564653
 10
125.9529548439
 20
20.8710134419
 10
125.9540445449
 20
20.8710696392
 10
125.9551237446
 20
20.8711253245
 10
125.9561966476
 20
20.871180716
 10
125.9583371794
 20
20.8712913269
  0
LWPOLYLINE
  5
2A5
330
21B
100
AcDbEntity
  8
DEFAULT_2
  6
HIDDEN
 62
     8
100
AcDbPolyline
 90
        5
 70
     0
 43
0.0
 10
125.9445204839
 20
20.8705792281
 10
125.9458513678
 20
20.8706476814
 10
125.9471287012
 20
20.8707133952
 10
125.9483642601
 20
20.8707769783
 10
125.950722062
 20
20.8708983791
  0
LINE
  5
2A6
330
21B
100
AcDbEntity
  8
DEFAULT_2
  6
HIDDEN
 62
     8
100
AcDbLine
 10
125.9426490558
 20
20.8704829869
 30
0.0
 11
125.9445204839
 21
20.8705792281
 31
0.0
  0
LINE
  5
2A7
330
21B
100
AcDbEntity
  8
DEFAULT_2
  6
HIDDEN
 62
     8
100
AcDbLine
 10
115.0791034399
 20
19.8391166661
 30
0.0
 11
115.0780722943
 21
19.8391166661
 31
0.0
  0
LINE
  5
2A8
330
21B
100
AcDbEntity
  8
DEFAULT_2
  6
HIDDEN
 62
     8
100
AcDbLine
 10
115.0780722943
 20
19.8391166661
 30
0.0
 11
112.5372413666
 21
19.8391166661
 31
0.0
  0
LWPOLYLINE
  5
2A9
330
21B
100
AcDbEntity
  8
6_SURFACES
  6
HIDDEN
 62
     8
100
AcDbPolyline
 90
        9
 70
     0
 43
0.0
 10
101.6726347229
 20
20.8704845237
 10
103.1672135723
 20
20.7935948369
 10
104.5261130246
 20
20.7236182211
 10
105.8129059406
 20
20.657273492
 10
107.0499512616
 20
20.5933903923
 10
108.2565222803
 20
20.5309445841
 10
109.4516197259
 20
20.46890462
 10
110.6523512449
 20
20.4063023914
 10
111.8388277314
 20
20.3440598509
  0
LINE
  5
2AA
330
21B
100
AcDbEntity
  8
DEFAULT_2
  6
HIDDEN
 62
     8
100
AcDbLine
 10
101.5899729981
 20
20.8748757807
 30
0.0
 11
101.6726649095
 21
20.8704829712
 31
0.0
  0
LWPOLYLINE
  5
2AB
330
21B
100
AcDbEntity
  8
DEFAULT_2
  6
HIDDEN
 62
     8
100
AcDbPolyline
 90
       19
 70
     0
 43
0.0
 10
111.8388248983
 20
20.344059991
 10
111.8406912556
 20
20.3439523874
 10
111.8432437031
 20
20.3437775509
 10
111.8467185763
 20
20.3434920612
 10
111.8512386525
 20
20.3430424058
 10
111.8570647539
 20
20.3423352248
 10
111.8645552476
 20
20.3412164897
 10
111.8737269215
 20
20.3395241918
 10
111.8842289934
 20
20.3371435211
 10
111.8955685706
 20
20.3340277904
 10
111.9074340651
 20
20.3301383582
 10
111.9197365255
 20
20.3253924039
 10
111.9323779598
 20
20.319711711
 10
111.9452735143
 20
20.3130119332
 10
111.9583350618
 20
20.3052056474
 10
111.9714589748
 20
20.296208171
 10
111.9845270781
 20
20.2859381218
 10
111.9974075501
 20
20.2743170954
 10
112.0003745067
 20
20.2713991269
  0
LINE
  5
2AC
330
21B
100
AcDbEntity
  8
DEFAULT_2
  6
HIDDEN
 62
     8
100
AcDbLine
 10
101.5474777599
 20
20.8773403161
 30
0.0
 11
101.5899729981
 21
20.8748757807
 31
0.0
  0
LINE
  5
2AD
330
21B
100
AcDbEntity
  8
DEFAULT_2
  6
HIDDEN
 62
     8
100
AcDbLine
 10
101.5162251588
 20
20.8792919786
 30
0.0
 11
101.5474777599
 21
20.8773403161
 31
0.0
  0
LINE
  5
2AE
330
21B
100
AcDbEntity
  8
DEFAULT_2
  6
HIDDEN
 62
     8
100
AcDbLine
 10
101.4897765166
 20
20.8810622769
 30
0.0
 11
101.5162251588
 21
20.8792919786
 31
0.0
  0
LINE
  5
2AF
330
21B
100
AcDbEntity
  8
DEFAULT_2
  6
HIDDEN
 62
     8
100
AcDbLine
 10
101.4685765371
 20
20.8825769931
 30
0.0
 11
101.4897765166
 21
20.8810622769
 31
0.0
  0
LINE
  5
2B0
330
21B
100
AcDbEntity
  8
DEFAULT_2
  6
HIDDEN
 62
     8
100
AcDbLine
 10
101.4503714865
 20
20.8839579008
 30
0.0
 11
101.4685765371
 21
20.8825769931
 31
0.0
  0
LINE
  5
2B1
330
21B
100
AcDbEntity
  8
DEFAULT_2
  6
HIDDEN
 62
     8
100
AcDbLine
 10
101.433942947
 20
20.8852771221
 30
0.0
 11
101.4503714865
 21
20.8839579008
 31
0.0
  0
LINE
  5
2B2
330
21B
100
AcDbEntity
  8
DEFAULT_2
  6
HIDDEN
 62
     8
100
AcDbLine
 10
101.4194985924
 20
20.8865015955
 30
0.0
 11
101.433942947
 21
20.8852771221
 31
0.0
  0
LINE
  5
2B3
330
21B
100
AcDbEntity
  8
DEFAULT_2
  6
HIDDEN
 62
     8
100
AcDbLine
 10
101.4057368777
 20
20.8877307612
 30
0.0
 11
101.4194985924
 21
20.8865015955
 31
0.0
  0
LINE
  5
2B4
330
21B
100
AcDbEntity
  8
DEFAULT_2
  6
HIDDEN
 62
     8
100
AcDbLine
 10
101.3928796123
 20
20.8889398369
 30
0.0
 11
101.4057368777
 21
20.8877307612
 31
0.0
  0
LINE
  5
2B5
330
21B
100
AcDbEntity
  8
DEFAULT_2
  6
HIDDEN
 62
     8
100
AcDbLine
 10
101.3811596405
 20
20.8900976414
 30
0.0
 11
101.3928796123
 21
20.8889398369
 31
0.0
  0
LINE
  5
2B6
330
21B
100
AcDbEntity
  8
DEFAULT_2
  6
HIDDEN
 62
     8
100
AcDbLine
 10
101.3708222393
 20
20.8911663919
 30
0.0
 11
101.3811596405
 21
20.8900976414
 31
0.0
  0
LINE
  5
2B7
330
21B
100
AcDbEntity
  8
DEFAULT_2
  6
HIDDEN
 62
     8
100
AcDbLine
 10
101.3643321654
 20
20.8918615349
 30
0.0
 11
101.3708222393
 21
20.8911663919
 31
0.0
  0
LINE
  5
2B8
330
21B
100
AcDbEntity
  8
5_AXIS
  6
HIDDEN
 62
     8
100
AcDbLine
 10
112.3594335258
 20
19.9123399708
 30
0.0
 11
112.0003703312
 21
20.2714031653
 31
0.0
  0
LWPOLYLINE
  5
2B9
330
21B
100
AcDbEntity
  8
DEFAULT_2
  6
HIDDEN
 62
     8
100
AcDbPolyline
 90
        5
 70
     0
 43
0.0
 10
95.76355878420001
 20
43.7608628213
 10
95.7676620039
 20
43.7572066516
 10
95.785236379
 20
43.7371926456
 10
95.80808160040001
 20
43.6988683272
 10
95.82336550959999
 20
43.65706046039999
  0
LINE
  5
2BA
330
21B
100
AcDbEntity
  8
5_AXIS_CHROMO_INV
  6
CENTER
 62
     7
100
AcDbLine
 10
113.8076568305
 20
21.205090407
 30
0.0
 11
113.8076568305
 21
19.0197371702
 31
0.0
  0
LINE
  5
2BC
330
21B
100
AcDbEntity
  8
0
  6
Continuous
 62
     9
100
AcDbLine
 10
113.8076568305
 20
16.2141166661
 30
0.0
 11
113.8076568305
 21
46.07226777939999
 31
0.0
  0
LINE
  5
2BD
330
21B
100
AcDbEntity
  8
0
  6
Continuous
 62
     9
100
AcDbLine
 10
113.8076568305
 20
46.19893850779999
 30
0.0
 11
113.8076568301
 21
46.1997307146
 31
0.0
  0
LWPOLYLINE
  5
2BE
330
21B
100
AcDbEntity
  8
0
  6
Continuous
 62
     7
100
AcDbPolyline
 90
       34
 70
     0
 43
0.0
 10
131.8517063706
 20
43.76082789689999
 10
131.835089276
 20
43.7508519326
 10
131.7891918633
 20
43.72926542840001
 10
131.7119438414
 20
43.7006033618
 10
131.6026401495999
 20
43.66802069560001
 10
131.458625771
 20
43.6330390333
 10
131.2766569081
 20
43.5966901368
 10
131.0549586049
 20
43.5600389284
 10
130.7925624852
 20
43.5239589717
 10
130.4892477601
 20
43.4891393983
 10
130.1462517494
 20
43.4561705576
 10
129.7666363386
 20
43.4255414752
 10
129.3549177414
 20
43.39758820319999
 10
128.9161789489
 20
43.3724602864
 10
128.4527190639
 20
43.3500256908
 10
127.965833908
 20
43.33009067089999
 10
127.4566756092
 20
43.3124651814
 10
126.9267689198
 20
43.29697820279999
 10
126.3784540689
 20
43.28347782409999
 10
125.814207654
 20
43.271804829
 10
125.2358167457
 20
43.2617830191
 10
124.6446476261
 20
43.25323682439999
 10
124.0419840984
 20
43.24600093449999
 10
123.4289412679
 20
43.2399199705
 10
122.8065537475
 20
43.234850155
 10
122.1757266568
 20
43.2306589742
 10
121.5371415612
 20
43.2272248851
 10
120.8913896729
 20
43.22443823079999
 10
120.2390118982
 20
43.22220080890001
 10
119.580521299
 20
43.22042524819999
 10
118.9163831974
 20
43.2190343682
 10
118.2470244212
 20
43.21796070109999
 10
117.5728050744
 20
43.21714599289999
 10
116.9078635613
 20
43.21655158939999
  0
LINE
  5
2BF
330
21B
100
AcDbEntity
  8
0
  6
Continuous
 62
     7
100
AcDbLine
 10
95.76360732419999
 20
43.7608278727
 30
0.0
 11
95.76355861839999
 21
43.7608625887
 31
0.0
  0
LINE
  5
2C0
330
21B
100
AcDbEntity
  8
0
  6
Continuous
 62
     7
100
AcDbLine
 10
131.8517063706
 20
43.76082789689999
 30
0.0
 11
131.8517549275
 21
43.7608625067
 31
0.0
  0
LINE
  5
2C1
330
21B
100
AcDbEntity
  8
DEFAULT_2
  6
HIDDEN
 62
     8
100
AcDbLine
 10
115.6149433297
 20
20.2714031653
 30
0.0
 11
115.2558801352
 21
19.9123399708
 31
0.0
  0
LWPOLYLINE
  5
2C2
330
21B
100
AcDbEntity
  8
DEFAULT_2
  6
HIDDEN
 62
     8
100
AcDbPolyline
 90
       20
 70
     0
 43
0.0
 10
115.6149391521
 20
20.2713991248
 10
115.6231446545
 20
20.2792402307
 10
115.6332137895
 20
20.2879537354
 10
115.6436928249
 20
20.2960893549
 10
115.6544974798
 20
20.3035975665
 10
115.6655365194
 20
20.3104415866
 10
115.6767130148
 20
20.3165976346
 10
115.6879246852
 20
20.3220545903
 10
115.6990815589
 20
20.3268206786
 10
115.7100393827
 20
20.3308955319
 10
115.7206171503
 20
20.3342879372
 10
115.7306518335
 20
20.3370350963
 10
115.7399735208
 20
20.3391894776
 10
115.7484133056
 20
20.3408177081
 10
115.7558574121
 20
20.3420036538
 10
115.7621557408
 20
20.3428252269
 10
115.7672323297
 20
20.3433657008
 10
115.7710822832
 20
20.3437018497
 10
115.7738874237
 20
20.343905196
 10
115.7758554265
 20
20.3440255265
  0
LINE
  5
2C3
330
21B
100
AcDbEntity
  8
0
  6
Continuous
 62
     9
100
AcDbLine
 10
110.7074500993
 20
43.2165511333
 30
0.0
 11
110.707164956
 21
43.2165486664
 31
0.0
  0
LWPOLYLINE
  5
2C4
330
21B
100
AcDbEntity
  8
0
  6
Continuous
 62
     7
100
AcDbPolyline
 90
        6
 70
     0
 43
0.0
 10
116.9078634099
 20
43.2165511332
 10
116.3006977147
 20
43.21615344749999
 10
115.6755730887
 20
43.2158609851
 10
115.0486218328
 20
43.21566651189999
 10
114.4209087322
 20
43.2155561431
 10
113.8076575703
 20
43.21552130159999
  0
LINE
  5
2C5
330
21B
100
AcDbEntity
  8
DEFAULT_1
  6
CENTER
 62
     7
100
AcDbLine
 10
116.8743234971
 20
41.7336624977
 30
0.0
 11
110.7409901638
 21
41.7336624977
 31
0.0
  0
LINE
  5
2C6
330
21B
100
AcDbEntity
  8
DEFAULT_2
  6
HIDDEN
 62
     8
100
AcDbLine
 10
112.4951568305
 20
41.8216868856
 30
0.0
 11
115.1201568305
 21
41.8216868856
 31
0.0
  0
LINE
  5
2C7
330
21B
100
AcDbEntity
  8
DEFAULT_2
  6
HIDDEN
 62
     8
100
AcDbLine
 10
115.1201568305
 20
41.8330738582
 30
0.0
 11
112.4951568305
 21
41.8330738582
 31
0.0
  0
LWPOLYLINE
  5
2C8
330
21B
100
AcDbEntity
  8
0
  6
Continuous
 62
     7
100
AcDbPolyline
 90
        6
 70
     0
 43
0.0
 10
113.8076560906
 20
43.21552130159999
 10
113.1944049287
 20
43.2155561431
 10
112.5666918281
 20
43.21566651189999
 10
111.9397405722
 20
43.2158609851
 10
111.3146159463
 20
43.21615344749999
 10
110.707450251
 20
43.2165511332
  0
LWPOLYLINE
  5
2C9
330
21B
100
AcDbEntity
  8
0
  6
Continuous
 62
     7
100
AcDbPolyline
 90
       34
 70
     0
 43
0.0
 10
110.7074500996
 20
43.21655158939999
 10
110.0423126341
 20
43.2171461964
 10
109.3678998784
 20
43.2179612431
 10
108.6983505993
 20
43.2190354309
 10
108.0340253708
 20
43.2204270704
 10
107.3753515098
 20
43.2222036981
 10
106.7227948851
 20
43.22444257409999
 10
106.0768690993
 20
43.22723116159999
 10
105.4381153173
 20
43.2306677705
 10
104.8071250177
 20
43.2348621818
 10
104.184580545
 20
43.23993607689999
 10
103.5713894467
 20
43.2460221071
 10
102.9685888596
 20
43.2532641904
 10
102.3772955547
 20
43.2618178597
 10
101.7987905734
 20
43.2718486671
 10
101.2344368429
 20
43.28353250399999
 10
100.6860304633
 20
43.2970456529
 10
100.1560689569
 20
43.31254690539999
 10
99.6469049913
 20
43.33018760939999
 10
99.16003640870002
 20
43.350139573
 10
98.6965785908
 20
43.37259485239999
 10
98.25780153549999
 20
43.39774994989999
 10
97.84603202820001
 20
43.4257372785
 10
97.4664685303
 20
43.4563990388
 10
97.123710774
 20
43.48938696729999
 10
96.82085530120001
 20
43.5241973752
 10
96.55904365059999
 20
43.560236837
 10
96.3378996235
 20
43.5968278677
 10
96.15635096850001
 20
43.6331133384
 10
96.0125821555
 20
43.668045306
 10
95.90338894629999
 20
43.7005969922
 10
95.82615783909998
 20
43.7292503037
 10
95.78023435909999
 20
43.7508465279
 10
95.76360732419999
 20
43.7608278727
  0
LINE
  5
2CA
330
21B
100
AcDbEntity
  8
0
  6
Continuous
 62
     9
100
AcDbLine
 10
116.9078635616
 20
43.2165511333
 30
0.0
 11
116.908148705
 21
43.2165486664
 31
0.0
  0
LWPOLYLINE
  5
2CB
330
21B
100
AcDbEntity
  8
DEFAULT_2
  6
HIDDEN
 62
     8
100
AcDbPolyline
 90
        5
 70
     0
 43
0.0
 10
131.7919463169
 20
43.65705361609999
 10
131.8074700643
 20
43.699372455
 10
131.8302268678
 20
43.7373922624
 10
131.8476902475
 20
43.75724299359999
 10
131.8517547617
 20
43.76086273939999
  0
LWPOLYLINE
  5
2CC
330
21B
100
AcDbEntity
  8
DEFAULT_2
  6
HIDDEN
 62
     8
100
AcDbPolyline
 90
       15
 70
     0
 43
0.0
 10
127.2859686154
 20
21.9952742822
 10
127.4682398622
 20
23.4890241614
 10
127.7500520822
 20
25.4586398823
 10
128.0707537533
 20
27.4142374756
 10
128.4173222917
 20
29.3183986883
 10
128.7757572208
 20
31.1342454332
 10
129.1343293498
 20
32.8382132692
 10
129.4898812433
 20
34.4433225967
 10
129.8420996077
 20
35.9678223295
 10
130.1906129272
 20
37.4241321086
 10
130.5338924601
 20
38.8165840619
 10
130.8702180678
 20
40.14687002699999
 10
131.1979949627
 20
41.4157812409
 10
131.5166284141
 20
42.62669677819999
 10
131.791918044
 20
43.6569454825
  0
LWPOLYLINE
  5
2CD
330
21B
100
AcDbEntity
  8
0
  6
Continuous
 62
     7
100
AcDbPolyline
 90
       39
 70
     0
 43
0.0
 10
113.8076568301
 20
46.1997307146
 10
113.1091039186
 20
46.1977663959
 10
112.3958112139
 20
46.1917028
 10
111.6833160243
 20
46.1815403527
 10
110.972060477
 20
46.16728214770001
 10
110.2625021827
 20
46.1489331334
 10
109.5552122576
 20
46.12650370939999
 10
108.8508279037
 20
46.1000106951
 10
108.149940814
 20
46.0694736354
 10
107.4530882321
 20
46.0349123781
 10
106.7609198359
 20
45.99635446949999
 10
106.0743368584
 20
45.9538467489
 10
105.3943155896
 20
45.90744968470001
 10
104.7218693439
 20
45.8572358733
 10
104.0580630878
 20
45.8032914351
 10
103.4040346639
 20
45.7457184914
 10
102.7609649486
 20
45.68463340189999
 10
102.1300753001
 20
45.62016653989999
 10
101.5127222244
 20
45.55247282749999
 10
100.9104505662
 20
45.48174155569999
 10
100.3248244756
 20
45.4081803624
 10
99.75741104469999
 20
45.33201232409999
 10
99.2097952624
 20
45.25347668560001
 10
98.68357287100002
 20
45.17282676779999
 10
98.1803420191
 20
45.0903270864
 10
97.70189168299999
 20
45.00628543699999
 10
97.2503927988
 20
44.921100653
 10
96.82789113890001
 20
44.8351854304
 10
96.43600339110001
 20
44.7488960138
 10
96.07510985160001
 20
44.66229886979999
 10
95.74558278359999
 20
44.5753583781
 10
95.44858804909999
 20
44.488119129
 10
95.18785841219999
 20
44.4013825962
 10
94.9668459021
 20
44.3161743814
 10
94.7868174831
 20
44.23311255439999
 10
94.6466643117
 20
44.15193515489999
 10
94.54337707929999
 20
44.07066429069999
 10
94.47399670639999
 20
43.9841366726
 10
94.44216569299999
 20
43.886990468
  0
LINE
  5
2CE
330
21B
100
AcDbEntity
  8
6_SURFACES
  6
Continuous
 62
     7
100
AcDbLine
 10
130.7854855431
 20
16.5564339208
 30
0.0
 11
133.1732626357
 21
43.8493289355
 31
0.0
  0
LINE
  5
2CF
330
21B
100
AcDbEntity
  8
0
  6
Continuous
 62
     7
100
AcDbLine
 10
133.1731494777
 20
43.8481109833
 30
0.0
 11
133.173262631
 21
43.8493288817
 31
0.0
  0
LWPOLYLINE
  5
2D0
330
21B
100
AcDbEntity
  8
0
  6
Continuous
 62
     7
100
AcDbPolyline
 90
       40
 70
     0
 43
0.0
 10
133.1731489732
 20
43.8481084838
 10
133.1731486453
 20
43.88698350529999
 10
133.1413242054
 20
43.9841239892
 10
133.0719540492
 20
44.0706475124
 10
132.9686809955
 20
44.1519140725
 10
132.8285457863
 20
44.2330870963
 10
132.6485373108
 20
44.3161451877
 10
132.4275453415
 20
44.40135044539999
 10
132.166837669
 20
44.4880841985
 10
131.8698684532
 20
44.5753201642
 10
131.5403705624
 20
44.6622569805
 10
131.1795086531
 20
44.74885046539999
 10
130.787653949
 20
44.83513649899999
 10
130.3651866801
 20
44.92104861739999
 10
129.9137234455
 20
45.0062305804
 10
129.4353091382
 20
45.0902698335
 10
128.9321134249
 20
45.1727677139
 10
128.4059245309
 20
45.25341648149999
 10
127.8583409788
 20
45.3319515041
 10
127.2909590812
 20
45.40811934359999
 10
126.7053645597
 20
45.4816806434
 10
126.1031257363
 20
45.552412186
 10
125.4858082536
 20
45.6201062022
 10
124.854958279
 20
45.68457332869999
 10
124.2119320532
 20
45.7456587512
 10
123.5579504044
 20
45.8032322152
 10
122.8941935656
 20
45.85717747189999
 10
122.2217984681
 20
45.9073925108
 10
121.541828858
 20
45.9537913189
 10
120.8552969046
 20
45.9963013723
 10
120.1631776701
 20
46.03486225189999
 10
119.4663710677
 20
46.06942714379999
 10
118.7655254565
 20
46.0999684992
 10
118.0611769437
 20
46.1264664333
 10
117.3539182241
 20
46.1489012771
 10
116.644389334
 20
46.16725607
 10
115.9331633712
 20
46.1815203534
 10
115.220697826
 20
46.19168919119999
 10
114.5074344444
 20
46.1977595012
 10
113.8076568301
 20
46.1997307146
  0
ARC
  5
186F
330
21B
100
AcDbEntity
  8
0
  6
Continuous
 62
     9
100
AcDbCircle
 10
116.0459651769
 20
1535.8774188941
 30
0.0
 40
1492.6611190048
100
AcDbArc
 50
270.0330949064
 51
270.1607344654
  0
ARC
  5
1870
330
21B
100
AcDbEntity
  8
0
  6
Continuous
 62
     9
100
AcDbCircle
 10
111.5691755682
 20
1535.7461832108
 30
0.0
 40
1492.5298832435
100
AcDbArc
 50
269.8392392977
 51
269.9669088215
  0
ARC
  5
1871
330
21B
100
AcDbEntity
  8
DEFAULT_2
  6
HIDDEN
 62
     8
100
AcDbCircle
 10
98.59919734209999
 20
91.81599205879999
 30
0.0
 40
50.3028614339
100
AcDbArc
 50
270.5949585091
 51
272.1567971905
  0
ARC
  5
1872
330
21B
100
AcDbEntity
  8
DEFAULT_2
  6
HIDDEN
 62
     8
100
AcDbCircle
 10
129.0161163189
 20
91.81599205879999
 30
0.0
 40
50.3028614339
100
AcDbArc
 50
267.8432028095
 51
269.4050414909
  0
ARC
  5
1873
330
21B
100
AcDbEntity
  8
0
  6
Continuous
 62
     9
100
AcDbCircle
 10
95.54786425499999
 20
43.4580525566
 30
0.0
 40
0.3717766771
100
AcDbArc
 50
54.5373805425
 51
90.29874770110001
  0
ARC
  5
1874
330
21B
100
AcDbEntity
  8
0
  6
Continuous
 62
     9
100
AcDbCircle
 10
132.0674494058
 20
43.45805255720001
 30
0.0
 40
0.3717766764999999
100
AcDbArc
 50
89.70125227969999
 51
125.4626412525
  0
ARC
  5
1875
330
21B
100
AcDbEntity
  8
DEFAULT_2
  6
HIDDEN
 62
     8
100
AcDbCircle
 10
115.0791034399
 20
20.0891166661
 30
0.0
 40
0.25
100
AcDbArc
 50
270.0
 51
315.0
  0
ARC
  5
1876
330
21B
100
AcDbEntity
  8
DEFAULT_2
  6
HIDDEN
 62
     8
100
AcDbCircle
 10
112.5362102211
 20
20.0891166661
 30
0.0
 40
0.25
100
AcDbArc
 50
225.0
 51
270.0
  0
ARC
  5
1877
330
21B
100
AcDbEntity
  8
0
  6
Continuous
 62
     7
100
AcDbCircle
 10
94.56750126870002
 20
43.838671168
 30
0.0
 40
0.1241608682
100
AcDbArc
 50
196.4721154441999
 51
199.0198187511
  0
ARC
  5
1878
330
21B
100
AcDbEntity
  8
0
  6
Continuous
 62
     7
100
AcDbCircle
 10
133.0478123922
 20
43.83867116810001
 30
0.0
 40
0.1241608682
100
AcDbArc
 50
340.9801812496
 51
343.5278845557
  0
ARC
  5
1879
330
21B
100
AcDbEntity
  8
0
  6
Continuous
 62
     7
100
AcDbCircle
 10
133.0553484806
 20
43.8364932022
 30
0.0
 40
0.1163464525
100
AcDbArc
 50
355.0513611387
 51
5.437734799299999
  0
SPLINE
  5
18D9
330
21B
100
AcDbEntity
  8
DEFAULT_2
  6
HIDDEN
 62
     8
100
AcDbSpline
210
0.0
220
0.0
230
1.0
 70
     8
 71
     3
 72
    14
 73
    10
 74
     0
 42
0.0000001
 43
0.0000000001
 40
0.0
 40
0.0
 40
0.0
 40
0.0
 40
0.3016708158
 40
0.4424286795000001
 40
0.5744406939
 40
0.6966491806000001
 40
0.8084240154999999
 40
0.9095238323
 40
1.0
 40
1.0
 40
1.0
 40
1.0
 10
110.8903113985
 20
41.7473634146
 30
0.0
 10
109.8444961439
 20
41.74171671599999
 30
0.0
 10
108.3107257253
 20
41.72892749929999
 30
0.0
 10
106.3194403598
 20
41.7017499792
 30
0.0
 10
104.9503366017
 20
41.6778502091
 30
0.0
 10
103.6817994355
 20
41.6503889266
 30
0.0
 10
102.5205324846
 20
41.61982823619999
 30
0.0
 10
101.4693965513
 20
41.5866409803
 30
0.0
 10
100.8057047576
 20
41.56170499929999
 30
0.0
 10
100.4923095253
 20
41.5487662223
 30
0.0
  0
SPLINE
  5
18DA
330
21B
100
AcDbEntity
  8
DEFAULT_2
  6
HIDDEN
 62
     8
100
AcDbSpline
210
0.0
220
0.0
230
1.0
 70
     8
 71
     3
 72
    14
 73
    10
 74
     0
 42
0.0000001
 43
0.0000000001
 40
0.0
 40
0.0
 40
0.0
 40
0.0
 40
0.3016708158
 40
0.4424286795000001
 40
0.5744406939
 40
0.6966491806000001
 40
0.8084240154999999
 40
0.9095238323
 40
1.0
 40
1.0
 40
1.0
 40
1.0
 10
116.7250022624
 20
41.7473634146
 30
0.0
 10
117.7708175171
 20
41.74171671599999
 30
0.0
 10
119.3045879356
 20
41.72892749929999
 30
0.0
 10
121.2958733011
 20
41.7017499792
 30
0.0
 10
122.6649770593
 20
41.6778502091
 30
0.0
 10
123.9335142254
 20
41.6503889266
 30
0.0
 10
125.0947811764
 20
41.61982823619999
 30
0.0
 10
126.1459171096
 20
41.5866409803
 30
0.0
 10
126.8096089034
 20
41.56170499929999
 30
0.0
 10
127.1230041357
 20
41.5487662223
 30
0.0
  0
SPLINE
  5
18DB
330
21B
100
AcDbEntity
  8
DEFAULT_2
  6
HIDDEN
 62
     8
100
AcDbSpline
210
0.0
220
0.0
230
1.0
 70
     8
 71
     3
 72
    22
 73
    18
 74
     0
 42
0.0000001
 43
0.0000000001
 40
0.0
 40
0.0
 40
0.0
 40
0.0
 40
0.0084458773
 40
0.018145691
 40
0.0291654891
 40
0.0414999394
 40
0.0699852106
 40
0.1033255418
 40
0.1414509746
 40
0.1845683243
 40
0.2330684158
 40
0.2874152101
 40
0.3481215968
 40
0.4158538775000001
 40
0.5754018117000001
 40
0.7710121920000001
 40
1.0
 40
1.0
 40
1.0
 40
1.0
 10
96.46330908620001
 20
41.53370136239999
 30
0.0
 10
96.4705396163
 20
41.5356447378
 30
0.0
 10
96.48633669620002
 20
41.5388399694
 30
0.0
 10
96.51199916700001
 20
41.5420660456
 30
0.0
 10
96.54121469639999
 20
41.54440951139999
 30
0.0
 10
96.5871186018
 20
41.54666364479999
 30
0.0
 10
96.65286418610001
 20
41.54779752119999
 30
0.0
 10
96.7414701116
 20
41.54723555079999
 30
0.0
 10
96.84302981200001
 20
41.5453158842
 30
0.0
 10
96.95800826530001
 20
41.54240900709999
 30
0.0
 10
97.0873543749
 20
41.5388490765
 30
0.0
 10
97.2322865905
 20
41.5348470953
 30
0.0
 10
97.39426789540001
 20
41.53061295709999
 30
0.0
 10
97.64949141889999
 20
41.52453659959999
 30
0.0
 10
98.0243124921
 20
41.51735873799999
 30
0.0
 10
98.5421364297
 20
41.5124394109
 30
0.0
 10
98.91854850600001
 20
41.5137707067
 30
0.0
 10
99.12153210840001
 20
41.51584260749999
 30
0.0
  0
SPLINE
  5
18DC
330
21B
100
AcDbEntity
  8
DEFAULT_2
  6
HIDDEN
 62
     8
100
AcDbSpline
210
0.0
220
0.0
230
1.0
 70
     8
 71
     3
 72
    22
 73
    18
 74
     0
 42
0.0000001
 43
0.0000000001
 40
0.0
 40
0.0
 40
0.0
 40
0.0
 40
0.0084458773
 40
0.018145691
 40
0.0291654891
 40
0.0414999394
 40
0.0699852106
 40
0.1033255418
 40
0.1414509746
 40
0.1845683243
 40
0.2330684158
 40
0.2874152101
 40
0.3481215968
 40
0.4158538775000001
 40
0.5754018117000001
 40
0.7710121920000001
 40
1.0
 40
1.0
 40
1.0
 40
1.0
 10
131.1520045747
 20
41.53370136239999
 30
0.0
 10
131.1447740446
 20
41.5356447378
 30
0.0
 10
131.1289769647
 20
41.5388399694
 30
0.0
 10
131.103314494
 20
41.5420660456
 30
0.0
 10
131.0740989645
 20
41.54440951139999
 30
0.0
 10
131.0281950591
 20
41.54666364479999
 30
0.0
 10
130.9624494749
 20
41.54779752119999
 30
0.0
 10
130.8738435494
 20
41.54723555079999
 30
0.0
 10
130.7722838489
 20
41.5453158842
 30
0.0
 10
130.6573053957
 20
41.54240900709999
 30
0.0
 10
130.527959286
 20
41.5388490765
 30
0.0
 10
130.3830270705
 20
41.5348470953
 30
0.0
 10
130.2210457656
 20
41.53061295709999
 30
0.0
 10
129.965822242
 20
41.52453659959999
 30
0.0
 10
129.5910011688
 20
41.51735873799999
 30
0.0
 10
129.0731772313
 20
41.5124394109
 30
0.0
 10
128.696765155
 20
41.5137707067
 30
0.0
 10
128.4937815526
 20
41.51584260749999
 30
0.0
  0
SPLINE
  5
18DD
330
21B
100
AcDbEntity
  8
DEFAULT_2
  6
HIDDEN
 62
     8
100
AcDbSpline
210
0.0
220
0.0
230
1.0
 70
     8
 71
     3
 72
    37
 73
    33
 74
     0
 42
0.0000001
 43
0.0000000001
 40
0.0
 40
0.0
 40
0.0
 40
0.0
 40
0.097866295
 40
0.1947904228
 40
0.2898400605
 40
0.3821004342
 40
0.4706837707
 40
0.5547378511
 40
0.633454233
 40
0.7060760836
 40
0.7719055945000001
 40
0.8303109752999999
 40
0.8565518888999999
 40
0.8807330323999998
 40
0.9027968272999999
 40
0.9226910098999999
 40
0.9403688729999998
 40
0.9557895862
 40
0.9689186612
 40
0.9746151098
 40
0.9797290529000001
 40
0.9842586292
 40
0.9882026471999999
 40
0.9915612901999999
 40
0.9943365345
 40
0.9965340054
 40
0.9974201987
 40
0.9981684901999999
 40
0.9987844992999999
 40
0.9992785053
 40
0.9996705673000001
 40
1.0
 40
1.0
 40
1.0
 40
1.0
 10
115.1201568305
 20
41.72630023099999
 30
0.0
 10
115.1293459605
 20
41.72630023099999
 30
0.0
 10
115.1476357649
 20
41.7263236386
 30
0.0
 10
115.1748500475
 20
41.72642879499999
 30
0.0
 10
115.2015376026
 20
41.7266028956
 30
0.0
 10
115.2274414478
 20
41.72684421
 30
0.0
 10
115.2523121126
 20
41.7271503311
 30
0.0
 10
115.2759100919
 20
41.7275181804
 30
0.0
 10
115.298008144
 20
41.72794404349999
 30
0.0
 10
115.3183934899
 20
41.72842349409999
 30
0.0
 10
115.3368698403
 20
41.72895163739999
 30
0.0
 10
115.3509903126
 20
41.7294432188
 30
0.0
 10
115.3612000252
 20
41.729863408
 30
0.0
 10
115.3679989112
 20
41.7301760577
 30
0.0
 10
115.3742007848
 20
41.7304966865
 30
0.0
 10
115.3797907286
 20
41.7308244347
 30
0.0
 10
115.3847553419
 20
41.7311582584
 30
0.0
 10
115.3890827167
 20
41.7314971912
 30
0.0
 10
115.3922846407
 20
41.7317949506
 30
0.0
 10
115.3945191061
 20
41.7320397991
 30
0.0
 10
115.3959487539
 20
41.7322153929
 30
0.0
 10
115.3972124137
 20
41.73239151279999
 30
0.0
 10
115.3983093858
 20
41.73256798479999
 30
0.0
 10
115.399239272
 20
41.73274437699999
 30
0.0
 10
115.4000016388
 20
41.73292050469999
 30
0.0
 10
115.4005302815
 20
41.73307519459999
 30
0.0
 10
115.4008666611
 20
41.73320348139999
 30
0.0
 10
115.4010585126
 20
41.73329259399999
 30
0.0
 10
115.4012090598
 20
41.7333816458
 30
0.0
 10
115.4013188913
 20
41.7334712934
 30
0.0
 10
115.4013891038
 20
41.7335634364
 30
0.0
 10
115.4014068305
 20
41.7336315657
 30
0.0
 10
115.4014068305
 20
41.7336624977
 30
0.0
  0
SPLINE
  5
18DE
330
21B
100
AcDbEntity
  8
DEFAULT_2
  6
HIDDEN
 62
     8
100
AcDbSpline
210
0.0
220
0.0
230
1.0
 70
     8
 71
     3
 72
    37
 73
    33
 74
     0
 42
0.0000001
 43
0.0000000001
 40
0.0
 40
0.0
 40
0.0
 40
0.0
 40
0.097866295
 40
0.1947904228
 40
0.2898400605
 40
0.3821004342
 40
0.4706837707
 40
0.5547378511
 40
0.633454233
 40
0.7060760836
 40
0.7719055945000001
 40
0.8303109752999999
 40
0.8565518888999999
 40
0.8807330323999998
 40
0.9027968272999999
 40
0.9226910098999999
 40
0.9403688729999998
 40
0.9557895862
 40
0.9689186612
 40
0.9746151098
 40
0.9797290529000001
 40
0.9842586292
 40
0.9882026471999999
 40
0.9915612901999999
 40
0.9943365345
 40
0.9965340054
 40
0.9974201987
 40
0.9981684901999999
 40
0.9987844992999999
 40
0.9992785053
 40
0.9996705673000001
 40
1.0
 40
1.0
 40
1.0
 40
1.0
 10
112.4951568305
 20
41.72630023099999
 30
0.0
 10
112.4859677004
 20
41.72630023099999
 30
0.0
 10
112.4676778961
 20
41.7263236386
 30
0.0
 10
112.4404636134
 20
41.72642879499999
 30
0.0
 10
112.4137760583
 20
41.7266028956
 30
0.0
 10
112.3878722131
 20
41.72684421
 30
0.0
 10
112.3630015483
 20
41.7271503311
 30
0.0
 10
112.339403569
 20
41.7275181804
 30
0.0
 10
112.3173055169
 20
41.72794404349999
 30
0.0
 10
112.2969201711
 20
41.72842349409999
 30
0.0
 10
112.2784438206
 20
41.72895163739999
 30
0.0
 10
112.2643233484
 20
41.7294432188
 30
0.0
 10
112.2541136358
 20
41.729863408
 30
0.0
 10
112.2473147497
 20
41.7301760577
 30
0.0
 10
112.2411128761
 20
41.7304966865
 30
0.0
 10
112.2355229323
 20
41.7308244347
 30
0.0
 10
112.2305583191
 20
41.7311582584
 30
0.0
 10
112.2262309443
 20
41.7314971912
 30
0.0
 10
112.2230290202
 20
41.7317949506
 30
0.0
 10
112.2207945548
 20
41.7320397991
 30
0.0
 10
112.219364907
 20
41.7322153929
 30
0.0
 10
112.2181012472
 20
41.73239151279999
 30
0.0
 10
112.2170042751
 20
41.73256798479999
 30
0.0
 10
112.2160743889
 20
41.73274437699999
 30
0.0
 10
112.2153120221
 20
41.73292050469999
 30
0.0
 10
112.2147833794
 20
41.73307519459999
 30
0.0
 10
112.2144469999
 20
41.73320348139999
 30
0.0
 10
112.2142551483
 20
41.73329259399999
 30
0.0
 10
112.2141046012
 20
41.7333816458
 30
0.0
 10
112.2139947696
 20
41.7334712934
 30
0.0
 10
112.2139245571
 20
41.7335634364
 30
0.0
 10
112.2139068305
 20
41.7336315657
 30
0.0
 10
112.2139068305
 20
41.7336624977
 30
0.0
  0
SPLINE
  5
18DF
330
21B
100
AcDbEntity
  8
DEFAULT_2
  6
HIDDEN
 62
     8
100
AcDbSpline
210
0.0
220
0.0
230
1.0
 70
     8
 71
     3
 72
    39
 73
    35
 74
     0
 42
0.0000001
 43
0.0000000001
 40
0.0
 40
0.0
 40
0.0
 40
0.0
 40
0.0003294281
 40
0.0007214762
 40
0.0012154912
 40
0.0018315219
 40
0.0025798106
 40
0.0034659773
 40
0.0044933352
 40
0.0056639065
 40
0.0084391408
 40
0.0117977812
 40
0.0157418082
 40
0.020271366
 40
0.0253853248
 40
0.0310817528
 40
0.0442108263
 40
0.0596315377
 40
0.0773093935
 40
0.097203559
 40
0.1192673325
 40
0.1434484563
 40
0.1696893548
 40
0.1979273415
 40
0.2280948135
 40
0.2939243032999999
 40
0.3665461076
 40
0.4452624427
 40
0.5293164843
 40
0.617899777
 40
0.7101600947
 40
0.8052096934999999
 40
0.9021338795
 40
1.0
 40
1.0
 40
1.0
 40
1.0
 10
112.0889068379
 20
41.7336624977
 30
0.0
 10
112.0889068379
 20
41.7337071766
 30
0.0
 10
112.0889324328
 20
41.7338055844
 30
0.0
 10
112.0890338437
 20
41.73393868629999
 30
0.0
 10
112.0891924966
 20
41.7340681722
 30
0.0
 10
112.0894099577
 20
41.7341968044
 30
0.0
 10
112.0896870847
 20
41.7343254979
 30
0.0
 10
112.0900245464
 20
41.7344543461
 30
0.0
 10
112.0904225835
 20
41.73458334489999
 30
0.0
 10
112.0910720262
 20
41.7347659295
 30
0.0
 10
112.0920378575
 20
41.73498853929999
 30
0.0
 10
112.0933808777
 20
41.735243507
 30
0.0
 10
112.0949654432
 20
41.7354983483
 30
0.0
 10
112.0967907143
 20
41.7357527665
 30
0.0
 10
112.0988557648
 20
41.7360063928
 30
0.0
 10
112.1020833244
 20
41.7363600683
 30
0.0
 10
112.1067083264
 20
41.7367901617
 30
0.0
 10
112.1129589803
 20
41.7372797323
 30
0.0
 10
112.1201300889
 20
41.7377619219
 30
0.0
 10
112.1282044502
 20
41.738235335
 30
0.0
 10
112.1371627089
 20
41.73869847119999
 30
0.0
 10
112.1469833203
 20
41.7391500521
 30
0.0
 10
112.1576426544
 20
41.7395888487
 30
0.0
 10
112.1691150477
 20
41.7400137413
 30
0.0
 10
112.1859551342
 20
41.7405767265
 30
0.0
 10
112.2088150012
 20
41.7412298609
 30
0.0
 10
112.2382604854
 20
41.7419225133
 30
0.0
 10
112.270179898
 20
41.74253761489999
 30
0.0
 10
112.3042658675
 20
41.7430689628
 30
0.0
 10
112.3401901621
 20
41.7435111345
 30
0.0
 10
112.3776068285
 20
41.7438597009
 30
0.0
 10
112.416155535
 20
41.7441111797
 30
0.0
 10
112.4554650544
 20
41.7442630719
 30
0.0
 10
112.4818836592
 20
41.7442968829
 30
0.0
 10
112.4951568305
 20
41.7442968829
 30
0.0
  0
SPLINE
  5
18E0
330
21B
100
AcDbEntity
  8
DEFAULT_2
  6
HIDDEN
 62
     8
100
AcDbSpline
210
0.0
220
0.0
230
1.0
 70
     8
 71
     3
 72
    40
 73
    36
 74
     0
 42
0.0000001
 43
0.0000000001
 40
0.0
 40
0.0
 40
0.0
 40
0.0
 40
0.000329432
 40
0.0007214917
 40
0.001215496
 40
0.0018315077
 40
0.0025798052
 40
0.003465994
 40
0.0044933461
 40
0.0056638941
 40
0.0084391532
 40
0.0117977727
 40
0.0157418142
 40
0.020271362
 40
0.0253853234
 40
0.031081753
 40
0.0373580121
 40
0.0442109616
 40
0.059631675
 40
0.0773095309
 40
0.0972036946
 40
0.1192674643
 40
0.1434485822
 40
0.1696894732
 40
0.1979274513
 40
0.2280949146
 40
0.2939243896
 40
0.3665461846
 40
0.4452625128000001
 40
0.5293165466
 40
0.6178998292
 40
0.7101601345000001
 40
0.8052097171999999
 40
0.9021338732
 40
1.0
 40
1.0
 40
1.0
 40
1.0
 10
111.8076568305
 20
41.7336624977
 30
0.0
 10
111.8076568305
 20
41.7336143813
 30
0.0
 10
111.8076844042
 20
41.73350840269999
 30
0.0
 10
111.8077936221
 20
41.73336506840001
 30
0.0
 10
111.8079644713
 20
41.7332256174
 30
0.0
 10
111.8081986552
 20
41.733087087
 30
0.0
 10
111.8084971031
 20
41.7329484967
 30
0.0
 10
111.8088605285
 20
41.73280974039999
 30
0.0
 10
111.8092891822
 20
41.73267081689999
 30
0.0
 10
111.8099885801
 20
41.73247418219999
 30
0.0
 10
111.8110287054
 20
41.73223445709999
 30
0.0
 10
111.8124750363
 20
41.73195986929999
 30
0.0
 10
111.8141814903
 20
41.7316854304
 30
0.0
 10
111.8161471672
 20
41.731411434
 30
0.0
 10
111.8183710695
 20
41.7311383211
 30
0.0
 10
111.8208519163
 20
41.73086637319999
 30
0.0
 10
111.8235882633
 20
41.7305958257
 30
0.0
 10
111.827741518
 20
41.7302224407
 30
0.0
 10
111.8335591756
 20
41.72976710469999
 30
0.0
 10
111.8412818763
 20
41.72924770409999
 30
0.0
 10
111.8499773532
 20
41.7287379129
 30
0.0
 10
111.859624705
 20
41.7282391389
 30
0.0
 10
111.870200748
 20
41.72775282469999
 30
0.0
 10
111.8816800288
 20
41.72728027329999
 30
0.0
 10
111.894034912
 20
41.7268226969
 30
0.0
 10
111.9121703875
 20
41.726216405
 30
0.0
 10
111.9367887043
 20
41.72551302939999
 30
0.0
 10
111.9684992254
 20
41.7247670961
 30
0.0
 10
112.0028739785
 20
41.72410467899999
 30
0.0
 10
112.039581947
 20
41.7235324583
 30
0.0
 10
112.0782696495
 20
41.7230562734
 30
0.0
 10
112.1185645207
 20
41.7226808943
 30
0.0
 10
112.1600785093
 20
41.722410071
 30
0.0
 10
112.2024118378
 20
41.72224649469999
 30
0.0
 10
112.2308626432
 20
41.7222100828
 30
0.0
 10
112.2451568305
 20
41.7222100828
 30
0.0
  0
SPLINE
  5
18E1
330
21B
100
AcDbEntity
  8
DEFAULT_2
  6
HIDDEN
 62
     8
100
AcDbSpline
210
0.0
220
0.0
230
1.0
 70
     8
 71
     3
 72
    37
 73
    33
 74
     0
 42
0.0000001
 43
0.0000000001
 40
0.0
 40
0.0
 40
0.0
 40
0.0
 40
0.0978662383
 40
0.1947904177
 40
0.2898400582
 40
0.3821004286
 40
0.4706837758
 40
0.5547378625000001
 40
0.6334542314000001
 40
0.7060760668000002
 40
0.7719055914000001
 40
0.8303109918
 40
0.8565519068999998
 40
0.8807330431
 40
0.9027968251
 40
0.9226909970999999
 40
0.9403688590999999
 40
0.9557895777999998
 40
0.9689186601000001
 40
0.9746151079999998
 40
0.9797290573999999
 40
0.9842586220999999
 40
0.9882026535999999
 40
0.9915612848
 40
0.994336539
 40
0.9965340040999999
 40
0.9974201957
 40
0.9981684909
 40
0.9987845015000001
 40
0.9992785066999999
 40
0.9996705676000001
 40
1.0
 40
1.0
 40
1.0
 40
1.0
 10
112.4951568305
 20
41.72466417169999
 30
0.0
 10
112.483925678
 20
41.72466417169999
 30
0.0
 10
112.4615714732
 20
41.7246927811
 30
0.0
 10
112.4283095724
 20
41.72482130539999
 30
0.0
 10
112.3956914436
 20
41.72503409519999
 30
0.0
 10
112.3640311872
 20
41.7253290351
 30
0.0
 10
112.3336337063
 20
41.7257031828
 30
0.0
 10
112.3047917311
 20
41.7261527763
 30
0.0
 10
112.2777830032
 20
41.72667327590001
 30
0.0
 10
112.2528675822
 20
41.7272592714
 30
0.0
 10
112.230285374
 20
41.72790477969999
 30
0.0
 10
112.213027015
 20
41.7285056011
 30
0.0
 10
112.2005484758
 20
41.7290191657
 30
0.0
 10
112.1922387283
 20
41.72940129319999
 30
0.0
 10
112.1846586641
 20
41.7297931729
 30
0.0
 10
112.1778265134
 20
41.7301937542
 30
0.0
 10
112.1717586534
 20
41.73060176089999
 30
0.0
 10
112.1664696384
 20
41.73101601209999
 30
0.0
 10
112.1625561743
 20
41.7313799398
 30
0.0
 10
112.1598251596
 20
41.7316791998
 30
0.0
 10
112.1580778128
 20
41.7318938133
 30
0.0
 10
112.1565333391
 20
41.7321090729
 30
0.0
 10
112.1551925961
 20
41.7323247584
 30
0.0
 10
112.1540560677
 20
41.7325403515
 30
0.0
 10
112.1531242864
 20
41.7327556165
 30
0.0
 10
112.1524781675
 20
41.73294468269999
 30
0.0
 10
112.1520670376
 20
41.7331014783
 30
0.0
 10
112.1518325517
 20
41.733210393
 30
0.0
 10
112.151648549
 20
41.7333192341
 30
0.0
 10
112.1515143106
 20
41.73342880349999
 30
0.0
 10
112.1514284959
 20
41.7335414229
 30
0.0
 10
112.1514068305
 20
41.73362469189999
 30
0.0
 10
112.1514068305
 20
41.7336624977
 30
0.0
  0
SPLINE
  5
18E2
330
21B
100
AcDbEntity
  8
DEFAULT_2
  6
HIDDEN
 62
     8
100
AcDbSpline
210
0.0
220
0.0
230
1.0
 70
     8
 71
     3
 72
    37
 73
    33
 74
     0
 42
0.0000001
 43
0.0000000001
 40
0.0
 40
0.0
 40
0.0
 40
0.0
 40
0.0978662383
 40
0.1947904177
 40
0.2898400582
 40
0.3821004286
 40
0.4706837758
 40
0.5547378625000001
 40
0.6334542314000001
 40
0.7060760668000002
 40
0.7719055914000001
 40
0.8303109918
 40
0.8565519068999998
 40
0.8807330431
 40
0.9027968251
 40
0.9226909970999999
 40
0.9403688590999999
 40
0.9557895777999998
 40
0.9689186601000001
 40
0.9746151079999998
 40
0.9797290573999999
 40
0.9842586220999999
 40
0.9882026535999999
 40
0.9915612848
 40
0.994336539
 40
0.9965340040999999
 40
0.9974201957
 40
0.9981684909
 40
0.9987845015000001
 40
0.9992785066999999
 40
0.9996705676000001
 40
1.0
 40
1.0
 40
1.0
 40
1.0
 10
115.1201568305
 20
41.72466417169999
 30
0.0
 10
115.1313879829
 20
41.72466417169999
 30
0.0
 10
115.1537421877
 20
41.7246927811
 30
0.0
 10
115.1870040885
 20
41.72482130539999
 30
0.0
 10
115.2196222173
 20
41.72503409519999
 30
0.0
 10
115.2512824737
 20
41.7253290351
 30
0.0
 10
115.2816799546
 20
41.7257031828
 30
0.0
 10
115.3105219298
 20
41.7261527763
 30
0.0
 10
115.3375306577
 20
41.72667327590001
 30
0.0
 10
115.3624460787
 20
41.7272592714
 30
0.0
 10
115.3850282869
 20
41.72790477969999
 30
0.0
 10
115.4022866459
 20
41.7285056011
 30
0.0
 10
115.4147651852
 20
41.7290191657
 30
0.0
 10
115.4230749326
 20
41.72940129319999
 30
0.0
 10
115.4306549968
 20
41.7297931729
 30
0.0
 10
115.4374871475
 20
41.7301937542
 30
0.0
 10
115.4435550075
 20
41.73060176089999
 30
0.0
 10
115.4488440225
 20
41.73101601209999
 30
0.0
 10
115.4527574866
 20
41.7313799398
 30
0.0
 10
115.4554885013
 20
41.7316791998
 30
0.0
 10
115.4572358481
 20
41.7318938133
 30
0.0
 10
115.4587803218
 20
41.7321090729
 30
0.0
 10
115.4601210648
 20
41.7323247584
 30
0.0
 10
115.4612575932
 20
41.7325403515
 30
0.0
 10
115.4621893745
 20
41.7327556165
 30
0.0
 10
115.4628354934
 20
41.73294468269999
 30
0.0
 10
115.4632466233
 20
41.7331014783
 30
0.0
 10
115.4634811092
 20
41.733210393
 30
0.0
 10
115.4636651119
 20
41.7333192341
 30
0.0
 10
115.4637993503
 20
41.73342880349999
 30
0.0
 10
115.463885165
 20
41.7335414229
 30
0.0
 10
115.4639068305
 20
41.73362469189999
 30
0.0
 10
115.4639068305
 20
41.7336624977
 30
0.0
  0
SPLINE
  5
18E3
330
21B
100
AcDbEntity
  8
DEFAULT_2
  6
HIDDEN
 62
     8
100
AcDbSpline
210
0.0
220
0.0
230
1.0
 70
     8
 71
     3
 72
    39
 73
    35
 74
     0
 42
0.0000001
 43
0.0000000001
 40
0.0
 40
0.0
 40
0.0
 40
0.0
 40
0.0003294281
 40
0.0007214762
 40
0.0012154912
 40
0.0018315219
 40
0.0025798106
 40
0.0034659773
 40
0.0044933352
 40
0.0056639065
 40
0.0084391408
 40
0.0117977812
 40
0.0157418082
 40
0.020271366
 40
0.0253853248
 40
0.0310817528
 40
0.0442108263
 40
0.0596315377
 40
0.0773093935
 40
0.097203559
 40
0.1192673325
 40
0.1434484563
 40
0.1696893548
 40
0.1979273415
 40
0.2280948135
 40
0.2939243032999999
 40
0.3665461076
 40
0.4452624427
 40
0.5293164843
 40
0.617899777
 40
0.7101600947
 40
0.8052096934999999
 40
0.9021338795
 40
1.0
 40
1.0
 40
1.0
 40
1.0
 10
115.526406823
 20
41.7336624977
 30
0.0
 10
115.526406823
 20
41.7337071766
 30
0.0
 10
115.5263812281
 20
41.7338055844
 30
0.0
 10
115.5262798173
 20
41.73393868629999
 30
0.0
 10
115.5261211643
 20
41.7340681722
 30
0.0
 10
115.5259037033
 20
41.7341968044
 30
0.0
 10
115.5256265763
 20
41.7343254979
 30
0.0
 10
115.5252891146
 20
41.7344543461
 30
0.0
 10
115.5248910774
 20
41.73458334489999
 30
0.0
 10
115.5242416348
 20
41.7347659295
 30
0.0
 10
115.5232758035
 20
41.73498853929999
 30
0.0
 10
115.5219327832
 20
41.735243507
 30
0.0
 10
115.5203482177
 20
41.7354983483
 30
0.0
 10
115.5185229466
 20
41.7357527665
 30
0.0
 10
115.5164578961
 20
41.7360063928
 30
0.0
 10
115.5132303366
 20
41.7363600683
 30
0.0
 10
115.5086053345
 20
41.7367901617
 30
0.0
 10
115.5023546806
 20
41.7372797323
 30
0.0
 10
115.495183572
 20
41.7377619219
 30
0.0
 10
115.4871092107
 20
41.738235335
 30
0.0
 10
115.478150952
 20
41.73869847119999
 30
0.0
 10
115.4683303406
 20
41.7391500521
 30
0.0
 10
115.4576710065
 20
41.7395888487
 30
0.0
 10
115.4461986132
 20
41.7400137413
 30
0.0
 10
115.4293585267
 20
41.7405767265
 30
0.0
 10
115.4064986597
 20
41.7412298609
 30
0.0
 10
115.3770531755
 20
41.7419225133
 30
0.0
 10
115.3451337629
 20
41.74253761489999
 30
0.0
 10
115.3110477934
 20
41.7430689628
 30
0.0
 10
115.2751234988
 20
41.7435111345
 30
0.0
 10
115.2377068324
 20
41.7438597009
 30
0.0
 10
115.199158126
 20
41.7441111797
 30
0.0
 10
115.1598486065
 20
41.7442630719
 30
0.0
 10
115.1334300018
 20
41.7442968829
 30
0.0
 10
115.1201568305
 20
41.7442968829
 30
0.0
  0
SPLINE
  5
18E4
330
21B
100
AcDbEntity
  8
DEFAULT_2
  6
HIDDEN
 62
     8
100
AcDbSpline
210
0.0
220
0.0
230
1.0
 70
     8
 71
     3
 72
    40
 73
    36
 74
     0
 42
0.0000001
 43
0.0000000001
 40
0.0
 40
0.0
 40
0.0
 40
0.0
 40
0.000329432
 40
0.0007214917
 40
0.001215496
 40
0.0018315077
 40
0.0025798052
 40
0.003465994
 40
0.0044933461
 40
0.0056638941
 40
0.0084391532
 40
0.0117977727
 40
0.0157418142
 40
0.020271362
 40
0.0253853234
 40
0.031081753
 40
0.0373580121
 40
0.0442109616
 40
0.059631675
 40
0.0773095309
 40
0.0972036946
 40
0.1192674643
 40
0.1434485822
 40
0.1696894732
 40
0.1979274513
 40
0.2280949146
 40
0.2939243896
 40
0.3665461846
 40
0.4452625128000001
 40
0.5293165466
 40
0.6178998292
 40
0.7101601345000001
 40
0.8052097171999999
 40
0.9021338732
 40
1.0
 40
1.0
 40
1.0
 40
1.0
 10
115.8076568305
 20
41.7336624977
 30
0.0
 10
115.8076568305
 20
41.7336143813
 30
0.0
 10
115.8076292568
 20
41.73350840269999
 30
0.0
 10
115.8075200388
 20
41.73336506840001
 30
0.0
 10
115.8073491896
 20
41.7332256174
 30
0.0
 10
115.8071150057
 20
41.733087087
 30
0.0
 10
115.8068165579
 20
41.7329484967
 30
0.0
 10
115.8064531325
 20
41.73280974039999
 30
0.0
 10
115.8060244787
 20
41.73267081689999
 30
0.0
 10
115.8053250809
 20
41.73247418219999
 30
0.0
 10
115.8042849555
 20
41.73223445709999
 30
0.0
 10
115.8028386246
 20
41.73195986929999
 30
0.0
 10
115.8011321706
 20
41.7316854304
 30
0.0
 10
115.7991664937
 20
41.731411434
 30
0.0
 10
115.7969425914
 20
41.7311383211
 30
0.0
 10
115.7944617447
 20
41.73086637319999
 30
0.0
 10
115.7917253976
 20
41.7305958257
 30
0.0
 10
115.7875721429
 20
41.7302224407
 30
0.0
 10
115.7817544853
 20
41.72976710469999
 30
0.0
 10
115.7740317846
 20
41.72924770409999
 30
0.0
 10
115.7653363077
 20
41.7287379129
 30
0.0
 10
115.7556889559
 20
41.7282391389
 30
0.0
 10
115.7451129129
 20
41.72775282469999
 30
0.0
 10
115.7336336321
 20
41.72728027329999
 30
0.0
 10
115.7212787489
 20
41.7268226969
 30
0.0
 10
115.7031432734
 20
41.726216405
 30
0.0
 10
115.6785249566
 20
41.72551302939999
 30
0.0
 10
115.6468144355
 20
41.7247670961
 30
0.0
 10
115.6124396824
 20
41.72410467899999
 30
0.0
 10
115.575731714
 20
41.7235324583
 30
0.0
 10
115.5370440114
 20
41.7230562734
 30
0.0
 10
115.4967491402
 20
41.7226808943
 30
0.0
 10
115.4552351516
 20
41.722410071
 30
0.0
 10
115.4129018232
 20
41.72224649469999
 30
0.0
 10
115.3844510177
 20
41.7222100828
 30
0.0
 10
115.3701568305
 20
41.7222100828
 30
0.0
  0
SPLINE
  5
18E5
330
21B
100
AcDbEntity
  8
DEFAULT_2
  6
HIDDEN
 62
     8
100
AcDbSpline
210
0.0
220
0.0
230
1.0
 70
     8
 71
     3
 72
    40
 73
    36
 74
     0
 42
0.0000001
 43
0.0000000001
 40
0.0
 40
0.0
 40
0.0
 40
0.0
 40
0.0978661268
 40
0.1947902828
 40
0.2898398655
 40
0.3821001708
 40
0.4706834534000001
 40
0.5547374871999999
 40
0.6334538154000001
 40
0.7060756104000001
 40
0.7719050854000001
 40
0.8020725486999999
 40
0.8303105268000001
 40
0.8565514178
 40
0.8807325356999998
 40
0.9027963054
 40
0.9226904690999999
 40
0.940368325
 40
0.9557890384
 40
0.9626419879
 40
0.968918247
 40
0.9746146766
 40
0.9797286379999999
 40
0.9842581858
 40
0.9882022273
 40
0.9915608468000002
 40
0.9943361059
 40
0.9955066539
 40
0.9965340059999999
 40
0.9974201947999999
 40
0.9981684922999999
 40
0.9987845039999999
 40
0.9992785082999999
 40
0.9996705679999999
 40
1.0
 40
1.0
 40
1.0
 40
1.0
 10
115.3701568305
 20
41.7451149126
 30
0.0
 10
115.3844510177
 20
41.7451149126
 30
0.0
 10
115.4129018232
 20
41.7450785007
 30
0.0
 10
115.4552351516
 20
41.7449149244
 30
0.0
 10
115.4967491402
 20
41.74464410099999
 30
0.0
 10
115.5370440114
 20
41.744268722
 30
0.0
 10
115.575731714
 20
41.74379253709999
 30
0.0
 10
115.6124396824
 20
41.7432203163
 30
0.0
 10
115.6468144355
 20
41.7425578993
 30
0.0
 10
115.6785249566
 20
41.7418119659
 30
0.0
 10
115.7031432734
 20
41.74110859039999
 30
0.0
 10
115.7212787489
 20
41.7405022984
 30
0.0
 10
115.7336336321
 20
41.7400447221
 30
0.0
 10
115.7451129129
 20
41.73957217069999
 30
0.0
 10
115.7556889559
 20
41.7390858565
 30
0.0
 10
115.7653363077
 20
41.7385870824
 30
0.0
 10
115.7740317846
 20
41.73807729129999
 30
0.0
 10
115.7817544853
 20
41.7375578906
 30
0.0
 10
115.7875721429
 20
41.73710255469999
 30
0.0
 10
115.7917253976
 20
41.7367291696
 30
0.0
 10
115.7944617447
 20
41.73645862219999
 30
0.0
 10
115.7969425914
 20
41.7361866743
 30
0.0
 10
115.7991664937
 20
41.7359135613
 30
0.0
 10
115.8011321706
 20
41.73563956489999
 30
0.0
 10
115.8028386246
 20
41.7353651261
 30
0.0
 10
115.8042849555
 20
41.7350905383
 30
0.0
 10
115.8053250809
 20
41.7348508132
 30
0.0
 10
115.8060244787
 20
41.7346541784
 30
0.0
 10
115.8064531325
 20
41.73451525489999
 30
0.0
 10
115.8068165579
 20
41.7343764986
 30
0.0
 10
115.8071150057
 20
41.7342379083
 30
0.0
 10
115.8073491896
 20
41.734099378
 30
0.0
 10
115.8075200388
 20
41.733959927
 30
0.0
 10
115.8076292568
 20
41.7338165926
 30
0.0
 10
115.8076568305
 20
41.733710614
 30
0.0
 10
115.8076568305
 20
41.7336624977
 30
0.0
  0
SPLINE
  5
18E6
330
21B
100
AcDbEntity
  8
DEFAULT_2
  6
HIDDEN
 62
     8
100
AcDbSpline
210
0.0
220
0.0
230
1.0
 70
     8
 71
     3
 72
    37
 73
    33
 74
     0
 42
0.0000001
 43
0.0000000001
 40
0.0
 40
0.0
 40
0.0
 40
0.0
 40
0.0003294327
 40
0.0007214947
 40
0.0012155007
 40
0.0018315098
 40
0.0025798013
 40
0.0034659946
 40
0.0056634655
 40
0.0084387098
 40
0.0117973528
 40
0.0157413708
 40
0.0202709471
 40
0.0253848902
 40
0.0310813388
 40
0.0442104138
 40
0.059631127
 40
0.0773089901
 40
0.0972031727
 40
0.1192669676
 40
0.1434481111
 40
0.1696890247
 40
0.2280944055
 40
0.2939239164
 40
0.366545767
 40
0.4452621489000001
 40
0.5293162293
 40
0.6178995658
 40
0.7101599395
 40
0.8052095771999999
 40
0.9021337049999999
 40
1.0
 40
1.0
 40
1.0
 40
1.0
 10
112.2139068305
 20
41.7336624977
 30
0.0
 10
112.2139068305
 20
41.7336934297
 30
0.0
 10
112.2139245571
 20
41.733761559
 30
0.0
 10
112.2139947696
 20
41.733853702
 30
0.0
 10
112.2141046012
 20
41.73394334949999
 30
0.0
 10
112.2142551483
 20
41.73403240129999
 30
0.0
 10
112.2144469999
 20
41.73412151389999
 30
0.0
 10
112.2147833794
 20
41.7342498008
 30
0.0
 10
112.2153120221
 20
41.7344044906
 30
0.0
 10
112.2160743889
 20
41.73458061829999
 30
0.0
 10
112.2170042751
 20
41.7347570105
 30
0.0
 10
112.2181012472
 20
41.7349334825
 30
0.0
 10
112.219364907
 20
41.7351096025
 30
0.0
 10
112.2207945548
 20
41.73528519629999
 30
0.0
 10
112.2230290202
 20
41.7355300448
 30
0.0
 10
112.2262309443
 20
41.7358278042
 30
0.0
 10
112.2305583191
 20
41.7361667369
 30
0.0
 10
112.2355229323
 20
41.7365005606
 30
0.0
 10
112.2411128761
 20
41.73682830879999
 30
0.0
 10
112.2473147497
 20
41.7371489376
 30
0.0
 10
112.2541136358
 20
41.7374615873
 30
0.0
 10
112.2643233484
 20
41.73788177659999
 30
0.0
 10
112.2784438206
 20
41.7383733579
 30
0.0
 10
112.2969201711
 20
41.7389015013
 30
0.0
 10
112.3173055169
 20
41.7393809519
 30
0.0
 10
112.339403569
 20
41.73980681489999
 30
0.0
 10
112.3630015483
 20
41.7401746643
 30
0.0
 10
112.3878722131
 20
41.7404807854
 30
0.0
 10
112.4137760583
 20
41.7407220997
 30
0.0
 10
112.4404636134
 20
41.7408962004
 30
0.0
 10
112.4676778961
 20
41.7410013567
 30
0.0
 10
112.4859677004
 20
41.7410247644
 30
0.0
 10
112.4951568305
 20
41.7410247644
 30
0.0
  0
SPLINE
  5
18E7
330
21B
100
AcDbEntity
  8
DEFAULT_2
  6
HIDDEN
 62
     8
100
AcDbSpline
210
0.0
220
0.0
230
1.0
 70
     8
 71
     3
 72
    39
 73
    35
 74
     0
 42
0.0000001
 43
0.0000000001
 40
0.0
 40
0.0
 40
0.0
 40
0.0
 40
0.0978661205
 40
0.1947903065
 40
0.2898399053
 40
0.3821002229999999
 40
0.4706835157000001
 40
0.5547375573
 40
0.6334538924000001
 40
0.7060756967000001
 40
0.7719051865000001
 40
0.8020726585
 40
0.8303106451999999
 40
0.8565515437
 40
0.8807326675
 40
0.9027964409999999
 40
0.9226906064999999
 40
0.9403684623
 40
0.9557891737
 40
0.9689182471999998
 40
0.9746146751999999
 40
0.9797286340000001
 40
0.9842581918
 40
0.9882022187999998
 40
0.9915608591999999
 40
0.9943360934999999
 40
0.9955066648
 40
0.9965340226999998
 40
0.9974201894
 40
0.9981684781
 40
0.9987845087999998
 40
0.9992785237999999
 40
0.9996705718999999
 40
1.0
 40
1.0
 40
1.0
 40
1.0
 10
115.1201568305
 20
41.72302811239999
 30
0.0
 10
115.1334300018
 20
41.72302811239999
 30
0.0
 10
115.1598486065
 20
41.72306192349999
 30
0.0
 10
115.199158126
 20
41.72321381569999
 30
0.0
 10
115.2377068324
 20
41.72346529449999
 30
0.0
 10
115.2751234988
 20
41.7238138608
 30
0.0
 10
115.3110477934
 20
41.7242560325
 30
0.0
 10
115.3451337629
 20
41.7247873804
 30
0.0
 10
115.3770531755
 20
41.72540248199999
 30
0.0
 10
115.4064986597
 20
41.7260951344
 30
0.0
 10
115.4293585267
 20
41.7267482688
 30
0.0
 10
115.4461986132
 20
41.727311254
 30
0.0
 10
115.4576710065
 20
41.7277361466
 30
0.0
 10
115.4683303406
 20
41.7281749433
 30
0.0
 10
115.478150952
 20
41.7286265242
 30
0.0
 10
115.4871092107
 20
41.7290896604
 30
0.0
 10
115.495183572
 20
41.7295630734
 30
0.0
 10
115.5023546806
 20
41.730045263
 30
0.0
 10
115.5086053345
 20
41.7305348336
 30
0.0
 10
115.5132303366
 20
41.7309649271
 30
0.0
 10
115.5164578961
 20
41.7313186026
 30
0.0
 10
115.5185229466
 20
41.7315722288
 30
0.0
 10
115.5203482177
 20
41.7318266471
 30
0.0
 10
115.5219327832
 20
41.73208148839999
 30
0.0
 10
115.5232758035
 20
41.73233645599999
 30
0.0
 10
115.5242416348
 20
41.73255906589999
 30
0.0
 10
115.5248910774
 20
41.7327416504
 30
0.0
 10
115.5252891146
 20
41.7328706493
 30
0.0
 10
115.5256265763
 20
41.73299949739999
 30
0.0
 10
115.5259037033
 20
41.7331281909
 30
0.0
 10
115.5261211643
 20
41.73325682309999
 30
0.0
 10
115.5262798173
 20
41.733386309
 30
0.0
 10
115.5263812281
 20
41.73351941099999
 30
0.0
 10
115.526406823
 20
41.73361781869999
 30
0.0
 10
115.526406823
 20
41.7336624977
 30
0.0
  0
SPLINE
  5
18E8
330
21B
100
AcDbEntity
  8
DEFAULT_2
  6
HIDDEN
 62
     8
100
AcDbSpline
210
0.0
220
0.0
230
1.0
 70
     8
 71
     3
 72
    37
 73
    33
 74
     0
 42
0.0000001
 43
0.0000000001
 40
0.0
 40
0.0
 40
0.0
 40
0.0
 40
0.0003294327
 40
0.0007214947
 40
0.0012155007
 40
0.0018315098
 40
0.0025798013
 40
0.0034659946
 40
0.0056634655
 40
0.0084387098
 40
0.0117973528
 40
0.0157413708
 40
0.0202709471
 40
0.0253848902
 40
0.0310813388
 40
0.0442104138
 40
0.059631127
 40
0.0773089901
 40
0.0972031727
 40
0.1192669676
 40
0.1434481111
 40
0.1696890247
 40
0.2280944055
 40
0.2939239164
 40
0.366545767
 40
0.4452621489000001
 40
0.5293162293
 40
0.6178995658
 40
0.7101599395
 40
0.8052095771999999
 40
0.9021337049999999
 40
1.0
 40
1.0
 40
1.0
 40
1.0
 10
115.4014068305
 20
41.7336624977
 30
0.0
 10
115.4014068305
 20
41.7336934297
 30
0.0
 10
115.4013891038
 20
41.733761559
 30
0.0
 10
115.4013188913
 20
41.733853702
 30
0.0
 10
115.4012090598
 20
41.73394334949999
 30
0.0
 10
115.4010585126
 20
41.73403240129999
 30
0.0
 10
115.4008666611
 20
41.73412151389999
 30
0.0
 10
115.4005302815
 20
41.7342498008
 30
0.0
 10
115.4000016388
 20
41.7344044906
 30
0.0
 10
115.399239272
 20
41.73458061829999
 30
0.0
 10
115.3983093858
 20
41.7347570105
 30
0.0
 10
115.3972124137
 20
41.7349334825
 30
0.0
 10
115.3959487539
 20
41.7351096025
 30
0.0
 10
115.3945191061
 20
41.73528519629999
 30
0.0
 10
115.3922846407
 20
41.7355300448
 30
0.0
 10
115.3890827167
 20
41.7358278042
 30
0.0
 10
115.3847553419
 20
41.7361667369
 30
0.0
 10
115.3797907286
 20
41.7365005606
 30
0.0
 10
115.3742007848
 20
41.73682830879999
 30
0.0
 10
115.3679989112
 20
41.7371489376
 30
0.0
 10
115.3612000252
 20
41.7374615873
 30
0.0
 10
115.3509903126
 20
41.73788177659999
 30
0.0
 10
115.3368698403
 20
41.7383733579
 30
0.0
 10
115.3183934899
 20
41.7389015013
 30
0.0
 10
115.298008144
 20
41.7393809519
 30
0.0
 10
115.2759100919
 20
41.73980681489999
 30
0.0
 10
115.2523121126
 20
41.7401746643
 30
0.0
 10
115.2274414478
 20
41.7404807854
 30
0.0
 10
115.2015376026
 20
41.7407220997
 30
0.0
 10
115.1748500475
 20
41.7408962004
 30
0.0
 10
115.1476357649
 20
41.7410013567
 30
0.0
 10
115.1293459605
 20
41.7410247644
 30
0.0
 10
115.1201568305
 20
41.7410247644
 30
0.0
  0
SPLINE
  5
18E9
330
21B
100
AcDbEntity
  8
DEFAULT_2
  6
HIDDEN
 62
     8
100
AcDbSpline
210
0.0
220
0.0
230
1.0
 70
     8
 71
     3
 72
    37
 73
    33
 74
     0
 42
0.0000001
 43
0.0000000001
 40
0.0
 40
0.0
 40
0.0
 40
0.0
 40
0.0003294324
 40
0.0007214933
 40
0.0012154985
 40
0.0018315091
 40
0.0025798043
 40
0.0034659959
 40
0.005663461
 40
0.0084387152
 40
0.0117973464
 40
0.0157413779
 40
0.0202709426
 40
0.025384892
 40
0.0310813399
 40
0.0442104222
 40
0.0596311409
 40
0.0773090029
 40
0.0972031749
 40
0.1192669569
 40
0.1434480931
 40
0.1696890082
 40
0.2280944086
 40
0.2939239332
 40
0.3665457686
 40
0.4452621375
 40
0.5293162242000001
 40
0.6178995714
 40
0.7101599418000001
 40
0.8052095823
 40
0.9021337617
 40
1.0
 40
1.0
 40
1.0
 40
1.0
 10
112.1514068305
 20
41.7336624977
 30
0.0
 10
112.1514068305
 20
41.7337003034
 30
0.0
 10
112.1514284959
 20
41.73378357239999
 30
0.0
 10
112.1515143106
 20
41.73389619189999
 30
0.0
 10
112.151648549
 20
41.7340057612
 30
0.0
 10
112.1518325517
 20
41.7341146023
 30
0.0
 10
112.1520670376
 20
41.7342235171
 30
0.0
 10
112.1524781675
 20
41.73438031269999
 30
0.0
 10
112.1531242864
 20
41.7345693788
 30
0.0
 10
112.1540560677
 20
41.7347846439
 30
0.0
 10
112.1551925961
 20
41.73500023689999
 30
0.0
 10
112.1565333391
 20
41.7352159225
 30
0.0
 10
112.1580778128
 20
41.7354311821
 30
0.0
 10
112.1598251596
 20
41.73564579559999
 30
0.0
 10
112.1625561743
 20
41.73594505559999
 30
0.0
 10
112.1664696384
 20
41.7363089832
 30
0.0
 10
112.1717586534
 20
41.73672323449999
 30
0.0
 10
112.1778265134
 20
41.7371312411
 30
0.0
 10
112.1846586641
 20
41.7375318224
 30
0.0
 10
112.1922387283
 20
41.7379237022
 30
0.0
 10
112.2005484758
 20
41.73830582969999
 30
0.0
 10
112.213027015
 20
41.73881939429999
 30
0.0
 10
112.230285374
 20
41.7394202157
 30
0.0
 10
112.2528675822
 20
41.74006572389999
 30
0.0
 10
112.2777830032
 20
41.7406517195
 30
0.0
 10
112.3047917311
 20
41.741172219
 30
0.0
 10
112.3336337063
 20
41.7416218126
 30
0.0
 10
112.3640311872
 20
41.7419959602
 30
0.0
 10
112.3956914436
 20
41.7422909001
 30
0.0
 10
112.4283095724
 20
41.74250369
 30
0.0
 10
112.4615714732
 20
41.74263221429999
 30
0.0
 10
112.483925678
 20
41.74266082369999
 30
0.0
 10
112.4951568305
 20
41.74266082369999
 30
0.0
  0
SPLINE
  5
18EA
330
21B
100
AcDbEntity
  8
DEFAULT_2
  6
HIDDEN
 62
     8
100
AcDbSpline
210
0.0
220
0.0
230
1.0
 70
     8
 71
     3
 72
    37
 73
    33
 74
     0
 42
0.0000001
 43
0.0000000001
 40
0.0
 40
0.0
 40
0.0
 40
0.0
 40
0.0003294324
 40
0.0007214933
 40
0.0012154985
 40
0.0018315091
 40
0.0025798043
 40
0.0034659959
 40
0.005663461
 40
0.0084387152
 40
0.0117973464
 40
0.0157413779
 40
0.0202709426
 40
0.025384892
 40
0.0310813399
 40
0.0442104222
 40
0.0596311409
 40
0.0773090029
 40
0.0972031749
 40
0.1192669569
 40
0.1434480931
 40
0.1696890082
 40
0.2280944086
 40
0.2939239332
 40
0.3665457686
 40
0.4452621375
 40
0.5293162242000001
 40
0.6178995714
 40
0.7101599418000001
 40
0.8052095823
 40
0.9021337617
 40
1.0
 40
1.0
 40
1.0
 40
1.0
 10
115.4639068305
 20
41.7336624977
 30
0.0
 10
115.4639068305
 20
41.7337003034
 30
0.0
 10
115.463885165
 20
41.73378357239999
 30
0.0
 10
115.4637993503
 20
41.73389619189999
 30
0.0
 10
115.4636651119
 20
41.7340057612
 30
0.0
 10
115.4634811092
 20
41.7341146023
 30
0.0
 10
115.4632466233
 20
41.7342235171
 30
0.0
 10
115.4628354934
 20
41.73438031269999
 30
0.0
 10
115.4621893745
 20
41.7345693788
 30
0.0
 10
115.4612575932
 20
41.7347846439
 30
0.0
 10
115.4601210648
 20
41.73500023689999
 30
0.0
 10
115.4587803218
 20
41.7352159225
 30
0.0
 10
115.4572358481
 20
41.7354311821
 30
0.0
 10
115.4554885013
 20
41.73564579559999
 30
0.0
 10
115.4527574866
 20
41.73594505559999
 30
0.0
 10
115.4488440225
 20
41.7363089832
 30
0.0
 10
115.4435550075
 20
41.73672323449999
 30
0.0
 10
115.4374871475
 20
41.7371312411
 30
0.0
 10
115.4306549968
 20
41.7375318224
 30
0.0
 10
115.4230749326
 20
41.7379237022
 30
0.0
 10
115.4147651852
 20
41.73830582969999
 30
0.0
 10
115.4022866459
 20
41.73881939429999
 30
0.0
 10
115.3850282869
 20
41.7394202157
 30
0.0
 10
115.3624460787
 20
41.74006572389999
 30
0.0
 10
115.3375306577
 20
41.7406517195
 30
0.0
 10
115.3105219298
 20
41.741172219
 30
0.0
 10
115.2816799546
 20
41.7416218126
 30
0.0
 10
115.2512824737
 20
41.7419959602
 30
0.0
 10
115.2196222173
 20
41.7422909001
 30
0.0
 10
115.1870040885
 20
41.74250369
 30
0.0
 10
115.1537421877
 20
41.74263221429999
 30
0.0
 10
115.1313879829
 20
41.74266082369999
 30
0.0
 10
115.1201568305
 20
41.74266082369999
 30
0.0
  0
SPLINE
  5
18EB
330
21B
100
AcDbEntity
  8
DEFAULT_2
  6
HIDDEN
 62
     8
100
AcDbSpline
210
0.0
220
0.0
230
1.0
 70
     8
 71
     3
 72
    40
 73
    36
 74
     0
 42
0.0000001
 43
0.0000000001
 40
0.0
 40
0.0
 40
0.0
 40
0.0
 40
0.0978661268
 40
0.1947902828
 40
0.2898398655
 40
0.3821001708
 40
0.4706834534000001
 40
0.5547374871999999
 40
0.6334538154000001
 40
0.7060756104000001
 40
0.7719050854000001
 40
0.8020725486999999
 40
0.8303105268000001
 40
0.8565514178
 40
0.8807325356999998
 40
0.9027963054
 40
0.9226904690999999
 40
0.940368325
 40
0.9557890384
 40
0.9626419879
 40
0.968918247
 40
0.9746146766
 40
0.9797286379999999
 40
0.9842581858
 40
0.9882022273
 40
0.9915608468000002
 40
0.9943361059
 40
0.9955066539
 40
0.9965340059999999
 40
0.9974201947999999
 40
0.9981684922999999
 40
0.9987845039999999
 40
0.9992785082999999
 40
0.9996705679999999
 40
1.0
 40
1.0
 40
1.0
 40
1.0
 10
112.2451568305
 20
41.7451149126
 30
0.0
 10
112.2308626432
 20
41.7451149126
 30
0.0
 10
112.2024118378
 20
41.7450785007
 30
0.0
 10
112.1600785093
 20
41.7449149244
 30
0.0
 10
112.1185645207
 20
41.74464410099999
 30
0.0
 10
112.0782696495
 20
41.744268722
 30
0.0
 10
112.039581947
 20
41.74379253709999
 30
0.0
 10
112.0028739785
 20
41.7432203163
 30
0.0
 10
111.9684992254
 20
41.7425578993
 30
0.0
 10
111.9367887043
 20
41.7418119659
 30
0.0
 10
111.9121703875
 20
41.74110859039999
 30
0.0
 10
111.894034912
 20
41.7405022984
 30
0.0
 10
111.8816800288
 20
41.7400447221
 30
0.0
 10
111.870200748
 20
41.73957217069999
 30
0.0
 10
111.859624705
 20
41.7390858565
 30
0.0
 10
111.8499773532
 20
41.7385870824
 30
0.0
 10
111.8412818763
 20
41.73807729129999
 30
0.0
 10
111.8335591756
 20
41.7375578906
 30
0.0
 10
111.827741518
 20
41.73710255469999
 30
0.0
 10
111.8235882633
 20
41.7367291696
 30
0.0
 10
111.8208519163
 20
41.73645862219999
 30
0.0
 10
111.8183710695
 20
41.7361866743
 30
0.0
 10
111.8161471672
 20
41.7359135613
 30
0.0
 10
111.8141814903
 20
41.73563956489999
 30
0.0
 10
111.8124750363
 20
41.7353651261
 30
0.0
 10
111.8110287054
 20
41.7350905383
 30
0.0
 10
111.8099885801
 20
41.7348508132
 30
0.0
 10
111.8092891822
 20
41.7346541784
 30
0.0
 10
111.8088605285
 20
41.73451525489999
 30
0.0
 10
111.8084971031
 20
41.7343764986
 30
0.0
 10
111.8081986552
 20
41.7342379083
 30
0.0
 10
111.8079644713
 20
41.734099378
 30
0.0
 10
111.8077936221
 20
41.733959927
 30
0.0
 10
111.8076844042
 20
41.7338165926
 30
0.0
 10
111.8076568305
 20
41.733710614
 30
0.0
 10
111.8076568305
 20
41.7336624977
 30
0.0
  0
SPLINE
  5
18EC
330
21B
100
AcDbEntity
  8
DEFAULT_2
  6
HIDDEN
 62
     8
100
AcDbSpline
210
0.0
220
0.0
230
1.0
 70
     8
 71
     3
 72
    39
 73
    35
 74
     0
 42
0.0000001
 43
0.0000000001
 40
0.0
 40
0.0
 40
0.0
 40
0.0
 40
0.0978661205
 40
0.1947903065
 40
0.2898399053
 40
0.3821002229999999
 40
0.4706835157000001
 40
0.5547375573
 40
0.6334538924000001
 40
0.7060756967000001
 40
0.7719051865000001
 40
0.8020726585
 40
0.8303106451999999
 40
0.8565515437
 40
0.8807326675
 40
0.9027964409999999
 40
0.9226906064999999
 40
0.9403684623
 40
0.9557891737
 40
0.9689182471999998
 40
0.9746146751999999
 40
0.9797286340000001
 40
0.9842581918
 40
0.9882022187999998
 40
0.9915608591999999
 40
0.9943360934999999
 40
0.9955066648
 40
0.9965340226999998
 40
0.9974201894
 40
0.9981684781
 40
0.9987845087999998
 40
0.9992785237999999
 40
0.9996705718999999
 40
1.0
 40
1.0
 40
1.0
 40
1.0
 10
112.4951568305
 20
41.72302811239999
 30
0.0
 10
112.4818836592
 20
41.72302811239999
 30
0.0
 10
112.4554650544
 20
41.72306192349999
 30
0.0
 10
112.416155535
 20
41.72321381569999
 30
0.0
 10
112.3776068285
 20
41.72346529449999
 30
0.0
 10
112.3401901621
 20
41.7238138608
 30
0.0
 10
112.3042658675
 20
41.7242560325
 30
0.0
 10
112.270179898
 20
41.7247873804
 30
0.0
 10
112.2382604854
 20
41.72540248199999
 30
0.0
 10
112.2088150012
 20
41.7260951344
 30
0.0
 10
112.1859551342
 20
41.7267482688
 30
0.0
 10
112.1691150477
 20
41.727311254
 30
0.0
 10
112.1576426544
 20
41.7277361466
 30
0.0
 10
112.1469833203
 20
41.7281749433
 30
0.0
 10
112.1371627089
 20
41.7286265242
 30
0.0
 10
112.1282044502
 20
41.7290896604
 30
0.0
 10
112.1201300889
 20
41.7295630734
 30
0.0
 10
112.1129589803
 20
41.730045263
 30
0.0
 10
112.1067083264
 20
41.7305348336
 30
0.0
 10
112.1020833244
 20
41.7309649271
 30
0.0
 10
112.0988557648
 20
41.7313186026
 30
0.0
 10
112.0967907143
 20
41.7315722288
 30
0.0
 10
112.0949654432
 20
41.7318266471
 30
0.0
 10
112.0933808777
 20
41.73208148839999
 30
0.0
 10
112.0920378575
 20
41.73233645599999
 30
0.0
 10
112.0910720262
 20
41.73255906589999
 30
0.0
 10
112.0904225835
 20
41.7327416504
 30
0.0
 10
112.0900245464
 20
41.7328706493
 30
0.0
 10
112.0896870847
 20
41.73299949739999
 30
0.0
 10
112.0894099577
 20
41.7331281909
 30
0.0
 10
112.0891924966
 20
41.73325682309999
 30
0.0
 10
112.0890338437
 20
41.733386309
 30
0.0
 10
112.0889324328
 20
41.73351941099999
 30
0.0
 10
112.0889068379
 20
41.73361781869999
 30
0.0
 10
112.0889068379
 20
41.7336624977
 30
0.0
  0
SPLINE
  5
18ED
330
21B
100
AcDbEntity
  8
DEFAULT_2
  6
HIDDEN
 62
     8
100
AcDbSpline
210
0.0
220
0.0
230
1.0
 70
     8
 71
     3
 72
    14
 73
    10
 74
     0
 42
0.0000001
 43
0.0000000001
 40
0.0
 40
0.0
 40
0.0
 40
0.0
 40
0.2136184525
 40
0.3324886496
 40
0.4578915943000001
 40
0.5886368518000001
 40
0.7234705106999999
 40
0.8610611003
 40
1.0
 40
1.0
 40
1.0
 40
1.0
 10
125.6072499102
 20
21.6736991771
 30
0.0
 10
124.7678115053
 20
21.6275550136
 30
0.0
 10
123.4609982056
 20
21.5603236178
 30
0.0
 10
121.6607534709
 20
21.4794214755
 30
0.0
 10
120.1859262371
 20
21.4227218025
 30
0.0
 10
118.6478938697
 20
21.3758710348
 30
0.0
 10
117.0615641941
 20
21.341011512
 30
0.0
 10
115.4427572161
 20
21.3190247998
 30
0.0
 10
114.3544575741
 20
21.3134386211
 30
0.0
 10
113.8076568306
 20
21.3134547807
 30
0.0
  0
SPLINE
  5
18EE
330
21B
100
AcDbEntity
  8
DEFAULT_2
  6
HIDDEN
 62
     8
100
AcDbSpline
210
0.0
220
0.0
230
1.0
 70
     8
 71
     3
 72
    28
 73
    24
 74
     0
 42
0.0000001
 43
0.0000000001
 40
0.0
 40
0.0
 40
0.0
 40
0.0
 40
0.0719810302
 40
0.1488617189
 40
0.2297047866
 40
0.3135127515
 40
0.399456085
 40
0.4865343807000001
 40
0.5724680778
 40
0.6543412110000001
 40
0.6928044509000002
 40
0.7291013681000001
 40
0.7628591226000001
 40
0.7937417561000001
 40
0.8214869686
 40
0.8460179667
 40
0.8862408825999999
 40
0.9031412219999999
 40
0.9186281166
 40
0.9331667512
 40
0.9471007679999999
 40
0.9739713823
 40
1.0
 40
1.0
 40
1.0
 40
1.0
 10
100.719470802
 20
24.7503944458
 30
0.0
 10
100.7187160925
 20
24.7970176395
 30
0.0
 10
100.7171683514
 20
24.8934379543
 30
0.0
 10
100.7157258331
 20
25.0422356072
 30
0.0
 10
100.7160129914
 20
25.1987045398
 30
0.0
 10
100.718994658
 20
25.3610221452
 30
0.0
 10
100.7258106011
 20
25.5272753111
 30
0.0
 10
100.7375997635
 20
25.6946411173
 30
0.0
 10
100.7547854344
 20
25.8588922608
 30
0.0
 10
100.774013638
 20
25.9911781237
 30
0.0
 10
100.7926299653
 20
26.0909361393
 30
0.0
 10
100.8077032329
 20
26.1596131601
 30
0.0
 10
100.8241730739
 20
26.2229138384
 30
0.0
 10
100.8420069569
 20
26.2800679045
 30
0.0
 10
100.861257927
 20
26.33044609
 30
0.0
 10
100.8870109042
 20
26.384565152
 30
0.0
 10
100.916988391
 20
26.4289414549
 30
0.0
 10
100.9512689781
 20
26.4613718172
 30
0.0
 10
100.9762124242
 20
26.4789301884
 30
0.0
 10
101.0016374383
 20
26.491947489
 30
0.0
 10
101.0354796578
 20
26.5040520781
 30
0.0
 10
101.0783600425
 20
26.5116477914
 30
0.0
 10
101.1125682213
 20
26.5136389249
 30
0.0
 10
101.1293985674
 20
26.5146607229
 30
0.0
  0
SPLINE
  5
18EF
330
21B
100
AcDbEntity
  8
DEFAULT_2
  6
HIDDEN
 62
     8
100
AcDbSpline
210
0.0
220
0.0
230
1.0
 70
     8
 71
     3
 72
    22
 73
    18
 74
     0
 42
0.0000001
 43
0.0000000001
 40
0.0
 40
0.0
 40
0.0
 40
0.0
 40
0.0891820592
 40
0.1779609234
 40
0.2654960566
 40
0.3505542139
 40
0.4314912373
 40
0.5066777308
 40
0.5755199700000001
 40
0.6380815434000001
 40
0.6947309731999999
 40
0.7461061587000001
 40
0.7934050008
 40
0.8378988246
 40
0.8801075964
 40
0.9206384848999999
 40
1.0
 40
1.0
 40
1.0
 40
1.0
 10
101.9674864087
 20
24.6670281825
 30
0.0
 10
101.9671408375
 20
24.6941016831
 30
0.0
 10
101.966511213
 20
24.7481297804
 30
0.0
 10
101.9680130504
 20
24.8287399154
 30
0.0
 10
101.9729170897
 20
24.9079699967
 30
0.0
 10
101.9812556304
 20
24.9845141346
 30
0.0
 10
101.9918720342
 20
25.0569711099
 30
0.0
 10
102.0028573504
 20
25.1243834673
 30
0.0
 10
102.0142490353
 20
25.186069782
 30
0.0
 10
102.0269999713
 20
25.2417511483
 30
0.0
 10
102.0423606992
 20
25.2912897389
 30
0.0
 10
102.0616631482
 20
25.3344946761
 30
0.0
 10
102.0861963957
 20
25.3707305908
 30
0.0
 10
102.1159939719
 20
25.3989212034
 30
0.0
 10
102.149354331
 20
25.4189561364
 30
0.0
 10
102.1961874891
 20
25.4351830108
 30
0.0
 10
102.2329230088
 20
25.4375253824
 30
0.0
 10
102.2569885301
 20
25.4387003049
 30
0.0
  0
SPLINE
  5
18F0
330
21B
100
AcDbEntity
  8
DEFAULT_2
  6
HIDDEN
 62
     8
100
AcDbSpline
210
0.0
220
0.0
230
1.0
 70
     8
 71
     3
 72
    23
 73
    19
 74
     0
 42
0.0000001
 43
0.0000000001
 40
0.0
 40
0.0
 40
0.0
 40
0.0
 40
0.1032446852
 40
0.2081123921
 40
0.3110766256
 40
0.4090111484000001
 40
0.455172256
 40
0.4990168137
 40
0.5792057554
 40
0.6503366305000001
 40
0.7137272625
 40
0.8195475017999999
 40
0.8624516949
 40
0.8990378329
 40
0.9303046759
 40
0.9571808083
 40
0.9802742221999999
 40
1.0
 40
1.0
 40
1.0
 40
1.0
 10
100.754810361
 20
22.7048258954
 30
0.0
 10
100.7553283503
 20
22.6752570049
 30
0.0
 10
100.7563602473
 20
22.6156541589
 30
0.0
 10
100.7561721009
 20
22.526535473
 30
0.0
 10
100.7525151931
 20
22.4390002105
 30
0.0
 10
100.7453682467
 20
22.3685162651
 30
0.0
 10
100.7361632495
 20
22.3154486913
 30
0.0
 10
100.7250506402
 20
22.267957517
 30
0.0
 10
100.7065683092
 20
22.2149451385
 30
0.0
 10
100.677125749
 20
22.1606370863
 30
0.0
 10
100.6353489774
 20
22.1056865727
 30
0.0
 10
100.5894814902
 20
22.0647073783
 30
0.0
 10
100.5440702166
 20
22.0370651921
 30
0.0
 10
100.5152518107
 20
22.0236292463
 30
0.0
 10
100.4894463467
 20
22.0150527729
 30
0.0
 10
100.4666488215
 20
22.0101873559
 30
0.0
 10
100.446805086
 20
22.0078304735
 30
0.0
 10
100.4345597394
 20
22.0071027245
 30
0.0
 10
100.4289192242
 20
22.006771099
 30
0.0
  0
SPLINE
  5
18F1
330
21B
100
AcDbEntity
  8
DEFAULT_2
  6
HIDDEN
 62
     8
100
AcDbSpline
210
0.0
220
0.0
230
1.0
 70
     8
 71
     3
 72
    23
 73
    19
 74
     0
 42
0.0000001
 43
0.0000000001
 40
0.0
 40
0.0
 40
0.0
 40
0.0
 40
0.0520955999
 40
0.1054833603
 40
0.1617580685
 40
0.222505289
 40
0.2886703161
 40
0.3600371538
 40
0.4356743542000001
 40
0.5137485968
 40
0.5920460684000001
 40
0.6682043267000001
 40
0.7398868467000001
 40
0.8053032351
 40
0.8634412098999998
 40
0.9142780734
 40
0.9589666774999999
 40
1.0
 40
1.0
 40
1.0
 40
1.0
 10
100.754810361
 20
22.7048258954
 30
0.0
 10
100.7620278946
 20
22.676638802
 30
0.0
 10
100.7767746659
 20
22.6195710179
 30
0.0
 10
100.8079852673
 20
22.5345250361
 30
0.0
 10
100.8536690215
 20
22.4505987667
 30
0.0
 10
100.9157233712
 20
22.3688120281
 30
0.0
 10
100.9937589896
 20
22.2898935339
 30
0.0
 10
101.0855451916
 20
22.2138283856
 30
0.0
 10
101.1883597102
 20
22.1413321778
 30
0.0
 10
101.2982642605
 20
22.0725991759
 30
0.0
 10
101.4110544811
 20
22.0081686598
 30
0.0
 10
101.5222983451
 20
21.9483442036
 30
0.0
 10
101.6279082629
 20
21.8932672414
 30
0.0
 10
101.7245959554
 20
21.8428478983
 30
0.0
 10
101.8103541843
 20
21.7966559361
 30
0.0
 10
101.884791475
 20
21.7539039724
 30
0.0
 10
101.9494395419
 20
21.7133951608
 30
0.0
 10
101.9890962824
 20
21.6865627042
 30
0.0
 10
102.0080637481
 20
21.6736992527
 30
0.0
  0
SPLINE
  5
18F2
330
21B
100
AcDbEntity
  8
DEFAULT_2
  6
HIDDEN
 62
     8
100
AcDbSpline
210
0.0
220
0.0
230
1.0
 70
     8
 71
     3
 72
    14
 73
    10
 74
     0
 42
0.0000001
 43
0.0000000001
 40
0.0
 40
0.0
 40
0.0
 40
0.0
 40
0.2849131088
 40
0.4228378468
 40
0.5553941007
 40
0.6809079652
 40
0.7978010423999999
 40
0.9046092943999999
 40
1.0
 40
1.0
 40
1.0
 40
1.0
 10
113.8076568305
 20
25.07399872
 30
0.0
 10
112.7099176274
 20
25.0739987572
 30
0.0
 10
111.0807252161
 20
25.0870775533
 30
0.0
 10
108.9412818088
 20
25.1307827803
 30
0.0
 10
107.4161691896
 20
25.1747014676
 30
0.0
 10
105.9724681012
 20
25.2286941285
 30
0.0
 10
104.6284060499
 20
25.2910578727
 30
0.0
 10
103.4008872504
 20
25.3598649972
 30
0.0
 10
102.6235460231
 20
25.4117631396
 30
0.0
 10
102.2570044036
 20
25.4386991383
 30
0.0
  0
SPLINE
  5
18F3
330
21B
100
AcDbEntity
  8
DEFAULT_2
  6
HIDDEN
 62
     8
100
AcDbSpline
210
0.0
220
0.0
230
1.0
 70
     8
 71
     3
 72
    14
 73
    10
 74
     0
 42
0.0000001
 43
0.0000000001
 40
0.0
 40
0.0
 40
0.0
 40
0.0
 40
0.2849131088
 40
0.4228378468
 40
0.5553941007
 40
0.6809079652
 40
0.7978010423999999
 40
0.9046092943999999
 40
1.0
 40
1.0
 40
1.0
 40
1.0
 10
113.8076568305
 20
25.07399872
 30
0.0
 10
114.9053960335
 20
25.0739987572
 30
0.0
 10
116.5345884448
 20
25.0870775533
 30
0.0
 10
118.6740318521
 20
25.1307827803
 30
0.0
 10
120.1991444713
 20
25.1747014676
 30
0.0
 10
121.6428455597
 20
25.2286941285
 30
0.0
 10
122.986907611
 20
25.2910578727
 30
0.0
 10
124.2144264105
 20
25.3598649972
 30
0.0
 10
124.9917676379
 20
25.4117631396
 30
0.0
 10
125.3583092573
 20
25.4386991383
 30
0.0
  0
SPLINE
  5
18F4
330
21B
100
AcDbEntity
  8
DEFAULT_2
  6
HIDDEN
 62
     8
100
AcDbSpline
210
0.0
220
0.0
230
1.0
 70
     8
 71
     3
 72
     9
 73
     5
 74
     0
 42
0.0000001
 43
0.0000000001
 40
0.0
 40
0.0
 40
0.0
 40
0.0
 40
0.2505098605
 40
1.0
 40
1.0
 40
1.0
 40
1.0
 10
100.7548098716
 20
22.7048278286
 30
0.0
 10
100.7518175904
 20
22.8756386485
 30
0.0
 10
100.7397709606
 20
23.5574894789
 30
0.0
 10
100.7277434389
 20
24.239341128
 30
0.0
 10
100.719470802
 20
24.7503944458
 30
0.0
  0
SPLINE
  5
18F5
330
21B
100
AcDbEntity
  8
DEFAULT_2
  6
HIDDEN
 62
     8
100
AcDbSpline
210
0.0
220
0.0
230
1.0
 70
     8
 71
     3
 72
     9
 73
     5
 74
     0
 42
0.0000001
 43
0.0000000001
 40
0.0
 40
0.0
 40
0.0
 40
0.0
 40
0.2509615602
 40
1.0
 40
1.0
 40
1.0
 40
1.0
 10
102.00806396
 20
21.6736991721
 30
0.0
 10
102.0049365794
 20
21.9240285759
 30
0.0
 10
101.9917551109
 20
22.9215005698
 30
0.0
 10
101.9770427224
 20
23.9189518246
 30
0.0
 10
101.9674982479
 20
24.6661008273
 30
0.0
  0
SPLINE
  5
18F6
330
21B
100
AcDbEntity
  8
DEFAULT_2
  6
HIDDEN
 62
     8
100
AcDbSpline
210
0.0
220
0.0
230
1.0
 70
     8
 71
     3
 72
    22
 73
    18
 74
     0
 42
0.0000001
 43
0.0000000001
 40
0.0
 40
0.0
 40
0.0
 40
0.0
 40
0.0609668333
 40
0.1225527315
 40
0.1852425019
 40
0.2491364395
 40
0.3142789431
 40
0.3803929957999999
 40
0.44710294
 40
0.5138332488000001
 40
0.5799766754000001
 40
0.6449669817000001
 40
0.7696685805
 40
0.8292950306999998
 40
0.8873015755
 40
0.9439947777
 40
1.0
 40
1.0
 40
1.0
 40
1.0
 10
101.1294016933
 20
26.5146608819
 30
0.0
 10
101.1349915965
 20
26.4801513903
 30
0.0
 10
101.1463410367
 20
26.4107976809
 30
0.0
 10
101.1675815519
 20
26.3066633003
 30
0.0
 10
101.1967583165
 20
26.2026644443
 30
0.0
 10
101.2353808974
 20
26.0995679587
 30
0.0
 10
101.2847047115
 20
25.9989203107
 30
0.0
 10
101.3445207995
 20
25.9022180739
 30
0.0
 10
101.4144369199
 20
25.8113837213
 30
0.0
 10
101.4931600315
 20
25.7280468008
 30
0.0
 10
101.5793913163
 20
25.6539687949
 30
0.0
 10
101.7001822933
 20
25.57037594
 30
0.0
 10
101.8304923323
 20
25.508295127
 30
0.0
 10
101.9643242157
 20
25.4701720371
 30
0.0
 10
102.0628420233
 20
25.4523405764
 30
0.0
 10
102.1603679557
 20
25.4431615615
 30
0.0
 10
102.2249243721
 20
25.440126513
 30
0.0
 10
102.2570068666
 20
25.4386991845
 30
0.0
  0
SPLINE
  5
18F7
330
21B
100
AcDbEntity
  8
DEFAULT_2
  6
HIDDEN
 62
     8
100
AcDbSpline
210
0.0
220
0.0
230
1.0
 70
     8
 71
     3
 72
    23
 73
    19
 74
     0
 42
0.0000001
 43
0.0000000001
 40
0.0
 40
0.0
 40
0.0
 40
0.0
 40
0.0826718636
 40
0.1646424738
 40
0.3239640836
 40
0.4736270574
 40
0.6104964726
 40
0.6734608254000002
 40
0.7325396548000001
 40
0.7875994641
 40
0.8385507645
 40
0.8853186464
 40
0.9071151712
 40
0.9278444137000001
 40
0.9475003573
 40
0.9660797027999999
 40
0.9835798100999999
 40
1.0
 40
1.0
 40
1.0
 40
1.0
 10
113.8076567994
 20
27.1016496238
 30
0.0
 10
113.4578214395
 20
27.1000018308
 30
0.0
 10
112.7611289966
 20
27.093811032
 30
0.0
 10
111.3903961318
 20
27.0714760313
 30
0.0
 10
109.736532071
 20
27.0277620245
 30
0.0
 10
107.8512111073
 20
26.9544144533
 30
0.0
 10
106.3741417923
 20
26.8790791778
 30
0.0
 10
105.2804587993
 20
26.8137141053
 30
0.0
 10
104.5325938025
 20
26.765106369
 30
0.0
 10
103.8356776249
 20
26.7165363964
 30
0.0
 10
103.1909069973
 20
26.6691448429
 30
0.0
 10
102.6866195114
 20
26.6307085319
 30
0.0
 10
102.3098741169
 20
26.6017023239
 30
0.0
 10
102.0475177923
 20
26.5815142499
 30
0.0
 10
101.7987232447
 20
26.5625296659
 30
0.0
 10
101.563530482
 20
26.5448858243
 30
0.0
 10
101.3419591948
 20
26.5287241277
 30
0.0
 10
101.1987555287
 20
26.5188714983
 30
0.0
 10
101.1293985674
 20
26.5146607229
 30
0.0
  0
SPLINE
  5
18F8
330
21B
100
AcDbEntity
  8
DEFAULT_2
  6
HIDDEN
 62
     8
100
AcDbSpline
210
0.0
220
0.0
230
1.0
 70
     8
 71
     3
 72
    14
 73
    10
 74
     0
 42
0.0000001
 43
0.0000000001
 40
0.0
 40
0.0
 40
0.0
 40
0.0
 40
0.2136184525
 40
0.3324886496
 40
0.4578915943000001
 40
0.5886368518000001
 40
0.7234705106999999
 40
0.8610611003
 40
1.0
 40
1.0
 40
1.0
 40
1.0
 10
102.0080637507
 20
21.6736991771
 30
0.0
 10
102.8475021556
 20
21.6275550136
 30
0.0
 10
104.1543154553
 20
21.5603236178
 30
0.0
 10
105.9545601901
 20
21.4794214755
 30
0.0
 10
107.4293874238
 20
21.4227218025
 30
0.0
 10
108.9674197912
 20
21.3758710348
 30
0.0
 10
110.5537494668
 20
21.341011512
 30
0.0
 10
112.1725564448
 20
21.3190247998
 30
0.0
 10
113.2608560869
 20
21.3134386211
 30
0.0
 10
113.8076568304
 20
21.3134547807
 30
0.0
  0
SPLINE
  5
18F9
330
21B
100
AcDbEntity
  8
DEFAULT_2
  6
HIDDEN
 62
     8
100
AcDbSpline
210
0.0
220
0.0
230
1.0
 70
     8
 71
     3
 72
    23
 73
    19
 74
     0
 42
0.0000001
 43
0.0000000001
 40
0.0
 40
0.0
 40
0.0
 40
0.0
 40
0.1032446852
 40
0.2081123921
 40
0.3110766256
 40
0.4090111484000001
 40
0.455172256
 40
0.4990168137
 40
0.5792057554
 40
0.6503366305000001
 40
0.7137272625
 40
0.8195475017999999
 40
0.8624516949
 40
0.8990378329
 40
0.9303046759
 40
0.9571808083
 40
0.9802742221999999
 40
1.0
 40
1.0
 40
1.0
 40
1.0
 10
126.8605032999
 20
22.7048258954
 30
0.0
 10
126.8599853107
 20
22.6752570049
 30
0.0
 10
126.8589534136
 20
22.6156541589
 30
0.0
 10
126.85914156
 20
22.526535473
 30
0.0
 10
126.8627984678
 20
22.4390002105
 30
0.0
 10
126.8699454142
 20
22.3685162651
 30
0.0
 10
126.8791504114
 20
22.3154486913
 30
0.0
 10
126.8902630208
 20
22.267957517
 30
0.0
 10
126.9087453517
 20
22.2149451385
 30
0.0
 10
126.938187912
 20
22.1606370863
 30
0.0
 10
126.9799646835
 20
22.1056865727
 30
0.0
 10
127.0258321707
 20
22.0647073783
 30
0.0
 10
127.0712434443
 20
22.0370651921
 30
0.0
 10
127.1000618502
 20
22.0236292463
 30
0.0
 10
127.1258673142
 20
22.0150527729
 30
0.0
 10
127.1486648395
 20
22.0101873559
 30
0.0
 10
127.1685085749
 20
22.0078304735
 30
0.0
 10
127.1807539215
 20
22.0071027245
 30
0.0
 10
127.1863944367
 20
22.006771099
 30
0.0
  0
SPLINE
  5
18FA
330
21B
100
AcDbEntity
  8
DEFAULT_2
  6
HIDDEN
 62
     8
100
AcDbSpline
210
0.0
220
0.0
230
1.0
 70
     8
 71
     3
 72
    23
 73
    19
 74
     0
 42
0.0000001
 43
0.0000000001
 40
0.0
 40
0.0
 40
0.0
 40
0.0
 40
0.0520955999
 40
0.1054833603
 40
0.1617580685
 40
0.222505289
 40
0.2886703161
 40
0.3600371538
 40
0.4356743542000001
 40
0.5137485968
 40
0.5920460684000001
 40
0.6682043267000001
 40
0.7398868467000001
 40
0.8053032351
 40
0.8634412098999998
 40
0.9142780734
 40
0.9589666774999999
 40
1.0
 40
1.0
 40
1.0
 40
1.0
 10
126.8605032999
 20
22.7048258954
 30
0.0
 10
126.8532857663
 20
22.676638802
 30
0.0
 10
126.838538995
 20
22.6195710179
 30
0.0
 10
126.8073283936
 20
22.5345250361
 30
0.0
 10
126.7616446394
 20
22.4505987667
 30
0.0
 10
126.6995902897
 20
22.3688120281
 30
0.0
 10
126.6215546713
 20
22.2898935339
 30
0.0
 10
126.5297684694
 20
22.2138283856
 30
0.0
 10
126.4269539507
 20
22.1413321778
 30
0.0
 10
126.3170494005
 20
22.0725991759
 30
0.0
 10
126.2042591798
 20
22.0081686598
 30
0.0
 10
126.0930153158
 20
21.9483442036
 30
0.0
 10
125.9874053981
 20
21.8932672414
 30
0.0
 10
125.8907177055
 20
21.8428478983
 30
0.0
 10
125.8049594766
 20
21.7966559361
 30
0.0
 10
125.730522186
 20
21.7539039724
 30
0.0
 10
125.6658741191
 20
21.7133951608
 30
0.0
 10
125.6262173785
 20
21.6865627042
 30
0.0
 10
125.6072499128
 20
21.6736992527
 30
0.0
  0
SPLINE
  5
18FB
330
21B
100
AcDbEntity
  8
DEFAULT_2
  6
HIDDEN
 62
     8
100
AcDbSpline
210
0.0
220
0.0
230
1.0
 70
     8
 71
     3
 72
    23
 73
    19
 74
     0
 42
0.0000001
 43
0.0000000001
 40
0.0
 40
0.0
 40
0.0
 40
0.0
 40
0.0826718636
 40
0.1646424738
 40
0.3239640836
 40
0.4736270574
 40
0.6104964726
 40
0.6734608254000002
 40
0.7325396548000001
 40
0.7875994641
 40
0.8385507645
 40
0.8853186464
 40
0.9071151712
 40
0.9278444137000001
 40
0.9475003573
 40
0.9660797027999999
 40
0.9835798100999999
 40
1.0
 40
1.0
 40
1.0
 40
1.0
 10
113.8076568616
 20
27.1016496238
 30
0.0
 10
114.1574922214
 20
27.1000018308
 30
0.0
 10
114.8541846644
 20
27.093811032
 30
0.0
 10
116.2249175292
 20
27.0714760313
 30
0.0
 10
117.8787815899
 20
27.0277620245
 30
0.0
 10
119.7641025537
 20
26.9544144533
 30
0.0
 10
121.2411718687
 20
26.8790791778
 30
0.0
 10
122.3348548616
 20
26.8137141053
 30
0.0
 10
123.0827198585
 20
26.765106369
 30
0.0
 10
123.7796360361
 20
26.7165363964
 30
0.0
 10
124.4244066636
 20
26.6691448429
 30
0.0
 10
124.9286941495
 20
26.6307085319
 30
0.0
 10
125.305439544
 20
26.6017023239
 30
0.0
 10
125.5677958686
 20
26.5815142499
 30
0.0
 10
125.8165904162
 20
26.5625296659
 30
0.0
 10
126.0517831789
 20
26.5448858243
 30
0.0
 10
126.2733544662
 20
26.5287241277
 30
0.0
 10
126.4165581323
 20
26.5188714983
 30
0.0
 10
126.4859150936
 20
26.5146607229
 30
0.0
  0
SPLINE
  5
18FC
330
21B
100
AcDbEntity
  8
DEFAULT_2
  6
HIDDEN
 62
     8
100
AcDbSpline
210
0.0
220
0.0
230
1.0
 70
     8
 71
     3
 72
    28
 73
    24
 74
     0
 42
0.0000001
 43
0.0000000001
 40
0.0
 40
0.0
 40
0.0
 40
0.0
 40
0.0719810302
 40
0.1488617189
 40
0.2297047866
 40
0.3135127515
 40
0.399456085
 40
0.4865343807000001
 40
0.5724680778
 40
0.6543412110000001
 40
0.6928044509000002
 40
0.7291013681000001
 40
0.7628591226000001
 40
0.7937417561000001
 40
0.8214869686
 40
0.8460179667
 40
0.8862408825999999
 40
0.9031412219999999
 40
0.9186281166
 40
0.9331667512
 40
0.9471007679999999
 40
0.9739713823
 40
1.0
 40
1.0
 40
1.0
 40
1.0
 10
126.8958428589
 20
24.7503944458
 30
0.0
 10
126.8965975685
 20
24.7970176395
 30
0.0
 10
126.8981453095
 20
24.8934379543
 30
0.0
 10
126.8995878278
 20
25.0422356072
 30
0.0
 10
126.8993006695
 20
25.1987045398
 30
0.0
 10
126.896319003
 20
25.3610221452
 30
0.0
 10
126.8895030599
 20
25.5272753111
 30
0.0
 10
126.8777138974
 20
25.6946411173
 30
0.0
 10
126.8605282265
 20
25.8588922608
 30
0.0
 10
126.8413000229
 20
25.9911781237
 30
0.0
 10
126.8226836957
 20
26.0909361393
 30
0.0
 10
126.807610428
 20
26.1596131601
 30
0.0
 10
126.7911405871
 20
26.2229138384
 30
0.0
 10
126.773306704
 20
26.2800679045
 30
0.0
 10
126.7540557339
 20
26.33044609
 30
0.0
 10
126.7283027567
 20
26.384565152
 30
0.0
 10
126.6983252699
 20
26.4289414549
 30
0.0
 10
126.6640446828
 20
26.4613718172
 30
0.0
 10
126.6391012367
 20
26.4789301884
 30
0.0
 10
126.6136762226
 20
26.491947489
 30
0.0
 10
126.5798340032
 20
26.5040520781
 30
0.0
 10
126.5369536184
 20
26.5116477914
 30
0.0
 10
126.5027454396
 20
26.5136389249
 30
0.0
 10
126.4859150935
 20
26.5146607229
 30
0.0
  0
SPLINE
  5
18FD
330
21B
100
AcDbEntity
  8
DEFAULT_2
  6
HIDDEN
 62
     8
100
AcDbSpline
210
0.0
220
0.0
230
1.0
 70
     8
 71
     3
 72
    22
 73
    18
 74
     0
 42
0.0000001
 43
0.0000000001
 40
0.0
 40
0.0
 40
0.0
 40
0.0
 40
0.0891820592
 40
0.1779609234
 40
0.2654960566
 40
0.3505542139
 40
0.4314912373
 40
0.5066777308
 40
0.5755199700000001
 40
0.6380815434000001
 40
0.6947309731999999
 40
0.7461061587000001
 40
0.7934050008
 40
0.8378988246
 40
0.8801075964
 40
0.9206384848999999
 40
1.0
 40
1.0
 40
1.0
 40
1.0
 10
125.6478272522
 20
24.6670281825
 30
0.0
 10
125.6481728234
 20
24.6941016831
 30
0.0
 10
125.6488024479
 20
24.7481297804
 30
0.0
 10
125.6473006105
 20
24.8287399154
 30
0.0
 10
125.6423965712
 20
24.9079699967
 30
0.0
 10
125.6340580305
 20
24.9845141346
 30
0.0
 10
125.6234416267
 20
25.0569711099
 30
0.0
 10
125.6124563105
 20
25.1243834673
 30
0.0
 10
125.6010646257
 20
25.186069782
 30
0.0
 10
125.5883136896
 20
25.2417511483
 30
0.0
 10
125.5729529617
 20
25.2912897389
 30
0.0
 10
125.5536505127
 20
25.3344946761
 30
0.0
 10
125.5291172652
 20
25.3707305908
 30
0.0
 10
125.499319689
 20
25.3989212034
 30
0.0
 10
125.4659593299
 20
25.4189561364
 30
0.0
 10
125.4191261718
 20
25.4351830108
 30
0.0
 10
125.3823906521
 20
25.4375253824
 30
0.0
 10
125.3583251308
 20
25.4387003049
 30
0.0
  0
SPLINE
  5
18FE
330
21B
100
AcDbEntity
  8
DEFAULT_2
  6
HIDDEN
 62
     8
100
AcDbSpline
210
0.0
220
0.0
230
1.0
 70
     8
 71
     3
 72
     9
 73
     5
 74
     0
 42
0.0000001
 43
0.0000000001
 40
0.0
 40
0.0
 40
0.0
 40
0.0
 40
0.2505098605
 40
1.0
 40
1.0
 40
1.0
 40
1.0
 10
126.8605037894
 20
22.7048278286
 30
0.0
 10
126.8634960705
 20
22.8756386485
 30
0.0
 10
126.8755427004
 20
23.5574894789
 30
0.0
 10
126.887570222
 20
24.239341128
 30
0.0
 10
126.8958428589
 20
24.7503944458
 30
0.0
  0
SPLINE
  5
18FF
330
21B
100
AcDbEntity
  8
DEFAULT_2
  6
HIDDEN
 62
     8
100
AcDbSpline
210
0.0
220
0.0
230
1.0
 70
     8
 71
     3
 72
     9
 73
     5
 74
     0
 42
0.0000001
 43
0.0000000001
 40
0.0
 40
0.0
 40
0.0
 40
0.0
 40
0.2509615602
 40
1.0
 40
1.0
 40
1.0
 40
1.0
 10
125.6072497009
 20
21.6736991721
 30
0.0
 10
125.6103770816
 20
21.9240285759
 30
0.0
 10
125.62355855
 20
22.9215005698
 30
0.0
 10
125.6382709385
 20
23.9189518246
 30
0.0
 10
125.6478154131
 20
24.6661008273
 30
0.0
  0
LINE
  5
1900
330
21B
100
AcDbEntity
  8
0
  6
Continuous
 62
     7
100
AcDbLine
 10
113.8076568305
 20
43.21413151419999
 30
0.0
 11
116.9084916189
 21
43.2143434761
 31
0.0
  0
SPLINE
  5
1901
330
21B
100
AcDbEntity
  8
0
  6
Continuous
 62
     7
100
AcDbSpline
210
0.0
220
0.0
230
1.0
 70
     8
 71
     3
 72
    67
 73
    63
 74
     0
 42
0.0000001
 43
0.0000000001
 40
0.0
 40
0.0
 40
0.0
 40
0.0
 40
0.0534054574
 40
0.1048504206
 40
0.1537343759
 40
0.1995769669
 40
0.2420153814
 40
0.2807910047
 40
0.3157312873
 40
0.3317281839
 40
0.346731045
 40
0.3607344501
 40
0.3737352732
 40
0.3857323707
 40
0.3967263516
 40
0.4067194450000001
 40
0.4157154963
 40
0.4237201526
 40
0.4307413559000001
 40
0.4367903981000001
 40
0.4394556357
 40
0.4418848835000001
 40
0.4440819139000001
 40
0.4460517437
 40
0.4478012393000001
 40
0.4493401030000001
 40
0.4506824892
 40
0.4512866950000001
 40
0.4518505689000001
 40
0.4528743454
 40
0.453801584
 40
0.454694245
 40
0.4556211248
 40
0.4566440635000001
 40
0.4578096455
 40
0.4591496234
 40
0.4606849410000001
 40
0.462429509
 40
0.4643927904
 40
0.4665814155
 40
0.4690001678000001
 40
0.4716525956
 40
0.4745413967000001
 40
0.4810356694
 40
0.4884956938000001
 40
0.4969294679
 40
0.5063424479
 40
0.5167383074
 40
0.5281192868
 40
0.5404863060000001
 40
0.5538389246000001
 40
0.5681751909
 40
0.5834914024
 40
0.6170376827000001
 40
0.6543997428
 40
0.6954436682999999
 40
0.7399611986
 40
0.7876494732
 40
0.8380929595999999
 40
0.8907532862
 40
0.9449732748999998
 40
1.0
 40
1.0
 40
1.0
 40
1.0
 10
116.9084916189
 20
43.2143434761
 30
0.0
 10
117.5471725403
 20
43.2144834047
 30
0.0
 10
118.8010886497
 20
43.2149573871
 30
0.0
 10
120.6396116717
 20
43.21719712359999
 30
0.0
 10
122.387684875
 20
43.22215612639999
 30
0.0
 10
124.0280314877
 20
43.2312068277
 30
0.0
 10
125.5474503698
 20
43.2457675925
 30
0.0
 10
126.9363947336
 20
43.2672216988
 30
0.0
 10
128.0089995414
 20
43.2925448306
 30
0.0
 10
128.7971745015
 20
43.3180661735
 30
0.0
 10
129.3349647971
 20
43.33911065279999
 30
0.0
 10
129.8367823532
 20
43.3627259147
 30
0.0
 10
130.3024698458
 20
43.3890082777
 30
0.0
 10
130.7319310023
 20
43.41803673789999
 30
0.0
 10
131.1251186554
 20
43.44987625329999
 30
0.0
 10
131.4820259826
 20
43.4845750884
 30
0.0
 10
131.8026764777
 20
43.5221662371
 30
0.0
 10
132.0871283663999
 20
43.56265714479999
 30
0.0
 10
132.3354480531
 20
43.60605251049999
 30
0.0
 10
132.5194118483
 20
43.64609294979999
 30
0.0
 10
132.6482532073
 20
43.6802332459
 30
0.0
 10
132.7317388159
 20
43.7054843302
 30
0.0
 10
132.8062507495
 20
43.7314649552
 30
0.0
 10
132.8718103806
 20
43.7581746942
 30
0.0
 10
132.928452654
 20
43.78561658109999
 30
0.0
 10
132.9762074153
 20
43.8138000663
 30
0.0
 10
133.0097455651
 20
43.8387552097
 30
0.0
 10
133.0317442101
 20
43.8592337955
 30
0.0
 10
133.0494106919
 20
43.87862486289999
 30
0.0
 10
133.0666000442
 20
43.90359361289999
 30
0.0
 10
133.0787740202
 20
43.9357723605
 30
0.0
 10
133.081361873
 20
43.9689802431
 30
0.0
 10
133.0743214328
 20
44.0026452429
 30
0.0
 10
133.0580778563
 20
44.0364867864
 30
0.0
 10
133.0329522645
 20
44.070615498
 30
0.0
 10
132.9990282851
 20
44.1051986926
 30
0.0
 10
132.9562888054
 20
44.1403355358
 30
0.0
 10
132.9046961832
 20
44.1760676325
 30
0.0
 10
132.8442170709
 20
44.2124038984
 30
0.0
 10
132.7748264234
 20
44.2493373908
 30
0.0
 10
132.6965058566
 20
44.28685300669999
 30
0.0
 10
132.6092422754999
 20
44.3249340129
 30
0.0
 10
132.4756485914
 20
44.37854935699999
 30
0.0
 10
132.2858454417
 20
44.44621389409999
 30
0.0
 10
132.0303884094
 20
44.526529749
 30
0.0
 10
131.7390378947
 20
44.6085836556
 30
0.0
 10
131.4117527175
 20
44.6921429917
 30
0.0
 10
131.048495958
 20
44.7769481113
 30
0.0
 10
130.6492588914
 20
44.86272658789999
 30
0.0
 10
130.2140584277
 20
44.94918603649999
 30
0.0
 10
129.7429467576
 20
45.0360131322
 30
0.0
 10
129.2360202808
 20
45.1228758059
 30
0.0
 10
128.4896378767
 20
45.24190599669999
 30
0.0
 10
127.468717134
 20
45.3874742189
 30
0.0
 10
126.1398448654
 20
45.55118595009999
 30
0.0
 10
124.6777952109
 20
45.7050902999
 30
0.0
 10
123.0903492854
 20
45.8452178305
 30
0.0
 10
121.3887025625
 20
45.9674498749
 30
0.0
 10
119.5880803049
 20
46.06774989279999
 30
0.0
 10
117.7080326491
 20
46.1424450835
 30
0.0
 10
115.7722426434
 20
46.18856458799999
 30
0.0
 10
114.4657266617
 20
46.1989385149
 30
0.0
 10
113.8076568305
 20
46.19893850779999
 30
0.0
  0
SPLINE
  5
1902
330
21B
100
AcDbEntity
  8
0
  6
Continuous
 62
     7
100
AcDbSpline
210
0.0
220
0.0
230
1.0
 70
     8
 71
     3
 72
    67
 73
    63
 74
     0
 42
0.0000001
 43
0.0000000001
 40
0.0
 40
0.0
 40
0.0
 40
0.0
 40
0.0550267256
 40
0.1092467512
 40
0.1619071284
 40
0.2123506689
 40
0.2600390021
 40
0.30455658
 40
0.3456005476
 40
0.3829626397
 40
0.4165089332
 40
0.431825146
 40
0.4461614107
 40
0.4595140244
 40
0.4718810355
 40
0.4832620038
 40
0.4936578493
 40
0.5030708123
 40
0.5115045667000001
 40
0.5189645692
 40
0.5254588183
 40
0.5283476068000001
 40
0.5310000224
 40
0.5334187619
 40
0.5356073741
 40
0.5375706425
 40
0.5393151979000001
 40
0.5408505031000001
 40
0.5421904696000001
 40
0.5433560416
 40
0.5443789723
 40
0.5453058486
 40
0.5461985081
 40
0.5471257529
 40
0.5481495345000001
 40
0.5487134145
 40
0.5493176263000001
 40
0.5506600215999999
 40
0.552198899
 40
0.5539484054
 40
0.5559182486
 40
0.5581152909
 40
0.560544551
 40
0.5632098007000001
 40
0.5692588660000001
 40
0.5762800907
 40
0.5842847660000001
 40
0.5932808338000001
 40
0.6032739408
 40
0.6142679324
 40
0.6262650375
 40
0.6392658649000001
 40
0.6532692713000001
 40
0.6682721308000001
 40
0.6842690229000001
 40
0.7192092853000001
 40
0.7579848698000001
 40
0.8004232382999999
 40
0.8462657777
 40
0.8951496754
 40
0.9465945858999999
 40
1.0
 40
1.0
 40
1.0
 40
1.0
 10
113.8076568305
 20
46.19893850779999
 30
0.0
 10
113.1495870367
 20
46.1989385153
 30
0.0
 10
111.8430706939
 20
46.1885645858
 30
0.0
 10
109.9072797644
 20
46.14244504859999
 30
0.0
 10
108.0272305413
 20
46.0677497781
 30
0.0
 10
106.2266064567
 20
45.96744957779999
 30
0.0
 10
104.524957938
 20
45.84521734049999
 30
0.0
 10
102.9375103637
 20
45.705089523
 30
0.0
 10
101.4754593743
 20
45.55118488319999
 30
0.0
 10
100.1465861818
 20
45.3874728422
 30
0.0
 10
99.125664982
 20
45.2419043626
 30
0.0
 10
98.37928250290001
 20
45.12287398689999
 30
0.0
 10
97.872356143
 20
45.0360111977
 30
0.0
 10
97.40124470090002
 20
44.9491839968
 30
0.0
 10
96.9660445777
 20
44.8627244546
 30
0.0
 10
96.56680796190002
 20
44.7769458979
 30
0.0
 10
96.20355176149999
 20
44.69214070989999
 30
0.0
 10
95.8762672443
 20
44.6085813272
 30
0.0
 10
95.5849174949
 20
44.5265273687
 30
0.0
 10
95.32946128299998
 20
44.4462115464
 30
0.0
 10
95.13965894459998
 20
44.378546862
 30
0.0
 10
95.0060657975
 20
44.32493174899999
 30
0.0
 10
94.9188028062
 20
44.2868505379
 30
0.0
 10
94.8404826353
 20
44.249335153
 30
0.0
 10
94.77109261790001
 20
44.21240147319999
 30
0.0
 10
94.71061392660001
 20
44.176065405
 30
0.0
 10
94.65902193719999
 20
44.14033319779999
 30
0.0
 10
94.61628293149999
 20
44.1051964716
 30
0.0
 10
94.5823595351
 20
44.0706132624
 30
0.0
 10
94.55723450870001
 20
44.0364845781
 30
0.0
 10
94.5409914476
 20
44.0026430569
 30
0.0
 10
94.53395168879998
 20
43.9689780735
 30
0.0
 10
94.53654007850001
 20
43.9357702252
 30
0.0
 10
94.5487146954
 20
43.90359159489999
 30
0.0
 10
94.5659044783
 20
43.8786229083
 30
0.0
 10
94.5835713087
 20
43.85923188109999
 30
0.0
 10
94.6055703208
 20
43.83875332239999
 30
0.0
 10
94.63910897069998
 20
43.8137982858
 30
0.0
 10
94.68686418569999
 20
43.7856147891
 30
0.0
 10
94.74350703430001
 20
43.7581730551
 30
0.0
 10
94.80906711000001
 20
43.73146328359999
 30
0.0
 10
94.88357956870002
 20
43.7054828108
 30
0.0
 10
94.9670656199
 20
43.6802317203
 30
0.0
 10
95.09590760100001
 20
43.64609158239999
 30
0.0
 10
95.27987208499999
 20
43.60605121079999
 30
0.0
 10
95.5281925507
 20
43.5626559756
 30
0.0
 10
95.812645123
 20
43.5221651792
 30
0.0
 10
96.1332962027
 20
43.484574148
 30
0.0
 10
96.4902040057
 20
43.4498754259
 30
0.0
 10
96.8833920227
 20
43.4180360197
 30
0.0
 10
97.31285342820001
 20
43.3890076626
 30
0.0
 10
97.77854105350002
 20
43.3627253962
 30
0.0
 10
98.2803586292
 20
43.33911022319999
 30
0.0
 10
98.81814883389999
 20
43.31806582489999
 30
0.0
 10
99.6063234306
 20
43.2925445837
 30
0.0
 10
100.6789274098
 20
43.26722155239999
 30
0.0
 10
102.0678704274
 20
43.2457675039
 30
0.0
 10
103.5872875782
 20
43.2312067913
 30
0.0
 10
105.2276322263
 20
43.22215611439999
 30
0.0
 10
106.9757033773
 20
43.2171971229
 30
0.0
 10
108.8142244403
 20
43.2149573881
 30
0.0
 10
110.0681393191
 20
43.2144834064
 30
0.0
 10
110.7068196808
 20
43.2143434765
 30
0.0
  0
LINE
  5
1903
330
21B
100
AcDbEntity
  8
0
  6
Continuous
 62
     7
100
AcDbLine
 10
110.7068196808
 20
43.2143434765
 30
0.0
 11
113.8076568305
 21
43.21413151419999
 31
0.0
  0
LINE
  5
1904
330
21B
100
AcDbEntity
  8
0
  6
Continuous
 62
     7
100
AcDbLine
 10
113.8076568305
 20
43.0581169289
 30
0.0
 11
110.7066389193
 21
43.05825262039999
 31
0.0
  0
SPLINE
  5
1905
330
21B
100
AcDbEntity
  8
0
  6
Continuous
 62
     7
100
AcDbSpline
210
0.0
220
0.0
230
1.0
 70
     8
 71
     3
 72
    36
 73
    32
 74
     0
 42
0.0000001
 43
0.0000000001
 40
0.0
 40
0.0
 40
0.0
 40
0.0
 40
0.1111414186
 40
0.2185139724
 40
0.3209831438
 40
0.4176240868
 40
0.5077203029000001
 40
0.5907445419
 40
0.6663299570000002
 40
0.7342385649
 40
0.7652677940000002
 40
0.7943322697000001
 40
0.8214261944
 40
0.8465472598999998
 40
0.8696962654000001
 40
0.8908768737999999
 40
0.9100955768
 40
0.9273619210999999
 40
0.9426891712999999
 40
0.9560956954999999
 40
0.9676077295
 40
0.9726657524
 40
0.9772668707999999
 40
0.9814201929000001
 40
0.9851379554000001
 40
0.9884370383
 40
0.9913414178
 40
0.9938860271999999
 40
0.9961224534000001
 40
0.9981260052999999
 40
1.0
 40
1.0
 40
1.0
 40
1.0
 10
110.7066389193
 20
43.05825262039999
 30
0.0
 10
110.0996167256
 20
43.0583550097
 30
0.0
 10
108.9061567821
 20
43.0587187626
 30
0.0
 10
107.1530405721
 20
43.060535246
 30
0.0
 10
105.4791252248
 20
43.0646243205
 30
0.0
 10
103.8995798656
 20
43.0721446792
 30
0.0
 10
102.4262675071
 20
43.0843130536
 30
0.0
 10
101.0680193136
 20
43.10231905569999
 30
0.0
 10
99.8310824956
 20
43.1272816587
 30
0.0
 10
98.8782807671
 20
43.1554512863
 30
0.0
 10
98.1797078708
 20
43.18302641909999
 30
0.0
 10
97.7040351507
 20
43.20540527529999
 30
0.0
 10
97.2607955145
 20
43.2301821638
 30
0.0
 10
96.8500732599
 20
43.25742867439999
 30
0.0
 10
96.47191259080001
 20
43.287201521
 30
0.0
 10
96.12632544170001
 20
43.31954583399999
 30
0.0
 10
95.81329647889999
 20
43.35449260499999
 30
0.0
 10
95.5327902001
 20
43.3920601246
 30
0.0
 10
95.28474228040002
 20
43.43224411579999
 30
0.0
 10
95.0690865708
 20
43.4750403247
 30
0.0
 10
94.91004820090001
 20
43.5143377229
 30
0.0
 10
94.7993162726
 20
43.5477207643
 30
0.0
 10
94.7279784336
 20
43.5723294113
 30
0.0
 10
94.66468358700002
 20
43.59759379929999
 30
0.0
 10
94.6094092302
 20
43.6235174601
 30
0.0
 10
94.56212460459999
 20
43.6501075929
 30
0.0
 10
94.5227915078
 20
43.6773912707
 30
0.0
 10
94.49137380899999
 20
43.7054277258
 30
0.0
 10
94.4678740826
 20
43.7343443485
 30
0.0
 10
94.4524298474
 20
43.7642647777
 30
0.0
 10
94.44766144729999
 20
43.78519589079999
 30
0.0
 10
94.44676964979999
 20
43.7953921812
 30
0.0
  0
SPLINE
  5
1906
330
21B
100
AcDbEntity
  8
0
  6
Continuous
 62
     7
100
AcDbSpline
210
0.0
220
0.0
230
1.0
 70
     8
 71
     3
 72
    36
 73
    32
 74
     0
 42
0.0000001
 43
0.0000000001
 40
0.0
 40
0.0
 40
0.0
 40
0.0
 40
0.0018739947
 40
0.0038775466
 40
0.0061139728
 40
0.0086585822
 40
0.0115629617
 40
0.0148620446
 40
0.0185798071
 40
0.0227331292
 40
0.0273342476
 40
0.0323922705
 40
0.0439043045
 40
0.0573108287
 40
0.0726380789
 40
0.0899044232
 40
0.1091231262
 40
0.1303037346
 40
0.1534527401
 40
0.1785738056
 40
0.2056677303
 40
0.234732206
 40
0.2657614351
 40
0.333670043
 40
0.4092554581
 40
0.4922796971000001
 40
0.5823759132000001
 40
0.6790168562000001
 40
0.7814860276000001
 40
0.8888585813999998
 40
1.0
 40
1.0
 40
1.0
 40
1.0
 10
133.1685440111
 20
43.7953921812
 30
0.0
 10
133.1676522136
 20
43.78519589079999
 30
0.0
 10
133.1628838136
 20
43.7642647777
 30
0.0
 10
133.1474395783
 20
43.7343443485
 30
0.0
 10
133.123939852
 20
43.7054277258
 30
0.0
 10
133.0925221531
 20
43.6773912707
 30
0.0
 10
133.0531890563
 20
43.6501075929
 30
0.0
 10
133.0059044307
 20
43.6235174601
 30
0.0
 10
132.9506300739
 20
43.59759379929999
 30
0.0
 10
132.8873352273
 20
43.5723294113
 30
0.0
 10
132.8159973883
 20
43.5477207643
 30
0.0
 10
132.7052654601
 20
43.5143377229
 30
0.0
 10
132.5462270901
 20
43.4750403247
 30
0.0
 10
132.3305713806
 20
43.43224411579999
 30
0.0
 10
132.0825234608
 20
43.3920601246
 30
0.0
 10
131.8020171821
 20
43.35449260499999
 30
0.0
 10
131.4889882192
 20
43.31954583399999
 30
0.0
 10
131.1434010702
 20
43.287201521
 30
0.0
 10
130.7652404011
 20
43.25742867439999
 30
0.0
 10
130.3545181464
 20
43.2301821638
 30
0.0
 10
129.9112785102
 20
43.20540527529999
 30
0.0
 10
129.4356057901
 20
43.18302641909999
 30
0.0
 10
128.7370328938
 20
43.1554512863
 30
0.0
 10
127.7842311653
 20
43.1272816587
 30
0.0
 10
126.5472943474
 20
43.10231905569999
 30
0.0
 10
125.1890461538
 20
43.0843130536
 30
0.0
 10
123.7157337953
 20
43.0721446792
 30
0.0
 10
122.1361884361
 20
43.0646243205
 30
0.0
 10
120.4622730889
 20
43.060535246
 30
0.0
 10
118.7091568788
 20
43.0587187626
 30
0.0
 10
117.5156969354
 20
43.0583550097
 30
0.0
 10
116.9086747416
 20
43.05825262039999
 30
0.0
  0
LINE
  5
1907
330
21B
100
AcDbEntity
  8
0
  6
Continuous
 62
     7
100
AcDbLine
 10
116.9086747416
 20
43.05825262039999
 30
0.0
 11
113.8076568305
 21
43.0581169289
 31
0.0
  0
SPLINE
  5
1908
330
21B
100
AcDbEntity
  8
0
  6
Continuous
 62
     9
100
AcDbSpline
210
0.0
220
0.0
230
1.0
 70
     8
 71
     3
 72
    42
 73
    38
 74
     0
 42
0.0000001
 43
0.0000000001
 40
0.0
 40
0.0
 40
0.0
 40
0.0
 40
0.112293321
 40
0.2224812027
 40
0.3286417096
 40
0.4291763637
 40
0.5228476484000001
 40
0.608784904
 40
0.6863933245000001
 40
0.721961648
 40
0.7553329308
 40
0.7864792972
 40
0.8153870748999999
 40
0.8420579555999999
 40
0.8664909148999999
 40
0.8886758910999999
 40
0.9086111919
 40
0.9263140529000001
 40
0.9418057621999999
 40
0.9487266277999999
 40
0.9550988315999999
 40
0.960925064
 40
0.9662102620999998
 40
0.9709628796999998
 40
0.9751945670000001
 40
0.9789214708999999
 40
0.9821653430999999
 40
0.9849577685999999
 40
0.9873478641
 40
0.9894147670999998
 40
0.9903662176
 40
0.9912872375
 40
0.9921998018000001
 40
0.9931265491999999
 40
0.995102149
 40
0.9973614955
 40
1.0
 40
1.0
 40
1.0
 40
1.0
 10
113.8076568305
 20
46.0722677796
 30
0.0
 10
114.5112385005
 20
46.0722678409
 30
0.0
 10
115.9052418862
 20
46.06001147489999
 30
0.0
 10
117.9637539412
 20
46.0056669025
 30
0.0
 10
119.9473889378
 20
45.9183156379
 30
0.0
 10
121.8258778462
 20
45.8023401892
 30
0.0
 10
123.5756773472
 20
45.66280945839999
 30
0.0
 10
125.1796609997
 20
45.50527482199999
 30
0.0
 10
126.4187596153
 20
45.3593923764
 30
0.0
 10
127.3288343876
 20
45.2373399054
 30
0.0
 10
127.949417379
 20
45.14709912639999
 30
0.0
 10
128.5276577104
 20
45.0559611782
 30
0.0
 10
129.0632881331
 20
44.9644091966
 30
0.0
 10
129.5562115975
 20
44.8729481497
 30
0.0
 10
130.0063390579
 20
44.782026838
 30
0.0
 10
130.4135254495
 20
44.6919966627
 30
0.0
 10
130.7777168921
 20
44.6031929064
 30
0.0
 10
131.0990216423
 20
44.51598714
 30
0.0
 10
131.3394443167
 20
44.44247269579999
 30
0.0
 10
131.5101320541
 20
44.38417854979999
 30
0.0
 10
131.6225240883
 20
44.3426832292
 30
0.0
 10
131.7241664971
 20
44.3017825712
 30
0.0
 10
131.8150606527
 20
44.261498696
 30
0.0
 10
131.8952375137
 20
44.2218640256
 30
0.0
 10
131.9647485647
 20
44.18289987549999
 30
0.0
 10
132.023660096
 20
44.14462560199999
 30
0.0
 10
132.0720402798
 20
44.1070397443
 30
0.0
 10
132.1099468997
 20
44.0700732576
 30
0.0
 10
132.1374030391
 20
44.0336113721
 30
0.0
 10
132.1517831834
 20
44.00249766149999
 30
0.0
 10
132.1571446335
 20
43.9783175872
 30
0.0
 10
132.1583016994
 20
43.9608341671
 30
0.0
 10
132.1566791047
 20
43.9435407308
 30
0.0
 10
132.1507053329
 20
43.9203025954
 30
0.0
 10
132.1355002351
 20
43.8912537406
 30
0.0
 10
132.1068800454
 20
43.8587129235
 30
0.0
 10
132.0828552797
 20
43.8394123568
 30
0.0
 10
132.0693878894
 20
43.8298244652
 30
0.0
  0
SPLINE
  5
1909
330
21B
100
AcDbEntity
  8
0
  6
Continuous
 62
     9
100
AcDbSpline
210
0.0
220
0.0
230
1.0
 70
     8
 71
     3
 72
    42
 73
    38
 74
     0
 42
0.0000001
 43
0.0000000001
 40
0.0
 40
0.0
 40
0.0
 40
0.0
 40
0.112293321
 40
0.2224812027
 40
0.3286417096
 40
0.4291763637
 40
0.5228476484000001
 40
0.608784904
 40
0.6863933245000001
 40
0.721961648
 40
0.7553329308
 40
0.7864792972
 40
0.8153870748999999
 40
0.8420579555999999
 40
0.8664909148999999
 40
0.8886758910999999
 40
0.9086111919
 40
0.9263140529000001
 40
0.9418057621999999
 40
0.9487266277999999
 40
0.9550988315999999
 40
0.960925064
 40
0.9662102620999998
 40
0.9709628796999998
 40
0.9751945670000001
 40
0.9789214708999999
 40
0.9821653430999999
 40
0.9849577685999999
 40
0.9873478641
 40
0.9894147670999998
 40
0.9903662176
 40
0.9912872375
 40
0.9921998018000001
 40
0.9931265491999999
 40
0.995102149
 40
0.9973614955
 40
1.0
 40
1.0
 40
1.0
 40
1.0
 10
113.8076568305
 20
46.0722677796
 30
0.0
 10
113.1040751604
 20
46.0722678409
 30
0.0
 10
111.7100717748
 20
46.06001147489999
 30
0.0
 10
109.6515597197
 20
46.0056669025
 30
0.0
 10
107.6679247231
 20
45.9183156379
 30
0.0
 10
105.7894358147
 20
45.8023401892
 30
0.0
 10
104.0396363137
 20
45.66280945839999
 30
0.0
 10
102.4356526613
 20
45.50527482199999
 30
0.0
 10
101.1965540456
 20
45.3593923764
 30
0.0
 10
100.2864792733
 20
45.2373399054
 30
0.0
 10
99.66589628200001
 20
45.14709912639999
 30
0.0
 10
99.08765595049999
 20
45.0559611782
 30
0.0
 10
98.55202552790002
 20
44.9644091966
 30
0.0
 10
98.0591020635
 20
44.8729481497
 30
0.0
 10
97.608974603
 20
44.782026838
 30
0.0
 10
97.2017882115
 20
44.6919966627
 30
0.0
 10
96.83759676880001
 20
44.6031929064
 30
0.0
 10
96.51629201860002
 20
44.51598714
 30
0.0
 10
96.2758693443
 20
44.44247269579999
 30
0.0
 10
96.10518160680001
 20
44.38417854979999
 30
0.0
 10
95.99278957260001
 20
44.3426832292
 30
0.0
 10
95.89114716379999
 20
44.3017825712
 30
0.0
 10
95.8002530082
 20
44.261498696
 30
0.0
 10
95.72007614719998
 20
44.2218640256
 30
0.0
 10
95.65056509620001
 20
44.18289987549999
 30
0.0
 10
95.5916535649
 20
44.14462560199999
 30
0.0
 10
95.54327338110001
 20
44.1070397443
 30
0.0
 10
95.50536676120001
 20
44.0700732576
 30
0.0
 10
95.47791062180001
 20
44.0336113721
 30
0.0
 10
95.46353047750001
 20
44.00249766149999
 30
0.0
 10
95.4581690274
 20
43.9783175872
 30
0.0
 10
95.45701196160001
 20
43.9608341671
 30
0.0
 10
95.4586345563
 20
43.9435407308
 30
0.0
 10
95.46460832799999
 20
43.9203025954
 30
0.0
 10
95.47981342579999
 20
43.8912537406
 30
0.0
 10
95.5084336156
 20
43.8587129235
 30
0.0
 10
95.53245838129999
 20
43.8394123568
 30
0.0
 10
95.5459257715
 20
43.8298244652
 30
0.0
  0
SPLINE
  5
190A
330
21B
100
AcDbEntity
  8
0
  6
Continuous
 62
     9
100
AcDbSpline
210
0.0
220
0.0
230
1.0
 70
     8
 71
     3
 72
     9
 73
     5
 74
     0
 42
0.0000001
 43
0.0000000001
 40
0.0
 40
0.0
 40
0.0
 40
0.0
 40
0.4896862411
 40
1.0
 40
1.0
 40
1.0
 40
1.0
 10
94.4421645094
 20
43.8481103812
 30
0.0
 10
94.4429075352
 20
43.8405529251
 30
0.0
 10
94.4459979053
 20
43.8252385439
 30
0.0
 10
94.45195426709998
 20
43.81081856859999
 30
0.0
 10
94.4555655141
 20
43.8037767795
 30
0.0
  0
SPLINE
  5
190B
330
21B
100
AcDbEntity
  8
0
  6
Continuous
 62
     9
100
AcDbSpline
210
0.0
220
0.0
230
1.0
 70
     8
 71
     3
 72
    35
 73
    31
 74
     0
 42
0.0000001
 43
0.0000000001
 40
0.0
 40
0.0
 40
0.0
 40
0.0
 40
0.0019308758
 40
0.0041397193
 40
0.0066892013
 40
0.0096204259
 40
0.0129606011
 40
0.0167282692
 40
0.0209364723
 40
0.0255947134
 40
0.0307101141
 40
0.0362881759
 40
0.0488481244
 40
0.0633013699
 40
0.0796655679
 40
0.0979531697
 40
0.1181727546
 40
0.140329578
 40
0.1644256638
 40
0.1904595981
 40
0.2184261035
 40
0.28011235
 40
0.349338727
 40
0.4258442921000001
 40
0.5092167463
 40
0.5988536304
 40
0.6939289401000001
 40
0.7933752278
 40
0.8958936442
 40
1.0
 40
1.0
 40
1.0
 40
1.0
 10
94.4555655141
 20
43.8037767795
 30
0.0
 10
94.46127585079999
 20
43.7926418481
 30
0.0
 10
94.47664430530002
 20
43.7703353359
 30
0.0
 10
94.50771341639999
 20
43.7398538885
 30
0.0
 10
94.5479846041
 20
43.7102774617
 30
0.0
 10
94.59749270320001
 20
43.68153382649999
 30
0.0
 10
94.6562980989
 20
43.65356358249999
 30
0.0
 10
94.7244446378
 20
43.62635609819999
 30
0.0
 10
94.80196608259999
 20
43.5999087357
 30
0.0
 10
94.88888680950001
 20
43.5742254504
 30
0.0
 10
94.9852255378
 20
43.54930848689999
 30
0.0
 10
95.13216773370002
 20
43.5157778957
 30
0.0
 10
95.3397791709
 20
43.47651671829999
 30
0.0
 10
95.61771930649999
 20
43.43406998299999
 30
0.0
 10
95.93354642950002
 20
43.3946587399
 30
0.0
 10
96.28731590800001
 20
43.358266253
 30
0.0
 10
96.67906762240001
 20
43.3248699835
 30
0.0
 10
97.1088027074
 20
43.29442221899999
 30
0.0
 10
97.57648283729999
 20
43.2668599405
 30
0.0
 10
98.0820181708
 20
43.24209899189999
 30
0.0
 10
98.8311605392
 20
43.21170123209999
 30
0.0
 10
99.8604119478
 20
43.1811188445
 30
0.0
 10
101.2044174694
 20
43.15463197569999
 30
0.0
 10
102.6891095895
 20
43.13607831289999
 30
0.0
 10
104.3061457812
 20
43.124046293
 30
0.0
 10
106.0435587359
 20
43.11704449989999
 30
0.0
 10
107.8851537515
 20
43.11357178539999
 30
0.0
 10
109.8102347292
 20
43.11224788199999
 30
0.0
 10
111.793845103
 20
43.1119481649
 30
0.0
 10
113.1329558384
 20
43.1119388849
 30
0.0
 10
113.8076568305
 20
43.1119388783
 30
0.0
  0
SPLINE
  5
190C
330
21B
100
AcDbEntity
  8
0
  6
Continuous
 62
     9
100
AcDbSpline
210
0.0
220
0.0
230
1.0
 70
     8
 71
     3
 72
    35
 73
    31
 74
     0
 42
0.0000001
 43
0.0000000001
 40
0.0
 40
0.0
 40
0.0
 40
0.0
 40
0.104489009
 40
0.2072923577
 40
0.3068574591
 40
0.4018624060000001
 40
0.4912631042000001
 40
0.5742867145
 40
0.6504000261999999
 40
0.7192494247
 40
0.7806418918000002
 40
0.8084951701999999
 40
0.8344462237000001
 40
0.8584988276999999
 40
0.8806499321
 40
0.9008919850999999
 40
0.9192268012999999
 40
0.9356697394999999
 40
0.9502379643000001
 40
0.962940824
 40
0.9685959195999998
 40
0.9737898072
 40
0.9785275465000001
 40
0.9828164155999999
 40
0.9866661507999999
 40
0.9900897803000001
 40
0.9931042851999999
 40
0.9957336703000001
 40
0.9980137798000001
 40
1.0
 40
1.0
 40
1.0
 40
1.0
 10
113.8076568305
 20
45.8571570373
 30
0.0
 10
113.172435045
 20
45.8571586231
 30
0.0
 10
111.9122111301
 20
45.8462341415
 30
0.0
 10
110.0472702644
 20
45.79767017859999
 30
0.0
 10
108.2410510311
 20
45.7192961563
 30
0.0
 10
106.5177927403
 20
45.6146196059
 30
0.0
 10
104.8968751828
 20
45.4878101374
 30
0.0
 10
103.392768208
 20
45.3434527011
 30
0.0
 10
102.015655877
 20
45.1860170892
 30
0.0
 10
100.7721504141
 20
45.0197268688
 30
0.0
 10
99.8222503668
 20
44.8727864695
 30
0.0
 10
99.1322123742
 20
44.75314092689999
 30
0.0
 10
98.66690348360002
 20
44.6663665324
 30
0.0
 10
98.23682270429999
 20
44.57999921529999
 30
0.0
 10
97.84204501760001
 20
44.4943443037
 30
0.0
 10
97.48267640959999
 20
44.4096804138
 30
0.0
 10
97.15872167260002
 20
44.32631441949999
 30
0.0
 10
96.8700440803
 20
44.24457860109999
 30
0.0
 10
96.61652136249999
 20
44.1647554256
 30
0.0
 10
96.42785201030001
 20
44.0976770172
 30
0.0
 10
96.2948492964
 20
44.04461895649999
 30
0.0
 10
96.20787464870002
 20
44.0069736443
 30
0.0
 10
96.1297329415
 20
43.969946197
 30
0.0
 10
96.06039390870002
 20
43.9335616484
 30
0.0
 10
95.9998164227
 20
43.89784021759999
 30
0.0
 10
95.9479512875
 20
43.8627999213
 30
0.0
 10
95.9047552172
 20
43.82844336939999
 30
0.0
 10
95.87019062360001
 20
43.7947296192
 30
0.0
 10
95.84425082790001
 20
43.7616130931
 30
0.0
 10
95.83207210209998
 20
43.73845747589999
 30
0.0
 10
95.82782011270001
 20
43.72715602149999
 30
0.0
  0
SPLINE
  5
190D
330
21B
100
AcDbEntity
  8
0
  6
Continuous
 62
     9
100
AcDbSpline
210
0.0
220
0.0
230
1.0
 70
     8
 71
     3
 72
    25
 73
    21
 74
     0
 42
0.0000001
 43
0.0000000001
 40
0.0
 40
0.0
 40
0.0
 40
0.0
 40
0.009779526
 40
0.0207719136
 40
0.033033524
 40
0.0466048744
 40
0.0615157529
 40
0.0777883243
 40
0.1144784652
 40
0.134921973
 40
0.1567745929
 40
0.2047295489
 40
0.2583819704
 40
0.3177566459
 40
0.3828712106
 40
0.4537386626
 40
0.5303683953000001
 40
0.6127662674000001
 40
0.7948680644000001
 40
1.0
 40
1.0
 40
1.0
 40
1.0
 10
95.5459257715
 20
43.8298244652
 30
0.0
 10
95.55826808190001
 20
43.8210358421
 30
0.0
 10
95.58549651209998
 20
43.8037791364
 30
0.0
 10
95.6308055258
 20
43.779898248
 30
0.0
 10
95.6829002879
 20
43.7565519403
 30
0.0
 10
95.74178476510001
 20
43.7337428631
 30
0.0
 10
95.80746796760001
 20
43.7114680012
 30
0.0
 10
95.90821463389998
 20
43.6812687877
 30
0.0
 10
96.01861321340001
 20
43.6536843361
 30
0.0
 10
96.1382193841
 20
43.6277871704
 30
0.0
 10
96.2754425335
 20
43.6008746851
 30
0.0
 10
96.46407615440001
 20
43.5689760529
 30
0.0
 10
96.7110366022
 20
43.5339281
 30
0.0
 10
96.98508547200001
 20
43.5010266429
 30
0.0
 10
97.28620123540002
 20
43.4702591758
 30
0.0
 10
97.6143673616
 20
43.4416087616
 30
0.0
 10
97.9695650799
 20
43.41504451239999
 30
0.0
 10
98.49701030470001
 20
43.381230624
 30
0.0
 10
99.22374446620001
 20
43.3448258771
 30
0.0
 10
99.82330566739999
 20
43.32284219489999
 30
0.0
 10
100.1409606208
 20
43.31273348239999
 30
0.0
  0
SPLINE
  5
190E
330
21B
100
AcDbEntity
  8
0
  6
Continuous
 62
     9
100
AcDbSpline
210
0.0
220
0.0
230
1.0
 70
     8
 71
     3
 72
    13
 73
     9
 74
     0
 42
0.0000001
 43
0.0000000001
 40
0.0
 40
0.0
 40
0.0
 40
0.0
 40
0.1011957995
 40
0.2095610069
 40
0.3249925248
 40
0.4473349953000001
 40
0.7117717826000001
 40
1.0
 40
1.0
 40
1.0
 40
1.0
 10
100.1409606208
 20
43.31273348239999
 30
0.0
 10
100.3850988156
 20
43.3049642889
 30
0.0
 10
100.8907328736
 20
43.2907712379
 30
0.0
 10
101.6749968712
 20
43.27343912069999
 30
0.0
 10
102.5103713099
 20
43.25908308169999
 30
0.0
 10
103.7224824634
 20
43.2431461468
 30
0.0
 10
105.3517388848
 20
43.2298247556
 30
0.0
 10
106.6857265308
 20
43.2242828413
 30
0.0
 10
107.3814353984
 20
43.2221749593
 30
0.0
  0
SPLINE
  5
190F
330
21B
100
AcDbEntity
  8
0
  6
Continuous
 62
     9
100
AcDbSpline
210
0.0
220
0.0
230
1.0
 70
     8
 71
     3
 72
    35
 73
    31
 74
     0
 42
0.0000001
 43
0.0000000001
 40
0.0
 40
0.0
 40
0.0
 40
0.0
 40
0.1040648203
 40
0.206543822
 40
0.3059546053
 40
0.400999753
 40
0.4906128301
 40
0.5739684089
 40
0.6504643164
 40
0.7196882614
 40
0.7813792087
 40
0.8093506848999998
 40
0.8353913009999999
 40
0.8594957492
 40
0.8816625833999999
 40
0.9018937929999999
 40
0.9201945943
 40
0.9365735182999999
 40
0.9510429525000001
 40
0.9636204576999999
 40
0.969207762
 40
0.9743326801
 40
0.9790006698999999
 40
0.9832187988999999
 40
0.9869964763
 40
0.9903466219
 40
0.9932875593000002
 40
0.9958461787
 40
0.9980630348999998
 40
1.0
 40
1.0
 40
1.0
 40
1.0
 10
113.8076568305
 20
43.1119388783
 30
0.0
 10
114.4820530079
 20
43.1119388851
 30
0.0
 10
115.8205684027
 20
43.1119481697
 30
0.0
 10
117.8033193015
 20
43.1122474467
 30
0.0
 10
119.7276176041
 20
43.11356918029999
 30
0.0
 10
121.5685355065
 20
43.11703610859999
 30
0.0
 10
123.3053976057
 20
43.12402636669999
 30
0.0
 10
124.9220222636
 20
43.1360389794
 30
0.0
 10
126.4064485524
 20
43.15456348409999
 30
0.0
 10
127.7503359098
 20
43.1810099917
 30
0.0
 10
128.7795811007
 20
43.2115464966
 30
0.0
 10
129.5287917062
 20
43.2418989857
 30
0.0
 10
130.03443184
 20
43.2666245375
 30
0.0
 10
130.502252073
 20
43.2941481079
 30
0.0
 10
130.9321621552
 20
43.32455388949999
 30
0.0
 10
131.3241233657
 20
43.3579049976
 30
0.0
 10
131.678136473
 20
43.3942492678
 30
0.0
 10
131.9942409318
 20
43.4336094869
 30
0.0
 10
132.2724917845
 20
43.47600253249999
 30
0.0
 10
132.4803844889
 20
43.5152128067
 30
0.0
 10
132.6275699764
 20
43.5486986235
 30
0.0
 10
132.7241018133
 20
43.573585151
 30
0.0
 10
132.811223814
 20
43.5992371961
 30
0.0
 10
132.8889543647
 20
43.6256530057
 30
0.0
 10
132.9573178389
 20
43.6528280639
 30
0.0
 10
133.0163474027
 20
43.6807652629
 30
0.0
 10
133.0660867069
 20
43.7094742791
 30
0.0
 10
133.1065956564
 20
43.7390133534
 30
0.0
 10
133.1379099244
 20
43.76945226279999
 30
0.0
 10
133.1534677437
 20
43.7917332897
 30
0.0
 10
133.1592748202
 20
43.8028618606
 30
0.0
  0
SPLINE
  5
1910
330
21B
100
AcDbEntity
  8
0
  6
Continuous
 62
     9
100
AcDbSpline
210
0.0
220
0.0
230
1.0
 70
     8
 71
     3
 72
     9
 73
     5
 74
     0
 42
0.0000001
 43
0.0000000001
 40
0.0
 40
0.0
 40
0.0
 40
0.0
 40
0.5107073646
 40
1.0
 40
1.0
 40
1.0
 40
1.0
 10
133.1592748202
 20
43.8028618606
 30
0.0
 10
133.163019566
 20
43.81003822
 30
0.0
 10
133.1691966462
 20
43.8247428034
 30
0.0
 10
133.1723904223
 20
43.8403930476
 30
0.0
 10
133.173149198
 20
43.8481110618
 30
0.0
  0
SPLINE
  5
1911
330
21B
100
AcDbEntity
  8
0
  6
Continuous
 62
     9
100
AcDbSpline
210
0.0
220
0.0
230
1.0
 70
     8
 71
     3
 72
    35
 73
    31
 74
     0
 42
0.0000001
 43
0.0000000001
 40
0.0
 40
0.0
 40
0.0
 40
0.0
 40
0.104488942
 40
0.2072922272
 40
0.3068572716
 40
0.4018621703
 40
0.4912628309000001
 40
0.5742864145000001
 40
0.6503997109000001
 40
0.7192491055
 40
0.7806415801000001
 40
0.8084948662
 40
0.8344459301999998
 40
0.8584985470999999
 40
0.8806496672999999
 40
0.9008917387
 40
0.9192265757999999
 40
0.9356695372
 40
0.9502377875
 40
0.9629406751999999
 40
0.9685957855999999
 40
0.9737896884999999
 40
0.9785274435999999
 40
0.9828163287
 40
0.9866660798999999
 40
0.9900897255
 40
0.9931042461
 40
0.9957336462
 40
0.9980137690999999
 40
1.0
 40
1.0
 40
1.0
 40
1.0
 10
113.8076568305
 20
45.8571570373
 30
0.0
 10
114.4428781529
 20
45.8571586231
 30
0.0
 10
115.7031011638
 20
45.8462341574
 30
0.0
 10
117.5680407276
 20
45.7976702635
 30
0.0
 10
119.3742587812
 20
45.7192963496
 30
0.0
 10
121.0975160591
 20
45.6146199367
 30
0.0
 10
122.7184327999
 20
45.48781062569999
 30
0.0
 10
124.2225391718
 20
45.3434533549
 30
0.0
 10
125.5996511197
 20
45.1860179096
 30
0.0
 10
126.8431564208
 20
45.0197278458
 30
0.0
 10
127.7930564724
 20
44.8727875767
 30
0.0
 10
128.4830945777
 20
44.75314213199999
 30
0.0
 10
128.9484036305
 20
44.6663677976
 30
0.0
 10
129.3784846242
 20
44.58000053489999
 30
0.0
 10
129.7732625787
 20
44.49434567239999
 30
0.0
 10
130.1326315077
 20
44.40968182539999
 30
0.0
 10
130.4565866161
 20
44.32631586649999
 30
0.0
 10
130.7452646284
 20
44.2445800754
 30
0.0
 10
130.9987878165
 20
44.1647569196
 30
0.0
 10
131.1874575968
 20
44.09767853
 30
0.0
 10
131.3204606834
 20
44.0446204838
 30
0.0
 10
131.4074356269
 20
44.0069751747
 30
0.0
 10
131.485577642
 20
43.9699477282
 30
0.0
 10
131.554916994
 20
43.93356317859999
 30
0.0
 10
131.6154948099
 20
43.89784174489999
 30
0.0
 10
131.6673602855999
 20
43.8628014442
 30
0.0
 10
131.7105567073
 20
43.82844488749999
 30
0.0
 10
131.7451216635
 20
43.7947311338
 30
0.0
 10
131.7710618344
 20
43.7616146091
 30
0.0
 10
131.7832408484
 20
43.73845898539999
 30
0.0
 10
131.7874929851
 20
43.72715751819999
 30
0.0
  0
LINE
  5
1912
330
21B
100
AcDbEntity
  8
0
  6
Continuous
 62
     9
100
AcDbLine
 10
110.707164956
 20
43.2165488944
 30
0.0
 11
111.2991349304
 21
43.2161598804
 31
0.0
  0
LINE
  5
1913
330
21B
100
AcDbEntity
  8
0
  6
Continuous
 62
     9
100
AcDbLine
 10
111.2991349304
 20
43.2161598804
 30
0.0
 11
111.3797198876
 21
43.21611566449999
 31
0.0
  0
LINE
  5
1914
330
21B
100
AcDbEntity
  8
0
  6
Continuous
 62
     9
100
AcDbLine
 10
111.3797198876
 20
43.21611566449999
 30
0.0
 11
111.8834386471
 21
43.2158811346
 31
0.0
  0
LINE
  5
1915
330
21B
100
AcDbEntity
  8
0
  6
Continuous
 62
     9
100
AcDbLine
 10
111.8834386471
 20
43.2158811346
 30
0.0
 11
112.0338869835
 21
43.21582406810001
 31
0.0
  0
LINE
  5
1916
330
21B
100
AcDbEntity
  8
0
  6
Continuous
 62
     9
100
AcDbLine
 10
112.0338869835
 20
43.21582406810001
 30
0.0
 11
112.4820499372
 21
43.2156859216
 31
0.0
  0
LINE
  5
1917
330
21B
100
AcDbEntity
  8
0
  6
Continuous
 62
     9
100
AcDbLine
 10
112.4820499372
 20
43.2156859216
 30
0.0
 11
112.6300103486
 21
43.21565012699999
 31
0.0
  0
LINE
  5
1918
330
21B
100
AcDbEntity
  8
0
  6
Continuous
 62
     9
100
AcDbLine
 10
112.6300103486
 20
43.21565012699999
 30
0.0
 11
113.128462357
 21
43.2155625746
 31
0.0
  0
LINE
  5
1919
330
21B
100
AcDbEntity
  8
0
  6
Continuous
 62
     9
100
AcDbLine
 10
113.128462357
 20
43.2155625746
 30
0.0
 11
113.2141398078
 21
43.2155524401
 31
0.0
  0
LINE
  5
191A
330
21B
100
AcDbEntity
  8
0
  6
Continuous
 62
     9
100
AcDbLine
 10
113.2141398078
 20
43.2155524401
 30
0.0
 11
113.8076568305
 21
43.21551986430001
 31
0.0
  0
LINE
  5
191B
330
21B
100
AcDbEntity
  8
0
  6
Continuous
 62
     9
100
AcDbLine
 10
116.908148705
 20
43.2165488944
 30
0.0
 11
116.3161787305
 21
43.2161598804
 31
0.0
  0
LINE
  5
191C
330
21B
100
AcDbEntity
  8
0
  6
Continuous
 62
     9
100
AcDbLine
 10
116.3161787305
 20
43.2161598804
 30
0.0
 11
116.2355937733
 21
43.21611566449999
 31
0.0
  0
LINE
  5
191D
330
21B
100
AcDbEntity
  8
0
  6
Continuous
 62
     9
100
AcDbLine
 10
116.2355937733
 20
43.21611566449999
 30
0.0
 11
115.7318750138
 21
43.2158811346
 31
0.0
  0
LINE
  5
191E
330
21B
100
AcDbEntity
  8
0
  6
Continuous
 62
     9
100
AcDbLine
 10
115.7318750138
 20
43.2158811346
 30
0.0
 11
115.5814266775
 21
43.21582406810001
 31
0.0
  0
LINE
  5
191F
330
21B
100
AcDbEntity
  8
0
  6
Continuous
 62
     9
100
AcDbLine
 10
115.5814266775
 20
43.21582406810001
 30
0.0
 11
115.1332637237
 21
43.2156859216
 31
0.0
  0
LINE
  5
1920
330
21B
100
AcDbEntity
  8
0
  6
Continuous
 62
     9
100
AcDbLine
 10
115.1332637237
 20
43.2156859216
 30
0.0
 11
114.9853033124
 21
43.21565012699999
 31
0.0
  0
LINE
  5
1921
330
21B
100
AcDbEntity
  8
0
  6
Continuous
 62
     9
100
AcDbLine
 10
114.9853033124
 20
43.21565012699999
 30
0.0
 11
114.4868513039
 21
43.2155625746
 31
0.0
  0
LINE
  5
1922
330
21B
100
AcDbEntity
  8
0
  6
Continuous
 62
     9
100
AcDbLine
 10
114.4868513039
 20
43.2155625746
 30
0.0
 11
114.4011738531
 21
43.2155524401
 31
0.0
  0
LINE
  5
1923
330
21B
100
AcDbEntity
  8
0
  6
Continuous
 62
     9
100
AcDbLine
 10
114.4011738531
 20
43.2155524401
 30
0.0
 11
113.8076568305
 21
43.21551986430001
 31
0.0
  0
SPLINE
  5
1924
330
21B
100
AcDbEntity
  8
0
  6
Continuous
 62
     9
100
AcDbSpline
210
0.0
220
0.0
230
1.0
 70
     8
 71
     3
 72
    25
 73
    21
 74
     0
 42
0.0000001
 43
0.0000000001
 40
0.0
 40
0.0
 40
0.0
 40
0.0
 40
0.0097776022
 40
0.0207681798
 40
0.0330281066
 40
0.0465979058
 40
0.0615073675
 40
0.0777786564
 40
0.1144666306
 40
0.1349092509
 40
0.1567611117
 40
0.2047149289
 40
0.2583667087
 40
0.3177412317
 40
0.3828561276
 40
0.4537243894
 40
0.5303554044
 40
0.6127550223
 40
0.7948616412999999
 40
1.0
 40
1.0
 40
1.0
 40
1.0
 10
132.0693878894
 20
43.8298244652
 30
0.0
 10
132.0570417514
 20
43.8210331164
 30
0.0
 10
132.0298041104
 20
43.8037711939
 30
0.0
 10
131.9844787509
 20
43.77988363
 30
0.0
 10
131.932363694
 20
43.7565309538
 30
0.0
 10
131.8734549653
 20
43.73371581699999
 30
0.0
 10
131.8077435431
 20
43.7114352041
 30
0.0
 10
131.7069514177
 20
43.6812282246
 30
0.0
 10
131.5965019181
 20
43.6536373497
 30
0.0
 10
131.4768395457
 20
43.6277345259
 30
0.0
 10
131.3395497012
 20
43.6008162077
 30
0.0
 10
131.1508227835
 20
43.56891127719999
 30
0.0
 10
130.9037385021
 20
43.53385732689999
 30
0.0
 10
130.629550004
 20
43.5009510918
 30
0.0
 10
130.3282788281
 20
43.47018003939999
 30
0.0
 10
129.9999415167
 20
43.4415271983
 30
0.0
 10
129.6445568612
 20
43.41496163459999
 30
0.0
 10
129.1168309881
 20
43.3811473357
 30
0.0
 10
128.3897072279
 20
43.3447448617
 30
0.0
 10
127.7898240996
 20
43.32276499899999
 30
0.0
 10
127.4719979154
 20
43.31265856409999
 30
0.0
  0
SPLINE
  5
1925
330
21B
100
AcDbEntity
  8
0
  6
Continuous
 62
     9
100
AcDbSpline
210
0.0
220
0.0
230
1.0
 70
     8
 71
     3
 72
    13
 73
     9
 74
     0
 42
0.0000001
 43
0.0000000001
 40
0.0
 40
0.0
 40
0.0
 40
0.0
 40
0.1012081684
 40
0.2095821862
 40
0.3250189164
 40
0.4473629852000001
 40
0.711792303
 40
1.0
 40
1.0
 40
1.0
 40
1.0
 10
127.4719979154
 20
43.31265856409999
 30
0.0
 10
127.2278926819
 20
43.30489635390001
 30
0.0
 10
126.722337696
 20
43.2907158829
 30
0.0
 10
125.9382120975
 20
43.27339855449999
 30
0.0
 10
125.1030153287
 20
43.25905450039999
 30
0.0
 10
123.8912183496
 20
43.2431306693
 30
0.0
 10
122.2624458906
 20
43.229819082
 30
0.0
 10
120.9288699231
 20
43.22428029090001
 30
0.0
 10
120.2333900506
 20
43.2221734802
 30
0.0
  0
SPLINE
  5
1926
330
21B
100
AcDbEntity
  8
0
  6
Continuous
 62
     7
100
AcDbSpline
210
0.0
220
0.0
230
1.0
 70
     8
 71
     3
 72
    39
 73
    35
 74
     0
 42
0.0000001
 43
0.0000000001
 40
0.0
 40
0.0
 40
0.0
 40
0.0
 40
0.1048885828
 40
0.20815008
 40
0.3082654365
 40
0.4039082592
 40
0.4939920043
 40
0.5776793740999999
 40
0.6543630234000001
 40
0.6899430016000001
 40
0.7236302065000002
 40
0.7553967908
 40
0.7852221148
 40
0.8130917163999999
 40
0.8389964001999999
 40
0.8629314789
 40
0.8848961744
 40
0.9048932179999999
 40
0.9229286801
 40
0.9390121485999999
 40
0.9463262309
 40
0.9531579502999999
 40
0.959509976
 40
0.9653855431999998
 40
0.9707886310999999
 40
0.9757242229
 40
0.9801987134999999
 40
0.9842205075
 40
0.9878010087999999
 40
0.9909561679000001
 40
0.993709106
 40
0.9960943738999999
 40
0.9981647383
 40
1.0
 40
1.0
 40
1.0
 40
1.0
 10
113.8076568305
 20
43.08911683479999
 30
0.0
 10
113.127279485
 20
43.08911683479999
 30
0.0
 10
111.7770791576
 20
43.0891042033
 30
0.0
 10
109.7774638166
 20
43.08931779
 30
0.0
 10
107.8378228195
 20
43.0905379113
 30
0.0
 10
105.9836637409
 20
43.0939415552
 30
0.0
 10
104.2360768821
 20
43.1009663717
 30
0.0
 10
102.6115019068
 20
43.11317816959999
 30
0.0
 10
101.3405256496
 20
43.12932456439999
 30
0.0
 10
100.3939496462
 20
43.14678611699999
 30
0.0
 10
99.738746712
 20
43.16180370619999
 30
0.0
 10
99.12094492280001
 20
43.1792211787
 30
0.0
 10
98.5409768989
 20
43.1991826859
 30
0.0
 10
97.9991608249
 20
43.22181580189999
 30
0.0
 10
97.495719798
 20
43.2472336457
 30
0.0
 10
97.03079872049999
 20
43.2755331551
 30
0.0
 10
96.6044798092
 20
43.3067954785
 30
0.0
 10
96.21679267899999
 20
43.3410816439
 30
0.0
 10
95.86773195559999
 20
43.378441882
 30
0.0
 10
95.6011856908
 20
43.4131559908
 30
0.0
 10
95.40735887450001
 20
43.4428945304
 30
0.0
 10
95.27628733590001
 20
43.4652831542
 30
0.0
 10
95.15483993750001
 20
43.4884665636
 30
0.0
 10
95.04300586520001
 20
43.5124443477
 30
0.0
 10
94.9407728689
 20
43.53721399770001
 30
0.0
 10
94.84812643049998
 20
43.5627714829
 30
0.0
 10
94.7650492254
 20
43.5891126852
 30
0.0
 10
94.6915188812
 20
43.61623318319999
 30
0.0
 10
94.62750605129999
 20
43.6441313286
 30
0.0
 10
94.57296999229999
 20
43.6728154817
 30
0.0
 10
94.52785759740001
 20
43.70231052189999
 30
0.0
 10
94.4921090973
 20
43.7327093247
 30
0.0
 10
94.4657175236
 20
43.7641365287
 30
0.0
 10
94.45399727059999
 20
43.7869524946
 30
0.0
 10
94.45011885079999
 20
43.798207738
 30
0.0
  0
SPLINE
  5
1927
330
21B
100
AcDbEntity
  8
0
  6
Continuous
 62
     7
100
AcDbSpline
210
0.0
220
0.0
230
1.0
 70
     8
 71
     3
 72
     9
 73
     5
 74
     0
 42
0.0000001
 43
0.0000000001
 40
0.0
 40
0.0
 40
0.0
 40
0.0
 40
0.2525539399999999
 40
1.0
 40
1.0
 40
1.0
 40
1.0
 10
94.44843623009999
 20
43.8034655183
 30
0.0
 10
94.4478772299
 20
43.80535687560001
 30
0.0
 10
94.4458447092
 20
43.81289789979999
 30
0.0
 10
94.44456100469999
 20
43.82064211229999
 30
0.0
 10
94.44405241790001
 20
43.82645684329999
 30
0.0
  0
LINE
  5
1928
330
21B
100
AcDbEntity
  8
0
  6
Continuous
 62
     9
100
AcDbLine
 10
113.8076568305
 20
16.5564332625
 30
0.0
 11
101.4556227394
 21
16.5564333041
 31
0.0
  0
LINE
  5
1929
330
21B
100
AcDbEntity
  8
0
  6
Continuous
 62
     9
100
AcDbLine
 10
101.4556227394
 20
16.5564333041
 30
0.0
 11
96.82982819690002
 21
16.5564338846
 31
0.0
  0
LINE
  5
192A
330
21B
100
AcDbEntity
  8
0
  6
Continuous
 62
     9
100
AcDbLine
 10
130.7854853406
 20
16.5564338849
 30
0.0
 11
113.8076568305
 21
16.5564332625
 31
0.0
  0
SPLINE
  5
192B
330
21B
100
AcDbEntity
  8
0
  6
Continuous
 62
     7
100
AcDbSpline
210
0.0
220
0.0
230
1.0
 70
     8
 71
     3
 72
     9
 73
     5
 74
     0
 42
0.0000001
 43
0.0000000001
 40
0.0
 40
0.0
 40
0.0
 40
0.0
 40
0.2483860264
 40
1.0
 40
1.0
 40
1.0
 40
1.0
 10
133.1712612431
 20
43.82645684329999
 30
0.0
 10
133.1710922313
 20
43.8245245127
 30
0.0
 10
133.1702147554
 20
43.81676313999999
 30
0.0
 10
133.1685410623
 20
43.8090943567
 30
0.0
 10
133.1668774309
 20
43.8034655183
 30
0.0
  0
SPLINE
  5
192C
330
21B
100
AcDbEntity
  8
0
  6
Continuous
 62
     7
100
AcDbSpline
210
0.0
220
0.0
230
1.0
 70
     8
 71
     3
 72
    39
 73
    35
 74
     0
 42
0.0000001
 43
0.0000000001
 40
0.0
 40
0.0
 40
0.0
 40
0.0
 40
0.0018352617
 40
0.0039056261
 40
0.006290894
 40
0.0090438321
 40
0.0121989912
 40
0.0157794925
 40
0.0198012865
 40
0.0242757771
 40
0.0292113689
 40
0.0346144568
 40
0.040490024
 40
0.0468420497
 40
0.0536737691
 40
0.0609878514
 40
0.0770713199
 40
0.095106782
 40
0.1151038256
 40
0.1370685211
 40
0.1610035998
 40
0.1869082836
 40
0.2147778852
 40
0.2446032092
 40
0.2763697935
 40
0.3100569984
 40
0.3456369766
 40
0.4223206259000001
 40
0.5060079957000001
 40
0.5960917408
 40
0.6917345635
 40
0.79184992
 40
0.8951114172
 40
1.0
 40
1.0
 40
1.0
 40
1.0
 10
133.1651948101
 20
43.798207738
 30
0.0
 10
133.1613163903
 20
43.7869524946
 30
0.0
 10
133.1495961373
 20
43.7641365287
 30
0.0
 10
133.1232045636
 20
43.7327093247
 30
0.0
 10
133.0874560635
 20
43.70231052189999
 30
0.0
 10
133.0423436686
 20
43.6728154817
 30
0.0
 10
132.9878076096
 20
43.6441313286
 30
0.0
 10
132.9237947797
 20
43.61623318319999
 30
0.0
 10
132.8502644355
 20
43.5891126852
 30
0.0
 10
132.7671872304
 20
43.5627714829
 30
0.0
 10
132.674540792
 20
43.53721399770001
 30
0.0
 10
132.5723077957
 20
43.5124443477
 30
0.0
 10
132.4604737234
 20
43.4884665636
 30
0.0
 10
132.3390263251
 20
43.4652831542
 30
0.0
 10
132.2079547864
 20
43.4428945304
 30
0.0
 10
132.0141279701
 20
43.4131559908
 30
0.0
 10
131.7475817053
 20
43.378441882
 30
0.0
 10
131.3985209819
 20
43.3410816439
 30
0.0
 10
131.0108338517
 20
43.3067954785
 30
0.0
 10
130.5845149404
 20
43.2755331551
 30
0.0
 10
130.1195938629
 20
43.2472336457
 30
0.0
 10
129.616152836
 20
43.22181580189999
 30
0.0
 10
129.0743367621
 20
43.1991826859
 30
0.0
 10
128.4943687381
 20
43.1792211787
 30
0.0
 10
127.876566949
 20
43.16180370619999
 30
0.0
 10
127.2213640148
 20
43.14678611699999
 30
0.0
 10
126.2747880113
 20
43.12932456439999
 30
0.0
 10
125.0038117542
 20
43.11317816959999
 30
0.0
 10
123.3792367788
 20
43.1009663717
 30
0.0
 10
121.63164992
 20
43.0939415552
 30
0.0
 10
119.7774908414
 20
43.0905379113
 30
0.0
 10
117.8378498443
 20
43.08931779
 30
0.0
 10
115.8382345034
 20
43.0891042033
 30
0.0
 10
114.4880341759
 20
43.08911683479999
 30
0.0
 10
113.8076568305
 20
43.08911683479999
 30
0.0
  0
ENDSEC
  0
SECTION
  2
OBJECTS
  0
DICTIONARY
  5
C
330
0
100
AcDbDictionary
281
     1
  3
ACAD_CIP_PREVIOUS_PRODUCT_INFO
350
1A1C
  3
ACAD_COLOR
350
19B2
  3
ACAD_DETAILVIEWSTYLE
350
19CB
  3
ACAD_GROUP
350
D
  3
ACAD_LAYOUT
350
1A
  3
ACAD_MATERIAL
350
1980
  3
ACAD_MLEADERSTYLE
350
19C7
  3
ACAD_MLINESTYLE
350
17
  3
ACAD_PLOTSETTINGS
350
19
  3
ACAD_PLOTSTYLENAME
350
E
  3
ACAD_SCALELIST
350
19B5
  3
ACAD_SECTIONVIEWSTYLE
350
19C9
  3
ACAD_TABLESTYLE
350
19B3
  3
ACAD_VISUALSTYLE
350
1999
  3
ACDB_RECOMPOSE_DATA
350
1A75
  3
AcDbVariableDictionary
350
1A0F
  0
DICTIONARY
  5
19D0
330
8
100
AcDbDictionary
280
     1
281
     1
  0
DICTIONARY
  5
1A65
330
2
100
AcDbDictionary
280
     1
281
     1
  3
ACAD_LAYERSTATES
360
1A66
  0
DICTIONARY
  5
1A22
330
10
100
AcDbDictionary
280
     1
281
     1
  3
ADSK_XREC_LAYER_RECONCILED
360
1A23
  0
DICTIONARY
  5
1A24
330
1FA
100
AcDbDictionary
280
     1
281
     1
  3
ADSK_XREC_LAYER_RECONCILED
360
1A25
  0
DICTIONARY
  5
1A26
330
1FB
100
AcDbDictionary
280
     1
281
     1
  3
ADSK_XREC_LAYER_RECONCILED
360
1A27
  0
DICTIONARY
  5
1A28
330
1FC
100
AcDbDictionary
280
     1
281
     1
  3
ADSK_XREC_LAYER_RECONCILED
360
1A29
  0
DICTIONARY
  5
1A2A
330
1FD
100
AcDbDictionary
280
     1
281
     1
  3
ADSK_XREC_LAYER_RECONCILED
360
1A2B
  0
DICTIONARY
  5
1A2C
330
1FE
100
AcDbDictionary
280
     1
281
     1
  3
ADSK_XREC_LAYER_RECONCILED
360
1A2D
  0
DICTIONARY
  5
1A2E
330
1FF
100
AcDbDictionary
280
     1
281
     1
  3
ADSK_XREC_LAYER_RECONCILED
360
1A2F
  0
DICTIONARY
  5
1A30
330
200
100
AcDbDictionary
280
     1
281
     1
  3
ADSK_XREC_LAYER_RECONCILED
360
1A31
  0
DICTIONARY
  5
1A32
330
201
100
AcDbDictionary
280
     1
281
     1
  3
ADSK_XREC_LAYER_RECONCILED
360
1A33
  0
DICTIONARY
  5
1A34
330
202
100
AcDbDictionary
280
     1
281
     1
  3
ADSK_XREC_LAYER_RECONCILED
360
1A35
  0
DICTIONARY
  5
1A36
330
203
100
AcDbDictionary
280
     1
281
     1
  3
ADSK_XREC_LAYER_RECONCILED
360
1A37
  0
DICTIONARY
  5
1A38
330
204
100
AcDbDictionary
280
     1
281
     1
  3
ADSK_XREC_LAYER_RECONCILED
360
1A39
  0
DICTIONARY
  5
1A3A
330
205
100
AcDbDictionary
280
     1
281
     1
  3
ADSK_XREC_LAYER_RECONCILED
360
1A3B
  0
DICTIONARY
  5
1A3C
330
206
100
AcDbDictionary
280
     1
281
     1
  3
ADSK_XREC_LAYER_RECONCILED
360
1A3D
  0
DICTIONARY
  5
1A3E
330
207
100
AcDbDictionary
280
     1
281
     1
  3
ADSK_XREC_LAYER_RECONCILED
360
1A3F
  0
DICTIONARY
  5
1A40
330
208
100
AcDbDictionary
280
     1
281
     1
  3
ADSK_XREC_LAYER_RECONCILED
360
1A41
  0
DICTIONARY
  5
1A42
330
209
100
AcDbDictionary
280
     1
281
     1
  3
ADSK_XREC_LAYER_RECONCILED
360
1A43
  0
DICTIONARY
  5
1A44
330
20A
100
AcDbDictionary
280
     1
281
     1
  3
ADSK_XREC_LAYER_RECONCILED
360
1A45
  0
DICTIONARY
  5
1A46
330
20B
100
AcDbDictionary
280
     1
281
     1
  3
ADSK_XREC_LAYER_RECONCILED
360
1A47
  0
DICTIONARY
  5
1A48
330
20C
100
AcDbDictionary
280
     1
281
     1
  3
ADSK_XREC_LAYER_RECONCILED
360
1A49
  0
DICTIONARY
  5
1A4A
330
20D
100
AcDbDictionary
280
     1
281
     1
  3
ADSK_XREC_LAYER_RECONCILED
360
1A4B
  0
DICTIONARY
  5
1A4C
330
20E
100
AcDbDictionary
280
     1
281
     1
  3
ADSK_XREC_LAYER_RECONCILED
360
1A4D
  0
DICTIONARY
  5
1A4E
330
20F
100
AcDbDictionary
280
     1
281
     1
  3
ADSK_XREC_LAYER_RECONCILED
360
1A4F
  0
DICTIONARY
  5
1A50
330
210
100
AcDbDictionary
280
     1
281
     1
  3
ADSK_XREC_LAYER_RECONCILED
360
1A51
  0
DICTIONARY
  5
1A52
330
211
100
AcDbDictionary
280
     1
281
     1
  3
ADSK_XREC_LAYER_RECONCILED
360
1A53
  0
DICTIONARY
  5
1A54
330
212
100
AcDbDictionary
280
     1
281
     1
  3
ADSK_XREC_LAYER_RECONCILED
360
1A55
  0
DICTIONARY
  5
1A56
330
213
100
AcDbDictionary
280
     1
281
     1
  3
ADSK_XREC_LAYER_RECONCILED
360
1A57
  0
DICTIONARY
  5
1A58
330
214
100
AcDbDictionary
280
     1
281
     1
  3
ADSK_XREC_LAYER_RECONCILED
360
1A59
  0
DICTIONARY
  5
1A5A
330
215
100
AcDbDictionary
280
     1
281
     1
  3
ADSK_XREC_LAYER_RECONCILED
360
1A5B
  0
DICTIONARY
  5
1A5C
330
216
100
AcDbDictionary
280
     1
281
     1
  3
ADSK_XREC_LAYER_RECONCILED
360
1A5D
  0
DICTIONARY
  5
1A5E
330
217
100
AcDbDictionary
280
     1
281
     1
  3
ADSK_XREC_LAYER_RECONCILED
360
1A5F
  0
DICTIONARY
  5
1A60
330
218
100
AcDbDictionary
280
     1
281
     1
  3
ADSK_XREC_LAYER_RECONCILED
360
1A61
  0
XRECORD
  5
1A1C
102
{ACAD_REACTORS
330
C
102
}
330
C
100
AcDbXrecord
280
     1
300
ACDLT
300
2018
300
ACDLT_F_S
  0
DICTIONARY
  5
19B2
102
{ACAD_REACTORS
330
C
102
}
330
C
100
AcDbDictionary
281
     1
  0
DICTIONARY
  5
19CB
102
{ACAD_REACTORS
330
C
102
}
330
C
100
AcDbDictionary
281
     1
  3
Imperial24
350
19CC
  0
DICTIONARY
  5
D
102
{ACAD_REACTORS
330
C
102
}
330
C
100
AcDbDictionary
281
     1
  0
DICTIONARY
  5
1A
102
{ACAD_REACTORS
330
C
102
}
330
C
100
AcDbDictionary
281
     1
  3
Layout1
350
197D
  3
Model
350
197C
  0
DICTIONARY
  5
1980
102
{ACAD_REACTORS
330
C
102
}
330
C
100
AcDbDictionary
281
     1
  3
ByBlock
350
1989
  3
ByLayer
350
1981
  3
Global
350
1991
  0
DICTIONARY
  5
19C7
102
{ACAD_REACTORS
330
C
102
}
330
C
100
AcDbDictionary
281
     1
  3
Standard
350
19C8
  0
DICTIONARY
  5
17
102
{ACAD_REACTORS
330
C
102
}
330
C
100
AcDbDictionary
281
     1
  3
Standard
350
18
  0
DICTIONARY
  5
19
102
{ACAD_REACTORS
330
C
102
}
330
C
100
AcDbDictionary
281
     1
  0
ACDBDICTIONARYWDFLT
  5
E
102
{ACAD_REACTORS
330
C
102
}
330
C
100
AcDbDictionary
281
     1
  3
Normal
350
F
100
AcDbDictionaryWithDefault
340
F
  0
DICTIONARY
  5
19B5
102
{ACAD_REACTORS
330
C
102
}
330
C
100
AcDbDictionary
281
     1
  3
A0
350
19B6
  3
A1
350
19B7
  3
A2
350
19B8
  3
A3
350
19B9
  3
A4
350
19BA
  3
A5
350
19BB
  3
A6
350
19BC
  3
A7
350
19BD
  3
A8
350
19BE
  3
A9
350
19BF
  3
B0
350
19C0
  3
B1
350
19C1
  3
B2
350
19C2
  3
B3
350
19C3
  3
B4
350
19C4
  3
B5
350
19C5
  3
B6
350
19C6
  0
DICTIONARY
  5
19C9
102
{ACAD_REACTORS
330
C
102
}
330
C
100
AcDbDictionary
281
     1
  3
Imperial24
350
19CA
  0
DICTIONARY
  5
19B3
102
{ACAD_REACTORS
330
C
102
}
330
C
100
AcDbDictionary
281
     1
  3
Standard
350
19B4
  0
DICTIONARY
  5
1999
102
{ACAD_REACTORS
330
C
102
}
330
C
100
AcDbDictionary
281
     1
  3
2dWireframe
350
199F
  3
Basic
350
199E
  3
Brighten
350
19A5
  3
ColorChange
350
19A9
  3
Conceptual
350
19A2
  3
Dim
350
19A4
  3
EdgeColorOff
350
19B1
  3
Facepattern
350
19A8
  3
Flat
350
199A
  3
FlatWithEdges
350
199B
  3
Gouraud
350
199C
  3
GouraudWithEdges
350
199D
  3
Hidden
350
19A1
  3
JitterOff
350
19AF
  3
Linepattern
350
19A7
  3
OverhangOff
350
19B0
  3
Realistic
350
19A3
  3
Shaded
350
19AE
  3
Shaded with edges
350
19AD
  3
Shades of Gray
350
19AA
  3
Sketchy
350
19AB
  3
Thicken
350
19A6
  3
Wireframe
350
19A0
  3
X-Ray
350
19AC
  0
XRECORD
  5
1A75
102
{ACAD_REACTORS
330
C
102
}
330
C
100
AcDbXrecord
280
     1
 90
        1
330
19B4
  0
DICTIONARY
  5
1A0F
102
{ACAD_REACTORS
330
C
102
}
330
C
100
AcDbDictionary
281
     1
  3
CANNOSCALE
350
1A14
  3
CMLEADERSTYLE
350
1A11
  3
CTABLESTYLE
350
1A10
  3
CVIEWDETAILSTYLE
350
1A12
  3
CVIEWSECTIONSTYLE
350
1A13
  3
DIMASSOC
350
1A17
  3
INDEXCTL
350
1A16
  3
LAYEREVAL
350
1A72
  3
LAYERNOTIFY
350
1A73
  3
LIGHTINGUNITS
350
1A71
  3
MSLTSCALE
350
1A70
  3
SORTENTS
350
1A15
  0
DICTIONARY
  5
1A66
102
{ACAD_REACTORS
330
1A65
102
}
330
1A65
100
AcDbDictionary
281
     1
  0
XRECORD
  5
1A23
102
{ACAD_REACTORS
330
1A22
102
}
330
1A22
100
AcDbXrecord
280
     1
290
     1
  0
XRECORD
  5
1A25
102
{ACAD_REACTORS
330
1A24
102
}
330
1A24
100
AcDbXrecord
280
     1
290
     1
  0
XRECORD
  5
1A27
102
{ACAD_REACTORS
330
1A26
102
}
330
1A26
100
AcDbXrecord
280
     1
290
     1
  0
XRECORD
  5
1A29
102
{ACAD_REACTORS
330
1A28
102
}
330
1A28
100
AcDbXrecord
280
     1
290
     1
  0
XRECORD
  5
1A2B
102
{ACAD_REACTORS
330
1A2A
102
}
330
1A2A
100
AcDbXrecord
280
     1
290
     1
  0
XRECORD
  5
1A2D
102
{ACAD_REACTORS
330
1A2C
102
}
330
1A2C
100
AcDbXrecord
280
     1
290
     1
  0
XRECORD
  5
1A2F
102
{ACAD_REACTORS
330
1A2E
102
}
330
1A2E
100
AcDbXrecord
280
     1
290
     1
  0
XRECORD
  5
1A31
102
{ACAD_REACTORS
330
1A30
102
}
330
1A30
100
AcDbXrecord
280
     1
290
     1
  0
XRECORD
  5
1A33
102
{ACAD_REACTORS
330
1A32
102
}
330
1A32
100
AcDbXrecord
280
     1
290
     1
  0
XRECORD
  5
1A35
102
{ACAD_REACTORS
330
1A34
102
}
330
1A34
100
AcDbXrecord
280
     1
290
     1
  0
XRECORD
  5
1A37
102
{ACAD_REACTORS
330
1A36
102
}
330
1A36
100
AcDbXrecord
280
     1
290
     1
  0
XRECORD
  5
1A39
102
{ACAD_REACTORS
330
1A38
102
}
330
1A38
100
AcDbXrecord
280
     1
290
     1
  0
XRECORD
  5
1A3B
102
{ACAD_REACTORS
330
1A3A
102
}
330
1A3A
100
AcDbXrecord
280
     1
290
     1
  0
XRECORD
  5
1A3D
102
{ACAD_REACTORS
330
1A3C
102
}
330
1A3C
100
AcDbXrecord
280
     1
290
     1
  0
XRECORD
  5
1A3F
102
{ACAD_REACTORS
330
1A3E
102
}
330
1A3E
100
AcDbXrecord
280
     1
290
     1
  0
XRECORD
  5
1A41
102
{ACAD_REACTORS
330
1A40
102
}
330
1A40
100
AcDbXrecord
280
     1
290
     1
  0
XRECORD
  5
1A43
102
{ACAD_REACTORS
330
1A42
102
}
330
1A42
100
AcDbXrecord
280
     1
290
     1
  0
XRECORD
  5
1A45
102
{ACAD_REACTORS
330
1A44
102
}
330
1A44
100
AcDbXrecord
280
     1
290
     1
  0
XRECORD
  5
1A47
102
{ACAD_REACTORS
330
1A46
102
}
330
1A46
100
AcDbXrecord
280
     1
290
     1
  0
XRECORD
  5
1A49
102
{ACAD_REACTORS
330
1A48
102
}
330
1A48
100
AcDbXrecord
280
     1
290
     1
  0
XRECORD
  5
1A4B
102
{ACAD_REACTORS
330
1A4A
102
}
330
1A4A
100
AcDbXrecord
280
     1
290
     1
  0
XRECORD
  5
1A4D
102
{ACAD_REACTORS
330
1A4C
102
}
330
1A4C
100
AcDbXrecord
280
     1
290
     1
  0
XRECORD
  5
1A4F
102
{ACAD_REACTORS
330
1A4E
102
}
330
1A4E
100
AcDbXrecord
280
     1
290
     1
  0
XRECORD
  5
1A51
102
{ACAD_REACTORS
330
1A50
102
}
330
1A50
100
AcDbXrecord
280
     1
290
     1
  0
XRECORD
  5
1A53
102
{ACAD_REACTORS
330
1A52
102
}
330
1A52
100
AcDbXrecord
280
     1
290
     1
  0
XRECORD
  5
1A55
102
{ACAD_REACTORS
330
1A54
102
}
330
1A54
100
AcDbXrecord
280
     1
290
     1
  0
XRECORD
  5
1A57
102
{ACAD_REACTORS
330
1A56
102
}
330
1A56
100
AcDbXrecord
280
     1
290
     1
  0
XRECORD
  5
1A59
102
{ACAD_REACTORS
330
1A58
102
}
330
1A58
100
AcDbXrecord
280
     1
290
     1
  0
XRECORD
  5
1A5B
102
{ACAD_REACTORS
330
1A5A
102
}
330
1A5A
100
AcDbXrecord
280
     1
290
     1
  0
XRECORD
  5
1A5D
102
{ACAD_REACTORS
330
1A5C
102
}
330
1A5C
100
AcDbXrecord
280
     1
290
     1
  0
XRECORD
  5
1A5F
102
{ACAD_REACTORS
330
1A5E
102
}
330
1A5E
100
AcDbXrecord
280
     1
290
     1
  0
XRECORD
  5
1A61
102
{ACAD_REACTORS
330
1A60
102
}
330
1A60
100
AcDbXrecord
280
     1
290
     1
  0
ACDBDETAILVIEWSTYLE
  5
19CC
102
{ACAD_REACTORS
330
19CB
102
}
330
19CB
100
AcDbModelDocViewStyle
 70
     0
  3
Imperial24
290
     0
300
Imperial24
 90
        0
100
AcDbDetailViewStyle
 70
     0
 71
     0
 90
        3
 71
     1
340
11
 62
   256
 40
0.24
340
0
 62
   256
 40
0.24
300

 40
0.36
280
     3
 71
     2
340
16
 90
       25
 62
   256
 71
     3
340
11
 62
   256
 40
0.24
 90
        1
 40
0.75
 90
        1
300
%<\AcVar ViewType \f "%tc1">% %<\AcVar ViewDetailId>%\PSCALE %<\AcVar ViewScale \f "%sn">%
 71
     4
340
16
 90
       25
 62
   256
340
16
 90
       25
 62
   256
280
     0
  0
LAYOUT
  5
197D
102
{ACAD_REACTORS
330
1A
102
}
330
1A
100
AcDbPlotSettings
  1

  2
none_device
  4
ANSI_B_(17.00_x_11.00_Inches)
  6

 40
0.0
 41
0.0
 42
0.0
 43
0.0
 44
431.8
 45
279.4
 46
0.0
 47
0.0
 48
0.0
 49
0.0
140
0.0
141
0.0
142
1.0
143
1.0
 70
     0
 72
     0
 73
     0
 74
     0
  7

 75
     0
147
1.0
 76
     0
 77
     2
 78
   300
148
0.0
149
0.0
100
AcDbLayout
  1
Layout1
 70
     1
 71
     1
 10
0.0
 20
0.0
 11
12.0
 21
9.0
 12
0.0
 22
0.0
 32
0.0
 14
1.000000000000000E+20
 24
1.000000000000000E+20
 34
1.000000000000000E+20
 15
-1.000000000000000E+20
 25
-1.000000000000000E+20
 35
-1.000000000000000E+20
146
0.0
 13
0.0
 23
0.0
 33
0.0
 16
1.0
 26
0.0
 36
0.0
 17
0.0
 27
1.0
 37
0.0
 76
     0
330
21C
  0
LAYOUT
  5
197C
102
{ACAD_REACTORS
330
1A
102
}
330
1A
100
AcDbPlotSettings
  1

  2
none_device
  4
ANSI_B_(17.00_x_11.00_Inches)
  6

 40
0.0
 41
0.0
 42
0.0
 43
0.0
 44
431.8
 45
279.4
 46
0.0
 47
0.0
 48
0.0
 49
0.0
140
0.0
141
0.0
142
1.0
143
1.0
 70
  1024
 72
     0
 73
     0
 74
     0
  7

 75
     0
147
1.0
 76
     0
 77
     2
 78
   300
148
0.0
149
0.0
100
AcDbLayout
  1
Model
 70
     0
 71
     0
 10
0.0
 20
0.0
 11
17.0
 21
11.0
 12
0.0
 22
0.0
 32
0.0
 14
0.0
 24
0.0
 34
0.0
 15
0.0
 25
0.0
 35
0.0
146
0.0
 13
0.0
 23
0.0
 33
0.0
 16
1.0
 26
0.0
 36
0.0
 17
0.0
 27
1.0
 37
0.0
 76
     0
330
21B
331
1F4
  0
MATERIAL
  5
1989
102
{ACAD_XDICTIONARY
360
198A
102
}
102
{ACAD_REACTORS
330
1980
102
}
330
1980
100
AcDbMaterial
  1
ByBlock
 72
     0
 43
0.0208333333333333
 43
0.0
 43
0.0
 43
0.0
 43
0.0
 43
0.0208333333333333
 43
0.0
 43
0.0
 43
0.0
 43
0.0
 43
1.0
 43
0.0
 43
0.0
 43
0.0
 43
0.0
 43
1.0
 77
     0
 47
0.0208333333333333
 47
0.0
 47
0.0
 47
0.0
 47
0.0
 47
0.0208333333333333
 47
0.0
 47
0.0
 47
0.0
 47
0.0
 47
1.0
 47
0.0
 47
0.0
 47
0.0
 47
0.0
 47
1.0
171
     0
 49
0.0208333333333333
 49
0.0
 49
0.0
 49
0.0
 49
0.0
 49
0.0208333333333333
 49
0.0
 49
0.0
 49
0.0
 49
0.0
 49
1.0
 49
0.0
 49
0.0
 49
0.0
 49
0.0
 49
1.0
175
     0
142
0.0208333333333333
142
0.0
142
0.0
142
0.0
142
0.0
142
0.0208333333333333
142
0.0
142
0.0
142
0.0
142
0.0
142
1.0
142
0.0
142
0.0
142
0.0
142
0.0
142
1.0
179
     0
144
0.0208333333333333
144
0.0
144
0.0
144
0.0
144
0.0
144
0.0208333333333333
144
0.0
144
0.0
144
0.0
144
0.0
144
1.0
144
0.0
144
0.0
144
0.0
144
0.0
144
1.0
147
0.0208333333333333
147
0.0
147
0.0
147
0.0
147
0.0
147
0.0208333333333333
147
0.0
147
0.0
147
0.0
147
0.0
147
1.0
147
0.0
147
0.0
147
0.0
147
0.0
147
1.0
  0
MATERIAL
  5
1981
102
{ACAD_XDICTIONARY
360
1982
102
}
102
{ACAD_REACTORS
330
1980
102
}
330
1980
100
AcDbMaterial
  1
ByLayer
 72
     0
 43
0.0208333333333333
 43
0.0
 43
0.0
 43
0.0
 43
0.0
 43
0.0208333333333333
 43
0.0
 43
0.0
 43
0.0
 43
0.0
 43
1.0
 43
0.0
 43
0.0
 43
0.0
 43
0.0
 43
1.0
 77
     0
 47
0.0208333333333333
 47
0.0
 47
0.0
 47
0.0
 47
0.0
 47
0.0208333333333333
 47
0.0
 47
0.0
 47
0.0
 47
0.0
 47
1.0
 47
0.0
 47
0.0
 47
0.0
 47
0.0
 47
1.0
171
     0
 49
0.0208333333333333
 49
0.0
 49
0.0
 49
0.0
 49
0.0
 49
0.0208333333333333
 49
0.0
 49
0.0
 49
0.0
 49
0.0
 49
1.0
 49
0.0
 49
0.0
 49
0.0
 49
0.0
 49
1.0
175
     0
142
0.0208333333333333
142
0.0
142
0.0
142
0.0
142
0.0
142
0.0208333333333333
142
0.0
142
0.0
142
0.0
142
0.0
142
1.0
142
0.0
142
0.0
142
0.0
142
0.0
142
1.0
179
     0
144
0.0208333333333333
144
0.0
144
0.0
144
0.0
144
0.0
144
0.0208333333333333
144
0.0
144
0.0
144
0.0
144
0.0
144
1.0
144
0.0
144
0.0
144
0.0
144
0.0
144
1.0
147
0.0208333333333333
147
0.0
147
0.0
147
0.0
147
0.0
147
0.0208333333333333
147
0.0
147
0.0
147
0.0
147
0.0
147
1.0
147
0.0
147
0.0
147
0.0
147
0.0
147
1.0
  0
MATERIAL
  5
1991
102
{ACAD_XDICTIONARY
360
1992
102
}
102
{ACAD_REACTORS
330
1980
102
}
330
1980
100
AcDbMaterial
  1
Global
 72
     0
 43
0.0208333333333333
 43
0.0
 43
0.0
 43
0.0
 43
0.0
 43
0.0208333333333333
 43
0.0
 43
0.0
 43
0.0
 43
0.0
 43
1.0
 43
0.0
 43
0.0
 43
0.0
 43
0.0
 43
1.0
 77
     0
 47
0.0208333333333333
 47
0.0
 47
0.0
 47
0.0
 47
0.0
 47
0.0208333333333333
 47
0.0
 47
0.0
 47
0.0
 47
0.0
 47
1.0
 47
0.0
 47
0.0
 47
0.0
 47
0.0
 47
1.0
171
     0
 49
0.0208333333333333
 49
0.0
 49
0.0
 49
0.0
 49
0.0
 49
0.0208333333333333
 49
0.0
 49
0.0
 49
0.0
 49
0.0
 49
1.0
 49
0.0
 49
0.0
 49
0.0
 49
0.0
 49
1.0
175
     0
142
0.0208333333333333
142
0.0
142
0.0
142
0.0
142
0.0
142
0.0208333333333333
142
0.0
142
0.0
142
0.0
142
0.0
142
1.0
142
0.0
142
0.0
142
0.0
142
0.0
142
1.0
179
     0
144
0.0208333333333333
144
0.0
144
0.0
144
0.0
144
0.0
144
0.0208333333333333
144
0.0
144
0.0
144
0.0
144
0.0
144
1.0
144
0.0
144
0.0
144
0.0
144
0.0
144
1.0
147
0.0208333333333333
147
0.0
147
0.0
147
0.0
147
0.0
147
0.0208333333333333
147
0.0
147
0.0
147
0.0
147
0.0
147
1.0
147
0.0
147
0.0
147
0.0
147
0.0
147
1.0
  0
MLEADERSTYLE
  5
19C8
102
{ACAD_REACTORS
330
19C7
102
}
330
19C7
100
AcDbMLeaderStyle
179
     2
170
     2
171
     1
172
     0
 90
        2
 40
0.0
 41
0.0
173
     1
 91
-1056964608
340
14
 92
       -2
290
     1
 42
0.09
291
     1
 43
0.36
  3
Standard
 44
0.18
300

342
11
174
     1
178
     6
175
     1
176
     0
 93
-1056964608
 45
0.18
292
     0
297
     0
 46
0.18
 94
-1056964608
 47
1.0
 49
1.0
140
1.0
293
     1
141
0.0
294
     1
177
     0
142
1.0
295
     0
296
     0
143
0.125
271
     0
272
     9
273
     9
298
     0
  0
MLINESTYLE
  5
18
102
{ACAD_REACTORS
330
17
102
}
330
17
100
AcDbMlineStyle
  2
STANDARD
 70
     0
  3

 62
   256
 51
90.0
 52
90.0
 71
     2
 49
0.5
 62
   256
  6
BYLAYER
 49
-0.5
 62
   256
  6
BYLAYER
  0
ACDBPLACEHOLDER
  5
F
102
{ACAD_REACTORS
330
E
102
}
330
E
  0
SCALE
  5
19B6
102
{ACAD_REACTORS
330
19B5
102
}
330
19B5
100
AcDbScale
 70
     0
300
1:1
140
1.0
141
1.0
290
     1
  0
SCALE
  5
19B7
102
{ACAD_REACTORS
330
19B5
102
}
330
19B5
100
AcDbScale
 70
     0
300
1/128" = 1'-0"
140
0.0078125
141
12.0
290
     0
  0
SCALE
  5
19B8
102
{ACAD_REACTORS
330
19B5
102
}
330
19B5
100
AcDbScale
 70
     0
300
1/64" = 1'-0"
140
0.015625
141
12.0
290
     0
  0
SCALE
  5
19B9
102
{ACAD_REACTORS
330
19B5
102
}
330
19B5
100
AcDbScale
 70
     0
300
1/32" = 1'-0"
140
0.03125
141
12.0
290
     0
  0
SCALE
  5
19BA
102
{ACAD_REACTORS
330
19B5
102
}
330
19B5
100
AcDbScale
 70
     0
300
1/16" = 1'-0"
140
0.0625
141
12.0
290
     0
  0
SCALE
  5
19BB
102
{ACAD_REACTORS
330
19B5
102
}
330
19B5
100
AcDbScale
 70
     0
300
3/32" = 1'-0"
140
0.09375
141
12.0
290
     0
  0
SCALE
  5
19BC
102
{ACAD_REACTORS
330
19B5
102
}
330
19B5
100
AcDbScale
 70
     0
300
1/8" = 1'-0"
140
0.125
141
12.0
290
     0
  0
SCALE
  5
19BD
102
{ACAD_REACTORS
330
19B5
102
}
330
19B5
100
AcDbScale
 70
     0
300
3/16" = 1'-0"
140
0.1875
141
12.0
290
     0
  0
SCALE
  5
19BE
102
{ACAD_REACTORS
330
19B5
102
}
330
19B5
100
AcDbScale
 70
     0
300
1/4" = 1'-0"
140
0.25
141
12.0
290
     0
  0
SCALE
  5
19BF
102
{ACAD_REACTORS
330
19B5
102
}
330
19B5
100
AcDbScale
 70
     0
300
3/8" = 1'-0"
140
0.375
141
12.0
290
     0
  0
SCALE
  5
19C0
102
{ACAD_REACTORS
330
19B5
102
}
330
19B5
100
AcDbScale
 70
     0
300
1/2" = 1'-0"
140
0.5
141
12.0
290
     0
  0
SCALE
  5
19C1
102
{ACAD_REACTORS
330
19B5
102
}
330
19B5
100
AcDbScale
 70
     0
300
3/4" = 1'-0"
140
0.75
141
12.0
290
     0
  0
SCALE
  5
19C2
102
{ACAD_REACTORS
330
19B5
102
}
330
19B5
100
AcDbScale
 70
     0
300
1" = 1'-0"
140
1.0
141
12.0
290
     0
  0
SCALE
  5
19C3
102
{ACAD_REACTORS
330
19B5
102
}
330
19B5
100
AcDbScale
 70
     0
300
1-1/2" = 1'-0"
140
1.5
141
12.0
290
     0
  0
SCALE
  5
19C4
102
{ACAD_REACTORS
330
19B5
102
}
330
19B5
100
AcDbScale
 70
     0
300
3" = 1'-0"
140
3.0
141
12.0
290
     0
  0
SCALE
  5
19C5
102
{ACAD_REACTORS
330
19B5
102
}
330
19B5
100
AcDbScale
 70
     0
300
6" = 1'-0"
140
6.0
141
12.0
290
     0
  0
SCALE
  5
19C6
102
{ACAD_REACTORS
330
19B5
102
}
330
19B5
100
AcDbScale
 70
     0
300
1'-0" = 1'-0"
140
12.0
141
12.0
290
     0
  0
ACDBSECTIONVIEWSTYLE
  5
19CA
102
{ACAD_REACTORS
330
19C9
102
}
330
19C9
100
AcDbModelDocViewStyle
 70
     0
  3
Imperial24
290
     0
300
Imperial24
 90
        0
100
AcDbSectionViewStyle
 70
     0
 71
     0
 90
       78
 71
     1
340
11
 62
   256
 40
0.24
340
0
340
0
 62
   256
 40
0.24
300
I, O, Q, S, X, Z
 40
0.48
 90
        3
 40
0.18
 90
        1
 71
     2
340
16
 90
       25
 62
   256
340
16
 90
       50
 62
   256
 40
0.24
 40
0.0
 40
0.24
 71
     3
340
11
 62
   256
 40
0.24
 90
        1
 40
0.75
 90
        1
300
%<\AcVar ViewType \f "%tc1">% %<\AcVar ViewSectionStartId>%-%<\AcVar ViewSectionEndId>%\PSCALE %<\AcVar ViewScale \f "%sn">%
 71
     4
 62
   256
 62
   257
300
ANSI31
 40
1.0
 90
        0
290
     0
290
     0
 90
        6
 40
0.0
 40
1.570796326794896
 40
0.2617993877991494
 40
1.308996938995747
 40
-0.2617993877991494
 40
1.832595714594046
  0
TABLESTYLE
  5
19B4
102
{ACAD_XDICTIONARY
360
19CD
102
}
102
{ACAD_REACTORS
330
19B3
102
}
330
19B3
100
AcDbTableStyle
280
     0
  3
Standard
 70
     0
 71
     0
 40
0.06
 41
0.06
280
     0
281
     0
  7
STANDARD
140
0.18
170
     2
 62
     0
 63
     7
283
     0
 90
      512
 91
        0
  1

274
    -2
284
     1
 64
     0
275
    -2
285
     1
 65
     0
276
    -2
286
     1
 66
     0
277
    -2
287
     1
 67
     0
278
    -2
288
     1
 68
     0
279
    -2
289
     1
 69
     0
  7
STANDARD
140
0.25
170
     5
 62
     0
 63
     7
283
     0
 90
      512
 91
        0
  1

274
    -2
284
     1
 64
     0
275
    -2
285
     1
 65
     0
276
    -2
286
     1
 66
     0
277
    -2
287
     1
 67
     0
278
    -2
288
     1
 68
     0
279
    -2
289
     1
 69
     0
  7
STANDARD
140
0.18
170
     5
 62
     0
 63
     7
283
     0
 90
      512
 91
        0
  1

274
    -2
284
     1
 64
     0
275
    -2
285
     1
 65
     0
276
    -2
286
     1
 66
     0
277
    -2
287
     1
 67
     0
278
    -2
288
     1
 68
     0
279
    -2
289
     1
 69
     0
  0
VISUALSTYLE
  5
199F
102
{ACAD_REACTORS
330
1999
102
}
330
1999
100
AcDbVisualStyle
  2
2dWireframe
 70
     4
177
     3
291
     0
 70
    58
 90
        0
176
     1
 90
        2
176
     1
 90
        0
176
     1
 90
        0
176
     1
 40
0.6
176
     1
 40
30.0
176
     1
 62
     7
176
     1
 90
        1
176
     1
 90
        4
176
     1
 62
     7
176
     1
 62
   257
176
     1
 90
        1
176
     1
 90
        1
176
     1
 40
1.0
176
     1
 90
        0
176
     1
 62
   257
176
     1
 40
1.0
176
     1
 90
        1
176
     1
 90
        6
176
     1
 90
        2
176
     1
 62
     7
176
     1
 90
        5
176
     1
 90
        0
176
     1
 90
        0
176
     1
290
     0
176
     1
 90
        1
176
     1
 40
0.0
176
     1
 90
        0
176
     1
290
     1
176
     1
290
     1
176
     1
290
     0
176
     1
290
     0
176
     1
290
     0
176
     1
290
     0
176
     1
290
     0
176
     1
290
     0
176
     1
290
     0
176
     1
 90
       50
176
     1
 40
0.0
176
     1
 40
1.0
176
     1
 90
        0
176
     1
 62
    18
420
        0
176
     1
 90
       50
176
     1
 90
        3
176
     1
 62
     5
420
      255
176
     1
290
     0
176
     1
 90
       50
176
     1
 90
       50
176
     1
 90
       50
176
     1
290
     0
176
     1
 90
       50
176
     1
 62
   256
176
     0
 40
1.0
176
     0
 90
        2
176
     1
  1
strokes_ogs.tif
176
     1
290
     0
176
     1
 40
1.0
176
     1
 40
1.0
176
     1
  0
VISUALSTYLE
  5
199E
102
{ACAD_REACTORS
330
1999
102
}
330
1999
100
AcDbVisualStyle
  2
Basic
 70
     7
177
     3
291
     1
 70
    58
 90
        1
176
     1
 90
        0
176
     1
 90
        1
176
     1
 90
        0
176
     1
 40
0.6
176
     1
 40
30.0
176
     1
 62
     7
176
     1
 90
        0
176
     1
 90
        4
176
     1
 62
     7
176
     1
 62
   257
176
     1
 90
        1
176
     1
 90
        1
176
     1
 40
1.0
176
     1
 90
        8
176
     1
 62
     7
176
     1
 40
1.0
176
     1
 90
        1
176
     1
 90
        6
176
     1
 90
        2
176
     1
 62
     7
176
     1
 90
        5
176
     1
 90
        0
176
     1
 90
        0
176
     1
290
     0
176
     1
 90
        1
176
     1
 40
0.0
176
     1
 90
        0
176
     1
290
     0
176
     1
290
     1
176
     1
290
     1
176
     1
290
     0
176
     1
290
     0
176
     1
290
     0
176
     1
290
     0
176
     1
290
     0
176
     1
290
     0
176
     1
 90
       50
176
     1
 40
0.0
176
     1
 40
1.0
176
     1
 90
        0
176
     1
 62
    18
420
        0
176
     1
 90
       50
176
     1
 90
        3
176
     1
 62
     5
420
      255
176
     1
290
     0
176
     1
 90
       50
176
     1
 90
       50
176
     1
 90
       50
176
     1
290
     0
176
     1
 90
       50
176
     1
 62
   256
176
     0
 40
1.0
176
     0
 90
        2
176
     1
  1
strokes_ogs.tif
176
     1
290
     0
176
     1
 40
1.0
176
     1
 40
1.0
176
     1
  0
VISUALSTYLE
  5
19A5
102
{ACAD_REACTORS
330
1999
102
}
330
1999
100
AcDbVisualStyle
  2
Brighten
 70
    12
177
     3
291
     1
 70
    58
 90
        2
176
     1
 90
        2
176
     1
 90
        0
176
     1
 90
        0
176
     1
 40
0.6
176
     1
 40
30.0
176
     1
 62
     7
176
     1
 90
        1
176
     1
 90
        4
176
     1
 62
     7
176
     1
 62
   257
176
     1
 90
        1
176
     1
 90
        1
176
     1
 40
1.0
176
     1
 90
        8
176
     1
 62
     7
176
     1
 40
1.0
176
     1
 90
        1
176
     1
 90
        6
176
     1
 90
        2
176
     1
 62
     7
176
     1
 90
        5
176
     1
 90
        0
176
     1
 90
        0
176
     1
290
     0
176
     1
 90
        1
176
     1
 40
50.0
176
     1
 90
        0
176
     1
290
     0
176
     1
290
     1
176
     1
290
     1
176
     1
290
     0
176
     1
290
     0
176
     1
290
     0
176
     1
290
     0
176
     1
290
     0
176
     1
290
     0
176
     1
 90
       50
176
     1
 40
0.0
176
     1
 40
1.0
176
     1
 90
        0
176
     1
 62
    18
420
        0
176
     1
 90
       50
176
     1
 90
        3
176
     1
 62
     5
420
      255
176
     1
290
     0
176
     1
 90
       50
176
     1
 90
       50
176
     1
 90
       50
176
     1
290
     0
176
     1
 90
       50
176
     1
 62
   256
176
     0
 40
1.0
176
     0
 90
        2
176
     1
  1
strokes_ogs.tif
176
     1
290
     0
176
     1
 40
1.0
176
     1
 40
1.0
176
     1
  0
VISUALSTYLE
  5
19A9
102
{ACAD_REACTORS
330
1999
102
}
330
1999
100
AcDbVisualStyle
  2
ColorChange
 70
    16
177
     3
291
     1
 70
    58
 90
        2
176
     1
 90
        2
176
     1
 90
        3
176
     1
 90
        0
176
     1
 40
0.6
176
     1
 40
30.0
176
     1
 62
     8
176
     1
 90
        1
176
     1
 90
        4
176
     1
 62
     7
176
     1
 62
   257
176
     1
 90
        1
176
     1
 90
        1
176
     1
 40
1.0
176
     1
 90
        8
176
     1
 62
     8
176
     1
 40
1.0
176
     1
 90
        1
176
     1
 90
        6
176
     1
 90
        2
176
     1
 62
     7
176
     1
 90
        5
176
     1
 90
        0
176
     1
 90
        0
176
     1
290
     0
176
     1
 90
        1
176
     1
 40
0.0
176
     1
 90
        0
176
     1
290
     0
176
     1
290
     1
176
     1
290
     1
176
     1
290
     0
176
     1
290
     0
176
     1
290
     0
176
     1
290
     0
176
     1
290
     0
176
     1
290
     0
176
     1
 90
       50
176
     1
 40
0.0
176
     1
 40
1.0
176
     1
 90
        0
176
     1
 62
    18
420
        0
176
     1
 90
       50
176
     1
 90
        3
176
     1
 62
     5
420
      255
176
     1
290
     0
176
     1
 90
       50
176
     1
 90
       50
176
     1
 90
       50
176
     1
290
     0
176
     1
 90
       50
176
     1
 62
   256
176
     0
 40
1.0
176
     0
 90
        2
176
     1
  1
strokes_ogs.tif
176
     1
290
     0
176
     1
 40
1.0
176
     1
 40
1.0
176
     1
  0
VISUALSTYLE
  5
19A2
102
{ACAD_REACTORS
330
1999
102
}
330
1999
100
AcDbVisualStyle
  2
Conceptual
 70
     9
177
     3
291
     0
 70
    58
 90
        3
176
     1
 90
        2
176
     1
 90
        0
176
     1
 90
        0
176
     1
 40
0.6
176
     1
 40
30.0
176
     1
 62
     7
176
     1
 90
        2
176
     1
 90
        2
176
     1
 62
     7
176
     1
 62
   257
176
     1
 90
        1
176
     1
 90
        1
176
     1
 40
179.0
176
     1
 90
        8
176
     1
 62
     7
176
     1
 40
1.0
176
     1
 90
        1
176
     1
 90
        6
176
     1
 90
        2
176
     1
 62
     7
176
     1
 90
        3
176
     1
 90
        0
176
     1
 90
        0
176
     1
290
     0
176
     1
 90
        1
176
     1
 40
0.0
176
     1
 90
        0
176
     1
290
     0
176
     1
290
     1
176
     1
290
     1
176
     1
290
     0
176
     1
290
     0
176
     1
290
     0
176
     1
290
     0
176
     1
290
     0
176
     1
290
     0
176
     1
 90
       50
176
     1
 40
0.0
176
     1
 40
1.0
176
     1
 90
        0
176
     1
 62
    18
420
        0
176
     1
 90
       50
176
     1
 90
        3
176
     1
 62
     5
420
      255
176
     1
290
     0
176
     1
 90
       50
176
     1
 90
       50
176
     1
 90
       50
176
     1
290
     0
176
     1
 90
       50
176
     1
 62
   256
176
     0
 40
1.0
176
     0
 90
        2
176
     1
  1
strokes_ogs.tif
176
     1
290
     0
176
     1
 40
1.0
176
     1
 40
1.0
176
     1
  0
VISUALSTYLE
  5
19A4
102
{ACAD_REACTORS
330
1999
102
}
330
1999
100
AcDbVisualStyle
  2
Dim
 70
    11
177
     3
291
     1
 70
    58
 90
        2
176
     1
 90
        2
176
     1
 90
        0
176
     1
 90
        0
176
     1
 40
0.6
176
     1
 40
30.0
176
     1
 62
     7
176
     1
 90
        1
176
     1
 90
        4
176
     1
 62
     7
176
     1
 62
   257
176
     1
 90
        1
176
     1
 90
        1
176
     1
 40
1.0
176
     1
 90
        8
176
     1
 62
     7
176
     1
 40
1.0
176
     1
 90
        1
176
     1
 90
        6
176
     1
 90
        2
176
     1
 62
     7
176
     1
 90
        5
176
     1
 90
        0
176
     1
 90
        0
176
     1
290
     0
176
     1
 90
        1
176
     1
 40
-50.0
176
     1
 90
        0
176
     1
290
     0
176
     1
290
     1
176
     1
290
     1
176
     1
290
     0
176
     1
290
     0
176
     1
290
     0
176
     1
290
     0
176
     1
290
     0
176
     1
290
     0
176
     1
 90
       50
176
     1
 40
0.0
176
     1
 40
1.0
176
     1
 90
        0
176
     1
 62
    18
420
        0
176
     1
 90
       50
176
     1
 90
        3
176
     1
 62
     5
420
      255
176
     1
290
     0
176
     1
 90
       50
176
     1
 90
       50
176
     1
 90
       50
176
     1
290
     0
176
     1
 90
       50
176
     1
 62
   256
176
     0
 40
1.0
176
     0
 90
        2
176
     1
  1
strokes_ogs.tif
176
     1
290
     0
176
     1
 40
1.0
176
     1
 40
1.0
176
     1
  0
VISUALSTYLE
  5
19B1
102
{ACAD_REACTORS
330
1999
102
}
330
1999
100
AcDbVisualStyle
  2
EdgeColorOff
 70
    22
177
     3
291
     1
 70
    58
 90
        2
176
     0
 90
        2
176
     0
 90
        0
176
     0
 90
        0
176
     0
 40
0.6
176
     0
 40
30.0
176
     0
 62
     7
176
     0
 90
        1
176
     0
 90
        4
176
     0
 62
     7
176
     0
 62
   257
176
     0
 90
        1
176
     0
 90
        1
176
     0
 40
1.0
176
     0
 90
        8
176
     2
 62
     7
176
     0
 40
1.0
176
     0
 90
        1
176
     0
 90
        6
176
     0
 90
        2
176
     0
 62
     7
176
     0
 90
        5
176
     0
 90
        0
176
     0
 90
        0
176
     0
290
     0
176
     0
 90
        1
176
     0
 40
0.0
176
     0
 90
        0
176
     0
290
     0
176
     1
290
     1
176
     1
290
     1
176
     1
290
     0
176
     1
290
     0
176
     1
290
     0
176
     1
290
     0
176
     1
290
     0
176
     1
290
     0
176
     1
 90
       50
176
     0
 40
0.0
176
     0
 40
1.0
176
     0
 90
        0
176
     0
 62
    18
420
        0
176
     0
 90
       50
176
     0
 90
        3
176
     0
 62
     5
420
      255
176
     0
290
     0
176
     1
 90
       50
176
     0
 90
       50
176
     0
 90
       50
176
     0
290
     0
176
     1
 90
       50
176
     0
 62
   256
176
     0
 40
1.0
176
     0
 90
        2
176
     0
  1
strokes_ogs.tif
176
     0
290
     0
176
     1
 40
1.0
176
     0
 40
1.0
176
     0
  0
VISUALSTYLE
  5
19A8
102
{ACAD_REACTORS
330
1999
102
}
330
1999
100
AcDbVisualStyle
  2
Facepattern
 70
    15
177
     3
291
     1
 70
    58
 90
        2
176
     1
 90
        2
176
     1
 90
        0
176
     1
 90
        0
176
     1
 40
0.6
176
     1
 40
30.0
176
     1
 62
     7
176
     1
 90
        1
176
     1
 90
        4
176
     1
 62
     7
176
     1
 62
   257
176
     1
 90
        1
176
     1
 90
        1
176
     1
 40
1.0
176
     1
 90
        8
176
     1
 62
     7
176
     1
 40
1.0
176
     1
 90
        1
176
     1
 90
        6
176
     1
 90
        2
176
     1
 62
     7
176
     1
 90
        5
176
     1
 90
        0
176
     1
 90
        0
176
     1
290
     0
176
     1
 90
        1
176
     1
 40
0.0
176
     1
 90
        0
176
     1
290
     0
176
     1
290
     1
176
     1
290
     1
176
     1
290
     0
176
     1
290
     0
176
     1
290
     0
176
     1
290
     0
176
     1
290
     0
176
     1
290
     0
176
     1
 90
       50
176
     1
 40
0.0
176
     1
 40
1.0
176
     1
 90
        0
176
     1
 62
    18
420
        0
176
     1
 90
       50
176
     1
 90
        3
176
     1
 62
     5
420
      255
176
     1
290
     0
176
     1
 90
       50
176
     1
 90
       50
176
     1
 90
       50
176
     1
290
     0
176
     1
 90
       50
176
     1
 62
   256
176
     0
 40
1.0
176
     0
 90
        2
176
     1
  1
strokes_ogs.tif
176
     1
290
     0
176
     1
 40
1.0
176
     1
 40
1.0
176
     1
  0
VISUALSTYLE
  5
199A
102
{ACAD_REACTORS
330
1999
102
}
330
1999
100
AcDbVisualStyle
  2
Flat
 70
     0
177
     3
291
     1
 70
    58
 90
        2
176
     1
 90
        1
176
     1
 90
        1
176
     1
 90
        2
176
     1
 40
0.6
176
     1
 40
30.0
176
     1
 62
     7
176
     1
 90
        0
176
     1
 90
        0
176
     1
 62
     7
176
     1
 62
   257
176
     1
 90
        1
176
     1
 90
        1
176
     1
 40
1.0
176
     1
 90
        8
176
     1
 62
     7
176
     1
 40
1.0
176
     1
 90
        1
176
     1
 90
        6
176
     1
 90
        2
176
     1
 62
     7
176
     1
 90
        5
176
     1
 90
        0
176
     1
 90
        0
176
     1
290
     0
176
     1
 90
       13
176
     1
 40
0.0
176
     1
 90
        0
176
     1
290
     0
176
     1
290
     1
176
     1
290
     1
176
     1
290
     0
176
     1
290
     0
176
     1
290
     0
176
     1
290
     0
176
     1
290
     0
176
     1
290
     0
176
     1
 90
       50
176
     1
 40
0.0
176
     1
 40
1.0
176
     1
 90
        0
176
     1
 62
    18
420
        0
176
     1
 90
       50
176
     1
 90
        3
176
     1
 62
     5
420
      255
176
     1
290
     0
176
     1
 90
       50
176
     1
 90
       50
176
     1
 90
       50
176
     1
290
     0
176
     1
 90
       50
176
     1
 62
   256
176
     0
 40
1.0
176
     0
 90
        2
176
     1
  1
strokes_ogs.tif
176
     1
290
     0
176
     1
 40
1.0
176
     1
 40
1.0
176
     1
  0
VISUALSTYLE
  5
199B
102
{ACAD_REACTORS
330
1999
102
}
330
1999
100
AcDbVisualStyle
  2
FlatWithEdges
 70
     1
177
     3
291
     1
 70
    58
 90
        2
176
     1
 90
        1
176
     1
 90
        1
176
     1
 90
        2
176
     1
 40
0.6
176
     1
 40
30.0
176
     1
 62
     7
176
     1
 90
        1
176
     1
 90
        0
176
     1
 62
     7
176
     1
 62
   257
176
     1
 90
        1
176
     1
 90
        1
176
     1
 40
1.0
176
     1
 90
        0
176
     1
 62
   257
176
     1
 40
1.0
176
     1
 90
        1
176
     1
 90
        6
176
     1
 90
        2
176
     1
 62
     7
176
     1
 90
        5
176
     1
 90
        0
176
     1
 90
        0
176
     1
290
     0
176
     1
 90
       13
176
     1
 40
0.0
176
     1
 90
        0
176
     1
290
     0
176
     1
290
     1
176
     1
290
     1
176
     1
290
     0
176
     1
290
     0
176
     1
290
     0
176
     1
290
     0
176
     1
290
     0
176
     1
290
     0
176
     1
 90
       50
176
     1
 40
0.0
176
     1
 40
1.0
176
     1
 90
        0
176
     1
 62
    18
420
        0
176
     1
 90
       50
176
     1
 90
        3
176
     1
 62
     5
420
      255
176
     1
290
     0
176
     1
 90
       50
176
     1
 90
       50
176
     1
 90
       50
176
     1
290
     0
176
     1
 90
       50
176
     1
 62
   256
176
     0
 40
1.0
176
     0
 90
        2
176
     1
  1
strokes_ogs.tif
176
     1
290
     0
176
     1
 40
1.0
176
     1
 40
1.0
176
     1
  0
VISUALSTYLE
  5
199C
102
{ACAD_REACTORS
330
1999
102
}
330
1999
100
AcDbVisualStyle
  2
Gouraud
 70
     2
177
     3
291
     1
 70
    58
 90
        2
176
     1
 90
        2
176
     1
 90
        1
176
     1
 90
        2
176
     1
 40
0.6
176
     1
 40
30.0
176
     1
 62
     7
176
     1
 90
        0
176
     1
 90
        0
176
     1
 62
     7
176
     1
 62
   257
176
     1
 90
        1
176
     1
 90
        1
176
     1
 40
1.0
176
     1
 90
        0
176
     1
 62
     7
176
     1
 40
1.0
176
     1
 90
        1
176
     1
 90
        6
176
     1
 90
        2
176
     1
 62
     7
176
     1
 90
        5
176
     1
 90
        0
176
     1
 90
        0
176
     1
290
     0
176
     1
 90
       13
176
     1
 40
0.0
176
     1
 90
        0
176
     1
290
     0
176
     1
290
     1
176
     1
290
     1
176
     1
290
     0
176
     1
290
     0
176
     1
290
     0
176
     1
290
     0
176
     1
290
     0
176
     1
290
     0
176
     1
 90
       50
176
     1
 40
0.0
176
     1
 40
1.0
176
     1
 90
        0
176
     1
 62
    18
420
        0
176
     1
 90
       50
176
     1
 90
        3
176
     1
 62
     5
420
      255
176
     1
290
     0
176
     1
 90
       50
176
     1
 90
       50
176
     1
 90
       50
176
     1
290
     0
176
     1
 90
       50
176
     1
 62
   256
176
     0
 40
1.0
176
     0
 90
        2
176
     1
  1
strokes_ogs.tif
176
     1
290
     0
176
     1
 40
1.0
176
     1
 40
1.0
176
     1
  0
VISUALSTYLE
  5
199D
102
{ACAD_REACTORS
330
1999
102
}
330
1999
100
AcDbVisualStyle
  2
GouraudWithEdges
 70
     3
177
     3
291
     1
 70
    58
 90
        2
176
     1
 90
        2
176
     1
 90
        1
176
     1
 90
        2
176
     1
 40
0.6
176
     1
 40
30.0
176
     1
 62
     7
176
     1
 90
        1
176
     1
 90
        0
176
     1
 62
     7
176
     1
 62
   257
176
     1
 90
        1
176
     1
 90
        1
176
     1
 40
1.0
176
     1
 90
        0
176
     1
 62
   257
176
     1
 40
1.0
176
     1
 90
        1
176
     1
 90
        6
176
     1
 90
        2
176
     1
 62
     7
176
     1
 90
        5
176
     1
 90
        0
176
     1
 90
        0
176
     1
290
     0
176
     1
 90
       13
176
     1
 40
0.0
176
     1
 90
        0
176
     1
290
     0
176
     1
290
     1
176
     1
290
     1
176
     1
290
     0
176
     1
290
     0
176
     1
290
     0
176
     1
290
     0
176
     1
290
     0
176
     1
290
     0
176
     1
 90
       50
176
     1
 40
0.0
176
     1
 40
1.0
176
     1
 90
        0
176
     1
 62
    18
420
        0
176
     1
 90
       50
176
     1
 90
        3
176
     1
 62
     5
420
      255
176
     1
290
     0
176
     1
 90
       50
176
     1
 90
       50
176
     1
 90
       50
176
     1
290
     0
176
     1
 90
       50
176
     1
 62
   256
176
     0
 40
1.0
176
     0
 90
        2
176
     1
  1
strokes_ogs.tif
176
     1
290
     0
176
     1
 40
1.0
176
     1
 40
1.0
176
     1
  0
VISUALSTYLE
  5
19A1
102
{ACAD_REACTORS
330
1999
102
}
330
1999
100
AcDbVisualStyle
  2
Hidden
 70
     6
177
     3
291
     0
 70
    58
 90
        1
176
     1
 90
        2
176
     1
 90
        2
176
     1
 90
        0
176
     1
 40
0.6
176
     1
 40
30.0
176
     1
 62
     7
176
     1
 90
        2
176
     1
 90
        2
176
     1
 62
     7
176
     1
 62
   257
176
     1
 90
        2
176
     1
 90
        1
176
     1
 40
40.0
176
     1
 90
        0
176
     1
 62
   257
176
     1
 40
1.0
176
     1
 90
        1
176
     1
 90
        6
176
     1
 90
        2
176
     1
 62
     7
176
     1
 90
        3
176
     1
 90
        0
176
     1
 90
        0
176
     1
290
     0
176
     1
 90
        1
176
     1
 40
0.0
176
     1
 90
        0
176
     1
290
     0
176
     1
290
     1
176
     1
290
     1
176
     1
290
     0
176
     1
290
     0
176
     1
290
     0
176
     1
290
     0
176
     1
290
     0
176
     1
290
     0
176
     1
 90
       50
176
     1
 40
0.0
176
     1
 40
1.0
176
     1
 90
        0
176
     1
 62
    18
420
        0
176
     1
 90
       50
176
     1
 90
        3
176
     1
 62
     5
420
      255
176
     1
290
     0
176
     1
 90
       50
176
     1
 90
       50
176
     1
 90
       50
176
     1
290
     0
176
     1
 90
       50
176
     1
 62
   256
176
     0
 40
1.0
176
     0
 90
        2
176
     1
  1
strokes_ogs.tif
176
     1
290
     0
176
     1
 40
1.0
176
     1
 40
1.0
176
     1
  0
VISUALSTYLE
  5
19AF
102
{ACAD_REACTORS
330
1999
102
}
330
1999
100
AcDbVisualStyle
  2
JitterOff
 70
    20
177
     3
291
     1
 70
    58
 90
        2
176
     0
 90
        2
176
     0
 90
        0
176
     0
 90
        0
176
     0
 40
0.6
176
     0
 40
30.0
176
     0
 62
     7
176
     0
 90
        1
176
     0
 90
        4
176
     0
 62
     7
176
     0
 62
   257
176
     0
 90
        1
176
     0
 90
        1
176
     0
 40
1.0
176
     0
 90
       10
176
     2
 62
     7
176
     0
 40
1.0
176
     0
 90
        1
176
     0
 90
        6
176
     0
 90
        2
176
     0
 62
     7
176
     0
 90
        5
176
     0
 90
        0
176
     0
 90
        0
176
     0
290
     0
176
     0
 90
        1
176
     0
 40
0.0
176
     0
 90
        0
176
     0
290
     0
176
     1
290
     1
176
     1
290
     1
176
     1
290
     0
176
     1
290
     0
176
     1
290
     0
176
     1
290
     0
176
     1
290
     0
176
     1
290
     0
176
     1
 90
       50
176
     0
 40
0.0
176
     0
 40
1.0
176
     0
 90
        0
176
     0
 62
    18
420
        0
176
     0
 90
       50
176
     0
 90
        3
176
     0
 62
     5
420
      255
176
     0
290
     0
176
     1
 90
       50
176
     0
 90
       50
176
     0
 90
       50
176
     0
290
     0
176
     1
 90
       50
176
     0
 62
   256
176
     0
 40
1.0
176
     0
 90
        2
176
     0
  1
strokes_ogs.tif
176
     0
290
     0
176
     1
 40
1.0
176
     0
 40
1.0
176
     0
  0
VISUALSTYLE
  5
19A7
102
{ACAD_REACTORS
330
1999
102
}
330
1999
100
AcDbVisualStyle
  2
Linepattern
 70
    14
177
     3
291
     1
 70
    58
 90
        2
176
     1
 90
        2
176
     1
 90
        0
176
     1
 90
        0
176
     1
 40
0.6
176
     1
 40
30.0
176
     1
 62
     7
176
     1
 90
        1
176
     1
 90
        4
176
     1
 62
     7
176
     1
 62
   257
176
     1
 90
        7
176
     1
 90
        7
176
     1
 40
1.0
176
     1
 90
        8
176
     1
 62
     7
176
     1
 40
1.0
176
     1
 90
        1
176
     1
 90
        6
176
     1
 90
        2
176
     1
 62
     7
176
     1
 90
        5
176
     1
 90
        0
176
     1
 90
        0
176
     1
290
     0
176
     1
 90
        1
176
     1
 40
0.0
176
     1
 90
        0
176
     1
290
     0
176
     1
290
     1
176
     1
290
     1
176
     1
290
     0
176
     1
290
     0
176
     1
290
     0
176
     1
290
     0
176
     1
290
     0
176
     1
290
     0
176
     1
 90
       50
176
     1
 40
0.0
176
     1
 40
1.0
176
     1
 90
        0
176
     1
 62
    18
420
        0
176
     1
 90
       50
176
     1
 90
        3
176
     1
 62
     5
420
      255
176
     1
290
     0
176
     1
 90
       50
176
     1
 90
       50
176
     1
 90
       50
176
     1
290
     0
176
     1
 90
       50
176
     1
 62
   256
176
     0
 40
1.0
176
     0
 90
        2
176
     1
  1
strokes_ogs.tif
176
     1
290
     0
176
     1
 40
1.0
176
     1
 40
1.0
176
     1
  0
VISUALSTYLE
  5
19B0
102
{ACAD_REACTORS
330
1999
102
}
330
1999
100
AcDbVisualStyle
  2
OverhangOff
 70
    21
177
     3
291
     1
 70
    58
 90
        2
176
     0
 90
        2
176
     0
 90
        0
176
     0
 90
        0
176
     0
 40
0.6
176
     0
 40
30.0
176
     0
 62
     7
176
     0
 90
        1
176
     0
 90
        4
176
     0
 62
     7
176
     0
 62
   257
176
     0
 90
        1
176
     0
 90
        1
176
     0
 40
1.0
176
     0
 90
        9
176
     2
 62
     7
176
     0
 40
1.0
176
     0
 90
        1
176
     0
 90
        6
176
     0
 90
        2
176
     0
 62
     7
176
     0
 90
        5
176
     0
 90
        0
176
     0
 90
        0
176
     0
290
     0
176
     0
 90
        1
176
     0
 40
0.0
176
     0
 90
        0
176
     0
290
     0
176
     1
290
     1
176
     1
290
     1
176
     1
290
     0
176
     1
290
     0
176
     1
290
     0
176
     1
290
     0
176
     1
290
     0
176
     1
290
     0
176
     1
 90
       50
176
     0
 40
0.0
176
     0
 40
1.0
176
     0
 90
        0
176
     0
 62
    18
420
        0
176
     0
 90
       50
176
     0
 90
        3
176
     0
 62
     5
420
      255
176
     0
290
     0
176
     1
 90
       50
176
     0
 90
       50
176
     0
 90
       50
176
     0
290
     0
176
     1
 90
       50
176
     0
 62
   256
176
     0
 40
1.0
176
     0
 90
        2
176
     0
  1
strokes_ogs.tif
176
     0
290
     0
176
     1
 40
1.0
176
     0
 40
1.0
176
     0
  0
VISUALSTYLE
  5
19A3
102
{ACAD_REACTORS
330
1999
102
}
330
1999
100
AcDbVisualStyle
  2
Realistic
 70
     8
177
     3
291
     0
 70
    58
 90
        2
176
     1
 90
        2
176
     1
 90
        0
176
     1
 90
        2
176
     1
 40
0.6
176
     1
 40
30.0
176
     1
 62
     7
176
     1
 90
        0
176
     1
 90
        0
176
     1
 62
     7
176
     1
 62
   257
176
     1
 90
        1
176
     1
 90
        1
176
     1
 40
1.0
176
     1
 90
        8
176
     1
 62
   257
176
     1
 40
1.0
176
     1
 90
        1
176
     1
 90
        6
176
     1
 90
        2
176
     1
 62
     7
176
     1
 90
        3
176
     1
 90
        0
176
     1
 90
        0
176
     1
290
     0
176
     1
 90
       13
176
     1
 40
0.0
176
     1
 90
        0
176
     1
290
     0
176
     1
290
     1
176
     1
290
     1
176
     1
290
     0
176
     1
290
     0
176
     1
290
     0
176
     1
290
     0
176
     1
290
     0
176
     1
290
     0
176
     1
 90
       50
176
     1
 40
0.0
176
     1
 40
1.0
176
     1
 90
        0
176
     1
 62
    18
420
        0
176
     1
 90
       50
176
     1
 90
        3
176
     1
 62
     5
420
      255
176
     1
290
     0
176
     1
 90
       50
176
     1
 90
       50
176
     1
 90
       50
176
     1
290
     0
176
     1
 90
       50
176
     1
 62
   256
176
     0
 40
1.0
176
     0
 90
        2
176
     1
  1
strokes_ogs.tif
176
     1
290
     0
176
     1
 40
1.0
176
     1
 40
1.0
176
     1
  0
VISUALSTYLE
  5
19AE
102
{ACAD_REACTORS
330
1999
102
}
330
1999
100
AcDbVisualStyle
  2
Shaded
 70
    27
177
     3
291
     0
 70
    58
 90
        2
176
     1
 90
        2
176
     1
 90
        1
176
     1
 90
        2
176
     1
 40
0.6
176
     1
 40
30.0
176
     1
 62
     7
176
     1
 90
        0
176
     1
 90
        4
176
     1
 62
     7
176
     1
 62
   257
176
     1
 90
        1
176
     1
 90
        1
176
     1
 40
1.0
176
     1
 90
        8
176
     1
 62
   257
176
     1
 40
1.0
176
     1
 90
        1
176
     1
 90
        6
176
     1
 90
        2
176
     1
 62
     8
176
     1
 90
        3
176
     1
 90
        0
176
     1
 90
        0
176
     1
290
     0
176
     1
 90
        5
176
     1
 40
0.0
176
     1
 90
        0
176
     1
290
     0
176
     1
290
     1
176
     1
290
     1
176
     1
290
     0
176
     1
290
     0
176
     1
290
     0
176
     1
290
     0
176
     1
290
     0
176
     1
290
     0
176
     1
 90
       50
176
     1
 40
0.0
176
     1
 40
1.0
176
     1
 90
        0
176
     1
 62
    18
420
        0
176
     1
 90
       50
176
     1
 90
        3
176
     1
 62
     5
420
      255
176
     1
290
     0
176
     1
 90
       50
176
     1
 90
       50
176
     1
 90
       50
176
     1
290
     0
176
     1
 90
       50
176
     1
 62
   256
176
     0
 40
1.0
176
     0
 90
        2
176
     1
  1
strokes_ogs.tif
176
     1
290
     0
176
     1
 40
1.0
176
     1
 40
1.0
176
     1
  0
VISUALSTYLE
  5
19AD
102
{ACAD_REACTORS
330
1999
102
}
330
1999
100
AcDbVisualStyle
  2
Shaded with edges
 70
    26
177
     3
291
     0
 70
    58
 90
        2
176
     1
 90
        2
176
     1
 90
        1
176
     1
 90
        2
176
     1
 40
0.6
176
     1
 40
30.0
176
     1
 62
     7
176
     1
 90
        1
176
     1
 90
        2
176
     1
 62
     7
176
     1
 62
   257
176
     1
 90
        2
176
     1
 90
        1
176
     1
 40
1.0
176
     1
 90
        8
176
     1
 62
   257
176
     1
 40
1.0
176
     1
 90
        1
176
     1
 90
        6
176
     1
 90
        2
176
     1
 62
     7
176
     1
 90
        3
176
     1
 90
        0
176
     1
 90
        0
176
     1
290
     0
176
     1
 90
        5
176
     1
 40
0.0
176
     1
 90
        0
176
     1
290
     0
176
     1
290
     1
176
     1
290
     1
176
     1
290
     0
176
     1
290
     0
176
     1
290
     0
176
     1
290
     0
176
     1
290
     0
176
     1
290
     0
176
     1
 90
       50
176
     1
 40
0.0
176
     1
 40
1.0
176
     1
 90
        0
176
     1
 62
    18
420
        0
176
     1
 90
       50
176
     1
 90
        3
176
     1
 62
     5
420
      255
176
     1
290
     0
176
     1
 90
       50
176
     1
 90
       50
176
     1
 90
       50
176
     1
290
     0
176
     1
 90
       50
176
     1
 62
   256
176
     0
 40
1.0
176
     0
 90
        2
176
     1
  1
strokes_ogs.tif
176
     1
290
     0
176
     1
 40
1.0
176
     1
 40
1.0
176
     1
  0
VISUALSTYLE
  5
19AA
102
{ACAD_REACTORS
330
1999
102
}
330
1999
100
AcDbVisualStyle
  2
Shades of Gray
 70
    23
177
     3
291
     0
 70
    58
 90
        2
176
     1
 90
        2
176
     1
 90
        3
176
     1
 90
        0
176
     1
 40
0.6
176
     1
 40
30.0
176
     1
 62
     7
176
     1
 90
        2
176
     1
 90
        2
176
     1
 62
     7
176
     1
 62
     7
176
     1
 90
        1
176
     1
 90
        1
176
     1
 40
40.0
176
     1
 90
        8
176
     1
 62
     7
176
     1
 40
1.0
176
     1
 90
        1
176
     1
 90
        6
176
     1
 90
        2
176
     1
 62
     7
176
     1
 90
        3
176
     1
 90
        0
176
     1
 90
        0
176
     1
290
     0
176
     1
 90
        1
176
     1
 40
0.0
176
     1
 90
        0
176
     1
290
     0
176
     1
290
     1
176
     1
290
     1
176
     1
290
     0
176
     1
290
     0
176
     1
290
     0
176
     1
290
     0
176
     1
290
     0
176
     1
290
     0
176
     1
 90
       50
176
     1
 40
0.0
176
     1
 40
1.0
176
     1
 90
        0
176
     1
 62
    18
420
        0
176
     1
 90
       50
176
     1
 90
        3
176
     1
 62
     5
420
      255
176
     1
290
     0
176
     1
 90
       50
176
     1
 90
       50
176
     1
 90
       50
176
     1
290
     0
176
     1
 90
       50
176
     1
 62
   256
176
     0
 40
1.0
176
     0
 90
        2
176
     1
  1
strokes_ogs.tif
176
     1
290
     0
176
     1
 40
1.0
176
     1
 40
1.0
176
     1
  0
VISUALSTYLE
  5
19AB
102
{ACAD_REACTORS
330
1999
102
}
330
1999
100
AcDbVisualStyle
  2
Sketchy
 70
    24
177
     3
291
     0
 70
    58
 90
        1
176
     1
 90
        2
176
     1
 90
        2
176
     1
 90
        0
176
     1
 40
0.6
176
     1
 40
30.0
176
     1
 62
     7
176
     1
 90
        2
176
     1
 90
        2
176
     1
 62
     7
176
     1
 62
     7
176
     1
 90
        1
176
     1
 90
        1
176
     1
 40
40.0
176
     1
 90
       11
176
     1
 62
     7
176
     1
 40
1.0
176
     1
 90
        1
176
     1
 90
        6
176
     1
 90
        2
176
     1
 62
     7
176
     1
 90
        6
176
     1
 90
        0
176
     1
 90
        0
176
     1
290
     0
176
     1
 90
        1
176
     1
 40
0.0
176
     1
 90
        0
176
     1
290
     0
176
     1
290
     1
176
     1
290
     1
176
     1
290
     0
176
     1
290
     0
176
     1
290
     0
176
     1
290
     0
176
     1
290
     0
176
     1
290
     0
176
     1
 90
       50
176
     1
 40
0.0
176
     1
 40
1.0
176
     1
 90
        0
176
     1
 62
    18
420
        0
176
     1
 90
       50
176
     1
 90
        3
176
     1
 62
     5
420
      255
176
     1
290
     0
176
     1
 90
       50
176
     1
 90
       50
176
     1
 90
       50
176
     1
290
     0
176
     1
 90
       50
176
     1
 62
   256
176
     0
 40
1.0
176
     0
 90
        2
176
     1
  1
strokes_ogs.tif
176
     1
290
     0
176
     1
 40
1.0
176
     1
 40
1.0
176
     1
  0
VISUALSTYLE
  5
19A6
102
{ACAD_REACTORS
330
1999
102
}
330
1999
100
AcDbVisualStyle
  2
Thicken
 70
    13
177
     3
291
     1
 70
    58
 90
        2
176
     1
 90
        2
176
     1
 90
        0
176
     1
 90
        0
176
     1
 40
0.6
176
     1
 40
30.0
176
     1
 62
     7
176
     1
 90
        1
176
     1
 90
        4
176
     1
 62
     7
176
     1
 62
   257
176
     1
 90
        1
176
     1
 90
        1
176
     1
 40
1.0
176
     1
 90
       12
176
     1
 62
     7
176
     1
 40
1.0
176
     1
 90
        1
176
     1
 90
        6
176
     1
 90
        2
176
     1
 62
     7
176
     1
 90
        5
176
     1
 90
        0
176
     1
 90
        0
176
     1
290
     0
176
     1
 90
        1
176
     1
 40
0.0
176
     1
 90
        0
176
     1
290
     0
176
     1
290
     1
176
     1
290
     1
176
     1
290
     0
176
     1
290
     0
176
     1
290
     0
176
     1
290
     0
176
     1
290
     0
176
     1
290
     0
176
     1
 90
       50
176
     1
 40
0.0
176
     1
 40
1.0
176
     1
 90
        0
176
     1
 62
    18
420
        0
176
     1
 90
       50
176
     1
 90
        3
176
     1
 62
     5
420
      255
176
     1
290
     0
176
     1
 90
       50
176
     1
 90
       50
176
     1
 90
       50
176
     1
290
     0
176
     1
 90
       50
176
     1
 62
   256
176
     0
 40
1.0
176
     0
 90
        2
176
     1
  1
strokes_ogs.tif
176
     1
290
     0
176
     1
 40
1.0
176
     1
 40
1.0
176
     1
  0
VISUALSTYLE
  5
19A0
102
{ACAD_REACTORS
330
1999
102
}
330
1999
100
AcDbVisualStyle
  2
Wireframe
 70
     5
177
     3
291
     0
 70
    58
 90
        0
176
     1
 90
        2
176
     1
 90
        0
176
     1
 90
        0
176
     1
 40
0.6
176
     1
 40
30.0
176
     1
 62
     7
176
     1
 90
        1
176
     1
 90
        4
176
     1
 62
     7
176
     1
 62
   257
176
     1
 90
        1
176
     1
 90
        1
176
     1
 40
1.0
176
     1
 90
        0
176
     1
 62
   257
176
     1
 40
1.0
176
     1
 90
        1
176
     1
 90
        6
176
     1
 90
        2
176
     1
 62
     7
176
     1
 90
        3
176
     1
 90
        0
176
     1
 90
        0
176
     1
290
     0
176
     1
 90
        1
176
     1
 40
0.0
176
     1
 90
        0
176
     1
290
     0
176
     1
290
     1
176
     1
290
     1
176
     1
290
     0
176
     1
290
     0
176
     1
290
     0
176
     1
290
     0
176
     1
290
     0
176
     1
290
     0
176
     1
 90
       50
176
     1
 40
0.0
176
     1
 40
1.0
176
     1
 90
        0
176
     1
 62
    18
420
        0
176
     1
 90
       50
176
     1
 90
        3
176
     1
 62
     5
420
      255
176
     1
290
     0
176
     1
 90
       50
176
     1
 90
       50
176
     1
 90
       50
176
     1
290
     0
176
     1
 90
       50
176
     1
 62
   256
176
     0
 40
1.0
176
     0
 90
        2
176
     1
  1
strokes_ogs.tif
176
     1
290
     0
176
     1
 40
1.0
176
     1
 40
1.0
176
     1
  0
VISUALSTYLE
  5
19AC
102
{ACAD_REACTORS
330
1999
102
}
330
1999
100
AcDbVisualStyle
  2
X-Ray
 70
    25
177
     3
291
     0
 70
    58
 90
        2
176
     1
 90
        2
176
     1
 90
        1
176
     1
 90
        1
176
     1
 40
0.5
176
     1
 40
30.0
176
     1
 62
     7
176
     1
 90
        1
176
     1
 90
        0
176
     1
 62
     7
176
     1
 62
   257
176
     1
 90
        1
176
     1
 90
        1
176
     1
 40
1.0
176
     1
 90
        8
176
     1
 62
     7
176
     1
 40
1.0
176
     1
 90
        1
176
     1
 90
        6
176
     1
 90
        2
176
     1
 62
     7
176
     1
 90
        3
176
     1
 90
        0
176
     1
 90
        0
176
     1
290
     0
176
     1
 90
       13
176
     1
 40
0.0
176
     1
 90
        0
176
     1
290
     0
176
     1
290
     1
176
     1
290
     1
176
     1
290
     0
176
     1
290
     0
176
     1
290
     0
176
     1
290
     0
176
     1
290
     0
176
     1
290
     0
176
     1
 90
       50
176
     1
 40
0.0
176
     1
 40
1.0
176
     1
 90
        0
176
     1
 62
    18
420
        0
176
     1
 90
       50
176
     1
 90
        3
176
     1
 62
     5
420
      255
176
     1
290
     0
176
     1
 90
       50
176
     1
 90
       50
176
     1
 90
       50
176
     1
290
     0
176
     1
 90
       50
176
     1
 62
   256
176
     0
 40
1.0
176
     0
 90
        2
176
     1
  1
strokes_ogs.tif
176
     1
290
     0
176
     1
 40
1.0
176
     1
 40
1.0
176
     1
  0
DICTIONARYVAR
  5
1A14
102
{ACAD_REACTORS
330
1A0F
102
}
330
1A0F
100
DictionaryVariables
280
     0
  1
1:1
  0
DICTIONARYVAR
  5
1A11
102
{ACAD_REACTORS
330
1A0F
102
}
330
1A0F
100
DictionaryVariables
280
     0
  1
STANDARD
  0
DICTIONARYVAR
  5
1A10
102
{ACAD_REACTORS
330
1A0F
102
}
330
1A0F
100
DictionaryVariables
280
     0
  1
STANDARD
  0
DICTIONARYVAR
  5
1A12
102
{ACAD_REACTORS
330
1A0F
102
}
330
1A0F
100
DictionaryVariables
280
     0
  1
Imperial24
  0
DICTIONARYVAR
  5
1A13
102
{ACAD_REACTORS
330
1A0F
102
}
330
1A0F
100
DictionaryVariables
280
     0
  1
Imperial24
  0
DICTIONARYVAR
  5
1A17
102
{ACAD_REACTORS
330
1A0F
102
}
330
1A0F
100
DictionaryVariables
280
     0
  1
1
  0
DICTIONARYVAR
  5
1A16
102
{ACAD_REACTORS
330
1A0F
102
}
330
1A0F
100
DictionaryVariables
280
     0
  1
0
  0
DICTIONARYVAR
  5
1A72
102
{ACAD_REACTORS
330
1A0F
102
}
330
1A0F
100
DictionaryVariables
280
     0
  1
1
  0
DICTIONARYVAR
  5
1A73
102
{ACAD_REACTORS
330
1A0F
102
}
330
1A0F
100
DictionaryVariables
280
     0
  1
15
  0
DICTIONARYVAR
  5
1A71
102
{ACAD_REACTORS
330
1A0F
102
}
330
1A0F
100
DictionaryVariables
280
     0
  1
0
  0
DICTIONARYVAR
  5
1A70
102
{ACAD_REACTORS
330
1A0F
102
}
330
1A0F
100
DictionaryVariables
280
     0
  1
0
  0
DICTIONARYVAR
  5
1A15
102
{ACAD_REACTORS
330
1A0F
102
}
330
1A0F
100
DictionaryVariables
280
     0
  1
127
  0
DICTIONARY
  5
198A
330
1989
100
AcDbDictionary
280
     1
281
     1
  3
BUMPTILE
360
198C
  3
DIFFUSETILE
360
198B
  3
OPACITYTILE
360
198F
  3
REFLECTIONTILE
360
198E
  3
REFRACTIONTILE
360
1990
  3
SPECULARTILE
360
198D
  0
DICTIONARY
  5
1982
330
1981
100
AcDbDictionary
280
     1
281
     1
  3
BUMPTILE
360
1984
  3
DIFFUSETILE
360
1983
  3
OPACITYTILE
360
1987
  3
REFLECTIONTILE
360
1986
  3
REFRACTIONTILE
360
1988
  3
SPECULARTILE
360
1985
  0
DICTIONARY
  5
1992
330
1991
100
AcDbDictionary
280
     1
281
     1
  3
BUMPTILE
360
1994
  3
DIFFUSETILE
360
1993
  3
OPACITYTILE
360
1997
  3
REFLECTIONTILE
360
1996
  3
REFRACTIONTILE
360
1998
  3
SPECULARTILE
360
1995
  0
DICTIONARY
  5
19CD
330
19B4
100
AcDbDictionary
280
     1
281
     1
  3
ACAD_ROUNDTRIP_2008_TABLESTYLE_CELLSTYLEMAP
360
1A74
  0
XRECORD
  5
198C
102
{ACAD_REACTORS
330
198A
102
}
330
198A
100
AcDbXrecord
280
     1
270
     1
271
     1
  0
XRECORD
  5
198B
102
{ACAD_REACTORS
330
198A
102
}
330
198A
100
AcDbXrecord
280
     1
270
     1
271
     1
  0
XRECORD
  5
198F
102
{ACAD_REACTORS
330
198A
102
}
330
198A
100
AcDbXrecord
280
     1
270
     1
271
     1
  0
XRECORD
  5
198E
102
{ACAD_REACTORS
330
198A
102
}
330
198A
100
AcDbXrecord
280
     1
270
     1
271
     1
  0
XRECORD
  5
1990
102
{ACAD_REACTORS
330
198A
102
}
330
198A
100
AcDbXrecord
280
     1
270
     1
271
     1
  0
XRECORD
  5
198D
102
{ACAD_REACTORS
330
198A
102
}
330
198A
100
AcDbXrecord
280
     1
270
     1
271
     1
  0
XRECORD
  5
1984
102
{ACAD_REACTORS
330
1982
102
}
330
1982
100
AcDbXrecord
280
     1
270
     1
271
     1
  0
XRECORD
  5
1983
102
{ACAD_REACTORS
330
1982
102
}
330
1982
100
AcDbXrecord
280
     1
270
     1
271
     1
  0
XRECORD
  5
1987
102
{ACAD_REACTORS
330
1982
102
}
330
1982
100
AcDbXrecord
280
     1
270
     1
271
     1
  0
XRECORD
  5
1986
102
{ACAD_REACTORS
330
1982
102
}
330
1982
100
AcDbXrecord
280
     1
270
     1
271
     1
  0
XRECORD
  5
1988
102
{ACAD_REACTORS
330
1982
102
}
330
1982
100
AcDbXrecord
280
     1
270
     1
271
     1
  0
XRECORD
  5
1985
102
{ACAD_REACTORS
330
1982
102
}
330
1982
100
AcDbXrecord
280
     1
270
     1
271
     1
  0
XRECORD
  5
1994
102
{ACAD_REACTORS
330
1992
102
}
330
1992
100
AcDbXrecord
280
     1
270
     1
271
     1
  0
XRECORD
  5
1993
102
{ACAD_REACTORS
330
1992
102
}
330
1992
100
AcDbXrecord
280
     1
270
     1
271
     1
  0
XRECORD
  5
1997
102
{ACAD_REACTORS
330
1992
102
}
330
1992
100
AcDbXrecord
280
     1
270
     1
271
     1
  0
XRECORD
  5
1996
102
{ACAD_REACTORS
330
1992
102
}
330
1992
100
AcDbXrecord
280
     1
270
     1
271
     1
  0
XRECORD
  5
1998
102
{ACAD_REACTORS
330
1992
102
}
330
1992
100
AcDbXrecord
280
     1
270
     1
271
     1
  0
XRECORD
  5
1995
102
{ACAD_REACTORS
330
1992
102
}
330
1992
100
AcDbXrecord
280
     1
270
     1
271
     1
  0
CELLSTYLEMAP
  5
1A74
102
{ACAD_REACTORS
330
19CD
102
}
330
19CD
100
AcDbCellStyleMap
 90
        3
300
CELLSTYLE
  1
TABLEFORMAT_BEGIN
 90
        5
170
     1
 91
        0
 92
    32768
 62
   257
 93
        1
300
CONTENTFORMAT
  1
CONTENTFORMAT_BEGIN
 90
        0
 91
        0
 92
      512
 93
        0
300

 40
0.0
140
1.0
 94
        5
 62
     0
340
11
144
0.25
309
CONTENTFORMAT_END
171
     0
 94
        0
309
TABLEFORMAT_END
  1
CELLSTYLE_BEGIN
 90
        1
 91
        1
300
_TITLE
309
CELLSTYLE_END
300
CELLSTYLE
  1
TABLEFORMAT_BEGIN
 90
        5
170
     1
 91
        0
 92
        0
 62
   257
 93
        1
300
CONTENTFORMAT
  1
CONTENTFORMAT_BEGIN
 90
        0
 91
        0
 92
      512
 93
        0
300

 40
0.0
140
1.0
 94
        5
 62
     0
340
11
144
0.18
309
CONTENTFORMAT_END
171
     0
 94
        0
309
TABLEFORMAT_END
  1
CELLSTYLE_BEGIN
 90
        2
 91
        1
300
_HEADER
309
CELLSTYLE_END
300
CELLSTYLE
  1
TABLEFORMAT_BEGIN
 90
        5
170
     1
 91
        0
 92
        0
 62
   257
 93
        1
300
CONTENTFORMAT
  1
CONTENTFORMAT_BEGIN
 90
        0
 91
        0
 92
      512
 93
        0
300

 40
0.0
140
1.0
 94
        2
 62
     0
340
11
144
0.18
309
CONTENTFORMAT_END
171
     0
 94
        0
309
TABLEFORMAT_END
  1
CELLSTYLE_BEGIN
 90
        3
 91
        2
300
_DATA
309
CELLSTYLE_END
  0
ENDSEC
  0
SECTION
  2
ACDSDATA
 70
     2
 71
     8
  0
ACDSSCHEMA
 90
        0
  1
AcDb_Thumbnail_Schema
  2
AcDbDs::ID
280
    10
 91
        8
  2
Thumbnail_Data
280
    15
 91
        0
101
ACDSRECORD
 95
        0
 90
        1
  2
AcDbDs::TreatedAsObjectData
280
     1
291
     1
101
ACDSRECORD
 95
        0
 90
        2
  2
AcDbDs::Legacy
280
     1
291
     1
101
ACDSRECORD
  1
AcDbDs::ID
 90
        3
  2
AcDs:Indexable
280
     1
291
     1
101
ACDSRECORD
  1
AcDbDs::ID
 90
        4
  2
AcDbDs::HandleAttribute
280
     7
282
     1
  0
ACDSSCHEMA
 90
        1
  1
AcDbDs::TreatedAsObjectDataSchema
  2
AcDbDs::TreatedAsObjectData
280
     1
 91
        0
  0
ACDSSCHEMA
 90
        2
  1
AcDbDs::LegacySchema
  2
AcDbDs::Legacy
280
     1
 91
        0
  0
ACDSSCHEMA
 90
        3
  1
AcDbDs::IndexedPropertySchema
  2
AcDs:Indexable
280
     1
 91
        0
  0
ACDSSCHEMA
 90
        4
  1
AcDbDs::HandleAttributeSchema
  2
AcDbDs::HandleAttribute
280
     7
 91
        1
284
     1
  0
ACDSRECORD
 90
        0
  2
AcDbDs::ID
280
    10
320
197C
  2
Thumbnail_Data
280
    15
 94
     1135
310
89504E470D0A1A0A0000000D4948445200000100000000730803000000406D2C8F00000300504C5445212830FFFFFF2128300000000000000000000000000000000000000000000000000000330000660000990000CC0000FF0033000033330033660033990033CC0033FF0066000066330066660066990066CC0066FF0099
310
000099330099660099990099CC0099FF00CC0000CC3300CC6600CC9900CCCC00CCFF00FF0000FF3300FF6600FF9900FFCC00FFFF3300003300333300663300993300CC3300FF3333003333333333663333993333CC3333FF3366003366333366663366993366CC3366FF3399003399333399663399993399CC3399FF33CC00
310
33CC3333CC6633CC9933CCCC33CCFF33FF0033FF3333FF6633FF9933FFCC33FFFF6600006600336600666600996600CC6600FF6633006633336633666633996633CC6633FF6666006666336666666666996666CC6666FF6699006699336699666699996699CC6699FF66CC0066CC3366CC6666CC9966CCCC66CCFF66FF0066
310
FF3366FF6666FF9966FFCC66FFFF9900009900339900669900999900CC9900FF9933009933339933669933999933CC9933FF9966009966339966669966999966CC9966FF9999009999339999669999999999CC9999FF99CC0099CC3399CC6699CC9999CCCC99CCFF99FF0099FF3399FF6699FF9999FFCC99FFFFCC0000CC00
310
33CC0066CC0099CC00CCCC00FFCC3300CC3333CC3366CC3399CC33CCCC33FFCC6600CC6633CC6666CC6699CC66CCCC66FFCC9900CC9933CC9966CC9999CC99CCCC99FFCCCC00CCCC33CCCC66CCCC99CCCCCCCCCCFFCCFF00CCFF33CCFF66CCFF99CCFFCCCCFFFFFF0000FF0033FF0066FF0099FF00CCFF00FFFF3300FF3333
310
FF3366FF3399FF33CCFF33FFFF6600FF6633FF6666FF6699FF66CCFF66FFFF9900FF9933FF9966FF9999FF99CCFF99FFFFCC00FFCC33FFCC66FFCC99FFCCCCFFCCFFFFFF00FFFF33FFFF66FFFF99FFFFCCFFFFFF0000000D0D0D1A1A1A2828283535354343435050505D5D5D6B6B6B787878868686939393A1A1A1AEAEAEBB
310
BBBBC9C9C9D6D6D6E4E4E4F1F1F1FFFFFF0000000000000000000000000000000000000000000000000000000000002E4550F10000012A4944415478DAEDDAB18E83301445C1F7FFDF4AE1867EB5891221633B59A46D2E334DA4E0E61DD94041150000000000000000C045FB431B7B5EBCE3E4E11D8E839F2E0EFE3994C898
310
7F32FA2CC031C31EB8F93F04083C087BDB5E15FEA46A0BD901B52DAEB6C5B5AD4202D436B677BFBDCA0970690708901360514080F8F93F9C010104B8458079010116F30B2080003101A605DA627E019202CC0A08208000E9F3AFEF8202DC26C0A4409BCF2F4066806D2D3AC061C2E90E78AE490ED02568E7F17F17C606F870
310
08DE0B1303D479FF8F6F8202E406183C0A6FB603BE0BF05A1617A0BFFFBD03F4B7C2D400FD43B07BFBE917057D28B68FA67E4EDA6AF426981CA03BED6DF86CB84B807AEC80BA7180E50712020810A35D53415B60AAAD3E150500000000000000FEC90F3536BA39B42E03B40000000049454E44AE426082
  0
ENDSEC
  0
EOF
