  0
SECTION
  2
HEADER
  9
$ACADVER
  1
AC1015
  9
$ACADMAINTVER
 70
    20
  9
$DWGCODEPAGE
  3
ANSI_1252
  9
$INSBASE
 10
0.0
 20
0.0
 30
0.0
  9
$EXTMIN
 10
24.57861373205839
 20
64.21679722292793
 30
-0.0015258207003583
  9
$EXTMAX
 10
91.88411490138349
 20
103.7928062469785
 30
0.0000000349246037
  9
$LIMMIN
 10
0.0
 20
0.0
  9
$LIMMAX
 10
181.3333333333
 20
117.3333333333
  9
$ORTHOMODE
 70
     0
  9
$REGENMODE
 70
     1
  9
$FILLMODE
 70
     1
  9
$QTEXTMODE
 70
     0
  9
$MIRRTEXT
 70
     0
  9
$LTSCALE
 40
9.973333333300001
  9
$ATTMODE
 70
     1
  9
$TEXTSIZE
 40
0.2
  9
$TRACEWID
 40
0.05
  9
$TEXTSTYLE
  7
STANDARD
  9
$CLAYER
  8
0
  9
$CELTYPE
  6
BYLAYER
  9
$CECOLOR
 62
   256
  9
$CELTSCALE
 40
1.0
  9
$DISPSILH
 70
     0
  9
$DIMSCALE
 40
1.0
  9
$DIMASZ
 40
2.0
  9
$DIMEXO
 40
0.0625
  9
$DIMDLI
 40
6.890666666699999
  9
$DIMRND
 40
0.0
  9
$DIMDLE
 40
0.0
  9
$DIMEXE
 40
0.125
  9
$DIMTP
 40
0.001
  9
$DIMTM
 40
0.001
  9
$DIMTXT
 40
1.333333333299999
  9
$DIMCEN
 40
1.631999999999999
  9
$DIMTSZ
 40
0.0
  9
$DIMTOL
 70
     1
  9
$DIMLIM
 70
     0
  9
$DIMTIH
 70
     1
  9
$DIMTOH
 70
     1
  9
$DIMSE1
 70
     0
  9
$DIMSE2
 70
     0
  9
$DIMTAD
 70
     0
  9
$DIMZIN
 70
     0
  9
$DIMBLK
  1
_FILLED
  9
$DIMASO
 70
     1
  9
$DIMSHO
 70
     1
  9
$DIMPOST
  1

  9
$DIMAPOST
  1

  9
$DIMALT
 70
     1
  9
$DIMALTD
 70
     2
  9
$DIMALTF
 40
2.54
  9
$DIMLFAC
 40
1.0
  9
$DIMTOFL
 70
     0
  9
$DIMTVP
 40
0.0
  9
$DIMTIX
 70
     0
  9
$DIMSOXD
 70
     0
  9
$DIMSAH
 70
     0
  9
$DIMBLK1
  1

  9
$DIMBLK2
  1

  9
$DIMSTYLE
  2
STANDARD
  9
$DIMCLRD
 70
     0
  9
$DIMCLRE
 70
     0
  9
$DIMCLRT
 70
     0
  9
$DIMTFAC
 40
1.0
  9
$DIMGAP
 40
0.09
  9
$DIMJUST
 70
     0
  9
$DIMSD1
 70
     0
  9
$DIMSD2
 70
     0
  9
$DIMTOLJ
 70
     1
  9
$DIMTZIN
 70
     0
  9
$DIMALTZ
 70
     0
  9
$DIMALTTZ
 70
     0
  9
$DIMUPT
 70
     0
  9
$DIMDEC
 70
     4
  9
$DIMTDEC
 70
     4
  9
$DIMALTU
 70
     2
  9
$DIMALTTD
 70
     2
  9
$DIMTXSTY
  7
STANDARD
  9
$DIMAUNIT
 70
     0
  9
$DIMADEC
 70
     0
  9
$DIMALTRND
 40
0.0
  9
$DIMAZIN
 70
     0
  9
$DIMDSEP
 70
    46
  9
$DIMATFIT
 70
     3
  9
$DIMFRAC
 70
     0
  9
$DIMLDRBLK
  1

  9
$DIMLUNIT
 70
     2
  9
$DIMLWD
 70
    -2
  9
$DIMLWE
 70
    -2
  9
$DIMTMOVE
 70
     0
  9
$LUNITS
 70
     2
  9
$LUPREC
 70
     4
  9
$SKETCHINC
 40
0.1
  9
$FILLETRAD
 40
0.0
  9
$AUNITS
 70
     0
  9
$AUPREC
 70
     0
  9
$MENU
  1
.
  9
$ELEVATION
 40
0.0
  9
$PELEVATION
 40
0.0
  9
$THICKNESS
 40
0.0
  9
$LIMCHECK
 70
     0
  9
$CHAMFERA
 40
0.0
  9
$CHAMFERB
 40
0.0
  9
$CHAMFERC
 40
0.0
  9
$CHAMFERD
 40
0.0
  9
$SKPOLY
 70
     0
  9
$TDCREATE
 40
2458156.374976852
  9
$TDUCREATE
 40
2458156.583310185
  9
$TDUPDATE
 40
2458156.406608797
  9
$TDUUPDATE
 40
2458156.614942130
  9
$TDINDWG
 40
0.0080902778
  9
$TDUSRTIMER
 40
0.0080902778
  9
$USRTIMER
 70
     1
  9
$ANGBASE
 50
0.0
  9
$ANGDIR
 70
     0
  9
$PDMODE
 70
     3
  9
$PDSIZE
 40
0.03125
  9
$PLINEWID
 40
0.0
  9
$SPLFRAME
 70
     0
  9
$SPLINETYPE
 70
     6
  9
$SPLINESEGS
 70
     8
  9
$HANDSEED
  5
1A15
  9
$SURFTAB1
 70
     6
  9
$SURFTAB2
 70
     6
  9
$SURFTYPE
 70
     6
  9
$SURFU
 70
     6
  9
$SURFV
 70
     6
  9
$UCSBASE
  2

  9
$UCSNAME
  2

  9
$UCSORG
 10
0.0
 20
0.0
 30
0.0
  9
$UCSXDIR
 10
1.0
 20
0.0
 30
0.0
  9
$UCSYDIR
 10
0.0
 20
1.0
 30
0.0
  9
$UCSORTHOREF
  2

  9
$UCSORTHOVIEW
 70
     0
  9
$UCSORGTOP
 10
0.0
 20
0.0
 30
0.0
  9
$UCSORGBOTTOM
 10
0.0
 20
0.0
 30
0.0
  9
$UCSORGLEFT
 10
0.0
 20
0.0
 30
0.0
  9
$UCSORGRIGHT
 10
0.0
 20
0.0
 30
0.0
  9
$UCSORGFRONT
 10
0.0
 20
0.0
 30
0.0
  9
$UCSORGBACK
 10
0.0
 20
0.0
 30
0.0
  9
$PUCSBASE
  2

  9
$PUCSNAME
  2

  9
$PUCSORG
 10
0.0
 20
0.0
 30
0.0
  9
$PUCSXDIR
 10
1.0
 20
0.0
 30
0.0
  9
$PUCSYDIR
 10
0.0
 20
1.0
 30
0.0
  9
$PUCSORTHOREF
  2

  9
$PUCSORTHOVIEW
 70
     0
  9
$PUCSORGTOP
 10
0.0
 20
0.0
 30
0.0
  9
$PUCSORGBOTTOM
 10
0.0
 20
0.0
 30
0.0
  9
$PUCSORGLEFT
 10
0.0
 20
0.0
 30
0.0
  9
$PUCSORGRIGHT
 10
0.0
 20
0.0
 30
0.0
  9
$PUCSORGFRONT
 10
0.0
 20
0.0
 30
0.0
  9
$PUCSORGBACK
 10
0.0
 20
0.0
 30
0.0
  9
$USERI1
 70
     0
  9
$USERI2
 70
     0
  9
$USERI3
 70
     0
  9
$USERI4
 70
     0
  9
$USERI5
 70
     0
  9
$USERR1
 40
0.0
  9
$USERR2
 40
0.0
  9
$USERR3
 40
0.0
  9
$USERR4
 40
0.0
  9
$USERR5
 40
0.0
  9
$WORLDVIEW
 70
     1
  9
$SHADEDGE
 70
     3
  9
$SHADEDIF
 70
    70
  9
$TILEMODE
 70
     1
  9
$MAXACTVP
 70
    64
  9
$PINSBASE
 10
0.0
 20
0.0
 30
0.0
  9
$PLIMCHECK
 70
     0
  9
$PEXTMIN
 10
1.000000000000000E+20
 20
1.000000000000000E+20
 30
1.000000000000000E+20
  9
$PEXTMAX
 10
-1.000000000000000E+20
 20
-1.000000000000000E+20
 30
-1.000000000000000E+20
  9
$PLIMMIN
 10
0.0
 20
0.0
  9
$PLIMMAX
 10
12.0
 20
9.0
  9
$UNITMODE
 70
     0
  9
$VISRETAIN
 70
     1
  9
$PLINEGEN
 70
     0
  9
$PSLTSCALE
 70
     1
  9
$TREEDEPTH
 70
  3020
  9
$CMLSTYLE
  2
Standard
  9
$CMLJUST
 70
     0
  9
$CMLSCALE
 40
1.0
  9
$PROXYGRAPHICS
 70
     1
  9
$MEASUREMENT
 70
     0
  9
$CELWEIGHT
370
    -1
  9
$ENDCAPS
280
     0
  9
$JOINSTYLE
280
     0
  9
$LWDISPLAY
290
     0
  9
$INSUNITS
 70
     1
  9
$HYPERLINKBASE
  1

  9
$STYLESHEET
  1

  9
$XEDIT
290
     1
  9
$CEPSNTYPE
380
     0
  9
$PSTYLEMODE
290
     1
  9
$FINGERPRINTGUID
  2
{28B5D569-193C-564C-B9E9-0E4B7F98E174}
  9
$VERSIONGUID
  2
{EB5018D2-AC38-AD49-B3BA-E9D99F6FA79E}
  9
$EXTNAMES
290
     1
  9
$PSVPSCALE
 40
0.0
  9
$OLESTARTUP
290
     0
  0
ENDSEC
  0
SECTION
  2
CLASSES
  0
CLASS
  1
ACDBDICTIONARYWDFLT
  2
AcDbDictionaryWithDefault
  3
ObjectDBX Classes
 90
        0
280
     0
281
     0
  0
CLASS
  1
ACDBPLACEHOLDER
  2
AcDbPlaceHolder
  3
ObjectDBX Classes
 90
        0
280
     0
281
     0
  0
CLASS
  1
LAYOUT
  2
AcDbLayout
  3
ObjectDBX Classes
 90
        0
280
     0
281
     0
  0
CLASS
  1
MATERIAL
  2
AcDbMaterial
  3
ObjectDBX Classes
 90
     1153
280
     0
281
     0
  0
CLASS
  1
VISUALSTYLE
  2
AcDbVisualStyle
  3
ObjectDBX Classes
 90
     4095
280
     0
281
     0
  0
CLASS
  1
TABLESTYLE
  2
AcDbTableStyle
  3
ObjectDBX Classes
 90
     4095
280
     0
281
     0
  0
CLASS
  1
SCALE
  2
AcDbScale
  3
ObjectDBX Classes
 90
     1153
280
     0
281
     0
  0
CLASS
  1
MLEADERSTYLE
  2
AcDbMLeaderStyle
  3
ACDB_MLEADERSTYLE_CLASS
 90
     4095
280
     0
281
     0
  0
CLASS
  1
ACDBSECTIONVIEWSTYLE
  2
AcDbSectionViewStyle
  3
ObjectDBX Classes
 90
     1025
280
     0
281
     0
  0
CLASS
  1
ACDBDETAILVIEWSTYLE
  2
AcDbDetailViewStyle
  3
ObjectDBX Classes
 90
     1025
280
     0
281
     0
  0
CLASS
  1
CELLSTYLEMAP
  2
AcDbCellStyleMap
  3
ObjectDBX Classes
 90
     1152
280
     0
281
     0
  0
CLASS
  1
DICTIONARYVAR
  2
AcDbDictionaryVar
  3
ObjectDBX Classes
 90
        0
280
     0
281
     0
  0
ENDSEC
  0
SECTION
  2
TABLES
  0
TABLE
  2
VPORT
  5
8
102
{ACAD_XDICTIONARY
360
185C
102
}
330
0
100
AcDbSymbolTable
 70
     1
  0
VPORT
  5
1F4
330
8
100
AcDbSymbolTableRecord
100
AcDbViewportTableRecord
  2
*ACTIVE
 70
     0
 10
0.0
 20
0.0
 11
1.0
 21
1.0
 12
58.23136431672094
 22
84.00480173495324
 13
0.0
 23
0.0
 14
1.0
 24
1.0
 15
0.0
 25
0.0
 16
0.0
 26
0.0
 36
1.0
 17
0.0
 27
0.0
 37
0.0
 40
39.82387546887768
 41
2.005224660397074
 42
50.0
 43
0.0
 44
0.0
 50
0.0
 51
0.0
 71
     0
 72
   100
 73
     1
 74
     1
 75
     0
 76
     0
 77
     0
 78
     0
281
     0
 65
     1
110
0.0
120
0.0
130
0.0
111
1.0
121
0.0
131
0.0
112
0.0
122
1.0
132
0.0
 79
     0
146
0.0
1001
ACAD_NAV_VCDISPLAY
1070
     3
  0
ENDTAB
  0
TABLE
  2
LTYPE
  5
5
330
0
100
AcDbSymbolTable
 70
     6
  0
LTYPE
  5
14
330
5
100
AcDbSymbolTableRecord
100
AcDbLinetypeTableRecord
  2
BYBLOCK
 70
     0
  3

 72
    65
 73
     0
 40
0.0
  0
LTYPE
  5
15
330
5
100
AcDbSymbolTableRecord
100
AcDbLinetypeTableRecord
  2
BYLAYER
 70
     0
  3

 72
    65
 73
     0
 40
0.0
  0
LTYPE
  5
16
330
5
100
AcDbSymbolTableRecord
100
AcDbLinetypeTableRecord
  2
CONTINUOUS
 70
     0
  3
Solid line
 72
    65
 73
     0
 40
0.0
  0
LTYPE
  5
1F5
330
5
100
AcDbSymbolTableRecord
100
AcDbLinetypeTableRecord
  2
CENTER
 70
     0
  3
____ _ ____ _ ____ _ ____ _ ____ _ ____ _ ____
 72
    65
 73
     4
 40
0.6
 49
0.375
 74
     0
 49
-0.075
 74
     0
 49
0.075
 74
     0
 49
-0.075
 74
     0
  0
LTYPE
  5
1F6
330
5
100
AcDbSymbolTableRecord
100
AcDbLinetypeTableRecord
  2
HIDDEN
 70
     0
  3
- - - - - - - - - - - - - - - - - - - -
 72
    65
 73
     2
 40
0.2
 49
0.1
 74
     0
 49
-0.1
 74
     0
  0
LTYPE
  5
1F7
330
5
100
AcDbSymbolTableRecord
100
AcDbLinetypeTableRecord
  2
PHANTOM
 70
     0
  3
_____ _ _ _____ _ _ _____ _ _ _____
 72
    65
 73
     6
 40
0.8
 49
0.45
 74
     0
 49
-0.05
 74
     0
 49
0.1
 74
     0
 49
-0.05
 74
     0
 49
0.1
 74
     0
 49
-0.05
 74
     0
  0
LTYPE
  5
1F8
330
5
100
AcDbSymbolTableRecord
100
AcDbLinetypeTableRecord
  2
DOT
 70
     0
  3
. . . . . . . . . . . . . . . . . . . .
 72
    65
 73
     2
 40
0.2
 49
0.1
 74
     0
 49
-0.1
 74
     0
  0
LTYPE
  5
1F9
330
5
100
AcDbSymbolTableRecord
100
AcDbLinetypeTableRecord
  2
DASHED
 70
     0
  3
- - - - - - - - - - - - - - - - - - - -
 72
    65
 73
     2
 40
0.2
 49
0.1
 74
     0
 49
-0.1
 74
     0
  0
ENDTAB
  0
TABLE
  2
LAYER
  5
2
102
{ACAD_XDICTIONARY
360
18E6
102
}
330
0
100
AcDbSymbolTable
 70
    28
  0
LAYER
  5
10
102
{ACAD_XDICTIONARY
360
18AB
102
}
330
2
100
AcDbSymbolTableRecord
100
AcDbLayerTableRecord
  2
0
 70
     0
 62
     7
  6
CONTINUOUS
370
    -3
390
F
  0
LAYER
  5
1FA
102
{ACAD_XDICTIONARY
360
18AD
102
}
330
2
100
AcDbSymbolTableRecord
100
AcDbLayerTableRecord
  2
DEFAULT_1
 70
     0
 62
     7
  6
CENTER
370
    -3
390
F
  0
LAYER
  5
1FB
102
{ACAD_XDICTIONARY
360
18AF
102
}
330
2
100
AcDbSymbolTableRecord
100
AcDbLayerTableRecord
  2
DEFAULT_2
 70
     0
 62
     8
  6
HIDDEN
370
    -3
390
F
  0
LAYER
  5
1FC
102
{ACAD_XDICTIONARY
360
18B1
102
}
330
2
100
AcDbSymbolTableRecord
100
AcDbLayerTableRecord
  2
DEFAULT_3
 70
     0
 62
     7
  6
PHANTOM
370
    -3
390
F
  0
LAYER
  5
1FD
102
{ACAD_XDICTIONARY
360
18B3
102
}
330
2
100
AcDbSymbolTableRecord
100
AcDbLayerTableRecord
  2
0_DEFAULT
 70
     0
 62
     7
  6
CONTINUOUS
370
    -3
390
F
  0
LAYER
  5
1FE
102
{ACAD_XDICTIONARY
360
18B5
102
}
330
2
100
AcDbSymbolTableRecord
100
AcDbLayerTableRecord
  2
1_CURVES
 70
     0
 62
     7
  6
CONTINUOUS
370
    -3
390
F
  0
LAYER
  5
1FF
102
{ACAD_XDICTIONARY
360
18B7
102
}
330
2
100
AcDbSymbolTableRecord
100
AcDbLayerTableRecord
  2
1_CURVES_CHROMO_INV
 70
     0
 62
     7
  6
CONTINUOUS
370
    -3
390
F
  0
LAYER
  5
200
102
{ACAD_XDICTIONARY
360
18B9
102
}
330
2
100
AcDbSymbolTableRecord
100
AcDbLayerTableRecord
  2
1_CURVES_DOT
 70
     0
 62
     7
  6
CONTINUOUS
370
    -3
390
F
  0
LAYER
  5
201
102
{ACAD_XDICTIONARY
360
18BB
102
}
330
2
100
AcDbSymbolTableRecord
100
AcDbLayerTableRecord
  2
1_CURVES_SPEC_FRONT
 70
     0
 62
     7
  6
CONTINUOUS
370
    -3
390
F
  0
LAYER
  5
202
102
{ACAD_XDICTIONARY
360
18BD
102
}
330
2
100
AcDbSymbolTableRecord
100
AcDbLayerTableRecord
  2
1_CURVES_SPEC_RIGHT
 70
     0
 62
     7
  6
CONTINUOUS
370
    -3
390
F
  0
LAYER
  5
203
102
{ACAD_XDICTIONARY
360
18BF
102
}
330
2
100
AcDbSymbolTableRecord
100
AcDbLayerTableRecord
  2
2_PLANES
 70
     0
 62
     7
  6
CONTINUOUS
370
    -3
390
F
  0
LAYER
  5
204
102
{ACAD_XDICTIONARY
360
18C1
102
}
330
2
100
AcDbSymbolTableRecord
100
AcDbLayerTableRecord
  2
2_PLANES_CHROMO_INV
 70
     0
 62
     7
  6
CONTINUOUS
370
    -3
390
F
  0
LAYER
  5
205
102
{ACAD_XDICTIONARY
360
18C3
102
}
330
2
100
AcDbSymbolTableRecord
100
AcDbLayerTableRecord
  2
2_PLANES_JETS
 70
     0
 62
     7
  6
CONTINUOUS
370
    -3
390
F
  0
LAYER
  5
206
102
{ACAD_XDICTIONARY
360
18C5
102
}
330
2
100
AcDbSymbolTableRecord
100
AcDbLayerTableRecord
  2
3_POINTS
 70
     0
 62
     7
  6
CONTINUOUS
370
    -3
390
F
  0
LAYER
  5
207
102
{ACAD_XDICTIONARY
360
18C7
102
}
330
2
100
AcDbSymbolTableRecord
100
AcDbLayerTableRecord
  2
3_POINTS_SPEC
 70
     0
 62
     7
  6
CONTINUOUS
370
    -3
390
F
  0
LAYER
  5
208
102
{ACAD_XDICTIONARY
360
18C9
102
}
330
2
100
AcDbSymbolTableRecord
100
AcDbLayerTableRecord
  2
4_CSYS
 70
     0
 62
     7
  6
CONTINUOUS
370
    -3
390
F
  0
LAYER
  5
209
102
{ACAD_XDICTIONARY
360
18CB
102
}
330
2
100
AcDbSymbolTableRecord
100
AcDbLayerTableRecord
  2
5_AXIS
 70
     0
 62
     7
  6
CONTINUOUS
370
    -3
390
F
  0
LAYER
  5
20A
102
{ACAD_XDICTIONARY
360
18CD
102
}
330
2
100
AcDbSymbolTableRecord
100
AcDbLayerTableRecord
  2
5_AXIS_CHROMO_INV
 70
     0
 62
     7
  6
CONTINUOUS
370
    -3
390
F
  0
LAYER
  5
20B
102
{ACAD_XDICTIONARY
360
18CF
102
}
330
2
100
AcDbSymbolTableRecord
100
AcDbLayerTableRecord
  2
5_AXIS_JETS
 70
     0
 62
     7
  6
CONTINUOUS
370
    -3
390
F
  0
LAYER
  5
20C
102
{ACAD_XDICTIONARY
360
18D1
102
}
330
2
100
AcDbSymbolTableRecord
100
AcDbLayerTableRecord
  2
6_SURFACES
 70
     0
 62
     7
  6
CONTINUOUS
370
    -3
390
F
  0
LAYER
  5
20D
102
{ACAD_XDICTIONARY
360
18D3
102
}
330
2
100
AcDbSymbolTableRecord
100
AcDbLayerTableRecord
  2
6_SURFACES_JUPE
 70
     0
 62
     7
  6
CONTINUOUS
370
    -3
390
F
  0
LAYER
  5
20E
102
{ACAD_XDICTIONARY
360
18D5
102
}
330
2
100
AcDbSymbolTableRecord
100
AcDbLayerTableRecord
  2
6_SURFACES_OFFSET_FIBRE_ACRYLIQ
 70
     0
 62
     7
  6
CONTINUOUS
370
    -3
390
F
  0
LAYER
  5
20F
102
{ACAD_XDICTIONARY
360
18D7
102
}
330
2
100
AcDbSymbolTableRecord
100
AcDbLayerTableRecord
  2
6_SURFACES_TOOLING
 70
     0
 62
     7
  6
CONTINUOUS
370
    -3
390
F
  0
LAYER
  5
210
102
{ACAD_XDICTIONARY
360
18D9
102
}
330
2
100
AcDbSymbolTableRecord
100
AcDbLayerTableRecord
  2
6_SURFACES_TOOLING_DROP-IN
 70
     0
 62
     7
  6
CONTINUOUS
370
    -3
390
F
  0
LAYER
  5
211
102
{ACAD_XDICTIONARY
360
18DB
102
}
330
2
100
AcDbSymbolTableRecord
100
AcDbLayerTableRecord
  2
6_SURFACES_TOOLING_FS
 70
     0
 62
     7
  6
CONTINUOUS
370
    -3
390
F
  0
LAYER
  5
212
102
{ACAD_XDICTIONARY
360
18DD
102
}
330
2
100
AcDbSymbolTableRecord
100
AcDbLayerTableRecord
  2
7_NOTES
 70
     0
 62
     7
  6
CONTINUOUS
370
    -3
390
F
  0
LAYER
  5
213
102
{ACAD_XDICTIONARY
360
18DF
102
}
330
2
100
AcDbSymbolTableRecord
100
AcDbLayerTableRecord
  2
7_NOTES_THINGMARK
 70
     0
 62
     7
  6
CONTINUOUS
370
    -3
390
F
  0
LAYER
  5
214
102
{ACAD_XDICTIONARY
360
18E1
102
}
330
2
100
AcDbSymbolTableRecord
100
AcDbLayerTableRecord
  2
XSEC_DATUMS
 70
     0
 62
     7
  6
CONTINUOUS
370
    -3
390
F
  0
ENDTAB
  0
TABLE
  2
STYLE
  5
3
330
0
100
AcDbSymbolTable
 70
     8
  0
STYLE
  5
11
330
3
100
AcDbSymbolTableRecord
100
AcDbTextStyleTableRecord
  2
STANDARD
 70
     0
 40
0.0
 41
0.8
 50
0.0
 71
     0
 42
0.2
  3
txt
  4

  0
STYLE
  5
215
330
3
100
AcDbSymbolTableRecord
100
AcDbTextStyleTableRecord
  2
TEXTSTYLE_1
 70
     0
 40
0.0
 41
0.8
 50
0.0
 71
     0
 42
0.2
  3
gdt
  4

  0
STYLE
  5
216
330
3
100
AcDbSymbolTableRecord
100
AcDbTextStyleTableRecord
  2
TEXTSTYLE_2
 70
     0
 40
0.0
 41
1.0
 50
0.0
 71
     0
 42
0.2
  3
trium.ttf
  4

  0
STYLE
  5
217
330
3
100
AcDbSymbolTableRecord
100
AcDbTextStyleTableRecord
  2
TEXTSTYLE_3
 70
     0
 40
0.0
 41
1.0
 50
0.0
 71
     0
 42
0.2
  3
trium.ttf
  4

  0
STYLE
  5
218
330
3
100
AcDbSymbolTableRecord
100
AcDbTextStyleTableRecord
  2
TEXTSTYLE_4
 70
     0
 40
0.0
 41
1.0
 50
0.0
 71
     0
 42
0.2
  3
txt
  4

  0
STYLE
  5
219
330
3
100
AcDbSymbolTableRecord
100
AcDbTextStyleTableRecord
  2
TEXTSTYLE_5
 70
     0
 40
0.0
 41
1.0
 50
0.0
 71
     0
 42
0.2
  3
txt
  4

  0
STYLE
  5
21A
330
3
100
AcDbSymbolTableRecord
100
AcDbTextStyleTableRecord
  2
TEXTSTYLE_6
 70
     0
 40
0.0
 41
1.0
 50
0.0
 71
     0
 42
0.2
  3
trium.ttf
  4

  0
STYLE
  5
21B
330
3
100
AcDbSymbolTableRecord
100
AcDbTextStyleTableRecord
  2
TEXTSTYLE_7
 70
     0
 40
0.0
 41
0.8
 50
0.0
 71
     0
 42
0.2
  3
txt
  4

  0
ENDTAB
  0
TABLE
  2
VIEW
  5
6
330
0
100
AcDbSymbolTable
 70
     1
  0
ENDTAB
  0
TABLE
  2
UCS
  5
7
330
0
100
AcDbSymbolTable
 70
     0
  0
ENDTAB
  0
TABLE
  2
APPID
  5
9
330
0
100
AcDbSymbolTable
 70
     3
  0
APPID
  5
21C
330
9
100
AcDbSymbolTableRecord
100
AcDbRegAppTableRecord
  2
ACAD
 70
     0
  0
APPID
  5
1896
330
9
100
AcDbSymbolTableRecord
100
AcDbRegAppTableRecord
  2
ACAD_MLEADERVER
 70
     0
  0
APPID
  5
18EC
330
9
100
AcDbSymbolTableRecord
100
AcDbRegAppTableRecord
  2
ACAD_NAV_VCDISPLAY
 70
     0
  0
ENDTAB
  0
TABLE
  2
DIMSTYLE
  5
A
330
0
100
AcDbSymbolTable
 70
     1
100
AcDbDimStyleTable
 71
     0
  0
DIMSTYLE
105
220
330
A
100
AcDbSymbolTableRecord
100
AcDbDimStyleTableRecord
  2
STANDARD
 70
     0
 41
2.0
 44
0.125
 47
0.001
 48
0.001
 71
     1
 78
     4
 79
     1
140
1.333333333299999
143
2.54
170
     1
179
     3
271
     3
272
     3
284
     4
340
11
341
21F
342
21F
343
21F
344
21F
  0
ENDTAB
  0
TABLE
  2
BLOCK_RECORD
  5
1
330
0
100
AcDbSymbolTable
 70
     1
  0
BLOCK_RECORD
  5
21D
330
1
100
AcDbSymbolTableRecord
100
AcDbBlockTableRecord
  2
*Model_Space
340
1808
  0
BLOCK_RECORD
  5
21E
330
1
100
AcDbSymbolTableRecord
100
AcDbBlockTableRecord
  2
*Paper_Space
340
1809
  0
BLOCK_RECORD
  5
21F
330
1
100
AcDbSymbolTableRecord
100
AcDbBlockTableRecord
  2
_FILLED
340
0
  0
ENDTAB
  0
ENDSEC
  0
SECTION
  2
BLOCKS
  0
BLOCK
  5
20
330
21D
100
AcDbEntity
  8
0
100
AcDbBlockBegin
  2
*Model_Space
 70
     0
 10
0.0
 20
0.0
 30
0.0
  3
*Model_Space
  1

  0
ENDBLK
  5
21
330
21D
100
AcDbEntity
  8
0
100
AcDbBlockEnd
  0
BLOCK
  5
1C
330
21E
100
AcDbEntity
 67
     1
  8
0
100
AcDbBlockBegin
  2
*Paper_Space
 70
     0
 10
0.0
 20
0.0
 30
0.0
  3
*Paper_Space
  1

  0
ENDBLK
  5
1D
330
21E
100
AcDbEntity
 67
     1
  8
0
100
AcDbBlockEnd
  0
BLOCK
  5
221
330
21F
100
AcDbEntity
  8
0
100
AcDbBlockBegin
  2
_FILLED
 70
     0
 10
0.0
 20
0.0
 30
0.0
  3
_FILLED
  1

  0
SOLID
  5
222
330
21F
100
AcDbEntity
  8
0
  6
ByBlock
 62
     0
100
AcDbTrace
 10
0.0
 20
0.0
 30
0.0
 11
-1.0
 21
0.1666666667
 31
0.0
 12
-1.0
 22
-0.1666666667
 32
0.0
 13
-1.0
 23
-0.1666666667
 33
0.0
  0
ENDBLK
  5
223
330
21F
100
AcDbEntity
  8
0
  6
ByBlock
 62
     0
100
AcDbBlockEnd
  0
ENDSEC
  0
SECTION
  2
ENTITIES
  0
LWPOLYLINE
  5
155E
330
21D
100
AcDbEntity
  8
0
  6
Continuous
 62
     7
100
AcDbPolyline
 90
       47
 70
     0
 43
0.0
 10
25.1735701462
 20
83.9487644955
 10
25.1772046841
 20
83.6151410983
 10
25.1885336849
 20
83.2735789408
 10
25.2073775379
 20
82.9366524507
 10
25.2335891496
 20
82.60398062950001
 10
25.2670421298
 20
82.2753555445
 10
25.3076286161
 20
81.95057654859999
 10
25.3552648554
 20
81.62944067099999
 10
25.4098832327
 20
81.31174664319999
 10
25.4714397163
 20
80.99729188000001
 10
25.5399046099
 20
80.68587795499999
 10
25.6152713525
 20
80.3773072369
 10
25.6975454905
 20
80.0713887208
 10
25.78675838420001
 20
79.76792228659999
 10
25.882937687
 20
79.46675997369999
 10
25.9861363894
 20
79.1677397679
 10
26.0964082011
 20
78.87073119989999
 10
26.2138291176
 20
78.5756010928
 10
26.3384824301
 20
78.2822323284
 10
26.4704716181
 20
77.99051176659999
 10
26.6099067585
 20
77.7003420124
 10
26.7569176898
 20
77.41162865699999
 10
26.9116323518
 20
77.12430409319999
 10
27.0741975752
 20
76.8383010677
 10
27.2447537862
 20
76.55357995590001
 10
27.4234280372
 20
76.2701481715
 10
27.6104592808
 20
75.987852106
 10
27.8060358472
 20
75.7066567116
 10
28.0105259961
 20
75.42630142520001
 10
28.2242792245
 20
75.14661750710001
 10
28.4476814247
 20
74.8674368267
 10
28.6811425074
 20
74.58861741949999
 10
28.9250658967
 20
74.31006831399999
 10
29.1800272966
 20
74.03155775399999
 10
29.4460133019
 20
73.75351866189999
 10
29.7232912024
 20
73.47606808470001
 10
30.0115093721
 20
73.19991241229999
 10
30.3104308671
 20
72.9255725035
 10
30.6197709614
 20
72.65356963859999
 10
30.9392086022
 20
72.38438775590001
 10
31.2683747692
 20
72.1184423636
 10
31.6068744577
 20
71.856098995
 10
31.9542817836
 20
71.5977013178
 10
32.310233312
 20
71.34365597670001
 10
32.6742698552
 20
71.0943352793
 10
33.0456010684
 20
70.8499647142
 10
33.414955735
 20
70.6164119524
  0
LWPOLYLINE
  5
155F
330
21D
100
AcDbEntity
  8
0
  6
Continuous
 62
     7
100
AcDbPolyline
 90
       45
 70
     0
 43
0.0
 10
33.4149562354
 20
97.28111734790001
 10
33.0112923099
 20
97.02548944549999
 10
32.60943832320001
 20
96.75949848160001
 10
32.2195351458
 20
96.49005906780001
 10
31.8417696732
 20
96.21732650110001
 10
31.4762736498
 20
95.94151735229999
 10
31.1229910715
 20
95.66298344659999
 10
30.7819326402
 20
95.38203085190001
 10
30.4531480578
 20
95.09889510159998
 10
30.1366273923
 20
94.81388133219999
 10
29.8323231044
 20
94.52733761559999
 10
29.5402027577
 20
94.23962012110001
 10
29.2601472293
 20
93.95101309469998
 10
28.9921547986
 20
93.6619488576
 10
28.7357615718
 20
93.37237287110001
 10
28.4906679871
 20
93.08238396
 10
28.2564118155
 20
92.7918611175
 10
28.0325920338
 20
92.50070732190001
 10
27.8188270685
 20
92.20880308780001
 10
27.6147450834
 20
91.9159857754
 10
27.4200420372
 20
91.62214055159999
 10
27.2343954582
 20
91.3270689866
 10
27.0576119212
 20
91.0307350168
 10
26.8894777851
 20
90.73303377110001
 10
26.7298152625
 20
90.43389062080001
 10
26.5784508236
 20
90.13320130910001
 10
26.4352398667
 20
89.83088098859999
 10
26.3000475759
 20
89.526828522
 10
26.1727546587
 20
89.22093046709999
 10
26.053258363
 20
88.91307143549999
 10
25.9414674429
 20
88.60310623469999
 10
25.8373091979
 20
88.2908946523
 10
25.7407239841
 20
87.97626732129998
 10
25.6516716493
 20
87.65907306509999
 10
25.5701138592
 20
87.3390905433
 10
25.4960343624
 20
87.0161141394
 10
25.4294356473
 20
86.68992090040001
 10
25.37034154400001
 20
86.36028883879999
 10
25.3187973796
 20
86.0269919563
 10
25.27487207550001
 20
85.6898042891
 10
25.2386557855
 20
85.3484975529
 10
25.2102650095
 20
85.0028469002
 10
25.1898388514
 20
84.65262073069999
 10
25.1775397467
 20
84.297390074
 10
25.1735701462
 20
83.9487644955
  0
LINE
  5
1560
330
21D
100
AcDbEntity
  8
0
  6
Continuous
 62
     7
100
AcDbLine
 10
33.4311547689
 20
97.2911437215
 30
0.0
 11
33.4149562354
 21
97.2811173478
 31
0.0
  0
LWPOLYLINE
  5
1561
330
21D
100
AcDbEntity
  8
0
  6
Continuous
 62
     7
100
AcDbPolyline
 90
       35
 70
     0
 43
0.0
 10
33.4311551556
 20
70.6063850302
 10
33.8731911017
 20
70.33957199449999
 10
34.3394658223
 20
70.0707724004
 10
34.8192940572
 20
69.8067153458
 10
35.3130951968
 20
69.54733750409999
 10
35.8211330919
 20
69.2927116425
 10
36.3436863235
 20
69.0429410956
 10
36.8810471161
 20
68.7981592859
 10
37.4335145062
 20
68.5585297545
 10
38.001394529
 20
68.3242421449
 10
38.5850014635
 20
68.09550685939999
 10
39.1846485823
 20
67.872552537
 10
39.8006486069
 20
67.6556178826
 10
40.4332424201
 20
67.44496726120001
 10
41.08293162199999
 20
67.24078024249999
 10
41.7497574436
 20
67.0433826543
 10
42.4353322498
 20
66.85265787819999
 10
43.14074775219999
 20
66.6687131267
 10
43.86768299399999
 20
66.49157176670001
 10
44.6180005708
 20
66.3213078097
 10
45.3923101616
 20
66.1583597466
 10
46.1928337645
 20
66.0028845761
 10
47.0165817634
 20
65.8560740483
 10
47.8621369852
 20
65.71867292
 10
48.726817276
 20
65.5915318686
 10
49.60765255729999
 20
65.47536968050001
 10
50.50392866310001
 20
65.3705058701
 10
51.4137645781
 20
65.2773334993
 10
52.3376319283
 20
65.19597262399999
 10
53.275384124
 20
65.126616561
 10
54.2269849866
 20
65.0694624758
 10
55.1923637489
 20
65.0247076433
 10
56.1714708062
 20
64.9925518328
 10
57.16429948890001
 20
64.97318546649999
 10
58.15943035850001
 20
64.96678933300001
  0
LINE
  5
1562
330
21D
100
AcDbEntity
  8
0
  6
Continuous
 62
     7
100
AcDbLine
 10
33.414955735
 20
70.6164119524
 30
0.0
 11
33.4311550631
 21
70.6063850872
 31
0.0
  0
LWPOLYLINE
  5
1563
330
21D
100
AcDbEntity
  8
0
  6
Continuous
 62
     7
100
AcDbPolyline
 90
       35
 70
     0
 43
0.0
 10
58.15943035850001
 20
64.96678933300001
 10
59.153624276
 20
64.97317335319999
 10
60.1465699303
 20
64.99253036510001
 10
61.12584874479999
 20
65.02468205719999
 10
62.0914280899
 20
65.06943861989999
 10
63.0432397466
 20
65.12660084720001
 10
63.981195543
 20
65.1959697903
 10
64.90524063560001
 20
65.2773475254
 10
65.815212992
 20
65.3705364175
 10
66.71155747739999
 20
65.47541355289999
 10
67.592403421
 20
65.5915816405
 10
68.45702534299999
 20
65.7187203025
 10
69.3024846159
 20
65.8561084989
 10
70.1261159217
 20
66.002902406
 10
70.92652286159999
 20
66.1583533716
 10
71.7007358309
 20
66.3212816688
 10
72.45097474890001
 20
66.4915236653
 10
73.17784785020001
 20
66.668646496
 10
73.88321302189999
 20
66.8525730171
 10
74.56874417119999
 20
67.0432794844
 10
75.2355289839
 20
67.2406582034
 10
75.88517561979999
 20
67.44482403700001
 10
76.51772661319999
 20
67.6554515784
 10
77.13368308159999
 20
67.87236104609999
 10
77.73328708370001
 20
68.0952883872
 10
78.3168520632
 20
68.32399513680001
 10
78.8846917534
 20
68.55825282419999
 10
79.4371205856
 20
68.7978511421
 10
79.9744449043
 20
69.0426005954
 10
80.49696418979999
 20
69.29233788640001
 10
81.004971464
 20
69.54692993880001
 10
81.4987463807
 20
69.8062743988
 10
81.97855402850001
 20
70.07029792739999
 10
82.44481697880001
 20
70.3390707275
 10
82.8877058556
 20
70.60638521189999
  0
LINE
  5
1564
330
21D
100
AcDbEntity
  8
0
  6
Continuous
 62
     9
100
AcDbLine
 10
33.4805415838
 20
70.6863661581
 30
0.0
 11
33.4311551556
 21
70.6063850302
 31
0.0
  0
LINE
  5
1565
330
21D
100
AcDbEntity
  8
0
  6
Continuous
 62
     9
100
AcDbLine
 10
33.464428142
 20
70.6963399256
 30
0.0
 11
33.414955735
 21
70.6164119524
 31
0.0
  0
LINE
  5
1566
330
21D
100
AcDbEntity
  8
0
  6
Continuous
 62
     9
100
AcDbLine
 10
33.464428142
 20
97.20118906499999
 30
0.0
 11
33.4149562354
 21
97.28111734790001
 31
0.0
  0
LINE
  5
1567
330
21D
100
AcDbEntity
  8
0
  6
Continuous
 62
     9
100
AcDbLine
 10
33.4805415838
 20
97.21116283249999
 30
0.0
 11
33.4311547689
 21
97.2911437215
 31
0.0
  0
LINE
  5
1568
330
21D
100
AcDbEntity
  8
DEFAULT_1
  6
CENTER
 62
     7
100
AcDbLine
 10
61.6594303585
 20
80.69876449529999
 30
0.0
 11
59.4677636918
 21
80.69876449529999
 31
0.0
  0
LINE
  5
1569
330
21D
100
AcDbEntity
  8
DEFAULT_1
  6
CENTER
 62
     7
100
AcDbLine
 10
61.6594303585
 20
80.69876449529999
 30
0.0
 11
63.8510970251
 21
80.69876449529999
 31
0.0
  0
LINE
  5
156A
330
21D
100
AcDbEntity
  8
0
  6
Continuous
 62
     7
100
AcDbLine
 10
56.1594303585
 20
98.62881466860001
 30
0.0
 11
56.1594303585
 21
98.65223895159999
 31
0.0
  0
LINE
  5
156B
330
21D
100
AcDbEntity
  8
0
  6
Continuous
 62
     9
100
AcDbLine
 10
56.59693035850001
 20
98.4981596735
 30
0.0
 11
56.59693035850001
 21
98.49911968129999
 31
0.0
  0
LINE
  5
156C
330
21D
100
AcDbEntity
  8
0
  6
Continuous
 62
     9
100
AcDbLine
 10
56.8469303585
 20
98.59567253080001
 30
0.0
 11
56.8469303585
 21
98.5952610988
 31
0.0
  0
LINE
  5
156D
330
21D
100
AcDbEntity
  8
0
  6
Continuous
 62
     9
100
AcDbLine
 10
60.13284798749999
 20
83.9487644953
 30
0.0
 11
59.96479616640001
 21
83.9487644953
 31
0.0
  0
LINE
  5
156E
330
21D
100
AcDbEntity
  8
0_DEFAULT
  6
CENTER
 62
     7
100
AcDbLine
 10
58.15943035850001
 20
83.9487644953
 30
0.0
 11
24.5845719079
 21
83.9487644953
 31
0.0
  0
LINE
  5
156F
330
21D
100
AcDbEntity
  8
0
  6
Continuous
 62
     9
100
AcDbLine
 10
56.1860127295
 20
83.9487644953
 30
0.0
 11
56.3540645506
 21
83.9487644953
 31
0.0
  0
LINE
  5
1570
330
21D
100
AcDbEntity
  8
0_DEFAULT
  6
CENTER
 62
     7
100
AcDbLine
 10
58.15943035850001
 20
83.9487644953
 30
0.0
 11
91.8797053059
 21
83.9487644953
 31
0.0
  0
LINE
  5
1571
330
21D
100
AcDbEntity
  8
0
  6
Continuous
 62
     9
100
AcDbLine
 10
58.15943035850001
 20
85.92218212430001
 30
0.0
 11
58.15943035850001
 21
85.7541303031
 31
0.0
  0
LINE
  5
1572
330
21D
100
AcDbEntity
  8
0_DEFAULT
  6
CENTER
 62
     7
100
AcDbLine
 10
58.15943035850001
 20
83.9487644953
 30
0.0
 11
58.15943035850001
 21
64.2217469039
 31
0.0
  0
LINE
  5
1573
330
21D
100
AcDbEntity
  8
0
  6
Continuous
 62
     9
100
AcDbLine
 10
58.15943035850001
 20
65.060789333
 30
0.0
 11
58.15943035850001
 21
64.96678933300001
 31
0.0
  0
LINE
  5
1574
330
21D
100
AcDbEntity
  8
0
  6
Continuous
 62
     9
100
AcDbLine
 10
58.15943035850001
 20
81.9753468663
 30
0.0
 11
58.15943035850001
 21
82.14339868739999
 31
0.0
  0
LINE
  5
1575
330
21D
100
AcDbEntity
  8
0
  6
Continuous
 62
     9
100
AcDbLine
 10
58.15943035850001
 20
102.8367396576
 30
0.0
 11
58.15943035850001
 21
102.9307396576
 31
0.0
  0
LINE
  5
1576
330
21D
100
AcDbEntity
  8
0_DEFAULT
  6
CENTER
 62
     7
100
AcDbLine
 10
58.15943035850001
 20
83.9487644953
 30
0.0
 11
58.15943035850001
 21
103.7871083745
 31
0.0
  0
LINE
  5
1577
330
21D
100
AcDbEntity
  8
0
  6
Continuous
 62
     9
100
AcDbLine
 10
59.4719303585
 20
98.59567253080001
 30
0.0
 11
59.4719303585
 21
98.5952610988
 31
0.0
  0
LINE
  5
1578
330
21D
100
AcDbEntity
  8
0
  6
Continuous
 62
     9
100
AcDbLine
 10
59.72193035850001
 20
98.4981596735
 30
0.0
 11
59.72193035850001
 21
98.49911968129999
 31
0.0
  0
LINE
  5
1579
330
21D
100
AcDbEntity
  8
0
  6
Continuous
 62
     7
100
AcDbLine
 10
60.1594303585
 20
98.65223895159999
 30
0.0
 11
60.1594303585
 21
98.62881466860001
 31
0.0
  0
LINE
  5
157A
330
21D
100
AcDbEntity
  8
DEFAULT_1
  6
CENTER
 62
     7
100
AcDbLine
 10
61.6594303585
 20
80.69876449529999
 30
0.0
 11
61.6594303585
 21
78.5070978286
 31
0.0
  0
LINE
  5
157B
330
21D
100
AcDbEntity
  8
DEFAULT_1
  6
CENTER
 62
     7
100
AcDbLine
 10
61.6594303585
 20
80.69876449529999
 30
0.0
 11
61.6594303585
 21
82.89043116189999
 31
0.0
  0
LINE
  5
157C
330
21D
100
AcDbEntity
  8
0
  6
Continuous
 62
     9
100
AcDbLine
 10
82.83831913310001
 20
97.21116283249999
 30
0.0
 11
82.88770556139999
 21
97.2911439603
 31
0.0
  0
LINE
  5
157D
330
21D
100
AcDbEntity
  8
0
  6
Continuous
 62
     9
100
AcDbLine
 10
82.85443257489999
 20
97.20118906499999
 30
0.0
 11
82.90390498189999
 21
97.28111703819999
 31
0.0
  0
LINE
  5
157E
330
21D
100
AcDbEntity
  8
0
  6
Continuous
 62
     7
100
AcDbLine
 10
59.72193035850001
 20
98.4981596735
 30
0.0
 11
56.59693035850001
 21
98.4981596735
 31
0.0
  0
LINE
  5
157F
330
21D
100
AcDbEntity
  8
0
  6
Continuous
 62
     9
100
AcDbLine
 10
59.72193035850001
 20
98.49911968129999
 30
0.0
 11
56.59693035850001
 21
98.49911968129999
 31
0.0
  0
LINE
  5
1580
330
21D
100
AcDbEntity
  8
0
  6
Continuous
 62
     9
100
AcDbLine
 10
59.4719303585
 20
98.52387682219999
 30
0.0
 11
56.8469303585
 21
98.52387682219999
 31
0.0
  0
LINE
  5
1581
330
21D
100
AcDbEntity
  8
0
  6
Continuous
 62
     9
100
AcDbLine
 10
59.4719303585
 20
98.55841681840001
 30
0.0
 11
56.8469303585
 21
98.55841681840001
 31
0.0
  0
LINE
  5
1582
330
21D
100
AcDbEntity
  8
0
  6
Continuous
 62
     7
100
AcDbLine
 10
56.8469303585
 20
98.5952610988
 30
0.0
 11
59.4719303585
 21
98.5952610988
 31
0.0
  0
LINE
  5
1583
330
21D
100
AcDbEntity
  8
0
  6
Continuous
 62
     9
100
AcDbLine
 10
56.8469303585
 20
98.59567253080001
 30
0.0
 11
59.4719303585
 21
98.59567253080001
 31
0.0
  0
LINE
  5
1584
330
21D
100
AcDbEntity
  8
0
  6
Continuous
 62
     9
100
AcDbLine
 10
56.59693035850001
 20
98.62042967169999
 30
0.0
 11
59.72193035850001
 21
98.62042967169999
 31
0.0
  0
LINE
  5
1585
330
21D
100
AcDbEntity
  8
0
  6
Continuous
 62
     7
100
AcDbLine
 10
56.59693035850001
 20
98.72444727920001
 30
0.0
 11
59.72193035850001
 21
98.72444727920001
 31
0.0
  0
LWPOLYLINE
  5
1586
330
21D
100
AcDbEntity
  8
0
  6
Continuous
 62
     7
100
AcDbPolyline
 90
       35
 70
     0
 43
0.0
 10
58.15943035850001
 20
102.9307396576
 10
57.1652364409
 20
102.9243556373
 10
56.1722907867
 20
102.9049986255
 10
55.1930119721
 20
102.8728469333
 10
54.227432627
 20
102.8280903707
 10
53.2756209704
 20
102.7709281433
 10
52.33766517390001
 20
102.7015592003
 10
51.4136200813
 20
102.6201814652
 10
50.503647725
 20
102.5269925731
 10
49.6073032396
 20
102.4221154376
 10
48.72645729590001
 20
102.30594735
 10
47.8618353739
 20
102.178808688
 10
47.016376101
 20
102.0414204916
 10
46.19274479529999
 20
101.8946265845
 10
45.3923378553
 20
101.739175619
 10
44.61812488609999
 20
101.5762473217
 10
43.8678859681
 20
101.4060053252
 10
43.1410128667
 20
101.2288824946
 10
42.43564769499999
 20
101.0449559735
 10
41.75011654579999
 20
100.8542495061
 10
41.083331733
 20
100.6568707872
 10
40.4336850971
 20
100.4527049535
 10
39.8011341037
 20
100.2420774122
 10
39.1851776354
 20
100.0251679444
 10
38.5855736332
 20
99.8022406033
 10
38.00200865380001
 20
99.57353385370002
 10
37.4341689635
 20
99.3392761664
 10
36.8817401314
 20
99.0996778484
 10
36.34441581260001
 20
98.85492839520001
 10
35.8218965271
 20
98.6051911042
 10
35.313889253
 20
98.35059905180001
 10
34.8201143363
 20
98.09125459170001
 10
34.3403066884
 20
97.82723106310001
 10
33.8740437381
 20
97.5584582631
 10
33.4311548614
 20
97.2911437786
  0
LINE
  5
1587
330
21D
100
AcDbEntity
  8
0
  6
Continuous
 62
     9
100
AcDbLine
 10
82.85443257489999
 20
70.6963399256
 30
0.0
 11
82.90390448149999
 21
70.6164116427
 31
0.0
  0
LINE
  5
1588
330
21D
100
AcDbEntity
  8
0
  6
Continuous
 62
     9
100
AcDbLine
 10
82.83831913310001
 20
70.6863661581
 30
0.0
 11
82.88770594810001
 21
70.606385269
 31
0.0
  0
LWPOLYLINE
  5
1589
330
21D
100
AcDbEntity
  8
0
  6
Continuous
 62
     7
100
AcDbPolyline
 90
       45
 70
     0
 43
0.0
 10
82.90390448149999
 20
70.6164116427
 10
83.30756840700001
 20
70.87203954510001
 10
83.70942239379999
 20
71.13803050899999
 10
84.09932557119999
 20
71.4074699228
 10
84.4770910437
 20
71.6802024895
 10
84.8425870672
 20
71.9560116382
 10
85.1958696454
 20
72.23454554399999
 10
85.5369280768
 20
72.51549813869999
 10
85.86571265919999
 20
72.798633889
 10
86.18223332459999
 20
73.08364765829999
 10
86.4865376126
 20
73.370191375
 10
86.7786579592
 20
73.65790886949999
 10
87.05871348770001
 20
73.9465158958
 10
87.32670591829998
 20
74.2355801329
 10
87.5830991451
 20
74.5251561194
 10
87.82819272979999
 20
74.81514503060001
 10
88.06244890139998
 20
75.105667873
 10
88.28626868319998
 20
75.3968216687
 10
88.50003364850001
 20
75.6887259027
 10
88.70411563360001
 20
75.9815432151
 10
88.8988186797
 20
76.2753884389
 10
89.0844652588
 20
76.57046000390001
 10
89.26124879579999
 20
76.86679397369999
 10
89.4293829318
 20
77.16449521939999
 10
89.58904545440001
 20
77.46363836979999
 10
89.74040989329999
 20
77.76432768140001
 10
89.88362085030001
 20
78.06664800189999
 10
90.01881314100002
 20
78.37070046859999
 10
90.1461060583
 20
78.6765985235
 10
90.26560235399999
 20
78.984457555
 10
90.377393274
 20
79.2944227559
 10
90.48155151899999
 20
79.60663433819999
 10
90.5781367329
 20
79.92126166930001
 10
90.66718906770001
 20
80.2384559254
 10
90.7487468577
 20
80.55843844729999
 10
90.82282635450001
 20
80.88141485109998
 10
90.88942506969999
 20
81.20760809009999
 10
90.94851917299999
 20
81.5372401517
 10
91.00006333739999
 20
81.87053703430001
 10
91.04398864149999
 20
82.2077247014
 10
91.08020493139999
 20
82.5490314377
 10
91.1085957074
 20
82.8946820904
 10
91.1290218655
 20
83.24490825979999
 10
91.1413209702
 20
83.60013891660001
 10
91.1452905708
 20
83.94876449500001
  0
LINE
  5
158A
330
21D
100
AcDbEntity
  8
0
  6
Continuous
 62
     7
100
AcDbLine
 10
82.88770594810001
 20
70.606385269
 30
0.0
 11
82.90390448149999
 21
70.6164116427
 31
0.0
  0
LWPOLYLINE
  5
158B
330
21D
100
AcDbEntity
  8
0
  6
Continuous
 62
     7
100
AcDbPolyline
 90
       35
 70
     0
 43
0.0
 10
82.88770556139999
 20
97.2911439603
 10
82.4456696152
 20
97.557956996
 10
81.9793948947
 20
97.82675659010001
 10
81.4995666597
 20
98.0908136448
 10
81.00576552019999
 20
98.35019148649999
 10
80.49772762499999
 20
98.604817348
 10
79.9751743934
 20
98.85458789499999
 10
79.4378136009
 20
99.09936970469999
 10
78.88534621079999
 20
99.33899923600002
 10
78.317466188
 20
99.5732868456
 10
77.7338592534
 20
99.8020221311
 10
77.13421213460001
 20
100.0249764535
 10
76.51821211010001
 20
100.2419111079
 10
75.88561829689999
 20
100.4525617293
 10
75.235929095
 20
100.656748748
 10
74.56910327340001
 20
100.8541463362
 10
73.88352846710001
 20
101.0448711123
 10
73.17811296479999
 20
101.2288158638
 10
72.451177723
 20
101.4059572239
 10
71.7008601462
 20
101.5762211809
 10
70.92655055529999
 20
101.7391692439
 10
70.1260269525
 20
101.8946444144
 10
69.30227895359999
 20
102.0414549423
 10
68.4567237317
 20
102.1788560706
 10
67.592043441
 20
102.3059971219
 10
66.71120815960001
 20
102.42215931
 10
65.81493205380001
 20
102.5270231204
 10
64.9050961388
 20
102.6201954913
 10
63.9812287887
 20
102.7015563665
 10
63.043476593
 20
102.7709124295
 10
62.0918757304
 20
102.8280665147
 10
61.12649696800001
 20
102.8728213472
 10
60.1473899107
 20
102.9049771577
 10
59.15456122810001
 20
102.924343524
 10
58.15943035850001
 20
102.9307396576
  0
LINE
  5
158C
330
21D
100
AcDbEntity
  8
0
  6
Continuous
 62
     7
100
AcDbLine
 10
82.90390498189999
 20
97.28111703819999
 30
0.0
 11
82.88770565390001
 21
97.2911439033
 31
0.0
  0
LWPOLYLINE
  5
158D
330
21D
100
AcDbEntity
  8
0
  6
Continuous
 62
     7
100
AcDbPolyline
 90
       47
 70
     0
 43
0.0
 10
91.1452905708
 20
83.94876449500001
 10
91.1416560329
 20
84.28238789229999
 10
91.13032703200001
 20
84.6239500497
 10
91.11148317909998
 20
84.9608765398
 10
91.0852715673
 20
85.2935483611
 10
91.05181858719999
 20
85.622173446
 10
91.0112321008
 20
85.94695244190001
 10
90.9635958616
 20
86.2680883196
 10
90.9089774843
 20
86.5857823474
 10
90.8474210007
 20
86.90023711049999
 10
90.77895610709999
 20
87.21165103549999
 10
90.7035893645
 20
87.52022175370001
 10
90.62131522639999
 20
87.8261402697
 10
90.53210233280001
 20
88.12960670389999
 10
90.43592302989999
 20
88.43076901679999
 10
90.33272432750001
 20
88.72978922260001
 10
90.2224525159
 20
89.02679779059999
 10
90.10503159930001
 20
89.32192789770001
 10
89.9803782869
 20
89.6152966622
 10
89.84838909889999
 20
89.907017224
 10
89.7089539585
 20
90.19718697809999
 10
89.56194302719998
 20
90.4859003336
 10
89.4072283652
 20
90.77322489729999
 10
89.2446631417
 20
91.05922792280001
 10
89.0741069307
 20
91.34394903469999
 10
88.89543267969999
 20
91.62738081909999
 10
88.7084014362
 20
91.90967688459998
 10
88.5128248698
 20
92.19087227899999
 10
88.3083347208
 20
92.47122756530002
 10
88.09458149239999
 20
92.7509114835
 10
87.87117929229999
 20
93.0300921639
 10
87.63771820950001
 20
93.30891157100001
 10
87.3937948202
 20
93.58746067650001
 10
87.13883342029999
 20
93.8659712365
 10
86.8728474151
 20
94.14401032870001
 10
86.59556951450001
 20
94.42146090580001
 10
86.3073513449
 20
94.69761657819999
 10
86.00842984979999
 20
94.97195648709999
 10
85.6990897556
 20
95.2439593519
 10
85.37965211479999
 20
95.51314123469998
 10
85.05048594779999
 20
95.77908662700002
 10
84.7119862593
 20
96.0414299956
 10
84.36457893329999
 20
96.29982767280001
 10
84.008627405
 20
96.55387301379999
 10
83.64459086169999
 20
96.80319371120001
 10
83.2732596485
 20
97.04756427639999
 10
82.90390498189999
 20
97.28111703819999
  0
CIRCLE
  5
158F
330
21D
100
AcDbEntity
  8
DEFAULT_2
  6
HIDDEN
 62
     8
100
AcDbCircle
 10
61.6594303585
 20
80.69876449529999
 30
0.0
 40
1.125
  0
CIRCLE
  5
1591
330
21D
100
AcDbEntity
  8
DEFAULT_2
  6
HIDDEN
 62
     8
100
AcDbCircle
 10
61.6594303585
 20
80.69876449529999
 30
0.0
 40
0.9375
  0
ARC
  5
1632
330
21D
100
AcDbEntity
  8
0
  6
Continuous
 62
     9
100
AcDbCircle
 10
75.31148201649999
 20
91.56862966830001
 30
0.0
 40
16.0307333555
100
AcDbArc
 50
152.8874776426
 51
153.5134964523
  0
ARC
  5
1633
330
21D
100
AcDbEntity
  8
0
  6
Continuous
 62
     9
100
AcDbCircle
 10
41.17055357609999
 20
91.65137276459999
 30
0.0
 40
15.8477788139
100
AcDbArc
 50
26.4818671373
 51
27.1151075885
  0
CIRCLE
  5
1634
330
21D
100
AcDbEntity
  8
0
  6
Continuous
 62
     9
100
AcDbCircle
 10
58.15943035850001
 20
83.9487644953
 30
0.0
 40
1.448223304699999
  0
CIRCLE
  5
1635
330
21D
100
AcDbEntity
  8
0
  6
Continuous
 62
     9
100
AcDbCircle
 10
58.15943035850001
 20
83.9487644953
 30
0.0
 40
1.271446609399999
  0
SPLINE
  5
17BA
330
21D
100
AcDbEntity
  8
DEFAULT_2
  6
HIDDEN
 62
     8
100
AcDbSpline
210
0.0
220
0.0
230
1.0
 70
     8
 71
     3
 72
    41
 73
    37
 74
     0
 42
0.0000001
 43
0.0000000001
 40
0.0
 40
0.0
 40
0.0
 40
0.0
 40
0.005276089
 40
0.0115093522
 40
0.0187063248
 40
0.0268655589
 40
0.0460309496
 40
0.0688975277
 40
0.0952986337
 40
0.1250291239
 40
0.1578474136
 40
0.1934844647
 40
0.2720072914
 40
0.3579772099
 40
0.4485077549
 40
0.5405530070000001
 40
0.6310141742999999
 40
0.7168474282
 40
0.7571197386000001
 40
0.7951728263
 40
0.8306899132999999
 40
0.8633747848999998
 40
0.8929603029
 40
0.9192072168000001
 40
0.9419103118
 40
0.9609072230999998
 40
0.9689785440000001
 40
0.9760878684999999
 40
0.9822346554000001
 40
0.9874275062999998
 40
0.9916948398
 40
0.9950977131
 40
0.9965146193999999
 40
0.9977748931999999
 40
0.9989188631999999
 40
1.0
 40
1.0
 40
1.0
 40
1.0
 10
60.6580574506
 20
101.2336105871
 30
0.0
 10
60.6562607142
 20
101.232776944
 30
0.0
 10
60.6522461203
 20
101.2311635388
 30
0.0
 10
60.6455678104
 20
101.2289821849
 30
0.0
 10
60.637746183
 20
101.2268474577
 30
0.0
 10
60.6251201905
 20
101.2239146614
 30
0.0
 10
60.60657904560001
 20
101.2205081546
 30
0.0
 10
60.5811447931
 20
101.2168608956
 30
0.0
 10
60.55167414439999
 20
101.2135106455
 30
0.0
 10
60.5184158787
 20
101.2104907204
 30
0.0
 10
60.4816500143
 20
101.2078301670999
 30
0.0
 10
60.4265598928
 20
101.2046953192
 30
0.0
 10
60.3514709679
 20
101.2019461899
 30
0.0
 10
60.255738463
 20
101.2004310882
 30
0.0
 10
60.1549179016
 20
101.2006752757
 30
0.0
 10
60.0524307786
 20
101.2026734286
 30
0.0
 10
59.9517551438
 20
101.20635966
 30
0.0
 10
59.8705694636
 20
101.2108155718
 30
0.0
 10
59.8090962921
 20
101.2151877506
 30
0.0
 10
59.7665036563
 20
101.2187228857
 30
0.0
 10
59.7267969364
 20
101.2225514242
 30
0.0
 10
59.6903128647
 20
101.2266400948
 30
0.0
 10
59.65736095739999
 20
101.2309511849
 30
0.0
 10
59.6282182767
 20
101.2354432808
 30
0.0
 10
59.6031304159
 20
101.2400758096
 30
0.0
 10
59.5848967679
 20
101.2441992632
 30
0.0
 10
59.57252831379999
 20
101.2476212353
 30
0.0
 10
59.5648980809
 20
101.2500560389
 30
0.0
 10
59.5584113566
 20
101.2524931597
 30
0.0
 10
59.55307443569999
 20
101.2549290183
 30
0.0
 10
59.5488918712
 20
101.2573577241
 30
0.0
 10
59.5462034098
 20
101.2594995257
 30
0.0
 10
59.5447186174
 20
101.2612428465
 30
0.0
 10
59.5439705225
 20
101.2624759519
 30
0.0
 10
59.5435238561
 20
101.2637164224
 30
0.0
 10
59.5434331968
 20
101.2645568766
 30
0.0
 10
59.5434410326
 20
101.2649626738
 30
0.0
  0
SPLINE
  5
17BB
330
21D
100
AcDbEntity
  8
DEFAULT_2
  6
HIDDEN
 62
     8
100
AcDbSpline
210
0.0
220
0.0
230
1.0
 70
     8
 71
     3
 72
    41
 73
    37
 74
     0
 42
0.0000001
 43
0.0000000001
 40
0.0
 40
0.0
 40
0.0
 40
0.0
 40
0.005276089
 40
0.0115093522
 40
0.0187063248
 40
0.0268655589
 40
0.0460309496
 40
0.0688975277
 40
0.0952986337
 40
0.1250291239
 40
0.1578474136
 40
0.1934844647
 40
0.2720072914
 40
0.3579772099
 40
0.4485077549
 40
0.5405530070000001
 40
0.6310141742999999
 40
0.7168474282
 40
0.7571197386000001
 40
0.7951728263
 40
0.8306899132999999
 40
0.8633747848999998
 40
0.8929603029
 40
0.9192072168000001
 40
0.9419103118
 40
0.9609072230999998
 40
0.9689785440000001
 40
0.9760878684999999
 40
0.9822346554000001
 40
0.9874275062999998
 40
0.9916948398
 40
0.9950977131
 40
0.9965146193999999
 40
0.9977748931999999
 40
0.9989188631999999
 40
1.0
 40
1.0
 40
1.0
 40
1.0
 10
56.7156361033
 20
101.2539796749
 30
0.0
 10
56.71387289
 20
101.2530772883
 30
0.0
 10
56.7099235763
 20
101.2513100979
 30
0.0
 10
56.70333445859999
 20
101.2488725467
 30
0.0
 10
56.69560107569999
 20
101.2464374484
 30
0.0
 10
56.6830977197
 20
101.243019398
 30
0.0
 10
56.664701909
 20
101.2388996293
 30
0.0
 10
56.6394274241
 20
101.2342731718
 30
0.0
 10
56.6101080856
 20
101.2297876723
 30
0.0
 10
56.57699120140001
 20
101.2254860263
 30
0.0
 10
56.5403554592
 20
101.2214080694
 30
0.0
 10
56.48542743140001
 20
101.2161487434
 30
0.0
 10
56.410500618
 20
101.2105027724
 30
0.0
 10
56.3148979732
 20
101.2052929407
 30
0.0
 10
56.2141431458
 20
101.2016446568
 30
0.0
 10
56.11165528549999
 20
101.199684691
 30
0.0
 10
56.01091239270001
 20
101.19948148
 30
0.0
 10
55.9296152104
 20
101.2007998067
 30
0.0
 10
55.86801907399999
 20
101.2027954862
 30
0.0
 10
55.8253217129
 20
101.20468365
 30
0.0
 10
55.7854967891
 20
101.2069764124
 30
0.0
 10
55.7488820685
 20
101.2096535269
 30
0.0
 10
55.7157882921
 20
101.2126892583
 30
0.0
 10
55.6864939148
 20
101.2160529199
 30
0.0
 10
55.6612459129
 20
101.2197134505
 30
0.0
 10
55.6428666675
 20
101.2231298999
 30
0.0
 10
55.630375325
 20
101.226071823
 30
0.0
 10
55.6226567821
 20
101.2282102379
 30
0.0
 10
55.6160808058
 20
101.2303951147
 30
0.0
 10
55.61065382449999
 20
101.2326231196
 30
0.0
 10
55.6063806152
 20
101.2348885423
 30
0.0
 10
55.6036114714
 20
101.2369249561
 30
0.0
 10
55.6020604832
 20
101.2386096553
 30
0.0
 10
55.6012653406
 20
101.2398129604
 30
0.0
 10
55.60077111729999
 20
101.241035262
 30
0.0
 10
55.60064807899999
 20
101.2418715897
 30
0.0
 10
55.6006402427
 20
101.2422773869
 30
0.0
  0
SPLINE
  5
17BC
330
21D
100
AcDbEntity
  8
DEFAULT_2
  6
HIDDEN
 62
     8
100
AcDbSpline
210
0.0
220
0.0
230
1.0
 70
     8
 71
     3
 72
    41
 73
    37
 74
     0
 42
0.0000001
 43
0.0000000001
 40
0.0
 40
0.0
 40
0.0
 40
0.0
 40
0.0010811368
 40
0.0022251062
 40
0.0034853786
 40
0.0049022827
 40
0.0083051534
 40
0.0125724855
 40
0.017765332
 40
0.0239121155
 40
0.0310214393
 40
0.0390927578
 40
0.0580896651
 40
0.0807927564
 40
0.1070396713
 40
0.1366251876
 40
0.1693100614
 40
0.2048271507
 40
0.2428802406
 40
0.2831525565
 40
0.3689858202
 40
0.4594469996
 40
0.5514922646000001
 40
0.6420228213
 40
0.7279927497
 40
0.8065155838999999
 40
0.8421526318999999
 40
0.8749709177999999
 40
0.9047013979999999
 40
0.9311024965000001
 40
0.9539690691
 40
0.9731344512000001
 40
0.9812936815
 40
0.9884906509
 40
0.9947239116999998
 40
1.0
 40
1.0
 40
1.0
 40
1.0
 10
59.5434410326
 20
101.2649626738
 30
0.0
 10
59.5434488684
 20
101.265368471
 30
0.0
 10
59.5435719057
 20
101.2662047987
 30
0.0
 10
59.5440661268
 20
101.2674271003
 30
0.0
 10
59.5448612658
 20
101.2686304058
 30
0.0
 10
59.5464122488
 20
101.2703151068
 30
0.0
 10
59.54918139060001
 20
101.2723515201
 30
0.0
 10
59.5534545965
 20
101.2746169422
 30
0.0
 10
59.5588815735
 20
101.2768449488
 30
0.0
 10
59.5654575463
 20
101.2790298263
 30
0.0
 10
59.5731760869
 20
101.2811682406
 30
0.0
 10
59.5856674264
 20
101.2841101651
 30
0.0
 10
59.6040466681
 20
101.2875266149
 30
0.0
 10
59.6292946674
 20
101.2911871473
 30
0.0
 10
59.6585890434
 20
101.2945508085
 30
0.0
 10
59.6916828204
 20
101.2975865417
 30
0.0
 10
59.7282975424
 20
101.3002636565
 30
0.0
 10
59.76812246899999
 20
101.3025564195
 30
0.0
 10
59.81081983420001
 20
101.3044445844
 30
0.0
 10
59.87241597779999
 20
101.3064402636
 30
0.0
 10
59.9537131711
 20
101.3077585916
 30
0.0
 10
60.0544560778
 20
101.3075553805
 30
0.0
 10
60.1569439529
 20
101.3055954142
 30
0.0
 10
60.2576987942
 20
101.3019471292
 30
0.0
 10
60.35330145069999
 20
101.2967372959
 30
0.0
 10
60.4282282701
 20
101.2910913247
 30
0.0
 10
60.48315629850001
 20
101.2858319963
 30
0.0
 10
60.51979203470001
 20
101.2817540403
 30
0.0
 10
60.5529089111
 20
101.2774523939
 30
0.0
 10
60.5822282412
 20
101.2729668951
 30
0.0
 10
60.60750271819999
 20
101.2683404384
 30
0.0
 10
60.6258985222
 20
101.2642206697
 30
0.0
 10
60.6384018728
 20
101.2608026214
 30
0.0
 10
60.6461352524
 20
101.2583675241
 30
0.0
 10
60.6527243677
 20
101.2559299732
 30
0.0
 10
60.65667368029999
 20
101.254162783
 30
0.0
 10
60.6584368934
 20
101.2532603964
 30
0.0
  0
SPLINE
  5
17BD
330
21D
100
AcDbEntity
  8
DEFAULT_2
  6
HIDDEN
 62
     8
100
AcDbSpline
210
0.0
220
0.0
230
1.0
 70
     8
 71
     3
 72
    41
 73
    37
 74
     0
 42
0.0000001
 43
0.0000000001
 40
0.0
 40
0.0
 40
0.0
 40
0.0
 40
0.0010811368
 40
0.0022251062
 40
0.0034853786
 40
0.0049022827
 40
0.0083051534
 40
0.0125724855
 40
0.017765332
 40
0.0239121155
 40
0.0310214393
 40
0.0390927578
 40
0.0580896651
 40
0.0807927564
 40
0.1070396713
 40
0.1366251876
 40
0.1693100614
 40
0.2048271507
 40
0.2428802406
 40
0.2831525565
 40
0.3689858202
 40
0.4594469996
 40
0.5514922646000001
 40
0.6420228213
 40
0.7279927497
 40
0.8065155838999999
 40
0.8421526318999999
 40
0.8749709177999999
 40
0.9047013979999999
 40
0.9311024965000001
 40
0.9539690691
 40
0.9731344512000001
 40
0.9812936815
 40
0.9884906509
 40
0.9947239116999998
 40
1.0
 40
1.0
 40
1.0
 40
1.0
 10
55.6006402427
 20
101.2422773869
 30
0.0
 10
55.60063240649999
 20
101.2426831841
 30
0.0
 10
55.60072306470001
 20
101.2435236382
 30
0.0
 10
55.601169729
 20
101.2447641086
 30
0.0
 10
55.60191782029999
 20
101.2459972143
 30
0.0
 10
55.6034026073
 20
101.2477405367
 30
0.0
 10
55.6060910667
 20
101.2498823377
 30
0.0
 10
55.61027362789999
 20
101.2523110428
 30
0.0
 10
55.6156105444
 20
101.2547469029
 30
0.0
 10
55.6220972652
 20
101.2571840243
 30
0.0
 10
55.6297274958
 20
101.2596188272
 30
0.0
 10
55.64209594680001
 20
101.2630408006
 30
0.0
 10
55.6603295911
 20
101.2671642544
 30
0.0
 10
55.6854174493
 20
101.2717967849
 30
0.0
 10
55.7145601287
 20
101.2762888804
 30
0.0
 10
55.74751203659999
 20
101.2805999724
 30
0.0
 10
55.7839961096
 20
101.2846886433
 30
0.0
 10
55.82370283229999
 20
101.2885171825
 30
0.0
 10
55.8662954722
 20
101.2920523189
 30
0.0
 10
55.9277686509
 20
101.2964244977
 30
0.0
 10
56.00895434209999
 20
101.3008804111
 30
0.0
 10
56.1096299908
 20
101.3045666431
 30
0.0
 10
56.2121171285
 20
101.3065647959
 30
0.0
 10
56.3129377037
 20
101.306808983
 30
0.0
 10
56.4086702205
 20
101.30529388
 30
0.0
 10
56.4837591514
 20
101.3025447507
 30
0.0
 10
56.5388492735
 20
101.2994099006
 30
0.0
 10
56.575615132
 20
101.2967493479
 30
0.0
 10
56.6088733898
 20
101.293729422
 30
0.0
 10
56.6383440302
 20
101.2903791723
 30
0.0
 10
56.6637782747
 20
101.2867319138
 30
0.0
 10
56.682319413
 20
101.2833254068
 30
0.0
 10
56.6949454
 20
101.2803926123
 30
0.0
 10
56.70276702399999
 20
101.278257886
 30
0.0
 10
56.7094453316
 20
101.2760765324
 30
0.0
 10
56.7134599243
 20
101.2744631272
 30
0.0
 10
56.7152566605
 20
101.2736294842
 30
0.0
  0
SPLINE
  5
17BE
330
21D
100
AcDbEntity
  8
0
  6
Continuous
 62
     7
100
AcDbSpline
210
0.0
220
0.0
230
1.0
 70
     8
 71
     3
 72
    25
 73
    21
 74
     0
 42
0.0000001
 43
0.0000000001
 40
0.0
 40
0.0
 40
0.0
 40
0.0
 40
0.1761011998
 40
0.3473908559
 40
0.4297471808
 40
0.5091301437000001
 40
0.5849640034
 40
0.6566782636000001
 40
0.7237026481000001
 40
0.7854570025
 40
0.8413316590999999
 40
0.8906505466
 40
0.9326006879999999
 40
0.9504903762999999
 40
0.9660944032999999
 40
0.9791868862000001
 40
0.9894757484000001
 40
0.9965785788999999
 40
0.9987854948
 40
1.0
 40
1.0
 40
1.0
 40
1.0
 10
59.4719303585
 20
98.5952610988
 30
0.0
 10
59.48347637649999
 20
98.5952610988
 30
0.0
 10
59.50625405149999
 20
98.59495660569999
 30
0.0
 10
59.53441097229999
 20
98.59380851379999
 30
0.0
 10
59.5562028202
 20
98.5924251483
 30
0.0
 10
59.5717309406
 20
98.5911904349
 30
0.0
 10
59.5865411011
 20
98.5897560377
 30
0.0
 10
59.60051675399999
 20
98.58813540520001
 30
0.0
 10
59.61354072989999
 20
98.5863456741
 30
0.0
 10
59.6254928795
 20
98.58440883809999
 30
0.0
 10
59.63624616109999
 20
98.5823549728
 30
0.0
 10
59.6456579506
 20
98.5802268661
 30
0.0
 10
59.65257084939999
 20
98.57836176239999
 30
0.0
 10
59.6572886666
 20
98.5768730392
 30
0.0
 10
59.6601718075
 20
98.57586293979998
 30
0.0
 10
59.6625526932
 20
98.57493098719999
 30
0.0
 10
59.66438146609999
 20
98.5741231489
 30
0.0
 10
59.6655310388
 20
98.573547042
 30
0.0
 10
59.6661309853
 20
98.57320599620001
 30
0.0
 10
59.66632253270001
 20
98.57308911549999
 30
0.0
 10
59.666389275
 20
98.5730456853
 30
0.0
  0
SPLINE
  5
17BF
330
21D
100
AcDbEntity
  8
0
  6
Continuous
 62
     7
100
AcDbSpline
210
0.0
220
0.0
230
1.0
 70
     8
 71
     3
 72
    25
 73
    21
 74
     0
 42
0.0000001
 43
0.0000000001
 40
0.0
 40
0.0
 40
0.0
 40
0.0
 40
0.1761011998
 40
0.3473908559
 40
0.4297471808
 40
0.5091301437000001
 40
0.5849640034
 40
0.6566782636000001
 40
0.7237026481000001
 40
0.7854570025
 40
0.8413316590999999
 40
0.8906505466
 40
0.9326006879999999
 40
0.9504903762999999
 40
0.9660944032999999
 40
0.9791868862000001
 40
0.9894757484000001
 40
0.9965785788999999
 40
0.9987854948
 40
1.0
 40
1.0
 40
1.0
 40
1.0
 10
56.8469303585
 20
98.5952610988
 30
0.0
 10
56.83538434049999
 20
98.5952610988
 30
0.0
 10
56.8126066654
 20
98.59495660569999
 30
0.0
 10
56.7844497447
 20
98.59380851379999
 30
0.0
 10
56.7626578967
 20
98.5924251483
 30
0.0
 10
56.7471297763
 20
98.5911904349
 30
0.0
 10
56.7323196158
 20
98.5897560377
 30
0.0
 10
56.718343963
 20
98.58813540520001
 30
0.0
 10
56.7053199871
 20
98.5863456741
 30
0.0
 10
56.6933678375
 20
98.58440883809999
 30
0.0
 10
56.6826145559
 20
98.5823549728
 30
0.0
 10
56.6732027663
 20
98.5802268661
 30
0.0
 10
56.6662898676
 20
98.57836176239999
 30
0.0
 10
56.6615720504
 20
98.5768730392
 30
0.0
 10
56.6586889095
 20
98.57586293979998
 30
0.0
 10
56.65630802369999
 20
98.57493098719999
 30
0.0
 10
56.6544792508
 20
98.5741231489
 30
0.0
 10
56.65332967810001
 20
98.573547042
 30
0.0
 10
56.6527297316
 20
98.57320599620001
 30
0.0
 10
56.6525381843
 20
98.57308911549999
 30
0.0
 10
56.6524714419
 20
98.5730456853
 30
0.0
  0
SPLINE
  5
17C0
330
21D
100
AcDbEntity
  8
0
  6
Continuous
 62
     7
100
AcDbSpline
210
0.0
220
0.0
230
1.0
 70
     8
 71
     3
 72
    35
 73
    31
 74
     0
 42
0.0000001
 43
0.0000000001
 40
0.0
 40
0.0
 40
0.0
 40
0.0
 40
0.0810713848
 40
0.1613250438
 40
0.2399596223
 40
0.3162066064
 40
0.3893493202
 40
0.4587453041
 40
0.5238554148
 40
0.5842855811
 40
0.612679038
 40
0.6398560738
 40
0.6658456510000001
 40
0.6907086458000001
 40
0.7145478579000001
 40
0.7375239274
 40
0.7598693832
 40
0.7819141282
 40
0.8041051362999999
 40
0.8270080036999999
 40
0.8512539862999998
 40
0.8773923531000001
 40
0.8912743483999999
 40
0.905689719
 40
0.9205997385999999
 40
0.9359429118999999
 40
0.9516420376999999
 40
0.9676107318999999
 40
0.9837609463999999
 40
1.0
 40
1.0
 40
1.0
 40
1.0
 10
56.59693035850001
 20
98.4981596735
 30
0.0
 10
56.5836625887
 20
98.4981596735
 30
0.0
 10
56.5572602912
 20
98.49838787690002
 30
0.0
 10
56.5180010375
 20
98.49941324620001
 30
0.0
 10
56.479555166
 20
98.50111144430002
 30
0.0
 10
56.4423097679
 20
98.50346707600001
 30
0.0
 10
56.4066268996
 20
98.5064603164
 30
0.0
 10
56.3728328237
 20
98.5100690193
 30
0.0
 10
56.34120490359999
 20
98.51427356750001
 30
0.0
 10
56.31633851930001
 20
98.51834420600001
 30
0.0
 10
56.2976959729
 20
98.52193509450001
 30
0.0
 10
56.2846428471
 20
98.5247291643
 30
0.0
 10
56.2722198378
 20
98.5276912433
 30
0.0
 10
56.2604071538
 20
98.53084078809999
 30
0.0
 10
56.2491682745
 20
98.53420870530001
 30
0.0
 10
56.2384470954
 20
98.53784601780001
 30
0.0
 10
56.22816376439999
 20
98.5418320027
 30
0.0
 10
56.21821503399999
 20
98.54629075910001
 30
0.0
 10
56.20848420619999
 20
98.55141247929999
 30
0.0
 10
56.19887421439999
 20
98.5574745569
 30
0.0
 10
56.1893824576
 20
98.56484271950002
 30
0.0
 10
56.1818827927
 20
98.57226502280001
 30
0.0
 10
56.17624483310001
 20
98.57917214290001
 30
0.0
 10
56.1722085562
 20
98.5849877447
 30
0.0
 10
56.16855099689999
 20
98.59132754370001
 30
0.0
 10
56.1653776097
 20
98.5981569155
 30
0.0
 10
56.1627892112
 20
98.60541406940001
 30
0.0
 10
56.1608726657
 20
98.61301426290001
 30
0.0
 10
56.15969504169999
 20
98.6208525874
 30
0.0
 10
56.1594303585
 20
98.62615705979999
 30
0.0
 10
56.1594303585
 20
98.62881466860001
 30
0.0
  0
SPLINE
  5
17C1
330
21D
100
AcDbEntity
  8
0
  6
Continuous
 62
     7
100
AcDbSpline
210
0.0
220
0.0
230
1.0
 70
     8
 71
     3
 72
    35
 73
    31
 74
     0
 42
0.0000001
 43
0.0000000001
 40
0.0
 40
0.0
 40
0.0
 40
0.0
 40
0.0810713848
 40
0.1613250438
 40
0.2399596223
 40
0.3162066064
 40
0.3893493202
 40
0.4587453041
 40
0.5238554148
 40
0.5842855811
 40
0.612679038
 40
0.6398560738
 40
0.6658456510000001
 40
0.6907086458000001
 40
0.7145478579000001
 40
0.7375239274
 40
0.7598693832
 40
0.7819141282
 40
0.8041051362999999
 40
0.8270080036999999
 40
0.8512539862999998
 40
0.8773923531000001
 40
0.8912743483999999
 40
0.905689719
 40
0.9205997385999999
 40
0.9359429118999999
 40
0.9516420376999999
 40
0.9676107318999999
 40
0.9837609463999999
 40
1.0
 40
1.0
 40
1.0
 40
1.0
 10
59.72193035850001
 20
98.4981596735
 30
0.0
 10
59.7351981282
 20
98.4981596735
 30
0.0
 10
59.7616004258
 20
98.49838787690002
 30
0.0
 10
59.8008596794
 20
98.49941324620001
 30
0.0
 10
59.839305551
 20
98.50111144430002
 30
0.0
 10
59.876550949
 20
98.50346707600001
 30
0.0
 10
59.9122338174
 20
98.5064603164
 30
0.0
 10
59.9460278933
 20
98.5100690193
 30
0.0
 10
59.9776558134
 20
98.51427356750001
 30
0.0
 10
60.0025221976
 20
98.51834420600001
 30
0.0
 10
60.021164744
 20
98.52193509450001
 30
0.0
 10
60.03421786989999
 20
98.5247291643
 30
0.0
 10
60.0466408792
 20
98.5276912433
 30
0.0
 10
60.0584535632
 20
98.53084078809999
 30
0.0
 10
60.0696924424
 20
98.53420870530001
 30
0.0
 10
60.08041362149999
 20
98.53784601780001
 30
0.0
 10
60.0906969526
 20
98.5418320027
 30
0.0
 10
60.100645683
 20
98.54629075910001
 30
0.0
 10
60.1103765108
 20
98.55141247929999
 30
0.0
 10
60.1199865026
 20
98.5574745569
 30
0.0
 10
60.12947825939999
 20
98.56484271950002
 30
0.0
 10
60.1369779242
 20
98.57226502280001
 30
0.0
 10
60.1426158838
 20
98.57917214290001
 30
0.0
 10
60.1466521607
 20
98.5849877447
 30
0.0
 10
60.1503097201
 20
98.59132754370001
 30
0.0
 10
60.1534831072
 20
98.5981569155
 30
0.0
 10
60.1560715057
 20
98.60541406940001
 30
0.0
 10
60.1579880513
 20
98.61301426290001
 30
0.0
 10
60.15916567529999
 20
98.6208525874
 30
0.0
 10
60.1594303585
 20
98.62615705979999
 30
0.0
 10
60.1594303585
 20
98.62881466860001
 30
0.0
  0
SPLINE
  5
17C2
330
21D
100
AcDbEntity
  8
0
  6
Continuous
 62
     7
100
AcDbSpline
210
0.0
220
0.0
230
1.0
 70
     8
 71
     3
 72
    34
 73
    30
 74
     0
 42
0.0000001
 43
0.0000000001
 40
0.0
 40
0.0
 40
0.0
 40
0.0
 40
0.003917325
 40
0.0079175418
 40
0.01207842
 40
0.0164688077
 40
0.0211469681
 40
0.0261604728
 40
0.0373299628
 40
0.0502020192
 40
0.0649027349
 40
0.0815019983
 40
0.1000328118
 40
0.1205028894
 40
0.1429016894
 40
0.167204802
 40
0.1933767852
 40
0.2213730717
 40
0.2511413041
 40
0.2826223108
 40
0.3157508502
 40
0.3866608166
 40
0.4632503486
 40
0.5448290423
 40
0.630650243
 40
0.7199208975
 40
0.8118109725
 40
0.9054626952999999
 40
1.0
 40
1.0
 40
1.0
 40
1.0
 10
56.1594303585
 20
98.65223895159999
 30
0.0
 10
56.1594303585
 20
98.65283127620001
 30
0.0
 10
56.1595204483
 20
98.6540302921
 30
0.0
 10
56.1599235409
 20
98.65581762860001
 30
0.0
 10
56.16059315020001
 20
98.65759938030002
 30
0.0
 10
56.16152688109999
 20
98.6593736402
 30
0.0
 10
56.16272267350001
 20
98.6611400798
 30
0.0
 10
56.1647377465
 20
98.66357218530001
 30
0.0
 10
56.1679657005
 20
98.66657845299998
 30
0.0
 10
56.1727197322
 20
98.67001817830001
 30
0.0
 10
56.1784807727
 20
98.67341310329999
 30
0.0
 10
56.1852382897
 20
98.6767574857
 30
0.0
 10
56.1929801064
 20
98.68004498719999
 30
0.0
 10
56.20168977289999
 20
98.6832678586
 30
0.0
 10
56.2113479308
 20
98.68641828940001
 30
0.0
 10
56.2219323433
 20
98.68948845889999
 30
0.0
 10
56.23341822819999
 20
98.69247072930001
 30
0.0
 10
56.24577840609999
 20
98.695357692
 30
0.0
 10
56.2589834476
 20
98.69814216520001
 30
0.0
 10
56.27300179489999
 20
98.70081737540001
 30
0.0
 10
56.2931943795
 20
98.7043091453
 30
0.0
 10
56.3202151121
 20
98.7083171889
 30
0.0
 10
56.3546033424
 20
98.7124970424
 30
0.0
 10
56.3913220436
 20
98.71610669909999
 30
0.0
 10
56.4300183352
 20
98.7191103408
 30
0.0
 10
56.4703204352
 20
98.72147792719999
 30
0.0
 10
56.51184076859999
 20
98.72318599399999
 30
0.0
 10
56.5541797813
 20
98.72421763049999
 30
0.0
 10
56.5826357131
 20
98.72444727920001
 30
0.0
 10
56.59693035850001
 20
98.72444727920001
 30
0.0
  0
SPLINE
  5
17C3
330
21D
100
AcDbEntity
  8
0
  6
Continuous
 62
     7
100
AcDbSpline
210
0.0
220
0.0
230
1.0
 70
     8
 71
     3
 72
    34
 73
    30
 74
     0
 42
0.0000001
 43
0.0000000001
 40
0.0
 40
0.0
 40
0.0
 40
0.0
 40
0.003917325
 40
0.0079175418
 40
0.01207842
 40
0.0164688077
 40
0.0211469681
 40
0.0261604728
 40
0.0373299628
 40
0.0502020192
 40
0.0649027349
 40
0.0815019983
 40
0.1000328118
 40
0.1205028894
 40
0.1429016894
 40
0.167204802
 40
0.1933767852
 40
0.2213730717
 40
0.2511413041
 40
0.2826223108
 40
0.3157508502
 40
0.3866608166
 40
0.4632503486
 40
0.5448290423
 40
0.630650243
 40
0.7199208975
 40
0.8118109725
 40
0.9054626952999999
 40
1.0
 40
1.0
 40
1.0
 40
1.0
 10
60.1594303585
 20
98.65223895159999
 30
0.0
 10
60.1594303585
 20
98.65283127620001
 30
0.0
 10
60.1593402686
 20
98.6540302921
 30
0.0
 10
60.1589371761
 20
98.65581762860001
 30
0.0
 10
60.1582675668
 20
98.65759938030002
 30
0.0
 10
60.1573338359
 20
98.6593736402
 30
0.0
 10
60.1561380435
 20
98.6611400798
 30
0.0
 10
60.15412297050001
 20
98.66357218530001
 30
0.0
 10
60.15089501649999
 20
98.66657845299998
 30
0.0
 10
60.1461409847
 20
98.67001817830001
 30
0.0
 10
60.1403799442
 20
98.67341310329999
 30
0.0
 10
60.1336224273
 20
98.6767574857
 30
0.0
 10
60.1258806105
 20
98.68004498719999
 30
0.0
 10
60.11717094399999
 20
98.6832678586
 30
0.0
 10
60.10751278619999
 20
98.68641828940001
 30
0.0
 10
60.09692837359999
 20
98.68948845889999
 30
0.0
 10
60.08544248869999
 20
98.69247072930001
 30
0.0
 10
60.0730823109
 20
98.695357692
 30
0.0
 10
60.05987726939999
 20
98.69814216520001
 30
0.0
 10
60.0458589221
 20
98.70081737540001
 30
0.0
 10
60.02566633739999
 20
98.7043091453
 30
0.0
 10
59.99864560479999
 20
98.7083171889
 30
0.0
 10
59.9642573746
 20
98.7124970424
 30
0.0
 10
59.9275386733
 20
98.71610669909999
 30
0.0
 10
59.8888423817
 20
98.7191103408
 30
0.0
 10
59.8485402817
 20
98.72147792719999
 30
0.0
 10
59.8070199483
 20
98.72318599399999
 30
0.0
 10
59.7646809357
 20
98.72421763049999
 30
0.0
 10
59.7362250038
 20
98.72444727920001
 30
0.0
 10
59.72193035850001
 20
98.72444727920001
 30
0.0
  0
SPLINE
  5
17C4
330
21D
100
AcDbEntity
  8
0
  6
Continuous
 62
     9
100
AcDbSpline
210
0.0
220
0.0
230
1.0
 70
     8
 71
     3
 72
    57
 73
    53
 74
     0
 42
0.0000001
 43
0.0000000001
 40
0.0
 40
0.0
 40
0.0
 40
0.0
 40
0.047269597
 40
0.0940963042
 40
0.1400422113
 40
0.1846783908
 40
0.2275898048
 40
0.268379923
 40
0.3066754179
 40
0.3421310787
 40
0.3744352404
 40
0.3893196379
 40
0.4033180473
 40
0.4164042902000001
 40
0.4285560818
 40
0.4397556996
 40
0.4499909356
 40
0.4592565165999999
 40
0.4675563017
 40
0.4749067951
 40
0.4813429432
 40
0.4869277941
 40
0.4894346006000001
 40
0.4917737208000001
 40
0.4960411538000001
 40
0.4980413001
 40
0.5
 40
0.5019586999
 40
0.5039588462
 40
0.5082262792
 40
0.5105653994
 40
0.5130722059
 40
0.5186570568
 40
0.5250932049000001
 40
0.5324436983
 40
0.5407434834
 40
0.5500090644000001
 40
0.5602443004
 40
0.5714439182
 40
0.5835957098
 40
0.5966819527000001
 40
0.6106803621
 40
0.6255647596000001
 40
0.6578689213000001
 40
0.6933245820999999
 40
0.731620077
 40
0.7724101952
 40
0.8153216091999999
 40
0.8599577887
 40
0.9059036958
 40
0.9527304029999999
 40
1.0
 40
1.0
 40
1.0
 40
1.0
 10
59.72193035850001
 20
98.62042967169999
 30
0.0
 10
59.7339378722
 20
98.62042967169999
 30
0.0
 10
59.75784085539999
 20
98.62023676700001
 30
0.0
 10
59.7934056248
 20
98.61937018989999
 30
0.0
 10
59.8282826955
 20
98.6179354175
 30
0.0
 10
59.8621364517
 20
98.6159466401
 30
0.0
 10
59.8946413612
 20
98.61342360280001
 30
0.0
 10
59.9254849806
 20
98.6103914094
 30
0.0
 10
59.9543713926
 20
98.60688060540001
 30
0.0
 10
59.9810233602
 20
98.60292621100001
 30
0.0
 10
60.00168853279999
 20
98.59920116899999
 30
0.0
 10
60.0168979969
 20
98.5959944814
 30
0.0
 10
60.0272805425
 20
98.59356935370001
 30
0.0
 10
60.03692868859999
 20
98.591064266
 30
0.0
 10
60.0458195981
 20
98.58848531940001
 30
0.0
 10
60.0539324539
 20
98.5858389596
 30
0.0
 10
60.061248576
 20
98.5831317465
 30
0.0
 10
60.0677516993
 20
98.5803702495
 30
0.0
 10
60.0734280152
 20
98.5775609531
 30
0.0
 10
60.0782672705
 20
98.5747092607
 30
0.0
 10
60.0822607011
 20
98.57181975240001
 30
0.0
 10
60.0849720618
 20
98.56929484930001
 30
0.0
 10
60.0866649393
 20
98.56725123510001
 30
0.0
 10
60.0879643045
 20
98.5653330034
 30
0.0
 10
60.08889391140001
 20
98.5633241732
 30
0.0
 10
60.08935459729999
 20
98.56127926319999
 30
0.0
 10
60.08946784249999
 20
98.55977467649999
 30
0.0
 10
60.08935459729999
 20
98.5582700898
 30
0.0
 10
60.08889391140001
 20
98.55622517969999
 30
0.0
 10
60.0879643045
 20
98.5542163496
 30
0.0
 10
60.0866649393
 20
98.55229811790001
 30
0.0
 10
60.0849720618
 20
98.5502545037
 30
0.0
 10
60.0822607011
 20
98.5477296006
 30
0.0
 10
60.0782672705
 20
98.5448400922
 30
0.0
 10
60.0734280152
 20
98.54198839989999
 30
0.0
 10
60.0677516993
 20
98.5391791035
 30
0.0
 10
60.061248576
 20
98.53641760649999
 30
0.0
 10
60.0539324539
 20
98.5337103934
 30
0.0
 10
60.0458195981
 20
98.53106403360001
 30
0.0
 10
60.03692868859999
 20
98.52848508700001
 30
0.0
 10
60.0272805425
 20
98.52597999930001
 30
0.0
 10
60.0168979969
 20
98.5235548716
 30
0.0
 10
60.00168853279999
 20
98.52034818399999
 30
0.0
 10
59.9810233602
 20
98.51662314200002
 30
0.0
 10
59.9543713926
 20
98.5126687476
 30
0.0
 10
59.9254849806
 20
98.5091579436
 30
0.0
 10
59.8946413612
 20
98.50612575020001
 30
0.0
 10
59.8621364517
 20
98.5036027129
 30
0.0
 10
59.8282826955
 20
98.50161393549999
 30
0.0
 10
59.7934056248
 20
98.50017916310001
 30
0.0
 10
59.75784085539999
 20
98.49931258600001
 30
0.0
 10
59.7339378722
 20
98.49911968129999
 30
0.0
 10
59.72193035850001
 20
98.49911968129999
 30
0.0
  0
SPLINE
  5
17C5
330
21D
100
AcDbEntity
  8
0
  6
Continuous
 62
     9
100
AcDbSpline
210
0.0
220
0.0
230
1.0
 70
     8
 71
     3
 72
    57
 73
    53
 74
     0
 42
0.0000001
 43
0.0000000001
 40
0.0
 40
0.0
 40
0.0
 40
0.0
 40
0.047269597
 40
0.0940963042
 40
0.1400422113
 40
0.1846783908
 40
0.2275898048
 40
0.268379923
 40
0.3066754179
 40
0.3421310787
 40
0.3744352404
 40
0.3893196379
 40
0.4033180473
 40
0.4164042902000001
 40
0.4285560818
 40
0.4397556996
 40
0.4499909356
 40
0.4592565165999999
 40
0.4675563017
 40
0.4749067951
 40
0.4813429432
 40
0.4869277941
 40
0.4894346006000001
 40
0.4917737208000001
 40
0.4960411538000001
 40
0.4980413001
 40
0.5
 40
0.5019586999
 40
0.5039588462
 40
0.5082262792
 40
0.5105653994
 40
0.5130722059
 40
0.5186570568
 40
0.5250932049000001
 40
0.5324436983
 40
0.5407434834
 40
0.5500090644000001
 40
0.5602443004
 40
0.5714439182
 40
0.5835957098
 40
0.5966819527000001
 40
0.6106803621
 40
0.6255647596000001
 40
0.6578689213000001
 40
0.6933245820999999
 40
0.731620077
 40
0.7724101952
 40
0.8153216091999999
 40
0.8599577887
 40
0.9059036958
 40
0.9527304029999999
 40
1.0
 40
1.0
 40
1.0
 40
1.0
 10
56.59693035850001
 20
98.49911968129999
 30
0.0
 10
56.5849228448
 20
98.49911968129999
 30
0.0
 10
56.56101986149999
 20
98.49931258600001
 30
0.0
 10
56.52545509220001
 20
98.50017916310001
 30
0.0
 10
56.4905780215
 20
98.50161393549999
 30
0.0
 10
56.4567242653
 20
98.5036027129
 30
0.0
 10
56.42421935569999
 20
98.50612575020001
 30
0.0
 10
56.3933757363
 20
98.5091579436
 30
0.0
 10
56.3644893244
 20
98.5126687476
 30
0.0
 10
56.3378373567
 20
98.51662314200002
 30
0.0
 10
56.31717218409999
 20
98.52034818399999
 30
0.0
 10
56.30196272
 20
98.5235548716
 30
0.0
 10
56.29158017449999
 20
98.52597999930001
 30
0.0
 10
56.2819320284
 20
98.52848508700001
 30
0.0
 10
56.2730411188
 20
98.53106403360001
 30
0.0
 10
56.264928263
 20
98.5337103934
 30
0.0
 10
56.257612141
 20
98.53641760649999
 30
0.0
 10
56.2511090176
 20
98.5391791035
 30
0.0
 10
56.24543270180001
 20
98.54198839989999
 30
0.0
 10
56.2405934464
 20
98.5448400922
 30
0.0
 10
56.2366000159
 20
98.5477296006
 30
0.0
 10
56.2338886551
 20
98.5502545037
 30
0.0
 10
56.23219577770001
 20
98.55229811790001
 30
0.0
 10
56.2308964125
 20
98.5542163496
 30
0.0
 10
56.2299668056
 20
98.55622517969999
 30
0.0
 10
56.2295061196
 20
98.5582700898
 30
0.0
 10
56.2293928745
 20
98.55977467649999
 30
0.0
 10
56.2295061196
 20
98.56127926319999
 30
0.0
 10
56.2299668056
 20
98.5633241732
 30
0.0
 10
56.2308964125
 20
98.5653330034
 30
0.0
 10
56.23219577770001
 20
98.56725123510001
 30
0.0
 10
56.2338886551
 20
98.56929484930001
 30
0.0
 10
56.2366000159
 20
98.57181975240001
 30
0.0
 10
56.2405934464
 20
98.5747092607
 30
0.0
 10
56.24543270180001
 20
98.5775609531
 30
0.0
 10
56.2511090176
 20
98.5803702495
 30
0.0
 10
56.257612141
 20
98.5831317465
 30
0.0
 10
56.264928263
 20
98.5858389596
 30
0.0
 10
56.2730411188
 20
98.58848531940001
 30
0.0
 10
56.2819320284
 20
98.591064266
 30
0.0
 10
56.29158017449999
 20
98.59356935370001
 30
0.0
 10
56.30196272
 20
98.5959944814
 30
0.0
 10
56.31717218409999
 20
98.59920116899999
 30
0.0
 10
56.3378373567
 20
98.60292621100001
 30
0.0
 10
56.3644893244
 20
98.60688060540001
 30
0.0
 10
56.3933757363
 20
98.6103914094
 30
0.0
 10
56.42421935569999
 20
98.61342360280001
 30
0.0
 10
56.4567242653
 20
98.6159466401
 30
0.0
 10
56.4905780215
 20
98.6179354175
 30
0.0
 10
56.52545509220001
 20
98.61937018989999
 30
0.0
 10
56.56101986149999
 20
98.62023676700001
 30
0.0
 10
56.5849228448
 20
98.62042967169999
 30
0.0
 10
56.59693035850001
 20
98.62042967169999
 30
0.0
  0
SPLINE
  5
17C6
330
21D
100
AcDbEntity
  8
0
  6
Continuous
 62
     9
100
AcDbSpline
210
0.0
220
0.0
230
1.0
 70
     8
 71
     3
 72
    51
 73
    47
 74
     0
 42
0.0000001
 43
0.0000000001
 40
0.0
 40
0.0
 40
0.0
 40
0.0
 40
0.0472713913
 40
0.094099659
 40
0.1400472012
 40
0.1846849742
 40
0.2275979248
 40
0.2683894962
 40
0.3066863648
 40
0.3421432740999999
 40
0.3744486064
 40
0.4033307259
 40
0.4164174335000001
 40
0.4285696646
 40
0.4397696843000001
 40
0.4500052747
 40
0.459271181
 40
0.4675712699
 40
0.4749220388000001
 40
0.4813584170000001
 40
0.4869434577
 40
0.4917838709000001
 40
0.4960514582
 40
0.5
 40
0.5039485418
 40
0.5082161291
 40
0.5130565423000001
 40
0.518641583
 40
0.5250779612
 40
0.5324287301
 40
0.540728819
 40
0.5499947253000001
 40
0.5602303157000001
 40
0.5714303354000001
 40
0.5835825665
 40
0.5966692741
 40
0.6255513936
 40
0.6578567259
 40
0.6933136352
 40
0.7316105037999999
 40
0.7724020752
 40
0.8153150257
 40
0.8599527988
 40
0.9059003409999998
 40
0.9527286087
 40
1.0
 40
1.0
 40
1.0
 40
1.0
 10
56.8469303585
 20
98.52387682219999
 30
0.0
 10
56.8398238546
 20
98.52387682219999
 30
0.0
 10
56.8256771916
 20
98.52399099110002
 30
0.0
 10
56.8046286557
 20
98.52450386160001
 30
0.0
 10
56.7839871419
 20
98.52535301469998
 30
0.0
 10
56.76395124319999
 20
98.5265300446
 30
0.0
 10
56.7447136504
 20
98.5280232753
 30
0.0
 10
56.7264592369
 20
98.52981781850001
 30
0.0
 10
56.7093632841
 20
98.53189571340001
 30
0.0
 10
56.6935893862
 20
98.5342358233
 30
0.0
 10
56.6792885467
 20
98.5368146281
 30
0.0
 10
56.6683788456
 20
98.5392117221
 30
0.0
 10
56.66050277
 20
98.54125629329999
 30
0.0
 10
56.6552408109
 20
98.54278267659999
 30
0.0
 10
56.65043932399999
 20
98.544348871
 30
0.0
 10
56.6461093731
 20
98.5459511081
 30
0.0
 10
56.6422606024
 20
98.54758545440001
 30
0.0
 10
56.6389011005
 20
98.54924812770001
 30
0.0
 10
56.6360371924
 20
98.55093577120001
 30
0.0
 10
56.6336732834
 20
98.5526461635
 30
0.0
 10
56.63181222399999
 20
98.55437968
 30
0.0
 10
56.6304578624
 20
98.55614134139999
 30
0.0
 10
56.6296229782
 20
98.5579405196
 30
0.0
 10
56.6293377885
 20
98.55977467649999
 30
0.0
 10
56.6296229782
 20
98.56160883340001
 30
0.0
 10
56.6304578624
 20
98.56340801160001
 30
0.0
 10
56.63181222399999
 20
98.56516967299999
 30
0.0
 10
56.6336732834
 20
98.56690318950001
 30
0.0
 10
56.6360371924
 20
98.56861358180001
 30
0.0
 10
56.6389011005
 20
98.57030122530002
 30
0.0
 10
56.6422606024
 20
98.57196389850001
 30
0.0
 10
56.6461093731
 20
98.5735982449
 30
0.0
 10
56.65043932399999
 20
98.57520048200001
 30
0.0
 10
56.6552408109
 20
98.57676667639999
 30
0.0
 10
56.66050277
 20
98.5782930597
 30
0.0
 10
56.6683788456
 20
98.5803376309
 30
0.0
 10
56.6792885467
 20
98.58273472489999
 30
0.0
 10
56.6935893862
 20
98.58531352969999
 30
0.0
 10
56.7093632841
 20
98.58765363959999
 30
0.0
 10
56.7264592369
 20
98.5897315344
 30
0.0
 10
56.7447136504
 20
98.59152607770001
 30
0.0
 10
56.76395124319999
 20
98.5930193084
 30
0.0
 10
56.7839871419
 20
98.5941963383
 30
0.0
 10
56.8046286557
 20
98.5950454914
 30
0.0
 10
56.8256771916
 20
98.59555836190001
 30
0.0
 10
56.8398238546
 20
98.59567253080001
 30
0.0
 10
56.8469303585
 20
98.59567253080001
 30
0.0
  0
SPLINE
  5
17C7
330
21D
100
AcDbEntity
  8
0
  6
Continuous
 62
     9
100
AcDbSpline
210
0.0
220
0.0
230
1.0
 70
     8
 71
     3
 72
    51
 73
    47
 74
     0
 42
0.0000001
 43
0.0000000001
 40
0.0
 40
0.0
 40
0.0
 40
0.0
 40
0.0472713913
 40
0.094099659
 40
0.1400472012
 40
0.1846849743
 40
0.2275979248
 40
0.2683894962
 40
0.3066863648
 40
0.3421432740999999
 40
0.3744486064
 40
0.4033307259
 40
0.4164174335000001
 40
0.4285696646
 40
0.4397696843000001
 40
0.4500052747
 40
0.459271181
 40
0.4675712699
 40
0.4749220388000001
 40
0.4813584170000001
 40
0.4869434577
 40
0.4917838709000001
 40
0.4960514582
 40
0.5
 40
0.5039485418
 40
0.5082161291
 40
0.5130565423000001
 40
0.518641583
 40
0.5250779612
 40
0.5324287301
 40
0.540728819
 40
0.5499947253000001
 40
0.5602303157000001
 40
0.5714303354000001
 40
0.5835825665
 40
0.5966692741
 40
0.6255513936
 40
0.6578567259
 40
0.6933136352
 40
0.7316105037999999
 40
0.7724020752
 40
0.8153150258
 40
0.8599527988
 40
0.9059003409999998
 40
0.9527286087
 40
1.0
 40
1.0
 40
1.0
 40
1.0
 10
59.4719303585
 20
98.59567253080001
 30
0.0
 10
59.47903686229999
 20
98.59567253080001
 30
0.0
 10
59.49318352529999
 20
98.59555836190001
 30
0.0
 10
59.5142320613
 20
98.5950454914
 30
0.0
 10
59.534873575
 20
98.5941963383
 30
0.0
 10
59.5549094737
 20
98.5930193084
 30
0.0
 10
59.57414706659999
 20
98.59152607770001
 30
0.0
 10
59.59240148
 20
98.5897315344
 30
0.0
 10
59.6094974328
 20
98.58765363959999
 30
0.0
 10
59.6252713307
 20
98.58531352969999
 30
0.0
 10
59.6395721702
 20
98.58273472489999
 30
0.0
 10
59.6504818713
 20
98.5803376309
 30
0.0
 10
59.658357947
 20
98.5782930597
 30
0.0
 10
59.6636199061
 20
98.57676667639999
 30
0.0
 10
59.668421393
 20
98.57520048200001
 30
0.0
 10
59.6727513438
 20
98.5735982449
 30
0.0
 10
59.6766001145
 20
98.57196389850001
 30
0.0
 10
59.6799596165
 20
98.57030122530002
 30
0.0
 10
59.6828235245
 20
98.56861358180001
 30
0.0
 10
59.6851874335
 20
98.56690318950001
 30
0.0
 10
59.68704849299999
 20
98.56516967299999
 30
0.0
 10
59.68840285449999
 20
98.56340801160001
 30
0.0
 10
59.6892377387
 20
98.56160883340001
 30
0.0
 10
59.6895229285
 20
98.55977467649999
 30
0.0
 10
59.6892377387
 20
98.5579405196
 30
0.0
 10
59.68840285449999
 20
98.55614134139999
 30
0.0
 10
59.68704849299999
 20
98.55437968
 30
0.0
 10
59.6851874335
 20
98.5526461635
 30
0.0
 10
59.6828235245
 20
98.55093577120001
 30
0.0
 10
59.6799596165
 20
98.54924812770001
 30
0.0
 10
59.6766001145
 20
98.54758545440001
 30
0.0
 10
59.6727513438
 20
98.5459511081
 30
0.0
 10
59.668421393
 20
98.544348871
 30
0.0
 10
59.6636199061
 20
98.54278267659999
 30
0.0
 10
59.658357947
 20
98.54125629329999
 30
0.0
 10
59.6504818713
 20
98.5392117221
 30
0.0
 10
59.6395721702
 20
98.5368146281
 30
0.0
 10
59.6252713307
 20
98.5342358233
 30
0.0
 10
59.6094974328
 20
98.53189571340001
 30
0.0
 10
59.59240148
 20
98.52981781850001
 30
0.0
 10
59.57414706659999
 20
98.5280232753
 30
0.0
 10
59.5549094737
 20
98.5265300446
 30
0.0
 10
59.534873575
 20
98.52535301469998
 30
0.0
 10
59.5142320613
 20
98.52450386160001
 30
0.0
 10
59.49318352529999
 20
98.52399099110002
 30
0.0
 10
59.47903686229999
 20
98.52387682219999
 30
0.0
 10
59.4719303585
 20
98.52387682219999
 30
0.0
  0
SPLINE
  5
17C8
330
21D
100
AcDbEntity
  8
0
  6
Continuous
 62
     9
100
AcDbSpline
210
0.0
220
0.0
230
1.0
 70
     8
 71
     3
 72
    20
 73
    16
 74
     0
 42
0.0000001
 43
0.0000000001
 40
0.0
 40
0.0
 40
0.0
 40
0.0
 40
0.0318742885
 40
0.0689662788
 40
0.1111936153
 40
0.1583977272
 40
0.2103632499
 40
0.2668293437
 40
0.3274970232999999
 40
0.3920345334
 40
0.4600816083
 40
0.5312531262000001
 40
0.6813204384999999
 40
0.8387863576
 40
1.0
 40
1.0
 40
1.0
 40
1.0
 10
59.649161665
 20
98.5792625014
 30
0.0
 10
59.64744265930001
 20
98.57844086280001
 30
0.0
 10
59.6436315093
 20
98.57685456090001
 30
0.0
 10
59.6373325142
 20
98.57472355680002
 30
0.0
 10
59.6300494878
 20
98.57267465239999
 30
0.0
 10
59.6218244869
 20
98.57072122129999
 30
0.0
 10
59.6127048077
 20
98.56887574459999
 30
0.0
 10
59.60274423689999
 20
98.56714994530001
 30
0.0
 10
59.59200178979999
 20
98.56555464300001
 30
0.0
 10
59.5805414205
 20
98.56409978850001
 30
0.0
 10
59.56843146629999
 20
98.56279428969999
 30
0.0
 10
59.55120914430001
 20
98.56123625
 30
0.0
 10
59.5286181345
 20
98.559737542
 30
0.0
 10
59.50061677439999
 20
98.5586577817
 30
0.0
 10
59.48156684709999
 20
98.55841681840001
 30
0.0
 10
59.4719303585
 20
98.55841681840001
 30
0.0
  0
SPLINE
  5
17C9
330
21D
100
AcDbEntity
  8
0
  6
Continuous
 62
     9
100
AcDbSpline
210
0.0
220
0.0
230
1.0
 70
     8
 71
     3
 72
    20
 73
    16
 74
     0
 42
0.0000001
 43
0.0000000001
 40
0.0
 40
0.0
 40
0.0
 40
0.0
 40
0.1612136424
 40
0.3186795615
 40
0.4687468738
 40
0.5399183917000001
 40
0.6079654666
 40
0.6725029767000001
 40
0.7331706563
 40
0.7896367501000001
 40
0.8416022727999999
 40
0.8888063846999999
 40
0.9310337212
 40
0.9681257115000001
 40
1.0
 40
1.0
 40
1.0
 40
1.0
 10
56.8469303585
 20
98.55841681840001
 30
0.0
 10
56.83729386989999
 20
98.55841681840001
 30
0.0
 10
56.8182439425
 20
98.5586577817
 30
0.0
 10
56.7902425824
 20
98.559737542
 30
0.0
 10
56.76765157270001
 20
98.56123625
 30
0.0
 10
56.75042925060001
 20
98.56279428969999
 30
0.0
 10
56.7383192964
 20
98.56409978850001
 30
0.0
 10
56.7268589271
 20
98.56555464300001
 30
0.0
 10
56.7161164801
 20
98.56714994530001
 30
0.0
 10
56.7061559093
 20
98.56887574459999
 30
0.0
 10
56.69703623
 20
98.57072122129999
 30
0.0
 10
56.6888112292
 20
98.57267465239999
 30
0.0
 10
56.68152820279999
 20
98.57472355680002
 30
0.0
 10
56.6752292077
 20
98.57685456090001
 30
0.0
 10
56.6714180576
 20
98.57844086280001
 30
0.0
 10
56.669699052
 20
98.5792625014
 30
0.0
  0
SPLINE
  5
17CA
330
21D
100
AcDbEntity
  8
0
  6
Continuous
 62
     7
100
AcDbSpline
210
0.0
220
0.0
230
1.0
 70
     8
 71
     3
 72
    20
 73
    16
 74
     0
 42
0.0000001
 43
0.0000000001
 40
0.0
 40
0.0
 40
0.0
 40
0.0
 40
0.125001017
 40
0.2500003733
 40
0.3125042775
 40
0.375008125
 40
0.4375118978
 40
0.5000155789999999
 40
0.5625191234
 40
0.6250223358
 40
0.7500018782
 40
0.8125026371999998
 40
0.8750025952999999
 40
0.9375016894999999
 40
1.0
 40
1.0
 40
1.0
 40
1.0
 10
58.15943035850001
 20
64.9708053679
 30
0.0
 10
57.0899792374
 20
64.9708053679
 30
0.0
 10
54.95080698899999
 20
65.0146860342
 30
0.0
 10
52.28180995409999
 20
65.1890133174
 30
0.0
 10
50.1537616523
 20
65.40660128369999
 30
0.0
 10
48.5623579314
 20
65.61082075520001
 30
0.0
 10
46.977082311
 20
65.8582681768
 30
0.0
 10
45.3996250402
 20
66.1515464504
 30
0.0
 10
43.83197358159999
 20
66.493752583
 30
0.0
 10
41.7586787016
 20
67.01994796130001
 30
0.0
 10
39.7149554609
 20
67.65948955999999
 30
0.0
 10
37.7187093183
 20
68.42869189419999
 30
0.0
 10
36.2497146244
 20
69.07485430369999
 30
0.0
 10
34.81540092719999
 20
69.794749447
 30
0.0
 10
33.8874392686
 20
70.32784443119999
 30
0.0
 10
33.43249361170001
 20
70.6087995236
 30
0.0
  0
LINE
  5
17CB
330
21D
100
AcDbEntity
  8
0
  6
Continuous
 62
     7
100
AcDbLine
 10
33.43249361170001
 20
70.6087995236
 30
0.0
 11
33.4284730548
 21
70.61128784350001
 31
0.0
  0
LINE
  5
17CC
330
21D
100
AcDbEntity
  8
0
  6
Continuous
 62
     7
100
AcDbLine
 10
33.4284730548
 20
70.61128784350001
 30
0.0
 11
33.4244535713
 21
70.61377915109999
 31
0.0
  0
LINE
  5
17CD
330
21D
100
AcDbEntity
  8
0
  6
Continuous
 62
     7
100
AcDbLine
 10
33.4244535713
 20
70.61377915109999
 30
0.0
 11
33.4204317027
 21
70.6162678651
 31
0.0
  0
LINE
  5
17CE
330
21D
100
AcDbEntity
  8
0
  6
Continuous
 62
     7
100
AcDbLine
 10
33.4204317027
 20
70.6162678651
 30
0.0
 11
33.4164090203
 21
70.6187565228
 31
0.0
  0
LINE
  5
17CF
330
21D
100
AcDbEntity
  8
0
  6
Continuous
 62
     7
100
AcDbLine
 10
33.4164090203
 20
97.27877246770001
 30
0.0
 11
33.4204317027
 21
97.28126112540001
 31
0.0
  0
LINE
  5
17D0
330
21D
100
AcDbEntity
  8
0
  6
Continuous
 62
     7
100
AcDbLine
 10
33.4204317027
 20
97.28126112540001
 30
0.0
 11
33.4284730548
 21
97.28624114700002
 31
0.0
  0
LINE
  5
17D1
330
21D
100
AcDbEntity
  8
0
  6
Continuous
 62
     7
100
AcDbLine
 10
33.4284730548
 20
97.28624114700002
 30
0.0
 11
33.43249361170001
 21
97.28872946690001
 31
0.0
  0
LINE
  5
17D2
330
21D
100
AcDbEntity
  8
0
  6
Continuous
 62
     7
100
AcDbLine
 10
82.90245169669999
 20
70.6187565228
 30
0.0
 11
82.89842901430001
 21
70.6162678651
 31
0.0
  0
LINE
  5
17D3
330
21D
100
AcDbEntity
  8
0
  6
Continuous
 62
     7
100
AcDbLine
 10
82.89842901430001
 20
70.6162678651
 30
0.0
 11
82.8903876622
 21
70.61128784350001
 31
0.0
  0
LINE
  5
17D4
330
21D
100
AcDbEntity
  8
0
  6
Continuous
 62
     7
100
AcDbLine
 10
82.8903876622
 20
70.61128784350001
 30
0.0
 11
82.8863671052
 21
70.6087995236
 31
0.0
  0
SPLINE
  5
17D5
330
21D
100
AcDbEntity
  8
0
  6
Continuous
 62
     7
100
AcDbSpline
210
0.0
220
0.0
230
1.0
 70
     8
 71
     3
 72
    20
 73
    16
 74
     0
 42
0.0000001
 43
0.0000000001
 40
0.0
 40
0.0
 40
0.0
 40
0.0
 40
0.125001017
 40
0.2500003733
 40
0.3125042775
 40
0.375008125
 40
0.4375118978
 40
0.5000155789999999
 40
0.5625191234
 40
0.6250223358
 40
0.7500018782
 40
0.8125026371999998
 40
0.8750025952999999
 40
0.9375016894999999
 40
1.0
 40
1.0
 40
1.0
 40
1.0
 10
58.15943035850001
 20
102.9267236227
 30
0.0
 10
59.2288814796
 20
102.9267236227
 30
0.0
 10
61.3680537279
 20
102.8828429563
 30
0.0
 10
64.03705076289999
 20
102.7085156731
 30
0.0
 10
66.1650990646
 20
102.4909277069
 30
0.0
 10
67.7565027855
 20
102.2867082354
 30
0.0
 10
69.341778406
 20
102.0392608138
 30
0.0
 10
70.9192356768
 20
101.7459825402
 30
0.0
 10
72.48688713529999
 20
101.4037764076
 30
0.0
 10
74.5601820153
 20
100.8775810293
 30
0.0
 10
76.60390525609999
 20
100.2380394305
 30
0.0
 10
78.60015139869999
 20
99.4688370963
 30
0.0
 10
80.06914609250001
 20
98.8226746868
 30
0.0
 10
81.50345978969999
 20
98.1027795435
 30
0.0
 10
82.4314214484
 20
97.5696845593
 30
0.0
 10
82.8863671052
 20
97.28872946690001
 30
0.0
  0
LINE
  5
17D6
330
21D
100
AcDbEntity
  8
0
  6
Continuous
 62
     7
100
AcDbLine
 10
82.8863671052
 20
97.28872946690001
 30
0.0
 11
82.8903876622
 21
97.28624114700002
 31
0.0
  0
LINE
  5
17D7
330
21D
100
AcDbEntity
  8
0
  6
Continuous
 62
     7
100
AcDbLine
 10
82.8903876622
 20
97.28624114700002
 30
0.0
 11
82.89440714559999
 21
97.28374983950001
 31
0.0
  0
LINE
  5
17D8
330
21D
100
AcDbEntity
  8
0
  6
Continuous
 62
     7
100
AcDbLine
 10
82.89440714559999
 20
97.28374983950001
 30
0.0
 11
82.89842901430001
 21
97.28126112540001
 31
0.0
  0
LINE
  5
17D9
330
21D
100
AcDbEntity
  8
0
  6
Continuous
 62
     7
100
AcDbLine
 10
82.89842901430001
 20
97.28126112540001
 30
0.0
 11
82.90245169669999
 21
97.27877246770001
 31
0.0
  0
SPLINE
  5
17DA
330
21D
100
AcDbEntity
  8
0
  6
Continuous
 62
     9
100
AcDbSpline
210
0.0
220
0.0
230
1.0
 70
     8
 71
     3
 72
    27
 73
    23
 74
     0
 42
0.0000001
 43
0.0000000001
 40
0.0
 40
0.0
 40
0.0
 40
0.0
 40
0.0624984537
 40
0.1249954799
 40
0.1874918893
 40
0.2499878023
 40
0.3124836555
 40
0.3749798225
 40
0.43747662
 40
0.4999742743000001
 40
0.5624729727000001
 40
0.6249727425
 40
0.6874736315000001
 40
0.7499755046
 40
0.7812295291
 40
0.8124832708999999
 40
0.8437367105999999
 40
0.8749897693999999
 40
0.9062425739
 40
0.9374951508
 40
0.9687475945
 40
1.0
 40
1.0
 40
1.0
 40
1.0
 10
91.0512905708
 20
83.9487644953
 30
0.0
 10
91.05129034069999
 20
84.28881340830001
 30
0.0
 10
91.02859461889998
 20
84.96914488649998
 30
0.0
 10
90.9235580732
 20
85.98467940459999
 30
0.0
 10
90.74526512330001
 20
86.99003843379999
 30
0.0
 10
90.49261205399998
 20
87.9793536576
 30
0.0
 10
90.1660781087
 20
88.94681059799999
 30
0.0
 10
89.76785078379998
 20
89.8870099374
 30
0.0
 10
89.30136363149999
 20
90.79524030100001
 30
0.0
 10
88.7710056128
 20
91.66765993910001
 30
0.0
 10
88.18192390410001
 20
92.5014799973
 30
0.0
 10
87.5396256377
 20
93.2949577035
 30
0.0
 10
86.84965164719999
 20
94.0472427599
 30
0.0
 10
86.23937693530001
 20
94.63985083209999
 30
0.0
 10
85.7325567776
 20
95.09355349519999
 30
0.0
 10
85.34361872060001
 20
95.4237629562
 30
0.0
 10
84.94647809659999
 20
95.74403813169999
 30
0.0
 10
84.54169259110001
 20
96.05458078579999
 30
0.0
 10
84.129811259
 20
96.35563681169999
 30
0.0
 10
83.7110742916
 20
96.64707476190001
 30
0.0
 10
83.28610407959999
 20
96.9293216542
 30
0.0
 10
82.99902665860001
 20
97.11170863040001
 30
0.0
 10
82.85443257489999
 20
97.20118906499999
 30
0.0
  0
SPLINE
  5
17DB
330
21D
100
AcDbEntity
  8
0
  6
Continuous
 62
     9
100
AcDbSpline
210
0.0
220
0.0
230
1.0
 70
     8
 71
     3
 72
    27
 73
    23
 74
     0
 42
0.0000001
 43
0.0000000001
 40
0.0
 40
0.0
 40
0.0
 40
0.0
 40
0.031253222
 40
0.0625077046
 40
0.0937614329
 40
0.1250149124
 40
0.1562687539
 40
0.1875225753
 40
0.2187761855
 40
0.2500298791
 40
0.3125310649
 40
0.3750312354
 40
0.4375303543
 40
0.5000284042000001
 40
0.5625254795
 40
0.6250217194
 40
0.6875174059999999
 40
0.7500128294000001
 40
0.8125083979000001
 40
0.8750045327
 40
0.9375015615
 40
1.0
 40
1.0
 40
1.0
 40
1.0
 10
82.85443257489999
 20
70.6963399256
 30
0.0
 10
82.9990174209
 20
70.7858437393
 30
0.0
 10
83.28621916999999
 20
70.9680645011
 30
0.0
 10
83.7110626667
 20
71.250545492
 30
0.0
 10
84.1298195547
 20
71.5419862385
 30
0.0
 10
84.5417979656
 20
71.8429355371
 30
0.0
 10
84.94653623259999
 20
72.15355739759999
 30
0.0
 10
85.34368519430001
 20
72.47382982479999
 30
0.0
 10
85.7326293971
 20
72.8040319083
 30
0.0
 10
86.23943669319999
 20
73.2577395868
 30
0.0
 10
86.8497054674
 20
73.8503399747
 30
0.0
 10
87.539668
 20
74.6026206316
 30
0.0
 10
88.1819560375
 20
75.39609240449999
 30
0.0
 10
88.77103013120001
 20
76.2299054157
 30
0.0
 10
89.30137943970001
 20
77.1023189858
 30
0.0
 10
89.7678620792
 20
78.01054178539999
 30
0.0
 10
90.1660838423
 20
78.9507348697
 30
0.0
 10
90.4926148941
 20
79.91818556439999
 30
0.0
 10
90.745266225
 20
80.9074953884
 30
0.0
 10
90.9235582206
 20
81.91285121129999
 30
0.0
 10
91.02859457660001
 20
82.9283842144
 30
0.0
 10
91.05129034030001
 20
83.60871565069999
 30
0.0
 10
91.0512905708
 20
83.9487644953
 30
0.0
  0
LINE
  5
17DC
330
21D
100
AcDbEntity
  8
0
  6
Continuous
 62
     9
100
AcDbLine
 10
82.83831913310001
 20
70.6863661581
 30
0.0
 11
82.85443257489999
 21
70.6963399256
 31
0.0
  0
SPLINE
  5
17DD
330
21D
100
AcDbEntity
  8
0
  6
Continuous
 62
     9
100
AcDbSpline
210
0.0
220
0.0
230
1.0
 70
     8
 71
     3
 72
    14
 73
    10
 74
     0
 42
0.0000001
 43
0.0000000001
 40
0.0
 40
0.0
 40
0.0
 40
0.0
 40
0.1350158154
 40
0.2647430546
 40
0.387022441
 40
0.5046523728
 40
0.6215688228000001
 40
0.7418318745
 40
1.0
 40
1.0
 40
1.0
 40
1.0
 10
55.9039501938
 20
98.88264454040001
 30
0.0
 10
55.9072112091
 20
98.87628708950002
 30
0.0
 10
55.9136461988
 20
98.8638420858
 30
0.0
 10
55.92342141140001
 20
98.84583988820001
 30
0.0
 10
55.93342427319999
 20
98.8290249509
 30
0.0
 10
55.9434774739
 20
98.81303987649999
 30
0.0
 10
55.9535412688
 20
98.7971884349
 30
0.0
 10
55.96717821689999
 20
98.7747959124
 30
0.0
 10
55.97667058229999
 20
98.75714938839999
 30
0.0
 10
55.98306932109999
 20
98.7450782299
 30
0.0
  0
SPLINE
  5
17DE
330
21D
100
AcDbEntity
  8
0
  6
Continuous
 62
     9
100
AcDbSpline
210
0.0
220
0.0
230
1.0
 70
     8
 71
     3
 72
    14
 73
    10
 74
     0
 42
0.0000001
 43
0.0000000001
 40
0.0
 40
0.0
 40
0.0
 40
0.0
 40
0.1350160314
 40
0.2647434678
 40
0.3870229114
 40
0.5046527744000001
 40
0.6215690787
 40
0.7418319824
 40
1.0
 40
1.0
 40
1.0
 40
1.0
 10
60.4149105229
 20
98.8826445393
 30
0.0
 10
60.4116495064
 20
98.87628707600001
 30
0.0
 10
60.405214518
 20
98.863842047
 30
0.0
 10
60.3954393108
 20
98.84583981790001
 30
0.0
 10
60.3854364488
 20
98.82902486889999
 30
0.0
 10
60.3753832462
 20
98.81303980540002
 30
0.0
 10
60.3653194477
 20
98.7971883886
 30
0.0
 10
60.35168249249999
 20
98.774795895
 30
0.0
 10
60.3421901317
 20
98.7571493835
 30
0.0
 10
60.3357913955
 20
98.7450782299
 30
0.0
  0
SPLINE
  5
17DF
330
21D
100
AcDbEntity
  8
0
  6
Continuous
 62
     9
100
AcDbSpline
210
0.0
220
0.0
230
1.0
 70
     8
 71
     3
 72
    14
 73
    10
 74
     0
 42
0.0000001
 43
0.0000000001
 40
0.0
 40
0.0
 40
0.0
 40
0.0
 40
0.1249999411
 40
0.2499998189
 40
0.3749997968
 40
0.4999999035
 40
0.6250001159
 40
0.7500003961
 40
1.0
 40
1.0
 40
1.0
 40
1.0
 10
68.13047893220001
 20
98.70199129180001
 30
0.0
 10
67.7159787737
 20
98.7345417505
 30
0.0
 10
66.88645215200001
 20
98.7930783654
 30
0.0
 10
65.6410749133
 20
98.86342514170001
 30
0.0
 10
64.3949201147
 20
98.91821079370002
 30
0.0
 10
63.14824956489999
 20
98.95940679469999
 30
0.0
 10
61.90125389489999
 20
98.98902622640001
 30
0.0
 10
60.2383366138
 20
99.014995501
 30
0.0
 10
58.99098198949999
 20
99.0211964769
 30
0.0
 10
58.15943035850001
 20
99.02119648530002
 30
0.0
  0
SPLINE
  5
17E0
330
21D
100
AcDbEntity
  8
0
  6
Continuous
 62
     9
100
AcDbSpline
210
0.0
220
0.0
230
1.0
 70
     8
 71
     3
 72
    37
 73
    33
 74
     0
 42
0.0000001
 43
0.0000000001
 40
0.0
 40
0.0
 40
0.0
 40
0.0
 40
0.0625003496
 40
0.1250014729
 40
0.1875023318
 40
0.2500027314
 40
0.3125028114
 40
0.375002673
 40
0.4375004612
 40
0.4999947168000001
 40
0.5624819387
 40
0.5937345982
 40
0.6249869905
 40
0.656237826
 40
0.6718659327
 40
0.6874936331
 40
0.7031215330000001
 40
0.7187485306000001
 40
0.7343749399
 40
0.7500014306999999
 40
0.7656269851000001
 40
0.7812519445000001
 40
0.7968766518000001
 40
0.8125025950999999
 40
0.8281291191999999
 40
0.8437555770999999
 40
0.8593819043999999
 40
0.8750081659000001
 40
0.9062560662
 40
0.9375038968000001
 40
0.9687516491
 40
1.0
 40
1.0
 40
1.0
 40
1.0
 10
68.1594340962
 20
68.82787539029999
 30
0.0
 10
68.78706333
 20
68.87730122810001
 30
0.0
 10
70.0412646115
 20
68.99049751300001
 30
0.0
 10
71.91748108029999
 20
69.2095887348
 30
0.0
 10
73.7864598157
 20
69.4842249757
 30
0.0
 10
75.64503764939999
 20
69.8226860333
 30
0.0
 10
77.48878858319999
 20
70.23503076189999
 30
0.0
 10
79.31123624899999
 20
70.7339483807
 30
0.0
 10
81.1028029706
 20
71.3355532698
 30
0.0
 10
82.8486694348
 20
72.0600613592
 30
0.0
 10
84.24722963859998
 20
72.78784509739999
 30
0.0
 10
85.3131163251
 20
73.4592503323
 30
0.0
 10
86.07997579879999
 20
74.0116138364
 30
0.0
 10
86.68541029549999
 20
74.51572324949999
 30
0.0
 10
87.14474886579999
 20
74.9465802007
 30
0.0
 10
87.47563496519999
 20
75.2837533871
 30
0.0
 10
87.7915559718
 20
75.6349848517
 30
0.0
 10
88.09112707709999
 20
76.00026539969999
 30
0.0
 10
88.37314793670001
 20
76.37924745550001
 30
0.0
 10
88.63702303009999
 20
76.7710610584
 30
0.0
 10
88.8820606001
 20
77.17491359590001
 30
0.0
 10
89.10848135049999
 20
77.58940072189999
 30
0.0
 10
89.3212580926
 20
78.0110051259
 30
0.0
 10
89.5202461
 20
78.4393317735
 30
0.0
 10
89.7037987751
 20
78.87452743919999
 30
0.0
 10
89.87147638729998
 20
79.3160819502
 30
0.0
 10
90.02334127610001
 20
79.76332323200001
 30
0.0
 10
90.20441199350001
 20
80.36641115489999
 30
0.0
 10
90.39009751
 20
81.13187403659999
 30
0.0
 10
90.54698432059998
 20
82.06381734750001
 30
0.0
 10
90.6393479369
 20
83.00426631550001
 30
0.0
 10
90.65958501430001
 20
83.63399672079999
 30
0.0
 10
90.65942886309999
 20
83.94876449459999
 30
0.0
  0
SPLINE
  5
17E1
330
21D
100
AcDbEntity
  8
0
  6
Continuous
 62
     9
100
AcDbSpline
210
0.0
220
0.0
230
1.0
 70
     8
 71
     3
 72
    29
 73
    25
 74
     0
 42
0.0000001
 43
0.0000000001
 40
0.0
 40
0.0
 40
0.0
 40
0.0
 40
0.0624165287
 40
0.1248694803
 40
0.1561067225
 40
0.1873331252
 40
0.2185353494
 40
0.2497040837
 40
0.2808302651
 40
0.3119088273
 40
0.3429402582
 40
0.3739287021
 40
0.4048801373
 40
0.4358124912
 40
0.4667443897
 40
0.4976896151
 40
0.5596189843000001
 40
0.6217231670000001
 40
0.6840747689
 40
0.7467126849
 40
0.8096542754999999
 40
0.8728838083999999
 40
0.9363560075
 40
1.0
 40
1.0
 40
1.0
 40
1.0
 10
87.03328307280001
 20
83.9487644953
 30
0.0
 10
87.03328307280001
 20
83.3863450091
 30
0.0
 10
86.99336312040001
 20
82.26059151060001
 30
0.0
 10
86.81509457409999
 20
80.862529264
 30
0.0
 10
86.5773943097
 20
79.76168117189999
 30
0.0
 10
86.34739031329999
 20
78.94897920359999
 30
0.0
 10
86.0623714109
 20
78.15446456850001
 30
0.0
 10
85.72019025729998
 20
77.3837297887
 30
0.0
 10
85.32021407790001
 20
76.642541139
 30
0.0
 10
84.86369193059999
 20
75.93622379740001
 30
0.0
 10
84.353490856
 20
75.26922923749999
 30
0.0
 10
83.793824362
 20
74.6447693634
 30
0.0
 10
83.1898435013
 20
74.06446051340001
 30
0.0
 10
82.546911594
 20
73.5285661986
 30
0.0
 10
81.8702462631
 20
73.03618187939999
 30
0.0
 10
80.9297254257
 20
72.43517659529999
 30
0.0
 10
79.6923144427
 20
71.7821684806
 30
0.0
 10
78.1398455292
 20
71.13677496760001
 30
0.0
 10
76.5376640849
 20
70.6080112021
 30
0.0
 10
74.89883051470001
 20
70.1780664506
 30
0.0
 10
73.23242037209999
 20
69.8320866325
 30
0.0
 10
71.54525433339999
 20
69.5579967895
 30
0.0
 10
69.8429581586
 20
69.34570612109999
 30
0.0
 10
68.70219898080001
 20
69.2404367406
 30
0.0
 10
68.1304794527
 20
69.1955377408
 30
0.0
  0
SPLINE
  5
17E2
330
21D
100
AcDbEntity
  8
0
  6
Continuous
 62
     9
100
AcDbSpline
210
0.0
220
0.0
230
1.0
 70
     8
 71
     3
 72
    14
 73
    10
 74
     0
 42
0.0000001
 43
0.0000000001
 40
0.0
 40
0.0
 40
0.0
 40
0.0
 40
0.1249999411
 40
0.2499998189
 40
0.3749997968
 40
0.4999999035
 40
0.6250001159
 40
0.7500003961
 40
1.0
 40
1.0
 40
1.0
 40
1.0
 10
68.13047893220001
 20
69.19553769869999
 30
0.0
 10
67.7159787737
 20
69.16298724010001
 30
0.0
 10
66.88645215200001
 20
69.1044506252
 30
0.0
 10
65.6410749133
 20
69.0341038489
 30
0.0
 10
64.3949201147
 20
68.97931819680001
 30
0.0
 10
63.14824956489999
 20
68.9381221958
 30
0.0
 10
61.90125389489999
 20
68.9085027642
 30
0.0
 10
60.2383366138
 20
68.88253348949999
 30
0.0
 10
58.99098198949999
 20
68.87633251369999
 30
0.0
 10
58.15943035850001
 20
68.87633250520001
 30
0.0
  0
SPLINE
  5
17E3
330
21D
100
AcDbEntity
  8
0
  6
Continuous
 62
     9
100
AcDbSpline
210
0.0
220
0.0
230
1.0
 70
     8
 71
     3
 72
    41
 73
    37
 74
     0
 42
0.0000001
 43
0.0000000001
 40
0.0
 40
0.0
 40
0.0
 40
0.0
 40
0.0083835629
 40
0.0167919322
 40
0.0252264339
 40
0.0294536677
 40
0.0336865191
 40
0.0379259489
 40
0.0421696031
 40
0.0464475962
 40
0.0511511871
 40
0.0565553435
 40
0.062754235
 40
0.0698020217
 40
0.0777657871
 40
0.0866425941
 40
0.0964398043
 40
0.1188174918
 40
0.144671473
 40
0.1738411669
 40
0.2060524498
 40
0.240983904
 40
0.2782722005
 40
0.3175339721
 40
0.3583296901
 40
0.4002778575
 40
0.4428931798
 40
0.4857399812
 40
0.5071674095000001
 40
0.5285949167
 40
0.5714499066
 40
0.6143049054000001
 40
0.6571599093
 40
0.7428699244
 40
0.8285799533
 40
1.0
 40
1.0
 40
1.0
 40
1.0
 10
60.9633426676
 20
98.71812823639999
 30
0.0
 10
60.9597134398
 20
98.71084714170001
 30
0.0
 10
60.9524555696
 20
98.6962577657
 30
0.0
 10
60.94159021189999
 20
98.67432127010001
 30
0.0
 10
60.9325375202
 20
98.6559880597
 30
0.0
 10
60.92528942729999
 20
98.64128248750001
 30
0.0
 10
60.9198524246
 20
98.630223606
 30
0.0
 10
60.9144310062
 20
98.61913646030002
 30
0.0
 10
60.9089299637
 20
98.60805035650001
 30
0.0
 10
60.9035819931
 20
98.5963460227
 30
0.0
 10
60.8951525424
 20
98.5850807073
 30
0.0
 10
60.883607664
 20
98.57418722530001
 30
0.0
 10
60.8689880641
 20
98.56345870230001
 30
0.0
 10
60.8513015862
 20
98.5528828432
 30
0.0
 10
60.8305169912
 20
98.54257613520001
 30
0.0
 10
60.8067128441
 20
98.53246888459999
 30
0.0
 10
60.76930986589999
 20
98.51871787120002
 30
0.0
 10
60.7152553379
 20
98.5027481638
 30
0.0
 10
60.642132957
 20
98.48547238450002
 30
0.0
 10
60.558919631
 20
98.46978768680001
 30
0.0
 10
60.46649673760001
 20
98.4557831531
 30
0.0
 10
60.3658706374
 20
98.44365810520001
 30
0.0
 10
60.2581537713
 20
98.4335158526
 30
0.0
 10
60.14455266249999
 20
98.4255229599
 30
0.0
 10
60.02629550089999
 20
98.4196338898
 30
0.0
 10
59.90468814789999
 20
98.41616562600002
 30
0.0
 10
59.78104636979999
 20
98.41489123190001
 30
0.0
 10
59.67732247529999
 20
98.4159168248
 30
0.0
 10
59.5941597764
 20
98.4165496982
 30
0.0
 10
59.5109885706
 20
98.4171623948
 30
0.0
 10
59.40702424899999
 20
98.41787773620001
 30
0.0
 10
59.2822664106
 20
98.4186447931
 30
0.0
 10
59.1159219704
 20
98.41955491780002
 30
0.0
 10
58.90799025729999
 20
98.42047689299999
 30
0.0
 10
58.5752979032
 20
98.4215119175
 30
0.0
 10
58.32577731069999
 20
98.42181220309999
 30
0.0
 10
58.15943035850001
 20
98.42181188899999
 30
0.0
  0
SPLINE
  5
17E4
330
21D
100
AcDbEntity
  8
0
  6
Continuous
 62
     9
100
AcDbSpline
210
0.0
220
0.0
230
1.0
 70
     8
 71
     3
 72
    24
 73
    20
 74
     0
 42
0.0000001
 43
0.0000000001
 40
0.0
 40
0.0
 40
0.0
 40
0.0
 40
0.1440231846
 40
0.2687194469
 40
0.3732117889
 40
0.4175650709000001
 40
0.456384683
 40
0.5188920578000001
 40
0.5446131365
 40
0.5680006096
 40
0.6113372579
 40
0.6538972519000001
 40
0.6971239675000001
 40
0.740529688
 40
0.7837186194
 40
0.8269663454999999
 40
0.8702384112
 40
0.9134908774999999
 40
1.0
 40
1.0
 40
1.0
 40
1.0
 10
60.15069422879999
 20
98.59214856720001
 30
0.0
 10
60.1628659386
 20
98.59451493290002
 30
0.0
 10
60.18549974999999
 20
98.59935325910001
 30
0.0
 10
60.21654849529999
 20
98.60768022430001
 30
0.0
 10
60.23885987109999
 20
98.61531820419999
 30
0.0
 10
60.2536727522
 20
98.62180600489999
 30
0.0
 10
60.26476622749999
 20
98.62766111719999
 30
0.0
 10
60.2737471327
 20
98.63410918520001
 30
0.0
 10
60.2802693764
 20
98.64120091309999
 30
0.0
 10
60.28488584189999
 20
98.64771087260001
 30
0.0
 10
60.2890733342
 20
98.656165541
 30
0.0
 10
60.29383958729999
 20
98.66620220440001
 30
0.0
 10
60.299116303
 20
98.67599914590002
 30
0.0
 10
60.30445157119999
 20
98.68581927260001
 30
0.0
 10
60.3096148488
 20
98.69573486020001
 30
0.0
 10
60.3148556237
 20
98.70559583690001
 30
0.0
 10
60.3200979353
 20
98.7154623197
 30
0.0
 10
60.32706944800001
 20
98.728627646
 30
0.0
 10
60.3323033962
 20
98.7384975025
 30
0.0
 10
60.3357913954
 20
98.7450782299
 30
0.0
  0
SPLINE
  5
17E5
330
21D
100
AcDbEntity
  8
0
  6
Continuous
 62
     9
100
AcDbSpline
210
0.0
220
0.0
230
1.0
 70
     8
 71
     3
 72
    24
 73
    20
 74
     0
 42
0.0000001
 43
0.0000000001
 40
0.0
 40
0.0
 40
0.0
 40
0.0
 40
0.0865091564
 40
0.1297616314
 40
0.173033768
 40
0.2162814443
 40
0.2594703464
 40
0.302876378
 40
0.3461029851
 40
0.3886624890999999
 40
0.4319997248
 40
0.4553869865
 40
0.481108059
 40
0.5436169088
 40
0.5824356827
 40
0.6267886536000001
 40
0.7312805185000001
 40
0.8559761548999999
 40
1.0
 40
1.0
 40
1.0
 40
1.0
 10
55.98306932149999
 20
98.7450782299
 30
0.0
 10
55.9865573229
 20
98.7384975035
 30
0.0
 10
55.9917912758
 20
98.72862764989999
 30
0.0
 10
55.99876276609999
 20
98.71546230680001
 30
0.0
 10
56.004005126
 20
98.70559585129999
 30
0.0
 10
56.0092458592
 20
98.6957348582
 30
0.0
 10
56.0144090696
 20
98.68581921629999
 30
0.0
 10
56.0197445527
 20
98.6759991941
 30
0.0
 10
56.0250212521
 20
98.6662022722
 30
0.0
 10
56.0297869739
 20
98.65616534770001
 30
0.0
 10
56.03397499919999
 20
98.64771098209999
 30
0.0
 10
56.03859127979999
 20
98.6412008741
 30
0.0
 10
56.0451136099
 20
98.63410904870001
 30
0.0
 10
56.05409482069999
 20
98.6276613407
 30
0.0
 10
56.06518814720001
 20
98.62180592520001
 30
0.0
 10
56.0800009235
 20
98.6153182189
 30
0.0
 10
56.1023121377
 20
98.60768020569999
 30
0.0
 10
56.1333608228
 20
98.59935318200001
 30
0.0
 10
56.1559946401
 20
98.59451490899999
 30
0.0
 10
56.1681664068
 20
98.5921485619
 30
0.0
  0
SPLINE
  5
17E6
330
21D
100
AcDbEntity
  8
0
  6
Continuous
 62
     9
100
AcDbSpline
210
0.0
220
0.0
230
1.0
 70
     8
 71
     3
 72
    41
 73
    37
 74
     0
 42
0.0000001
 43
0.0000000001
 40
0.0
 40
0.0
 40
0.0
 40
0.0
 40
0.1714190358
 40
0.2571285592
 40
0.3428380688
 40
0.38569282
 40
0.4285475664
 40
0.4714023040999999
 40
0.4928296822
 40
0.5142569997999999
 40
0.5571036998
 40
0.5997189616
 40
0.6416599649000001
 40
0.6824723369
 40
0.7217182046
 40
0.7590151031999999
 40
0.7939440385
 40
0.8261532515999999
 40
0.8553246943999999
 40
0.8811978529000001
 40
0.9035289104
 40
0.9133481444
 40
0.9222392632
 40
0.9301959940999999
 40
0.9372467259999998
 40
0.9434461901
 40
0.9488466669999999
 40
0.9535506020999999
 40
0.9578414387
 40
0.9620711843
 40
0.9663131211999999
 40
0.9705461402999999
 40
0.9747720059
 40
0.9832065665
 40
0.9916163070999999
 40
1.0
 40
1.0
 40
1.0
 40
1.0
 10
58.15943035850001
 20
98.42181188899999
 30
0.0
 10
57.993084296
 20
98.42181219890001
 30
0.0
 10
57.74356503799999
 20
98.4215123723
 30
0.0
 10
57.41087446279999
 20
98.4204772408
 30
0.0
 10
57.2029438672
 20
98.4195543497
 30
0.0
 10
57.0366003091
 20
98.41864540120001
 30
0.0
 10
56.9118431473
 20
98.4178769308
 30
0.0
 10
56.80787936579999
 20
98.41716372270001
 30
0.0
 10
56.72470861949999
 20
98.41654801190001
 30
0.0
 10
56.6415461526
 20
98.41591930969999
 30
0.0
 10
56.5378226261
 20
98.4148939544
 30
0.0
 10
56.4141873321
 20
98.41615314649999
 30
0.0
 10
56.2925726468
 20
98.4196699525
 30
0.0
 10
56.1743177861
 20
98.4254848698
 30
0.0
 10
56.060711715
 20
98.43353901350001
 30
0.0
 10
55.95300111930001
 20
98.4436446974
 30
0.0
 10
55.8523731588
 20
98.455786509
 30
0.0
 10
55.7599505441
 20
98.4697810333
 30
0.0
 10
55.67672694979999
 20
98.48549685520001
 30
0.0
 10
55.6036038884
 20
98.50267734959999
 30
0.0
 10
55.5495947634
 20
98.51877660040001
 30
0.0
 10
55.5121820683
 20
98.53246717959999
 30
0.0
 10
55.48833745399999
 20
98.54255569260001
 30
0.0
 10
55.4675582725
 20
98.5528948307
 30
0.0
 10
55.4498665359
 20
98.56345517379999
 30
0.0
 10
55.4352474841
 20
98.57418217719999
 30
0.0
 10
55.4237040842
 20
98.5850816567
 30
0.0
 10
55.4153147177
 20
98.5963752908
 30
0.0
 10
55.4098034165
 20
98.60799723459999
 30
0.0
 10
55.4044813955
 20
98.61917226760001
 30
0.0
 10
55.3989943216
 20
98.6302151767
 30
0.0
 10
55.39357086189999
 20
98.64128208650001
 30
0.0
 10
55.38633336850001
 20
98.655991671
 30
0.0
 10
55.37727805180001
 20
98.67432366830001
 30
0.0
 10
55.3664000655
 20
98.69625560819999
 30
0.0
 10
55.3591424352
 20
98.71084673570001
 30
0.0
 10
55.3555135973
 20
98.7181281706
 30
0.0
  0
SPLINE
  5
17E7
330
21D
100
AcDbEntity
  8
0
  6
Continuous
 62
     9
100
AcDbSpline
210
0.0
220
0.0
230
1.0
 70
     8
 71
     3
 72
    21
 73
    17
 74
     0
 42
0.0000001
 43
0.0000000001
 40
0.0
 40
0.0
 40
0.0
 40
0.0
 40
0.0625200956
 40
0.1250389488
 40
0.1875578854
 40
0.2500765948
 40
0.3125953227
 40
0.3751140614
 40
0.5000005457
 40
0.6248872729000001
 40
0.6874060154000001
 40
0.7499247476000001
 40
0.8124434847999999
 40
0.8749623242
 40
0.9374804342
 40
1.0
 40
1.0
 40
1.0
 40
1.0
 10
58.15943035850001
 20
85.7541303031
 30
0.0
 10
58.2184937509
 20
85.75413016170001
 30
0.0
 10
58.3367012428
 20
85.7483472598
 30
0.0
 10
58.51224840850001
 20
85.72237502430001
 30
0.0
 10
58.6844260055
 20
85.6793340117
 30
0.0
 10
58.8515452581
 20
85.6196182452
 30
0.0
 10
59.0120107155
 20
85.5437790827
 30
0.0
 10
59.2148236984
 20
85.4222756919
 30
0.0
 10
59.44447060699999
 20
85.23384692870001
 30
0.0
 10
59.6328117312
 20
85.00413344109999
 30
0.0
 10
59.7542860527
 20
84.8013043633
 30
0.0
 10
59.83013065379999
 20
84.6408425723
 30
0.0
 10
59.889879692
 20
84.4737361505
 30
0.0
 10
59.93297204770001
 20
84.3015724698
 30
0.0
 10
59.9589954439
 20
84.1260338642
 30
0.0
 10
59.9647960325
 20
84.00782738709999
 30
0.0
 10
59.96479616640001
 20
83.9487644953
 30
0.0
  0
SPLINE
  5
17E8
330
21D
100
AcDbEntity
  8
0
  6
Continuous
 62
     9
100
AcDbSpline
210
0.0
220
0.0
230
1.0
 70
     8
 71
     3
 72
    21
 73
    17
 74
     0
 42
0.0000001
 43
0.0000000001
 40
0.0
 40
0.0
 40
0.0
 40
0.0
 40
0.0625201827
 40
0.1250390189
 40
0.1875579635
 40
0.2500766803
 40
0.3125954012999999
 40
0.3751141311
 40
0.5000008307
 40
0.6248872931000001
 40
0.6874060311
 40
0.7499247643000002
 40
0.8124434951999999
 40
0.8749623273
 40
0.937480445
 40
1.0
 40
1.0
 40
1.0
 40
1.0
 10
59.96479616640001
 20
83.9487644953
 30
0.0
 10
59.9647960205
 20
83.8897010206
 30
0.0
 10
59.9589953303
 20
83.7714932717
 30
0.0
 10
59.9329714233
 20
83.59595334819999
 30
0.0
 10
59.8898785107
 20
83.42378901869999
 30
0.0
 10
59.8301291304
 20
83.25668264319999
 30
0.0
 10
59.7542841376
 20
83.09622108239999
 30
0.0
 10
59.6328093992
 20
82.89339231300001
 30
0.0
 10
59.4444678046
 20
82.6636792899
 30
0.0
 10
59.2148205592
 20
82.47525101470001
 30
0.0
 10
59.01200732140001
 20
82.3537480749
 30
0.0
 10
58.8515416567
 20
82.2779092979
 30
0.0
 10
58.68442236779999
 20
82.21819385649999
 30
0.0
 10
58.5122454313
 20
82.17515338430001
 30
0.0
 10
58.3366995244
 20
82.14918162169999
 30
0.0
 10
58.2184932402
 20
82.1433988172
 30
0.0
 10
58.15943035850001
 20
82.14339868739999
 30
0.0
  0
SPLINE
  5
17E9
330
21D
100
AcDbEntity
  8
0
  6
Continuous
 62
     9
100
AcDbSpline
210
0.0
220
0.0
230
1.0
 70
     8
 71
     3
 72
    44
 73
    40
 74
     0
 42
0.0000001
 43
0.0000000001
 40
0.0
 40
0.0
 40
0.0
 40
0.0
 40
0.0312541995
 40
0.0625069751
 40
0.0937569661
 40
0.1250025228
 40
0.1406293433
 40
0.156255716
 40
0.1718816504
 40
0.1875071861
 40
0.1953209791
 40
0.2031347091
 40
0.2187596824
 40
0.2343844968
 40
0.2500092664
 40
0.2812460017
 40
0.3124870817
 40
0.3437310256
 40
0.3749762954
 40
0.3906009208
 40
0.4062254918
 40
0.4374724654000001
 40
0.4530969210000001
 40
0.4687213540000001
 40
0.4999690984000001
 40
0.5312171440000001
 40
0.5624654592000001
 40
0.5937140869
 40
0.6249630544000001
 40
0.6562124203000001
 40
0.6874622455
 40
0.7187126008
 40
0.7499635559000001
 40
0.7812151909000001
 40
0.8124676052999999
 40
0.8437208790999999
 40
0.8749750811
 40
0.9374859033999999
 40
1.0
 40
1.0
 40
1.0
 40
1.0
 10
77.5581723842
 20
83.9487644953
 30
0.0
 10
77.55817198069999
 20
83.69722414479999
 30
0.0
 10
77.5457299544
 20
83.1940228134
 30
0.0
 10
77.48159729840001
 20
82.4416352685
 30
0.0
 10
77.36297402649999
 20
81.69573504229999
 30
0.0
 10
77.2091254327
 20
81.08493479319999
 30
0.0
 10
77.04739410100001
 20
80.6083923395
 30
0.0
 10
76.90539816499999
 20
80.25858345899999
 30
0.0
 10
76.7417916963
 20
79.91833495219999
 30
0.0
 10
76.58681218640001
 20
79.6444778963
 30
0.0
 10
76.4518549133
 20
79.43216605429999
 30
0.0
 10
76.30959983609999
 20
79.2246782434
 30
0.0
 10
76.11846741009999
 20
78.97471793859999
 30
0.0
 10
75.86914021310001
 20
78.69121477010001
 30
0.0
 10
75.51275739399999
 20
78.33595065219999
 30
0.0
 10
75.0269791754
 20
77.93458326609999
 30
0.0
 10
74.39729267869999
 20
77.5173401334
 30
0.0
 10
73.7341670229
 20
77.1560998962
 30
0.0
 10
73.16153981159999
 20
76.8954899649
 30
0.0
 10
72.69492479250001
 20
76.70761646249999
 30
0.0
 10
72.22343100829999
 20
76.5322968813
 30
0.0
 10
71.74560314379999
 20
76.37456446609999
 30
0.0
 10
71.2632482554
 20
76.2319348419
 30
0.0
 10
70.77823807060001
 20
76.0985598588
 30
0.0
 10
70.16762952749999
 20
75.94817025800001
 30
0.0
 10
69.42974913189999
 20
75.79034448859999
 30
0.0
 10
68.68791988789999
 20
75.65232458289999
 30
0.0
 10
67.94305083960001
 20
75.53185813669999
 30
0.0
 10
67.19584811619999
 20
75.4268624741
 30
0.0
 10
66.4468183705
 20
75.3358112409
 30
0.0
 10
65.696382337
 20
75.25715519489999
 30
0.0
 10
64.9448486456
 20
75.18971366489999
 30
0.0
 10
64.19247490770001
 20
75.1322682175
 30
0.0
 10
63.4394406397
 20
75.0840370485
 30
0.0
 10
62.68589742109999
 20
75.0442492352
 30
0.0
 10
61.9319695186
 20
75.0121430897
 30
0.0
 10
60.9263461025
 20
74.97853387800001
 30
0.0
 10
59.6687974531
 20
74.9522951421
 30
0.0
 10
58.66255691470001
 20
74.9459119763
 30
0.0
 10
58.15943035850001
 20
74.9459115857
 30
0.0
  0
SPLINE
  5
17EA
330
21D
100
AcDbEntity
  8
0
  6
Continuous
 62
     9
100
AcDbSpline
210
0.0
220
0.0
230
1.0
 70
     8
 71
     3
 72
    23
 73
    19
 74
     0
 42
0.0000001
 43
0.0000000001
 40
0.0
 40
0.0
 40
0.0
 40
0.0
 40
0.0625012932
 40
0.1250012338
 40
0.18750129
 40
0.25000112
 40
0.312500968
 40
0.3750008306
 40
0.4375007163000001
 40
0.5000006205
 40
0.5625005555
 40
0.6250005004000001
 40
0.6875004537999999
 40
0.7500003872
 40
0.8125002961999999
 40
0.8750002645999998
 40
0.9374994427999999
 40
1.0
 40
1.0
 40
1.0
 40
1.0
 10
60.13284798749999
 20
83.9487644953
 30
0.0
 10
60.1328477945
 20
83.8842167946
 30
0.0
 10
60.1264980333
 20
83.7550328352
 30
0.0
 10
60.0980102917
 20
83.56319932799999
 30
0.0
 10
60.05084188459999
 20
83.3750675511
 30
0.0
 10
59.98544531069999
 20
83.19247591579999
 30
0.0
 10
59.9024591866
 20
83.0171759771
 30
0.0
 10
59.8026859264
 20
82.8508574209
 30
0.0
 10
59.68709633180001
 20
82.69511546110001
 30
0.0
 10
59.55680721229999
 20
82.55144520989999
 30
0.0
 10
59.41308172390001
 20
82.4212174174
 30
0.0
 10
59.25730244949999
 20
82.3056792937
 30
0.0
 10
59.0909690354
 20
82.20593270989999
 30
0.0
 10
58.9156735392
 20
82.1229395401
 30
0.0
 10
58.7330974696
 20
82.0575022234
 30
0.0
 10
58.5449826624
 20
82.0102709088
 30
0.0
 10
58.35315992119999
 20
81.98171952459999
 30
0.0
 10
58.2239772991
 20
81.9753470384
 30
0.0
 10
58.15943035850001
 20
81.9753468663
 30
0.0
  0
SPLINE
  5
17EB
330
21D
100
AcDbEntity
  8
0
  6
Continuous
 62
     9
100
AcDbSpline
210
0.0
220
0.0
230
1.0
 70
     8
 71
     3
 72
    23
 73
    19
 74
     0
 42
0.0000001
 43
0.0000000001
 40
0.0
 40
0.0
 40
0.0
 40
0.0
 40
0.0625011037
 40
0.1250010211
 40
0.1875010941
 40
0.2500009816
 40
0.312500909
 40
0.3750008632
 40
0.437500819
 40
0.5000007656000001
 40
0.562500685
 40
0.6250005799000001
 40
0.6875004555
 40
0.7500003149
 40
0.8125001643
 40
0.8750001142
 40
0.9374993261
 40
1.0
 40
1.0
 40
1.0
 40
1.0
 10
58.15943035850001
 20
85.92218212430001
 30
0.0
 10
58.2239778635
 20
85.9221819358
 30
0.0
 10
58.3531618162
 20
85.91580934840001
 30
0.0
 10
58.5449859418
 20
85.88725743599999
 30
0.0
 10
58.73310147569999
 20
85.84002553270002
 30
0.0
 10
58.9156774957
 20
85.7745878373
 30
0.0
 10
59.0909727717
 20
85.6915942632
 30
0.0
 10
59.2573059743
 20
85.59184732189999
 30
0.0
 10
59.4130850624
 20
85.4763089038
 30
0.0
 10
59.55681025909999
 20
85.34608072579999
 30
0.0
 10
59.68709905
 20
85.20241013219999
 30
0.0
 10
59.8026883937
 20
85.0466679388
 30
0.0
 10
59.90246129089999
 20
84.88034911939999
 30
0.0
 10
59.9854469934
 20
84.70504893340001
 30
0.0
 10
60.0508431771
 20
84.522457243
 30
0.0
 10
60.0980109761
 20
84.3343261807
 30
0.0
 10
60.1264981581
 20
84.14249412050001
 30
0.0
 10
60.13284781100001
 20
84.01331155639999
 30
0.0
 10
60.13284798749999
 20
83.9487644953
 30
0.0
  0
SPLINE
  5
17EC
330
21D
100
AcDbEntity
  8
0
  6
Continuous
 62
     9
100
AcDbSpline
210
0.0
220
0.0
230
1.0
 70
     8
 71
     3
 72
    44
 73
    40
 74
     0
 42
0.0000001
 43
0.0000000001
 40
0.0
 40
0.0
 40
0.0
 40
0.0
 40
0.062514104
 40
0.125024927
 40
0.1562791318
 40
0.1875324072
 40
0.2187848228
 40
0.2500364589
 40
0.2812874131
 40
0.3125377659
 40
0.3437875885
 40
0.3750369513
 40
0.4062859158000001
 40
0.4375345401
 40
0.4687828516
 40
0.5000308931000001
 40
0.5312786324000001
 40
0.5469030631000001
 40
0.5625275164
 40
0.5937744839
 40
0.6093990519
 40
0.6250236768000001
 40
0.6562689514
 40
0.6875128990000001
 40
0.7187539531000001
 40
0.7499906836
 40
0.7656154497
 40
0.7812402614
 40
0.7968652333000001
 40
0.8046789625
 40
0.8124927554999999
 40
0.8281182918999999
 40
0.8437442285999999
 40
0.8593706041
 40
0.8749974231000001
 40
0.9062429798
 40
0.9374929603
 40
0.9687457984999999
 40
1.0
 40
1.0
 40
1.0
 40
1.0
 10
58.15943035850001
 20
92.9516174049
 30
0.0
 10
58.6625569739
 20
92.95161702219999
 30
0.0
 10
59.6687975755
 20
92.94523383309998
 30
0.0
 10
60.9263463149
 20
92.91899520219999
 30
0.0
 10
61.9319697671
 20
92.88538585629998
 30
0.0
 10
62.6858977158
 20
92.85327974100001
 30
0.0
 10
63.4394409649
 20
92.81349191910001
 30
0.0
 10
64.192475246
 20
92.7652607809
 30
0.0
 10
64.9448489549
 20
92.70781521179999
 30
0.0
 10
65.69638260890001
 20
92.6403738077
 30
0.0
 10
66.44681855219999
 20
92.5617175358
 30
0.0
 10
67.1958482499
 20
92.4706665076
 30
0.0
 10
67.9430509138
 20
92.36567095519999
 30
0.0
 10
68.687919851
 20
92.24520433709999
 30
0.0
 10
69.42974901149999
 20
92.10718448739999
 30
0.0
 10
70.16762932430001
 20
91.94935882809998
 30
0.0
 10
70.7782377706
 20
91.7989692153
 30
0.0
 10
71.26324785619999
 20
91.66559417280002
 30
0.0
 10
71.74560270979999
 20
91.5229647319
 30
0.0
 10
72.2234304448
 20
91.3652322217
 30
0.0
 10
72.6949242262
 20
91.1899128553
 30
0.0
 10
73.1615392131
 20
91.00203924490001
 30
0.0
 10
73.73416652260001
 20
90.7414293805
 30
0.0
 10
74.39729202939999
 20
90.38018916309999
 30
0.0
 10
75.0269784334
 20
89.96294629190002
 30
0.0
 10
75.51275647189999
 20
89.5615791216
 30
0.0
 10
75.86913932929999
 20
89.2063151686
 30
0.0
 10
76.11846653970001
 20
88.92281209469999
 30
0.0
 10
76.3095990279
 20
88.6728518856
 30
0.0
 10
76.4518541095
 20
88.4653641004
 30
0.0
 10
76.58681147979999
 20
88.25305232099999
 30
0.0
 10
76.7417909968
 20
87.9791952421
 30
0.0
 10
76.90539763850001
 20
87.6389467687
 30
0.0
 10
77.04739364009999
 20
87.2891378801
 30
0.0
 10
77.2091250771
 20
86.81259545290002
 30
0.0
 10
77.36297378999999
 20
86.2017953241
 30
0.0
 10
77.48159696340001
 20
85.45589466439999
 30
0.0
 10
77.54573002939999
 20
84.70350671930001
 30
0.0
 10
77.55817198249999
 20
84.20030486139999
 30
0.0
 10
77.5581723842
 20
83.9487644953
 30
0.0
  0
SPLINE
  5
17ED
330
21D
100
AcDbEntity
  8
0
  6
Continuous
 62
     9
100
AcDbSpline
210
0.0
220
0.0
230
1.0
 70
     8
 71
     3
 72
    37
 73
    33
 74
     0
 42
0.0000001
 43
0.0000000001
 40
0.0
 40
0.0
 40
0.0
 40
0.0
 40
0.0625003496
 40
0.1250014729
 40
0.1875023318
 40
0.2500027314
 40
0.3125028114
 40
0.375002673
 40
0.4375004612
 40
0.4999947168000001
 40
0.5624819387
 40
0.5937345982
 40
0.6249869905
 40
0.656237826
 40
0.6718659327
 40
0.6874936331
 40
0.7031215330000001
 40
0.7187485306000001
 40
0.7343749399
 40
0.7500014306999999
 40
0.7656269851000001
 40
0.7812519445000001
 40
0.7968766518000001
 40
0.8125025950999999
 40
0.8281291191999999
 40
0.8437555770999999
 40
0.8593819043999999
 40
0.8750081659000001
 40
0.9062560662
 40
0.9375038968000001
 40
0.9687516491
 40
1.0
 40
1.0
 40
1.0
 40
1.0
 10
48.1594266207
 20
99.0696536003
 30
0.0
 10
47.531797387
 20
99.0202277624
 30
0.0
 10
46.2775961055
 20
98.9070314776
 30
0.0
 10
44.40137963669999
 20
98.6879402557
 30
0.0
 10
42.5324009013
 20
98.41330401489999
 30
0.0
 10
40.6738230675
 20
98.0748429572
 30
0.0
 10
38.8300721338
 20
97.6624982286
 30
0.0
 10
37.0076244679
 20
97.16358060979999
 30
0.0
 10
35.2160577463
 20
96.56197572079999
 30
0.0
 10
33.4701912822
 20
95.83746763129999
 30
0.0
 10
32.0716310783
 20
95.10968389309999
 30
0.0
 10
31.0057443919
 20
94.43827865819999
 30
0.0
 10
30.2388849181
 20
93.8859151541
 30
0.0
 10
29.6334504215
 20
93.381805741
 30
0.0
 10
29.1741118511
 20
92.95094878989999
 30
0.0
 10
28.8432257518
 20
92.61377560339999
 30
0.0
 10
28.5273047451
 20
92.2625441389
 30
0.0
 10
28.2277336399
 20
91.89726359079999
 30
0.0
 10
27.9457127803
 20
91.518281535
 30
0.0
 10
27.6818376869
 20
91.12646793209998
 30
0.0
 10
27.4368001169
 20
90.7226153947
 30
0.0
 10
27.2103793665
 20
90.3081282687
 30
0.0
 10
26.9976026243
 20
89.88652386469999
 30
0.0
 10
26.798614617
 20
89.4581972171
 30
0.0
 10
26.6150619418
 20
89.02300155129999
 30
0.0
 10
26.4473843296
 20
88.5814470404
 30
0.0
 10
26.2955194409
 20
88.13420575850001
 30
0.0
 10
26.1144487234
 20
87.5311178357
 30
0.0
 10
25.9287632069
 20
86.765654954
 30
0.0
 10
25.7718763964
 20
85.833711643
 30
0.0
 10
25.6795127801
 20
84.893262675
 30
0.0
 10
25.6592757026
 20
84.2635322697
 30
0.0
 10
25.6594318538
 20
83.94876449600001
 30
0.0
  0
SPLINE
  5
17EE
330
21D
100
AcDbEntity
  8
0
  6
Continuous
 62
     9
100
AcDbSpline
210
0.0
220
0.0
230
1.0
 70
     8
 71
     3
 72
    29
 73
    25
 74
     0
 42
0.0000001
 43
0.0000000001
 40
0.0
 40
0.0
 40
0.0
 40
0.0
 40
0.0624165287
 40
0.1248694803
 40
0.1561067225
 40
0.1873331252
 40
0.2185353494
 40
0.2497040837
 40
0.2808302651
 40
0.3119088273
 40
0.3429402582
 40
0.3739287021
 40
0.4048801373
 40
0.4358124912
 40
0.4667443897
 40
0.4976896151
 40
0.5596189843000001
 40
0.6217231670000001
 40
0.6840747689
 40
0.7467126849
 40
0.8096542754999999
 40
0.8728838083999999
 40
0.9363560075
 40
1.0
 40
1.0
 40
1.0
 40
1.0
 10
29.2855776441
 20
83.9487644953
 30
0.0
 10
29.2855776441
 20
84.51118398140001
 30
0.0
 10
29.3254975965
 20
85.63693748
 30
0.0
 10
29.5037661429
 20
87.03499972659999
 30
0.0
 10
29.7414664072
 20
88.13584781870002
 30
0.0
 10
29.9714704036
 20
88.94854978700001
 30
0.0
 10
30.256489306
 20
89.74306442200001
 30
0.0
 10
30.5986704597
 20
90.5137992018
 30
0.0
 10
30.998646639
 20
91.25498785149998
 30
0.0
 10
31.4551687863
 20
91.96130519309999
 30
0.0
 10
31.9653698609
 20
92.62829975299998
 30
0.0
 10
32.525036355
 20
93.2527596271
 30
0.0
 10
33.1290172156
 20
93.83306847709999
 30
0.0
 10
33.7719491229
 20
94.368962792
 30
0.0
 10
34.4486144538
 20
94.8613471112
 30
0.0
 10
35.3891352912
 20
95.46235239519999
 30
0.0
 10
36.6265462742
 20
96.11536051000001
 30
0.0
 10
38.1790151877
 20
96.76075402290001
 30
0.0
 10
39.781196632
 20
97.2895177884
 30
0.0
 10
41.42003020219999
 20
97.71946253999999
 30
0.0
 10
43.0864403449
 20
98.065442358
 30
0.0
 10
44.7736063835
 20
98.3395322011
 30
0.0
 10
46.47590255829999
 20
98.55182286939999
 30
0.0
 10
47.6166617361
 20
98.65709225000001
 30
0.0
 10
48.18838126420001
 20
98.7019912497
 30
0.0
  0
SPLINE
  5
17EF
330
21D
100
AcDbEntity
  8
0
  6
Continuous
 62
     9
100
AcDbSpline
210
0.0
220
0.0
230
1.0
 70
     8
 71
     3
 72
    14
 73
    10
 74
     0
 42
0.0000001
 43
0.0000000001
 40
0.0
 40
0.0
 40
0.0
 40
0.0
 40
0.1249999411
 40
0.2499998189
 40
0.3749997968
 40
0.4999999035
 40
0.6250001159
 40
0.7500003961
 40
1.0
 40
1.0
 40
1.0
 40
1.0
 10
48.1883817848
 20
98.70199129180001
 30
0.0
 10
48.60288194319999
 20
98.7345417505
 30
0.0
 10
49.43240856500001
 20
98.7930783654
 30
0.0
 10
50.67778580369999
 20
98.86342514170001
 30
0.0
 10
51.92394060229999
 20
98.91821079370002
 30
0.0
 10
53.1706111521
 20
98.95940679469999
 30
0.0
 10
54.41760682199999
 20
98.98902622640001
 30
0.0
 10
56.0805241032
 20
99.014995501
 30
0.0
 10
57.3278787275
 20
99.02119647700001
 30
0.0
 10
58.15943035850001
 20
99.02119648540001
 30
0.0
  0
SPLINE
  5
17F0
330
21D
100
AcDbEntity
  8
0
  6
Continuous
 62
     9
100
AcDbSpline
210
0.0
220
0.0
230
1.0
 70
     8
 71
     3
 72
    29
 73
    25
 74
     0
 42
0.0000001
 43
0.0000000001
 40
0.0
 40
0.0
 40
0.0
 40
0.0
 40
0.0624165287
 40
0.1248694803
 40
0.1561067225
 40
0.1873331252
 40
0.2185353494
 40
0.2497040837
 40
0.2808302651
 40
0.3119088273
 40
0.3429402582
 40
0.3739287021
 40
0.4048801373
 40
0.4358124912
 40
0.4667443897
 40
0.4976896151
 40
0.5596189843000001
 40
0.6217231670000001
 40
0.6840747689
 40
0.7467126849
 40
0.8096542754999999
 40
0.8728838083999999
 40
0.9363560075
 40
1.0
 40
1.0
 40
1.0
 40
1.0
 10
87.03328307280001
 20
83.9487644953
 30
0.0
 10
87.03328307280001
 20
84.51118398140001
 30
0.0
 10
86.99336312040001
 20
85.63693748
 30
0.0
 10
86.81509457409999
 20
87.03499972659999
 30
0.0
 10
86.5773943097
 20
88.13584781870002
 30
0.0
 10
86.34739031329999
 20
88.94854978700001
 30
0.0
 10
86.0623714109
 20
89.74306442200001
 30
0.0
 10
85.72019025729998
 20
90.5137992018
 30
0.0
 10
85.32021407790001
 20
91.25498785149998
 30
0.0
 10
84.86369193059999
 20
91.96130519309999
 30
0.0
 10
84.353490856
 20
92.62829975299998
 30
0.0
 10
83.793824362
 20
93.2527596271
 30
0.0
 10
83.1898435013
 20
93.83306847709999
 30
0.0
 10
82.546911594
 20
94.368962792
 30
0.0
 10
81.8702462631
 20
94.8613471112
 30
0.0
 10
80.9297254257
 20
95.46235239519999
 30
0.0
 10
79.6923144427
 20
96.11536051000001
 30
0.0
 10
78.1398455292
 20
96.76075402290001
 30
0.0
 10
76.5376640849
 20
97.2895177884
 30
0.0
 10
74.89883051470001
 20
97.71946253999999
 30
0.0
 10
73.23242037209999
 20
98.065442358
 30
0.0
 10
71.54525433339999
 20
98.3395322011
 30
0.0
 10
69.8429581586
 20
98.55182286939999
 30
0.0
 10
68.70219898080001
 20
98.65709225000001
 30
0.0
 10
68.1304794527
 20
98.7019912497
 30
0.0
  0
SPLINE
  5
17F1
330
21D
100
AcDbEntity
  8
0
  6
Continuous
 62
     9
100
AcDbSpline
210
0.0
220
0.0
230
1.0
 70
     8
 71
     3
 72
    37
 73
    33
 74
     0
 42
0.0000001
 43
0.0000000001
 40
0.0
 40
0.0
 40
0.0
 40
0.0
 40
0.0625003496
 40
0.1250014729
 40
0.1875023318
 40
0.2500027314
 40
0.3125028114
 40
0.375002673
 40
0.4375004612
 40
0.4999947168000001
 40
0.5624819387
 40
0.5937345982
 40
0.6249869905
 40
0.656237826
 40
0.6718659327
 40
0.6874936331
 40
0.7031215330000001
 40
0.7187485306000001
 40
0.7343749399
 40
0.7500014306999999
 40
0.7656269851000001
 40
0.7812519445000001
 40
0.7968766518000001
 40
0.8125025950999999
 40
0.8281291191999999
 40
0.8437555770999999
 40
0.8593819043999999
 40
0.8750081659000001
 40
0.9062560662
 40
0.9375038968000001
 40
0.9687516491
 40
1.0
 40
1.0
 40
1.0
 40
1.0
 10
68.1594340962
 20
99.0696536003
 30
0.0
 10
68.78706333
 20
99.0202277624
 30
0.0
 10
70.0412646115
 20
98.9070314776
 30
0.0
 10
71.91748108029999
 20
98.6879402557
 30
0.0
 10
73.7864598157
 20
98.41330401489999
 30
0.0
 10
75.64503764939999
 20
98.0748429572
 30
0.0
 10
77.48878858319999
 20
97.6624982286
 30
0.0
 10
79.31123624899999
 20
97.16358060979999
 30
0.0
 10
81.1028029706
 20
96.56197572079999
 30
0.0
 10
82.8486694348
 20
95.83746763129999
 30
0.0
 10
84.24722963859998
 20
95.10968389309999
 30
0.0
 10
85.3131163251
 20
94.43827865819999
 30
0.0
 10
86.07997579879999
 20
93.8859151541
 30
0.0
 10
86.68541029549999
 20
93.381805741
 30
0.0
 10
87.14474886579999
 20
92.95094878989999
 30
0.0
 10
87.47563496519999
 20
92.61377560339999
 30
0.0
 10
87.7915559718
 20
92.2625441389
 30
0.0
 10
88.09112707709999
 20
91.89726359079999
 30
0.0
 10
88.37314793670001
 20
91.518281535
 30
0.0
 10
88.63702303009999
 20
91.12646793209998
 30
0.0
 10
88.8820606001
 20
90.7226153947
 30
0.0
 10
89.10848135049999
 20
90.3081282687
 30
0.0
 10
89.3212580926
 20
89.88652386469999
 30
0.0
 10
89.5202461
 20
89.4581972171
 30
0.0
 10
89.7037987751
 20
89.02300155129999
 30
0.0
 10
89.87147638729998
 20
88.5814470404
 30
0.0
 10
90.02334127610001
 20
88.13420575850001
 30
0.0
 10
90.20441199350001
 20
87.5311178357
 30
0.0
 10
90.39009751
 20
86.765654954
 30
0.0
 10
90.54698432059998
 20
85.833711643
 30
0.0
 10
90.6393479369
 20
84.893262675
 30
0.0
 10
90.65958501430001
 20
84.2635322697
 30
0.0
 10
90.65942886309999
 20
83.94876449600001
 30
0.0
  0
SPLINE
  5
17F2
330
21D
100
AcDbEntity
  8
0
  6
Continuous
 62
     9
100
AcDbSpline
210
0.0
220
0.0
230
1.0
 70
     8
 71
     3
 72
    13
 73
     9
 74
     0
 42
0.0000001
 43
0.0000000001
 40
0.0
 40
0.0
 40
0.0
 40
0.0
 40
0.1250004554
 40
0.2500008278
 40
0.4999981223
 40
0.6249987892000001
 40
0.749999518
 40
1.0
 40
1.0
 40
1.0
 40
1.0
 10
68.159434112
 20
99.0696538004
 30
0.0
 10
67.74373501879999
 20
99.1023883547
 30
0.0
 10
66.91180631689999
 20
99.16126711510001
 30
0.0
 10
65.246506451
 20
99.2556483483
 30
0.0
 10
63.5796068314
 20
99.3187458242
 30
0.0
 10
61.9121386665
 20
99.3585216257
 30
0.0
 10
60.2443829103
 20
99.3846910649
 30
0.0
 10
58.9934008414
 20
99.39094720180001
 30
0.0
 10
58.1594303611
 20
99.3909472129
 30
0.0
  0
SPLINE
  5
17F3
330
21D
100
AcDbEntity
  8
0
  6
Continuous
 62
     9
100
AcDbSpline
210
0.0
220
0.0
230
1.0
 70
     8
 71
     3
 72
    13
 73
     9
 74
     0
 42
0.0000001
 43
0.0000000001
 40
0.0
 40
0.0
 40
0.0
 40
0.0
 40
0.1250004554
 40
0.2500008278
 40
0.4999981223
 40
0.6249987892000001
 40
0.749999518
 40
1.0
 40
1.0
 40
1.0
 40
1.0
 10
48.1594266049
 20
99.0696538004
 30
0.0
 10
48.57512569829999
 20
99.1023883547
 30
0.0
 10
49.4070544007
 20
99.1612671152
 30
0.0
 10
51.0723542675
 20
99.25564834840001
 30
0.0
 10
52.739253888
 20
99.31874582430001
 30
0.0
 10
54.4067220537
 20
99.35852162579999
 30
0.0
 10
56.0744778108
 20
99.3846910649
 30
0.0
 10
57.3254598804
 20
99.39094720180001
 30
0.0
 10
58.1594303611
 20
99.3909472129
 30
0.0
  0
SPLINE
  5
17F4
330
21D
100
AcDbEntity
  8
0
  6
Continuous
 62
     9
100
AcDbSpline
210
0.0
220
0.0
230
1.0
 70
     8
 71
     3
 72
    13
 73
     9
 74
     0
 42
0.0000001
 43
0.0000000001
 40
0.0
 40
0.0
 40
0.0
 40
0.0
 40
0.1250003908
 40
0.2500007497999999
 40
0.4999980498
 40
0.6249987297000001
 40
0.749999476
 40
1.0
 40
1.0
 40
1.0
 40
1.0
 10
48.1594266049
 20
68.8278751901
 30
0.0
 10
48.575125483
 20
68.7951406528
 30
0.0
 10
49.407053902
 20
68.73626158899999
 30
0.0
 10
51.0723535403
 20
68.641880556
 30
0.0
 10
52.7392531881
 20
68.57878349239999
 30
0.0
 10
54.4067214613
 20
68.5390073435
 30
0.0
 10
56.0744774601
 20
68.51283763149999
 30
0.0
 10
57.32545973829999
 20
68.5065836974
 30
0.0
 10
58.15943035850001
 20
68.5065836863
 30
0.0
  0
SPLINE
  5
17F5
330
21D
100
AcDbEntity
  8
0
  6
Continuous
 62
     9
100
AcDbSpline
210
0.0
220
0.0
230
1.0
 70
     8
 71
     3
 72
    13
 73
     9
 74
     0
 42
0.0000001
 43
0.0000000001
 40
0.0
 40
0.0
 40
0.0
 40
0.0
 40
0.1250003908
 40
0.2500007497999999
 40
0.4999980498
 40
0.6249987297000001
 40
0.749999476
 40
1.0
 40
1.0
 40
1.0
 40
1.0
 10
68.159434112
 20
68.8278751901
 30
0.0
 10
67.7437352339
 20
68.7951406528
 30
0.0
 10
66.9118068149
 20
68.73626158899999
 30
0.0
 10
65.24650717660001
 20
68.641880556
 30
0.0
 10
63.57960752890001
 20
68.57878349239999
 30
0.0
 10
61.9121392556
 20
68.5390073435
 30
0.0
 10
60.24438325680001
 20
68.51283763149999
 30
0.0
 10
58.9934009787
 20
68.5065836974
 30
0.0
 10
58.15943035850001
 20
68.5065836863
 30
0.0
  0
SPLINE
  5
17F6
330
21D
100
AcDbEntity
  8
0
  6
Continuous
 62
     9
100
AcDbSpline
210
0.0
220
0.0
230
1.0
 70
     8
 71
     3
 72
    29
 73
    25
 74
     0
 42
0.0000001
 43
0.0000000001
 40
0.0
 40
0.0
 40
0.0
 40
0.0
 40
0.0624165287
 40
0.1248694803
 40
0.1561067225
 40
0.1873331252
 40
0.2185353494
 40
0.2497040837
 40
0.2808302651
 40
0.3119088273
 40
0.3429402582
 40
0.3739287021
 40
0.4048801373
 40
0.4358124912
 40
0.4667443897
 40
0.4976896151
 40
0.5596189843000001
 40
0.6217231670000001
 40
0.6840747689
 40
0.7467126849
 40
0.8096542754999999
 40
0.8728838083999999
 40
0.9363560075
 40
1.0
 40
1.0
 40
1.0
 40
1.0
 10
29.2855776441
 20
83.9487644953
 30
0.0
 10
29.2855776441
 20
83.3863450091
 30
0.0
 10
29.3254975965
 20
82.26059151060001
 30
0.0
 10
29.5037661429
 20
80.862529264
 30
0.0
 10
29.7414664072
 20
79.76168117189999
 30
0.0
 10
29.9714704036
 20
78.94897920359999
 30
0.0
 10
30.256489306
 20
78.15446456850001
 30
0.0
 10
30.5986704597
 20
77.3837297887
 30
0.0
 10
30.998646639
 20
76.642541139
 30
0.0
 10
31.4551687863
 20
75.93622379740001
 30
0.0
 10
31.9653698609
 20
75.26922923749999
 30
0.0
 10
32.525036355
 20
74.6447693634
 30
0.0
 10
33.1290172156
 20
74.06446051340001
 30
0.0
 10
33.7719491229
 20
73.5285661986
 30
0.0
 10
34.4486144538
 20
73.03618187939999
 30
0.0
 10
35.3891352912
 20
72.43517659529999
 30
0.0
 10
36.6265462742
 20
71.7821684806
 30
0.0
 10
38.1790151877
 20
71.13677496760001
 30
0.0
 10
39.781196632
 20
70.6080112021
 30
0.0
 10
41.42003020219999
 20
70.1780664506
 30
0.0
 10
43.0864403449
 20
69.8320866325
 30
0.0
 10
44.7736063835
 20
69.5579967895
 30
0.0
 10
46.47590255829999
 20
69.34570612109999
 30
0.0
 10
47.6166617361
 20
69.2404367406
 30
0.0
 10
48.18838126420001
 20
69.1955377408
 30
0.0
  0
SPLINE
  5
17F7
330
21D
100
AcDbEntity
  8
0
  6
Continuous
 62
     9
100
AcDbSpline
210
0.0
220
0.0
230
1.0
 70
     8
 71
     3
 72
    37
 73
    33
 74
     0
 42
0.0000001
 43
0.0000000001
 40
0.0
 40
0.0
 40
0.0
 40
0.0
 40
0.0625003496
 40
0.1250014729
 40
0.1875023318
 40
0.2500027314
 40
0.3125028114
 40
0.375002673
 40
0.4375004612
 40
0.4999947168000001
 40
0.5624819387
 40
0.5937345982
 40
0.6249869905
 40
0.656237826
 40
0.6718659327
 40
0.6874936331
 40
0.7031215330000001
 40
0.7187485306000001
 40
0.7343749399
 40
0.7500014306999999
 40
0.7656269851000001
 40
0.7812519445000001
 40
0.7968766518000001
 40
0.8125025950999999
 40
0.8281291191999999
 40
0.8437555770999999
 40
0.8593819043999999
 40
0.8750081659000001
 40
0.9062560662
 40
0.9375038968000001
 40
0.9687516491
 40
1.0
 40
1.0
 40
1.0
 40
1.0
 10
48.1594266207
 20
68.82787539029999
 30
0.0
 10
47.531797387
 20
68.87730122810001
 30
0.0
 10
46.2775961055
 20
68.99049751300001
 30
0.0
 10
44.40137963669999
 20
69.2095887348
 30
0.0
 10
42.5324009013
 20
69.4842249757
 30
0.0
 10
40.6738230675
 20
69.8226860333
 30
0.0
 10
38.8300721338
 20
70.23503076189999
 30
0.0
 10
37.0076244679
 20
70.7339483807
 30
0.0
 10
35.2160577463
 20
71.3355532698
 30
0.0
 10
33.4701912822
 20
72.0600613592
 30
0.0
 10
32.0716310783
 20
72.78784509739999
 30
0.0
 10
31.0057443919
 20
73.4592503323
 30
0.0
 10
30.2388849181
 20
74.0116138364
 30
0.0
 10
29.6334504215
 20
74.51572324949999
 30
0.0
 10
29.1741118511
 20
74.9465802007
 30
0.0
 10
28.8432257518
 20
75.2837533871
 30
0.0
 10
28.5273047451
 20
75.6349848517
 30
0.0
 10
28.2277336399
 20
76.00026539969999
 30
0.0
 10
27.9457127803
 20
76.37924745550001
 30
0.0
 10
27.6818376869
 20
76.7710610584
 30
0.0
 10
27.4368001169
 20
77.17491359590001
 30
0.0
 10
27.2103793665
 20
77.58940072189999
 30
0.0
 10
26.9976026243
 20
78.0110051259
 30
0.0
 10
26.798614617
 20
78.4393317735
 30
0.0
 10
26.6150619418
 20
78.87452743919999
 30
0.0
 10
26.4473843296
 20
79.3160819502
 30
0.0
 10
26.2955194409
 20
79.76332323200001
 30
0.0
 10
26.1144487234
 20
80.36641115489999
 30
0.0
 10
25.9287632069
 20
81.13187403659999
 30
0.0
 10
25.7718763964
 20
82.06381734750001
 30
0.0
 10
25.6795127801
 20
83.00426631550001
 30
0.0
 10
25.6592757026
 20
83.63399672079999
 30
0.0
 10
25.6594318538
 20
83.94876449459999
 30
0.0
  0
SPLINE
  5
17F8
330
21D
100
AcDbEntity
  8
0
  6
Continuous
 62
     9
100
AcDbSpline
210
0.0
220
0.0
230
1.0
 70
     8
 71
     3
 72
    20
 73
    16
 74
     0
 42
0.0000001
 43
0.0000000001
 40
0.0
 40
0.0
 40
0.0
 40
0.0
 40
0.125002887
 40
0.2500040703
 40
0.3125088721
 40
0.3750135744
 40
0.4375180358
 40
0.5000220721000001
 40
0.5625255088000002
 40
0.6250282309000001
 40
0.7500065154000001
 40
0.8125064618999999
 40
0.8750054962
 40
0.9375033976
 40
1.0
 40
1.0
 40
1.0
 40
1.0
 10
58.15943035850001
 20
65.060789333
 30
0.0
 10
59.22679571949999
 20
65.06078932449999
 30
0.0
 10
61.36179566
 20
65.1045998668
 30
0.0
 10
64.0255842231
 20
65.2786246482
 30
0.0
 10
66.1494781416
 20
65.49581362499999
 30
0.0
 10
67.7377734116
 20
65.6996464301
 30
0.0
 10
69.319949937
 20
65.9466067207
 30
0.0
 10
70.8943198475
 20
66.2392823092
 30
0.0
 10
72.4589017768
 20
66.58075232459999
 30
0.0
 10
74.52814190149999
 20
67.10576882339999
 30
0.0
 10
76.56789859979999
 20
67.7438081186
 30
0.0
 10
78.5603142063
 20
68.51118590209999
 30
0.0
 10
80.02650667039999
 20
69.1558238266
 30
0.0
 10
81.458081673
 20
69.8740724505
 30
0.0
 10
82.38426342649999
 20
70.4059976517
 30
0.0
 10
82.83831913310001
 20
70.6863661581
 30
0.0
  0
SPLINE
  5
17F9
330
21D
100
AcDbEntity
  8
0
  6
Continuous
 62
     9
100
AcDbSpline
210
0.0
220
0.0
230
1.0
 70
     8
 71
     3
 72
    20
 73
    16
 74
     0
 42
0.0000001
 43
0.0000000001
 40
0.0
 40
0.0
 40
0.0
 40
0.0
 40
0.0624960464
 40
0.124993784
 40
0.1874926544
 40
0.2499925754
 40
0.3749711052
 40
0.4374740987
 40
0.4999778708
 40
0.5624821907000001
 40
0.6249867748
 40
0.6874914672
 40
0.7499962181000001
 40
0.874997287
 40
1.0
 40
1.0
 40
1.0
 40
1.0
 10
33.4805415838
 20
70.6863661581
 30
0.0
 10
33.9345928867
 20
70.40599955880001
 30
0.0
 10
34.8607695996
 20
69.87407789239999
 30
0.0
 10
36.29233735400001
 20
69.155831742
 30
0.0
 10
37.7585266424
 20
68.5111940693
 30
0.0
 10
39.7509422401
 20
67.74381497890001
 30
0.0
 10
41.7907024623
 20
67.10577279729999
 30
0.0
 10
43.85994970529999
 20
66.5807547182
 30
0.0
 10
45.424539143
 20
66.23928348939999
 30
0.0
 10
46.99891522529999
 20
65.9466064633
 30
0.0
 10
48.5810951313
 20
65.6996458861
 30
0.0
 10
50.1693909174
 20
65.49581300389999
 30
0.0
 10
52.29328332419999
 20
65.27862398039999
 30
0.0
 10
54.9570690144
 20
65.10459965559999
 30
0.0
 10
57.09206648600001
 20
65.06078931970001
 30
0.0
 10
58.15943035850001
 20
65.060789333
 30
0.0
  0
LINE
  5
17FA
330
21D
100
AcDbEntity
  8
0
  6
Continuous
 62
     9
100
AcDbLine
 10
33.464428142
 20
70.6963399256
 30
0.0
 11
33.4805415838
 21
70.6863661581
 31
0.0
  0
SPLINE
  5
17FB
330
21D
100
AcDbEntity
  8
0
  6
Continuous
 62
     9
100
AcDbSpline
210
0.0
220
0.0
230
1.0
 70
     8
 71
     3
 72
    27
 73
    23
 74
     0
 42
0.0000001
 43
0.0000000001
 40
0.0
 40
0.0
 40
0.0
 40
0.0
 40
0.0624984537
 40
0.1249954799
 40
0.1874918893
 40
0.2499878023
 40
0.3124836555
 40
0.3749798225
 40
0.43747662
 40
0.4999742743000001
 40
0.5624729727000001
 40
0.6249727425
 40
0.6874736315000001
 40
0.7499755046
 40
0.7812295291
 40
0.8124832708999999
 40
0.8437367105999999
 40
0.8749897693999999
 40
0.9062425739
 40
0.9374951508
 40
0.9687475945
 40
1.0
 40
1.0
 40
1.0
 40
1.0
 10
25.2675701462
 20
83.9487644953
 30
0.0
 10
25.2675703762
 20
83.60871558220001
 30
0.0
 10
25.2902660981
 20
82.92838410399999
 30
0.0
 10
25.3953026437
 20
81.91284958590001
 30
0.0
 10
25.5735955937
 20
80.90749055679999
 30
0.0
 10
25.826248663
 20
79.9181753329
 30
0.0
 10
26.1527826082
 20
78.95071839259999
 30
0.0
 10
26.5510099331
 20
78.0105190531
 30
0.0
 10
27.0174970855
 20
77.1022886895
 30
0.0
 10
27.5478551042
 20
76.2298690514
 30
0.0
 10
28.1369368129
 20
75.3960489933
 30
0.0
 10
28.7792350792
 20
74.60257128710001
 30
0.0
 10
29.4692090698
 20
73.85028623060001
 30
0.0
 10
30.0794837817
 20
73.25767815839999
 30
0.0
 10
30.5863039393
 20
72.80397549529999
 30
0.0
 10
30.9752419963
 20
72.4737660343
 30
0.0
 10
31.3723826203
 20
72.1534908589
 30
0.0
 10
31.7771681259
 20
71.8429482047
 30
0.0
 10
32.189049458
 20
71.54189217889999
 30
0.0
 10
32.6077864254
 20
71.25045422869999
 30
0.0
 10
33.0327566374
 20
70.9682073364
 30
0.0
 10
33.31983405840001
 20
70.78582036010001
 30
0.0
 10
33.464428142
 20
70.6963399256
 30
0.0
  0
SPLINE
  5
17FC
330
21D
100
AcDbEntity
  8
0
  6
Continuous
 62
     9
100
AcDbSpline
210
0.0
220
0.0
230
1.0
 70
     8
 71
     3
 72
    27
 73
    23
 74
     0
 42
0.0000001
 43
0.0000000001
 40
0.0
 40
0.0
 40
0.0
 40
0.0
 40
0.031253222
 40
0.0625077046
 40
0.0937614329
 40
0.1250149124
 40
0.1562687539
 40
0.1875225753
 40
0.2187761855
 40
0.2500298791
 40
0.3125310649
 40
0.3750312354
 40
0.4375303543
 40
0.5000284042000001
 40
0.5625254795
 40
0.6250217194
 40
0.6875174059999999
 40
0.7500128294000001
 40
0.8125083979000001
 40
0.8750045327
 40
0.9375015615
 40
1.0
 40
1.0
 40
1.0
 40
1.0
 10
33.4644281421
 20
97.20118906499999
 30
0.0
 10
33.319843296
 20
97.11168525120001
 30
0.0
 10
33.032641547
 20
96.9294644894
 30
0.0
 10
32.6077980502
 20
96.64698349860001
 30
0.0
 10
32.1890411622
 20
96.355542752
 30
0.0
 10
31.7770627513
 20
96.05459345340001
 30
0.0
 10
31.3723244844
 20
95.74397159290001
 30
0.0
 10
30.9751755227
 20
95.42369916570001
 30
0.0
 10
30.5862313198
 20
95.09349708219998
 30
0.0
 10
30.0794240238
 20
94.6397894038
 30
0.0
 10
29.4691552496
 20
94.04718901589999
 30
0.0
 10
28.7791927169
 20
93.29490835889998
 30
0.0
 10
28.1369046795
 20
92.501436586
 30
0.0
 10
27.5478305857
 20
91.66762357479999
 30
0.0
 10
27.0174812773
 20
90.7952100047
 30
0.0
 10
26.5509986378
 20
89.8869872052
 30
0.0
 10
26.1527768746
 20
88.94679412089999
 30
0.0
 10
25.8262458228
 20
87.97934342620001
 30
0.0
 10
25.5735944919
 20
86.99003360209998
 30
0.0
 10
25.3953024963
 20
85.98467777919999
 30
0.0
 10
25.2902661403
 20
84.96914477609999
 30
0.0
 10
25.2675703766
 20
84.28881333979999
 30
0.0
 10
25.2675701462
 20
83.9487644953
 30
0.0
  0
LINE
  5
17FD
330
21D
100
AcDbEntity
  8
0
  6
Continuous
 62
     9
100
AcDbLine
 10
33.4805415838
 20
97.21116283249999
 30
0.0
 11
33.4644281421
 21
97.20118906499999
 31
0.0
  0
SPLINE
  5
17FE
330
21D
100
AcDbEntity
  8
0
  6
Continuous
 62
     9
100
AcDbSpline
210
0.0
220
0.0
230
1.0
 70
     8
 71
     3
 72
    20
 73
    16
 74
     0
 42
0.0000001
 43
0.0000000001
 40
0.0
 40
0.0
 40
0.0
 40
0.0
 40
0.125002887
 40
0.2500040703
 40
0.3125088721
 40
0.3750135744
 40
0.4375180358
 40
0.5000220721000001
 40
0.5625255088000002
 40
0.6250282309000001
 40
0.7500065154000001
 40
0.8125064618999999
 40
0.8750054962
 40
0.9375033976
 40
1.0
 40
1.0
 40
1.0
 40
1.0
 10
58.15943035850001
 20
102.8367396576
 30
0.0
 10
57.09206499739999
 20
102.8367396661
 30
0.0
 10
54.957065057
 20
102.7929291237
 30
0.0
 10
52.2932764939
 20
102.6189043423
 30
0.0
 10
50.1693825753
 20
102.4017153655
 30
0.0
 10
48.58108730539999
 20
102.1978825604
 30
0.0
 10
46.99891078
 20
101.9509222698
 30
0.0
 10
45.4245408694
 20
101.6582466813
 30
0.0
 10
43.8599589401
 20
101.3167766659
 30
0.0
 10
41.79071881539999
 20
100.7917601672
 30
0.0
 10
39.7509621171
 20
100.1537208719
 30
0.0
 10
37.7585465107
 20
99.38634308840001
 30
0.0
 10
36.2923540466
 20
98.7417051639
 30
0.0
 10
34.8607790439
 20
98.0234565401
 30
0.0
 10
33.9345972905
 20
97.4915313388
 30
0.0
 10
33.4805415838
 20
97.21116283249999
 30
0.0
  0
SPLINE
  5
17FF
330
21D
100
AcDbEntity
  8
0
  6
Continuous
 62
     9
100
AcDbSpline
210
0.0
220
0.0
230
1.0
 70
     8
 71
     3
 72
    20
 73
    16
 74
     0
 42
0.0000001
 43
0.0000000001
 40
0.0
 40
0.0
 40
0.0
 40
0.0
 40
0.0624960464
 40
0.124993784
 40
0.1874926544
 40
0.2499925754
 40
0.3749711052
 40
0.4374740987
 40
0.4999778708
 40
0.5624821907000001
 40
0.6249867748
 40
0.6874914672
 40
0.7499962181000001
 40
0.874997287
 40
1.0
 40
1.0
 40
1.0
 40
1.0
 10
82.83831913310001
 20
97.21116283249999
 30
0.0
 10
82.38426783020001
 20
97.49152943170001
 30
0.0
 10
81.4580911174
 20
98.0234510981
 30
0.0
 10
80.026523363
 20
98.7416972485
 30
0.0
 10
78.5603340746
 20
99.38633492120001
 30
0.0
 10
76.56791847689999
 20
100.1537140116
 30
0.0
 10
74.5281582547
 20
100.7917561932
 30
0.0
 10
72.45891101169999
 20
101.3167742724
 30
0.0
 10
70.894321574
 20
101.6582455011
 30
0.0
 10
69.31994549159999
 20
101.9509225272
 30
0.0
 10
67.7377655856
 20
102.1978831044
 30
0.0
 10
66.1494697995
 20
102.4017159867
 30
0.0
 10
64.0255773927
 20
102.6189050101
 30
0.0
 10
61.3617917025
 20
102.7929293349
 30
0.0
 10
59.226794231
 20
102.8367396708
 30
0.0
 10
58.15943035850001
 20
102.8367396576
 30
0.0
  0
LINE
  5
1800
330
21D
100
AcDbEntity
  8
0
  6
Continuous
 62
     9
100
AcDbLine
 10
82.85443257489999
 20
97.20118906499999
 30
0.0
 11
82.83831913310001
 21
97.21116283249999
 31
0.0
  0
SPLINE
  5
1801
330
21D
100
AcDbEntity
  8
0
  6
Continuous
 62
     9
100
AcDbSpline
210
0.0
220
0.0
230
1.0
 70
     8
 71
     3
 72
    14
 73
    10
 74
     0
 42
0.0000001
 43
0.0000000001
 40
0.0
 40
0.0
 40
0.0
 40
0.0
 40
0.1249999411
 40
0.2499998189
 40
0.3749997968
 40
0.4999999035
 40
0.6250001159
 40
0.7500003961
 40
1.0
 40
1.0
 40
1.0
 40
1.0
 10
48.1883817848
 20
69.19553769869999
 30
0.0
 10
48.60288194319999
 20
69.16298724010001
 30
0.0
 10
49.43240856500001
 20
69.1044506252
 30
0.0
 10
50.67778580369999
 20
69.0341038489
 30
0.0
 10
51.92394060229999
 20
68.97931819680001
 30
0.0
 10
53.1706111521
 20
68.9381221958
 30
0.0
 10
54.41760682199999
 20
68.9085027642
 30
0.0
 10
56.0805241032
 20
68.88253348960001
 30
0.0
 10
57.3278787275
 20
68.8763325135
 30
0.0
 10
58.15943035850001
 20
68.87633250509999
 30
0.0
  0
SPLINE
  5
1802
330
21D
100
AcDbEntity
  8
0
  6
Continuous
 62
     9
100
AcDbSpline
210
0.0
220
0.0
230
1.0
 70
     8
 71
     3
 72
    21
 73
    17
 74
     0
 42
0.0000001
 43
0.0000000001
 40
0.0
 40
0.0
 40
0.0
 40
0.0
 40
0.0625200917
 40
0.1250389441
 40
0.1875578819
 40
0.2500765915
 40
0.31259532
 40
0.3751140590999999
 40
0.5000005444
 40
0.6248872727000001
 40
0.6874060159000001
 40
0.7499247486
 40
0.8124434862000001
 40
0.8749623259999999
 40
0.9374804363999999
 40
1.0
 40
1.0
 40
1.0
 40
1.0
 10
58.15943035850001
 20
82.14339868739999
 30
0.0
 10
58.10036696979999
 20
82.1433988288
 30
0.0
 10
57.9821594823
 20
82.1491817303
 30
0.0
 10
57.8066123197
 20
82.1751539639
 30
0.0
 10
57.6344347217
 20
82.2181949756
 30
0.0
 10
57.4673154672
 20
82.277910742
 30
0.0
 10
57.3068500083
 20
82.35374990409999
 30
0.0
 10
57.1040370234
 20
82.47525329490001
 30
0.0
 10
56.8743901125
 20
82.6636820591
 30
0.0
 10
56.6860489863
 20
82.89339554840001
 30
0.0
 10
56.5645746637
 20
83.0962246282
 30
0.0
 10
56.4887300621
 20
83.25668642069999
 30
0.0
 10
56.4289810238
 20
83.42379284379999
 30
0.0
 10
56.3858886682
 20
83.59595652580001
 30
0.0
 10
56.3598652729
 20
83.7714951302
 30
0.0
 10
56.35406468439999
 20
83.8897016055
 30
0.0
 10
56.3540645506
 20
83.9487644953
 30
0.0
  0
SPLINE
  5
1803
330
21D
100
AcDbEntity
  8
0
  6
Continuous
 62
     9
100
AcDbSpline
210
0.0
220
0.0
230
1.0
 70
     8
 71
     3
 72
    21
 73
    17
 74
     0
 42
0.0000001
 43
0.0000000001
 40
0.0
 40
0.0
 40
0.0
 40
0.0
 40
0.0625201862
 40
0.1250390262
 40
0.1875579723
 40
0.2500766882
 40
0.3125954087
 40
0.3751141376
 40
0.5000008357
 40
0.6248872965
 40
0.6874060337000002
 40
0.7499247662000001
 40
0.8124434964
 40
0.8749623279999999
 40
0.9374804448
 40
1.0
 40
1.0
 40
1.0
 40
1.0
 10
56.3540645506
 20
83.9487644953
 30
0.0
 10
56.3540646965
 20
84.0078279733
 30
0.0
 10
56.3598653871
 20
84.12603572909999
 30
0.0
 10
56.3858892973
 20
84.30157566069999
 30
0.0
 10
56.42898221300001
 20
84.47373999369998
 30
0.0
 10
56.4887315952
 20
84.64084636859999
 30
0.0
 10
56.5645765892
 20
84.8013079264
 30
0.0
 10
56.6860513284
 20
85.00413669190001
 30
0.0
 10
56.8743929225
 20
85.2338497104
 30
0.0
 10
57.1040401662
 20
85.42227798170001
 30
0.0
 10
57.3068534021
 20
85.54378091910001
 30
0.0
 10
57.46731906539999
 20
85.61961969470001
 30
0.0
 10
57.6344383527
 20
85.6793351351
 30
0.0
 10
57.8066152873
 20
85.72237560640001
 30
0.0
 10
57.98216119300001
 20
85.74834736899999
 30
0.0
 10
58.10036747659999
 20
85.7541301734
 30
0.0
 10
58.15943035850001
 20
85.7541303031
 30
0.0
  0
SPLINE
  5
1804
330
21D
100
AcDbEntity
  8
0
  6
Continuous
 62
     9
100
AcDbSpline
210
0.0
220
0.0
230
1.0
 70
     8
 71
     3
 72
    23
 73
    19
 74
     0
 42
0.0000001
 43
0.0000000001
 40
0.0
 40
0.0
 40
0.0
 40
0.0
 40
0.0625010998
 40
0.1250010164
 40
0.1875010905
 40
0.2500009783
 40
0.3125009062
 40
0.3750008608
 40
0.4375008172000001
 40
0.5000007642000001
 40
0.5625006843
 40
0.6250005796
 40
0.6875004559000001
 40
0.7500003158
 40
0.8125001656999998
 40
0.875000116
 40
0.9374993282999998
 40
1.0
 40
1.0
 40
1.0
 40
1.0
 10
58.15943035850001
 20
81.9753468663
 30
0.0
 10
58.09488285749999
 20
81.97534705470001
 30
0.0
 10
57.96569890979999
 20
81.98171964169999
 30
0.0
 10
57.7738747876
 20
82.010271552
 30
0.0
 10
57.58575925270001
 20
82.05750345430001
 30
0.0
 10
57.4031832304
 20
82.12294114939998
 30
0.0
 10
57.2278879529
 20
82.2059347232
 30
0.0
 10
57.0615547486
 20
82.30568166460001
 30
0.0
 10
56.90577565899999
 20
82.42122008310001
 30
0.0
 10
56.76205046069999
 20
82.55144826189999
 30
0.0
 10
56.6317616684
 20
82.6951188565
 30
0.0
 10
56.5161723235
 20
82.85086105119999
 30
0.0
 10
56.4163994254
 20
83.0171798721
 30
0.0
 10
56.3334137224
 20
83.19248005979998
 30
0.0
 10
56.2680175385
 20
83.37507175170001
 30
0.0
 10
56.2208497397
 20
83.56320281530001
 30
0.0
 10
56.19236255869999
 20
83.75503487420001
 30
0.0
 10
56.186012906
 20
83.88421743649999
 30
0.0
 10
56.1860127295
 20
83.9487644953
 30
0.0
  0
SPLINE
  5
1805
330
21D
100
AcDbEntity
  8
0
  6
Continuous
 62
     9
100
AcDbSpline
210
0.0
220
0.0
230
1.0
 70
     8
 71
     3
 72
    44
 73
    40
 74
     0
 42
0.0000001
 43
0.0000000001
 40
0.0
 40
0.0
 40
0.0
 40
0.0
 40
0.062514104
 40
0.125024927
 40
0.1562791319
 40
0.1875324074
 40
0.2187848229
 40
0.2500364592
 40
0.2812874132999999
 40
0.3125377662
 40
0.3437875887
 40
0.3750369515999999
 40
0.4062859161
 40
0.4375345404
 40
0.4687828519
 40
0.5000308935
 40
0.5312786328
 40
0.5469030634000001
 40
0.5625275167
 40
0.5937744843
 40
0.6093990523000001
 40
0.6250236772
 40
0.6562689517
 40
0.6875128991000001
 40
0.7187539531999999
 40
0.7499906835
 40
0.7656154495000001
 40
0.7812402615
 40
0.7968652335
 40
0.8046789629
 40
0.8124927557999999
 40
0.8281182920999999
 40
0.8437442287999999
 40
0.8593706043
 40
0.8749974232999999
 40
0.90624298
 40
0.9374929604
 40
0.9687457984999999
 40
1.0
 40
1.0
 40
1.0
 40
1.0
 10
58.15943035850001
 20
74.9459115857
 30
0.0
 10
57.656303743
 20
74.9459119683
 30
0.0
 10
56.6500631409
 20
74.95229515770001
 30
0.0
 10
55.39251440060001
 20
74.9785337878
 30
0.0
 10
54.38689094739999
 20
75.01214313430001
 30
0.0
 10
53.6329629979
 20
75.04424924999999
 30
0.0
 10
52.8794197479
 20
75.0840370713
 30
0.0
 10
52.1263854661
 20
75.13226821109999
 30
0.0
 10
51.374011756
 20
75.1897137741
 30
0.0
 10
50.62247810209999
 20
75.2571551847
 30
0.0
 10
49.8720421581
 20
75.3358114533
 30
0.0
 10
49.1230124604
 20
75.42686248439999
 30
0.0
 10
48.3758097962
 20
75.531858036
 30
0.0
 10
47.6309408587
 20
75.6523246541
 30
0.0
 10
46.88911169829999
 20
75.7903445053
 30
0.0
 10
46.1512313849
 20
75.94817016340001
 30
0.0
 10
45.5406229389
 20
76.0985597784
 30
0.0
 10
45.05561285229999
 20
76.23193481779999
 30
0.0
 10
44.5732579996
 20
76.37456426209999
 30
0.0
 10
44.09543026419999
 20
76.53229677119999
 30
0.0
 10
43.6239364832
 20
76.7076161387
 30
0.0
 10
43.15732149659999
 20
76.8954897483
 30
0.0
 10
42.58469418919999
 20
77.15609961289999
 30
0.0
 10
41.921568684
 20
77.5173398294
 30
0.0
 10
41.2918822827
 20
77.9345826997
 30
0.0
 10
40.80610424559999
 20
78.3359498675
 30
0.0
 10
40.4497213891
 20
78.6912138208
 30
0.0
 10
40.2003941759
 20
78.97471689609999
 30
0.0
 10
40.0092616863
 20
79.22467711029999
 30
0.0
 10
39.8670066015
 20
79.43216489600001
 30
0.0
 10
39.7320492342
 20
79.6444766767
 30
0.0
 10
39.5770697163
 20
79.9183337532
 30
0.0
 10
39.4134630768
 20
80.25858222630001
 30
0.0
 10
39.2714670752
 20
80.60839111449999
 30
0.0
 10
39.109735639
 20
81.08493354149999
 30
0.0
 10
38.9558869264
 20
81.69573366899999
 30
0.0
 10
38.8372637533
 20
82.4416343274
 30
0.0
 10
38.7731306877
 20
83.19402227160001
 30
0.0
 10
38.7606887344
 20
83.69722412919999
 30
0.0
 10
38.7606883328
 20
83.9487644953
 30
0.0
  0
SPLINE
  5
1806
330
21D
100
AcDbEntity
  8
0
  6
Continuous
 62
     9
100
AcDbSpline
210
0.0
220
0.0
230
1.0
 70
     8
 71
     3
 72
    23
 73
    19
 74
     0
 42
0.0000001
 43
0.0000000001
 40
0.0
 40
0.0
 40
0.0
 40
0.0
 40
0.0625012967
 40
0.1250012412
 40
0.1875012989
 40
0.2500011279
 40
0.3125009754
 40
0.3750008371
 40
0.4375007219000001
 40
0.5000006255000001
 40
0.5625005596000001
 40
0.6250005037
 40
0.6875004564000001
 40
0.7500003891000001
 40
0.8125002973999999
 40
0.8750002652999999
 40
0.9374994426
 40
1.0
 40
1.0
 40
1.0
 40
1.0
 10
56.1860127295
 20
83.9487644953
 30
0.0
 10
56.1860129225
 20
84.01331219959999
 30
0.0
 10
56.19236268409999
 20
84.1424961667
 30
0.0
 10
56.2208504294
 20
84.33432968259999
 30
0.0
 10
56.2680188397
 20
84.5224614634
 30
0.0
 10
56.3334154159
 20
84.7050530979
 30
0.0
 10
56.4164015411
 20
84.88035303329999
 30
0.0
 10
56.51617480199999
 20
85.04667158630001
 30
0.0
 10
56.63176439619999
 20
85.20241354319999
 30
0.0
 10
56.7620535154
 20
85.3460837913
 30
0.0
 10
56.9057790031
 20
85.47631158109998
 30
0.0
 10
57.06155827609999
 20
85.5918497026
 30
0.0
 10
57.2278916888
 20
85.6915962845
 30
0.0
 10
57.4031871834
 20
85.7745894527
 30
0.0
 10
57.58576325119999
 20
85.84002676829999
 30
0.0
 10
57.7738780564
 20
85.88725808200001
 30
0.0
 10
57.9657007963
 20
85.91580946609999
 30
0.0
 10
58.0948834177
 20
85.92218195219999
 30
0.0
 10
58.15943035850001
 20
85.92218212430001
 30
0.0
  0
SPLINE
  5
1807
330
21D
100
AcDbEntity
  8
0
  6
Continuous
 62
     9
100
AcDbSpline
210
0.0
220
0.0
230
1.0
 70
     8
 71
     3
 72
    44
 73
    40
 74
     0
 42
0.0000001
 43
0.0000000001
 40
0.0
 40
0.0
 40
0.0
 40
0.0
 40
0.0312541995
 40
0.0625069751
 40
0.0937569662
 40
0.125002523
 40
0.1406293435
 40
0.1562557161
 40
0.1718816505
 40
0.1875071864
 40
0.1953209794
 40
0.2031347092
 40
0.2187596823
 40
0.2343844965
 40
0.2500092663
 40
0.2812460018
 40
0.3124870817
 40
0.3437310258
 40
0.3749762957
 40
0.3906009211
 40
0.4062254921
 40
0.4374724657
 40
0.4530969213000001
 40
0.4687213543000001
 40
0.4999690986
 40
0.5312171442000001
 40
0.5624654595000001
 40
0.5937140872
 40
0.6249630547000001
 40
0.6562124206000001
 40
0.6874622457
 40
0.718712601
 40
0.7499635561
 40
0.7812151911000001
 40
0.8124676054
 40
0.8437208791999999
 40
0.8749750811
 40
0.9374859033999999
 40
1.0
 40
1.0
 40
1.0
 40
1.0
 10
38.7606883328
 20
83.9487644953
 30
0.0
 10
38.7606887363
 20
84.2003048459
 30
0.0
 10
38.7731307624
 20
84.7035061773
 30
0.0
 10
38.8372634188
 20
85.45589372270001
 30
0.0
 10
38.9558866908
 20
86.2017939497
 30
0.0
 10
39.1097352848
 20
86.81259419979999
 30
0.0
 10
39.27146661710001
 20
87.28913665389999
 30
0.0
 10
39.4134625531
 20
87.638945535
 30
0.0
 10
39.5770690239
 20
87.97919404239999
 30
0.0
 10
39.7320485334
 20
88.2530511
 30
0.0
 10
39.86700580780001
 20
88.4653629409
 30
0.0
 10
40.00926088189999
 20
88.67285074950002
 30
0.0
 10
40.2003933063
 20
88.92281104989999
 30
0.0
 10
40.4497205014
 20
89.20631421819999
 30
0.0
 10
40.8061033219
 20
89.56157833739998
 30
0.0
 10
41.2918815428
 20
89.9629457253
 30
0.0
 10
41.921568041
 20
90.3801888591
 30
0.0
 10
42.5846936987
 20
90.7414290962
 30
0.0
 10
43.15732091109999
 20
91.00203902910001
 30
0.0
 10
43.6239359317
 20
91.18991252909999
 30
0.0
 10
44.095429715
 20
91.3652321126
 30
0.0
 10
44.57325758029999
 20
91.52296452540001
 30
0.0
 10
45.0556124676
 20
91.66559415309999
 30
0.0
 10
45.54062265339999
 20
91.7989691322
 30
0.0
 10
46.15123119569999
 20
91.9493587352
 30
0.0
 10
46.88911159159999
 20
92.1071845023
 30
0.0
 10
47.63094083539999
 20
92.2452044085
 30
0.0
 10
48.3758098832
 20
92.36567085639999
 30
0.0
 10
49.1230126067
 20
92.47066651729999
 30
0.0
 10
49.87204235250001
 20
92.561717747
 30
0.0
 10
50.6224783853
 20
92.64037379760001
 30
0.0
 10
51.37401207689999
 20
92.70781532029999
 30
0.0
 10
52.1263858136
 20
92.7652607747
 30
0.0
 10
52.879420081
 20
92.81349194190001
 30
0.0
 10
53.6329632988
 20
92.85327975600001
 30
0.0
 10
54.3868912005
 20
92.88538590059999
 30
0.0
 10
55.39251461560001
 20
92.91899511229999
 30
0.0
 10
56.6500632643
 20
92.9452338485
 30
0.0
 10
57.6563038023
 20
92.95161701419999
 30
0.0
 10
58.15943035850001
 20
92.9516174049
 30
0.0
  0
ENDSEC
  0
SECTION
  2
OBJECTS
  0
DICTIONARY
  5
C
330
0
100
AcDbDictionary
281
     1
  3
ACAD_CIP_PREVIOUS_PRODUCT_INFO
350
18AA
  3
ACAD_COLOR
350
183E
  3
ACAD_DETAILVIEWSTYLE
350
1857
  3
ACAD_GROUP
350
D
  3
ACAD_LAYOUT
350
1A
  3
ACAD_MATERIAL
350
180C
  3
ACAD_MLEADERSTYLE
350
1853
  3
ACAD_MLINESTYLE
350
17
  3
ACAD_PLOTSETTINGS
350
19
  3
ACAD_PLOTSTYLENAME
350
E
  3
ACAD_SCALELIST
350
1841
  3
ACAD_SECTIONVIEWSTYLE
350
1855
  3
ACAD_TABLESTYLE
350
183F
  3
ACAD_VISUALSTYLE
350
1825
  3
ACDB_RECOMPOSE_DATA
350
19CF
  3
AcDbVariableDictionary
350
189B
  3
AcDsDecomposeData
350
19D6
  3
DWGPROPS
350
19D0
  0
DICTIONARY
  5
185C
330
8
100
AcDbDictionary
280
     1
281
     1
  0
DICTIONARY
  5
18E6
330
2
100
AcDbDictionary
280
     1
281
     1
  3
ACAD_LAYERSTATES
360
18E7
  0
DICTIONARY
  5
18AB
330
10
100
AcDbDictionary
280
     1
281
     1
  3
ADSK_XREC_LAYER_RECONCILED
360
18AC
  0
DICTIONARY
  5
18AD
330
1FA
100
AcDbDictionary
280
     1
281
     1
  3
ADSK_XREC_LAYER_RECONCILED
360
18AE
  0
DICTIONARY
  5
18AF
330
1FB
100
AcDbDictionary
280
     1
281
     1
  3
ADSK_XREC_LAYER_RECONCILED
360
18B0
  0
DICTIONARY
  5
18B1
330
1FC
100
AcDbDictionary
280
     1
281
     1
  3
ADSK_XREC_LAYER_RECONCILED
360
18B2
  0
DICTIONARY
  5
18B3
330
1FD
100
AcDbDictionary
280
     1
281
     1
  3
ADSK_XREC_LAYER_RECONCILED
360
18B4
  0
DICTIONARY
  5
18B5
330
1FE
100
AcDbDictionary
280
     1
281
     1
  3
ADSK_XREC_LAYER_RECONCILED
360
18B6
  0
DICTIONARY
  5
18B7
330
1FF
100
AcDbDictionary
280
     1
281
     1
  3
ADSK_XREC_LAYER_RECONCILED
360
18B8
  0
DICTIONARY
  5
18B9
330
200
100
AcDbDictionary
280
     1
281
     1
  3
ADSK_XREC_LAYER_RECONCILED
360
18BA
  0
DICTIONARY
  5
18BB
330
201
100
AcDbDictionary
280
     1
281
     1
  3
ADSK_XREC_LAYER_RECONCILED
360
18BC
  0
DICTIONARY
  5
18BD
330
202
100
AcDbDictionary
280
     1
281
     1
  3
ADSK_XREC_LAYER_RECONCILED
360
18BE
  0
DICTIONARY
  5
18BF
330
203
100
AcDbDictionary
280
     1
281
     1
  3
ADSK_XREC_LAYER_RECONCILED
360
18C0
  0
DICTIONARY
  5
18C1
330
204
100
AcDbDictionary
280
     1
281
     1
  3
ADSK_XREC_LAYER_RECONCILED
360
18C2
  0
DICTIONARY
  5
18C3
330
205
100
AcDbDictionary
280
     1
281
     1
  3
ADSK_XREC_LAYER_RECONCILED
360
18C4
  0
DICTIONARY
  5
18C5
330
206
100
AcDbDictionary
280
     1
281
     1
  3
ADSK_XREC_LAYER_RECONCILED
360
18C6
  0
DICTIONARY
  5
18C7
330
207
100
AcDbDictionary
280
     1
281
     1
  3
ADSK_XREC_LAYER_RECONCILED
360
18C8
  0
DICTIONARY
  5
18C9
330
208
100
AcDbDictionary
280
     1
281
     1
  3
ADSK_XREC_LAYER_RECONCILED
360
18CA
  0
DICTIONARY
  5
18CB
330
209
100
AcDbDictionary
280
     1
281
     1
  3
ADSK_XREC_LAYER_RECONCILED
360
18CC
  0
DICTIONARY
  5
18CD
330
20A
100
AcDbDictionary
280
     1
281
     1
  3
ADSK_XREC_LAYER_RECONCILED
360
18CE
  0
DICTIONARY
  5
18CF
330
20B
100
AcDbDictionary
280
     1
281
     1
  3
ADSK_XREC_LAYER_RECONCILED
360
18D0
  0
DICTIONARY
  5
18D1
330
20C
100
AcDbDictionary
280
     1
281
     1
  3
ADSK_XREC_LAYER_RECONCILED
360
18D2
  0
DICTIONARY
  5
18D3
330
20D
100
AcDbDictionary
280
     1
281
     1
  3
ADSK_XREC_LAYER_RECONCILED
360
18D4
  0
DICTIONARY
  5
18D5
330
20E
100
AcDbDictionary
280
     1
281
     1
  3
ADSK_XREC_LAYER_RECONCILED
360
18D6
  0
DICTIONARY
  5
18D7
330
20F
100
AcDbDictionary
280
     1
281
     1
  3
ADSK_XREC_LAYER_RECONCILED
360
18D8
  0
DICTIONARY
  5
18D9
330
210
100
AcDbDictionary
280
     1
281
     1
  3
ADSK_XREC_LAYER_RECONCILED
360
18DA
  0
DICTIONARY
  5
18DB
330
211
100
AcDbDictionary
280
     1
281
     1
  3
ADSK_XREC_LAYER_RECONCILED
360
18DC
  0
DICTIONARY
  5
18DD
330
212
100
AcDbDictionary
280
     1
281
     1
  3
ADSK_XREC_LAYER_RECONCILED
360
18DE
  0
DICTIONARY
  5
18DF
330
213
100
AcDbDictionary
280
     1
281
     1
  3
ADSK_XREC_LAYER_RECONCILED
360
18E0
  0
DICTIONARY
  5
18E1
330
214
100
AcDbDictionary
280
     1
281
     1
  3
ADSK_XREC_LAYER_RECONCILED
360
18E2
  0
XRECORD
  5
18AA
102
{ACAD_REACTORS
330
C
102
}
330
C
100
AcDbXrecord
280
     1
300
ACDLT
300
2018
300
ACDLT_F_S
  0
DICTIONARY
  5
183E
102
{ACAD_REACTORS
330
C
102
}
330
C
100
AcDbDictionary
281
     1
  0
DICTIONARY
  5
1857
102
{ACAD_REACTORS
330
C
102
}
330
C
100
AcDbDictionary
281
     1
  3
Imperial24
350
1858
  0
DICTIONARY
  5
D
102
{ACAD_REACTORS
330
C
102
}
330
C
100
AcDbDictionary
281
     1
  0
DICTIONARY
  5
1A
102
{ACAD_REACTORS
330
C
102
}
330
C
100
AcDbDictionary
281
     1
  3
Layout1
350
1809
  3
Model
350
1808
  0
DICTIONARY
  5
180C
102
{ACAD_REACTORS
330
C
102
}
330
C
100
AcDbDictionary
281
     1
  3
ByBlock
350
1815
  3
ByLayer
350
180D
  3
Global
350
181D
  0
DICTIONARY
  5
1853
102
{ACAD_REACTORS
330
C
102
}
330
C
100
AcDbDictionary
281
     1
  3
Standard
350
1854
  0
DICTIONARY
  5
17
102
{ACAD_REACTORS
330
C
102
}
330
C
100
AcDbDictionary
281
     1
  3
Standard
350
18
  0
DICTIONARY
  5
19
102
{ACAD_REACTORS
330
C
102
}
330
C
100
AcDbDictionary
281
     1
  0
ACDBDICTIONARYWDFLT
  5
E
102
{ACAD_REACTORS
330
C
102
}
330
C
100
AcDbDictionary
281
     1
  3
Normal
350
F
100
AcDbDictionaryWithDefault
340
F
  0
DICTIONARY
  5
1841
102
{ACAD_REACTORS
330
C
102
}
330
C
100
AcDbDictionary
281
     1
  3
A0
350
1842
  3
A1
350
1843
  3
A2
350
1844
  3
A3
350
1845
  3
A4
350
1846
  3
A5
350
1847
  3
A6
350
1848
  3
A7
350
1849
  3
A8
350
184A
  3
A9
350
184B
  3
B0
350
184C
  3
B1
350
184D
  3
B2
350
184E
  3
B3
350
184F
  3
B4
350
1850
  3
B5
350
1851
  3
B6
350
1852
  0
DICTIONARY
  5
1855
102
{ACAD_REACTORS
330
C
102
}
330
C
100
AcDbDictionary
281
     1
  3
Imperial24
350
1856
  0
DICTIONARY
  5
183F
102
{ACAD_REACTORS
330
C
102
}
330
C
100
AcDbDictionary
281
     1
  3
Standard
350
1840
  0
DICTIONARY
  5
1825
102
{ACAD_REACTORS
330
C
102
}
330
C
100
AcDbDictionary
281
     1
  3
2dWireframe
350
182B
  3
Basic
350
182A
  3
Brighten
350
1831
  3
ColorChange
350
1835
  3
Conceptual
350
182E
  3
Dim
350
1830
  3
EdgeColorOff
350
183D
  3
Facepattern
350
1834
  3
Flat
350
1826
  3
FlatWithEdges
350
1827
  3
Gouraud
350
1828
  3
GouraudWithEdges
350
1829
  3
Hidden
350
182D
  3
JitterOff
350
183B
  3
Linepattern
350
1833
  3
OverhangOff
350
183C
  3
Realistic
350
182F
  3
Shaded
350
183A
  3
Shaded with edges
350
1839
  3
Shades of Gray
350
1836
  3
Sketchy
350
1837
  3
Thicken
350
1832
  3
Wireframe
350
182C
  3
X-Ray
350
1838
  0
XRECORD
  5
19CF
102
{ACAD_REACTORS
330
C
102
}
330
C
100
AcDbXrecord
280
     1
 90
        1
330
1840
  0
DICTIONARY
  5
189B
102
{ACAD_REACTORS
330
C
102
}
330
C
100
AcDbDictionary
281
     1
  3
CANNOSCALE
350
18A0
  3
CMLEADERSTYLE
350
189D
  3
CTABLESTYLE
350
189C
  3
CVIEWDETAILSTYLE
350
189E
  3
CVIEWSECTIONSTYLE
350
189F
  3
DIMASSOC
350
18A3
  3
INDEXCTL
350
18A2
  3
SORTENTS
350
18A1
  3
XCLIPFRAME
350
19CD
  0
DICTIONARY
  5
19D6
102
{ACAD_REACTORS
330
C
102
}
330
C
100
AcDbDictionary
281
     1
  3
AcDsRecords
350
19D8
  3
AcDsSchemas
350
19D7
1001
ACAD
1070
     2
  0
XRECORD
  5
19D0
102
{ACAD_REACTORS
330
C
102
}
330
C
100
AcDbXrecord
280
     1
  1
DWGPROPS COOKIE
  2

  3

  4

  6

  7

  8
guillaumes
  9

300
=
301
=
302
=
303
=
304
=
305
=
306
=
307
=
308
=
309
=
 40
0.0080902777777778
 41
2458156.374976852
 42
2458156.406608797
  1

 90
        0
  0
DICTIONARY
  5
18E7
102
{ACAD_REACTORS
330
18E6
102
}
330
18E6
100
AcDbDictionary
281
     1
  0
XRECORD
  5
18AC
102
{ACAD_REACTORS
330
18AB
102
}
330
18AB
100
AcDbXrecord
280
     1
290
     1
  0
XRECORD
  5
18AE
102
{ACAD_REACTORS
330
18AD
102
}
330
18AD
100
AcDbXrecord
280
     1
290
     1
  0
XRECORD
  5
18B0
102
{ACAD_REACTORS
330
18AF
102
}
330
18AF
100
AcDbXrecord
280
     1
290
     1
  0
XRECORD
  5
18B2
102
{ACAD_REACTORS
330
18B1
102
}
330
18B1
100
AcDbXrecord
280
     1
290
     1
  0
XRECORD
  5
18B4
102
{ACAD_REACTORS
330
18B3
102
}
330
18B3
100
AcDbXrecord
280
     1
290
     1
  0
XRECORD
  5
18B6
102
{ACAD_REACTORS
330
18B5
102
}
330
18B5
100
AcDbXrecord
280
     1
290
     1
  0
XRECORD
  5
18B8
102
{ACAD_REACTORS
330
18B7
102
}
330
18B7
100
AcDbXrecord
280
     1
290
     1
  0
XRECORD
  5
18BA
102
{ACAD_REACTORS
330
18B9
102
}
330
18B9
100
AcDbXrecord
280
     1
290
     1
  0
XRECORD
  5
18BC
102
{ACAD_REACTORS
330
18BB
102
}
330
18BB
100
AcDbXrecord
280
     1
290
     1
  0
XRECORD
  5
18BE
102
{ACAD_REACTORS
330
18BD
102
}
330
18BD
100
AcDbXrecord
280
     1
290
     1
  0
XRECORD
  5
18C0
102
{ACAD_REACTORS
330
18BF
102
}
330
18BF
100
AcDbXrecord
280
     1
290
     1
  0
XRECORD
  5
18C2
102
{ACAD_REACTORS
330
18C1
102
}
330
18C1
100
AcDbXrecord
280
     1
290
     1
  0
XRECORD
  5
18C4
102
{ACAD_REACTORS
330
18C3
102
}
330
18C3
100
AcDbXrecord
280
     1
290
     1
  0
XRECORD
  5
18C6
102
{ACAD_REACTORS
330
18C5
102
}
330
18C5
100
AcDbXrecord
280
     1
290
     1
  0
XRECORD
  5
18C8
102
{ACAD_REACTORS
330
18C7
102
}
330
18C7
100
AcDbXrecord
280
     1
290
     1
  0
XRECORD
  5
18CA
102
{ACAD_REACTORS
330
18C9
102
}
330
18C9
100
AcDbXrecord
280
     1
290
     1
  0
XRECORD
  5
18CC
102
{ACAD_REACTORS
330
18CB
102
}
330
18CB
100
AcDbXrecord
280
     1
290
     1
  0
XRECORD
  5
18CE
102
{ACAD_REACTORS
330
18CD
102
}
330
18CD
100
AcDbXrecord
280
     1
290
     1
  0
XRECORD
  5
18D0
102
{ACAD_REACTORS
330
18CF
102
}
330
18CF
100
AcDbXrecord
280
     1
290
     1
  0
XRECORD
  5
18D2
102
{ACAD_REACTORS
330
18D1
102
}
330
18D1
100
AcDbXrecord
280
     1
290
     1
  0
XRECORD
  5
18D4
102
{ACAD_REACTORS
330
18D3
102
}
330
18D3
100
AcDbXrecord
280
     1
290
     1
  0
XRECORD
  5
18D6
102
{ACAD_REACTORS
330
18D5
102
}
330
18D5
100
AcDbXrecord
280
     1
290
     1
  0
XRECORD
  5
18D8
102
{ACAD_REACTORS
330
18D7
102
}
330
18D7
100
AcDbXrecord
280
     1
290
     1
  0
XRECORD
  5
18DA
102
{ACAD_REACTORS
330
18D9
102
}
330
18D9
100
AcDbXrecord
280
     1
290
     1
  0
XRECORD
  5
18DC
102
{ACAD_REACTORS
330
18DB
102
}
330
18DB
100
AcDbXrecord
280
     1
290
     1
  0
XRECORD
  5
18DE
102
{ACAD_REACTORS
330
18DD
102
}
330
18DD
100
AcDbXrecord
280
     1
290
     1
  0
XRECORD
  5
18E0
102
{ACAD_REACTORS
330
18DF
102
}
330
18DF
100
AcDbXrecord
280
     1
290
     1
  0
XRECORD
  5
18E2
102
{ACAD_REACTORS
330
18E1
102
}
330
18E1
100
AcDbXrecord
280
     1
290
     1
  0
ACDBDETAILVIEWSTYLE
  5
1858
102
{ACAD_XDICTIONARY
360
1A13
102
}
102
{ACAD_REACTORS
330
1857
102
}
330
1857
100
AcDbModelDocViewStyle
 70
     0
  3
Imperial24
290
     0
100
AcDbDetailViewStyle
 70
     0
 71
     0
 90
        3
 71
     1
340
11
 40
0.24
340
0
 40
0.24
300

 40
0.36
280
     3
 71
     2
340
16
 90
       25
 71
     3
340
11
 40
0.24
 90
        1
 40
0.75
 90
        1
300
%<\AcVar ViewType \f "%tc1">% %<\AcVar ViewDetailId>%\PSCALE %<\AcVar ViewScale \f "%sn">%
 71
     4
340
16
 90
       25
340
16
 90
       25
280
     0
  0
LAYOUT
  5
1809
102
{ACAD_XDICTIONARY
360
19DB
102
}
102
{ACAD_REACTORS
330
1A
102
}
330
1A
100
AcDbPlotSettings
  1

  2
none_device
  4
ANSI_B_(17.00_x_11.00_Inches)
  6

 40
0.0
 41
0.0
 42
0.0
 43
0.0
 44
431.8
 45
279.4
 46
0.0
 47
0.0
 48
0.0
 49
0.0
140
0.0
141
0.0
142
1.0
143
1.0
 70
     0
 72
     0
 73
     0
 74
     0
  7

 75
     0
147
1.0
148
0.0
149
0.0
100
AcDbLayout
  1
Layout1
 70
     1
 71
     1
 10
0.0
 20
0.0
 11
12.0
 21
9.0
 12
0.0
 22
0.0
 32
0.0
 14
1.000000000000000E+20
 24
1.000000000000000E+20
 34
1.000000000000000E+20
 15
-1.000000000000000E+20
 25
-1.000000000000000E+20
 35
-1.000000000000000E+20
146
0.0
 13
0.0
 23
0.0
 33
0.0
 16
1.0
 26
0.0
 36
0.0
 17
0.0
 27
1.0
 37
0.0
 76
     0
330
21E
  0
LAYOUT
  5
1808
102
{ACAD_XDICTIONARY
360
19D9
102
}
102
{ACAD_REACTORS
330
1A
102
}
330
1A
100
AcDbPlotSettings
  1

  2
none_device
  4
ANSI_B_(17.00_x_11.00_Inches)
  6

 40
0.0
 41
0.0
 42
0.0
 43
0.0
 44
431.8
 45
279.4
 46
0.0
 47
0.0
 48
0.0
 49
0.0
140
0.0
141
0.0
142
1.0
143
1.0
 70
  1024
 72
     0
 73
     0
 74
     0
  7

 75
     0
147
1.0
148
0.0
149
0.0
100
AcDbLayout
  1
Model
 70
     0
 71
     0
 10
0.0
 20
0.0
 11
17.0
 21
11.0
 12
0.0
 22
0.0
 32
0.0
 14
0.0
 24
0.0
 34
0.0
 15
0.0
 25
0.0
 35
0.0
146
0.0
 13
0.0
 23
0.0
 33
0.0
 16
1.0
 26
0.0
 36
0.0
 17
0.0
 27
1.0
 37
0.0
 76
     0
330
21D
331
1F4
  0
MATERIAL
  5
1815
102
{ACAD_XDICTIONARY
360
1816
102
}
102
{ACAD_REACTORS
330
180C
102
}
330
180C
100
AcDbMaterial
  1
ByBlock
 72
     0
 43
0.0208333333333333
 43
0.0
 43
0.0
 43
0.0
 43
0.0
 43
0.0208333333333333
 43
0.0
 43
0.0
 43
0.0
 43
0.0
 43
1.0
 43
0.0
 43
0.0
 43
0.0
 43
0.0
 43
1.0
 77
     0
 47
0.0208333333333333
 47
0.0
 47
0.0
 47
0.0
 47
0.0
 47
0.0208333333333333
 47
0.0
 47
0.0
 47
0.0
 47
0.0
 47
1.0
 47
0.0
 47
0.0
 47
0.0
 47
0.0
 47
1.0
171
     0
 49
0.0208333333333333
 49
0.0
 49
0.0
 49
0.0
 49
0.0
 49
0.0208333333333333
 49
0.0
 49
0.0
 49
0.0
 49
0.0
 49
1.0
 49
0.0
 49
0.0
 49
0.0
 49
0.0
 49
1.0
175
     0
142
0.0208333333333333
142
0.0
142
0.0
142
0.0
142
0.0
142
0.0208333333333333
142
0.0
142
0.0
142
0.0
142
0.0
142
1.0
142
0.0
142
0.0
142
0.0
142
0.0
142
1.0
179
     0
144
0.0208333333333333
144
0.0
144
0.0
144
0.0
144
0.0
144
0.0208333333333333
144
0.0
144
0.0
144
0.0
144
0.0
144
1.0
144
0.0
144
0.0
144
0.0
144
0.0
144
1.0
147
0.0208333333333333
147
0.0
147
0.0
147
0.0
147
0.0
147
0.0208333333333333
147
0.0
147
0.0
147
0.0
147
0.0
147
1.0
147
0.0
147
0.0
147
0.0
147
0.0
147
1.0
  0
MATERIAL
  5
180D
102
{ACAD_XDICTIONARY
360
180E
102
}
102
{ACAD_REACTORS
330
180C
102
}
330
180C
100
AcDbMaterial
  1
ByLayer
 72
     0
 43
0.0208333333333333
 43
0.0
 43
0.0
 43
0.0
 43
0.0
 43
0.0208333333333333
 43
0.0
 43
0.0
 43
0.0
 43
0.0
 43
1.0
 43
0.0
 43
0.0
 43
0.0
 43
0.0
 43
1.0
 77
     0
 47
0.0208333333333333
 47
0.0
 47
0.0
 47
0.0
 47
0.0
 47
0.0208333333333333
 47
0.0
 47
0.0
 47
0.0
 47
0.0
 47
1.0
 47
0.0
 47
0.0
 47
0.0
 47
0.0
 47
1.0
171
     0
 49
0.0208333333333333
 49
0.0
 49
0.0
 49
0.0
 49
0.0
 49
0.0208333333333333
 49
0.0
 49
0.0
 49
0.0
 49
0.0
 49
1.0
 49
0.0
 49
0.0
 49
0.0
 49
0.0
 49
1.0
175
     0
142
0.0208333333333333
142
0.0
142
0.0
142
0.0
142
0.0
142
0.0208333333333333
142
0.0
142
0.0
142
0.0
142
0.0
142
1.0
142
0.0
142
0.0
142
0.0
142
0.0
142
1.0
179
     0
144
0.0208333333333333
144
0.0
144
0.0
144
0.0
144
0.0
144
0.0208333333333333
144
0.0
144
0.0
144
0.0
144
0.0
144
1.0
144
0.0
144
0.0
144
0.0
144
0.0
144
1.0
147
0.0208333333333333
147
0.0
147
0.0
147
0.0
147
0.0
147
0.0208333333333333
147
0.0
147
0.0
147
0.0
147
0.0
147
1.0
147
0.0
147
0.0
147
0.0
147
0.0
147
1.0
  0
MATERIAL
  5
181D
102
{ACAD_XDICTIONARY
360
181E
102
}
102
{ACAD_REACTORS
330
180C
102
}
330
180C
100
AcDbMaterial
  1
Global
 72
     0
 43
0.0208333333333333
 43
0.0
 43
0.0
 43
0.0
 43
0.0
 43
0.0208333333333333
 43
0.0
 43
0.0
 43
0.0
 43
0.0
 43
1.0
 43
0.0
 43
0.0
 43
0.0
 43
0.0
 43
1.0
 77
     0
 47
0.0208333333333333
 47
0.0
 47
0.0
 47
0.0
 47
0.0
 47
0.0208333333333333
 47
0.0
 47
0.0
 47
0.0
 47
0.0
 47
1.0
 47
0.0
 47
0.0
 47
0.0
 47
0.0
 47
1.0
171
     0
 49
0.0208333333333333
 49
0.0
 49
0.0
 49
0.0
 49
0.0
 49
0.0208333333333333
 49
0.0
 49
0.0
 49
0.0
 49
0.0
 49
1.0
 49
0.0
 49
0.0
 49
0.0
 49
0.0
 49
1.0
175
     0
142
0.0208333333333333
142
0.0
142
0.0
142
0.0
142
0.0
142
0.0208333333333333
142
0.0
142
0.0
142
0.0
142
0.0
142
1.0
142
0.0
142
0.0
142
0.0
142
0.0
142
1.0
179
     0
144
0.0208333333333333
144
0.0
144
0.0
144
0.0
144
0.0
144
0.0208333333333333
144
0.0
144
0.0
144
0.0
144
0.0
144
1.0
144
0.0
144
0.0
144
0.0
144
0.0
144
1.0
147
0.0208333333333333
147
0.0
147
0.0
147
0.0
147
0.0
147
0.0208333333333333
147
0.0
147
0.0
147
0.0
147
0.0
147
1.0
147
0.0
147
0.0
147
0.0
147
0.0
147
1.0
  0
MLEADERSTYLE
  5
1854
102
{ACAD_REACTORS
330
1853
102
}
330
1853
100
AcDbMLeaderStyle
170
     2
171
     1
172
     0
 90
        2
 40
0.0
 41
0.0
173
     1
 91
-1056964608
340
14
 92
       -2
290
     1
 42
0.09
291
     1
 43
0.36
  3
Standard
 44
0.18
300

342
11
174
     1
178
     6
175
     1
176
     0
 93
-1056964608
 45
0.18
292
     0
297
     0
 46
0.18
 94
-1056964608
 47
1.0
 49
1.0
140
1.0
293
     1
141
0.0
294
     1
177
     0
142
1.0
295
     0
296
     0
143
0.125
1001
ACAD_MLEADERVER
1070
     2
  0
MLINESTYLE
  5
18
102
{ACAD_REACTORS
330
17
102
}
330
17
100
AcDbMlineStyle
  2
STANDARD
 70
     0
  3

 62
   256
 51
90.0
 52
90.0
 71
     2
 49
0.5
 62
   256
  6
BYLAYER
 49
-0.5
 62
   256
  6
BYLAYER
  0
ACDBPLACEHOLDER
  5
F
102
{ACAD_REACTORS
330
E
102
}
330
E
  0
SCALE
  5
1842
102
{ACAD_REACTORS
330
1841
102
}
330
1841
100
AcDbScale
 70
     0
300
1:1
140
1.0
141
1.0
290
     1
  0
SCALE
  5
1843
102
{ACAD_REACTORS
330
1841
102
}
330
1841
100
AcDbScale
 70
     0
300
1/128" = 1'-0"
140
0.0078125
141
12.0
290
     0
  0
SCALE
  5
1844
102
{ACAD_REACTORS
330
1841
102
}
330
1841
100
AcDbScale
 70
     0
300
1/64" = 1'-0"
140
0.015625
141
12.0
290
     0
  0
SCALE
  5
1845
102
{ACAD_REACTORS
330
1841
102
}
330
1841
100
AcDbScale
 70
     0
300
1/32" = 1'-0"
140
0.03125
141
12.0
290
     0
  0
SCALE
  5
1846
102
{ACAD_REACTORS
330
1841
102
}
330
1841
100
AcDbScale
 70
     0
300
1/16" = 1'-0"
140
0.0625
141
12.0
290
     0
  0
SCALE
  5
1847
102
{ACAD_REACTORS
330
1841
102
}
330
1841
100
AcDbScale
 70
     0
300
3/32" = 1'-0"
140
0.09375
141
12.0
290
     0
  0
SCALE
  5
1848
102
{ACAD_REACTORS
330
1841
102
}
330
1841
100
AcDbScale
 70
     0
300
1/8" = 1'-0"
140
0.125
141
12.0
290
     0
  0
SCALE
  5
1849
102
{ACAD_REACTORS
330
1841
102
}
330
1841
100
AcDbScale
 70
     0
300
3/16" = 1'-0"
140
0.1875
141
12.0
290
     0
  0
SCALE
  5
184A
102
{ACAD_REACTORS
330
1841
102
}
330
1841
100
AcDbScale
 70
     0
300
1/4" = 1'-0"
140
0.25
141
12.0
290
     0
  0
SCALE
  5
184B
102
{ACAD_REACTORS
330
1841
102
}
330
1841
100
AcDbScale
 70
     0
300
3/8" = 1'-0"
140
0.375
141
12.0
290
     0
  0
SCALE
  5
184C
102
{ACAD_REACTORS
330
1841
102
}
330
1841
100
AcDbScale
 70
     0
300
1/2" = 1'-0"
140
0.5
141
12.0
290
     0
  0
SCALE
  5
184D
102
{ACAD_REACTORS
330
1841
102
}
330
1841
100
AcDbScale
 70
     0
300
3/4" = 1'-0"
140
0.75
141
12.0
290
     0
  0
SCALE
  5
184E
102
{ACAD_REACTORS
330
1841
102
}
330
1841
100
AcDbScale
 70
     0
300
1" = 1'-0"
140
1.0
141
12.0
290
     0
  0
SCALE
  5
184F
102
{ACAD_REACTORS
330
1841
102
}
330
1841
100
AcDbScale
 70
     0
300
1-1/2" = 1'-0"
140
1.5
141
12.0
290
     0
  0
SCALE
  5
1850
102
{ACAD_REACTORS
330
1841
102
}
330
1841
100
AcDbScale
 70
     0
300
3" = 1'-0"
140
3.0
141
12.0
290
     0
  0
SCALE
  5
1851
102
{ACAD_REACTORS
330
1841
102
}
330
1841
100
AcDbScale
 70
     0
300
6" = 1'-0"
140
6.0
141
12.0
290
     0
  0
SCALE
  5
1852
102
{ACAD_REACTORS
330
1841
102
}
330
1841
100
AcDbScale
 70
     0
300
1'-0" = 1'-0"
140
12.0
141
12.0
290
     0
  0
ACDBSECTIONVIEWSTYLE
  5
1856
102
{ACAD_XDICTIONARY
360
1A11
102
}
102
{ACAD_REACTORS
330
1855
102
}
330
1855
100
AcDbModelDocViewStyle
 70
     0
  3
Imperial24
290
     0
100
AcDbSectionViewStyle
 70
     0
 71
     0
 90
       78
 71
     1
340
11
 40
0.24
340
0
340
0
 40
0.24
300
I, O, Q, S, X, Z
 40
0.48
 90
        3
 40
0.18
 90
        1
 71
     2
340
16
 90
       25
340
16
 90
       50
 40
0.24
 40
0.0
 40
0.24
 71
     3
340
11
 40
0.24
 90
        1
 40
0.75
 90
        1
300
%<\AcVar ViewType \f "%tc1">% %<\AcVar ViewSectionStartId>%-%<\AcVar ViewSectionEndId>%\PSCALE %<\AcVar ViewScale \f "%sn">%
 71
     4
300
ANSI31
 40
1.0
 90
        0
290
     0
290
     0
 90
        6
 40
0.0
 40
1.570796326794896
 40
0.2617993877991494
 40
1.308996938995747
 40
-0.2617993877991494
 40
1.832595714594046
  0
TABLESTYLE
  5
1840
102
{ACAD_XDICTIONARY
360
1859
102
}
102
{ACAD_REACTORS
330
183F
102
}
330
183F
100
AcDbTableStyle
  3
Standard
 70
     0
 71
     0
 40
0.06
 41
0.06
280
     0
281
     0
  7
STANDARD
140
0.18
170
     2
 62
     0
 63
     7
283
     0
274
    -2
284
     1
 64
     0
275
    -2
285
     1
 65
     0
276
    -2
286
     1
 66
     0
277
    -2
287
     1
 67
     0
278
    -2
288
     1
 68
     0
279
    -2
289
     1
 69
     0
  7
STANDARD
140
0.25
170
     5
 62
     0
 63
     7
283
     0
274
    -2
284
     1
 64
     0
275
    -2
285
     1
 65
     0
276
    -2
286
     1
 66
     0
277
    -2
287
     1
 67
     0
278
    -2
288
     1
 68
     0
279
    -2
289
     1
 69
     0
  7
STANDARD
140
0.18
170
     5
 62
     0
 63
     7
283
     0
274
    -2
284
     1
 64
     0
275
    -2
285
     1
 65
     0
276
    -2
286
     1
 66
     0
277
    -2
287
     1
 67
     0
278
    -2
288
     1
 68
     0
279
    -2
289
     1
 69
     0
  0
VISUALSTYLE
  5
182B
102
{ACAD_XDICTIONARY
360
19EA
102
}
102
{ACAD_REACTORS
330
1825
102
}
330
1825
100
AcDbVisualStyle
  2
2dWireframe
 70
     4
 71
     0
 72
     2
 73
     0
 90
        0
 40
-0.6
 41
-30.0
 62
     5
 63
     7
 74
     1
 91
        4
 64
     7
 65
   257
 75
     1
175
     1
 42
1.0
 92
        0
 66
   257
 43
1.0
 76
     1
 77
     6
 78
     2
 67
     7
 79
     5
170
     0
171
     0
290
     0
174
     0
 93
        1
 44
0.0
173
     0
291
     0
 45
0.0
1001
ACAD
1000
AcDbSavedByObjectVersion
1070
     0
  0
VISUALSTYLE
  5
182A
102
{ACAD_XDICTIONARY
360
19E8
102
}
102
{ACAD_REACTORS
330
1825
102
}
330
1825
100
AcDbVisualStyle
  2
Basic
 70
     7
 71
     1
 72
     0
 73
     1
 90
        0
 40
-0.6
 41
-30.0
 62
     5
 63
     7
 74
     0
 91
        4
 64
     7
 65
   257
 75
     1
175
     1
 42
1.0
 92
        8
 66
     7
 43
1.0
 76
     1
 77
     6
 78
     2
 67
     7
 79
     5
170
     0
171
     0
290
     0
174
     0
 93
        1
 44
0.0
173
     0
291
     1
 45
0.0
1001
ACAD
1000
AcDbSavedByObjectVersion
1070
     0
  0
VISUALSTYLE
  5
1831
102
{ACAD_XDICTIONARY
360
19F6
102
}
102
{ACAD_REACTORS
330
1825
102
}
330
1825
100
AcDbVisualStyle
  2
Brighten
 70
    12
 71
     2
 72
     2
 73
     0
 90
        0
 40
-0.6
 41
-30.0
 62
     5
 63
     7
 74
     1
 91
        4
 64
     7
 65
   257
 75
     1
175
     1
 42
1.0
 92
        8
 66
     7
 43
1.0
 76
     1
 77
     6
 78
     2
 67
     7
 79
     5
170
     0
171
     0
290
     0
174
     0
 93
        1
 44
50.0
173
     0
291
     1
 45
0.0
1001
ACAD
1000
AcDbSavedByObjectVersion
1070
     0
  0
VISUALSTYLE
  5
1835
102
{ACAD_XDICTIONARY
360
19FE
102
}
102
{ACAD_REACTORS
330
1825
102
}
330
1825
100
AcDbVisualStyle
  2
ColorChange
 70
    16
 71
     2
 72
     2
 73
     3
 90
        0
 40
-0.6
 41
-30.0
 62
     5
 63
     8
 74
     1
 91
        4
 64
     7
 65
   257
 75
     1
175
     1
 42
1.0
 92
        8
 66
     8
 43
1.0
 76
     1
 77
     6
 78
     2
 67
     7
 79
     5
170
     0
171
     0
290
     0
174
     0
 93
        1
 44
0.0
173
     0
291
     1
 45
0.0
1001
ACAD
1000
AcDbSavedByObjectVersion
1070
     0
  0
VISUALSTYLE
  5
182E
102
{ACAD_XDICTIONARY
360
19F0
102
}
102
{ACAD_REACTORS
330
1825
102
}
330
1825
100
AcDbVisualStyle
  2
Conceptual
 70
     9
 71
     3
 72
     2
 73
     0
 90
        0
 40
-0.6
 41
-30.0
 62
     5
 63
     7
 74
     2
 91
        2
 64
     7
 65
   257
 75
     1
175
     1
 42
179.0
 92
        8
 66
     7
 43
1.0
 76
     1
 77
     6
 78
     2
 67
     7
 79
     3
170
     0
171
     0
290
     0
174
     0
 93
        1
 44
0.0
173
     0
291
     0
 45
0.0
1001
ACAD
1000
AcDbSavedByObjectVersion
1070
     0
  0
VISUALSTYLE
  5
1830
102
{ACAD_XDICTIONARY
360
19F4
102
}
102
{ACAD_REACTORS
330
1825
102
}
330
1825
100
AcDbVisualStyle
  2
Dim
 70
    11
 71
     2
 72
     2
 73
     0
 90
        0
 40
-0.6
 41
-30.0
 62
     5
 63
     7
 74
     1
 91
        4
 64
     7
 65
   257
 75
     1
175
     1
 42
1.0
 92
        8
 66
     7
 43
1.0
 76
     1
 77
     6
 78
     2
 67
     7
 79
     5
170
     0
171
     0
290
     0
174
     0
 93
        1
 44
-50.0
173
     0
291
     1
 45
0.0
1001
ACAD
1000
AcDbSavedByObjectVersion
1070
     0
  0
VISUALSTYLE
  5
183D
102
{ACAD_XDICTIONARY
360
1A0E
102
}
102
{ACAD_REACTORS
330
1825
102
}
330
1825
100
AcDbVisualStyle
  2
EdgeColorOff
 70
    22
 71
     2
 72
     2
 73
     0
 90
        0
 40
-0.6
 41
-30.0
 62
     5
 63
     7
 74
     1
 91
        4
 64
     7
 65
   257
 75
     1
175
     1
 42
1.0
 92
        8
 66
     7
 43
1.0
 76
     1
 77
     6
 78
     2
 67
     7
 79
     5
170
     0
171
     0
290
     0
174
     0
 93
        1
 44
0.0
173
     0
291
     1
 45
0.0
1001
ACAD
1000
AcDbSavedByObjectVersion
1070
     0
  0
VISUALSTYLE
  5
1834
102
{ACAD_XDICTIONARY
360
19FC
102
}
102
{ACAD_REACTORS
330
1825
102
}
330
1825
100
AcDbVisualStyle
  2
Facepattern
 70
    15
 71
     2
 72
     2
 73
     0
 90
        0
 40
-0.6
 41
-30.0
 62
     5
 63
     7
 74
     1
 91
        4
 64
     7
 65
   257
 75
     1
175
     1
 42
1.0
 92
        8
 66
     7
 43
1.0
 76
     1
 77
     6
 78
     2
 67
     7
 79
     5
170
     0
171
     0
290
     0
174
     0
 93
        1
 44
0.0
173
     0
291
     1
 45
0.0
1001
ACAD
1000
AcDbSavedByObjectVersion
1070
     0
  0
VISUALSTYLE
  5
1826
102
{ACAD_XDICTIONARY
360
19E0
102
}
102
{ACAD_REACTORS
330
1825
102
}
330
1825
100
AcDbVisualStyle
  2
Flat
 70
     0
 71
     2
 72
     1
 73
     1
 90
        2
 40
-0.6
 41
30.0
 62
     5
 63
     7
 74
     0
 91
        0
 64
     7
 65
   257
 75
     1
175
     1
 42
1.0
 92
        8
 66
     7
 43
1.0
 76
     1
 77
     6
 78
     2
 67
     7
 79
     5
170
     0
171
     0
290
     0
174
     0
 93
       13
 44
0.0
173
     0
291
     1
 45
0.0
1001
ACAD
1000
AcDbSavedByObjectVersion
1070
     0
  0
VISUALSTYLE
  5
1827
102
{ACAD_XDICTIONARY
360
19E2
102
}
102
{ACAD_REACTORS
330
1825
102
}
330
1825
100
AcDbVisualStyle
  2
FlatWithEdges
 70
     1
 71
     2
 72
     1
 73
     1
 90
        2
 40
-0.6
 41
30.0
 62
     5
 63
     7
 74
     1
 91
        0
 64
     7
 65
   257
 75
     1
175
     1
 42
1.0
 92
        0
 66
   257
 43
1.0
 76
     1
 77
     6
 78
     2
 67
     7
 79
     5
170
     0
171
     0
290
     0
174
     0
 93
       13
 44
0.0
173
     0
291
     1
 45
0.0
1001
ACAD
1000
AcDbSavedByObjectVersion
1070
     0
  0
VISUALSTYLE
  5
1828
102
{ACAD_XDICTIONARY
360
19E4
102
}
102
{ACAD_REACTORS
330
1825
102
}
330
1825
100
AcDbVisualStyle
  2
Gouraud
 70
     2
 71
     2
 72
     2
 73
     1
 90
        2
 40
-0.6
 41
30.0
 62
     5
 63
     7
 74
     0
 91
        0
 64
     7
 65
   257
 75
     1
175
     1
 42
1.0
 92
        0
 66
     7
 43
1.0
 76
     1
 77
     6
 78
     2
 67
     7
 79
     5
170
     0
171
     0
290
     0
174
     0
 93
       13
 44
0.0
173
     0
291
     1
 45
0.0
1001
ACAD
1000
AcDbSavedByObjectVersion
1070
     0
  0
VISUALSTYLE
  5
1829
102
{ACAD_XDICTIONARY
360
19E6
102
}
102
{ACAD_REACTORS
330
1825
102
}
330
1825
100
AcDbVisualStyle
  2
GouraudWithEdges
 70
     3
 71
     2
 72
     2
 73
     1
 90
        2
 40
-0.6
 41
30.0
 62
     5
 63
     7
 74
     1
 91
        0
 64
     7
 65
   257
 75
     1
175
     1
 42
1.0
 92
        0
 66
   257
 43
1.0
 76
     1
 77
     6
 78
     2
 67
     7
 79
     5
170
     0
171
     0
290
     0
174
     0
 93
       13
 44
0.0
173
     0
291
     1
 45
0.0
1001
ACAD
1000
AcDbSavedByObjectVersion
1070
     0
  0
VISUALSTYLE
  5
182D
102
{ACAD_XDICTIONARY
360
19EE
102
}
102
{ACAD_REACTORS
330
1825
102
}
330
1825
100
AcDbVisualStyle
  2
Hidden
 70
     6
 71
     1
 72
     2
 73
     2
 90
        0
 40
-0.6
 41
-30.0
 62
     5
 63
     7
 74
     2
 91
        2
 64
     7
 65
   257
 75
     2
175
     1
 42
40.0
 92
        0
 66
   257
 43
1.0
 76
     1
 77
     6
 78
     2
 67
     7
 79
     3
170
     0
171
     0
290
     0
174
     0
 93
        1
 44
0.0
173
     0
291
     0
 45
0.0
1001
ACAD
1000
AcDbSavedByObjectVersion
1070
     0
  0
VISUALSTYLE
  5
183B
102
{ACAD_XDICTIONARY
360
1A0A
102
}
102
{ACAD_REACTORS
330
1825
102
}
330
1825
100
AcDbVisualStyle
  2
JitterOff
 70
    20
 71
     2
 72
     2
 73
     0
 90
        0
 40
-0.6
 41
-30.0
 62
     5
 63
     7
 74
     1
 91
        4
 64
     7
 65
   257
 75
     1
175
     1
 42
1.0
 92
       10
 66
     7
 43
1.0
 76
     1
 77
     6
 78
     2
 67
     7
 79
     5
170
     0
171
     0
290
     0
174
     0
 93
        1
 44
0.0
173
     0
291
     1
 45
0.0
1001
ACAD
1000
AcDbSavedByObjectVersion
1070
     0
  0
VISUALSTYLE
  5
1833
102
{ACAD_XDICTIONARY
360
19FA
102
}
102
{ACAD_REACTORS
330
1825
102
}
330
1825
100
AcDbVisualStyle
  2
Linepattern
 70
    14
 71
     2
 72
     2
 73
     0
 90
        0
 40
-0.6
 41
-30.0
 62
     5
 63
     7
 74
     1
 91
        4
 64
     7
 65
   257
 75
     7
175
     7
 42
1.0
 92
        8
 66
     7
 43
1.0
 76
     1
 77
     6
 78
     2
 67
     7
 79
     5
170
     0
171
     0
290
     0
174
     0
 93
        1
 44
0.0
173
     0
291
     1
 45
0.0
1001
ACAD
1000
AcDbSavedByObjectVersion
1070
     0
  0
VISUALSTYLE
  5
183C
102
{ACAD_XDICTIONARY
360
1A0C
102
}
102
{ACAD_REACTORS
330
1825
102
}
330
1825
100
AcDbVisualStyle
  2
OverhangOff
 70
    21
 71
     2
 72
     2
 73
     0
 90
        0
 40
-0.6
 41
-30.0
 62
     5
 63
     7
 74
     1
 91
        4
 64
     7
 65
   257
 75
     1
175
     1
 42
1.0
 92
        9
 66
     7
 43
1.0
 76
     1
 77
     6
 78
     2
 67
     7
 79
     5
170
     0
171
     0
290
     0
174
     0
 93
        1
 44
0.0
173
     0
291
     1
 45
0.0
1001
ACAD
1000
AcDbSavedByObjectVersion
1070
     0
  0
VISUALSTYLE
  5
182F
102
{ACAD_XDICTIONARY
360
19F2
102
}
102
{ACAD_REACTORS
330
1825
102
}
330
1825
100
AcDbVisualStyle
  2
Realistic
 70
     8
 71
     2
 72
     2
 73
     0
 90
        2
 40
-0.6
 41
30.0
 62
     5
 63
     7
 74
     0
 91
        0
 64
     7
 65
   257
 75
     1
175
     1
 42
1.0
 92
        8
 66
   257
 43
1.0
 76
     1
 77
     6
 78
     2
 67
     7
 79
     3
170
     0
171
     0
290
     0
174
     0
 93
       13
 44
0.0
173
     0
291
     0
 45
0.0
1001
ACAD
1000
AcDbSavedByObjectVersion
1070
     0
  0
VISUALSTYLE
  5
183A
102
{ACAD_XDICTIONARY
360
1A08
102
}
102
{ACAD_REACTORS
330
1825
102
}
330
1825
100
AcDbVisualStyle
  2
Shaded
 70
    27
 71
     2
 72
     2
 73
     1
 90
        2
 40
-0.6
 41
30.0
 62
     5
 63
     7
 74
     0
 91
        4
 64
     7
 65
   257
 75
     1
175
     1
 42
1.0
 92
        8
 66
   257
 43
1.0
 76
     1
 77
     6
 78
     2
 67
     8
 79
     3
170
     0
171
     0
290
     0
174
     0
 93
        5
 44
0.0
173
     0
291
     0
 45
0.0
1001
ACAD
1000
AcDbSavedByObjectVersion
1070
     0
  0
VISUALSTYLE
  5
1839
102
{ACAD_XDICTIONARY
360
1A06
102
}
102
{ACAD_REACTORS
330
1825
102
}
330
1825
100
AcDbVisualStyle
  2
Shaded with edges
 70
    26
 71
     2
 72
     2
 73
     1
 90
        2
 40
-0.6
 41
30.0
 62
     5
 63
     7
 74
     1
 91
        2
 64
     7
 65
   257
 75
     2
175
     1
 42
1.0
 92
        8
 66
   257
 43
1.0
 76
     1
 77
     6
 78
     2
 67
     7
 79
     3
170
     0
171
     0
290
     0
174
     0
 93
        5
 44
0.0
173
     0
291
     0
 45
0.0
1001
ACAD
1000
AcDbSavedByObjectVersion
1070
     0
  0
VISUALSTYLE
  5
1836
102
{ACAD_XDICTIONARY
360
1A00
102
}
102
{ACAD_REACTORS
330
1825
102
}
330
1825
100
AcDbVisualStyle
  2
Shades of Gray
 70
    23
 71
     2
 72
     2
 73
     3
 90
        0
 40
-0.6
 41
-30.0
 62
     5
 63
     7
 74
     2
 91
        2
 64
     7
 65
     7
 75
     1
175
     1
 42
40.0
 92
        8
 66
     7
 43
1.0
 76
     1
 77
     6
 78
     2
 67
     7
 79
     3
170
     0
171
     0
290
     0
174
     0
 93
        1
 44
0.0
173
     0
291
     0
 45
0.0
1001
ACAD
1000
AcDbSavedByObjectVersion
1070
     0
  0
VISUALSTYLE
  5
1837
102
{ACAD_XDICTIONARY
360
1A02
102
}
102
{ACAD_REACTORS
330
1825
102
}
330
1825
100
AcDbVisualStyle
  2
Sketchy
 70
    24
 71
     1
 72
     2
 73
     2
 90
        0
 40
-0.6
 41
-30.0
 62
     5
 63
     7
 74
     2
 91
        2
 64
     7
 65
     7
 75
     1
175
     1
 42
40.0
 92
       11
 66
     7
 43
1.0
 76
     1
 77
     6
 78
     2
 67
     7
 79
     6
170
     0
171
     0
290
     0
174
     0
 93
        1
 44
0.0
173
     0
291
     0
 45
0.0
1001
ACAD
1000
AcDbSavedByObjectVersion
1070
     0
  0
VISUALSTYLE
  5
1832
102
{ACAD_XDICTIONARY
360
19F8
102
}
102
{ACAD_REACTORS
330
1825
102
}
330
1825
100
AcDbVisualStyle
  2
Thicken
 70
    13
 71
     2
 72
     2
 73
     0
 90
        0
 40
-0.6
 41
-30.0
 62
     5
 63
     7
 74
     1
 91
        4
 64
     7
 65
   257
 75
     1
175
     1
 42
1.0
 92
       12
 66
     7
 43
1.0
 76
     1
 77
     6
 78
     2
 67
     7
 79
     5
170
     0
171
     0
290
     0
174
     0
 93
        1
 44
0.0
173
     0
291
     1
 45
0.0
1001
ACAD
1000
AcDbSavedByObjectVersion
1070
     0
  0
VISUALSTYLE
  5
182C
102
{ACAD_XDICTIONARY
360
19EC
102
}
102
{ACAD_REACTORS
330
1825
102
}
330
1825
100
AcDbVisualStyle
  2
Wireframe
 70
     5
 71
     0
 72
     2
 73
     0
 90
        0
 40
-0.6
 41
-30.0
 62
     5
 63
     7
 74
     1
 91
        4
 64
     7
 65
   257
 75
     1
175
     1
 42
1.0
 92
        0
 66
   257
 43
1.0
 76
     1
 77
     6
 78
     2
 67
     7
 79
     3
170
     0
171
     0
290
     0
174
     0
 93
        1
 44
0.0
173
     0
291
     0
 45
0.0
1001
ACAD
1000
AcDbSavedByObjectVersion
1070
     0
  0
VISUALSTYLE
  5
1838
102
{ACAD_XDICTIONARY
360
1A04
102
}
102
{ACAD_REACTORS
330
1825
102
}
330
1825
100
AcDbVisualStyle
  2
X-Ray
 70
    25
 71
     2
 72
     2
 73
     1
 90
        1
 40
0.5
 41
-30.0
 62
     5
 63
     7
 74
     1
 91
        0
 64
     7
 65
   257
 75
     1
175
     1
 42
1.0
 92
        8
 66
     7
 43
1.0
 76
     1
 77
     6
 78
     2
 67
     7
 79
     3
170
     0
171
     0
290
     0
174
     0
 93
       13
 44
0.0
173
     0
291
     0
 45
0.0
1001
ACAD
1000
AcDbSavedByObjectVersion
1070
     0
  0
DICTIONARYVAR
  5
18A0
102
{ACAD_REACTORS
330
189B
102
}
330
189B
100
DictionaryVariables
280
     0
  1
1:1
  0
DICTIONARYVAR
  5
189D
102
{ACAD_REACTORS
330
189B
102
}
330
189B
100
DictionaryVariables
280
     0
  1
STANDARD
  0
DICTIONARYVAR
  5
189C
102
{ACAD_REACTORS
330
189B
102
}
330
189B
100
DictionaryVariables
280
     0
  1
STANDARD
  0
DICTIONARYVAR
  5
189E
102
{ACAD_REACTORS
330
189B
102
}
330
189B
100
DictionaryVariables
280
     0
  1
Imperial24
  0
DICTIONARYVAR
  5
189F
102
{ACAD_REACTORS
330
189B
102
}
330
189B
100
DictionaryVariables
280
     0
  1
Imperial24
  0
DICTIONARYVAR
  5
18A3
102
{ACAD_REACTORS
330
189B
102
}
330
189B
100
DictionaryVariables
280
     0
  1
1
  0
DICTIONARYVAR
  5
18A2
102
{ACAD_REACTORS
330
189B
102
}
330
189B
100
DictionaryVariables
280
     0
  1
0
  0
DICTIONARYVAR
  5
18A1
102
{ACAD_REACTORS
330
189B
102
}
330
189B
100
DictionaryVariables
280
     0
  1
127
  0
DICTIONARYVAR
  5
19CD
102
{ACAD_REACTORS
330
189B
102
}
330
189B
100
DictionaryVariables
280
     0
  1
2
  0
DICTIONARY
  5
19D8
102
{ACAD_REACTORS
330
19D6
102
}
330
19D6
100
AcDbDictionary
281
     1
  0
DICTIONARY
  5
19D7
102
{ACAD_REACTORS
330
19D6
102
}
330
19D6
100
AcDbDictionary
281
     1
  3
1024971280
350
19D1
  3
1024971296
350
19D2
  3
1024971312
350
19D3
  3
1024971328
350
19D4
  3
1024971344
350
19D5
  0
DICTIONARY
  5
1A13
330
1858
100
AcDbDictionary
280
     1
281
     1
  3
ACAD_XREC_ROUNDTRIP
360
1A14
  0
DICTIONARY
  5
19DB
330
1809
100
AcDbDictionary
280
     1
281
     1
  3
ACAD_XREC_ROUNDTRIP
360
19DC
  0
DICTIONARY
  5
19D9
330
1808
100
AcDbDictionary
280
     1
281
     1
  3
ACAD_XREC_ROUNDTRIP
360
19DA
  0
DICTIONARY
  5
1816
330
1815
100
AcDbDictionary
280
     1
281
     1
  3
ACAD_XREC_ROUNDTRIP
360
19DE
  3
BUMPTILE
360
1818
  3
DIFFUSETILE
360
1817
  3
OPACITYTILE
360
181B
  3
REFLECTIONTILE
360
181A
  3
REFRACTIONTILE
360
181C
  3
SPECULARTILE
360
1819
  0
DICTIONARY
  5
180E
330
180D
100
AcDbDictionary
280
     1
281
     1
  3
ACAD_XREC_ROUNDTRIP
360
19DD
  3
BUMPTILE
360
1810
  3
DIFFUSETILE
360
180F
  3
OPACITYTILE
360
1813
  3
REFLECTIONTILE
360
1812
  3
REFRACTIONTILE
360
1814
  3
SPECULARTILE
360
1811
  0
DICTIONARY
  5
181E
330
181D
100
AcDbDictionary
280
     1
281
     1
  3
ACAD_XREC_ROUNDTRIP
360
19DF
  3
BUMPTILE
360
1820
  3
DIFFUSETILE
360
181F
  3
OPACITYTILE
360
1823
  3
REFLECTIONTILE
360
1822
  3
REFRACTIONTILE
360
1824
  3
SPECULARTILE
360
1821
  0
DICTIONARY
  5
1A11
330
1856
100
AcDbDictionary
280
     1
281
     1
  3
ACAD_XREC_ROUNDTRIP
360
1A12
  0
DICTIONARY
  5
1859
330
1840
100
AcDbDictionary
280
     1
281
     1
  3
ACAD_ROUNDTRIP_2008_TABLESTYLE_CELLSTYLEMAP
360
19CE
  3
ACAD_XREC_ROUNDTRIP
360
1A10
  0
DICTIONARY
  5
19EA
330
182B
100
AcDbDictionary
280
     1
281
     1
  3
ACAD_XREC_ROUNDTRIP
360
19EB
  0
DICTIONARY
  5
19E8
330
182A
100
AcDbDictionary
280
     1
281
     1
  3
ACAD_XREC_ROUNDTRIP
360
19E9
  0
DICTIONARY
  5
19F6
330
1831
100
AcDbDictionary
280
     1
281
     1
  3
ACAD_XREC_ROUNDTRIP
360
19F7
  0
DICTIONARY
  5
19FE
330
1835
100
AcDbDictionary
280
     1
281
     1
  3
ACAD_XREC_ROUNDTRIP
360
19FF
  0
DICTIONARY
  5
19F0
330
182E
100
AcDbDictionary
280
     1
281
     1
  3
ACAD_XREC_ROUNDTRIP
360
19F1
  0
DICTIONARY
  5
19F4
330
1830
100
AcDbDictionary
280
     1
281
     1
  3
ACAD_XREC_ROUNDTRIP
360
19F5
  0
DICTIONARY
  5
1A0E
330
183D
100
AcDbDictionary
280
     1
281
     1
  3
ACAD_XREC_ROUNDTRIP
360
1A0F
  0
DICTIONARY
  5
19FC
330
1834
100
AcDbDictionary
280
     1
281
     1
  3
ACAD_XREC_ROUNDTRIP
360
19FD
  0
DICTIONARY
  5
19E0
330
1826
100
AcDbDictionary
280
     1
281
     1
  3
ACAD_XREC_ROUNDTRIP
360
19E1
  0
DICTIONARY
  5
19E2
330
1827
100
AcDbDictionary
280
     1
281
     1
  3
ACAD_XREC_ROUNDTRIP
360
19E3
  0
DICTIONARY
  5
19E4
330
1828
100
AcDbDictionary
280
     1
281
     1
  3
ACAD_XREC_ROUNDTRIP
360
19E5
  0
DICTIONARY
  5
19E6
330
1829
100
AcDbDictionary
280
     1
281
     1
  3
ACAD_XREC_ROUNDTRIP
360
19E7
  0
DICTIONARY
  5
19EE
330
182D
100
AcDbDictionary
280
     1
281
     1
  3
ACAD_XREC_ROUNDTRIP
360
19EF
  0
DICTIONARY
  5
1A0A
330
183B
100
AcDbDictionary
280
     1
281
     1
  3
ACAD_XREC_ROUNDTRIP
360
1A0B
  0
DICTIONARY
  5
19FA
330
1833
100
AcDbDictionary
280
     1
281
     1
  3
ACAD_XREC_ROUNDTRIP
360
19FB
  0
DICTIONARY
  5
1A0C
330
183C
100
AcDbDictionary
280
     1
281
     1
  3
ACAD_XREC_ROUNDTRIP
360
1A0D
  0
DICTIONARY
  5
19F2
330
182F
100
AcDbDictionary
280
     1
281
     1
  3
ACAD_XREC_ROUNDTRIP
360
19F3
  0
DICTIONARY
  5
1A08
330
183A
100
AcDbDictionary
280
     1
281
     1
  3
ACAD_XREC_ROUNDTRIP
360
1A09
  0
DICTIONARY
  5
1A06
330
1839
100
AcDbDictionary
280
     1
281
     1
  3
ACAD_XREC_ROUNDTRIP
360
1A07
  0
DICTIONARY
  5
1A00
330
1836
100
AcDbDictionary
280
     1
281
     1
  3
ACAD_XREC_ROUNDTRIP
360
1A01
  0
DICTIONARY
  5
1A02
330
1837
100
AcDbDictionary
280
     1
281
     1
  3
ACAD_XREC_ROUNDTRIP
360
1A03
  0
DICTIONARY
  5
19F8
330
1832
100
AcDbDictionary
280
     1
281
     1
  3
ACAD_XREC_ROUNDTRIP
360
19F9
  0
DICTIONARY
  5
19EC
330
182C
100
AcDbDictionary
280
     1
281
     1
  3
ACAD_XREC_ROUNDTRIP
360
19ED
  0
DICTIONARY
  5
1A04
330
1838
100
AcDbDictionary
280
     1
281
     1
  3
ACAD_XREC_ROUNDTRIP
360
1A05
  0
XRECORD
  5
19D1
102
{ACAD_REACTORS
330
19D7
102
}
330
19D7
100
AcDbXrecord
280
     1
  1
AcDb_Thumbnail_Schema
102
{ATTRRECORD
341
19D2
  2
AcDbDs::TreatedAsObjectData
280
     1
291
     1
102
ATTRRECORD}
102
{ATTRRECORD
341
19D3
  2
AcDbDs::Legacy
280
     1
291
     1
102
ATTRRECORD}
  2
AcDbDs::ID
280
    10
 91
        8
102
{ATTRRECORD
341
19D4
  2
AcDs:Indexable
280
     1
291
     1
102
ATTRRECORD}
102
{ATTRRECORD
341
19D5
  2
AcDbDs::HandleAttribute
280
     7
282
     1
102
ATTRRECORD}
  2
Thumbnail_Data
280
    15
 91
        0
  0
XRECORD
  5
19D2
102
{ACAD_REACTORS
330
19D7
102
}
330
19D7
100
AcDbXrecord
280
     1
  1
AcDbDs::TreatedAsObjectDataSchema
  2
AcDbDs::TreatedAsObjectData
280
     1
 91
        0
  0
XRECORD
  5
19D3
102
{ACAD_REACTORS
330
19D7
102
}
330
19D7
100
AcDbXrecord
280
     1
  1
AcDbDs::LegacySchema
  2
AcDbDs::Legacy
280
     1
 91
        0
  0
XRECORD
  5
19D4
102
{ACAD_REACTORS
330
19D7
102
}
330
19D7
100
AcDbXrecord
280
     1
  1
AcDbDs::IndexedPropertySchema
  2
AcDs:Indexable
280
     1
 91
        0
  0
XRECORD
  5
19D5
102
{ACAD_REACTORS
330
19D7
102
}
330
19D7
100
AcDbXrecord
280
     1
  1
AcDbDs::HandleAttributeSchema
  2
AcDbDs::HandleAttribute
280
     7
 91
        1
284
     1
  0
XRECORD
  5
1A14
102
{ACAD_REACTORS
330
1A13
102
}
330
1A13
100
AcDbXrecord
280
     1
102
DISPLAYNAME
  1
Imperial24
102
FLAGS
 90
        0
  0
XRECORD
  5
19DC
102
{ACAD_REACTORS
330
19DB
102
}
330
19DB
100
AcDbXrecord
280
     1
102
SHADEPLOT
 70
     0
102
SHADEPLOTRESLEVEL
 70
     2
102
SHADEPLOTCUSTOMDPI
 70
   300
  0
XRECORD
  5
19DA
102
{ACAD_REACTORS
330
19D9
102
}
330
19D9
100
AcDbXrecord
280
     1
102
SHADEPLOT
 70
     0
102
SHADEPLOTRESLEVEL
 70
     2
102
SHADEPLOTCUSTOMDPI
 70
   300
  0
XRECORD
  5
19DE
102
{ACAD_REACTORS
330
1816
102
}
330
1816
100
AcDbXrecord
280
     1
102
MATERIAL
148
0.0
149
0.0
149
0.0
 93
        0
 94
      127
282
     0
 72
     0
 77
     0
171
     0
175
     0
179
     0
273
     0
  0
XRECORD
  5
1818
102
{ACAD_REACTORS
330
1816
102
}
330
1816
100
AcDbXrecord
280
     1
270
     1
271
     1
  0
XRECORD
  5
1817
102
{ACAD_REACTORS
330
1816
102
}
330
1816
100
AcDbXrecord
280
     1
270
     1
271
     1
  0
XRECORD
  5
181B
102
{ACAD_REACTORS
330
1816
102
}
330
1816
100
AcDbXrecord
280
     1
270
     1
271
     1
  0
XRECORD
  5
181A
102
{ACAD_REACTORS
330
1816
102
}
330
1816
100
AcDbXrecord
280
     1
270
     1
271
     1
  0
XRECORD
  5
181C
102
{ACAD_REACTORS
330
1816
102
}
330
1816
100
AcDbXrecord
280
     1
270
     1
271
     1
  0
XRECORD
  5
1819
102
{ACAD_REACTORS
330
1816
102
}
330
1816
100
AcDbXrecord
280
     1
270
     1
271
     1
  0
XRECORD
  5
19DD
102
{ACAD_REACTORS
330
180E
102
}
330
180E
100
AcDbXrecord
280
     1
102
MATERIAL
148
0.0
149
0.0
149
0.0
 93
        0
 94
      127
282
     0
 72
     0
 77
     0
171
     0
175
     0
179
     0
273
     0
  0
XRECORD
  5
1810
102
{ACAD_REACTORS
330
180E
102
}
330
180E
100
AcDbXrecord
280
     1
270
     1
271
     1
  0
XRECORD
  5
180F
102
{ACAD_REACTORS
330
180E
102
}
330
180E
100
AcDbXrecord
280
     1
270
     1
271
     1
  0
XRECORD
  5
1813
102
{ACAD_REACTORS
330
180E
102
}
330
180E
100
AcDbXrecord
280
     1
270
     1
271
     1
  0
XRECORD
  5
1812
102
{ACAD_REACTORS
330
180E
102
}
330
180E
100
AcDbXrecord
280
     1
270
     1
271
     1
  0
XRECORD
  5
1814
102
{ACAD_REACTORS
330
180E
102
}
330
180E
100
AcDbXrecord
280
     1
270
     1
271
     1
  0
XRECORD
  5
1811
102
{ACAD_REACTORS
330
180E
102
}
330
180E
100
AcDbXrecord
280
     1
270
     1
271
     1
  0
XRECORD
  5
19DF
102
{ACAD_REACTORS
330
181E
102
}
330
181E
100
AcDbXrecord
280
     1
102
MATERIAL
148
0.0
149
0.0
149
0.0
 93
        0
 94
      127
282
     0
 72
     0
 77
     0
171
     0
175
     0
179
     0
273
     0
  0
XRECORD
  5
1820
102
{ACAD_REACTORS
330
181E
102
}
330
181E
100
AcDbXrecord
280
     1
270
     1
271
     1
  0
XRECORD
  5
181F
102
{ACAD_REACTORS
330
181E
102
}
330
181E
100
AcDbXrecord
280
     1
270
     1
271
     1
  0
XRECORD
  5
1823
102
{ACAD_REACTORS
330
181E
102
}
330
181E
100
AcDbXrecord
280
     1
270
     1
271
     1
  0
XRECORD
  5
1822
102
{ACAD_REACTORS
330
181E
102
}
330
181E
100
AcDbXrecord
280
     1
270
     1
271
     1
  0
XRECORD
  5
1824
102
{ACAD_REACTORS
330
181E
102
}
330
181E
100
AcDbXrecord
280
     1
270
     1
271
     1
  0
XRECORD
  5
1821
102
{ACAD_REACTORS
330
181E
102
}
330
181E
100
AcDbXrecord
280
     1
270
     1
271
     1
  0
XRECORD
  5
1A12
102
{ACAD_REACTORS
330
1A11
102
}
330
1A11
100
AcDbXrecord
280
     1
102
DISPLAYNAME
  1
Imperial24
102
FLAGS
 90
        0
  0
CELLSTYLEMAP
  5
19CE
102
{ACAD_REACTORS
330
1859
102
}
330
1859
100
AcDbCellStyleMap
 90
        3
300
CELLSTYLE
  1
TABLEFORMAT_BEGIN
 90
        5
170
     1
 91
        0
 92
    32768
 62
   257
 93
        1
300
CONTENTFORMAT
  1
CONTENTFORMAT_BEGIN
 90
        0
 91
        0
 92
      512
 93
        0
300

 40
0.0
140
1.0
 94
        5
 62
     0
340
11
144
0.25
309
CONTENTFORMAT_END
171
     0
 94
        0
309
TABLEFORMAT_END
  1
CELLSTYLE_BEGIN
 90
        1
 91
        1
300
_TITLE
309
CELLSTYLE_END
300
CELLSTYLE
  1
TABLEFORMAT_BEGIN
 90
        5
170
     1
 91
        0
 92
        0
 62
   257
 93
        1
300
CONTENTFORMAT
  1
CONTENTFORMAT_BEGIN
 90
        0
 91
        0
 92
      512
 93
        0
300

 40
0.0
140
1.0
 94
        5
 62
     0
340
11
144
0.18
309
CONTENTFORMAT_END
171
     0
 94
        0
309
TABLEFORMAT_END
  1
CELLSTYLE_BEGIN
 90
        2
 91
        1
300
_HEADER
309
CELLSTYLE_END
300
CELLSTYLE
  1
TABLEFORMAT_BEGIN
 90
        5
170
     1
 91
        0
 92
        0
 62
   257
 93
        1
300
CONTENTFORMAT
  1
CONTENTFORMAT_BEGIN
 90
        0
 91
        0
 92
      512
 93
        0
300

 40
0.0
140
1.0
 94
        2
 62
     0
340
11
144
0.18
309
CONTENTFORMAT_END
171
     0
 94
        0
309
TABLEFORMAT_END
  1
CELLSTYLE_BEGIN
 90
        3
 91
        2
300
_DATA
309
CELLSTYLE_END
  0
XRECORD
  5
1A10
102
{ACAD_REACTORS
330
1859
102
}
330
1859
100
AcDbXrecord
280
     1
102
ACAD_ROUNDTRIP_PRE2007_TABLESTYLE
 90
      512
 91
        0
  1

 92
      512
 93
        0
  2

 94
      512
 95
        0
  3

  0
XRECORD
  5
19EB
102
{ACAD_REACTORS
330
19EA
102
}
330
19EA
100
AcDbXrecord
280
     1
102
RTVSPost2010Prop28
280
     1
102
RTVSPost2010PropOp28
 70
     1
102
RTVSPost2010Prop29
280
     1
102
RTVSPost2010PropOp29
 70
     1
102
RTVSPost2010Prop30
280
     0
102
RTVSPost2010PropOp30
 70
     1
102
RTVSPost2010Prop31
280
     0
102
RTVSPost2010PropOp31
 70
     1
102
RTVSPost2010Prop32
280
     0
102
RTVSPost2010PropOp32
 70
     1
102
RTVSPost2010Prop33
280
     0
102
RTVSPost2010PropOp33
 70
     1
102
RTVSPost2010Prop34
280
     0
102
RTVSPost2010PropOp34
 70
     1
102
RTVSPost2010Prop35
280
     0
102
RTVSPost2010PropOp35
 70
     1
102
RTVSPost2010Prop36
280
     0
102
RTVSPost2010PropOp36
 70
     1
102
RTVSPost2010Prop37
 90
       50
102
RTVSPost2010PropOp37
 70
     1
102
RTVSPost2010Prop38
140
0.0
102
RTVSPost2010PropOp38
 70
     1
102
RTVSPost2010Prop39
140
1.0
102
RTVSPost2010PropOp39
 70
     1
102
RTVSPost2010Prop40
 90
        0
102
RTVSPost2010PropOp40
 70
     1
102
RTVSPost2010Prop41ColorIndex
 90
       18
102
RTVSPost2010Prop41ColorRGB
 90
        0
102
RTVSPost2010PropOp41
 70
     1
102
RTVSPost2010Prop42
 90
       50
102
RTVSPost2010PropOp42
 70
     1
102
RTVSPost2010Prop43
 90
        3
102
RTVSPost2010PropOp43
 70
     1
102
RTVSPost2010Prop44ColorIndex
 90
        5
102
RTVSPost2010Prop44ColorRGB
 90
      255
102
RTVSPost2010PropOp44
 70
     1
102
RTVSPost2010Prop45
280
     0
102
RTVSPost2010PropOp45
 70
     1
102
RTVSPost2010Prop46
 90
       50
102
RTVSPost2010PropOp46
 70
     1
102
RTVSPost2010Prop47
 90
       50
102
RTVSPost2010PropOp47
 70
     1
102
RTVSPost2010Prop48
 90
       50
102
RTVSPost2010PropOp48
 70
     1
102
RTVSPost2010Prop49
280
     0
102
RTVSPost2010PropOp49
 70
     1
102
RTVSPost2010Prop50
 90
       50
102
RTVSPost2010PropOp50
 70
     1
102
RTVSPost2010Prop51ColorIndex
 90
      256
102
RTVSPost2010Prop51ColorRGB
 90
-16777216
102
RTVSPost2010PropOp51
 70
     0
102
RTVSPost2010Prop52
140
1.0
102
RTVSPost2010PropOp52
 70
     0
102
RTVSPost2010Prop53
 90
        2
102
RTVSPost2010PropOp53
 70
     1
102
RTVSPost2010Prop54
  1
strokes_ogs.tif
102
RTVSPost2010PropOp54
 70
     1
102
RTVSPost2010Prop55
280
     0
102
RTVSPost2010PropOp55
 70
     1
102
RTVSPost2010Prop56
140
1.0
102
RTVSPost2010PropOp56
 70
     1
102
RTVSPost2010Prop57
140
1.0
102
RTVSPost2010PropOp57
 70
     1
102
RTVSPropertyOp0
 70
     1
102
RTVSPropertyOp1
 70
     1
102
RTVSPropertyOp2
 70
     1
102
RTVSPropertyOp3
 70
     1
102
RTVSPropertyOp4
 70
     1
102
RTVSPropertyOp5
 70
     1
102
RTVSPropertyOp6
 70
     1
102
RTVSPropertyOp7
 70
     1
102
RTVSPropertyOp8
 70
     1
102
RTVSPropertyOp9
 70
     1
102
RTVSPropertyOp10
 70
     1
102
RTVSPropertyOp11
 70
     1
102
RTVSPropertyOp12
 70
     1
102
RTVSPropertyOp13
 70
     1
102
RTVSPropertyOp14
 70
     1
102
RTVSPropertyOp15
 70
     1
102
RTVSPropertyOp16
 70
     1
102
RTVSPropertyOp17
 70
     1
102
RTVSPropertyOp18
 70
     1
102
RTVSPropertyOp19
 70
     1
102
RTVSPropertyOp20
 70
     1
102
RTVSPropertyOp21
 70
     1
102
RTVSPropertyOp22
 70
     1
102
RTVSPropertyOp23
 70
     1
102
RTVSPropertyOp24
 70
     1
102
RTVSPropertyOp25
 70
     1
102
RTVSPropertyOp26
 70
     1
102
RTVSPropertyOp27
 70
     1
102
RTVSPropertyOp28
 70
     1
102
RTVSPropertyOp29
 70
     1
102
RTVSPropertyOp30
 70
     1
102
RTVSPropertyOp31
 70
     1
102
RTVSPropertyOp32
 70
     1
102
RTVSPropertyOp33
 70
     1
102
RTVSPropertyOp34
 70
     1
102
RTVSPropertyOp35
 70
     1
102
RTVSPropertyOp36
 70
     1
102
RTVSPropertyOp37
 70
     1
102
RTVSPropertyOp38
 70
     1
102
RTVSPropertyOp39
 70
     1
102
RTVSPropertyOp40
 70
     1
102
RTVSPropertyOp41
 70
     1
102
RTVSPropertyOp42
 70
     1
102
RTVSPropertyOp43
 70
     1
102
RTVSPropertyOp44
 70
     1
102
RTVSPropertyOp45
 70
     1
102
RTVSPropertyOp46
 70
     1
102
RTVSPropertyOp47
 70
     1
102
RTVSPropertyOp48
 70
     1
102
RTVSPropertyOp49
 70
     1
102
RTVSPropertyOp50
 70
     1
102
RTVSPropertyOp51
 70
     0
102
RTVSPropertyOp52
 70
     0
102
RTVSPropertyOp53
 70
     1
102
RTVSPropertyOp54
 70
     1
102
RTVSPropertyOp55
 70
     1
102
RTVSPropertyOp56
 70
     1
102
RTVSPropertyOp57
 70
     1
102
RTVSPropertyOp58
 70
     1
102
RTVSPropertyOp59
 70
     1
102
RTVSPropertyOp60
 70
     1
102
RTVSPropertyOp61
 70
     1
102
RTVSPropertyOp62
 70
     1
  0
XRECORD
  5
19E9
102
{ACAD_REACTORS
330
19E8
102
}
330
19E8
100
AcDbXrecord
280
     1
102
RTVSPost2010Prop28
280
     0
102
RTVSPost2010PropOp28
 70
     1
102
RTVSPost2010Prop29
280
     1
102
RTVSPost2010PropOp29
 70
     1
102
RTVSPost2010Prop30
280
     1
102
RTVSPost2010PropOp30
 70
     1
102
RTVSPost2010Prop31
280
     0
102
RTVSPost2010PropOp31
 70
     1
102
RTVSPost2010Prop32
280
     0
102
RTVSPost2010PropOp32
 70
     1
102
RTVSPost2010Prop33
280
     0
102
RTVSPost2010PropOp33
 70
     1
102
RTVSPost2010Prop34
280
     0
102
RTVSPost2010PropOp34
 70
     1
102
RTVSPost2010Prop35
280
     0
102
RTVSPost2010PropOp35
 70
     1
102
RTVSPost2010Prop36
280
     0
102
RTVSPost2010PropOp36
 70
     1
102
RTVSPost2010Prop37
 90
       50
102
RTVSPost2010PropOp37
 70
     1
102
RTVSPost2010Prop38
140
0.0
102
RTVSPost2010PropOp38
 70
     1
102
RTVSPost2010Prop39
140
1.0
102
RTVSPost2010PropOp39
 70
     1
102
RTVSPost2010Prop40
 90
        0
102
RTVSPost2010PropOp40
 70
     1
102
RTVSPost2010Prop41ColorIndex
 90
       18
102
RTVSPost2010Prop41ColorRGB
 90
        0
102
RTVSPost2010PropOp41
 70
     1
102
RTVSPost2010Prop42
 90
       50
102
RTVSPost2010PropOp42
 70
     1
102
RTVSPost2010Prop43
 90
        3
102
RTVSPost2010PropOp43
 70
     1
102
RTVSPost2010Prop44ColorIndex
 90
        5
102
RTVSPost2010Prop44ColorRGB
 90
      255
102
RTVSPost2010PropOp44
 70
     1
102
RTVSPost2010Prop45
280
     0
102
RTVSPost2010PropOp45
 70
     1
102
RTVSPost2010Prop46
 90
       50
102
RTVSPost2010PropOp46
 70
     1
102
RTVSPost2010Prop47
 90
       50
102
RTVSPost2010PropOp47
 70
     1
102
RTVSPost2010Prop48
 90
       50
102
RTVSPost2010PropOp48
 70
     1
102
RTVSPost2010Prop49
280
     0
102
RTVSPost2010PropOp49
 70
     1
102
RTVSPost2010Prop50
 90
       50
102
RTVSPost2010PropOp50
 70
     1
102
RTVSPost2010Prop51ColorIndex
 90
      256
102
RTVSPost2010Prop51ColorRGB
 90
-16777216
102
RTVSPost2010PropOp51
 70
     0
102
RTVSPost2010Prop52
140
1.0
102
RTVSPost2010PropOp52
 70
     0
102
RTVSPost2010Prop53
 90
        2
102
RTVSPost2010PropOp53
 70
     1
102
RTVSPost2010Prop54
  1
strokes_ogs.tif
102
RTVSPost2010PropOp54
 70
     1
102
RTVSPost2010Prop55
280
     0
102
RTVSPost2010PropOp55
 70
     1
102
RTVSPost2010Prop56
140
1.0
102
RTVSPost2010PropOp56
 70
     1
102
RTVSPost2010Prop57
140
1.0
102
RTVSPost2010PropOp57
 70
     1
102
RTVSPropertyOp0
 70
     1
102
RTVSPropertyOp1
 70
     1
102
RTVSPropertyOp2
 70
     1
102
RTVSPropertyOp3
 70
     1
102
RTVSPropertyOp4
 70
     1
102
RTVSPropertyOp5
 70
     1
102
RTVSPropertyOp6
 70
     1
102
RTVSPropertyOp7
 70
     1
102
RTVSPropertyOp8
 70
     1
102
RTVSPropertyOp9
 70
     1
102
RTVSPropertyOp10
 70
     1
102
RTVSPropertyOp11
 70
     1
102
RTVSPropertyOp12
 70
     1
102
RTVSPropertyOp13
 70
     1
102
RTVSPropertyOp14
 70
     1
102
RTVSPropertyOp15
 70
     1
102
RTVSPropertyOp16
 70
     1
102
RTVSPropertyOp17
 70
     1
102
RTVSPropertyOp18
 70
     1
102
RTVSPropertyOp19
 70
     1
102
RTVSPropertyOp20
 70
     1
102
RTVSPropertyOp21
 70
     1
102
RTVSPropertyOp22
 70
     1
102
RTVSPropertyOp23
 70
     1
102
RTVSPropertyOp24
 70
     1
102
RTVSPropertyOp25
 70
     1
102
RTVSPropertyOp26
 70
     1
102
RTVSPropertyOp27
 70
     1
102
RTVSPropertyOp28
 70
     1
102
RTVSPropertyOp29
 70
     1
102
RTVSPropertyOp30
 70
     1
102
RTVSPropertyOp31
 70
     1
102
RTVSPropertyOp32
 70
     1
102
RTVSPropertyOp33
 70
     1
102
RTVSPropertyOp34
 70
     1
102
RTVSPropertyOp35
 70
     1
102
RTVSPropertyOp36
 70
     1
102
RTVSPropertyOp37
 70
     1
102
RTVSPropertyOp38
 70
     1
102
RTVSPropertyOp39
 70
     1
102
RTVSPropertyOp40
 70
     1
102
RTVSPropertyOp41
 70
     1
102
RTVSPropertyOp42
 70
     1
102
RTVSPropertyOp43
 70
     1
102
RTVSPropertyOp44
 70
     1
102
RTVSPropertyOp45
 70
     1
102
RTVSPropertyOp46
 70
     1
102
RTVSPropertyOp47
 70
     1
102
RTVSPropertyOp48
 70
     1
102
RTVSPropertyOp49
 70
     1
102
RTVSPropertyOp50
 70
     1
102
RTVSPropertyOp51
 70
     0
102
RTVSPropertyOp52
 70
     0
102
RTVSPropertyOp53
 70
     1
102
RTVSPropertyOp54
 70
     1
102
RTVSPropertyOp55
 70
     1
102
RTVSPropertyOp56
 70
     1
102
RTVSPropertyOp57
 70
     1
102
RTVSPropertyOp58
 70
     1
102
RTVSPropertyOp59
 70
     1
102
RTVSPropertyOp60
 70
     1
102
RTVSPropertyOp61
 70
     1
102
RTVSPropertyOp62
 70
     1
  0
XRECORD
  5
19F7
102
{ACAD_REACTORS
330
19F6
102
}
330
19F6
100
AcDbXrecord
280
     1
102
RTVSPost2010Prop28
280
     0
102
RTVSPost2010PropOp28
 70
     1
102
RTVSPost2010Prop29
280
     1
102
RTVSPost2010PropOp29
 70
     1
102
RTVSPost2010Prop30
280
     1
102
RTVSPost2010PropOp30
 70
     1
102
RTVSPost2010Prop31
280
     0
102
RTVSPost2010PropOp31
 70
     1
102
RTVSPost2010Prop32
280
     0
102
RTVSPost2010PropOp32
 70
     1
102
RTVSPost2010Prop33
280
     0
102
RTVSPost2010PropOp33
 70
     1
102
RTVSPost2010Prop34
280
     0
102
RTVSPost2010PropOp34
 70
     1
102
RTVSPost2010Prop35
280
     0
102
RTVSPost2010PropOp35
 70
     1
102
RTVSPost2010Prop36
280
     0
102
RTVSPost2010PropOp36
 70
     1
102
RTVSPost2010Prop37
 90
       50
102
RTVSPost2010PropOp37
 70
     1
102
RTVSPost2010Prop38
140
0.0
102
RTVSPost2010PropOp38
 70
     1
102
RTVSPost2010Prop39
140
1.0
102
RTVSPost2010PropOp39
 70
     1
102
RTVSPost2010Prop40
 90
        0
102
RTVSPost2010PropOp40
 70
     1
102
RTVSPost2010Prop41ColorIndex
 90
       18
102
RTVSPost2010Prop41ColorRGB
 90
        0
102
RTVSPost2010PropOp41
 70
     1
102
RTVSPost2010Prop42
 90
       50
102
RTVSPost2010PropOp42
 70
     1
102
RTVSPost2010Prop43
 90
        3
102
RTVSPost2010PropOp43
 70
     1
102
RTVSPost2010Prop44ColorIndex
 90
        5
102
RTVSPost2010Prop44ColorRGB
 90
      255
102
RTVSPost2010PropOp44
 70
     1
102
RTVSPost2010Prop45
280
     0
102
RTVSPost2010PropOp45
 70
     1
102
RTVSPost2010Prop46
 90
       50
102
RTVSPost2010PropOp46
 70
     1
102
RTVSPost2010Prop47
 90
       50
102
RTVSPost2010PropOp47
 70
     1
102
RTVSPost2010Prop48
 90
       50
102
RTVSPost2010PropOp48
 70
     1
102
RTVSPost2010Prop49
280
     0
102
RTVSPost2010PropOp49
 70
     1
102
RTVSPost2010Prop50
 90
       50
102
RTVSPost2010PropOp50
 70
     1
102
RTVSPost2010Prop51ColorIndex
 90
      256
102
RTVSPost2010Prop51ColorRGB
 90
-16777216
102
RTVSPost2010PropOp51
 70
     0
102
RTVSPost2010Prop52
140
1.0
102
RTVSPost2010PropOp52
 70
     0
102
RTVSPost2010Prop53
 90
        2
102
RTVSPost2010PropOp53
 70
     1
102
RTVSPost2010Prop54
  1
strokes_ogs.tif
102
RTVSPost2010PropOp54
 70
     1
102
RTVSPost2010Prop55
280
     0
102
RTVSPost2010PropOp55
 70
     1
102
RTVSPost2010Prop56
140
1.0
102
RTVSPost2010PropOp56
 70
     1
102
RTVSPost2010Prop57
140
1.0
102
RTVSPost2010PropOp57
 70
     1
102
RTVSPropertyOp0
 70
     1
102
RTVSPropertyOp1
 70
     1
102
RTVSPropertyOp2
 70
     1
102
RTVSPropertyOp3
 70
     1
102
RTVSPropertyOp4
 70
     1
102
RTVSPropertyOp5
 70
     1
102
RTVSPropertyOp6
 70
     1
102
RTVSPropertyOp7
 70
     1
102
RTVSPropertyOp8
 70
     1
102
RTVSPropertyOp9
 70
     1
102
RTVSPropertyOp10
 70
     1
102
RTVSPropertyOp11
 70
     1
102
RTVSPropertyOp12
 70
     1
102
RTVSPropertyOp13
 70
     1
102
RTVSPropertyOp14
 70
     1
102
RTVSPropertyOp15
 70
     1
102
RTVSPropertyOp16
 70
     1
102
RTVSPropertyOp17
 70
     1
102
RTVSPropertyOp18
 70
     1
102
RTVSPropertyOp19
 70
     1
102
RTVSPropertyOp20
 70
     1
102
RTVSPropertyOp21
 70
     1
102
RTVSPropertyOp22
 70
     1
102
RTVSPropertyOp23
 70
     1
102
RTVSPropertyOp24
 70
     1
102
RTVSPropertyOp25
 70
     1
102
RTVSPropertyOp26
 70
     1
102
RTVSPropertyOp27
 70
     1
102
RTVSPropertyOp28
 70
     1
102
RTVSPropertyOp29
 70
     1
102
RTVSPropertyOp30
 70
     1
102
RTVSPropertyOp31
 70
     1
102
RTVSPropertyOp32
 70
     1
102
RTVSPropertyOp33
 70
     1
102
RTVSPropertyOp34
 70
     1
102
RTVSPropertyOp35
 70
     1
102
RTVSPropertyOp36
 70
     1
102
RTVSPropertyOp37
 70
     1
102
RTVSPropertyOp38
 70
     1
102
RTVSPropertyOp39
 70
     1
102
RTVSPropertyOp40
 70
     1
102
RTVSPropertyOp41
 70
     1
102
RTVSPropertyOp42
 70
     1
102
RTVSPropertyOp43
 70
     1
102
RTVSPropertyOp44
 70
     1
102
RTVSPropertyOp45
 70
     1
102
RTVSPropertyOp46
 70
     1
102
RTVSPropertyOp47
 70
     1
102
RTVSPropertyOp48
 70
     1
102
RTVSPropertyOp49
 70
     1
102
RTVSPropertyOp50
 70
     1
102
RTVSPropertyOp51
 70
     0
102
RTVSPropertyOp52
 70
     0
102
RTVSPropertyOp53
 70
     1
102
RTVSPropertyOp54
 70
     1
102
RTVSPropertyOp55
 70
     1
102
RTVSPropertyOp56
 70
     1
102
RTVSPropertyOp57
 70
     1
102
RTVSPropertyOp58
 70
     1
102
RTVSPropertyOp59
 70
     1
102
RTVSPropertyOp60
 70
     1
102
RTVSPropertyOp61
 70
     1
102
RTVSPropertyOp62
 70
     1
  0
XRECORD
  5
19FF
102
{ACAD_REACTORS
330
19FE
102
}
330
19FE
100
AcDbXrecord
280
     1
102
RTVSPost2010Prop28
280
     0
102
RTVSPost2010PropOp28
 70
     1
102
RTVSPost2010Prop29
280
     1
102
RTVSPost2010PropOp29
 70
     1
102
RTVSPost2010Prop30
280
     1
102
RTVSPost2010PropOp30
 70
     1
102
RTVSPost2010Prop31
280
     0
102
RTVSPost2010PropOp31
 70
     1
102
RTVSPost2010Prop32
280
     0
102
RTVSPost2010PropOp32
 70
     1
102
RTVSPost2010Prop33
280
     0
102
RTVSPost2010PropOp33
 70
     1
102
RTVSPost2010Prop34
280
     0
102
RTVSPost2010PropOp34
 70
     1
102
RTVSPost2010Prop35
280
     0
102
RTVSPost2010PropOp35
 70
     1
102
RTVSPost2010Prop36
280
     0
102
RTVSPost2010PropOp36
 70
     1
102
RTVSPost2010Prop37
 90
       50
102
RTVSPost2010PropOp37
 70
     1
102
RTVSPost2010Prop38
140
0.0
102
RTVSPost2010PropOp38
 70
     1
102
RTVSPost2010Prop39
140
1.0
102
RTVSPost2010PropOp39
 70
     1
102
RTVSPost2010Prop40
 90
        0
102
RTVSPost2010PropOp40
 70
     1
102
RTVSPost2010Prop41ColorIndex
 90
       18
102
RTVSPost2010Prop41ColorRGB
 90
        0
102
RTVSPost2010PropOp41
 70
     1
102
RTVSPost2010Prop42
 90
       50
102
RTVSPost2010PropOp42
 70
     1
102
RTVSPost2010Prop43
 90
        3
102
RTVSPost2010PropOp43
 70
     1
102
RTVSPost2010Prop44ColorIndex
 90
        5
102
RTVSPost2010Prop44ColorRGB
 90
      255
102
RTVSPost2010PropOp44
 70
     1
102
RTVSPost2010Prop45
280
     0
102
RTVSPost2010PropOp45
 70
     1
102
RTVSPost2010Prop46
 90
       50
102
RTVSPost2010PropOp46
 70
     1
102
RTVSPost2010Prop47
 90
       50
102
RTVSPost2010PropOp47
 70
     1
102
RTVSPost2010Prop48
 90
       50
102
RTVSPost2010PropOp48
 70
     1
102
RTVSPost2010Prop49
280
     0
102
RTVSPost2010PropOp49
 70
     1
102
RTVSPost2010Prop50
 90
       50
102
RTVSPost2010PropOp50
 70
     1
102
RTVSPost2010Prop51ColorIndex
 90
      256
102
RTVSPost2010Prop51ColorRGB
 90
-16777216
102
RTVSPost2010PropOp51
 70
     0
102
RTVSPost2010Prop52
140
1.0
102
RTVSPost2010PropOp52
 70
     0
102
RTVSPost2010Prop53
 90
        2
102
RTVSPost2010PropOp53
 70
     1
102
RTVSPost2010Prop54
  1
strokes_ogs.tif
102
RTVSPost2010PropOp54
 70
     1
102
RTVSPost2010Prop55
280
     0
102
RTVSPost2010PropOp55
 70
     1
102
RTVSPost2010Prop56
140
1.0
102
RTVSPost2010PropOp56
 70
     1
102
RTVSPost2010Prop57
140
1.0
102
RTVSPost2010PropOp57
 70
     1
102
RTVSPropertyOp0
 70
     1
102
RTVSPropertyOp1
 70
     1
102
RTVSPropertyOp2
 70
     1
102
RTVSPropertyOp3
 70
     1
102
RTVSPropertyOp4
 70
     1
102
RTVSPropertyOp5
 70
     1
102
RTVSPropertyOp6
 70
     1
102
RTVSPropertyOp7
 70
     1
102
RTVSPropertyOp8
 70
     1
102
RTVSPropertyOp9
 70
     1
102
RTVSPropertyOp10
 70
     1
102
RTVSPropertyOp11
 70
     1
102
RTVSPropertyOp12
 70
     1
102
RTVSPropertyOp13
 70
     1
102
RTVSPropertyOp14
 70
     1
102
RTVSPropertyOp15
 70
     1
102
RTVSPropertyOp16
 70
     1
102
RTVSPropertyOp17
 70
     1
102
RTVSPropertyOp18
 70
     1
102
RTVSPropertyOp19
 70
     1
102
RTVSPropertyOp20
 70
     1
102
RTVSPropertyOp21
 70
     1
102
RTVSPropertyOp22
 70
     1
102
RTVSPropertyOp23
 70
     1
102
RTVSPropertyOp24
 70
     1
102
RTVSPropertyOp25
 70
     1
102
RTVSPropertyOp26
 70
     1
102
RTVSPropertyOp27
 70
     1
102
RTVSPropertyOp28
 70
     1
102
RTVSPropertyOp29
 70
     1
102
RTVSPropertyOp30
 70
     1
102
RTVSPropertyOp31
 70
     1
102
RTVSPropertyOp32
 70
     1
102
RTVSPropertyOp33
 70
     1
102
RTVSPropertyOp34
 70
     1
102
RTVSPropertyOp35
 70
     1
102
RTVSPropertyOp36
 70
     1
102
RTVSPropertyOp37
 70
     1
102
RTVSPropertyOp38
 70
     1
102
RTVSPropertyOp39
 70
     1
102
RTVSPropertyOp40
 70
     1
102
RTVSPropertyOp41
 70
     1
102
RTVSPropertyOp42
 70
     1
102
RTVSPropertyOp43
 70
     1
102
RTVSPropertyOp44
 70
     1
102
RTVSPropertyOp45
 70
     1
102
RTVSPropertyOp46
 70
     1
102
RTVSPropertyOp47
 70
     1
102
RTVSPropertyOp48
 70
     1
102
RTVSPropertyOp49
 70
     1
102
RTVSPropertyOp50
 70
     1
102
RTVSPropertyOp51
 70
     0
102
RTVSPropertyOp52
 70
     0
102
RTVSPropertyOp53
 70
     1
102
RTVSPropertyOp54
 70
     1
102
RTVSPropertyOp55
 70
     1
102
RTVSPropertyOp56
 70
     1
102
RTVSPropertyOp57
 70
     1
102
RTVSPropertyOp58
 70
     1
102
RTVSPropertyOp59
 70
     1
102
RTVSPropertyOp60
 70
     1
102
RTVSPropertyOp61
 70
     1
102
RTVSPropertyOp62
 70
     1
  0
XRECORD
  5
19F1
102
{ACAD_REACTORS
330
19F0
102
}
330
19F0
100
AcDbXrecord
280
     1
102
RTVSPost2010Prop28
280
     0
102
RTVSPost2010PropOp28
 70
     1
102
RTVSPost2010Prop29
280
     1
102
RTVSPost2010PropOp29
 70
     1
102
RTVSPost2010Prop30
280
     1
102
RTVSPost2010PropOp30
 70
     1
102
RTVSPost2010Prop31
280
     0
102
RTVSPost2010PropOp31
 70
     1
102
RTVSPost2010Prop32
280
     0
102
RTVSPost2010PropOp32
 70
     1
102
RTVSPost2010Prop33
280
     0
102
RTVSPost2010PropOp33
 70
     1
102
RTVSPost2010Prop34
280
     0
102
RTVSPost2010PropOp34
 70
     1
102
RTVSPost2010Prop35
280
     0
102
RTVSPost2010PropOp35
 70
     1
102
RTVSPost2010Prop36
280
     0
102
RTVSPost2010PropOp36
 70
     1
102
RTVSPost2010Prop37
 90
       50
102
RTVSPost2010PropOp37
 70
     1
102
RTVSPost2010Prop38
140
0.0
102
RTVSPost2010PropOp38
 70
     1
102
RTVSPost2010Prop39
140
1.0
102
RTVSPost2010PropOp39
 70
     1
102
RTVSPost2010Prop40
 90
        0
102
RTVSPost2010PropOp40
 70
     1
102
RTVSPost2010Prop41ColorIndex
 90
       18
102
RTVSPost2010Prop41ColorRGB
 90
        0
102
RTVSPost2010PropOp41
 70
     1
102
RTVSPost2010Prop42
 90
       50
102
RTVSPost2010PropOp42
 70
     1
102
RTVSPost2010Prop43
 90
        3
102
RTVSPost2010PropOp43
 70
     1
102
RTVSPost2010Prop44ColorIndex
 90
        5
102
RTVSPost2010Prop44ColorRGB
 90
      255
102
RTVSPost2010PropOp44
 70
     1
102
RTVSPost2010Prop45
280
     0
102
RTVSPost2010PropOp45
 70
     1
102
RTVSPost2010Prop46
 90
       50
102
RTVSPost2010PropOp46
 70
     1
102
RTVSPost2010Prop47
 90
       50
102
RTVSPost2010PropOp47
 70
     1
102
RTVSPost2010Prop48
 90
       50
102
RTVSPost2010PropOp48
 70
     1
102
RTVSPost2010Prop49
280
     0
102
RTVSPost2010PropOp49
 70
     1
102
RTVSPost2010Prop50
 90
       50
102
RTVSPost2010PropOp50
 70
     1
102
RTVSPost2010Prop51ColorIndex
 90
      256
102
RTVSPost2010Prop51ColorRGB
 90
-16777216
102
RTVSPost2010PropOp51
 70
     0
102
RTVSPost2010Prop52
140
1.0
102
RTVSPost2010PropOp52
 70
     0
102
RTVSPost2010Prop53
 90
        2
102
RTVSPost2010PropOp53
 70
     1
102
RTVSPost2010Prop54
  1
strokes_ogs.tif
102
RTVSPost2010PropOp54
 70
     1
102
RTVSPost2010Prop55
280
     0
102
RTVSPost2010PropOp55
 70
     1
102
RTVSPost2010Prop56
140
1.0
102
RTVSPost2010PropOp56
 70
     1
102
RTVSPost2010Prop57
140
1.0
102
RTVSPost2010PropOp57
 70
     1
102
RTVSPropertyOp0
 70
     1
102
RTVSPropertyOp1
 70
     1
102
RTVSPropertyOp2
 70
     1
102
RTVSPropertyOp3
 70
     1
102
RTVSPropertyOp4
 70
     1
102
RTVSPropertyOp5
 70
     1
102
RTVSPropertyOp6
 70
     1
102
RTVSPropertyOp7
 70
     1
102
RTVSPropertyOp8
 70
     1
102
RTVSPropertyOp9
 70
     1
102
RTVSPropertyOp10
 70
     1
102
RTVSPropertyOp11
 70
     1
102
RTVSPropertyOp12
 70
     1
102
RTVSPropertyOp13
 70
     1
102
RTVSPropertyOp14
 70
     1
102
RTVSPropertyOp15
 70
     1
102
RTVSPropertyOp16
 70
     1
102
RTVSPropertyOp17
 70
     1
102
RTVSPropertyOp18
 70
     1
102
RTVSPropertyOp19
 70
     1
102
RTVSPropertyOp20
 70
     1
102
RTVSPropertyOp21
 70
     1
102
RTVSPropertyOp22
 70
     1
102
RTVSPropertyOp23
 70
     1
102
RTVSPropertyOp24
 70
     1
102
RTVSPropertyOp25
 70
     1
102
RTVSPropertyOp26
 70
     1
102
RTVSPropertyOp27
 70
     1
102
RTVSPropertyOp28
 70
     1
102
RTVSPropertyOp29
 70
     1
102
RTVSPropertyOp30
 70
     1
102
RTVSPropertyOp31
 70
     1
102
RTVSPropertyOp32
 70
     1
102
RTVSPropertyOp33
 70
     1
102
RTVSPropertyOp34
 70
     1
102
RTVSPropertyOp35
 70
     1
102
RTVSPropertyOp36
 70
     1
102
RTVSPropertyOp37
 70
     1
102
RTVSPropertyOp38
 70
     1
102
RTVSPropertyOp39
 70
     1
102
RTVSPropertyOp40
 70
     1
102
RTVSPropertyOp41
 70
     1
102
RTVSPropertyOp42
 70
     1
102
RTVSPropertyOp43
 70
     1
102
RTVSPropertyOp44
 70
     1
102
RTVSPropertyOp45
 70
     1
102
RTVSPropertyOp46
 70
     1
102
RTVSPropertyOp47
 70
     1
102
RTVSPropertyOp48
 70
     1
102
RTVSPropertyOp49
 70
     1
102
RTVSPropertyOp50
 70
     1
102
RTVSPropertyOp51
 70
     0
102
RTVSPropertyOp52
 70
     0
102
RTVSPropertyOp53
 70
     1
102
RTVSPropertyOp54
 70
     1
102
RTVSPropertyOp55
 70
     1
102
RTVSPropertyOp56
 70
     1
102
RTVSPropertyOp57
 70
     1
102
RTVSPropertyOp58
 70
     1
102
RTVSPropertyOp59
 70
     1
102
RTVSPropertyOp60
 70
     1
102
RTVSPropertyOp61
 70
     1
102
RTVSPropertyOp62
 70
     1
  0
XRECORD
  5
19F5
102
{ACAD_REACTORS
330
19F4
102
}
330
19F4
100
AcDbXrecord
280
     1
102
RTVSPost2010Prop28
280
     0
102
RTVSPost2010PropOp28
 70
     1
102
RTVSPost2010Prop29
280
     1
102
RTVSPost2010PropOp29
 70
     1
102
RTVSPost2010Prop30
280
     1
102
RTVSPost2010PropOp30
 70
     1
102
RTVSPost2010Prop31
280
     0
102
RTVSPost2010PropOp31
 70
     1
102
RTVSPost2010Prop32
280
     0
102
RTVSPost2010PropOp32
 70
     1
102
RTVSPost2010Prop33
280
     0
102
RTVSPost2010PropOp33
 70
     1
102
RTVSPost2010Prop34
280
     0
102
RTVSPost2010PropOp34
 70
     1
102
RTVSPost2010Prop35
280
     0
102
RTVSPost2010PropOp35
 70
     1
102
RTVSPost2010Prop36
280
     0
102
RTVSPost2010PropOp36
 70
     1
102
RTVSPost2010Prop37
 90
       50
102
RTVSPost2010PropOp37
 70
     1
102
RTVSPost2010Prop38
140
0.0
102
RTVSPost2010PropOp38
 70
     1
102
RTVSPost2010Prop39
140
1.0
102
RTVSPost2010PropOp39
 70
     1
102
RTVSPost2010Prop40
 90
        0
102
RTVSPost2010PropOp40
 70
     1
102
RTVSPost2010Prop41ColorIndex
 90
       18
102
RTVSPost2010Prop41ColorRGB
 90
        0
102
RTVSPost2010PropOp41
 70
     1
102
RTVSPost2010Prop42
 90
       50
102
RTVSPost2010PropOp42
 70
     1
102
RTVSPost2010Prop43
 90
        3
102
RTVSPost2010PropOp43
 70
     1
102
RTVSPost2010Prop44ColorIndex
 90
        5
102
RTVSPost2010Prop44ColorRGB
 90
      255
102
RTVSPost2010PropOp44
 70
     1
102
RTVSPost2010Prop45
280
     0
102
RTVSPost2010PropOp45
 70
     1
102
RTVSPost2010Prop46
 90
       50
102
RTVSPost2010PropOp46
 70
     1
102
RTVSPost2010Prop47
 90
       50
102
RTVSPost2010PropOp47
 70
     1
102
RTVSPost2010Prop48
 90
       50
102
RTVSPost2010PropOp48
 70
     1
102
RTVSPost2010Prop49
280
     0
102
RTVSPost2010PropOp49
 70
     1
102
RTVSPost2010Prop50
 90
       50
102
RTVSPost2010PropOp50
 70
     1
102
RTVSPost2010Prop51ColorIndex
 90
      256
102
RTVSPost2010Prop51ColorRGB
 90
-16777216
102
RTVSPost2010PropOp51
 70
     0
102
RTVSPost2010Prop52
140
1.0
102
RTVSPost2010PropOp52
 70
     0
102
RTVSPost2010Prop53
 90
        2
102
RTVSPost2010PropOp53
 70
     1
102
RTVSPost2010Prop54
  1
strokes_ogs.tif
102
RTVSPost2010PropOp54
 70
     1
102
RTVSPost2010Prop55
280
     0
102
RTVSPost2010PropOp55
 70
     1
102
RTVSPost2010Prop56
140
1.0
102
RTVSPost2010PropOp56
 70
     1
102
RTVSPost2010Prop57
140
1.0
102
RTVSPost2010PropOp57
 70
     1
102
RTVSPropertyOp0
 70
     1
102
RTVSPropertyOp1
 70
     1
102
RTVSPropertyOp2
 70
     1
102
RTVSPropertyOp3
 70
     1
102
RTVSPropertyOp4
 70
     1
102
RTVSPropertyOp5
 70
     1
102
RTVSPropertyOp6
 70
     1
102
RTVSPropertyOp7
 70
     1
102
RTVSPropertyOp8
 70
     1
102
RTVSPropertyOp9
 70
     1
102
RTVSPropertyOp10
 70
     1
102
RTVSPropertyOp11
 70
     1
102
RTVSPropertyOp12
 70
     1
102
RTVSPropertyOp13
 70
     1
102
RTVSPropertyOp14
 70
     1
102
RTVSPropertyOp15
 70
     1
102
RTVSPropertyOp16
 70
     1
102
RTVSPropertyOp17
 70
     1
102
RTVSPropertyOp18
 70
     1
102
RTVSPropertyOp19
 70
     1
102
RTVSPropertyOp20
 70
     1
102
RTVSPropertyOp21
 70
     1
102
RTVSPropertyOp22
 70
     1
102
RTVSPropertyOp23
 70
     1
102
RTVSPropertyOp24
 70
     1
102
RTVSPropertyOp25
 70
     1
102
RTVSPropertyOp26
 70
     1
102
RTVSPropertyOp27
 70
     1
102
RTVSPropertyOp28
 70
     1
102
RTVSPropertyOp29
 70
     1
102
RTVSPropertyOp30
 70
     1
102
RTVSPropertyOp31
 70
     1
102
RTVSPropertyOp32
 70
     1
102
RTVSPropertyOp33
 70
     1
102
RTVSPropertyOp34
 70
     1
102
RTVSPropertyOp35
 70
     1
102
RTVSPropertyOp36
 70
     1
102
RTVSPropertyOp37
 70
     1
102
RTVSPropertyOp38
 70
     1
102
RTVSPropertyOp39
 70
     1
102
RTVSPropertyOp40
 70
     1
102
RTVSPropertyOp41
 70
     1
102
RTVSPropertyOp42
 70
     1
102
RTVSPropertyOp43
 70
     1
102
RTVSPropertyOp44
 70
     1
102
RTVSPropertyOp45
 70
     1
102
RTVSPropertyOp46
 70
     1
102
RTVSPropertyOp47
 70
     1
102
RTVSPropertyOp48
 70
     1
102
RTVSPropertyOp49
 70
     1
102
RTVSPropertyOp50
 70
     1
102
RTVSPropertyOp51
 70
     0
102
RTVSPropertyOp52
 70
     0
102
RTVSPropertyOp53
 70
     1
102
RTVSPropertyOp54
 70
     1
102
RTVSPropertyOp55
 70
     1
102
RTVSPropertyOp56
 70
     1
102
RTVSPropertyOp57
 70
     1
102
RTVSPropertyOp58
 70
     1
102
RTVSPropertyOp59
 70
     1
102
RTVSPropertyOp60
 70
     1
102
RTVSPropertyOp61
 70
     1
102
RTVSPropertyOp62
 70
     1
  0
XRECORD
  5
1A0F
102
{ACAD_REACTORS
330
1A0E
102
}
330
1A0E
100
AcDbXrecord
280
     1
102
RTVSPost2010Prop28
280
     0
102
RTVSPost2010PropOp28
 70
     1
102
RTVSPost2010Prop29
280
     1
102
RTVSPost2010PropOp29
 70
     1
102
RTVSPost2010Prop30
280
     1
102
RTVSPost2010PropOp30
 70
     1
102
RTVSPost2010Prop31
280
     0
102
RTVSPost2010PropOp31
 70
     1
102
RTVSPost2010Prop32
280
     0
102
RTVSPost2010PropOp32
 70
     1
102
RTVSPost2010Prop33
280
     0
102
RTVSPost2010PropOp33
 70
     1
102
RTVSPost2010Prop34
280
     0
102
RTVSPost2010PropOp34
 70
     1
102
RTVSPost2010Prop35
280
     0
102
RTVSPost2010PropOp35
 70
     1
102
RTVSPost2010Prop36
280
     0
102
RTVSPost2010PropOp36
 70
     1
102
RTVSPost2010Prop37
 90
       50
102
RTVSPost2010PropOp37
 70
     0
102
RTVSPost2010Prop38
140
0.0
102
RTVSPost2010PropOp38
 70
     0
102
RTVSPost2010Prop39
140
1.0
102
RTVSPost2010PropOp39
 70
     0
102
RTVSPost2010Prop40
 90
        0
102
RTVSPost2010PropOp40
 70
     0
102
RTVSPost2010Prop41ColorIndex
 90
       18
102
RTVSPost2010Prop41ColorRGB
 90
        0
102
RTVSPost2010PropOp41
 70
     0
102
RTVSPost2010Prop42
 90
       50
102
RTVSPost2010PropOp42
 70
     0
102
RTVSPost2010Prop43
 90
        3
102
RTVSPost2010PropOp43
 70
     0
102
RTVSPost2010Prop44ColorIndex
 90
        5
102
RTVSPost2010Prop44ColorRGB
 90
      255
102
RTVSPost2010PropOp44
 70
     0
102
RTVSPost2010Prop45
280
     0
102
RTVSPost2010PropOp45
 70
     1
102
RTVSPost2010Prop46
 90
       50
102
RTVSPost2010PropOp46
 70
     0
102
RTVSPost2010Prop47
 90
       50
102
RTVSPost2010PropOp47
 70
     0
102
RTVSPost2010Prop48
 90
       50
102
RTVSPost2010PropOp48
 70
     0
102
RTVSPost2010Prop49
280
     0
102
RTVSPost2010PropOp49
 70
     1
102
RTVSPost2010Prop50
 90
       50
102
RTVSPost2010PropOp50
 70
     0
102
RTVSPost2010Prop51ColorIndex
 90
      256
102
RTVSPost2010Prop51ColorRGB
 90
-16777216
102
RTVSPost2010PropOp51
 70
     0
102
RTVSPost2010Prop52
140
1.0
102
RTVSPost2010PropOp52
 70
     0
102
RTVSPost2010Prop53
 90
        2
102
RTVSPost2010PropOp53
 70
     0
102
RTVSPost2010Prop54
  1
strokes_ogs.tif
102
RTVSPost2010PropOp54
 70
     0
102
RTVSPost2010Prop55
280
     0
102
RTVSPost2010PropOp55
 70
     1
102
RTVSPost2010Prop56
140
1.0
102
RTVSPost2010PropOp56
 70
     0
102
RTVSPost2010Prop57
140
1.0
102
RTVSPost2010PropOp57
 70
     0
102
RTVSPropertyOp0
 70
     0
102
RTVSPropertyOp1
 70
     0
102
RTVSPropertyOp2
 70
     0
102
RTVSPropertyOp3
 70
     0
102
RTVSPropertyOp4
 70
     0
102
RTVSPropertyOp5
 70
     0
102
RTVSPropertyOp6
 70
     0
102
RTVSPropertyOp7
 70
     0
102
RTVSPropertyOp8
 70
     0
102
RTVSPropertyOp9
 70
     0
102
RTVSPropertyOp10
 70
     0
102
RTVSPropertyOp11
 70
     0
102
RTVSPropertyOp12
 70
     0
102
RTVSPropertyOp13
 70
     0
102
RTVSPropertyOp14
 70
     2
102
RTVSPropertyOp15
 70
     0
102
RTVSPropertyOp16
 70
     0
102
RTVSPropertyOp17
 70
     0
102
RTVSPropertyOp18
 70
     0
102
RTVSPropertyOp19
 70
     0
102
RTVSPropertyOp20
 70
     0
102
RTVSPropertyOp21
 70
     0
102
RTVSPropertyOp22
 70
     0
102
RTVSPropertyOp23
 70
     0
102
RTVSPropertyOp24
 70
     0
102
RTVSPropertyOp25
 70
     0
102
RTVSPropertyOp26
 70
     0
102
RTVSPropertyOp27
 70
     0
102
RTVSPropertyOp28
 70
     1
102
RTVSPropertyOp29
 70
     1
102
RTVSPropertyOp30
 70
     1
102
RTVSPropertyOp31
 70
     1
102
RTVSPropertyOp32
 70
     1
102
RTVSPropertyOp33
 70
     1
102
RTVSPropertyOp34
 70
     1
102
RTVSPropertyOp35
 70
     1
102
RTVSPropertyOp36
 70
     1
102
RTVSPropertyOp37
 70
     0
102
RTVSPropertyOp38
 70
     0
102
RTVSPropertyOp39
 70
     0
102
RTVSPropertyOp40
 70
     0
102
RTVSPropertyOp41
 70
     0
102
RTVSPropertyOp42
 70
     0
102
RTVSPropertyOp43
 70
     0
102
RTVSPropertyOp44
 70
     0
102
RTVSPropertyOp45
 70
     1
102
RTVSPropertyOp46
 70
     0
102
RTVSPropertyOp47
 70
     0
102
RTVSPropertyOp48
 70
     0
102
RTVSPropertyOp49
 70
     1
102
RTVSPropertyOp50
 70
     0
102
RTVSPropertyOp51
 70
     0
102
RTVSPropertyOp52
 70
     0
102
RTVSPropertyOp53
 70
     0
102
RTVSPropertyOp54
 70
     0
102
RTVSPropertyOp55
 70
     1
102
RTVSPropertyOp56
 70
     0
102
RTVSPropertyOp57
 70
     0
102
RTVSPropertyOp58
 70
     0
102
RTVSPropertyOp59
 70
     0
102
RTVSPropertyOp60
 70
     0
102
RTVSPropertyOp61
 70
     0
102
RTVSPropertyOp62
 70
     0
  0
XRECORD
  5
19FD
102
{ACAD_REACTORS
330
19FC
102
}
330
19FC
100
AcDbXrecord
280
     1
102
RTVSPost2010Prop28
280
     0
102
RTVSPost2010PropOp28
 70
     1
102
RTVSPost2010Prop29
280
     1
102
RTVSPost2010PropOp29
 70
     1
102
RTVSPost2010Prop30
280
     1
102
RTVSPost2010PropOp30
 70
     1
102
RTVSPost2010Prop31
280
     0
102
RTVSPost2010PropOp31
 70
     1
102
RTVSPost2010Prop32
280
     0
102
RTVSPost2010PropOp32
 70
     1
102
RTVSPost2010Prop33
280
     0
102
RTVSPost2010PropOp33
 70
     1
102
RTVSPost2010Prop34
280
     0
102
RTVSPost2010PropOp34
 70
     1
102
RTVSPost2010Prop35
280
     0
102
RTVSPost2010PropOp35
 70
     1
102
RTVSPost2010Prop36
280
     0
102
RTVSPost2010PropOp36
 70
     1
102
RTVSPost2010Prop37
 90
       50
102
RTVSPost2010PropOp37
 70
     1
102
RTVSPost2010Prop38
140
0.0
102
RTVSPost2010PropOp38
 70
     1
102
RTVSPost2010Prop39
140
1.0
102
RTVSPost2010PropOp39
 70
     1
102
RTVSPost2010Prop40
 90
        0
102
RTVSPost2010PropOp40
 70
     1
102
RTVSPost2010Prop41ColorIndex
 90
       18
102
RTVSPost2010Prop41ColorRGB
 90
        0
102
RTVSPost2010PropOp41
 70
     1
102
RTVSPost2010Prop42
 90
       50
102
RTVSPost2010PropOp42
 70
     1
102
RTVSPost2010Prop43
 90
        3
102
RTVSPost2010PropOp43
 70
     1
102
RTVSPost2010Prop44ColorIndex
 90
        5
102
RTVSPost2010Prop44ColorRGB
 90
      255
102
RTVSPost2010PropOp44
 70
     1
102
RTVSPost2010Prop45
280
     0
102
RTVSPost2010PropOp45
 70
     1
102
RTVSPost2010Prop46
 90
       50
102
RTVSPost2010PropOp46
 70
     1
102
RTVSPost2010Prop47
 90
       50
102
RTVSPost2010PropOp47
 70
     1
102
RTVSPost2010Prop48
 90
       50
102
RTVSPost2010PropOp48
 70
     1
102
RTVSPost2010Prop49
280
     0
102
RTVSPost2010PropOp49
 70
     1
102
RTVSPost2010Prop50
 90
       50
102
RTVSPost2010PropOp50
 70
     1
102
RTVSPost2010Prop51ColorIndex
 90
      256
102
RTVSPost2010Prop51ColorRGB
 90
-16777216
102
RTVSPost2010PropOp51
 70
     0
102
RTVSPost2010Prop52
140
1.0
102
RTVSPost2010PropOp52
 70
     0
102
RTVSPost2010Prop53
 90
        2
102
RTVSPost2010PropOp53
 70
     1
102
RTVSPost2010Prop54
  1
strokes_ogs.tif
102
RTVSPost2010PropOp54
 70
     1
102
RTVSPost2010Prop55
280
     0
102
RTVSPost2010PropOp55
 70
     1
102
RTVSPost2010Prop56
140
1.0
102
RTVSPost2010PropOp56
 70
     1
102
RTVSPost2010Prop57
140
1.0
102
RTVSPost2010PropOp57
 70
     1
102
RTVSPropertyOp0
 70
     1
102
RTVSPropertyOp1
 70
     1
102
RTVSPropertyOp2
 70
     1
102
RTVSPropertyOp3
 70
     1
102
RTVSPropertyOp4
 70
     1
102
RTVSPropertyOp5
 70
     1
102
RTVSPropertyOp6
 70
     1
102
RTVSPropertyOp7
 70
     1
102
RTVSPropertyOp8
 70
     1
102
RTVSPropertyOp9
 70
     1
102
RTVSPropertyOp10
 70
     1
102
RTVSPropertyOp11
 70
     1
102
RTVSPropertyOp12
 70
     1
102
RTVSPropertyOp13
 70
     1
102
RTVSPropertyOp14
 70
     1
102
RTVSPropertyOp15
 70
     1
102
RTVSPropertyOp16
 70
     1
102
RTVSPropertyOp17
 70
     1
102
RTVSPropertyOp18
 70
     1
102
RTVSPropertyOp19
 70
     1
102
RTVSPropertyOp20
 70
     1
102
RTVSPropertyOp21
 70
     1
102
RTVSPropertyOp22
 70
     1
102
RTVSPropertyOp23
 70
     1
102
RTVSPropertyOp24
 70
     1
102
RTVSPropertyOp25
 70
     1
102
RTVSPropertyOp26
 70
     1
102
RTVSPropertyOp27
 70
     1
102
RTVSPropertyOp28
 70
     1
102
RTVSPropertyOp29
 70
     1
102
RTVSPropertyOp30
 70
     1
102
RTVSPropertyOp31
 70
     1
102
RTVSPropertyOp32
 70
     1
102
RTVSPropertyOp33
 70
     1
102
RTVSPropertyOp34
 70
     1
102
RTVSPropertyOp35
 70
     1
102
RTVSPropertyOp36
 70
     1
102
RTVSPropertyOp37
 70
     1
102
RTVSPropertyOp38
 70
     1
102
RTVSPropertyOp39
 70
     1
102
RTVSPropertyOp40
 70
     1
102
RTVSPropertyOp41
 70
     1
102
RTVSPropertyOp42
 70
     1
102
RTVSPropertyOp43
 70
     1
102
RTVSPropertyOp44
 70
     1
102
RTVSPropertyOp45
 70
     1
102
RTVSPropertyOp46
 70
     1
102
RTVSPropertyOp47
 70
     1
102
RTVSPropertyOp48
 70
     1
102
RTVSPropertyOp49
 70
     1
102
RTVSPropertyOp50
 70
     1
102
RTVSPropertyOp51
 70
     0
102
RTVSPropertyOp52
 70
     0
102
RTVSPropertyOp53
 70
     1
102
RTVSPropertyOp54
 70
     1
102
RTVSPropertyOp55
 70
     1
102
RTVSPropertyOp56
 70
     1
102
RTVSPropertyOp57
 70
     1
102
RTVSPropertyOp58
 70
     1
102
RTVSPropertyOp59
 70
     1
102
RTVSPropertyOp60
 70
     1
102
RTVSPropertyOp61
 70
     1
102
RTVSPropertyOp62
 70
     1
  0
XRECORD
  5
19E1
102
{ACAD_REACTORS
330
19E0
102
}
330
19E0
100
AcDbXrecord
280
     1
102
RTVSPost2010Prop28
280
     0
102
RTVSPost2010PropOp28
 70
     1
102
RTVSPost2010Prop29
280
     1
102
RTVSPost2010PropOp29
 70
     1
102
RTVSPost2010Prop30
280
     1
102
RTVSPost2010PropOp30
 70
     1
102
RTVSPost2010Prop31
280
     0
102
RTVSPost2010PropOp31
 70
     1
102
RTVSPost2010Prop32
280
     0
102
RTVSPost2010PropOp32
 70
     1
102
RTVSPost2010Prop33
280
     0
102
RTVSPost2010PropOp33
 70
     1
102
RTVSPost2010Prop34
280
     0
102
RTVSPost2010PropOp34
 70
     1
102
RTVSPost2010Prop35
280
     0
102
RTVSPost2010PropOp35
 70
     1
102
RTVSPost2010Prop36
280
     0
102
RTVSPost2010PropOp36
 70
     1
102
RTVSPost2010Prop37
 90
       50
102
RTVSPost2010PropOp37
 70
     1
102
RTVSPost2010Prop38
140
0.0
102
RTVSPost2010PropOp38
 70
     1
102
RTVSPost2010Prop39
140
1.0
102
RTVSPost2010PropOp39
 70
     1
102
RTVSPost2010Prop40
 90
        0
102
RTVSPost2010PropOp40
 70
     1
102
RTVSPost2010Prop41ColorIndex
 90
       18
102
RTVSPost2010Prop41ColorRGB
 90
        0
102
RTVSPost2010PropOp41
 70
     1
102
RTVSPost2010Prop42
 90
       50
102
RTVSPost2010PropOp42
 70
     1
102
RTVSPost2010Prop43
 90
        3
102
RTVSPost2010PropOp43
 70
     1
102
RTVSPost2010Prop44ColorIndex
 90
        5
102
RTVSPost2010Prop44ColorRGB
 90
      255
102
RTVSPost2010PropOp44
 70
     1
102
RTVSPost2010Prop45
280
     0
102
RTVSPost2010PropOp45
 70
     1
102
RTVSPost2010Prop46
 90
       50
102
RTVSPost2010PropOp46
 70
     1
102
RTVSPost2010Prop47
 90
       50
102
RTVSPost2010PropOp47
 70
     1
102
RTVSPost2010Prop48
 90
       50
102
RTVSPost2010PropOp48
 70
     1
102
RTVSPost2010Prop49
280
     0
102
RTVSPost2010PropOp49
 70
     1
102
RTVSPost2010Prop50
 90
       50
102
RTVSPost2010PropOp50
 70
     1
102
RTVSPost2010Prop51ColorIndex
 90
      256
102
RTVSPost2010Prop51ColorRGB
 90
-16777216
102
RTVSPost2010PropOp51
 70
     0
102
RTVSPost2010Prop52
140
1.0
102
RTVSPost2010PropOp52
 70
     0
102
RTVSPost2010Prop53
 90
        2
102
RTVSPost2010PropOp53
 70
     1
102
RTVSPost2010Prop54
  1
strokes_ogs.tif
102
RTVSPost2010PropOp54
 70
     1
102
RTVSPost2010Prop55
280
     0
102
RTVSPost2010PropOp55
 70
     1
102
RTVSPost2010Prop56
140
1.0
102
RTVSPost2010PropOp56
 70
     1
102
RTVSPost2010Prop57
140
1.0
102
RTVSPost2010PropOp57
 70
     1
102
RTVSPropertyOp0
 70
     1
102
RTVSPropertyOp1
 70
     1
102
RTVSPropertyOp2
 70
     1
102
RTVSPropertyOp3
 70
     1
102
RTVSPropertyOp4
 70
     1
102
RTVSPropertyOp5
 70
     1
102
RTVSPropertyOp6
 70
     1
102
RTVSPropertyOp7
 70
     1
102
RTVSPropertyOp8
 70
     1
102
RTVSPropertyOp9
 70
     1
102
RTVSPropertyOp10
 70
     1
102
RTVSPropertyOp11
 70
     1
102
RTVSPropertyOp12
 70
     1
102
RTVSPropertyOp13
 70
     1
102
RTVSPropertyOp14
 70
     1
102
RTVSPropertyOp15
 70
     1
102
RTVSPropertyOp16
 70
     1
102
RTVSPropertyOp17
 70
     1
102
RTVSPropertyOp18
 70
     1
102
RTVSPropertyOp19
 70
     1
102
RTVSPropertyOp20
 70
     1
102
RTVSPropertyOp21
 70
     1
102
RTVSPropertyOp22
 70
     1
102
RTVSPropertyOp23
 70
     1
102
RTVSPropertyOp24
 70
     1
102
RTVSPropertyOp25
 70
     1
102
RTVSPropertyOp26
 70
     1
102
RTVSPropertyOp27
 70
     1
102
RTVSPropertyOp28
 70
     1
102
RTVSPropertyOp29
 70
     1
102
RTVSPropertyOp30
 70
     1
102
RTVSPropertyOp31
 70
     1
102
RTVSPropertyOp32
 70
     1
102
RTVSPropertyOp33
 70
     1
102
RTVSPropertyOp34
 70
     1
102
RTVSPropertyOp35
 70
     1
102
RTVSPropertyOp36
 70
     1
102
RTVSPropertyOp37
 70
     1
102
RTVSPropertyOp38
 70
     1
102
RTVSPropertyOp39
 70
     1
102
RTVSPropertyOp40
 70
     1
102
RTVSPropertyOp41
 70
     1
102
RTVSPropertyOp42
 70
     1
102
RTVSPropertyOp43
 70
     1
102
RTVSPropertyOp44
 70
     1
102
RTVSPropertyOp45
 70
     1
102
RTVSPropertyOp46
 70
     1
102
RTVSPropertyOp47
 70
     1
102
RTVSPropertyOp48
 70
     1
102
RTVSPropertyOp49
 70
     1
102
RTVSPropertyOp50
 70
     1
102
RTVSPropertyOp51
 70
     0
102
RTVSPropertyOp52
 70
     0
102
RTVSPropertyOp53
 70
     1
102
RTVSPropertyOp54
 70
     1
102
RTVSPropertyOp55
 70
     1
102
RTVSPropertyOp56
 70
     1
102
RTVSPropertyOp57
 70
     1
102
RTVSPropertyOp58
 70
     1
102
RTVSPropertyOp59
 70
     1
102
RTVSPropertyOp60
 70
     1
102
RTVSPropertyOp61
 70
     1
102
RTVSPropertyOp62
 70
     1
  0
XRECORD
  5
19E3
102
{ACAD_REACTORS
330
19E2
102
}
330
19E2
100
AcDbXrecord
280
     1
102
RTVSPost2010Prop28
280
     0
102
RTVSPost2010PropOp28
 70
     1
102
RTVSPost2010Prop29
280
     1
102
RTVSPost2010PropOp29
 70
     1
102
RTVSPost2010Prop30
280
     1
102
RTVSPost2010PropOp30
 70
     1
102
RTVSPost2010Prop31
280
     0
102
RTVSPost2010PropOp31
 70
     1
102
RTVSPost2010Prop32
280
     0
102
RTVSPost2010PropOp32
 70
     1
102
RTVSPost2010Prop33
280
     0
102
RTVSPost2010PropOp33
 70
     1
102
RTVSPost2010Prop34
280
     0
102
RTVSPost2010PropOp34
 70
     1
102
RTVSPost2010Prop35
280
     0
102
RTVSPost2010PropOp35
 70
     1
102
RTVSPost2010Prop36
280
     0
102
RTVSPost2010PropOp36
 70
     1
102
RTVSPost2010Prop37
 90
       50
102
RTVSPost2010PropOp37
 70
     1
102
RTVSPost2010Prop38
140
0.0
102
RTVSPost2010PropOp38
 70
     1
102
RTVSPost2010Prop39
140
1.0
102
RTVSPost2010PropOp39
 70
     1
102
RTVSPost2010Prop40
 90
        0
102
RTVSPost2010PropOp40
 70
     1
102
RTVSPost2010Prop41ColorIndex
 90
       18
102
RTVSPost2010Prop41ColorRGB
 90
        0
102
RTVSPost2010PropOp41
 70
     1
102
RTVSPost2010Prop42
 90
       50
102
RTVSPost2010PropOp42
 70
     1
102
RTVSPost2010Prop43
 90
        3
102
RTVSPost2010PropOp43
 70
     1
102
RTVSPost2010Prop44ColorIndex
 90
        5
102
RTVSPost2010Prop44ColorRGB
 90
      255
102
RTVSPost2010PropOp44
 70
     1
102
RTVSPost2010Prop45
280
     0
102
RTVSPost2010PropOp45
 70
     1
102
RTVSPost2010Prop46
 90
       50
102
RTVSPost2010PropOp46
 70
     1
102
RTVSPost2010Prop47
 90
       50
102
RTVSPost2010PropOp47
 70
     1
102
RTVSPost2010Prop48
 90
       50
102
RTVSPost2010PropOp48
 70
     1
102
RTVSPost2010Prop49
280
     0
102
RTVSPost2010PropOp49
 70
     1
102
RTVSPost2010Prop50
 90
       50
102
RTVSPost2010PropOp50
 70
     1
102
RTVSPost2010Prop51ColorIndex
 90
      256
102
RTVSPost2010Prop51ColorRGB
 90
-16777216
102
RTVSPost2010PropOp51
 70
     0
102
RTVSPost2010Prop52
140
1.0
102
RTVSPost2010PropOp52
 70
     0
102
RTVSPost2010Prop53
 90
        2
102
RTVSPost2010PropOp53
 70
     1
102
RTVSPost2010Prop54
  1
strokes_ogs.tif
102
RTVSPost2010PropOp54
 70
     1
102
RTVSPost2010Prop55
280
     0
102
RTVSPost2010PropOp55
 70
     1
102
RTVSPost2010Prop56
140
1.0
102
RTVSPost2010PropOp56
 70
     1
102
RTVSPost2010Prop57
140
1.0
102
RTVSPost2010PropOp57
 70
     1
102
RTVSPropertyOp0
 70
     1
102
RTVSPropertyOp1
 70
     1
102
RTVSPropertyOp2
 70
     1
102
RTVSPropertyOp3
 70
     1
102
RTVSPropertyOp4
 70
     1
102
RTVSPropertyOp5
 70
     1
102
RTVSPropertyOp6
 70
     1
102
RTVSPropertyOp7
 70
     1
102
RTVSPropertyOp8
 70
     1
102
RTVSPropertyOp9
 70
     1
102
RTVSPropertyOp10
 70
     1
102
RTVSPropertyOp11
 70
     1
102
RTVSPropertyOp12
 70
     1
102
RTVSPropertyOp13
 70
     1
102
RTVSPropertyOp14
 70
     1
102
RTVSPropertyOp15
 70
     1
102
RTVSPropertyOp16
 70
     1
102
RTVSPropertyOp17
 70
     1
102
RTVSPropertyOp18
 70
     1
102
RTVSPropertyOp19
 70
     1
102
RTVSPropertyOp20
 70
     1
102
RTVSPropertyOp21
 70
     1
102
RTVSPropertyOp22
 70
     1
102
RTVSPropertyOp23
 70
     1
102
RTVSPropertyOp24
 70
     1
102
RTVSPropertyOp25
 70
     1
102
RTVSPropertyOp26
 70
     1
102
RTVSPropertyOp27
 70
     1
102
RTVSPropertyOp28
 70
     1
102
RTVSPropertyOp29
 70
     1
102
RTVSPropertyOp30
 70
     1
102
RTVSPropertyOp31
 70
     1
102
RTVSPropertyOp32
 70
     1
102
RTVSPropertyOp33
 70
     1
102
RTVSPropertyOp34
 70
     1
102
RTVSPropertyOp35
 70
     1
102
RTVSPropertyOp36
 70
     1
102
RTVSPropertyOp37
 70
     1
102
RTVSPropertyOp38
 70
     1
102
RTVSPropertyOp39
 70
     1
102
RTVSPropertyOp40
 70
     1
102
RTVSPropertyOp41
 70
     1
102
RTVSPropertyOp42
 70
     1
102
RTVSPropertyOp43
 70
     1
102
RTVSPropertyOp44
 70
     1
102
RTVSPropertyOp45
 70
     1
102
RTVSPropertyOp46
 70
     1
102
RTVSPropertyOp47
 70
     1
102
RTVSPropertyOp48
 70
     1
102
RTVSPropertyOp49
 70
     1
102
RTVSPropertyOp50
 70
     1
102
RTVSPropertyOp51
 70
     0
102
RTVSPropertyOp52
 70
     0
102
RTVSPropertyOp53
 70
     1
102
RTVSPropertyOp54
 70
     1
102
RTVSPropertyOp55
 70
     1
102
RTVSPropertyOp56
 70
     1
102
RTVSPropertyOp57
 70
     1
102
RTVSPropertyOp58
 70
     1
102
RTVSPropertyOp59
 70
     1
102
RTVSPropertyOp60
 70
     1
102
RTVSPropertyOp61
 70
     1
102
RTVSPropertyOp62
 70
     1
  0
XRECORD
  5
19E5
102
{ACAD_REACTORS
330
19E4
102
}
330
19E4
100
AcDbXrecord
280
     1
102
RTVSPost2010Prop28
280
     0
102
RTVSPost2010PropOp28
 70
     1
102
RTVSPost2010Prop29
280
     1
102
RTVSPost2010PropOp29
 70
     1
102
RTVSPost2010Prop30
280
     1
102
RTVSPost2010PropOp30
 70
     1
102
RTVSPost2010Prop31
280
     0
102
RTVSPost2010PropOp31
 70
     1
102
RTVSPost2010Prop32
280
     0
102
RTVSPost2010PropOp32
 70
     1
102
RTVSPost2010Prop33
280
     0
102
RTVSPost2010PropOp33
 70
     1
102
RTVSPost2010Prop34
280
     0
102
RTVSPost2010PropOp34
 70
     1
102
RTVSPost2010Prop35
280
     0
102
RTVSPost2010PropOp35
 70
     1
102
RTVSPost2010Prop36
280
     0
102
RTVSPost2010PropOp36
 70
     1
102
RTVSPost2010Prop37
 90
       50
102
RTVSPost2010PropOp37
 70
     1
102
RTVSPost2010Prop38
140
0.0
102
RTVSPost2010PropOp38
 70
     1
102
RTVSPost2010Prop39
140
1.0
102
RTVSPost2010PropOp39
 70
     1
102
RTVSPost2010Prop40
 90
        0
102
RTVSPost2010PropOp40
 70
     1
102
RTVSPost2010Prop41ColorIndex
 90
       18
102
RTVSPost2010Prop41ColorRGB
 90
        0
102
RTVSPost2010PropOp41
 70
     1
102
RTVSPost2010Prop42
 90
       50
102
RTVSPost2010PropOp42
 70
     1
102
RTVSPost2010Prop43
 90
        3
102
RTVSPost2010PropOp43
 70
     1
102
RTVSPost2010Prop44ColorIndex
 90
        5
102
RTVSPost2010Prop44ColorRGB
 90
      255
102
RTVSPost2010PropOp44
 70
     1
102
RTVSPost2010Prop45
280
     0
102
RTVSPost2010PropOp45
 70
     1
102
RTVSPost2010Prop46
 90
       50
102
RTVSPost2010PropOp46
 70
     1
102
RTVSPost2010Prop47
 90
       50
102
RTVSPost2010PropOp47
 70
     1
102
RTVSPost2010Prop48
 90
       50
102
RTVSPost2010PropOp48
 70
     1
102
RTVSPost2010Prop49
280
     0
102
RTVSPost2010PropOp49
 70
     1
102
RTVSPost2010Prop50
 90
       50
102
RTVSPost2010PropOp50
 70
     1
102
RTVSPost2010Prop51ColorIndex
 90
      256
102
RTVSPost2010Prop51ColorRGB
 90
-16777216
102
RTVSPost2010PropOp51
 70
     0
102
RTVSPost2010Prop52
140
1.0
102
RTVSPost2010PropOp52
 70
     0
102
RTVSPost2010Prop53
 90
        2
102
RTVSPost2010PropOp53
 70
     1
102
RTVSPost2010Prop54
  1
strokes_ogs.tif
102
RTVSPost2010PropOp54
 70
     1
102
RTVSPost2010Prop55
280
     0
102
RTVSPost2010PropOp55
 70
     1
102
RTVSPost2010Prop56
140
1.0
102
RTVSPost2010PropOp56
 70
     1
102
RTVSPost2010Prop57
140
1.0
102
RTVSPost2010PropOp57
 70
     1
102
RTVSPropertyOp0
 70
     1
102
RTVSPropertyOp1
 70
     1
102
RTVSPropertyOp2
 70
     1
102
RTVSPropertyOp3
 70
     1
102
RTVSPropertyOp4
 70
     1
102
RTVSPropertyOp5
 70
     1
102
RTVSPropertyOp6
 70
     1
102
RTVSPropertyOp7
 70
     1
102
RTVSPropertyOp8
 70
     1
102
RTVSPropertyOp9
 70
     1
102
RTVSPropertyOp10
 70
     1
102
RTVSPropertyOp11
 70
     1
102
RTVSPropertyOp12
 70
     1
102
RTVSPropertyOp13
 70
     1
102
RTVSPropertyOp14
 70
     1
102
RTVSPropertyOp15
 70
     1
102
RTVSPropertyOp16
 70
     1
102
RTVSPropertyOp17
 70
     1
102
RTVSPropertyOp18
 70
     1
102
RTVSPropertyOp19
 70
     1
102
RTVSPropertyOp20
 70
     1
102
RTVSPropertyOp21
 70
     1
102
RTVSPropertyOp22
 70
     1
102
RTVSPropertyOp23
 70
     1
102
RTVSPropertyOp24
 70
     1
102
RTVSPropertyOp25
 70
     1
102
RTVSPropertyOp26
 70
     1
102
RTVSPropertyOp27
 70
     1
102
RTVSPropertyOp28
 70
     1
102
RTVSPropertyOp29
 70
     1
102
RTVSPropertyOp30
 70
     1
102
RTVSPropertyOp31
 70
     1
102
RTVSPropertyOp32
 70
     1
102
RTVSPropertyOp33
 70
     1
102
RTVSPropertyOp34
 70
     1
102
RTVSPropertyOp35
 70
     1
102
RTVSPropertyOp36
 70
     1
102
RTVSPropertyOp37
 70
     1
102
RTVSPropertyOp38
 70
     1
102
RTVSPropertyOp39
 70
     1
102
RTVSPropertyOp40
 70
     1
102
RTVSPropertyOp41
 70
     1
102
RTVSPropertyOp42
 70
     1
102
RTVSPropertyOp43
 70
     1
102
RTVSPropertyOp44
 70
     1
102
RTVSPropertyOp45
 70
     1
102
RTVSPropertyOp46
 70
     1
102
RTVSPropertyOp47
 70
     1
102
RTVSPropertyOp48
 70
     1
102
RTVSPropertyOp49
 70
     1
102
RTVSPropertyOp50
 70
     1
102
RTVSPropertyOp51
 70
     0
102
RTVSPropertyOp52
 70
     0
102
RTVSPropertyOp53
 70
     1
102
RTVSPropertyOp54
 70
     1
102
RTVSPropertyOp55
 70
     1
102
RTVSPropertyOp56
 70
     1
102
RTVSPropertyOp57
 70
     1
102
RTVSPropertyOp58
 70
     1
102
RTVSPropertyOp59
 70
     1
102
RTVSPropertyOp60
 70
     1
102
RTVSPropertyOp61
 70
     1
102
RTVSPropertyOp62
 70
     1
  0
XRECORD
  5
19E7
102
{ACAD_REACTORS
330
19E6
102
}
330
19E6
100
AcDbXrecord
280
     1
102
RTVSPost2010Prop28
280
     0
102
RTVSPost2010PropOp28
 70
     1
102
RTVSPost2010Prop29
280
     1
102
RTVSPost2010PropOp29
 70
     1
102
RTVSPost2010Prop30
280
     1
102
RTVSPost2010PropOp30
 70
     1
102
RTVSPost2010Prop31
280
     0
102
RTVSPost2010PropOp31
 70
     1
102
RTVSPost2010Prop32
280
     0
102
RTVSPost2010PropOp32
 70
     1
102
RTVSPost2010Prop33
280
     0
102
RTVSPost2010PropOp33
 70
     1
102
RTVSPost2010Prop34
280
     0
102
RTVSPost2010PropOp34
 70
     1
102
RTVSPost2010Prop35
280
     0
102
RTVSPost2010PropOp35
 70
     1
102
RTVSPost2010Prop36
280
     0
102
RTVSPost2010PropOp36
 70
     1
102
RTVSPost2010Prop37
 90
       50
102
RTVSPost2010PropOp37
 70
     1
102
RTVSPost2010Prop38
140
0.0
102
RTVSPost2010PropOp38
 70
     1
102
RTVSPost2010Prop39
140
1.0
102
RTVSPost2010PropOp39
 70
     1
102
RTVSPost2010Prop40
 90
        0
102
RTVSPost2010PropOp40
 70
     1
102
RTVSPost2010Prop41ColorIndex
 90
       18
102
RTVSPost2010Prop41ColorRGB
 90
        0
102
RTVSPost2010PropOp41
 70
     1
102
RTVSPost2010Prop42
 90
       50
102
RTVSPost2010PropOp42
 70
     1
102
RTVSPost2010Prop43
 90
        3
102
RTVSPost2010PropOp43
 70
     1
102
RTVSPost2010Prop44ColorIndex
 90
        5
102
RTVSPost2010Prop44ColorRGB
 90
      255
102
RTVSPost2010PropOp44
 70
     1
102
RTVSPost2010Prop45
280
     0
102
RTVSPost2010PropOp45
 70
     1
102
RTVSPost2010Prop46
 90
       50
102
RTVSPost2010PropOp46
 70
     1
102
RTVSPost2010Prop47
 90
       50
102
RTVSPost2010PropOp47
 70
     1
102
RTVSPost2010Prop48
 90
       50
102
RTVSPost2010PropOp48
 70
     1
102
RTVSPost2010Prop49
280
     0
102
RTVSPost2010PropOp49
 70
     1
102
RTVSPost2010Prop50
 90
       50
102
RTVSPost2010PropOp50
 70
     1
102
RTVSPost2010Prop51ColorIndex
 90
      256
102
RTVSPost2010Prop51ColorRGB
 90
-16777216
102
RTVSPost2010PropOp51
 70
     0
102
RTVSPost2010Prop52
140
1.0
102
RTVSPost2010PropOp52
 70
     0
102
RTVSPost2010Prop53
 90
        2
102
RTVSPost2010PropOp53
 70
     1
102
RTVSPost2010Prop54
  1
strokes_ogs.tif
102
RTVSPost2010PropOp54
 70
     1
102
RTVSPost2010Prop55
280
     0
102
RTVSPost2010PropOp55
 70
     1
102
RTVSPost2010Prop56
140
1.0
102
RTVSPost2010PropOp56
 70
     1
102
RTVSPost2010Prop57
140
1.0
102
RTVSPost2010PropOp57
 70
     1
102
RTVSPropertyOp0
 70
     1
102
RTVSPropertyOp1
 70
     1
102
RTVSPropertyOp2
 70
     1
102
RTVSPropertyOp3
 70
     1
102
RTVSPropertyOp4
 70
     1
102
RTVSPropertyOp5
 70
     1
102
RTVSPropertyOp6
 70
     1
102
RTVSPropertyOp7
 70
     1
102
RTVSPropertyOp8
 70
     1
102
RTVSPropertyOp9
 70
     1
102
RTVSPropertyOp10
 70
     1
102
RTVSPropertyOp11
 70
     1
102
RTVSPropertyOp12
 70
     1
102
RTVSPropertyOp13
 70
     1
102
RTVSPropertyOp14
 70
     1
102
RTVSPropertyOp15
 70
     1
102
RTVSPropertyOp16
 70
     1
102
RTVSPropertyOp17
 70
     1
102
RTVSPropertyOp18
 70
     1
102
RTVSPropertyOp19
 70
     1
102
RTVSPropertyOp20
 70
     1
102
RTVSPropertyOp21
 70
     1
102
RTVSPropertyOp22
 70
     1
102
RTVSPropertyOp23
 70
     1
102
RTVSPropertyOp24
 70
     1
102
RTVSPropertyOp25
 70
     1
102
RTVSPropertyOp26
 70
     1
102
RTVSPropertyOp27
 70
     1
102
RTVSPropertyOp28
 70
     1
102
RTVSPropertyOp29
 70
     1
102
RTVSPropertyOp30
 70
     1
102
RTVSPropertyOp31
 70
     1
102
RTVSPropertyOp32
 70
     1
102
RTVSPropertyOp33
 70
     1
102
RTVSPropertyOp34
 70
     1
102
RTVSPropertyOp35
 70
     1
102
RTVSPropertyOp36
 70
     1
102
RTVSPropertyOp37
 70
     1
102
RTVSPropertyOp38
 70
     1
102
RTVSPropertyOp39
 70
     1
102
RTVSPropertyOp40
 70
     1
102
RTVSPropertyOp41
 70
     1
102
RTVSPropertyOp42
 70
     1
102
RTVSPropertyOp43
 70
     1
102
RTVSPropertyOp44
 70
     1
102
RTVSPropertyOp45
 70
     1
102
RTVSPropertyOp46
 70
     1
102
RTVSPropertyOp47
 70
     1
102
RTVSPropertyOp48
 70
     1
102
RTVSPropertyOp49
 70
     1
102
RTVSPropertyOp50
 70
     1
102
RTVSPropertyOp51
 70
     0
102
RTVSPropertyOp52
 70
     0
102
RTVSPropertyOp53
 70
     1
102
RTVSPropertyOp54
 70
     1
102
RTVSPropertyOp55
 70
     1
102
RTVSPropertyOp56
 70
     1
102
RTVSPropertyOp57
 70
     1
102
RTVSPropertyOp58
 70
     1
102
RTVSPropertyOp59
 70
     1
102
RTVSPropertyOp60
 70
     1
102
RTVSPropertyOp61
 70
     1
102
RTVSPropertyOp62
 70
     1
  0
XRECORD
  5
19EF
102
{ACAD_REACTORS
330
19EE
102
}
330
19EE
100
AcDbXrecord
280
     1
102
RTVSPost2010Prop28
280
     0
102
RTVSPost2010PropOp28
 70
     1
102
RTVSPost2010Prop29
280
     1
102
RTVSPost2010PropOp29
 70
     1
102
RTVSPost2010Prop30
280
     1
102
RTVSPost2010PropOp30
 70
     1
102
RTVSPost2010Prop31
280
     0
102
RTVSPost2010PropOp31
 70
     1
102
RTVSPost2010Prop32
280
     0
102
RTVSPost2010PropOp32
 70
     1
102
RTVSPost2010Prop33
280
     0
102
RTVSPost2010PropOp33
 70
     1
102
RTVSPost2010Prop34
280
     0
102
RTVSPost2010PropOp34
 70
     1
102
RTVSPost2010Prop35
280
     0
102
RTVSPost2010PropOp35
 70
     1
102
RTVSPost2010Prop36
280
     0
102
RTVSPost2010PropOp36
 70
     1
102
RTVSPost2010Prop37
 90
       50
102
RTVSPost2010PropOp37
 70
     1
102
RTVSPost2010Prop38
140
0.0
102
RTVSPost2010PropOp38
 70
     1
102
RTVSPost2010Prop39
140
1.0
102
RTVSPost2010PropOp39
 70
     1
102
RTVSPost2010Prop40
 90
        0
102
RTVSPost2010PropOp40
 70
     1
102
RTVSPost2010Prop41ColorIndex
 90
       18
102
RTVSPost2010Prop41ColorRGB
 90
        0
102
RTVSPost2010PropOp41
 70
     1
102
RTVSPost2010Prop42
 90
       50
102
RTVSPost2010PropOp42
 70
     1
102
RTVSPost2010Prop43
 90
        3
102
RTVSPost2010PropOp43
 70
     1
102
RTVSPost2010Prop44ColorIndex
 90
        5
102
RTVSPost2010Prop44ColorRGB
 90
      255
102
RTVSPost2010PropOp44
 70
     1
102
RTVSPost2010Prop45
280
     0
102
RTVSPost2010PropOp45
 70
     1
102
RTVSPost2010Prop46
 90
       50
102
RTVSPost2010PropOp46
 70
     1
102
RTVSPost2010Prop47
 90
       50
102
RTVSPost2010PropOp47
 70
     1
102
RTVSPost2010Prop48
 90
       50
102
RTVSPost2010PropOp48
 70
     1
102
RTVSPost2010Prop49
280
     0
102
RTVSPost2010PropOp49
 70
     1
102
RTVSPost2010Prop50
 90
       50
102
RTVSPost2010PropOp50
 70
     1
102
RTVSPost2010Prop51ColorIndex
 90
      256
102
RTVSPost2010Prop51ColorRGB
 90
-16777216
102
RTVSPost2010PropOp51
 70
     0
102
RTVSPost2010Prop52
140
1.0
102
RTVSPost2010PropOp52
 70
     0
102
RTVSPost2010Prop53
 90
        2
102
RTVSPost2010PropOp53
 70
     1
102
RTVSPost2010Prop54
  1
strokes_ogs.tif
102
RTVSPost2010PropOp54
 70
     1
102
RTVSPost2010Prop55
280
     0
102
RTVSPost2010PropOp55
 70
     1
102
RTVSPost2010Prop56
140
1.0
102
RTVSPost2010PropOp56
 70
     1
102
RTVSPost2010Prop57
140
1.0
102
RTVSPost2010PropOp57
 70
     1
102
RTVSPropertyOp0
 70
     1
102
RTVSPropertyOp1
 70
     1
102
RTVSPropertyOp2
 70
     1
102
RTVSPropertyOp3
 70
     1
102
RTVSPropertyOp4
 70
     1
102
RTVSPropertyOp5
 70
     1
102
RTVSPropertyOp6
 70
     1
102
RTVSPropertyOp7
 70
     1
102
RTVSPropertyOp8
 70
     1
102
RTVSPropertyOp9
 70
     1
102
RTVSPropertyOp10
 70
     1
102
RTVSPropertyOp11
 70
     1
102
RTVSPropertyOp12
 70
     1
102
RTVSPropertyOp13
 70
     1
102
RTVSPropertyOp14
 70
     1
102
RTVSPropertyOp15
 70
     1
102
RTVSPropertyOp16
 70
     1
102
RTVSPropertyOp17
 70
     1
102
RTVSPropertyOp18
 70
     1
102
RTVSPropertyOp19
 70
     1
102
RTVSPropertyOp20
 70
     1
102
RTVSPropertyOp21
 70
     1
102
RTVSPropertyOp22
 70
     1
102
RTVSPropertyOp23
 70
     1
102
RTVSPropertyOp24
 70
     1
102
RTVSPropertyOp25
 70
     1
102
RTVSPropertyOp26
 70
     1
102
RTVSPropertyOp27
 70
     1
102
RTVSPropertyOp28
 70
     1
102
RTVSPropertyOp29
 70
     1
102
RTVSPropertyOp30
 70
     1
102
RTVSPropertyOp31
 70
     1
102
RTVSPropertyOp32
 70
     1
102
RTVSPropertyOp33
 70
     1
102
RTVSPropertyOp34
 70
     1
102
RTVSPropertyOp35
 70
     1
102
RTVSPropertyOp36
 70
     1
102
RTVSPropertyOp37
 70
     1
102
RTVSPropertyOp38
 70
     1
102
RTVSPropertyOp39
 70
     1
102
RTVSPropertyOp40
 70
     1
102
RTVSPropertyOp41
 70
     1
102
RTVSPropertyOp42
 70
     1
102
RTVSPropertyOp43
 70
     1
102
RTVSPropertyOp44
 70
     1
102
RTVSPropertyOp45
 70
     1
102
RTVSPropertyOp46
 70
     1
102
RTVSPropertyOp47
 70
     1
102
RTVSPropertyOp48
 70
     1
102
RTVSPropertyOp49
 70
     1
102
RTVSPropertyOp50
 70
     1
102
RTVSPropertyOp51
 70
     0
102
RTVSPropertyOp52
 70
     0
102
RTVSPropertyOp53
 70
     1
102
RTVSPropertyOp54
 70
     1
102
RTVSPropertyOp55
 70
     1
102
RTVSPropertyOp56
 70
     1
102
RTVSPropertyOp57
 70
     1
102
RTVSPropertyOp58
 70
     1
102
RTVSPropertyOp59
 70
     1
102
RTVSPropertyOp60
 70
     1
102
RTVSPropertyOp61
 70
     1
102
RTVSPropertyOp62
 70
     1
  0
XRECORD
  5
1A0B
102
{ACAD_REACTORS
330
1A0A
102
}
330
1A0A
100
AcDbXrecord
280
     1
102
RTVSPost2010Prop28
280
     0
102
RTVSPost2010PropOp28
 70
     1
102
RTVSPost2010Prop29
280
     1
102
RTVSPost2010PropOp29
 70
     1
102
RTVSPost2010Prop30
280
     1
102
RTVSPost2010PropOp30
 70
     1
102
RTVSPost2010Prop31
280
     0
102
RTVSPost2010PropOp31
 70
     1
102
RTVSPost2010Prop32
280
     0
102
RTVSPost2010PropOp32
 70
     1
102
RTVSPost2010Prop33
280
     0
102
RTVSPost2010PropOp33
 70
     1
102
RTVSPost2010Prop34
280
     0
102
RTVSPost2010PropOp34
 70
     1
102
RTVSPost2010Prop35
280
     0
102
RTVSPost2010PropOp35
 70
     1
102
RTVSPost2010Prop36
280
     0
102
RTVSPost2010PropOp36
 70
     1
102
RTVSPost2010Prop37
 90
       50
102
RTVSPost2010PropOp37
 70
     0
102
RTVSPost2010Prop38
140
0.0
102
RTVSPost2010PropOp38
 70
     0
102
RTVSPost2010Prop39
140
1.0
102
RTVSPost2010PropOp39
 70
     0
102
RTVSPost2010Prop40
 90
        0
102
RTVSPost2010PropOp40
 70
     0
102
RTVSPost2010Prop41ColorIndex
 90
       18
102
RTVSPost2010Prop41ColorRGB
 90
        0
102
RTVSPost2010PropOp41
 70
     0
102
RTVSPost2010Prop42
 90
       50
102
RTVSPost2010PropOp42
 70
     0
102
RTVSPost2010Prop43
 90
        3
102
RTVSPost2010PropOp43
 70
     0
102
RTVSPost2010Prop44ColorIndex
 90
        5
102
RTVSPost2010Prop44ColorRGB
 90
      255
102
RTVSPost2010PropOp44
 70
     0
102
RTVSPost2010Prop45
280
     0
102
RTVSPost2010PropOp45
 70
     1
102
RTVSPost2010Prop46
 90
       50
102
RTVSPost2010PropOp46
 70
     0
102
RTVSPost2010Prop47
 90
       50
102
RTVSPost2010PropOp47
 70
     0
102
RTVSPost2010Prop48
 90
       50
102
RTVSPost2010PropOp48
 70
     0
102
RTVSPost2010Prop49
280
     0
102
RTVSPost2010PropOp49
 70
     1
102
RTVSPost2010Prop50
 90
       50
102
RTVSPost2010PropOp50
 70
     0
102
RTVSPost2010Prop51ColorIndex
 90
      256
102
RTVSPost2010Prop51ColorRGB
 90
-16777216
102
RTVSPost2010PropOp51
 70
     0
102
RTVSPost2010Prop52
140
1.0
102
RTVSPost2010PropOp52
 70
     0
102
RTVSPost2010Prop53
 90
        2
102
RTVSPost2010PropOp53
 70
     0
102
RTVSPost2010Prop54
  1
strokes_ogs.tif
102
RTVSPost2010PropOp54
 70
     0
102
RTVSPost2010Prop55
280
     0
102
RTVSPost2010PropOp55
 70
     1
102
RTVSPost2010Prop56
140
1.0
102
RTVSPost2010PropOp56
 70
     0
102
RTVSPost2010Prop57
140
1.0
102
RTVSPost2010PropOp57
 70
     0
102
RTVSPropertyOp0
 70
     0
102
RTVSPropertyOp1
 70
     0
102
RTVSPropertyOp2
 70
     0
102
RTVSPropertyOp3
 70
     0
102
RTVSPropertyOp4
 70
     0
102
RTVSPropertyOp5
 70
     0
102
RTVSPropertyOp6
 70
     0
102
RTVSPropertyOp7
 70
     0
102
RTVSPropertyOp8
 70
     0
102
RTVSPropertyOp9
 70
     0
102
RTVSPropertyOp10
 70
     0
102
RTVSPropertyOp11
 70
     0
102
RTVSPropertyOp12
 70
     0
102
RTVSPropertyOp13
 70
     0
102
RTVSPropertyOp14
 70
     2
102
RTVSPropertyOp15
 70
     0
102
RTVSPropertyOp16
 70
     0
102
RTVSPropertyOp17
 70
     0
102
RTVSPropertyOp18
 70
     0
102
RTVSPropertyOp19
 70
     0
102
RTVSPropertyOp20
 70
     0
102
RTVSPropertyOp21
 70
     0
102
RTVSPropertyOp22
 70
     0
102
RTVSPropertyOp23
 70
     0
102
RTVSPropertyOp24
 70
     0
102
RTVSPropertyOp25
 70
     0
102
RTVSPropertyOp26
 70
     0
102
RTVSPropertyOp27
 70
     0
102
RTVSPropertyOp28
 70
     1
102
RTVSPropertyOp29
 70
     1
102
RTVSPropertyOp30
 70
     1
102
RTVSPropertyOp31
 70
     1
102
RTVSPropertyOp32
 70
     1
102
RTVSPropertyOp33
 70
     1
102
RTVSPropertyOp34
 70
     1
102
RTVSPropertyOp35
 70
     1
102
RTVSPropertyOp36
 70
     1
102
RTVSPropertyOp37
 70
     0
102
RTVSPropertyOp38
 70
     0
102
RTVSPropertyOp39
 70
     0
102
RTVSPropertyOp40
 70
     0
102
RTVSPropertyOp41
 70
     0
102
RTVSPropertyOp42
 70
     0
102
RTVSPropertyOp43
 70
     0
102
RTVSPropertyOp44
 70
     0
102
RTVSPropertyOp45
 70
     1
102
RTVSPropertyOp46
 70
     0
102
RTVSPropertyOp47
 70
     0
102
RTVSPropertyOp48
 70
     0
102
RTVSPropertyOp49
 70
     1
102
RTVSPropertyOp50
 70
     0
102
RTVSPropertyOp51
 70
     0
102
RTVSPropertyOp52
 70
     0
102
RTVSPropertyOp53
 70
     0
102
RTVSPropertyOp54
 70
     0
102
RTVSPropertyOp55
 70
     1
102
RTVSPropertyOp56
 70
     0
102
RTVSPropertyOp57
 70
     0
102
RTVSPropertyOp58
 70
     0
102
RTVSPropertyOp59
 70
     0
102
RTVSPropertyOp60
 70
     0
102
RTVSPropertyOp61
 70
     0
102
RTVSPropertyOp62
 70
     0
  0
XRECORD
  5
19FB
102
{ACAD_REACTORS
330
19FA
102
}
330
19FA
100
AcDbXrecord
280
     1
102
RTVSPost2010Prop28
280
     0
102
RTVSPost2010PropOp28
 70
     1
102
RTVSPost2010Prop29
280
     1
102
RTVSPost2010PropOp29
 70
     1
102
RTVSPost2010Prop30
280
     1
102
RTVSPost2010PropOp30
 70
     1
102
RTVSPost2010Prop31
280
     0
102
RTVSPost2010PropOp31
 70
     1
102
RTVSPost2010Prop32
280
     0
102
RTVSPost2010PropOp32
 70
     1
102
RTVSPost2010Prop33
280
     0
102
RTVSPost2010PropOp33
 70
     1
102
RTVSPost2010Prop34
280
     0
102
RTVSPost2010PropOp34
 70
     1
102
RTVSPost2010Prop35
280
     0
102
RTVSPost2010PropOp35
 70
     1
102
RTVSPost2010Prop36
280
     0
102
RTVSPost2010PropOp36
 70
     1
102
RTVSPost2010Prop37
 90
       50
102
RTVSPost2010PropOp37
 70
     1
102
RTVSPost2010Prop38
140
0.0
102
RTVSPost2010PropOp38
 70
     1
102
RTVSPost2010Prop39
140
1.0
102
RTVSPost2010PropOp39
 70
     1
102
RTVSPost2010Prop40
 90
        0
102
RTVSPost2010PropOp40
 70
     1
102
RTVSPost2010Prop41ColorIndex
 90
       18
102
RTVSPost2010Prop41ColorRGB
 90
        0
102
RTVSPost2010PropOp41
 70
     1
102
RTVSPost2010Prop42
 90
       50
102
RTVSPost2010PropOp42
 70
     1
102
RTVSPost2010Prop43
 90
        3
102
RTVSPost2010PropOp43
 70
     1
102
RTVSPost2010Prop44ColorIndex
 90
        5
102
RTVSPost2010Prop44ColorRGB
 90
      255
102
RTVSPost2010PropOp44
 70
     1
102
RTVSPost2010Prop45
280
     0
102
RTVSPost2010PropOp45
 70
     1
102
RTVSPost2010Prop46
 90
       50
102
RTVSPost2010PropOp46
 70
     1
102
RTVSPost2010Prop47
 90
       50
102
RTVSPost2010PropOp47
 70
     1
102
RTVSPost2010Prop48
 90
       50
102
RTVSPost2010PropOp48
 70
     1
102
RTVSPost2010Prop49
280
     0
102
RTVSPost2010PropOp49
 70
     1
102
RTVSPost2010Prop50
 90
       50
102
RTVSPost2010PropOp50
 70
     1
102
RTVSPost2010Prop51ColorIndex
 90
      256
102
RTVSPost2010Prop51ColorRGB
 90
-16777216
102
RTVSPost2010PropOp51
 70
     0
102
RTVSPost2010Prop52
140
1.0
102
RTVSPost2010PropOp52
 70
     0
102
RTVSPost2010Prop53
 90
        2
102
RTVSPost2010PropOp53
 70
     1
102
RTVSPost2010Prop54
  1
strokes_ogs.tif
102
RTVSPost2010PropOp54
 70
     1
102
RTVSPost2010Prop55
280
     0
102
RTVSPost2010PropOp55
 70
     1
102
RTVSPost2010Prop56
140
1.0
102
RTVSPost2010PropOp56
 70
     1
102
RTVSPost2010Prop57
140
1.0
102
RTVSPost2010PropOp57
 70
     1
102
RTVSPropertyOp0
 70
     1
102
RTVSPropertyOp1
 70
     1
102
RTVSPropertyOp2
 70
     1
102
RTVSPropertyOp3
 70
     1
102
RTVSPropertyOp4
 70
     1
102
RTVSPropertyOp5
 70
     1
102
RTVSPropertyOp6
 70
     1
102
RTVSPropertyOp7
 70
     1
102
RTVSPropertyOp8
 70
     1
102
RTVSPropertyOp9
 70
     1
102
RTVSPropertyOp10
 70
     1
102
RTVSPropertyOp11
 70
     1
102
RTVSPropertyOp12
 70
     1
102
RTVSPropertyOp13
 70
     1
102
RTVSPropertyOp14
 70
     1
102
RTVSPropertyOp15
 70
     1
102
RTVSPropertyOp16
 70
     1
102
RTVSPropertyOp17
 70
     1
102
RTVSPropertyOp18
 70
     1
102
RTVSPropertyOp19
 70
     1
102
RTVSPropertyOp20
 70
     1
102
RTVSPropertyOp21
 70
     1
102
RTVSPropertyOp22
 70
     1
102
RTVSPropertyOp23
 70
     1
102
RTVSPropertyOp24
 70
     1
102
RTVSPropertyOp25
 70
     1
102
RTVSPropertyOp26
 70
     1
102
RTVSPropertyOp27
 70
     1
102
RTVSPropertyOp28
 70
     1
102
RTVSPropertyOp29
 70
     1
102
RTVSPropertyOp30
 70
     1
102
RTVSPropertyOp31
 70
     1
102
RTVSPropertyOp32
 70
     1
102
RTVSPropertyOp33
 70
     1
102
RTVSPropertyOp34
 70
     1
102
RTVSPropertyOp35
 70
     1
102
RTVSPropertyOp36
 70
     1
102
RTVSPropertyOp37
 70
     1
102
RTVSPropertyOp38
 70
     1
102
RTVSPropertyOp39
 70
     1
102
RTVSPropertyOp40
 70
     1
102
RTVSPropertyOp41
 70
     1
102
RTVSPropertyOp42
 70
     1
102
RTVSPropertyOp43
 70
     1
102
RTVSPropertyOp44
 70
     1
102
RTVSPropertyOp45
 70
     1
102
RTVSPropertyOp46
 70
     1
102
RTVSPropertyOp47
 70
     1
102
RTVSPropertyOp48
 70
     1
102
RTVSPropertyOp49
 70
     1
102
RTVSPropertyOp50
 70
     1
102
RTVSPropertyOp51
 70
     0
102
RTVSPropertyOp52
 70
     0
102
RTVSPropertyOp53
 70
     1
102
RTVSPropertyOp54
 70
     1
102
RTVSPropertyOp55
 70
     1
102
RTVSPropertyOp56
 70
     1
102
RTVSPropertyOp57
 70
     1
102
RTVSPropertyOp58
 70
     1
102
RTVSPropertyOp59
 70
     1
102
RTVSPropertyOp60
 70
     1
102
RTVSPropertyOp61
 70
     1
102
RTVSPropertyOp62
 70
     1
  0
XRECORD
  5
1A0D
102
{ACAD_REACTORS
330
1A0C
102
}
330
1A0C
100
AcDbXrecord
280
     1
102
RTVSPost2010Prop28
280
     0
102
RTVSPost2010PropOp28
 70
     1
102
RTVSPost2010Prop29
280
     1
102
RTVSPost2010PropOp29
 70
     1
102
RTVSPost2010Prop30
280
     1
102
RTVSPost2010PropOp30
 70
     1
102
RTVSPost2010Prop31
280
     0
102
RTVSPost2010PropOp31
 70
     1
102
RTVSPost2010Prop32
280
     0
102
RTVSPost2010PropOp32
 70
     1
102
RTVSPost2010Prop33
280
     0
102
RTVSPost2010PropOp33
 70
     1
102
RTVSPost2010Prop34
280
     0
102
RTVSPost2010PropOp34
 70
     1
102
RTVSPost2010Prop35
280
     0
102
RTVSPost2010PropOp35
 70
     1
102
RTVSPost2010Prop36
280
     0
102
RTVSPost2010PropOp36
 70
     1
102
RTVSPost2010Prop37
 90
       50
102
RTVSPost2010PropOp37
 70
     0
102
RTVSPost2010Prop38
140
0.0
102
RTVSPost2010PropOp38
 70
     0
102
RTVSPost2010Prop39
140
1.0
102
RTVSPost2010PropOp39
 70
     0
102
RTVSPost2010Prop40
 90
        0
102
RTVSPost2010PropOp40
 70
     0
102
RTVSPost2010Prop41ColorIndex
 90
       18
102
RTVSPost2010Prop41ColorRGB
 90
        0
102
RTVSPost2010PropOp41
 70
     0
102
RTVSPost2010Prop42
 90
       50
102
RTVSPost2010PropOp42
 70
     0
102
RTVSPost2010Prop43
 90
        3
102
RTVSPost2010PropOp43
 70
     0
102
RTVSPost2010Prop44ColorIndex
 90
        5
102
RTVSPost2010Prop44ColorRGB
 90
      255
102
RTVSPost2010PropOp44
 70
     0
102
RTVSPost2010Prop45
280
     0
102
RTVSPost2010PropOp45
 70
     1
102
RTVSPost2010Prop46
 90
       50
102
RTVSPost2010PropOp46
 70
     0
102
RTVSPost2010Prop47
 90
       50
102
RTVSPost2010PropOp47
 70
     0
102
RTVSPost2010Prop48
 90
       50
102
RTVSPost2010PropOp48
 70
     0
102
RTVSPost2010Prop49
280
     0
102
RTVSPost2010PropOp49
 70
     1
102
RTVSPost2010Prop50
 90
       50
102
RTVSPost2010PropOp50
 70
     0
102
RTVSPost2010Prop51ColorIndex
 90
      256
102
RTVSPost2010Prop51ColorRGB
 90
-16777216
102
RTVSPost2010PropOp51
 70
     0
102
RTVSPost2010Prop52
140
1.0
102
RTVSPost2010PropOp52
 70
     0
102
RTVSPost2010Prop53
 90
        2
102
RTVSPost2010PropOp53
 70
     0
102
RTVSPost2010Prop54
  1
strokes_ogs.tif
102
RTVSPost2010PropOp54
 70
     0
102
RTVSPost2010Prop55
280
     0
102
RTVSPost2010PropOp55
 70
     1
102
RTVSPost2010Prop56
140
1.0
102
RTVSPost2010PropOp56
 70
     0
102
RTVSPost2010Prop57
140
1.0
102
RTVSPost2010PropOp57
 70
     0
102
RTVSPropertyOp0
 70
     0
102
RTVSPropertyOp1
 70
     0
102
RTVSPropertyOp2
 70
     0
102
RTVSPropertyOp3
 70
     0
102
RTVSPropertyOp4
 70
     0
102
RTVSPropertyOp5
 70
     0
102
RTVSPropertyOp6
 70
     0
102
RTVSPropertyOp7
 70
     0
102
RTVSPropertyOp8
 70
     0
102
RTVSPropertyOp9
 70
     0
102
RTVSPropertyOp10
 70
     0
102
RTVSPropertyOp11
 70
     0
102
RTVSPropertyOp12
 70
     0
102
RTVSPropertyOp13
 70
     0
102
RTVSPropertyOp14
 70
     2
102
RTVSPropertyOp15
 70
     0
102
RTVSPropertyOp16
 70
     0
102
RTVSPropertyOp17
 70
     0
102
RTVSPropertyOp18
 70
     0
102
RTVSPropertyOp19
 70
     0
102
RTVSPropertyOp20
 70
     0
102
RTVSPropertyOp21
 70
     0
102
RTVSPropertyOp22
 70
     0
102
RTVSPropertyOp23
 70
     0
102
RTVSPropertyOp24
 70
     0
102
RTVSPropertyOp25
 70
     0
102
RTVSPropertyOp26
 70
     0
102
RTVSPropertyOp27
 70
     0
102
RTVSPropertyOp28
 70
     1
102
RTVSPropertyOp29
 70
     1
102
RTVSPropertyOp30
 70
     1
102
RTVSPropertyOp31
 70
     1
102
RTVSPropertyOp32
 70
     1
102
RTVSPropertyOp33
 70
     1
102
RTVSPropertyOp34
 70
     1
102
RTVSPropertyOp35
 70
     1
102
RTVSPropertyOp36
 70
     1
102
RTVSPropertyOp37
 70
     0
102
RTVSPropertyOp38
 70
     0
102
RTVSPropertyOp39
 70
     0
102
RTVSPropertyOp40
 70
     0
102
RTVSPropertyOp41
 70
     0
102
RTVSPropertyOp42
 70
     0
102
RTVSPropertyOp43
 70
     0
102
RTVSPropertyOp44
 70
     0
102
RTVSPropertyOp45
 70
     1
102
RTVSPropertyOp46
 70
     0
102
RTVSPropertyOp47
 70
     0
102
RTVSPropertyOp48
 70
     0
102
RTVSPropertyOp49
 70
     1
102
RTVSPropertyOp50
 70
     0
102
RTVSPropertyOp51
 70
     0
102
RTVSPropertyOp52
 70
     0
102
RTVSPropertyOp53
 70
     0
102
RTVSPropertyOp54
 70
     0
102
RTVSPropertyOp55
 70
     1
102
RTVSPropertyOp56
 70
     0
102
RTVSPropertyOp57
 70
     0
102
RTVSPropertyOp58
 70
     0
102
RTVSPropertyOp59
 70
     0
102
RTVSPropertyOp60
 70
     0
102
RTVSPropertyOp61
 70
     0
102
RTVSPropertyOp62
 70
     0
  0
XRECORD
  5
19F3
102
{ACAD_REACTORS
330
19F2
102
}
330
19F2
100
AcDbXrecord
280
     1
102
RTVSPost2010Prop28
280
     0
102
RTVSPost2010PropOp28
 70
     1
102
RTVSPost2010Prop29
280
     1
102
RTVSPost2010PropOp29
 70
     1
102
RTVSPost2010Prop30
280
     1
102
RTVSPost2010PropOp30
 70
     1
102
RTVSPost2010Prop31
280
     0
102
RTVSPost2010PropOp31
 70
     1
102
RTVSPost2010Prop32
280
     0
102
RTVSPost2010PropOp32
 70
     1
102
RTVSPost2010Prop33
280
     0
102
RTVSPost2010PropOp33
 70
     1
102
RTVSPost2010Prop34
280
     0
102
RTVSPost2010PropOp34
 70
     1
102
RTVSPost2010Prop35
280
     0
102
RTVSPost2010PropOp35
 70
     1
102
RTVSPost2010Prop36
280
     0
102
RTVSPost2010PropOp36
 70
     1
102
RTVSPost2010Prop37
 90
       50
102
RTVSPost2010PropOp37
 70
     1
102
RTVSPost2010Prop38
140
0.0
102
RTVSPost2010PropOp38
 70
     1
102
RTVSPost2010Prop39
140
1.0
102
RTVSPost2010PropOp39
 70
     1
102
RTVSPost2010Prop40
 90
        0
102
RTVSPost2010PropOp40
 70
     1
102
RTVSPost2010Prop41ColorIndex
 90
       18
102
RTVSPost2010Prop41ColorRGB
 90
        0
102
RTVSPost2010PropOp41
 70
     1
102
RTVSPost2010Prop42
 90
       50
102
RTVSPost2010PropOp42
 70
     1
102
RTVSPost2010Prop43
 90
        3
102
RTVSPost2010PropOp43
 70
     1
102
RTVSPost2010Prop44ColorIndex
 90
        5
102
RTVSPost2010Prop44ColorRGB
 90
      255
102
RTVSPost2010PropOp44
 70
     1
102
RTVSPost2010Prop45
280
     0
102
RTVSPost2010PropOp45
 70
     1
102
RTVSPost2010Prop46
 90
       50
102
RTVSPost2010PropOp46
 70
     1
102
RTVSPost2010Prop47
 90
       50
102
RTVSPost2010PropOp47
 70
     1
102
RTVSPost2010Prop48
 90
       50
102
RTVSPost2010PropOp48
 70
     1
102
RTVSPost2010Prop49
280
     0
102
RTVSPost2010PropOp49
 70
     1
102
RTVSPost2010Prop50
 90
       50
102
RTVSPost2010PropOp50
 70
     1
102
RTVSPost2010Prop51ColorIndex
 90
      256
102
RTVSPost2010Prop51ColorRGB
 90
-16777216
102
RTVSPost2010PropOp51
 70
     0
102
RTVSPost2010Prop52
140
1.0
102
RTVSPost2010PropOp52
 70
     0
102
RTVSPost2010Prop53
 90
        2
102
RTVSPost2010PropOp53
 70
     1
102
RTVSPost2010Prop54
  1
strokes_ogs.tif
102
RTVSPost2010PropOp54
 70
     1
102
RTVSPost2010Prop55
280
     0
102
RTVSPost2010PropOp55
 70
     1
102
RTVSPost2010Prop56
140
1.0
102
RTVSPost2010PropOp56
 70
     1
102
RTVSPost2010Prop57
140
1.0
102
RTVSPost2010PropOp57
 70
     1
102
RTVSPropertyOp0
 70
     1
102
RTVSPropertyOp1
 70
     1
102
RTVSPropertyOp2
 70
     1
102
RTVSPropertyOp3
 70
     1
102
RTVSPropertyOp4
 70
     1
102
RTVSPropertyOp5
 70
     1
102
RTVSPropertyOp6
 70
     1
102
RTVSPropertyOp7
 70
     1
102
RTVSPropertyOp8
 70
     1
102
RTVSPropertyOp9
 70
     1
102
RTVSPropertyOp10
 70
     1
102
RTVSPropertyOp11
 70
     1
102
RTVSPropertyOp12
 70
     1
102
RTVSPropertyOp13
 70
     1
102
RTVSPropertyOp14
 70
     1
102
RTVSPropertyOp15
 70
     1
102
RTVSPropertyOp16
 70
     1
102
RTVSPropertyOp17
 70
     1
102
RTVSPropertyOp18
 70
     1
102
RTVSPropertyOp19
 70
     1
102
RTVSPropertyOp20
 70
     1
102
RTVSPropertyOp21
 70
     1
102
RTVSPropertyOp22
 70
     1
102
RTVSPropertyOp23
 70
     1
102
RTVSPropertyOp24
 70
     1
102
RTVSPropertyOp25
 70
     1
102
RTVSPropertyOp26
 70
     1
102
RTVSPropertyOp27
 70
     1
102
RTVSPropertyOp28
 70
     1
102
RTVSPropertyOp29
 70
     1
102
RTVSPropertyOp30
 70
     1
102
RTVSPropertyOp31
 70
     1
102
RTVSPropertyOp32
 70
     1
102
RTVSPropertyOp33
 70
     1
102
RTVSPropertyOp34
 70
     1
102
RTVSPropertyOp35
 70
     1
102
RTVSPropertyOp36
 70
     1
102
RTVSPropertyOp37
 70
     1
102
RTVSPropertyOp38
 70
     1
102
RTVSPropertyOp39
 70
     1
102
RTVSPropertyOp40
 70
     1
102
RTVSPropertyOp41
 70
     1
102
RTVSPropertyOp42
 70
     1
102
RTVSPropertyOp43
 70
     1
102
RTVSPropertyOp44
 70
     1
102
RTVSPropertyOp45
 70
     1
102
RTVSPropertyOp46
 70
     1
102
RTVSPropertyOp47
 70
     1
102
RTVSPropertyOp48
 70
     1
102
RTVSPropertyOp49
 70
     1
102
RTVSPropertyOp50
 70
     1
102
RTVSPropertyOp51
 70
     0
102
RTVSPropertyOp52
 70
     0
102
RTVSPropertyOp53
 70
     1
102
RTVSPropertyOp54
 70
     1
102
RTVSPropertyOp55
 70
     1
102
RTVSPropertyOp56
 70
     1
102
RTVSPropertyOp57
 70
     1
102
RTVSPropertyOp58
 70
     1
102
RTVSPropertyOp59
 70
     1
102
RTVSPropertyOp60
 70
     1
102
RTVSPropertyOp61
 70
     1
102
RTVSPropertyOp62
 70
     1
  0
XRECORD
  5
1A09
102
{ACAD_REACTORS
330
1A08
102
}
330
1A08
100
AcDbXrecord
280
     1
102
RTVSPost2010Prop28
280
     0
102
RTVSPost2010PropOp28
 70
     1
102
RTVSPost2010Prop29
280
     1
102
RTVSPost2010PropOp29
 70
     1
102
RTVSPost2010Prop30
280
     1
102
RTVSPost2010PropOp30
 70
     1
102
RTVSPost2010Prop31
280
     0
102
RTVSPost2010PropOp31
 70
     1
102
RTVSPost2010Prop32
280
     0
102
RTVSPost2010PropOp32
 70
     1
102
RTVSPost2010Prop33
280
     0
102
RTVSPost2010PropOp33
 70
     1
102
RTVSPost2010Prop34
280
     0
102
RTVSPost2010PropOp34
 70
     1
102
RTVSPost2010Prop35
280
     0
102
RTVSPost2010PropOp35
 70
     1
102
RTVSPost2010Prop36
280
     0
102
RTVSPost2010PropOp36
 70
     1
102
RTVSPost2010Prop37
 90
       50
102
RTVSPost2010PropOp37
 70
     1
102
RTVSPost2010Prop38
140
0.0
102
RTVSPost2010PropOp38
 70
     1
102
RTVSPost2010Prop39
140
1.0
102
RTVSPost2010PropOp39
 70
     1
102
RTVSPost2010Prop40
 90
        0
102
RTVSPost2010PropOp40
 70
     1
102
RTVSPost2010Prop41ColorIndex
 90
       18
102
RTVSPost2010Prop41ColorRGB
 90
        0
102
RTVSPost2010PropOp41
 70
     1
102
RTVSPost2010Prop42
 90
       50
102
RTVSPost2010PropOp42
 70
     1
102
RTVSPost2010Prop43
 90
        3
102
RTVSPost2010PropOp43
 70
     1
102
RTVSPost2010Prop44ColorIndex
 90
        5
102
RTVSPost2010Prop44ColorRGB
 90
      255
102
RTVSPost2010PropOp44
 70
     1
102
RTVSPost2010Prop45
280
     0
102
RTVSPost2010PropOp45
 70
     1
102
RTVSPost2010Prop46
 90
       50
102
RTVSPost2010PropOp46
 70
     1
102
RTVSPost2010Prop47
 90
       50
102
RTVSPost2010PropOp47
 70
     1
102
RTVSPost2010Prop48
 90
       50
102
RTVSPost2010PropOp48
 70
     1
102
RTVSPost2010Prop49
280
     0
102
RTVSPost2010PropOp49
 70
     1
102
RTVSPost2010Prop50
 90
       50
102
RTVSPost2010PropOp50
 70
     1
102
RTVSPost2010Prop51ColorIndex
 90
      256
102
RTVSPost2010Prop51ColorRGB
 90
-16777216
102
RTVSPost2010PropOp51
 70
     0
102
RTVSPost2010Prop52
140
1.0
102
RTVSPost2010PropOp52
 70
     0
102
RTVSPost2010Prop53
 90
        2
102
RTVSPost2010PropOp53
 70
     1
102
RTVSPost2010Prop54
  1
strokes_ogs.tif
102
RTVSPost2010PropOp54
 70
     1
102
RTVSPost2010Prop55
280
     0
102
RTVSPost2010PropOp55
 70
     1
102
RTVSPost2010Prop56
140
1.0
102
RTVSPost2010PropOp56
 70
     1
102
RTVSPost2010Prop57
140
1.0
102
RTVSPost2010PropOp57
 70
     1
102
RTVSPropertyOp0
 70
     1
102
RTVSPropertyOp1
 70
     1
102
RTVSPropertyOp2
 70
     1
102
RTVSPropertyOp3
 70
     1
102
RTVSPropertyOp4
 70
     1
102
RTVSPropertyOp5
 70
     1
102
RTVSPropertyOp6
 70
     1
102
RTVSPropertyOp7
 70
     1
102
RTVSPropertyOp8
 70
     1
102
RTVSPropertyOp9
 70
     1
102
RTVSPropertyOp10
 70
     1
102
RTVSPropertyOp11
 70
     1
102
RTVSPropertyOp12
 70
     1
102
RTVSPropertyOp13
 70
     1
102
RTVSPropertyOp14
 70
     1
102
RTVSPropertyOp15
 70
     1
102
RTVSPropertyOp16
 70
     1
102
RTVSPropertyOp17
 70
     1
102
RTVSPropertyOp18
 70
     1
102
RTVSPropertyOp19
 70
     1
102
RTVSPropertyOp20
 70
     1
102
RTVSPropertyOp21
 70
     1
102
RTVSPropertyOp22
 70
     1
102
RTVSPropertyOp23
 70
     1
102
RTVSPropertyOp24
 70
     1
102
RTVSPropertyOp25
 70
     1
102
RTVSPropertyOp26
 70
     1
102
RTVSPropertyOp27
 70
     1
102
RTVSPropertyOp28
 70
     1
102
RTVSPropertyOp29
 70
     1
102
RTVSPropertyOp30
 70
     1
102
RTVSPropertyOp31
 70
     1
102
RTVSPropertyOp32
 70
     1
102
RTVSPropertyOp33
 70
     1
102
RTVSPropertyOp34
 70
     1
102
RTVSPropertyOp35
 70
     1
102
RTVSPropertyOp36
 70
     1
102
RTVSPropertyOp37
 70
     1
102
RTVSPropertyOp38
 70
     1
102
RTVSPropertyOp39
 70
     1
102
RTVSPropertyOp40
 70
     1
102
RTVSPropertyOp41
 70
     1
102
RTVSPropertyOp42
 70
     1
102
RTVSPropertyOp43
 70
     1
102
RTVSPropertyOp44
 70
     1
102
RTVSPropertyOp45
 70
     1
102
RTVSPropertyOp46
 70
     1
102
RTVSPropertyOp47
 70
     1
102
RTVSPropertyOp48
 70
     1
102
RTVSPropertyOp49
 70
     1
102
RTVSPropertyOp50
 70
     1
102
RTVSPropertyOp51
 70
     0
102
RTVSPropertyOp52
 70
     0
102
RTVSPropertyOp53
 70
     1
102
RTVSPropertyOp54
 70
     1
102
RTVSPropertyOp55
 70
     1
102
RTVSPropertyOp56
 70
     1
102
RTVSPropertyOp57
 70
     1
102
RTVSPropertyOp58
 70
     1
102
RTVSPropertyOp59
 70
     1
102
RTVSPropertyOp60
 70
     1
102
RTVSPropertyOp61
 70
     1
102
RTVSPropertyOp62
 70
     1
  0
XRECORD
  5
1A07
102
{ACAD_REACTORS
330
1A06
102
}
330
1A06
100
AcDbXrecord
280
     1
102
RTVSPost2010Prop28
280
     0
102
RTVSPost2010PropOp28
 70
     1
102
RTVSPost2010Prop29
280
     1
102
RTVSPost2010PropOp29
 70
     1
102
RTVSPost2010Prop30
280
     1
102
RTVSPost2010PropOp30
 70
     1
102
RTVSPost2010Prop31
280
     0
102
RTVSPost2010PropOp31
 70
     1
102
RTVSPost2010Prop32
280
     0
102
RTVSPost2010PropOp32
 70
     1
102
RTVSPost2010Prop33
280
     0
102
RTVSPost2010PropOp33
 70
     1
102
RTVSPost2010Prop34
280
     0
102
RTVSPost2010PropOp34
 70
     1
102
RTVSPost2010Prop35
280
     0
102
RTVSPost2010PropOp35
 70
     1
102
RTVSPost2010Prop36
280
     0
102
RTVSPost2010PropOp36
 70
     1
102
RTVSPost2010Prop37
 90
       50
102
RTVSPost2010PropOp37
 70
     1
102
RTVSPost2010Prop38
140
0.0
102
RTVSPost2010PropOp38
 70
     1
102
RTVSPost2010Prop39
140
1.0
102
RTVSPost2010PropOp39
 70
     1
102
RTVSPost2010Prop40
 90
        0
102
RTVSPost2010PropOp40
 70
     1
102
RTVSPost2010Prop41ColorIndex
 90
       18
102
RTVSPost2010Prop41ColorRGB
 90
        0
102
RTVSPost2010PropOp41
 70
     1
102
RTVSPost2010Prop42
 90
       50
102
RTVSPost2010PropOp42
 70
     1
102
RTVSPost2010Prop43
 90
        3
102
RTVSPost2010PropOp43
 70
     1
102
RTVSPost2010Prop44ColorIndex
 90
        5
102
RTVSPost2010Prop44ColorRGB
 90
      255
102
RTVSPost2010PropOp44
 70
     1
102
RTVSPost2010Prop45
280
     0
102
RTVSPost2010PropOp45
 70
     1
102
RTVSPost2010Prop46
 90
       50
102
RTVSPost2010PropOp46
 70
     1
102
RTVSPost2010Prop47
 90
       50
102
RTVSPost2010PropOp47
 70
     1
102
RTVSPost2010Prop48
 90
       50
102
RTVSPost2010PropOp48
 70
     1
102
RTVSPost2010Prop49
280
     0
102
RTVSPost2010PropOp49
 70
     1
102
RTVSPost2010Prop50
 90
       50
102
RTVSPost2010PropOp50
 70
     1
102
RTVSPost2010Prop51ColorIndex
 90
      256
102
RTVSPost2010Prop51ColorRGB
 90
-16777216
102
RTVSPost2010PropOp51
 70
     0
102
RTVSPost2010Prop52
140
1.0
102
RTVSPost2010PropOp52
 70
     0
102
RTVSPost2010Prop53
 90
        2
102
RTVSPost2010PropOp53
 70
     1
102
RTVSPost2010Prop54
  1
strokes_ogs.tif
102
RTVSPost2010PropOp54
 70
     1
102
RTVSPost2010Prop55
280
     0
102
RTVSPost2010PropOp55
 70
     1
102
RTVSPost2010Prop56
140
1.0
102
RTVSPost2010PropOp56
 70
     1
102
RTVSPost2010Prop57
140
1.0
102
RTVSPost2010PropOp57
 70
     1
102
RTVSPropertyOp0
 70
     1
102
RTVSPropertyOp1
 70
     1
102
RTVSPropertyOp2
 70
     1
102
RTVSPropertyOp3
 70
     1
102
RTVSPropertyOp4
 70
     1
102
RTVSPropertyOp5
 70
     1
102
RTVSPropertyOp6
 70
     1
102
RTVSPropertyOp7
 70
     1
102
RTVSPropertyOp8
 70
     1
102
RTVSPropertyOp9
 70
     1
102
RTVSPropertyOp10
 70
     1
102
RTVSPropertyOp11
 70
     1
102
RTVSPropertyOp12
 70
     1
102
RTVSPropertyOp13
 70
     1
102
RTVSPropertyOp14
 70
     1
102
RTVSPropertyOp15
 70
     1
102
RTVSPropertyOp16
 70
     1
102
RTVSPropertyOp17
 70
     1
102
RTVSPropertyOp18
 70
     1
102
RTVSPropertyOp19
 70
     1
102
RTVSPropertyOp20
 70
     1
102
RTVSPropertyOp21
 70
     1
102
RTVSPropertyOp22
 70
     1
102
RTVSPropertyOp23
 70
     1
102
RTVSPropertyOp24
 70
     1
102
RTVSPropertyOp25
 70
     1
102
RTVSPropertyOp26
 70
     1
102
RTVSPropertyOp27
 70
     1
102
RTVSPropertyOp28
 70
     1
102
RTVSPropertyOp29
 70
     1
102
RTVSPropertyOp30
 70
     1
102
RTVSPropertyOp31
 70
     1
102
RTVSPropertyOp32
 70
     1
102
RTVSPropertyOp33
 70
     1
102
RTVSPropertyOp34
 70
     1
102
RTVSPropertyOp35
 70
     1
102
RTVSPropertyOp36
 70
     1
102
RTVSPropertyOp37
 70
     1
102
RTVSPropertyOp38
 70
     1
102
RTVSPropertyOp39
 70
     1
102
RTVSPropertyOp40
 70
     1
102
RTVSPropertyOp41
 70
     1
102
RTVSPropertyOp42
 70
     1
102
RTVSPropertyOp43
 70
     1
102
RTVSPropertyOp44
 70
     1
102
RTVSPropertyOp45
 70
     1
102
RTVSPropertyOp46
 70
     1
102
RTVSPropertyOp47
 70
     1
102
RTVSPropertyOp48
 70
     1
102
RTVSPropertyOp49
 70
     1
102
RTVSPropertyOp50
 70
     1
102
RTVSPropertyOp51
 70
     0
102
RTVSPropertyOp52
 70
     0
102
RTVSPropertyOp53
 70
     1
102
RTVSPropertyOp54
 70
     1
102
RTVSPropertyOp55
 70
     1
102
RTVSPropertyOp56
 70
     1
102
RTVSPropertyOp57
 70
     1
102
RTVSPropertyOp58
 70
     1
102
RTVSPropertyOp59
 70
     1
102
RTVSPropertyOp60
 70
     1
102
RTVSPropertyOp61
 70
     1
102
RTVSPropertyOp62
 70
     1
  0
XRECORD
  5
1A01
102
{ACAD_REACTORS
330
1A00
102
}
330
1A00
100
AcDbXrecord
280
     1
102
RTVSPost2010Prop28
280
     0
102
RTVSPost2010PropOp28
 70
     1
102
RTVSPost2010Prop29
280
     1
102
RTVSPost2010PropOp29
 70
     1
102
RTVSPost2010Prop30
280
     1
102
RTVSPost2010PropOp30
 70
     1
102
RTVSPost2010Prop31
280
     0
102
RTVSPost2010PropOp31
 70
     1
102
RTVSPost2010Prop32
280
     0
102
RTVSPost2010PropOp32
 70
     1
102
RTVSPost2010Prop33
280
     0
102
RTVSPost2010PropOp33
 70
     1
102
RTVSPost2010Prop34
280
     0
102
RTVSPost2010PropOp34
 70
     1
102
RTVSPost2010Prop35
280
     0
102
RTVSPost2010PropOp35
 70
     1
102
RTVSPost2010Prop36
280
     0
102
RTVSPost2010PropOp36
 70
     1
102
RTVSPost2010Prop37
 90
       50
102
RTVSPost2010PropOp37
 70
     1
102
RTVSPost2010Prop38
140
0.0
102
RTVSPost2010PropOp38
 70
     1
102
RTVSPost2010Prop39
140
1.0
102
RTVSPost2010PropOp39
 70
     1
102
RTVSPost2010Prop40
 90
        0
102
RTVSPost2010PropOp40
 70
     1
102
RTVSPost2010Prop41ColorIndex
 90
       18
102
RTVSPost2010Prop41ColorRGB
 90
        0
102
RTVSPost2010PropOp41
 70
     1
102
RTVSPost2010Prop42
 90
       50
102
RTVSPost2010PropOp42
 70
     1
102
RTVSPost2010Prop43
 90
        3
102
RTVSPost2010PropOp43
 70
     1
102
RTVSPost2010Prop44ColorIndex
 90
        5
102
RTVSPost2010Prop44ColorRGB
 90
      255
102
RTVSPost2010PropOp44
 70
     1
102
RTVSPost2010Prop45
280
     0
102
RTVSPost2010PropOp45
 70
     1
102
RTVSPost2010Prop46
 90
       50
102
RTVSPost2010PropOp46
 70
     1
102
RTVSPost2010Prop47
 90
       50
102
RTVSPost2010PropOp47
 70
     1
102
RTVSPost2010Prop48
 90
       50
102
RTVSPost2010PropOp48
 70
     1
102
RTVSPost2010Prop49
280
     0
102
RTVSPost2010PropOp49
 70
     1
102
RTVSPost2010Prop50
 90
       50
102
RTVSPost2010PropOp50
 70
     1
102
RTVSPost2010Prop51ColorIndex
 90
      256
102
RTVSPost2010Prop51ColorRGB
 90
-16777216
102
RTVSPost2010PropOp51
 70
     0
102
RTVSPost2010Prop52
140
1.0
102
RTVSPost2010PropOp52
 70
     0
102
RTVSPost2010Prop53
 90
        2
102
RTVSPost2010PropOp53
 70
     1
102
RTVSPost2010Prop54
  1
strokes_ogs.tif
102
RTVSPost2010PropOp54
 70
     1
102
RTVSPost2010Prop55
280
     0
102
RTVSPost2010PropOp55
 70
     1
102
RTVSPost2010Prop56
140
1.0
102
RTVSPost2010PropOp56
 70
     1
102
RTVSPost2010Prop57
140
1.0
102
RTVSPost2010PropOp57
 70
     1
102
RTVSPropertyOp0
 70
     1
102
RTVSPropertyOp1
 70
     1
102
RTVSPropertyOp2
 70
     1
102
RTVSPropertyOp3
 70
     1
102
RTVSPropertyOp4
 70
     1
102
RTVSPropertyOp5
 70
     1
102
RTVSPropertyOp6
 70
     1
102
RTVSPropertyOp7
 70
     1
102
RTVSPropertyOp8
 70
     1
102
RTVSPropertyOp9
 70
     1
102
RTVSPropertyOp10
 70
     1
102
RTVSPropertyOp11
 70
     1
102
RTVSPropertyOp12
 70
     1
102
RTVSPropertyOp13
 70
     1
102
RTVSPropertyOp14
 70
     1
102
RTVSPropertyOp15
 70
     1
102
RTVSPropertyOp16
 70
     1
102
RTVSPropertyOp17
 70
     1
102
RTVSPropertyOp18
 70
     1
102
RTVSPropertyOp19
 70
     1
102
RTVSPropertyOp20
 70
     1
102
RTVSPropertyOp21
 70
     1
102
RTVSPropertyOp22
 70
     1
102
RTVSPropertyOp23
 70
     1
102
RTVSPropertyOp24
 70
     1
102
RTVSPropertyOp25
 70
     1
102
RTVSPropertyOp26
 70
     1
102
RTVSPropertyOp27
 70
     1
102
RTVSPropertyOp28
 70
     1
102
RTVSPropertyOp29
 70
     1
102
RTVSPropertyOp30
 70
     1
102
RTVSPropertyOp31
 70
     1
102
RTVSPropertyOp32
 70
     1
102
RTVSPropertyOp33
 70
     1
102
RTVSPropertyOp34
 70
     1
102
RTVSPropertyOp35
 70
     1
102
RTVSPropertyOp36
 70
     1
102
RTVSPropertyOp37
 70
     1
102
RTVSPropertyOp38
 70
     1
102
RTVSPropertyOp39
 70
     1
102
RTVSPropertyOp40
 70
     1
102
RTVSPropertyOp41
 70
     1
102
RTVSPropertyOp42
 70
     1
102
RTVSPropertyOp43
 70
     1
102
RTVSPropertyOp44
 70
     1
102
RTVSPropertyOp45
 70
     1
102
RTVSPropertyOp46
 70
     1
102
RTVSPropertyOp47
 70
     1
102
RTVSPropertyOp48
 70
     1
102
RTVSPropertyOp49
 70
     1
102
RTVSPropertyOp50
 70
     1
102
RTVSPropertyOp51
 70
     0
102
RTVSPropertyOp52
 70
     0
102
RTVSPropertyOp53
 70
     1
102
RTVSPropertyOp54
 70
     1
102
RTVSPropertyOp55
 70
     1
102
RTVSPropertyOp56
 70
     1
102
RTVSPropertyOp57
 70
     1
102
RTVSPropertyOp58
 70
     1
102
RTVSPropertyOp59
 70
     1
102
RTVSPropertyOp60
 70
     1
102
RTVSPropertyOp61
 70
     1
102
RTVSPropertyOp62
 70
     1
  0
XRECORD
  5
1A03
102
{ACAD_REACTORS
330
1A02
102
}
330
1A02
100
AcDbXrecord
280
     1
102
RTVSPost2010Prop28
280
     0
102
RTVSPost2010PropOp28
 70
     1
102
RTVSPost2010Prop29
280
     1
102
RTVSPost2010PropOp29
 70
     1
102
RTVSPost2010Prop30
280
     1
102
RTVSPost2010PropOp30
 70
     1
102
RTVSPost2010Prop31
280
     0
102
RTVSPost2010PropOp31
 70
     1
102
RTVSPost2010Prop32
280
     0
102
RTVSPost2010PropOp32
 70
     1
102
RTVSPost2010Prop33
280
     0
102
RTVSPost2010PropOp33
 70
     1
102
RTVSPost2010Prop34
280
     0
102
RTVSPost2010PropOp34
 70
     1
102
RTVSPost2010Prop35
280
     0
102
RTVSPost2010PropOp35
 70
     1
102
RTVSPost2010Prop36
280
     0
102
RTVSPost2010PropOp36
 70
     1
102
RTVSPost2010Prop37
 90
       50
102
RTVSPost2010PropOp37
 70
     1
102
RTVSPost2010Prop38
140
0.0
102
RTVSPost2010PropOp38
 70
     1
102
RTVSPost2010Prop39
140
1.0
102
RTVSPost2010PropOp39
 70
     1
102
RTVSPost2010Prop40
 90
        0
102
RTVSPost2010PropOp40
 70
     1
102
RTVSPost2010Prop41ColorIndex
 90
       18
102
RTVSPost2010Prop41ColorRGB
 90
        0
102
RTVSPost2010PropOp41
 70
     1
102
RTVSPost2010Prop42
 90
       50
102
RTVSPost2010PropOp42
 70
     1
102
RTVSPost2010Prop43
 90
        3
102
RTVSPost2010PropOp43
 70
     1
102
RTVSPost2010Prop44ColorIndex
 90
        5
102
RTVSPost2010Prop44ColorRGB
 90
      255
102
RTVSPost2010PropOp44
 70
     1
102
RTVSPost2010Prop45
280
     0
102
RTVSPost2010PropOp45
 70
     1
102
RTVSPost2010Prop46
 90
       50
102
RTVSPost2010PropOp46
 70
     1
102
RTVSPost2010Prop47
 90
       50
102
RTVSPost2010PropOp47
 70
     1
102
RTVSPost2010Prop48
 90
       50
102
RTVSPost2010PropOp48
 70
     1
102
RTVSPost2010Prop49
280
     0
102
RTVSPost2010PropOp49
 70
     1
102
RTVSPost2010Prop50
 90
       50
102
RTVSPost2010PropOp50
 70
     1
102
RTVSPost2010Prop51ColorIndex
 90
      256
102
RTVSPost2010Prop51ColorRGB
 90
-16777216
102
RTVSPost2010PropOp51
 70
     0
102
RTVSPost2010Prop52
140
1.0
102
RTVSPost2010PropOp52
 70
     0
102
RTVSPost2010Prop53
 90
        2
102
RTVSPost2010PropOp53
 70
     1
102
RTVSPost2010Prop54
  1
strokes_ogs.tif
102
RTVSPost2010PropOp54
 70
     1
102
RTVSPost2010Prop55
280
     0
102
RTVSPost2010PropOp55
 70
     1
102
RTVSPost2010Prop56
140
1.0
102
RTVSPost2010PropOp56
 70
     1
102
RTVSPost2010Prop57
140
1.0
102
RTVSPost2010PropOp57
 70
     1
102
RTVSPropertyOp0
 70
     1
102
RTVSPropertyOp1
 70
     1
102
RTVSPropertyOp2
 70
     1
102
RTVSPropertyOp3
 70
     1
102
RTVSPropertyOp4
 70
     1
102
RTVSPropertyOp5
 70
     1
102
RTVSPropertyOp6
 70
     1
102
RTVSPropertyOp7
 70
     1
102
RTVSPropertyOp8
 70
     1
102
RTVSPropertyOp9
 70
     1
102
RTVSPropertyOp10
 70
     1
102
RTVSPropertyOp11
 70
     1
102
RTVSPropertyOp12
 70
     1
102
RTVSPropertyOp13
 70
     1
102
RTVSPropertyOp14
 70
     1
102
RTVSPropertyOp15
 70
     1
102
RTVSPropertyOp16
 70
     1
102
RTVSPropertyOp17
 70
     1
102
RTVSPropertyOp18
 70
     1
102
RTVSPropertyOp19
 70
     1
102
RTVSPropertyOp20
 70
     1
102
RTVSPropertyOp21
 70
     1
102
RTVSPropertyOp22
 70
     1
102
RTVSPropertyOp23
 70
     1
102
RTVSPropertyOp24
 70
     1
102
RTVSPropertyOp25
 70
     1
102
RTVSPropertyOp26
 70
     1
102
RTVSPropertyOp27
 70
     1
102
RTVSPropertyOp28
 70
     1
102
RTVSPropertyOp29
 70
     1
102
RTVSPropertyOp30
 70
     1
102
RTVSPropertyOp31
 70
     1
102
RTVSPropertyOp32
 70
     1
102
RTVSPropertyOp33
 70
     1
102
RTVSPropertyOp34
 70
     1
102
RTVSPropertyOp35
 70
     1
102
RTVSPropertyOp36
 70
     1
102
RTVSPropertyOp37
 70
     1
102
RTVSPropertyOp38
 70
     1
102
RTVSPropertyOp39
 70
     1
102
RTVSPropertyOp40
 70
     1
102
RTVSPropertyOp41
 70
     1
102
RTVSPropertyOp42
 70
     1
102
RTVSPropertyOp43
 70
     1
102
RTVSPropertyOp44
 70
     1
102
RTVSPropertyOp45
 70
     1
102
RTVSPropertyOp46
 70
     1
102
RTVSPropertyOp47
 70
     1
102
RTVSPropertyOp48
 70
     1
102
RTVSPropertyOp49
 70
     1
102
RTVSPropertyOp50
 70
     1
102
RTVSPropertyOp51
 70
     0
102
RTVSPropertyOp52
 70
     0
102
RTVSPropertyOp53
 70
     1
102
RTVSPropertyOp54
 70
     1
102
RTVSPropertyOp55
 70
     1
102
RTVSPropertyOp56
 70
     1
102
RTVSPropertyOp57
 70
     1
102
RTVSPropertyOp58
 70
     1
102
RTVSPropertyOp59
 70
     1
102
RTVSPropertyOp60
 70
     1
102
RTVSPropertyOp61
 70
     1
102
RTVSPropertyOp62
 70
     1
  0
XRECORD
  5
19F9
102
{ACAD_REACTORS
330
19F8
102
}
330
19F8
100
AcDbXrecord
280
     1
102
RTVSPost2010Prop28
280
     0
102
RTVSPost2010PropOp28
 70
     1
102
RTVSPost2010Prop29
280
     1
102
RTVSPost2010PropOp29
 70
     1
102
RTVSPost2010Prop30
280
     1
102
RTVSPost2010PropOp30
 70
     1
102
RTVSPost2010Prop31
280
     0
102
RTVSPost2010PropOp31
 70
     1
102
RTVSPost2010Prop32
280
     0
102
RTVSPost2010PropOp32
 70
     1
102
RTVSPost2010Prop33
280
     0
102
RTVSPost2010PropOp33
 70
     1
102
RTVSPost2010Prop34
280
     0
102
RTVSPost2010PropOp34
 70
     1
102
RTVSPost2010Prop35
280
     0
102
RTVSPost2010PropOp35
 70
     1
102
RTVSPost2010Prop36
280
     0
102
RTVSPost2010PropOp36
 70
     1
102
RTVSPost2010Prop37
 90
       50
102
RTVSPost2010PropOp37
 70
     1
102
RTVSPost2010Prop38
140
0.0
102
RTVSPost2010PropOp38
 70
     1
102
RTVSPost2010Prop39
140
1.0
102
RTVSPost2010PropOp39
 70
     1
102
RTVSPost2010Prop40
 90
        0
102
RTVSPost2010PropOp40
 70
     1
102
RTVSPost2010Prop41ColorIndex
 90
       18
102
RTVSPost2010Prop41ColorRGB
 90
        0
102
RTVSPost2010PropOp41
 70
     1
102
RTVSPost2010Prop42
 90
       50
102
RTVSPost2010PropOp42
 70
     1
102
RTVSPost2010Prop43
 90
        3
102
RTVSPost2010PropOp43
 70
     1
102
RTVSPost2010Prop44ColorIndex
 90
        5
102
RTVSPost2010Prop44ColorRGB
 90
      255
102
RTVSPost2010PropOp44
 70
     1
102
RTVSPost2010Prop45
280
     0
102
RTVSPost2010PropOp45
 70
     1
102
RTVSPost2010Prop46
 90
       50
102
RTVSPost2010PropOp46
 70
     1
102
RTVSPost2010Prop47
 90
       50
102
RTVSPost2010PropOp47
 70
     1
102
RTVSPost2010Prop48
 90
       50
102
RTVSPost2010PropOp48
 70
     1
102
RTVSPost2010Prop49
280
     0
102
RTVSPost2010PropOp49
 70
     1
102
RTVSPost2010Prop50
 90
       50
102
RTVSPost2010PropOp50
 70
     1
102
RTVSPost2010Prop51ColorIndex
 90
      256
102
RTVSPost2010Prop51ColorRGB
 90
-16777216
102
RTVSPost2010PropOp51
 70
     0
102
RTVSPost2010Prop52
140
1.0
102
RTVSPost2010PropOp52
 70
     0
102
RTVSPost2010Prop53
 90
        2
102
RTVSPost2010PropOp53
 70
     1
102
RTVSPost2010Prop54
  1
strokes_ogs.tif
102
RTVSPost2010PropOp54
 70
     1
102
RTVSPost2010Prop55
280
     0
102
RTVSPost2010PropOp55
 70
     1
102
RTVSPost2010Prop56
140
1.0
102
RTVSPost2010PropOp56
 70
     1
102
RTVSPost2010Prop57
140
1.0
102
RTVSPost2010PropOp57
 70
     1
102
RTVSPropertyOp0
 70
     1
102
RTVSPropertyOp1
 70
     1
102
RTVSPropertyOp2
 70
     1
102
RTVSPropertyOp3
 70
     1
102
RTVSPropertyOp4
 70
     1
102
RTVSPropertyOp5
 70
     1
102
RTVSPropertyOp6
 70
     1
102
RTVSPropertyOp7
 70
     1
102
RTVSPropertyOp8
 70
     1
102
RTVSPropertyOp9
 70
     1
102
RTVSPropertyOp10
 70
     1
102
RTVSPropertyOp11
 70
     1
102
RTVSPropertyOp12
 70
     1
102
RTVSPropertyOp13
 70
     1
102
RTVSPropertyOp14
 70
     1
102
RTVSPropertyOp15
 70
     1
102
RTVSPropertyOp16
 70
     1
102
RTVSPropertyOp17
 70
     1
102
RTVSPropertyOp18
 70
     1
102
RTVSPropertyOp19
 70
     1
102
RTVSPropertyOp20
 70
     1
102
RTVSPropertyOp21
 70
     1
102
RTVSPropertyOp22
 70
     1
102
RTVSPropertyOp23
 70
     1
102
RTVSPropertyOp24
 70
     1
102
RTVSPropertyOp25
 70
     1
102
RTVSPropertyOp26
 70
     1
102
RTVSPropertyOp27
 70
     1
102
RTVSPropertyOp28
 70
     1
102
RTVSPropertyOp29
 70
     1
102
RTVSPropertyOp30
 70
     1
102
RTVSPropertyOp31
 70
     1
102
RTVSPropertyOp32
 70
     1
102
RTVSPropertyOp33
 70
     1
102
RTVSPropertyOp34
 70
     1
102
RTVSPropertyOp35
 70
     1
102
RTVSPropertyOp36
 70
     1
102
RTVSPropertyOp37
 70
     1
102
RTVSPropertyOp38
 70
     1
102
RTVSPropertyOp39
 70
     1
102
RTVSPropertyOp40
 70
     1
102
RTVSPropertyOp41
 70
     1
102
RTVSPropertyOp42
 70
     1
102
RTVSPropertyOp43
 70
     1
102
RTVSPropertyOp44
 70
     1
102
RTVSPropertyOp45
 70
     1
102
RTVSPropertyOp46
 70
     1
102
RTVSPropertyOp47
 70
     1
102
RTVSPropertyOp48
 70
     1
102
RTVSPropertyOp49
 70
     1
102
RTVSPropertyOp50
 70
     1
102
RTVSPropertyOp51
 70
     0
102
RTVSPropertyOp52
 70
     0
102
RTVSPropertyOp53
 70
     1
102
RTVSPropertyOp54
 70
     1
102
RTVSPropertyOp55
 70
     1
102
RTVSPropertyOp56
 70
     1
102
RTVSPropertyOp57
 70
     1
102
RTVSPropertyOp58
 70
     1
102
RTVSPropertyOp59
 70
     1
102
RTVSPropertyOp60
 70
     1
102
RTVSPropertyOp61
 70
     1
102
RTVSPropertyOp62
 70
     1
  0
XRECORD
  5
19ED
102
{ACAD_REACTORS
330
19EC
102
}
330
19EC
100
AcDbXrecord
280
     1
102
RTVSPost2010Prop28
280
     0
102
RTVSPost2010PropOp28
 70
     1
102
RTVSPost2010Prop29
280
     1
102
RTVSPost2010PropOp29
 70
     1
102
RTVSPost2010Prop30
280
     1
102
RTVSPost2010PropOp30
 70
     1
102
RTVSPost2010Prop31
280
     0
102
RTVSPost2010PropOp31
 70
     1
102
RTVSPost2010Prop32
280
     0
102
RTVSPost2010PropOp32
 70
     1
102
RTVSPost2010Prop33
280
     0
102
RTVSPost2010PropOp33
 70
     1
102
RTVSPost2010Prop34
280
     0
102
RTVSPost2010PropOp34
 70
     1
102
RTVSPost2010Prop35
280
     0
102
RTVSPost2010PropOp35
 70
     1
102
RTVSPost2010Prop36
280
     0
102
RTVSPost2010PropOp36
 70
     1
102
RTVSPost2010Prop37
 90
       50
102
RTVSPost2010PropOp37
 70
     1
102
RTVSPost2010Prop38
140
0.0
102
RTVSPost2010PropOp38
 70
     1
102
RTVSPost2010Prop39
140
1.0
102
RTVSPost2010PropOp39
 70
     1
102
RTVSPost2010Prop40
 90
        0
102
RTVSPost2010PropOp40
 70
     1
102
RTVSPost2010Prop41ColorIndex
 90
       18
102
RTVSPost2010Prop41ColorRGB
 90
        0
102
RTVSPost2010PropOp41
 70
     1
102
RTVSPost2010Prop42
 90
       50
102
RTVSPost2010PropOp42
 70
     1
102
RTVSPost2010Prop43
 90
        3
102
RTVSPost2010PropOp43
 70
     1
102
RTVSPost2010Prop44ColorIndex
 90
        5
102
RTVSPost2010Prop44ColorRGB
 90
      255
102
RTVSPost2010PropOp44
 70
     1
102
RTVSPost2010Prop45
280
     0
102
RTVSPost2010PropOp45
 70
     1
102
RTVSPost2010Prop46
 90
       50
102
RTVSPost2010PropOp46
 70
     1
102
RTVSPost2010Prop47
 90
       50
102
RTVSPost2010PropOp47
 70
     1
102
RTVSPost2010Prop48
 90
       50
102
RTVSPost2010PropOp48
 70
     1
102
RTVSPost2010Prop49
280
     0
102
RTVSPost2010PropOp49
 70
     1
102
RTVSPost2010Prop50
 90
       50
102
RTVSPost2010PropOp50
 70
     1
102
RTVSPost2010Prop51ColorIndex
 90
      256
102
RTVSPost2010Prop51ColorRGB
 90
-16777216
102
RTVSPost2010PropOp51
 70
     0
102
RTVSPost2010Prop52
140
1.0
102
RTVSPost2010PropOp52
 70
     0
102
RTVSPost2010Prop53
 90
        2
102
RTVSPost2010PropOp53
 70
     1
102
RTVSPost2010Prop54
  1
strokes_ogs.tif
102
RTVSPost2010PropOp54
 70
     1
102
RTVSPost2010Prop55
280
     0
102
RTVSPost2010PropOp55
 70
     1
102
RTVSPost2010Prop56
140
1.0
102
RTVSPost2010PropOp56
 70
     1
102
RTVSPost2010Prop57
140
1.0
102
RTVSPost2010PropOp57
 70
     1
102
RTVSPropertyOp0
 70
     1
102
RTVSPropertyOp1
 70
     1
102
RTVSPropertyOp2
 70
     1
102
RTVSPropertyOp3
 70
     1
102
RTVSPropertyOp4
 70
     1
102
RTVSPropertyOp5
 70
     1
102
RTVSPropertyOp6
 70
     1
102
RTVSPropertyOp7
 70
     1
102
RTVSPropertyOp8
 70
     1
102
RTVSPropertyOp9
 70
     1
102
RTVSPropertyOp10
 70
     1
102
RTVSPropertyOp11
 70
     1
102
RTVSPropertyOp12
 70
     1
102
RTVSPropertyOp13
 70
     1
102
RTVSPropertyOp14
 70
     1
102
RTVSPropertyOp15
 70
     1
102
RTVSPropertyOp16
 70
     1
102
RTVSPropertyOp17
 70
     1
102
RTVSPropertyOp18
 70
     1
102
RTVSPropertyOp19
 70
     1
102
RTVSPropertyOp20
 70
     1
102
RTVSPropertyOp21
 70
     1
102
RTVSPropertyOp22
 70
     1
102
RTVSPropertyOp23
 70
     1
102
RTVSPropertyOp24
 70
     1
102
RTVSPropertyOp25
 70
     1
102
RTVSPropertyOp26
 70
     1
102
RTVSPropertyOp27
 70
     1
102
RTVSPropertyOp28
 70
     1
102
RTVSPropertyOp29
 70
     1
102
RTVSPropertyOp30
 70
     1
102
RTVSPropertyOp31
 70
     1
102
RTVSPropertyOp32
 70
     1
102
RTVSPropertyOp33
 70
     1
102
RTVSPropertyOp34
 70
     1
102
RTVSPropertyOp35
 70
     1
102
RTVSPropertyOp36
 70
     1
102
RTVSPropertyOp37
 70
     1
102
RTVSPropertyOp38
 70
     1
102
RTVSPropertyOp39
 70
     1
102
RTVSPropertyOp40
 70
     1
102
RTVSPropertyOp41
 70
     1
102
RTVSPropertyOp42
 70
     1
102
RTVSPropertyOp43
 70
     1
102
RTVSPropertyOp44
 70
     1
102
RTVSPropertyOp45
 70
     1
102
RTVSPropertyOp46
 70
     1
102
RTVSPropertyOp47
 70
     1
102
RTVSPropertyOp48
 70
     1
102
RTVSPropertyOp49
 70
     1
102
RTVSPropertyOp50
 70
     1
102
RTVSPropertyOp51
 70
     0
102
RTVSPropertyOp52
 70
     0
102
RTVSPropertyOp53
 70
     1
102
RTVSPropertyOp54
 70
     1
102
RTVSPropertyOp55
 70
     1
102
RTVSPropertyOp56
 70
     1
102
RTVSPropertyOp57
 70
     1
102
RTVSPropertyOp58
 70
     1
102
RTVSPropertyOp59
 70
     1
102
RTVSPropertyOp60
 70
     1
102
RTVSPropertyOp61
 70
     1
102
RTVSPropertyOp62
 70
     1
  0
XRECORD
  5
1A05
102
{ACAD_REACTORS
330
1A04
102
}
330
1A04
100
AcDbXrecord
280
     1
102
RTVSPost2010Prop28
280
     0
102
RTVSPost2010PropOp28
 70
     1
102
RTVSPost2010Prop29
280
     1
102
RTVSPost2010PropOp29
 70
     1
102
RTVSPost2010Prop30
280
     1
102
RTVSPost2010PropOp30
 70
     1
102
RTVSPost2010Prop31
280
     0
102
RTVSPost2010PropOp31
 70
     1
102
RTVSPost2010Prop32
280
     0
102
RTVSPost2010PropOp32
 70
     1
102
RTVSPost2010Prop33
280
     0
102
RTVSPost2010PropOp33
 70
     1
102
RTVSPost2010Prop34
280
     0
102
RTVSPost2010PropOp34
 70
     1
102
RTVSPost2010Prop35
280
     0
102
RTVSPost2010PropOp35
 70
     1
102
RTVSPost2010Prop36
280
     0
102
RTVSPost2010PropOp36
 70
     1
102
RTVSPost2010Prop37
 90
       50
102
RTVSPost2010PropOp37
 70
     1
102
RTVSPost2010Prop38
140
0.0
102
RTVSPost2010PropOp38
 70
     1
102
RTVSPost2010Prop39
140
1.0
102
RTVSPost2010PropOp39
 70
     1
102
RTVSPost2010Prop40
 90
        0
102
RTVSPost2010PropOp40
 70
     1
102
RTVSPost2010Prop41ColorIndex
 90
       18
102
RTVSPost2010Prop41ColorRGB
 90
        0
102
RTVSPost2010PropOp41
 70
     1
102
RTVSPost2010Prop42
 90
       50
102
RTVSPost2010PropOp42
 70
     1
102
RTVSPost2010Prop43
 90
        3
102
RTVSPost2010PropOp43
 70
     1
102
RTVSPost2010Prop44ColorIndex
 90
        5
102
RTVSPost2010Prop44ColorRGB
 90
      255
102
RTVSPost2010PropOp44
 70
     1
102
RTVSPost2010Prop45
280
     0
102
RTVSPost2010PropOp45
 70
     1
102
RTVSPost2010Prop46
 90
       50
102
RTVSPost2010PropOp46
 70
     1
102
RTVSPost2010Prop47
 90
       50
102
RTVSPost2010PropOp47
 70
     1
102
RTVSPost2010Prop48
 90
       50
102
RTVSPost2010PropOp48
 70
     1
102
RTVSPost2010Prop49
280
     0
102
RTVSPost2010PropOp49
 70
     1
102
RTVSPost2010Prop50
 90
       50
102
RTVSPost2010PropOp50
 70
     1
102
RTVSPost2010Prop51ColorIndex
 90
      256
102
RTVSPost2010Prop51ColorRGB
 90
-16777216
102
RTVSPost2010PropOp51
 70
     0
102
RTVSPost2010Prop52
140
1.0
102
RTVSPost2010PropOp52
 70
     0
102
RTVSPost2010Prop53
 90
        2
102
RTVSPost2010PropOp53
 70
     1
102
RTVSPost2010Prop54
  1
strokes_ogs.tif
102
RTVSPost2010PropOp54
 70
     1
102
RTVSPost2010Prop55
280
     0
102
RTVSPost2010PropOp55
 70
     1
102
RTVSPost2010Prop56
140
1.0
102
RTVSPost2010PropOp56
 70
     1
102
RTVSPost2010Prop57
140
1.0
102
RTVSPost2010PropOp57
 70
     1
102
RTVSPropertyOp0
 70
     1
102
RTVSPropertyOp1
 70
     1
102
RTVSPropertyOp2
 70
     1
102
RTVSPropertyOp3
 70
     1
102
RTVSPropertyOp4
 70
     1
102
RTVSPropertyOp5
 70
     1
102
RTVSPropertyOp6
 70
     1
102
RTVSPropertyOp7
 70
     1
102
RTVSPropertyOp8
 70
     1
102
RTVSPropertyOp9
 70
     1
102
RTVSPropertyOp10
 70
     1
102
RTVSPropertyOp11
 70
     1
102
RTVSPropertyOp12
 70
     1
102
RTVSPropertyOp13
 70
     1
102
RTVSPropertyOp14
 70
     1
102
RTVSPropertyOp15
 70
     1
102
RTVSPropertyOp16
 70
     1
102
RTVSPropertyOp17
 70
     1
102
RTVSPropertyOp18
 70
     1
102
RTVSPropertyOp19
 70
     1
102
RTVSPropertyOp20
 70
     1
102
RTVSPropertyOp21
 70
     1
102
RTVSPropertyOp22
 70
     1
102
RTVSPropertyOp23
 70
     1
102
RTVSPropertyOp24
 70
     1
102
RTVSPropertyOp25
 70
     1
102
RTVSPropertyOp26
 70
     1
102
RTVSPropertyOp27
 70
     1
102
RTVSPropertyOp28
 70
     1
102
RTVSPropertyOp29
 70
     1
102
RTVSPropertyOp30
 70
     1
102
RTVSPropertyOp31
 70
     1
102
RTVSPropertyOp32
 70
     1
102
RTVSPropertyOp33
 70
     1
102
RTVSPropertyOp34
 70
     1
102
RTVSPropertyOp35
 70
     1
102
RTVSPropertyOp36
 70
     1
102
RTVSPropertyOp37
 70
     1
102
RTVSPropertyOp38
 70
     1
102
RTVSPropertyOp39
 70
     1
102
RTVSPropertyOp40
 70
     1
102
RTVSPropertyOp41
 70
     1
102
RTVSPropertyOp42
 70
     1
102
RTVSPropertyOp43
 70
     1
102
RTVSPropertyOp44
 70
     1
102
RTVSPropertyOp45
 70
     1
102
RTVSPropertyOp46
 70
     1
102
RTVSPropertyOp47
 70
     1
102
RTVSPropertyOp48
 70
     1
102
RTVSPropertyOp49
 70
     1
102
RTVSPropertyOp50
 70
     1
102
RTVSPropertyOp51
 70
     0
102
RTVSPropertyOp52
 70
     0
102
RTVSPropertyOp53
 70
     1
102
RTVSPropertyOp54
 70
     1
102
RTVSPropertyOp55
 70
     1
102
RTVSPropertyOp56
 70
     1
102
RTVSPropertyOp57
 70
     1
102
RTVSPropertyOp58
 70
     1
102
RTVSPropertyOp59
 70
     1
102
RTVSPropertyOp60
 70
     1
102
RTVSPropertyOp61
 70
     1
102
RTVSPropertyOp62
 70
     1
  0
ENDSEC
  0
EOF
