  0
SECTION
  2
HEADER
  9
$ACADVER
  1
AC1015
  9
$ACADMAINTVER
 70
    20
  9
$DWGCODEPAGE
  3
ANSI_1252
  9
$INSBASE
 10
0.0
 20
0.0
 30
0.0
  9
$EXTMIN
 10
24.24658248167191
 20
21.42708363145965
 30
-0.0000000349181948
  9
$EXTMAX
 10
82.22753936931018
 20
42.37434914424551
 30
0.0000000814935746
  9
$LIMMIN
 10
0.0
 20
0.0
  9
$LIMMAX
 10
181.3333333333
 20
117.3333333333
  9
$ORTHOMODE
 70
     0
  9
$REGENMODE
 70
     1
  9
$FILLMODE
 70
     1
  9
$QTEXTMODE
 70
     0
  9
$MIRRTEXT
 70
     0
  9
$LTSCALE
 40
9.973333333300001
  9
$ATTMODE
 70
     1
  9
$TEXTSIZE
 40
0.2
  9
$TRACEWID
 40
0.05
  9
$TEXTSTYLE
  7
STANDARD
  9
$CLAYER
  8
0
  9
$CELTYPE
  6
BYLAYER
  9
$CECOLOR
 62
   256
  9
$CELTSCALE
 40
1.0
  9
$DISPSILH
 70
     0
  9
$DIMSCALE
 40
1.0
  9
$DIMASZ
 40
2.0
  9
$DIMEXO
 40
0.0625
  9
$DIMDLI
 40
6.890666666699999
  9
$DIMRND
 40
0.0
  9
$DIMDLE
 40
0.0
  9
$DIMEXE
 40
0.125
  9
$DIMTP
 40
0.001
  9
$DIMTM
 40
0.001
  9
$DIMTXT
 40
1.333333333299999
  9
$DIMCEN
 40
1.631999999999999
  9
$DIMTSZ
 40
0.0
  9
$DIMTOL
 70
     1
  9
$DIMLIM
 70
     0
  9
$DIMTIH
 70
     1
  9
$DIMTOH
 70
     1
  9
$DIMSE1
 70
     0
  9
$DIMSE2
 70
     0
  9
$DIMTAD
 70
     0
  9
$DIMZIN
 70
     0
  9
$DIMBLK
  1
_FILLED
  9
$DIMASO
 70
     1
  9
$DIMSHO
 70
     1
  9
$DIMPOST
  1

  9
$DIMAPOST
  1

  9
$DIMALT
 70
     1
  9
$DIMALTD
 70
     2
  9
$DIMALTF
 40
2.54
  9
$DIMLFAC
 40
1.0
  9
$DIMTOFL
 70
     0
  9
$DIMTVP
 40
0.0
  9
$DIMTIX
 70
     0
  9
$DIMSOXD
 70
     0
  9
$DIMSAH
 70
     0
  9
$DIMBLK1
  1

  9
$DIMBLK2
  1

  9
$DIMSTYLE
  2
STANDARD
  9
$DIMCLRD
 70
     0
  9
$DIMCLRE
 70
     0
  9
$DIMCLRT
 70
     0
  9
$DIMTFAC
 40
1.0
  9
$DIMGAP
 40
0.09
  9
$DIMJUST
 70
     0
  9
$DIMSD1
 70
     0
  9
$DIMSD2
 70
     0
  9
$DIMTOLJ
 70
     1
  9
$DIMTZIN
 70
     0
  9
$DIMALTZ
 70
     0
  9
$DIMALTTZ
 70
     0
  9
$DIMUPT
 70
     0
  9
$DIMDEC
 70
     4
  9
$DIMTDEC
 70
     4
  9
$DIMALTU
 70
     2
  9
$DIMALTTD
 70
     2
  9
$DIMTXSTY
  7
STANDARD
  9
$DIMAUNIT
 70
     0
  9
$DIMADEC
 70
     0
  9
$DIMALTRND
 40
0.0
  9
$DIMAZIN
 70
     0
  9
$DIMDSEP
 70
    46
  9
$DIMATFIT
 70
     3
  9
$DIMFRAC
 70
     0
  9
$DIMLDRBLK
  1

  9
$DIMLUNIT
 70
     2
  9
$DIMLWD
 70
    -2
  9
$DIMLWE
 70
    -2
  9
$DIMTMOVE
 70
     0
  9
$LUNITS
 70
     2
  9
$LUPREC
 70
     4
  9
$SKETCHINC
 40
0.1
  9
$FILLETRAD
 40
0.0
  9
$AUNITS
 70
     0
  9
$AUPREC
 70
     0
  9
$MENU
  1
.
  9
$ELEVATION
 40
0.0
  9
$PELEVATION
 40
0.0
  9
$THICKNESS
 40
0.0
  9
$LIMCHECK
 70
     0
  9
$CHAMFERA
 40
0.0
  9
$CHAMFERB
 40
0.0
  9
$CHAMFERC
 40
0.0
  9
$CHAMFERD
 40
0.0
  9
$SKPOLY
 70
     0
  9
$TDCREATE
 40
2458297.331342592
  9
$TDUCREATE
 40
2458297.498009260
  9
$TDUPDATE
 40
2458297.394988426
  9
$TDUUPDATE
 40
2458297.561655093
  9
$TDINDWG
 40
0.0013078704
  9
$TDUSRTIMER
 40
0.0013078704
  9
$USRTIMER
 70
     1
  9
$ANGBASE
 50
0.0
  9
$ANGDIR
 70
     0
  9
$PDMODE
 70
     3
  9
$PDSIZE
 40
0.03125
  9
$PLINEWID
 40
0.0
  9
$SPLFRAME
 70
     0
  9
$SPLINETYPE
 70
     6
  9
$SPLINESEGS
 70
     8
  9
$HANDSEED
  5
2902
  9
$SURFTAB1
 70
     6
  9
$SURFTAB2
 70
     6
  9
$SURFTYPE
 70
     6
  9
$SURFU
 70
     6
  9
$SURFV
 70
     6
  9
$UCSBASE
  2

  9
$UCSNAME
  2

  9
$UCSORG
 10
0.0
 20
0.0
 30
0.0
  9
$UCSXDIR
 10
1.0
 20
0.0
 30
0.0
  9
$UCSYDIR
 10
0.0
 20
1.0
 30
0.0
  9
$UCSORTHOREF
  2

  9
$UCSORTHOVIEW
 70
     0
  9
$UCSORGTOP
 10
0.0
 20
0.0
 30
0.0
  9
$UCSORGBOTTOM
 10
0.0
 20
0.0
 30
0.0
  9
$UCSORGLEFT
 10
0.0
 20
0.0
 30
0.0
  9
$UCSORGRIGHT
 10
0.0
 20
0.0
 30
0.0
  9
$UCSORGFRONT
 10
0.0
 20
0.0
 30
0.0
  9
$UCSORGBACK
 10
0.0
 20
0.0
 30
0.0
  9
$PUCSBASE
  2

  9
$PUCSNAME
  2

  9
$PUCSORG
 10
0.0
 20
0.0
 30
0.0
  9
$PUCSXDIR
 10
1.0
 20
0.0
 30
0.0
  9
$PUCSYDIR
 10
0.0
 20
1.0
 30
0.0
  9
$PUCSORTHOREF
  2

  9
$PUCSORTHOVIEW
 70
     0
  9
$PUCSORGTOP
 10
0.0
 20
0.0
 30
0.0
  9
$PUCSORGBOTTOM
 10
0.0
 20
0.0
 30
0.0
  9
$PUCSORGLEFT
 10
0.0
 20
0.0
 30
0.0
  9
$PUCSORGRIGHT
 10
0.0
 20
0.0
 30
0.0
  9
$PUCSORGFRONT
 10
0.0
 20
0.0
 30
0.0
  9
$PUCSORGBACK
 10
0.0
 20
0.0
 30
0.0
  9
$USERI1
 70
     0
  9
$USERI2
 70
     0
  9
$USERI3
 70
     0
  9
$USERI4
 70
     0
  9
$USERI5
 70
     0
  9
$USERR1
 40
0.0
  9
$USERR2
 40
0.0
  9
$USERR3
 40
0.0
  9
$USERR4
 40
0.0
  9
$USERR5
 40
0.0
  9
$WORLDVIEW
 70
     1
  9
$SHADEDGE
 70
     3
  9
$SHADEDIF
 70
    70
  9
$TILEMODE
 70
     1
  9
$MAXACTVP
 70
    64
  9
$PINSBASE
 10
0.0
 20
0.0
 30
0.0
  9
$PLIMCHECK
 70
     0
  9
$PEXTMIN
 10
1.000000000000000E+20
 20
1.000000000000000E+20
 30
1.000000000000000E+20
  9
$PEXTMAX
 10
-1.000000000000000E+20
 20
-1.000000000000000E+20
 30
-1.000000000000000E+20
  9
$PLIMMIN
 10
0.0
 20
0.0
  9
$PLIMMAX
 10
12.0
 20
9.0
  9
$UNITMODE
 70
     0
  9
$VISRETAIN
 70
     1
  9
$PLINEGEN
 70
     0
  9
$PSLTSCALE
 70
     1
  9
$TREEDEPTH
 70
  3020
  9
$CMLSTYLE
  2
Standard
  9
$CMLJUST
 70
     0
  9
$CMLSCALE
 40
1.0
  9
$PROXYGRAPHICS
 70
     1
  9
$MEASUREMENT
 70
     0
  9
$CELWEIGHT
370
    -1
  9
$ENDCAPS
280
     0
  9
$JOINSTYLE
280
     0
  9
$LWDISPLAY
290
     0
  9
$INSUNITS
 70
     1
  9
$HYPERLINKBASE
  1

  9
$STYLESHEET
  1

  9
$XEDIT
290
     1
  9
$CEPSNTYPE
380
     0
  9
$PSTYLEMODE
290
     1
  9
$FINGERPRINTGUID
  2
{9200DDF9-EB3A-F94C-A2AE-E6516F4983A9}
  9
$VERSIONGUID
  2
{76F68950-B6B0-AB4E-8B4C-313A127093C0}
  9
$EXTNAMES
290
     1
  9
$PSVPSCALE
 40
0.0
  9
$OLESTARTUP
290
     0
  0
ENDSEC
  0
SECTION
  2
CLASSES
  0
CLASS
  1
ACDBDICTIONARYWDFLT
  2
AcDbDictionaryWithDefault
  3
ObjectDBX Classes
 90
        0
280
     0
281
     0
  0
CLASS
  1
ACDBPLACEHOLDER
  2
AcDbPlaceHolder
  3
ObjectDBX Classes
 90
        0
280
     0
281
     0
  0
CLASS
  1
LAYOUT
  2
AcDbLayout
  3
ObjectDBX Classes
 90
        0
280
     0
281
     0
  0
CLASS
  1
RASTERVARIABLES
  2
AcDbRasterVariables
  3
ISM
 90
        0
280
     0
281
     0
  0
CLASS
  1
IMAGEDEF
  2
AcDbRasterImageDef
  3
ISM
 90
        0
280
     0
281
     0
  0
CLASS
  1
IMAGEDEF_REACTOR
  2
AcDbRasterImageDefReactor
  3
ISM
 90
    32769
280
     0
281
     0
  0
CLASS
  1
IMAGE
  2
AcDbRasterImage
  3
ISM
 90
    34943
280
     0
281
     1
  0
CLASS
  1
MATERIAL
  2
AcDbMaterial
  3
ObjectDBX Classes
 90
     1153
280
     0
281
     0
  0
CLASS
  1
VISUALSTYLE
  2
AcDbVisualStyle
  3
ObjectDBX Classes
 90
     4095
280
     0
281
     0
  0
CLASS
  1
TABLESTYLE
  2
AcDbTableStyle
  3
ObjectDBX Classes
 90
     4095
280
     0
281
     0
  0
CLASS
  1
SCALE
  2
AcDbScale
  3
ObjectDBX Classes
 90
     1153
280
     0
281
     0
  0
CLASS
  1
MLEADERSTYLE
  2
AcDbMLeaderStyle
  3
ACDB_MLEADERSTYLE_CLASS
 90
     4095
280
     0
281
     0
  0
CLASS
  1
ACDBSECTIONVIEWSTYLE
  2
AcDbSectionViewStyle
  3
ObjectDBX Classes
 90
     1025
280
     0
281
     0
  0
CLASS
  1
ACDBDETAILVIEWSTYLE
  2
AcDbDetailViewStyle
  3
ObjectDBX Classes
 90
     1025
280
     0
281
     0
  0
CLASS
  1
CELLSTYLEMAP
  2
AcDbCellStyleMap
  3
ObjectDBX Classes
 90
     1152
280
     0
281
     0
  0
CLASS
  1
DICTIONARYVAR
  2
AcDbDictionaryVar
  3
ObjectDBX Classes
 90
        0
280
     0
281
     0
  0
ENDSEC
  0
SECTION
  2
TABLES
  0
TABLE
  2
VPORT
  5
8
102
{ACAD_XDICTIONARY
360
2737
102
}
330
0
100
AcDbSymbolTable
 70
     1
  0
VPORT
  5
1F4
330
8
100
AcDbSymbolTableRecord
100
AcDbViewportTableRecord
  2
*ACTIVE
 70
     0
 10
0.0
 20
0.0
 11
1.0
 21
1.0
 12
53.23706092549105
 22
31.90071638785259
 13
0.0
 23
0.0
 14
1.0
 24
1.0
 15
0.0
 25
0.0
 16
0.0
 26
0.0
 36
1.0
 17
0.0
 27
0.0
 37
0.0
 40
29.00525497872965
 41
2.005224660397074
 42
50.0
 43
0.0
 44
0.0
 50
0.0
 51
0.0
 71
     0
 72
   100
 73
     1
 74
     1
 75
     0
 76
     0
 77
     0
 78
     0
281
     0
 65
     1
110
0.0
120
0.0
130
0.0
111
1.0
121
0.0
131
0.0
112
0.0
122
1.0
132
0.0
 79
     0
146
0.0
1001
ACAD_NAV_VCDISPLAY
1070
     3
  0
ENDTAB
  0
TABLE
  2
LTYPE
  5
5
330
0
100
AcDbSymbolTable
 70
     6
  0
LTYPE
  5
14
330
5
100
AcDbSymbolTableRecord
100
AcDbLinetypeTableRecord
  2
BYBLOCK
 70
     0
  3

 72
    65
 73
     0
 40
0.0
  0
LTYPE
  5
15
330
5
100
AcDbSymbolTableRecord
100
AcDbLinetypeTableRecord
  2
BYLAYER
 70
     0
  3

 72
    65
 73
     0
 40
0.0
  0
LTYPE
  5
16
330
5
100
AcDbSymbolTableRecord
100
AcDbLinetypeTableRecord
  2
CONTINUOUS
 70
     0
  3
Solid line
 72
    65
 73
     0
 40
0.0
  0
LTYPE
  5
1F5
330
5
100
AcDbSymbolTableRecord
100
AcDbLinetypeTableRecord
  2
CENTER
 70
     0
  3
____ _ ____ _ ____ _ ____ _ ____ _ ____ _ ____
 72
    65
 73
     4
 40
0.6
 49
0.375
 74
     0
 49
-0.075
 74
     0
 49
0.075
 74
     0
 49
-0.075
 74
     0
  0
LTYPE
  5
1F6
330
5
100
AcDbSymbolTableRecord
100
AcDbLinetypeTableRecord
  2
HIDDEN
 70
     0
  3
- - - - - - - - - - - - - - - - - - - -
 72
    65
 73
     2
 40
0.2
 49
0.1
 74
     0
 49
-0.1
 74
     0
  0
LTYPE
  5
1F7
330
5
100
AcDbSymbolTableRecord
100
AcDbLinetypeTableRecord
  2
PHANTOM
 70
     0
  3
_____ _ _ _____ _ _ _____ _ _ _____
 72
    65
 73
     6
 40
0.8
 49
0.45
 74
     0
 49
-0.05
 74
     0
 49
0.1
 74
     0
 49
-0.05
 74
     0
 49
0.1
 74
     0
 49
-0.05
 74
     0
  0
LTYPE
  5
1F8
330
5
100
AcDbSymbolTableRecord
100
AcDbLinetypeTableRecord
  2
DOT
 70
     0
  3
. . . . . . . . . . . . . . . . . . . .
 72
    65
 73
     2
 40
0.2
 49
0.1
 74
     0
 49
-0.1
 74
     0
  0
LTYPE
  5
1F9
330
5
100
AcDbSymbolTableRecord
100
AcDbLinetypeTableRecord
  2
DASHED
 70
     0
  3
- - - - - - - - - - - - - - - - - - - -
 72
    65
 73
     2
 40
0.2
 49
0.1
 74
     0
 49
-0.1
 74
     0
  0
ENDTAB
  0
TABLE
  2
LAYER
  5
2
102
{ACAD_XDICTIONARY
360
27C5
102
}
330
0
100
AcDbSymbolTable
 70
    31
  0
LAYER
  5
10
102
{ACAD_XDICTIONARY
360
2784
102
}
330
2
100
AcDbSymbolTableRecord
100
AcDbLayerTableRecord
  2
0
 70
     0
 62
     7
  6
CONTINUOUS
370
    -3
390
F
  0
LAYER
  5
1FA
102
{ACAD_XDICTIONARY
360
2786
102
}
330
2
100
AcDbSymbolTableRecord
100
AcDbLayerTableRecord
  2
DEFAULT_1
 70
     0
 62
     7
  6
CENTER
370
    -3
390
F
  0
LAYER
  5
1FB
102
{ACAD_XDICTIONARY
360
2788
102
}
330
2
100
AcDbSymbolTableRecord
100
AcDbLayerTableRecord
  2
DEFAULT_2
 70
     0
 62
     8
  6
HIDDEN
370
    -3
390
F
  0
LAYER
  5
1FC
102
{ACAD_XDICTIONARY
360
278A
102
}
330
2
100
AcDbSymbolTableRecord
100
AcDbLayerTableRecord
  2
DEFAULT_3
 70
     0
 62
     7
  6
PHANTOM
370
    -3
390
F
  0
LAYER
  5
1FD
102
{ACAD_XDICTIONARY
360
278C
102
}
330
2
100
AcDbSymbolTableRecord
100
AcDbLayerTableRecord
  2
0_DEFAULT
 70
     0
 62
     7
  6
CONTINUOUS
370
    -3
390
F
  0
LAYER
  5
1FE
102
{ACAD_XDICTIONARY
360
278E
102
}
330
2
100
AcDbSymbolTableRecord
100
AcDbLayerTableRecord
  2
1_CURVES
 70
     0
 62
     7
  6
CONTINUOUS
370
    -3
390
F
  0
LAYER
  5
1FF
102
{ACAD_XDICTIONARY
360
2790
102
}
330
2
100
AcDbSymbolTableRecord
100
AcDbLayerTableRecord
  2
1_CURVES_CHROMO_INV
 70
     0
 62
     7
  6
CONTINUOUS
370
    -3
390
F
  0
LAYER
  5
200
102
{ACAD_XDICTIONARY
360
2792
102
}
330
2
100
AcDbSymbolTableRecord
100
AcDbLayerTableRecord
  2
1_CURVES_DOT
 70
     0
 62
     7
  6
CONTINUOUS
370
    -3
390
F
  0
LAYER
  5
201
102
{ACAD_XDICTIONARY
360
2794
102
}
330
2
100
AcDbSymbolTableRecord
100
AcDbLayerTableRecord
  2
1_CURVES_JETS
 70
     0
 62
     7
  6
CONTINUOUS
370
    -3
390
F
  0
LAYER
  5
202
102
{ACAD_XDICTIONARY
360
2796
102
}
330
2
100
AcDbSymbolTableRecord
100
AcDbLayerTableRecord
  2
1_CURVES_SPEC_FRONT
 70
     0
 62
     7
  6
CONTINUOUS
370
    -3
390
F
  0
LAYER
  5
203
102
{ACAD_XDICTIONARY
360
2798
102
}
330
2
100
AcDbSymbolTableRecord
100
AcDbLayerTableRecord
  2
1_CURVES_SPEC_RIGHT
 70
     0
 62
     7
  6
CONTINUOUS
370
    -3
390
F
  0
LAYER
  5
204
102
{ACAD_XDICTIONARY
360
279A
102
}
330
2
100
AcDbSymbolTableRecord
100
AcDbLayerTableRecord
  2
2_PLANES
 70
     0
 62
     7
  6
CONTINUOUS
370
    -3
390
F
  0
LAYER
  5
205
102
{ACAD_XDICTIONARY
360
279C
102
}
330
2
100
AcDbSymbolTableRecord
100
AcDbLayerTableRecord
  2
2_PLANES_CHROMO_INV
 70
     0
 62
     7
  6
CONTINUOUS
370
    -3
390
F
  0
LAYER
  5
206
102
{ACAD_XDICTIONARY
360
279E
102
}
330
2
100
AcDbSymbolTableRecord
100
AcDbLayerTableRecord
  2
2_PLANES_JETS
 70
     0
 62
     7
  6
CONTINUOUS
370
    -3
390
F
  0
LAYER
  5
207
102
{ACAD_XDICTIONARY
360
27A0
102
}
330
2
100
AcDbSymbolTableRecord
100
AcDbLayerTableRecord
  2
3_POINTS
 70
     0
 62
     7
  6
CONTINUOUS
370
    -3
390
F
  0
LAYER
  5
208
102
{ACAD_XDICTIONARY
360
27A2
102
}
330
2
100
AcDbSymbolTableRecord
100
AcDbLayerTableRecord
  2
3_POINTS_JETS
 70
     0
 62
     7
  6
CONTINUOUS
370
    -3
390
F
  0
LAYER
  5
209
102
{ACAD_XDICTIONARY
360
27A4
102
}
330
2
100
AcDbSymbolTableRecord
100
AcDbLayerTableRecord
  2
3_POINTS_SPEC
 70
     0
 62
     7
  6
CONTINUOUS
370
    -3
390
F
  0
LAYER
  5
20A
102
{ACAD_XDICTIONARY
360
27A6
102
}
330
2
100
AcDbSymbolTableRecord
100
AcDbLayerTableRecord
  2
4_CSYS
 70
     0
 62
     7
  6
CONTINUOUS
370
    -3
390
F
  0
LAYER
  5
20B
102
{ACAD_XDICTIONARY
360
27A8
102
}
330
2
100
AcDbSymbolTableRecord
100
AcDbLayerTableRecord
  2
5_AXIS
 70
     0
 62
     7
  6
CONTINUOUS
370
    -3
390
F
  0
LAYER
  5
20C
102
{ACAD_XDICTIONARY
360
27AA
102
}
330
2
100
AcDbSymbolTableRecord
100
AcDbLayerTableRecord
  2
5_AXIS_CHROMO_INV
 70
     0
 62
     7
  6
CONTINUOUS
370
    -3
390
F
  0
LAYER
  5
20D
102
{ACAD_XDICTIONARY
360
27AC
102
}
330
2
100
AcDbSymbolTableRecord
100
AcDbLayerTableRecord
  2
5_AXIS_JETS
 70
     0
 62
     7
  6
CONTINUOUS
370
    -3
390
F
  0
LAYER
  5
20E
102
{ACAD_XDICTIONARY
360
27AE
102
}
330
2
100
AcDbSymbolTableRecord
100
AcDbLayerTableRecord
  2
6_SURFACES
 70
     0
 62
     7
  6
CONTINUOUS
370
    -3
390
F
  0
LAYER
  5
20F
102
{ACAD_XDICTIONARY
360
27B0
102
}
330
2
100
AcDbSymbolTableRecord
100
AcDbLayerTableRecord
  2
6_SURFACES_JUPE
 70
     0
 62
     7
  6
CONTINUOUS
370
    -3
390
F
  0
LAYER
  5
210
102
{ACAD_XDICTIONARY
360
27B2
102
}
330
2
100
AcDbSymbolTableRecord
100
AcDbLayerTableRecord
  2
6_SURFACES_OFFSET_FIBRE_ACRYLIQ
 70
     0
 62
     7
  6
CONTINUOUS
370
    -3
390
F
  0
LAYER
  5
211
102
{ACAD_XDICTIONARY
360
27B4
102
}
330
2
100
AcDbSymbolTableRecord
100
AcDbLayerTableRecord
  2
6_SURFACES_TOOLING
 70
     0
 62
     7
  6
CONTINUOUS
370
    -3
390
F
  0
LAYER
  5
212
102
{ACAD_XDICTIONARY
360
27B6
102
}
330
2
100
AcDbSymbolTableRecord
100
AcDbLayerTableRecord
  2
6_SURFACES_TOOLING_BRIDE
 70
     0
 62
     7
  6
CONTINUOUS
370
    -3
390
F
  0
LAYER
  5
213
102
{ACAD_XDICTIONARY
360
27B8
102
}
330
2
100
AcDbSymbolTableRecord
100
AcDbLayerTableRecord
  2
6_SURFACES_TOOLING_DROP-IN
 70
     0
 62
     7
  6
CONTINUOUS
370
    -3
390
F
  0
LAYER
  5
214
102
{ACAD_XDICTIONARY
360
27BA
102
}
330
2
100
AcDbSymbolTableRecord
100
AcDbLayerTableRecord
  2
6_SURFACES_TOOLING_FS
 70
     0
 62
     7
  6
CONTINUOUS
370
    -3
390
F
  0
LAYER
  5
215
102
{ACAD_XDICTIONARY
360
27BC
102
}
330
2
100
AcDbSymbolTableRecord
100
AcDbLayerTableRecord
  2
7_NOTES
 70
     0
 62
     7
  6
CONTINUOUS
370
    -3
390
F
  0
LAYER
  5
216
102
{ACAD_XDICTIONARY
360
27BE
102
}
330
2
100
AcDbSymbolTableRecord
100
AcDbLayerTableRecord
  2
DEGAGEMENT_SERIGRAPHIE
 70
     0
 62
     7
  6
CONTINUOUS
370
    -3
390
F
  0
LAYER
  5
217
102
{ACAD_XDICTIONARY
360
27C0
102
}
330
2
100
AcDbSymbolTableRecord
100
AcDbLayerTableRecord
  2
XSEC_DATUMS
 70
     0
 62
     7
  6
CONTINUOUS
370
    -3
390
F
  0
ENDTAB
  0
TABLE
  2
STYLE
  5
3
330
0
100
AcDbSymbolTable
 70
     8
  0
STYLE
  5
11
330
3
100
AcDbSymbolTableRecord
100
AcDbTextStyleTableRecord
  2
STANDARD
 70
     0
 40
0.0
 41
0.8
 50
0.0
 71
     0
 42
0.2
  3
txt
  4

  0
STYLE
  5
218
330
3
100
AcDbSymbolTableRecord
100
AcDbTextStyleTableRecord
  2
TEXTSTYLE_1
 70
     0
 40
0.0
 41
0.8
 50
0.0
 71
     0
 42
0.2
  3
gdt
  4

  0
STYLE
  5
219
330
3
100
AcDbSymbolTableRecord
100
AcDbTextStyleTableRecord
  2
TEXTSTYLE_2
 70
     0
 40
0.0
 41
1.0
 50
0.0
 71
     0
 42
0.2
  3
trium.ttf
  4

  0
STYLE
  5
21A
330
3
100
AcDbSymbolTableRecord
100
AcDbTextStyleTableRecord
  2
TEXTSTYLE_3
 70
     0
 40
0.0
 41
1.0
 50
0.0
 71
     0
 42
0.2
  3
trium.ttf
  4

  0
STYLE
  5
21B
330
3
100
AcDbSymbolTableRecord
100
AcDbTextStyleTableRecord
  2
TEXTSTYLE_4
 70
     0
 40
0.0
 41
1.0
 50
0.0
 71
     0
 42
0.2
  3
txt
  4

  0
STYLE
  5
21C
330
3
100
AcDbSymbolTableRecord
100
AcDbTextStyleTableRecord
  2
TEXTSTYLE_5
 70
     0
 40
0.0
 41
1.0
 50
0.0
 71
     0
 42
0.2
  3
txt
  4

  0
STYLE
  5
21D
330
3
100
AcDbSymbolTableRecord
100
AcDbTextStyleTableRecord
  2
TEXTSTYLE_6
 70
     0
 40
0.0
 41
1.0
 50
0.0
 71
     0
 42
0.2
  3
trium.ttf
  4

  0
STYLE
  5
21E
330
3
100
AcDbSymbolTableRecord
100
AcDbTextStyleTableRecord
  2
TEXTSTYLE_7
 70
     0
 40
0.0
 41
0.8
 50
0.0
 71
     0
 42
0.2
  3
txt
  4

  0
ENDTAB
  0
TABLE
  2
VIEW
  5
6
330
0
100
AcDbSymbolTable
 70
     1
  0
ENDTAB
  0
TABLE
  2
UCS
  5
7
330
0
100
AcDbSymbolTable
 70
     0
  0
ENDTAB
  0
TABLE
  2
APPID
  5
9
330
0
100
AcDbSymbolTable
 70
     3
  0
APPID
  5
21F
330
9
100
AcDbSymbolTableRecord
100
AcDbRegAppTableRecord
  2
ACAD
 70
     0
  0
APPID
  5
2771
330
9
100
AcDbSymbolTableRecord
100
AcDbRegAppTableRecord
  2
ACAD_MLEADERVER
 70
     0
  0
APPID
  5
27CB
330
9
100
AcDbSymbolTableRecord
100
AcDbRegAppTableRecord
  2
ACAD_NAV_VCDISPLAY
 70
     0
  0
ENDTAB
  0
TABLE
  2
DIMSTYLE
  5
A
330
0
100
AcDbSymbolTable
 70
     8
100
AcDbDimStyleTable
 71
     0
  0
DIMSTYLE
105
239
330
A
100
AcDbSymbolTableRecord
100
AcDbDimStyleTableRecord
  2
STANDARD
 70
     0
 41
2.0
 44
0.125
 47
0.001
 48
0.001
 71
     1
 78
     4
 79
     1
140
1.333333333299999
143
2.54
170
     1
179
     3
271
     3
272
     3
284
     4
340
11
341
222
342
222
343
222
344
222
  0
DIMSTYLE
105
23A
330
A
100
AcDbSymbolTableRecord
100
AcDbDimStyleTableRecord
  2
DIMSTYLE_1
 70
     0
 41
2.0
 44
0.125
 47
0.00001
 48
0.00001
 78
     4
 79
     1
140
1.333333333299999
143
2.54
147
0.0625
170
     1
171
     1
179
     3
271
     3
272
     8
274
     3
284
     4
340
11
341
222
342
222
343
222
344
222
  0
DIMSTYLE
105
23B
330
A
100
AcDbSymbolTableRecord
100
AcDbDimStyleTableRecord
  2
DIMSTYLE_2
 70
     0
 41
2.0
 44
0.125
 47
0.001
 48
0.001
 78
     4
 79
     1
140
1.333333333299999
143
2.54
147
0.0625
170
     1
171
     0
179
     3
271
     3
272
     8
274
     0
284
     4
340
11
341
222
342
222
343
222
344
222
  0
DIMSTYLE
105
23C
330
A
100
AcDbSymbolTableRecord
100
AcDbDimStyleTableRecord
  2
DIMSTYLE_3
 70
     0
 41
2.0
 44
0.125
 47
0.00001
 48
0.00001
 78
     4
 79
     1
140
1.333333333299999
143
2.54
147
0.0625
170
     1
171
     1
179
     3
271
     6
272
    64
274
     1
284
     4
340
11
341
222
342
222
343
222
344
222
  0
DIMSTYLE
105
23D
330
A
100
AcDbSymbolTableRecord
100
AcDbDimStyleTableRecord
  2
DIMSTYLE_4
 70
     0
 41
2.0
 44
0.125
 47
0.00001
 48
0.00001
 78
     4
 79
     1
140
1.333333333299999
143
2.54
147
0.0625
170
     1
171
     0
179
     3
271
     3
272
     8
274
     0
284
     4
340
11
341
222
342
222
343
222
344
222
  0
DIMSTYLE
105
23E
330
A
100
AcDbSymbolTableRecord
100
AcDbDimStyleTableRecord
  2
DIMSTYLE_5
 70
     0
 41
2.0
 44
0.125
 47
0.001
 48
0.001
 78
     4
 79
     1
140
1.333333333299999
143
2.54
147
0.0625
170
     1
171
     1
179
     3
271
     5
272
    32
274
     1
284
     4
340
11
341
222
342
222
343
222
344
222
  0
DIMSTYLE
105
23F
330
A
100
AcDbSymbolTableRecord
100
AcDbDimStyleTableRecord
  2
DIMSTYLE_6
 70
     0
 41
2.0
 44
0.125
 47
0.001
 48
0.001
 78
     4
 79
     1
140
1.333333333299999
143
2.54
147
0.0625
170
     1
171
     0
179
     3
272
    16
274
     0
284
     4
340
11
341
222
342
222
343
222
344
222
  0
DIMSTYLE
105
240
330
A
100
AcDbSymbolTableRecord
100
AcDbDimStyleTableRecord
  2
DIMSTYLE_7
 70
     0
 41
2.0
 44
0.125
 47
0.5
 48
0.5
 78
     4
 79
     1
140
1.333333333299999
143
2.54
147
0.0625
179
     3
271
     6
272
    64
284
     4
340
11
341
222
342
222
343
222
344
222
  0
ENDTAB
  0
TABLE
  2
BLOCK_RECORD
  5
1
330
0
100
AcDbSymbolTable
 70
    23
  0
BLOCK_RECORD
  5
220
330
1
100
AcDbSymbolTableRecord
100
AcDbBlockTableRecord
  2
*Model_Space
340
26E1
  0
BLOCK_RECORD
  5
221
330
1
100
AcDbSymbolTableRecord
100
AcDbBlockTableRecord
  2
*Paper_Space
340
26E2
  0
BLOCK_RECORD
  5
222
330
1
100
AcDbSymbolTableRecord
100
AcDbBlockTableRecord
  2
_FILLED
340
0
102
{BLKREFS
102
}
  0
BLOCK_RECORD
  5
237
330
1
100
AcDbSymbolTableRecord
100
AcDbBlockTableRecord
  2
L03-USAGE_INTERNE_SEULEM_BL1
340
0
  0
BLOCK_RECORD
  5
238
330
1
100
AcDbSymbolTableRecord
100
AcDbBlockTableRecord
  2
L03-NOTE_SPECS_BAINS_BL0
340
0
  0
ENDTAB
  0
ENDSEC
  0
SECTION
  2
BLOCKS
  0
BLOCK
  5
20
330
220
100
AcDbEntity
  8
0
100
AcDbBlockBegin
  2
*Model_Space
 70
     0
 10
0.0
 20
0.0
 30
0.0
  3
*Model_Space
  1

  0
ENDBLK
  5
21
330
220
100
AcDbEntity
  8
0
100
AcDbBlockEnd
  0
BLOCK
  5
1C
330
221
100
AcDbEntity
 67
     1
  8
0
100
AcDbBlockBegin
  2
*Paper_Space
 70
     0
 10
0.0
 20
0.0
 30
0.0
  3
*Paper_Space
  1

  0
ENDBLK
  5
1D
330
221
100
AcDbEntity
 67
     1
  8
0
100
AcDbBlockEnd
  0
BLOCK
  5
30C
330
222
100
AcDbEntity
  8
0
100
AcDbBlockBegin
  2
_FILLED
 70
     0
 10
0.0
 20
0.0
 30
0.0
  3
_FILLED
  1

  0
SOLID
  5
30D
330
222
100
AcDbEntity
  8
0
  6
ByBlock
 62
     0
100
AcDbTrace
 10
0.0
 20
0.0
 30
0.0
 11
-1.0
 21
0.1666666667
 31
0.0
 12
-1.0
 22
-0.1666666667
 32
0.0
 13
-1.0
 23
-0.1666666667
 33
0.0
  0
ENDBLK
  5
30E
330
222
100
AcDbEntity
  8
0
  6
ByBlock
 62
     0
100
AcDbBlockEnd
  0
BLOCK
  5
241
330
237
100
AcDbEntity
  8
0
  6
Continuous
 62
     2
100
AcDbBlockBegin
  2
L03-USAGE_INTERNE_SEULEM_BL1
 70
     0
 10
129.4405461423
 20
49.267551068
 30
0.0
  3
L03-USAGE_INTERNE_SEULEM_BL1
  1

  0
TEXT
  5
242
330
237
100
AcDbEntity
  8
0
  6
Continuous
 62
     7
100
AcDbText
 10
123.1264858405
 20
51.5125850538
 30
0.0
 40
1.1626666667
  1
INTERNAL USE 
 50
10.0
  7
TEXTSTYLE_3
100
AcDbText
  0
TEXT
  5
243
330
237
100
AcDbEntity
  8
0
  6
Continuous
 62
     7
100
AcDbText
 10
122.3828016365
 20
49.5110638761
 30
0.0
 40
1.1626666667
  1
DOCUMENT ONLY
 50
10.0
  7
TEXTSTYLE_3
100
AcDbText
  0
TEXT
  5
244
330
237
100
AcDbEntity
  8
0
  6
Continuous
 62
     7
100
AcDbText
 10
128.1675291998
 20
49.2626358256
 30
0.0
 40
1.1626666667
  1
 
 50
10.0
  7
TEXTSTYLE_5
100
AcDbText
  0
TEXT
  5
245
330
237
100
AcDbEntity
  8
0
  6
Continuous
 62
     7
100
AcDbText
 10
119.7228813168
 20
45.0855414193
 30
0.0
 40
1.1626666667
  1
DOCUMENT POUR USAGE
 50
10.0
  7
TEXTSTYLE_3
100
AcDbText
  0
TEXT
  5
246
330
237
100
AcDbEntity
  8
0
  6
Continuous
 62
     7
100
AcDbText
 10
120.1519807628
 20
43.0687929589
 30
0.0
 40
1.1626666667
  1
A L'INTERNE SEULEMENT
 50
10.0
  7
TEXTSTYLE_3
100
AcDbText
  0
LINE
  5
247
330
237
100
AcDbEntity
  8
0
  6
Continuous
 62
     1
100
AcDbLine
 10
143.2970978656
 20
44.92401745
 30
0.0
 11
143.3038567983
 21
44.9307763827
 31
0.0
  0
LINE
  5
248
330
237
100
AcDbEntity
  8
0
  6
Continuous
 62
     1
100
AcDbLine
 10
142.5645282992
 20
44.7948456702
 30
0.0
 11
143.2134097443
 21
45.4437271153
 31
0.0
  0
LINE
  5
249
330
237
100
AcDbEntity
  8
0
  6
Continuous
 62
     1
100
AcDbLine
 10
141.8319587328
 20
44.6656738904
 30
0.0
 11
143.1229626904
 21
45.956677848
 31
0.0
  0
LINE
  5
24A
330
237
100
AcDbEntity
  8
0
  6
Continuous
 62
     1
100
AcDbLine
 10
141.0993891664
 20
44.5365021106
 30
0.0
 11
143.0325156364
 21
46.4696285807
 31
0.0
  0
LINE
  5
24B
330
237
100
AcDbEntity
  8
0
  6
Continuous
 62
     1
100
AcDbLine
 10
140.3668195999
 20
44.40733033079999
 30
0.0
 11
142.9420685825
 21
46.9825793133
 31
0.0
  0
LINE
  5
24C
330
237
100
AcDbEntity
  8
0
  6
Continuous
 62
     1
100
AcDbLine
 10
139.6342500335
 20
44.278158551
 30
0.0
 11
141.1752538483
 21
45.81916236579999
 31
0.0
  0
LINE
  5
24D
330
237
100
AcDbEntity
  8
0
  6
Continuous
 62
     1
100
AcDbLine
 10
141.772599041
 20
46.4165075585
 30
0.0
 11
142.8516215285
 21
47.495530046
 31
0.0
  0
LINE
  5
24E
330
237
100
AcDbEntity
  8
0
  6
Continuous
 62
     1
100
AcDbLine
 10
138.9016804671
 20
44.1489867712
 30
0.0
 11
140.4426842819
 21
45.689990586
 31
0.0
  0
LINE
  5
24F
330
237
100
AcDbEntity
  8
0
  6
Continuous
 62
     1
100
AcDbLine
 10
141.6821519871
 20
46.9294582912
 30
0.0
 11
142.7611744746
 21
48.0084807787
 31
0.0
  0
LINE
  5
250
330
237
100
AcDbEntity
  8
0
  6
Continuous
 62
     1
100
AcDbLine
 10
138.1691109007
 20
44.0198149914
 30
0.0
 11
139.7101147155
 21
45.56081880619999
 31
0.0
  0
LINE
  5
251
330
237
100
AcDbEntity
  8
0
  6
Continuous
 62
     1
100
AcDbLine
 10
141.5917049331
 20
47.4424090238
 30
0.0
 11
142.6707274207
 21
48.5214315113
 31
0.0
  0
LINE
  5
252
330
237
100
AcDbEntity
  8
0
  6
Continuous
 62
     1
100
AcDbLine
 10
137.4365413343
 20
43.8906432116
 30
0.0
 11
138.977545149
 21
45.4316470264
 31
0.0
  0
LINE
  5
253
330
237
100
AcDbEntity
  8
0
  6
Continuous
 62
     1
100
AcDbLine
 10
141.5012578792
 20
47.9553597565
 30
0.0
 11
142.5802803667
 21
49.034382244
 31
0.0
  0
LINE
  5
254
330
237
100
AcDbEntity
  8
0
  6
Continuous
 62
     1
100
AcDbLine
 10
136.7039717679
 20
43.7614714318
 30
0.0
 11
138.2449755826
 21
45.3024752465
 31
0.0
  0
LINE
  5
255
330
237
100
AcDbEntity
  8
0
  6
Continuous
 62
     1
100
AcDbLine
 10
141.4108108253
 20
48.4683104892
 30
0.0
 11
142.4898333128
 21
49.54733297669999
 31
0.0
  0
LINE
  5
256
330
237
100
AcDbEntity
  8
0
  6
Continuous
 62
     1
100
AcDbLine
 10
135.9714022014
 20
43.632299652
 30
0.0
 11
137.5124060162
 21
45.17330346669999
 31
0.0
  0
LINE
  5
257
330
237
100
AcDbEntity
  8
0
  6
Continuous
 62
     1
100
AcDbLine
 10
141.3203637712999
 20
48.9812612218
 30
0.0
 11
142.3993862587999
 21
50.0602837094
 31
0.0
  0
LINE
  5
258
330
237
100
AcDbEntity
  8
0
  6
Continuous
 62
     1
100
AcDbLine
 10
135.238832635
 20
43.5031278722
 30
0.0
 11
136.7798364498
 21
45.04413168689999
 31
0.0
  0
LINE
  5
259
330
237
100
AcDbEntity
  8
0
  6
Continuous
 62
     1
100
AcDbLine
 10
141.2299167174
 20
49.4942119545
 30
0.0
 11
142.3089392049
 21
50.573234442
 31
0.0
  0
LINE
  5
25A
330
237
100
AcDbEntity
  8
0
  6
Continuous
 62
     1
100
AcDbLine
 10
134.5062630686
 20
43.3739560924
 30
0.0
 11
136.0472668834
 21
44.91495990709999
 31
0.0
  0
LINE
  5
25B
330
237
100
AcDbEntity
  8
0
  6
Continuous
 62
     1
100
AcDbLine
 10
141.1394696634
 20
50.0071626872
 30
0.0
 11
142.2184921509
 21
51.0861851747
 31
0.0
  0
LINE
  5
25C
330
237
100
AcDbEntity
  8
0
  6
Continuous
 62
     1
100
AcDbLine
 10
133.7736935022
 20
43.2447843125
 30
0.0
 11
135.314697317
 21
44.78578812729999
 31
0.0
  0
LINE
  5
25D
330
237
100
AcDbEntity
  8
0
  6
Continuous
 62
     1
100
AcDbLine
 10
141.0490226095
 20
50.5201134198
 30
0.0
 11
142.128045097
 21
51.5991359074
 31
0.0
  0
LINE
  5
25E
330
237
100
AcDbEntity
  8
0
  6
Continuous
 62
     1
100
AcDbLine
 10
133.0411239358
 20
43.1156125327
 30
0.0
 11
134.5821277505
 21
44.65661634749999
 31
0.0
  0
LINE
  5
25F
330
237
100
AcDbEntity
  8
0
  6
Continuous
 62
     1
100
AcDbLine
 10
140.7461430096
 20
50.82063160659999
 30
0.0
 11
142.0375980431
 21
52.11208664
 31
0.0
  0
LINE
  5
260
330
237
100
AcDbEntity
  8
0
  6
Continuous
 62
     1
100
AcDbLine
 10
132.3085543693
 20
42.9864407529
 30
0.0
 11
133.8495581841
 21
44.5274445677
 31
0.0
  0
LINE
  5
261
330
237
100
AcDbEntity
  8
0
  6
Continuous
 62
     1
100
AcDbLine
 10
140.0135734432
 20
50.69145982680001
 30
0.0
 11
141.9471509891
 21
52.62503737270001
 31
0.0
  0
LINE
  5
262
330
237
100
AcDbEntity
  8
0
  6
Continuous
 62
     1
100
AcDbLine
 10
131.5759848029
 20
42.8572689731
 30
0.0
 11
133.1169886177
 21
44.3982727879
 31
0.0
  0
LINE
  5
263
330
237
100
AcDbEntity
  8
0
  6
Continuous
 62
     1
100
AcDbLine
 10
139.2810038768
 20
50.56228804699999
 30
0.0
 11
140.3083461751
 21
51.5896303453
 31
0.0
  0
LINE
  5
264
330
237
100
AcDbEntity
  8
0
  6
Continuous
 62
     1
100
AcDbLine
 10
140.7776814476
 20
52.0589656178
 30
0.0
 11
141.8567039352
 21
53.13798810539999
 31
0.0
  0
LINE
  5
265
330
237
100
AcDbEntity
  8
0
  6
Continuous
 62
     1
100
AcDbLine
 10
130.8434152365
 20
42.7280971933
 30
0.0
 11
132.3844190513
 21
44.2691010081
 31
0.0
  0
LINE
  5
266
330
237
100
AcDbEntity
  8
0
  6
Continuous
 62
     1
100
AcDbLine
 10
138.5484343104
 20
50.43311626720001
 30
0.0
 11
139.575776399
 21
51.4604583559
 31
0.0
  0
LINE
  5
267
330
237
100
AcDbEntity
  8
0
  6
Continuous
 62
     1
100
AcDbLine
 10
140.6872343937
 20
52.5719163505
 30
0.0
 11
141.7662568812
 21
53.650938838
 31
0.0
  0
LINE
  5
268
330
237
100
AcDbEntity
  8
0
  6
Continuous
 62
     1
100
AcDbLine
 10
130.1108456701
 20
42.5989254135
 30
0.0
 11
131.6518494849
 21
44.1399292283
 31
0.0
  0
LINE
  5
269
330
237
100
AcDbEntity
  8
0
  6
Continuous
 62
     1
100
AcDbLine
 10
137.815864744
 20
50.3039444874
 30
0.0
 11
138.843206623
 21
51.3312863664
 31
0.0
  0
LINE
  5
26A
330
237
100
AcDbEntity
  8
0
  6
Continuous
 62
     1
100
AcDbLine
 10
140.5967873398
 20
53.0848670832
 30
0.0
 11
141.6758098273
 21
54.1638895707
 31
0.0
  0
LINE
  5
26B
330
237
100
AcDbEntity
  8
0
  6
Continuous
 62
     1
100
AcDbLine
 10
129.3782761037
 20
42.4697536337
 30
0.0
 11
130.9192799185
 21
44.01075744849999
 31
0.0
  0
LINE
  5
26C
330
237
100
AcDbEntity
  8
0
  6
Continuous
 62
     1
100
AcDbLine
 10
137.0832951776
 20
50.1747727076
 30
0.0
 11
138.110636847
 21
51.202114377
 31
0.0
  0
LINE
  5
26D
330
237
100
AcDbEntity
  8
0
  6
Continuous
 62
     1
100
AcDbLine
 10
140.5063402858
 20
53.5978178159
 30
0.0
 11
141.5853627733
 21
54.6768403034
 31
0.0
  0
LINE
  5
26E
330
237
100
AcDbEntity
  8
0
  6
Continuous
 62
     1
100
AcDbLine
 10
128.6457065373
 20
42.3405818539
 30
0.0
 11
130.186710352
 21
43.88158566869999
 31
0.0
  0
LINE
  5
26F
330
237
100
AcDbEntity
  8
0
  6
Continuous
 62
     1
100
AcDbLine
 10
136.3507256111
 20
50.0456009278
 30
0.0
 11
137.378067071
 21
51.0729423876
 31
0.0
  0
LINE
  5
270
330
237
100
AcDbEntity
  8
0
  6
Continuous
 62
     1
100
AcDbLine
 10
140.4158932319
 20
54.11076854850001
 30
0.0
 11
141.4949157194
 21
55.189791036
 31
0.0
  0
LINE
  5
271
330
237
100
AcDbEntity
  8
0
  6
Continuous
 62
     1
100
AcDbLine
 10
127.9131369708
 20
42.21141007409999
 30
0.0
 11
129.4541407856
 21
43.7524138889
 31
0.0
  0
LINE
  5
272
330
237
100
AcDbEntity
  8
0
  6
Continuous
 62
     1
100
AcDbLine
 10
135.6181560447
 20
49.91642914799999
 30
0.0
 11
136.6454972949
 21
50.94377039819999
 31
0.0
  0
LINE
  5
273
330
237
100
AcDbEntity
  8
0
  6
Continuous
 62
     1
100
AcDbLine
 10
140.3254461779
 20
54.62371928119999
 30
0.0
 11
141.4044686654
 21
55.7027417687
 31
0.0
  0
LINE
  5
274
330
237
100
AcDbEntity
  8
0
  6
Continuous
 62
     1
100
AcDbLine
 10
127.1805674044
 20
42.08223829429999
 30
0.0
 11
128.7215712192
 21
43.62324210909999
 31
0.0
  0
LINE
  5
275
330
237
100
AcDbEntity
  8
0
  6
Continuous
 62
     1
100
AcDbLine
 10
134.8855864783
 20
49.78725736819999
 30
0.0
 11
135.9129275189
 21
50.8145984088
 31
0.0
  0
LINE
  5
276
330
237
100
AcDbEntity
  8
0
  6
Continuous
 62
     1
100
AcDbLine
 10
140.234999124
 20
55.1366700139
 30
0.0
 11
141.3140216115
 21
56.21569250140001
 31
0.0
  0
LINE
  5
277
330
237
100
AcDbEntity
  8
0
  6
Continuous
 62
     1
100
AcDbLine
 10
126.447997838
 20
41.9530665145
 30
0.0
 11
127.9890016528
 21
43.4940703293
 31
0.0
  0
LINE
  5
278
330
237
100
AcDbEntity
  8
0
  6
Continuous
 62
     1
100
AcDbLine
 10
134.1530169119
 20
49.6580855884
 30
0.0
 11
135.1803577429
 21
50.68542641939999
 31
0.0
  0
LINE
  5
279
330
237
100
AcDbEntity
  8
0
  6
Continuous
 62
     1
100
AcDbLine
 10
140.14455207
 20
55.6496207465
 30
0.0
 11
141.2235745576
 21
56.72864323399999
 31
0.0
  0
LINE
  5
27A
330
237
100
AcDbEntity
  8
0
  6
Continuous
 62
     1
100
AcDbLine
 10
125.7154282716
 20
41.82389473469999
 30
0.0
 11
127.2564320864
 21
43.36489854949999
 31
0.0
  0
LINE
  5
27B
330
237
100
AcDbEntity
  8
0
  6
Continuous
 62
     1
100
AcDbLine
 10
133.4204473455
 20
49.52891380859999
 30
0.0
 11
134.4477879668
 21
50.55625443
 31
0.0
  0
LINE
  5
27C
330
237
100
AcDbEntity
  8
0
  6
Continuous
 62
     1
100
AcDbLine
 10
140.0541050161
 20
56.1625714792
 30
0.0
 11
141.1331275036
 21
57.2415939667
 31
0.0
  0
LINE
  5
27D
330
237
100
AcDbEntity
  8
0
  6
Continuous
 62
     1
100
AcDbLine
 10
124.9828587052
 20
41.69472295489999
 30
0.0
 11
126.5238625199
 21
43.2357267697
 31
0.0
  0
LINE
  5
27E
330
237
100
AcDbEntity
  8
0
  6
Continuous
 62
     1
100
AcDbLine
 10
132.6878777791
 20
49.3997420288
 30
0.0
 11
133.7152181908
 21
50.4270824405
 31
0.0
  0
LINE
  5
27F
330
237
100
AcDbEntity
  8
0
  6
Continuous
 62
     1
100
AcDbLine
 10
139.8792289146999
 20
56.59109316439999
 30
0.0
 11
141.0426804497
 21
57.75454469939999
 31
0.0
  0
LINE
  5
280
330
237
100
AcDbEntity
  8
0
  6
Continuous
 62
     1
100
AcDbLine
 10
124.2502891387
 20
41.5655511751
 30
0.0
 11
125.7912929535
 21
43.1065549899
 31
0.0
  0
LINE
  5
281
330
237
100
AcDbEntity
  8
0
  6
Continuous
 62
     1
100
AcDbLine
 10
131.9553082126
 20
49.27057024899999
 30
0.0
 11
132.9826484148
 21
50.29791045109999
 31
0.0
  0
LINE
  5
282
330
237
100
AcDbEntity
  8
0
  6
Continuous
 62
     1
100
AcDbLine
 10
139.1466593483
 20
56.4619213846
 30
0.0
 11
140.687663163
 21
58.0029251994
 31
0.0
  0
LINE
  5
283
330
237
100
AcDbEntity
  8
0
  6
Continuous
 62
     1
100
AcDbLine
 10
123.5177195723
 20
41.4363793953
 30
0.0
 11
125.0587233871
 21
42.97738320999999
 31
0.0
  0
LINE
  5
284
330
237
100
AcDbEntity
  8
0
  6
Continuous
 62
     1
100
AcDbLine
 10
131.2227386462
 20
49.1413984692
 30
0.0
 11
132.2500786388
 21
50.1687384617
 31
0.0
  0
LINE
  5
285
330
237
100
AcDbEntity
  8
0
  6
Continuous
 62
     1
100
AcDbLine
 10
138.4140897818
 20
56.33274960479999
 30
0.0
 11
139.9550935966
 21
57.8737534196
 31
0.0
  0
LINE
  5
286
330
237
100
AcDbEntity
  8
0
  6
Continuous
 62
     1
100
AcDbLine
 10
122.7851500059
 20
41.30720761550001
 30
0.0
 11
124.3261538207
 21
42.8482114302
 31
0.0
  0
LINE
  5
287
330
237
100
AcDbEntity
  8
0
  6
Continuous
 62
     1
100
AcDbLine
 10
130.4901690798
 20
49.0122266894
 30
0.0
 11
131.5175088627
 21
50.03956647229999
 31
0.0
  0
LINE
  5
288
330
237
100
AcDbEntity
  8
0
  6
Continuous
 62
     1
100
AcDbLine
 10
137.6815202154
 20
56.20357782500001
 30
0.0
 11
139.2225240302
 21
57.7445816398
 31
0.0
  0
LINE
  5
289
330
237
100
AcDbEntity
  8
0
  6
Continuous
 62
     1
100
AcDbLine
 10
122.0525804395
 20
41.1780358357
 30
0.0
 11
123.5935842543
 21
42.71903965039999
 31
0.0
  0
LINE
  5
28A
330
237
100
AcDbEntity
  8
0
  6
Continuous
 62
     1
100
AcDbLine
 10
129.7575995134
 20
48.88305490949999
 30
0.0
 11
130.7849390867
 21
49.9103944829
 31
0.0
  0
LINE
  5
28B
330
237
100
AcDbEntity
  8
0
  6
Continuous
 62
     1
100
AcDbLine
 10
136.948950649
 20
56.0744060452
 30
0.0
 11
138.4899544638
 21
57.61540985999999
 31
0.0
  0
LINE
  5
28C
330
237
100
AcDbEntity
  8
0
  6
Continuous
 62
     1
100
AcDbLine
 10
121.3200108731
 20
41.0488640559
 30
0.0
 11
122.8610146879
 21
42.5898678706
 31
0.0
  0
LINE
  5
28D
330
237
100
AcDbEntity
  8
0
  6
Continuous
 62
     1
100
AcDbLine
 10
129.025029947
 20
48.7538831297
 30
0.0
 11
130.0523693107
 21
49.78122249350001
 31
0.0
  0
LINE
  5
28E
330
237
100
AcDbEntity
  8
0
  6
Continuous
 62
     1
100
AcDbLine
 10
136.2163810826
 20
55.9452342654
 30
0.0
 11
137.7573848974
 21
57.4862380801
 31
0.0
  0
LINE
  5
28F
330
237
100
AcDbEntity
  8
0
  6
Continuous
 62
     1
100
AcDbLine
 10
120.5874413067
 20
40.91969227609999
 30
0.0
 11
122.1284451214
 21
42.4606960908
 31
0.0
  0
LINE
  5
290
330
237
100
AcDbEntity
  8
0
  6
Continuous
 62
     1
100
AcDbLine
 10
128.2924603805
 20
48.62471134989999
 30
0.0
 11
129.3197995345999
 21
49.65205050399999
 31
0.0
  0
LINE
  5
291
330
237
100
AcDbEntity
  8
0
  6
Continuous
 62
     1
100
AcDbLine
 10
135.4838115162
 20
55.8160624856
 30
0.0
 11
137.0248153309
 21
57.3570663003
 31
0.0
  0
LINE
  5
292
330
237
100
AcDbEntity
  8
0
  6
Continuous
 62
     1
100
AcDbLine
 10
119.8548717402
 20
40.79052049619999
 30
0.0
 11
121.395875555
 21
42.331524311
 31
0.0
  0
LINE
  5
293
330
237
100
AcDbEntity
  8
0
  6
Continuous
 62
     1
100
AcDbLine
 10
127.5598908141
 20
48.4955395701
 30
0.0
 11
128.5872297586
 21
49.5228785146
 31
0.0
  0
LINE
  5
294
330
237
100
AcDbEntity
  8
0
  6
Continuous
 62
     1
100
AcDbLine
 10
134.7512419498
 20
55.68689070579999
 30
0.0
 11
136.2922457645
 21
57.2278945205
 31
0.0
  0
LINE
  5
295
330
237
100
AcDbEntity
  8
0
  6
Continuous
 62
     1
100
AcDbLine
 10
119.1223021738
 20
40.6613487164
 30
0.0
 11
120.6633059886
 21
42.2023525312
 31
0.0
  0
LINE
  5
296
330
237
100
AcDbEntity
  8
0
  6
Continuous
 62
     1
100
AcDbLine
 10
126.8273212477
 20
48.36636779029999
 30
0.0
 11
127.8546599826
 21
49.3937065252
 31
0.0
  0
LINE
  5
297
330
237
100
AcDbEntity
  8
0
  6
Continuous
 62
     1
100
AcDbLine
 10
134.0186723833
 20
55.55771892600001
 30
0.0
 11
135.5596761981
 21
57.0987227407
 31
0.0
  0
LINE
  5
298
330
237
100
AcDbEntity
  8
0
  6
Continuous
 62
     1
100
AcDbLine
 10
118.3897326074
 20
40.53217693659999
 30
0.0
 11
119.9307364222
 21
42.07318075139999
 31
0.0
  0
LINE
  5
299
330
237
100
AcDbEntity
  8
0
  6
Continuous
 62
     1
100
AcDbLine
 10
126.0947516813
 20
48.2371960105
 30
0.0
 11
127.1220902066
 21
49.26453453579999
 31
0.0
  0
LINE
  5
29A
330
237
100
AcDbEntity
  8
0
  6
Continuous
 62
     1
100
AcDbLine
 10
133.2861028169
 20
55.42854714609999
 30
0.0
 11
134.8271066317
 21
56.9695509609
 31
0.0
  0
LINE
  5
29B
330
237
100
AcDbEntity
  8
0
  6
Continuous
 62
     1
100
AcDbLine
 10
117.8384118349
 20
40.5842539507
 30
0.0
 11
119.1981668558
 21
41.9440089716
 31
0.0
  0
LINE
  5
29C
330
237
100
AcDbEntity
  8
0
  6
Continuous
 62
     1
100
AcDbLine
 10
125.3621821149
 20
48.1080242307
 30
0.0
 11
126.3895204305
 21
49.1353625464
 31
0.0
  0
LINE
  5
29D
330
237
100
AcDbEntity
  8
0
  6
Continuous
 62
     1
100
AcDbLine
 10
132.5535332505
 20
55.2993753663
 30
0.0
 11
134.0945370653
 21
56.8403791811
 31
0.0
  0
LINE
  5
29E
330
237
100
AcDbEntity
  8
0
  6
Continuous
 62
     1
100
AcDbLine
 10
117.7479647809
 20
41.09720468339999
 30
0.0
 11
118.8269872685
 21
42.1762271709
 31
0.0
  0
LINE
  5
29F
330
237
100
AcDbEntity
  8
0
  6
Continuous
 62
     1
100
AcDbLine
 10
124.6296125485
 20
47.97885245089999
 30
0.0
 11
125.6569506545
 21
49.006190557
 31
0.0
  0
LINE
  5
2A0
330
237
100
AcDbEntity
  8
0
  6
Continuous
 62
     1
100
AcDbLine
 10
131.8209636841
 20
55.17020358649999
 30
0.0
 11
133.3619674989
 21
56.7112074013
 31
0.0
  0
LINE
  5
2A1
330
237
100
AcDbEntity
  8
0
  6
Continuous
 62
     1
100
AcDbLine
 10
117.657517727
 20
41.6101554161
 30
0.0
 11
118.7365402145
 21
42.6891779036
 31
0.0
  0
LINE
  5
2A2
330
237
100
AcDbEntity
  8
0
  6
Continuous
 62
     1
100
AcDbLine
 10
123.897042982
 20
47.84968067109999
 30
0.0
 11
124.9243808785
 21
48.8770185675
 31
0.0
  0
LINE
  5
2A3
330
237
100
AcDbEntity
  8
0
  6
Continuous
 62
     1
100
AcDbLine
 10
131.0883941177
 20
55.0410318067
 30
0.0
 11
132.6293979324
 21
56.58203562149999
 31
0.0
  0
LINE
  5
2A4
330
237
100
AcDbEntity
  8
0
  6
Continuous
 62
     1
100
AcDbLine
 10
117.5670706731
 20
42.12310614869999
 30
0.0
 11
118.6460931606
 21
43.2021286362
 31
0.0
  0
LINE
  5
2A5
330
237
100
AcDbEntity
  8
0
  6
Continuous
 62
     1
100
AcDbLine
 10
123.1644734156
 20
47.72050889129999
 30
0.0
 11
124.1918111024
 21
48.7478465781
 31
0.0
  0
LINE
  5
2A6
330
237
100
AcDbEntity
  8
0
  6
Continuous
 62
     1
100
AcDbLine
 10
130.3558245512
 20
54.9118600269
 30
0.0
 11
131.896828366
 21
56.4528638417
 31
0.0
  0
LINE
  5
2A7
330
237
100
AcDbEntity
  8
0
  6
Continuous
 62
     1
100
AcDbLine
 10
117.4766236191
 20
42.6360568814
 30
0.0
 11
118.5556461066
 21
43.7150793689
 31
0.0
  0
LINE
  5
2A8
330
237
100
AcDbEntity
  8
0
  6
Continuous
 62
     1
100
AcDbLine
 10
122.4319038492
 20
47.59133711149999
 30
0.0
 11
123.4592413264
 21
48.61867458869999
 31
0.0
  0
LINE
  5
2A9
330
237
100
AcDbEntity
  8
0
  6
Continuous
 62
     1
100
AcDbLine
 10
129.6232549848
 20
54.78268824709999
 30
0.0
 11
131.1642587996
 21
56.32369206189999
 31
0.0
  0
LINE
  5
2AA
330
237
100
AcDbEntity
  8
0
  6
Continuous
 62
     1
100
AcDbLine
 10
117.3861765652
 20
43.1490076141
 30
0.0
 11
118.4651990527
 21
44.22803010159999
 31
0.0
  0
LINE
  5
2AB
330
237
100
AcDbEntity
  8
0
  6
Continuous
 62
     1
100
AcDbLine
 10
121.6993342828
 20
47.4621653317
 30
0.0
 11
122.7266715504
 21
48.4895025993
 31
0.0
  0
LINE
  5
2AC
330
237
100
AcDbEntity
  8
0
  6
Continuous
 62
     1
100
AcDbLine
 10
128.8906854184
 20
54.65351646729999
 30
0.0
 11
130.4316892332
 21
56.1945202821
 31
0.0
  0
LINE
  5
2AD
330
237
100
AcDbEntity
  8
0
  6
Continuous
 62
     1
100
AcDbLine
 10
117.2957295112
 20
43.6619583467
 30
0.0
 11
118.3747519987
 21
44.7409808343
 31
0.0
  0
LINE
  5
2AE
330
237
100
AcDbEntity
  8
0
  6
Continuous
 62
     1
100
AcDbLine
 10
120.9667647164
 20
47.33299355189999
 30
0.0
 11
121.9941017744
 21
48.3603306099
 31
0.0
  0
LINE
  5
2AF
330
237
100
AcDbEntity
  8
0
  6
Continuous
 62
     1
100
AcDbLine
 10
128.158115852
 20
54.52434468749999
 30
0.0
 11
129.6991196668
 21
56.0653485023
 31
0.0
  0
LINE
  5
2B0
330
237
100
AcDbEntity
  8
0
  6
Continuous
 62
     1
100
AcDbLine
 10
117.2052824573
 20
44.17490907939999
 30
0.0
 11
118.2843049448
 21
45.25393156689999
 31
0.0
  0
LINE
  5
2B1
330
237
100
AcDbEntity
  8
0
  6
Continuous
 62
     1
100
AcDbLine
 10
120.2341951499
 20
47.2038217721
 30
0.0
 11
121.2615319983
 21
48.2311586205
 31
0.0
  0
LINE
  5
2B2
330
237
100
AcDbEntity
  8
0
  6
Continuous
 62
     1
100
AcDbLine
 10
127.4255462856
 20
54.39517290770001
 30
0.0
 11
128.9665501004
 21
55.9361767225
 31
0.0
  0
LINE
  5
2B3
330
237
100
AcDbEntity
  8
0
  6
Continuous
 62
     1
100
AcDbLine
 10
117.1148354033
 20
44.68785981209999
 30
0.0
 11
118.1938578909
 21
45.7668822996
 31
0.0
  0
LINE
  5
2B4
330
237
100
AcDbEntity
  8
0
  6
Continuous
 62
     1
100
AcDbLine
 10
119.5016255835
 20
47.07464999229999
 30
0.0
 11
120.5289622223
 21
48.101986631
 31
0.0
  0
LINE
  5
2B5
330
237
100
AcDbEntity
  8
0
  6
Continuous
 62
     1
100
AcDbLine
 10
126.6929767192
 20
54.2660011279
 30
0.0
 11
128.2339805339
 21
55.80700494270001
 31
0.0
  0
LINE
  5
2B6
330
237
100
AcDbEntity
  8
0
  6
Continuous
 62
     1
100
AcDbLine
 10
117.0243883494
 20
45.2008105447
 30
0.0
 11
118.1034108369
 21
46.27983303229999
 31
0.0
  0
LINE
  5
2B7
330
237
100
AcDbEntity
  8
0
  6
Continuous
 62
     1
100
AcDbLine
 10
118.7690560171
 20
46.9454782125
 30
0.0
 11
119.7963924463
 21
47.9728146416
 31
0.0
  0
LINE
  5
2B8
330
237
100
AcDbEntity
  8
0
  6
Continuous
 62
     1
100
AcDbLine
 10
125.9604071527
 20
54.1368293481
 30
0.0
 11
127.5014109675
 21
55.6778331629
 31
0.0
  0
LINE
  5
2B9
330
237
100
AcDbEntity
  8
0
  6
Continuous
 62
     1
100
AcDbLine
 10
116.9339412954
 20
45.71376127739999
 30
0.0
 11
118.012963783
 21
46.7927837649
 31
0.0
  0
LINE
  5
2BA
330
237
100
AcDbEntity
  8
0
  6
Continuous
 62
     1
100
AcDbLine
 10
118.0364864507
 20
46.8163064327
 30
0.0
 11
119.0638226702
 21
47.8436426522
 31
0.0
  0
LINE
  5
2BB
330
237
100
AcDbEntity
  8
0
  6
Continuous
 62
     1
100
AcDbLine
 10
125.2278375863
 20
54.0076575683
 30
0.0
 11
126.7688414011
 21
55.5486613831
 31
0.0
  0
LINE
  5
2BC
330
237
100
AcDbEntity
  8
0
  6
Continuous
 62
     1
100
AcDbLine
 10
116.8434942415
 20
46.2267120101
 30
0.0
 11
118.3312528942
 21
47.71447066279999
 31
0.0
  0
LINE
  5
2BD
330
237
100
AcDbEntity
  8
0
  6
Continuous
 62
     1
100
AcDbLine
 10
124.4952680199
 20
53.8784857885
 30
0.0
 11
126.0362718347
 21
55.4194896033
 31
0.0
  0
LINE
  5
2BE
330
237
100
AcDbEntity
  8
0
  6
Continuous
 62
     1
100
AcDbLine
 10
116.7530471876
 20
46.7396627428
 30
0.0
 11
117.8320696751
 21
47.81868523029999
 31
0.0
  0
LINE
  5
2BF
330
237
100
AcDbEntity
  8
0
  6
Continuous
 62
     1
100
AcDbLine
 10
123.7626984535
 20
53.7493140087
 30
0.0
 11
125.3037022683
 21
55.2903178235
 31
0.0
  0
LINE
  5
2C0
330
237
100
AcDbEntity
  8
0
  6
Continuous
 62
     1
100
AcDbLine
 10
116.6626001336
 20
47.2526134754
 30
0.0
 11
117.7416226211
 21
48.3316359629
 31
0.0
  0
LINE
  5
2C1
330
237
100
AcDbEntity
  8
0
  6
Continuous
 62
     1
100
AcDbLine
 10
123.0301288871
 20
53.6201422289
 30
0.0
 11
124.5711327018
 21
55.1611460436
 31
0.0
  0
LINE
  5
2C2
330
237
100
AcDbEntity
  8
0
  6
Continuous
 62
     1
100
AcDbLine
 10
116.5721530797
 20
47.7655642081
 30
0.0
 11
117.6511755672
 21
48.8445866956
 31
0.0
  0
LINE
  5
2C3
330
237
100
AcDbEntity
  8
0
  6
Continuous
 62
     1
100
AcDbLine
 10
122.2975593206
 20
53.49097044909999
 30
0.0
 11
123.8385631354
 21
55.0319742638
 31
0.0
  0
LINE
  5
2C4
330
237
100
AcDbEntity
  8
0
  6
Continuous
 62
     1
100
AcDbLine
 10
116.4817060257
 20
48.2785149408
 30
0.0
 11
117.5607285132
 21
49.3575374283
 31
0.0
  0
LINE
  5
2C5
330
237
100
AcDbEntity
  8
0
  6
Continuous
 62
     1
100
AcDbLine
 10
121.5649897542
 20
53.3617986693
 30
0.0
 11
123.105993569
 21
54.902802484
 31
0.0
  0
LINE
  5
2C6
330
237
100
AcDbEntity
  8
0
  6
Continuous
 62
     1
100
AcDbLine
 10
116.3912589718
 20
48.79146567340001
 30
0.0
 11
117.4702814593
 21
49.8704881609
 31
0.0
  0
LINE
  5
2C7
330
237
100
AcDbEntity
  8
0
  6
Continuous
 62
     1
100
AcDbLine
 10
120.8324201878
 20
53.23262688949999
 30
0.0
 11
122.3734240026
 21
54.7736307042
 31
0.0
  0
LINE
  5
2C8
330
237
100
AcDbEntity
  8
0
  6
Continuous
 62
     1
100
AcDbLine
 10
116.3008119178
 20
49.30441640609999
 30
0.0
 11
117.3798344054
 21
50.3834388936
 31
0.0
  0
LINE
  5
2C9
330
237
100
AcDbEntity
  8
0
  6
Continuous
 62
     1
100
AcDbLine
 10
120.0998506214
 20
53.1034551096
 30
0.0
 11
121.6408544362
 21
54.6444589244
 31
0.0
  0
LINE
  5
2CA
330
237
100
AcDbEntity
  8
0
  6
Continuous
 62
     1
100
AcDbLine
 10
116.2103648639
 20
49.8173671388
 30
0.0
 11
117.2893873514
 21
50.8963896263
 31
0.0
  0
LINE
  5
2CB
330
237
100
AcDbEntity
  8
0
  6
Continuous
 62
     1
100
AcDbLine
 10
119.367281055
 20
52.9742833298
 30
0.0
 11
120.9082848698
 21
54.5152871446
 31
0.0
  0
LINE
  5
2CC
330
237
100
AcDbEntity
  8
0
  6
Continuous
 62
     1
100
AcDbLine
 10
116.11991781
 20
50.3303178714
 30
0.0
 11
117.1989402975
 21
51.40934035899999
 31
0.0
  0
LINE
  5
2CD
330
237
100
AcDbEntity
  8
0
  6
Continuous
 62
     1
100
AcDbLine
 10
118.6347114886
 20
52.84511155
 30
0.0
 11
120.1757153033
 21
54.38611536479999
 31
0.0
  0
LINE
  5
2CE
330
237
100
AcDbEntity
  8
0
  6
Continuous
 62
     1
100
AcDbLine
 10
116.029470756
 20
50.8432686041
 30
0.0
 11
117.1084932435
 21
51.9222910916
 31
0.0
  0
LINE
  5
2CF
330
237
100
AcDbEntity
  8
0
  6
Continuous
 62
     1
100
AcDbLine
 10
117.9021419221
 20
52.7159397702
 30
0.0
 11
119.4431457369
 21
54.256943585
 31
0.0
  0
LINE
  5
2D0
330
237
100
AcDbEntity
  8
0
  6
Continuous
 62
     1
100
AcDbLine
 10
115.9390237021
 20
51.3562193368
 30
0.0
 11
117.0180461896
 21
52.4352418243
 31
0.0
  0
LINE
  5
2D1
330
237
100
AcDbEntity
  8
0
  6
Continuous
 62
     1
100
AcDbLine
 10
117.1695723557
 20
52.58676799039999
 30
0.0
 11
118.7105761705
 21
54.1277718052
 31
0.0
  0
LINE
  5
2D2
330
237
100
AcDbEntity
  8
0
  6
Continuous
 62
     1
100
AcDbLine
 10
115.8485766481
 20
51.86917006939999
 30
0.0
 11
117.9780066041
 21
53.9986000254
 31
0.0
  0
LINE
  5
2D3
330
237
100
AcDbEntity
  8
0
  6
Continuous
 62
     1
100
AcDbLine
 10
115.7581295942
 20
52.3821208021
 30
0.0
 11
117.2454370377
 21
53.86942824560001
 31
0.0
  0
LINE
  5
2D4
330
237
100
AcDbEntity
  8
0
  6
Continuous
 62
     1
100
AcDbLine
 10
115.6676825402
 20
52.89507153479999
 30
0.0
 11
116.5128674712
 21
53.7402564658
 31
0.0
  0
LINE
  5
2D5
330
237
100
AcDbEntity
  8
0
  6
Continuous
 62
     1
100
AcDbLine
 10
115.5772354863
 20
53.4080222674
 30
0.0
 11
115.7802979048
 21
53.61108468600001
 31
0.0
  0
ENDBLK
  5
2D6
330
237
100
AcDbEntity
  8
0
  6
ByBlock
 62
     0
100
AcDbBlockEnd
  0
BLOCK
  5
2D7
330
238
100
AcDbEntity
  8
0
  6
Continuous
 62
     2
100
AcDbBlockBegin
  2
L03-NOTE_SPECS_BAINS_BL0
 70
     0
 10
160.6665744185
 20
55.3333957601
 30
0.0
  3
L03-NOTE_SPECS_BAINS_BL0
  1

  0
TEXT
  5
2D8
330
238
100
AcDbEntity
  8
0
  6
Continuous
 62
     2
100
AcDbText
 10
144.4187893423
 20
63.1068291512
 30
0.0
 40
0.5
  1
Infomations Techniques/Technical Infomations
  7
TEXTSTYLE_2
100
AcDbText
  0
TEXT
  5
2D9
330
238
100
AcDbEntity
  8
0
  6
Continuous
 62
     2
100
AcDbText
 10
144.6665744185
 20
61.6667290935
 30
0.0
 40
0.6666666667
  1
NOMBRE DE JETS:     
  7
TEXTSTYLE_2
100
AcDbText
  0
TEXT
  5
2DA
330
238
100
AcDbEntity
  8
0
  6
Continuous
 62
     2
100
AcDbText
 10
154.5110188629
 20
61.6667290935
 30
0.0
 40
0.6666666667
  1
40
  7
TEXTSTYLE_2
100
AcDbText
  0
TEXT
  5
2DB
330
238
100
AcDbEntity
  8
0
  6
Continuous
 62
     2
100
AcDbText
 10
144.6665744185
 20
60.6667290935
 30
0.0
 40
0.6666666667
  1
 
  7
TEXTSTYLE_2
100
AcDbText
  0
TEXT
  5
2DC
330
238
100
AcDbEntity
  8
0
  6
Continuous
 62
     2
100
AcDbText
 10
144.6665744185
 20
59.6667290935
 30
0.0
 40
0.6666666667
  1
NIVEAU D'EAU              GALLONS(US)        LITRES        GALLONS(UK)
  7
TEXTSTYLE_2
100
AcDbText
  0
TEXT
  5
2DD
330
238
100
AcDbEntity
  8
0
  6
Continuous
 62
     2
100
AcDbText
 10
144.6665744185
 20
58.6667290935
 30
0.0
 40
0.6666666667
  1
PLEIN
  7
TEXTSTYLE_2
100
AcDbText
  0
TEXT
  5
2DE
330
238
100
AcDbEntity
  8
0
  6
Continuous
 62
     2
100
AcDbText
 10
144.6665744185
 20
57.6667290935
 30
0.0
 40
0.6666666667
  1
HAUT T.PLEIN
  7
TEXTSTYLE_2
100
AcDbText
  0
TEXT
  5
2DF
330
238
100
AcDbEntity
  8
0
  6
Continuous
 62
     2
100
AcDbText
 10
144.6665744185
 20
56.6667290935
 30
0.0
 40
0.6666666667
  1
MILIEU T.PLEIN
  7
TEXTSTYLE_2
100
AcDbText
  0
TEXT
  5
2E0
330
238
100
AcDbEntity
  8
0
  6
Continuous
 62
     2
100
AcDbText
 10
144.6665744185
 20
55.6667290935
 30
0.0
 40
0.6666666667
  1
BAS T.PLEIN
  7
TEXTSTYLE_2
100
AcDbText
  0
TEXT
  5
2E1
330
238
100
AcDbEntity
  8
0
  6
Continuous
 62
     2
100
AcDbText
 10
144.6665744185
 20
54.6667290935
 30
0.0
 40
0.6666666667
  1
3" EN BAS T.PLEIN
  7
TEXTSTYLE_2
100
AcDbText
  0
TEXT
  5
2E2
330
238
100
AcDbEntity
  8
0
  6
Continuous
 62
     2
100
AcDbText
 10
144.6665744185
 20
53.6667290935
 30
0.0
 40
0.6666666667
  1
 
  7
TEXTSTYLE_2
100
AcDbText
  0
TEXT
  5
2E3
330
238
100
AcDbEntity
  8
0
  6
Continuous
 62
     2
100
AcDbText
 10
144.4664129129
 20
53.1199421686
 30
0.0
 40
0.5
  1
Legende/Legend
  7
TEXTSTYLE_2
100
AcDbText
  0
TEXT
  5
2E4
330
238
100
AcDbEntity
  8
0
  6
Continuous
 62
     2
100
AcDbText
 10
150.995247857
 20
51.6086771909
 30
0.0
 40
0.6666666667
  1
ZONE DE ROBINETTERIE
  7
TEXTSTYLE_2
100
AcDbText
  0
TEXT
  5
2E5
330
238
100
AcDbEntity
  8
0
  6
Continuous
 62
     2
100
AcDbText
 10
145.91552329
 20
50.1134326765
 30
0.0
 40
0.6666666667
  1
L   :  SYSTEME LED       DC   :  DOUBLE DOSSIER CHAUFFANT
  7
TEXTSTYLE_2
100
AcDbText
  0
TEXT
  5
2E6
330
238
100
AcDbEntity
  8
0
  6
Continuous
 62
     2
100
AcDbText
 10
145.91552329
 20
48.7800993432
 30
0.0
 40
0.6666666667
  1
C   :  CONTROLE
  7
TEXTSTYLE_2
100
AcDbText
  0
TEXT
  5
2E7
330
238
100
AcDbEntity
  8
0
  6
Continuous
 62
     2
100
AcDbText
 10
145.91552329
 20
47.4467660099
 30
0.0
 40
0.6666666667
  1
T   :  MOTEUR
  7
TEXTSTYLE_2
100
AcDbText
  0
TEXT
  5
2E8
330
238
100
AcDbEntity
  8
0
  6
Continuous
 62
     2
100
AcDbText
 10
157.4992711178
 20
58.6667290935
 30
0.0
 40
0.6666666667
  1
73
  7
TEXTSTYLE_2
100
AcDbText
  0
TEXT
  5
2E9
330
238
100
AcDbEntity
  8
0
  6
Continuous
 62
     2
100
AcDbText
 10
157.4992711178
 20
57.6667290935
 30
0.0
 40
0.6666666667
  1
60
  7
TEXTSTYLE_2
100
AcDbText
  0
TEXT
  5
2EA
330
238
100
AcDbEntity
  8
0
  6
Continuous
 62
     2
100
AcDbText
 10
157.4992711178
 20
56.6667290935
 30
0.0
 40
0.6666666667
  1
59
  7
TEXTSTYLE_2
100
AcDbText
  0
TEXT
  5
2EB
330
238
100
AcDbEntity
  8
0
  6
Continuous
 62
     2
100
AcDbText
 10
157.4992711178
 20
55.6667290935
 30
0.0
 40
0.6666666667
  1
58
  7
TEXTSTYLE_2
100
AcDbText
  0
TEXT
  5
2EC
330
238
100
AcDbEntity
  8
0
  6
Continuous
 62
     2
100
AcDbText
 10
157.4992711178
 20
54.6667290935
 30
0.0
 40
0.6666666667
  1
44
  7
TEXTSTYLE_2
100
AcDbText
  0
TEXT
  5
2ED
330
238
100
AcDbEntity
  8
0
  6
Continuous
 62
     2
100
AcDbText
 10
164.4194770615
 20
58.68380849560001
 30
0.0
 40
0.6666666667
  1
276
  7
TEXTSTYLE_2
100
AcDbText
  0
TEXT
  5
2EE
330
238
100
AcDbEntity
  8
0
  6
Continuous
 62
     2
100
AcDbText
 10
164.4194770615
 20
57.6838084956
 30
0.0
 40
0.6666666667
  1
227
  7
TEXTSTYLE_2
100
AcDbText
  0
TEXT
  5
2EF
330
238
100
AcDbEntity
  8
0
  6
Continuous
 62
     2
100
AcDbText
 10
164.4194770615
 20
56.6838084956
 30
0.0
 40
0.6666666667
  1
223
  7
TEXTSTYLE_2
100
AcDbText
  0
TEXT
  5
2F0
330
238
100
AcDbEntity
  8
0
  6
Continuous
 62
     2
100
AcDbText
 10
164.4194770615
 20
55.6838084956
 30
0.0
 40
0.6666666667
  1
219
  7
TEXTSTYLE_2
100
AcDbText
  0
TEXT
  5
2F1
330
238
100
AcDbEntity
  8
0
  6
Continuous
 62
     2
100
AcDbText
 10
164.4194770615
 20
54.6838084956
 30
0.0
 40
0.6666666667
  1
166
  7
TEXTSTYLE_2
100
AcDbText
  0
TEXT
  5
2F2
330
238
100
AcDbEntity
  8
0
  6
Continuous
 62
     2
100
AcDbText
 10
171.364115999
 20
58.6667290935
 30
0.0
 40
0.6666666667
  1
61
  7
TEXTSTYLE_2
100
AcDbText
  0
TEXT
  5
2F3
330
238
100
AcDbEntity
  8
0
  6
Continuous
 62
     2
100
AcDbText
 10
171.364115999
 20
57.6667290935
 30
0.0
 40
0.6666666667
  1
50
  7
TEXTSTYLE_2
100
AcDbText
  0
TEXT
  5
2F4
330
238
100
AcDbEntity
  8
0
  6
Continuous
 62
     2
100
AcDbText
 10
171.364115999
 20
56.6667290935
 30
0.0
 40
0.6666666667
  1
49
  7
TEXTSTYLE_2
100
AcDbText
  0
TEXT
  5
2F5
330
238
100
AcDbEntity
  8
0
  6
Continuous
 62
     2
100
AcDbText
 10
171.364115999
 20
55.6667290935
 30
0.0
 40
0.6666666667
  1
48
  7
TEXTSTYLE_2
100
AcDbText
  0
TEXT
  5
2F6
330
238
100
AcDbEntity
  8
0
  6
Continuous
 62
     2
100
AcDbText
 10
171.364115999
 20
54.6667290935
 30
0.0
 40
0.6666666667
  1
36
  7
TEXTSTYLE_2
100
AcDbText
  0
LINE
  5
2F7
330
238
100
AcDbEntity
  8
0
  6
Continuous
 62
     7
100
AcDbLine
 10
143.9999077518
 20
64.00006242679999
 30
0.0
 11
143.9999077518
 21
46.6667290935
 31
0.0
  0
LINE
  5
2F8
330
238
100
AcDbEntity
  8
0
  6
Continuous
 62
     7
100
AcDbLine
 10
143.9999077518
 20
64.00006242679999
 30
0.0
 11
177.3332410852
 21
64.00006242679999
 31
0.0
  0
LINE
  5
2F9
330
238
100
AcDbEntity
  8
0
  6
Continuous
 62
     7
100
AcDbLine
 10
177.3332410852
 20
64.00006242679999
 30
0.0
 11
177.3332410852
 21
46.6667290935
 31
0.0
  0
LINE
  5
2FA
330
238
100
AcDbEntity
  8
0
  6
Continuous
 62
     7
100
AcDbLine
 10
143.9999077518
 20
46.6667290935
 30
0.0
 11
177.3332410852
 21
46.6667290935
 31
0.0
  0
LINE
  5
2FB
330
238
100
AcDbEntity
  8
0
  6
Continuous
 62
     7
100
AcDbLine
 10
145.3332410852
 20
54.00006242679999
 30
0.0
 11
175.9999077518
 21
54.00006242679999
 31
0.0
  0
LINE
  5
2FC
330
238
100
AcDbEntity
  8
0
  6
Continuous
 62
     7
100
AcDbLine
 10
145.3332410852
 20
61.0000624268
 30
0.0
 11
175.9999077518
 21
61.0000624268
 31
0.0
  0
LINE
  5
2FD
330
238
100
AcDbEntity
  8
0
  6
Continuous
 62
     7
100
AcDbLine
 10
144.8088143111
 20
52.3782269312
 30
0.0
 11
144.4397935688
 21
52.0092061888
 31
0.0
  0
LINE
  5
2FE
330
238
100
AcDbEntity
  8
0
  6
Continuous
 62
     7
100
AcDbLine
 10
145.4754809778
 20
52.3782269312
 30
0.0
 11
144.6774651873
 21
51.58021114069999
 31
0.0
  0
LINE
  5
2FF
330
238
100
AcDbEntity
  8
0
  6
Continuous
 62
     7
100
AcDbLine
 10
146.1421476444
 20
52.3782269312
 30
0.0
 11
145.344131854
 21
51.58021114069999
 31
0.0
  0
LINE
  5
300
330
238
100
AcDbEntity
  8
0
  6
Continuous
 62
     7
100
AcDbLine
 10
146.8088143111
 20
52.3782269312
 30
0.0
 11
146.0107985207
 21
51.58021114069999
 31
0.0
  0
LINE
  5
301
330
238
100
AcDbEntity
  8
0
  6
Continuous
 62
     7
100
AcDbLine
 10
147.4754809778
 20
52.3782269312
 30
0.0
 11
146.6774651873
 21
51.58021114069999
 31
0.0
  0
LINE
  5
302
330
238
100
AcDbEntity
  8
0
  6
Continuous
 62
     7
100
AcDbLine
 10
148.1421476444
 20
52.3782269312
 30
0.0
 11
147.344131854
 21
51.58021114069999
 31
0.0
  0
LINE
  5
303
330
238
100
AcDbEntity
  8
0
  6
Continuous
 62
     7
100
AcDbLine
 10
148.8088143111
 20
52.3782269312
 30
0.0
 11
148.0107985207
 21
51.58021114069999
 31
0.0
  0
LINE
  5
304
330
238
100
AcDbEntity
  8
0
  6
Continuous
 62
     7
100
AcDbLine
 10
149.4754809778
 20
52.3782269312
 30
0.0
 11
148.6774651873
 21
51.58021114069999
 31
0.0
  0
LINE
  5
305
330
238
100
AcDbEntity
  8
0
  6
Continuous
 62
     7
100
AcDbLine
 10
150.1421476444
 20
52.3782269312
 30
0.0
 11
149.344131854
 21
51.58021114069999
 31
0.0
  0
LINE
  5
306
330
238
100
AcDbEntity
  8
0
  6
Continuous
 62
     7
100
AcDbLine
 10
150.5856350786
 20
52.15504769859999
 30
0.0
 11
150.0107985207
 21
51.58021114069999
 31
0.0
  0
ELLIPSE
  5
307
330
238
100
AcDbEntity
  8
0
  6
Continuous
 62
     7
100
AcDbEllipse
 10
146.145310234
 20
50.4310101337
 30
0.0
 11
1.0473539356
 21
0.0
 31
0.0
210
0.0
220
0.0
230
1.0
 40
0.4938647983
 41
0.0
 42
6.283185307179586
  0
ELLIPSE
  5
308
330
238
100
AcDbEntity
  8
0
  6
Continuous
 62
     7
100
AcDbEllipse
 10
146.145310234
 20
49.0976768004
 30
0.0
 11
1.0473539356
 21
0.0
 31
0.0
210
0.0
220
0.0
230
1.0
 40
0.4938647983
 41
0.0
 42
6.283185307179586
  0
ELLIPSE
  5
309
330
238
100
AcDbEntity
  8
0
  6
Continuous
 62
     7
100
AcDbEllipse
 10
146.145310234
 20
47.7643434671
 30
0.0
 11
1.0473539356
 21
0.0
 31
0.0
210
0.0
220
0.0
230
1.0
 40
0.4938647983
 41
0.0
 42
6.283185307179586
  0
ELLIPSE
  5
30A
330
238
100
AcDbEntity
  8
0
  6
Continuous
 62
     7
100
AcDbEllipse
 10
157.1639458151
 20
50.4505314908
 30
0.0
 11
1.0473539356
 21
0.0
 31
0.0
210
0.0
220
0.0
230
1.0
 40
0.4938647983
 41
0.0
 42
6.283185307179586
  0
ENDBLK
  5
30B
330
238
100
AcDbEntity
  8
0
  6
ByBlock
 62
     0
100
AcDbBlockEnd
  0
ENDSEC
  0
SECTION
  2
ENTITIES
  0
LINE
  5
14B6
330
220
100
AcDbEntity
  8
0
  6
Continuous
 62
     7
100
AcDbLine
 10
27.1353472076
 20
21.7566169029
 30
0.0
 11
24.2536714927
 21
42.26080503459999
 31
0.0
  0
LINE
  5
14B7
330
220
100
AcDbEntity
  8
DEFAULT_2
  6
HIDDEN
 62
     8
100
AcDbLine
 10
33.34710004250001
 20
27.0674190186
 30
0.0
 11
25.6902249289
 21
42.0948825559
 31
0.0
  0
LINE
  5
14B8
330
220
100
AcDbEntity
  8
0
  6
Continuous
 62
     7
100
AcDbLine
 10
78.63116388999999
 20
21.4323056804
 30
0.0
 11
78.66286499479999
 21
21.4333912227
 31
0.0
  0
LINE
  5
14B9
330
220
100
AcDbEntity
  8
0
  6
Continuous
 62
     7
100
AcDbLine
 10
78.66286499479999
 20
21.4333912227
 30
0.0
 11
78.67844073970001
 21
21.4338140732
 31
0.0
  0
LINE
  5
14BA
330
220
100
AcDbEntity
  8
0
  6
Continuous
 62
     7
100
AcDbLine
 10
30.9013330883
 20
21.4544068014
 30
0.0
 11
31.0349246446
 21
21.4550644481
 31
0.0
  0
LINE
  5
14BB
330
220
100
AcDbEntity
  8
0
  6
Continuous
 62
     7
100
AcDbLine
 10
78.67848637659999
 20
21.4338146223
 30
0.0
 11
78.68929964260001
 21
21.4338572334
 31
0.0
  0
LINE
  5
14BC
330
220
100
AcDbEntity
  8
0
  6
Continuous
 62
     7
100
AcDbLine
 10
78.68130527649999
 20
21.4338375612
 30
0.0
 11
78.6901291062
 21
21.4338586488
 31
0.0
  0
LWPOLYLINE
  5
14BD
330
220
100
AcDbEntity
  8
0
  6
Continuous
 62
     7
100
AcDbPolyline
 90
        3
 70
     0
 43
0.0
 10
31.0344771534
 20
21.4550622451
 10
31.1646960064
 20
21.4553062057
 10
31.2732044289
 20
21.4553638744
  0
LINE
  5
14BE
330
220
100
AcDbEntity
  8
0
  6
Continuous
 62
     7
100
AcDbLine
 10
31.1643637031
 20
21.4553055867
 30
0.0
 11
31.2731147754
 21
21.4553638369
 31
0.0
  0
LINE
  5
14BF
330
220
100
AcDbEntity
  8
0
  6
Continuous
 62
     7
100
AcDbLine
 10
31.2732030604
 20
21.4553638552
 30
0.0
 11
53.2386220609
 21
21.4553294628
 31
0.0
  0
LINE
  5
14C0
330
220
100
AcDbEntity
  8
0
  6
Continuous
 62
     7
100
AcDbLine
 10
78.690129106
 20
21.4338577202
 30
0.0
 11
78.970482629
 21
21.4338068211
 31
0.0
  0
LINE
  5
14C1
330
220
100
AcDbEntity
  8
0
  6
Continuous
 62
     7
100
AcDbLine
 10
53.2386220609
 20
21.4553294628
 30
0.0
 11
75.2065546688
 21
21.4553625378
 31
0.0
  0
LWPOLYLINE
  5
14C2
330
220
100
AcDbEntity
  8
0
  6
Continuous
 62
     7
100
AcDbPolyline
 90
        4
 70
     0
 43
0.0
 10
75.20412934640001
 20
21.4553638369
 10
75.3136316512
 20
21.4553051863
 10
75.4433860279
 20
21.4550610923
 10
75.5758986847
 20
21.4544068871
  0
LINE
  5
14C3
330
220
100
AcDbEntity
  8
0
  6
Continuous
 62
     7
100
AcDbLine
 10
75.3128762004
 20
21.4553055909
 30
0.0
 11
75.36826196479999
 21
21.4552024157
 31
0.0
  0
LINE
  5
14C4
330
220
100
AcDbEntity
  8
0
  6
Continuous
 62
     7
100
AcDbLine
 10
27.5067614912
 20
21.4338068211
 30
0.0
 11
27.7935871584
 21
21.4338448638
 31
0.0
  0
LINE
  5
14C5
330
220
100
AcDbEntity
  8
0
  6
Continuous
 62
     7
100
AcDbLine
 10
27.7916311832
 20
21.4338509377
 30
0.0
 11
27.79875774340001
 21
21.4338146223
 31
0.0
  0
LWPOLYLINE
  5
14C6
330
220
100
AcDbEntity
  8
0
  6
Continuous
 62
     7
100
AcDbPolyline
 90
        4
 70
     0
 43
0.0
 10
27.7988118912
 20
21.4338139714
 10
27.8143294648
 20
21.4333925772
 10
27.8459818476
 20
21.4323088474
 10
27.8717359931
 20
21.4316040468
  0
LWPOLYLINE
  5
14C7
330
220
100
AcDbEntity
  8
0
  6
Continuous
 62
     7
100
AcDbPolyline
 90
       24
 70
     0
 43
0.0
 10
27.7988029221
 20
21.4338140787
 10
27.8143780154
 20
21.4333912731
 10
27.8460809062
 20
21.4323056801
 10
27.8911392947
 20
21.431073455
 10
27.9482053772
 20
21.4300292026
 10
28.0169741096
 20
21.4292652241
 10
28.0969982889
 20
21.4287804176
 10
28.1875997006
 20
21.4285427763
 10
28.2881059618
 20
21.4285158017
 10
28.3983945713
 20
21.4286701718
 10
28.5188844237
 20
21.4289889339
 10
28.6499596202
 20
21.4294683175
 10
28.790504471
 20
21.4301111765
 10
28.9387986995
 20
21.4309260283
 10
29.0937597709
 20
21.4319324241
 10
29.2559323266
 20
21.4331709876
 10
29.4262513445
 20
21.434698696
 10
29.6056444575
 20
21.4365832135
 10
29.7948523279
 20
21.4388931671
 10
29.9945728971
 20
21.441679736
 10
30.2054282205
 20
21.4449318646
 10
30.427916758
 20
21.4484930525
 10
30.6625666774
 20
21.4519408125
 10
30.9013337245
 20
21.4544068058
  0
LWPOLYLINE
  5
14C8
330
220
100
AcDbEntity
  8
0
  6
Continuous
 62
     7
100
AcDbPolyline
 90
       24
 70
     0
 43
0.0
 10
75.5758980965
 20
21.4544068912
 10
75.8152288883
 20
21.4519335386
 10
76.0496252192
 20
21.4484895204
 10
76.2718020148
 20
21.4449326048
 10
76.4823376289
 20
21.4416849209
 10
76.68177890699999
 20
21.438901244
 10
76.8707897581
 20
21.4365923834
 10
77.0501032251
 20
21.4347073154
 10
77.22048458679999
 20
21.4331778217
 10
77.3828201675
 20
21.4319371034
 10
77.5379542381
 20
21.4309289664
 10
77.68636396169999
 20
21.430113062
 10
77.8269809339
 20
21.4294695533
 10
77.95811952130001
 20
21.4289896803
 10
78.0786799534
 20
21.4286705118
 10
78.1890368654
 20
21.4285158655
 10
78.28960187199999
 20
21.4285427181
 10
78.3802500662
 20
21.4287804296
 10
78.4603094062
 20
21.4292655293
 10
78.5291024784
 20
21.43003008
 10
78.5861859875
 20
21.4310752706
 10
78.6312619005
 20
21.4323088348
 10
78.66291455779999
 20
21.4333925743
 10
78.678432238
 20
21.4338139715
  0
LINE
  5
14C9
330
220
100
AcDbEntity
  8
DEFAULT_2
  6
HIDDEN
 62
     8
100
AcDbLine
 10
72.6208744803
 20
24.867887306
 30
0.0
 11
70.07798126149999
 21
24.867887306
 31
0.0
  0
LINE
  5
14CA
330
220
100
AcDbEntity
  8
DEFAULT_2
  6
HIDDEN
 62
     8
100
AcDbLine
 10
69.90120456619999
 20
24.9411106107
 30
0.0
 11
69.4990622201
 21
25.3432529568
 31
0.0
  0
LINE
  5
14CB
330
220
100
AcDbEntity
  8
6_SURFACES
  6
HIDDEN
 62
     8
100
AcDbLine
 10
69.90120456619999
 20
24.9411106107
 30
0.0
 11
69.4990622201
 21
25.3432529568
 31
0.0
  0
LINE
  5
14CC
330
220
100
AcDbEntity
  8
0
  6
Continuous
 62
     9
100
AcDbLine
 10
81.6490896036
 20
42.26072219159999
 30
0.0
 11
82.2235726291
 21
42.26080503459999
 31
0.0
  0
LINE
  5
14CD
330
220
100
AcDbEntity
  8
0
  6
Continuous
 62
     7
100
AcDbLine
 10
82.22105445649999
 20
42.242887306
 30
0.0
 11
24.2561896652
 21
42.242887306
 31
0.0
  0
LINE
  5
14CE
330
220
100
AcDbEntity
  8
0
  6
Continuous
 62
     9
100
AcDbLine
 10
28.2157477399
 20
42.2607704573
 30
0.0
 11
78.2614963818
 21
42.2607704573
 31
0.0
  0
LINE
  5
14CF
330
220
100
AcDbEntity
  8
0
  6
Continuous
 62
     7
100
AcDbLine
 10
24.3467566912
 20
42.36788730599999
 30
0.0
 11
82.13048743059999
 21
42.36788730599999
 31
0.0
  0
LINE
  5
14D0
330
220
100
AcDbEntity
  8
0
  6
Continuous
 62
     9
100
AcDbLine
 10
24.2536714927
 20
42.26080503459999
 30
0.0
 11
24.8281545182
 21
42.26072219159999
 31
0.0
  0
LINE
  5
14D1
330
220
100
AcDbEntity
  8
DEFAULT_1
  6
CENTER
 62
     7
100
AcDbLine
 10
78.88736678489999
 20
40.2807679861
 30
0.0
 11
81.2607614829
 21
39.3771745409
 31
0.0
  0
LINE
  5
14D2
330
220
100
AcDbEntity
  8
DEFAULT_1
  6
CENTER
 62
     7
100
AcDbLine
 10
71.3494278709
 20
23.3049366956
 30
0.0
 11
71.3494278709
 21
26.2674617865
 31
0.0
  0
LINE
  5
14D3
330
220
100
AcDbEntity
  8
DEFAULT_2
  6
HIDDEN
 62
     8
100
AcDbLine
 10
72.79765117560001
 20
24.9411106107
 30
0.0
 11
73.16990749529999
 21
25.3133669304
 31
0.0
  0
LINE
  5
14D4
330
220
100
AcDbEntity
  8
6_SURFACES
  6
HIDDEN
 62
     8
100
AcDbLine
 10
72.79765117560001
 20
24.9411106107
 30
0.0
 11
73.16990749529999
 21
25.3133669304
 31
0.0
  0
LINE
  5
14D5
330
220
100
AcDbEntity
  8
DEFAULT_2
  6
HIDDEN
 62
     8
100
AcDbLine
 10
79.60289895649999
 20
38.9182795716
 30
0.0
 11
79.6115537805
 21
38.9399754481
 31
0.0
  0
LINE
  5
14D6
330
220
100
AcDbEntity
  8
DEFAULT_2
  6
HIDDEN
 62
     8
100
AcDbLine
 10
79.6115537805
 20
38.9399754481
 30
0.0
 11
79.6200155388
 21
38.9610926457
 31
0.0
  0
LINE
  5
14D7
330
220
100
AcDbEntity
  8
DEFAULT_2
  6
HIDDEN
 62
     8
100
AcDbLine
 10
79.6200155388
 20
38.9610926457
 30
0.0
 11
79.63033090589999
 21
38.9867307239
 31
0.0
  0
LINE
  5
14D8
330
220
100
AcDbEntity
  8
DEFAULT_2
  6
HIDDEN
 62
     8
100
AcDbLine
 10
79.6917971532
 20
39.1385993026
 30
0.0
 11
79.716777365
 21
39.2008520162
 31
0.0
  0
LINE
  5
14D9
330
220
100
AcDbEntity
  8
DEFAULT_2
  6
HIDDEN
 62
     8
100
AcDbLine
 10
79.63033090589999
 20
38.9867307239
 30
0.0
 11
79.64229540009999
 21
39.0163570176
 31
0.0
  0
LINE
  5
14DA
330
220
100
AcDbEntity
  8
DEFAULT_2
  6
HIDDEN
 62
     8
100
AcDbLine
 10
79.67479638819999
 20
39.0965683323
 30
0.0
 11
79.6917971532
 21
39.1385993026
 31
0.0
  0
LWPOLYLINE
  5
14DB
330
220
100
AcDbEntity
  8
DEFAULT_2
  6
HIDDEN
 62
     8
100
AcDbPolyline
 90
       10
 70
     0
 43
0.0
 10
79.64229540009999
 20
39.0163570176
 10
79.6574247993
 20
39.0537140702
 10
79.6592424448
 20
39.0581979231
 10
79.6610427021
 20
39.0626385133
 10
79.662825266
 20
39.0670352498
 10
79.66458989109999
 20
39.0713876809
 10
79.66633647790001
 20
39.07569570750001
 10
79.6680649524
 20
39.07995928590001
 10
79.6697752447
 20
39.0841783749
 10
79.67479638819999
 20
39.0965683323
  0
LINE
  5
14DC
330
220
100
AcDbEntity
  8
0
  6
Continuous
 62
     6
100
AcDbLine
 10
82.01099494300001
 20
40.1649530704
 30
0.0
 11
82.0257522151
 21
40.1905967678
 31
0.0
  0
LINE
  5
14DD
330
220
100
AcDbEntity
  8
DEFAULT_2
  6
HIDDEN
 62
     8
100
AcDbLine
 10
80.3353775389
 20
40.8243179932
 30
0.0
 11
80.32612655980001
 21
40.79980579269999
 31
0.0
  0
LINE
  5
14DE
330
220
100
AcDbEntity
  8
DEFAULT_2
  6
HIDDEN
 62
     8
100
AcDbLine
 10
79.77022555569999
 20
39.33830609000001
 30
0.0
 11
79.77136061770001
 21
39.3412873451
 31
0.0
  0
LINE
  5
14DF
330
220
100
AcDbEntity
  8
DEFAULT_2
  6
HIDDEN
 62
     8
100
AcDbLine
 10
79.77043566359999
 20
39.338857919
 30
0.0
 11
79.7716157361
 21
39.3419574422
 31
0.0
  0
LINE
  5
14E0
330
220
100
AcDbEntity
  8
DEFAULT_2
  6
HIDDEN
 62
     8
100
AcDbLine
 10
80.17667865369999
 20
40.4059029928
 30
0.0
 11
79.7716157361
 21
39.3419574422
 31
0.0
  0
LINE
  5
14E1
330
220
100
AcDbEntity
  8
DEFAULT_2
  6
HIDDEN
 62
     8
100
AcDbLine
 10
79.3216593531
 20
38.1881190779
 30
0.0
 11
79.5415911987
 21
38.7610451666
 31
0.0
  0
LINE
  5
14E2
330
220
100
AcDbEntity
  8
DEFAULT_2
  6
HIDDEN
 62
     8
100
AcDbLine
 10
80.62378651520001
 20
41.5802844459
 30
0.0
 11
80.582568796
 21
41.4728956354
 31
0.0
  0
LINE
  5
14E3
330
220
100
AcDbEntity
  8
DEFAULT_2
  6
HIDDEN
 62
     8
100
AcDbLine
 10
79.7510662095
 20
39.2882415921
 30
0.0
 11
79.7701073425
 21
39.3379956202
 31
0.0
  0
LINE
  5
14E4
330
220
100
AcDbEntity
  8
DEFAULT_2
  6
HIDDEN
 62
     8
100
AcDbLine
 10
79.58436279609999
 20
38.8714162944
 30
0.0
 11
79.5415911987
 21
38.7610451666
 31
0.0
  0
LINE
  5
14E5
330
220
100
AcDbEntity
  8
DEFAULT_2
  6
HIDDEN
 62
     8
100
AcDbLine
 10
79.73841486409999
 20
39.2556578823
 30
0.0
 11
79.7510662095
 21
39.2882415921
 31
0.0
  0
LINE
  5
14E6
330
220
100
AcDbEntity
  8
DEFAULT_2
  6
HIDDEN
 62
     8
100
AcDbLine
 10
79.58436279609999
 20
38.8714162944
 30
0.0
 11
79.59404329909999
 21
38.89596323860001
 31
0.0
  0
LINE
  5
14E7
330
220
100
AcDbEntity
  8
DEFAULT_2
  6
HIDDEN
 62
     8
100
AcDbLine
 10
79.7247435874
 20
39.2209098602
 30
0.0
 11
79.73841486409999
 21
39.2556578823
 31
0.0
  0
LINE
  5
14E8
330
220
100
AcDbEntity
  8
DEFAULT_2
  6
HIDDEN
 62
     8
100
AcDbLine
 10
79.59404329909999
 20
38.89596323860001
 30
0.0
 11
79.60289895649999
 21
38.9182795716
 31
0.0
  0
LINE
  5
14E9
330
220
100
AcDbEntity
  8
DEFAULT_2
  6
HIDDEN
 62
     8
100
AcDbLine
 10
79.716777365
 20
39.2008520162
 30
0.0
 11
79.7247435874
 21
39.2209098602
 31
0.0
  0
LINE
  5
14EA
330
220
100
AcDbEntity
  8
0
  6
Continuous
 62
    40
100
AcDbLine
 10
82.04586028760001
 20
40.32671977529999
 30
0.0
 11
82.05180264170001
 21
40.3732244564
 31
0.0
  0
LINE
  5
14EB
330
220
100
AcDbEntity
  8
0
  6
Continuous
 62
    40
100
AcDbLine
 10
82.05278955359998
 20
40.3760278794
 30
0.0
 11
82.0468471995
 21
40.3295231982
 31
0.0
  0
LINE
  5
14EC
330
220
100
AcDbEntity
  8
0
  6
Continuous
 62
    40
100
AcDbLine
 10
82.047142058
 20
40.32671977529999
 30
0.0
 11
82.0530844121
 21
40.3732244564
 31
0.0
  0
LINE
  5
14ED
330
220
100
AcDbEntity
  8
0
  6
Continuous
 62
    40
100
AcDbLine
 10
82.0540713241
 20
40.3760278794
 30
0.0
 11
82.04812896989999
 21
40.3295231982
 31
0.0
  0
LINE
  5
14EE
330
220
100
AcDbEntity
  8
0
  6
Continuous
 62
    40
100
AcDbLine
 10
82.0484238284
 20
40.32671977529999
 30
0.0
 11
82.0543661826
 21
40.3732244564
 31
0.0
  0
LINE
  5
14EF
330
220
100
AcDbEntity
  8
0
  6
Continuous
 62
    40
100
AcDbLine
 10
82.05535309449999
 20
40.3760278794
 30
0.0
 11
82.0494107404
 21
40.3295231982
 31
0.0
  0
LINE
  5
14F0
330
220
100
AcDbEntity
  8
0
  6
Continuous
 62
     7
100
AcDbLine
 10
82.2235726291
 20
42.26080503459999
 30
0.0
 11
82.0604333708
 21
41.1000088955
 31
0.0
  0
LINE
  5
14F1
330
220
100
AcDbEntity
  8
0
  6
Continuous
 62
     7
100
AcDbLine
 10
81.8537096866
 20
39.6290934524
 30
0.0
 11
79.34189691410001
 21
21.7566169029
 31
0.0
  0
LINE
  5
14F2
330
220
100
AcDbEntity
  8
0
  6
Continuous
 62
    40
100
AcDbLine
 10
82.030405283
 20
40.353504969
 30
0.0
 11
82.03031719470001
 21
40.3528779538
 31
0.0
  0
LINE
  5
14F3
330
220
100
AcDbEntity
  8
0
  6
Continuous
 62
    40
100
AcDbLine
 10
82.03920581890001
 20
40.3543318119
 30
0.0
 11
82.0389319829
 21
40.3523852323
 31
0.0
  0
LINE
  5
14F4
330
220
100
AcDbEntity
  8
0
  6
Continuous
 62
     6
100
AcDbLine
 10
82.0639443637
 20
40.5414893073
 30
0.0
 11
82.07105701039999
 21
40.51277020989999
 31
0.0
  0
ARC
  5
2561
330
220
100
AcDbEntity
  8
DEFAULT_2
  6
HIDDEN
 62
     8
100
AcDbCircle
 10
-39.9639648995
 20
86.21291905399999
 30
0.0
 40
128.577046752
100
AcDbArc
 50
339.1292383011
 51
339.3169759314
  0
ARC
  5
2562
330
220
100
AcDbEntity
  8
DEFAULT_2
  6
HIDDEN
 62
     8
100
AcDbCircle
 10
72.0490406628
 20
55.4750275849
 30
0.0
 40
30.116176242
100
AcDbArc
 50
272.4491668364
 51
275.2441675053
  0
ARC
  5
2563
330
220
100
AcDbEntity
  8
0
  6
Continuous
 62
     7
100
AcDbCircle
 10
55.5582298489
 20
44.0764168396
 30
0.0
 40
26.7568126084
100
AcDbArc
 50
351.7674945372001
 51
351.9432292322
  0
ARC
  5
2564
330
220
100
AcDbEntity
  8
0
  6
Continuous
 62
     7
100
AcDbCircle
 10
55.55976411909999
 20
44.076958898
 30
0.0
 40
26.7553687683
100
AcDbArc
 50
352.0483694676999
 51
352.2241423597
  0
ARC
  5
2565
330
220
100
AcDbEntity
  8
0
  6
Continuous
 62
     7
100
AcDbCircle
 10
56.6811407101
 20
43.9142187689
 30
0.0
 40
25.6222479589
100
AcDbArc
 50
351.6415585302
 51
351.7669054102
  0
ARC
  5
2566
330
220
100
AcDbEntity
  8
0
  6
Continuous
 62
     7
100
AcDbCircle
 10
56.6879005585
 20
43.92263634819999
 30
0.0
 40
25.6167260676
100
AcDbArc
 50
352.2247436462
 51
352.3493145036
  0
ARC
  5
2567
330
220
100
AcDbEntity
  8
0
  6
Continuous
 62
     7
100
AcDbCircle
 10
57.38395291319999
 20
43.823848054
 30
0.0
 40
24.9131299141
100
AcDbArc
 50
352.1897447333
 51
352.3613927662
  0
ARC
  5
2568
330
220
100
AcDbEntity
  8
0
  6
Continuous
 62
     7
100
AcDbCircle
 10
57.3898323464
 20
43.8154033368
 30
0.0
 40
24.9061317315
100
AcDbArc
 50
351.629451859
 51
351.799762714
  0
ARC
  5
2569
330
220
100
AcDbEntity
  8
0
  6
Continuous
 62
     7
100
AcDbCircle
 10
94.848216674
 20
38.5571426916
 30
0.0
 40
12.94791388
100
AcDbArc
 50
171.1598142107
 51
172.0221446667
  0
ARC
  5
256A
330
220
100
AcDbEntity
  8
0
  6
Continuous
 62
     6
100
AcDbCircle
 10
76.20511534080001
 20
41.17339496129999
 30
0.0
 40
5.9068303261
100
AcDbArc
 50
352.0191152601
 51
352.2111780439
  0
ARC
  5
256B
330
220
100
AcDbEntity
  8
0
  6
Continuous
 62
     6
100
AcDbCircle
 10
76.2189024162
 20
41.1713995263
 30
0.0
 40
5.892899718499999
100
AcDbArc
 50
351.783127253
 51
352.0010698617
  0
ARC
  5
256C
330
220
100
AcDbEntity
  8
DEFAULT_2
  6
HIDDEN
 62
     8
100
AcDbCircle
 10
81.26976164069999
 20
41.867887306
 30
0.0
 40
0.5
100
AcDbArc
 50
90.0
 51
158.9996771503
  0
ARC
  5
256D
330
220
100
AcDbEntity
  8
DEFAULT_2
  6
HIDDEN
 62
     8
100
AcDbCircle
 10
25.2447216668
 20
41.867887306
 30
0.0
 40
0.5
100
AcDbArc
 50
27.0
 51
90.0
  0
ARC
  5
256E
330
220
100
AcDbEntity
  8
0
  6
Continuous
 62
     9
100
AcDbCircle
 10
82.4665782503
 20
40.4546385058
 30
0.0
 40
0.4158990915
100
AcDbArc
 50
167.9205301753
 51
168.7300191821
  0
ARC
  5
256F
330
220
100
AcDbEntity
  8
0
  6
Continuous
 62
     7
100
AcDbCircle
 10
78.9705463884
 20
21.8088068157
 30
0.0
 40
0.375
100
AcDbArc
 50
269.99025853
 51
352.0
  0
ARC
  5
2570
330
220
100
AcDbEntity
  8
0
  6
Continuous
 62
     7
100
AcDbCircle
 10
27.5066977334
 20
21.8088068157
 30
0.0
 40
0.375
100
AcDbArc
 50
188.0
 51
270.00974147
  0
ARC
  5
2571
330
220
100
AcDbEntity
  8
0
  6
Continuous
 62
     9
100
AcDbCircle
 10
82.37455685669999
 20
40.1409453821
 30
0.0
 40
0.3683576662
100
AcDbArc
 50
175.291487017
 51
176.1150965903
  0
ARC
  5
2572
330
220
100
AcDbEntity
  8
0
  6
Continuous
 62
     9
100
AcDbCircle
 10
82.26758470850001
 20
40.1482720417
 30
0.0
 40
0.2611349308
100
AcDbArc
 50
176.1287445837
 51
176.4205043115
  0
ARC
  5
2573
330
220
100
AcDbEntity
  8
DEFAULT_2
  6
HIDDEN
 62
     8
100
AcDbCircle
 10
72.6208744803
 20
25.117887306
 30
0.0
 40
0.25
100
AcDbArc
 50
270.0
 51
315.0
  0
ARC
  5
2574
330
220
100
AcDbEntity
  8
DEFAULT_2
  6
HIDDEN
 62
     8
100
AcDbCircle
 10
73.3466841906
 20
25.1365902351
 30
0.0
 40
0.25
100
AcDbArc
 50
92.45041864559999
 51
134.9999999988
  0
ARC
  5
2575
330
220
100
AcDbEntity
  8
DEFAULT_2
  6
HIDDEN
 62
     8
100
AcDbCircle
 10
69.32228552479999
 20
25.1664762615
 30
0.0
 40
0.25
100
AcDbArc
 50
45.0
 51
88.6283943797
  0
ARC
  5
2576
330
220
100
AcDbEntity
  8
DEFAULT_2
  6
HIDDEN
 62
     8
100
AcDbCircle
 10
70.07798126149999
 20
25.117887306
 30
0.0
 40
0.25
100
AcDbArc
 50
225.0
 51
270.0
  0
ARC
  5
2577
330
220
100
AcDbEntity
  8
0
  6
Continuous
 62
     7
100
AcDbCircle
 10
81.8165150103
 20
39.8129059913
 30
0.0
 40
0.1881199145
100
AcDbArc
 50
273.7556545179
 51
311.816790688
  0
ARC
  5
2578
330
220
100
AcDbEntity
  8
0
  6
Continuous
 62
     7
100
AcDbCircle
 10
81.9740982949
 20
40.9335190285
 30
0.0
 40
0.1881198734
100
AcDbArc
 50
32.1740392325
 51
70.23518439819999
  0
ARC
  5
2579
330
220
100
AcDbEntity
  8
0
  6
Continuous
 62
     9
100
AcDbCircle
 10
82.1904408734
 20
40.1529440539
 30
0.0
 40
0.1838499675
100
AcDbArc
 50
176.3726823005
 51
177.2580279647
  0
ARC
  5
257A
330
220
100
AcDbEntity
  8
0
  6
Continuous
 62
     9
100
AcDbCircle
 10
81.85975774159999
 20
40.1967175994
 30
0.0
 40
0.1538379703
100
AcDbArc
 50
346.6598878476
 51
346.8944763405001
  0
ARC
  5
257B
330
220
100
AcDbEntity
  8
0
  6
Continuous
 62
     9
100
AcDbCircle
 10
81.91101695749999
 20
40.5526092247
 30
0.0
 40
0.1526317762
100
AcDbArc
 50
357.1292729277
 51
357.3295746324
  0
ARC
  5
257C
330
220
100
AcDbEntity
  8
0
  6
Continuous
 62
     9
100
AcDbCircle
 10
82.20267039280001
 20
40.5122333354
 30
0.0
 40
0.1457725266
100
AcDbArc
 50
166.578841509
 51
166.7719513778
  0
ARC
  5
257D
330
220
100
AcDbEntity
  8
0
  6
Continuous
 62
     9
100
AcDbCircle
 10
82.14639038909998
 20
40.1550936479
 30
0.0
 40
0.1397470897
100
AcDbArc
 50
177.2743614389
 51
177.5191820167
  0
ARC
  5
257E
330
220
100
AcDbEntity
  8
0
  6
Continuous
 62
     9
100
AcDbCircle
 10
82.18808491649999
 20
40.51571507219999
 30
0.0
 40
0.1307772404
100
AcDbArc
 50
166.3523410572
 51
166.5793928924
  0
ARC
  5
257F
330
220
100
AcDbEntity
  8
0
  6
Continuous
 62
     9
100
AcDbCircle
 10
81.8827680971
 20
40.1912439144
 30
0.0
 40
0.1301855195
100
AcDbArc
 50
346.352016168
 51
346.56166593
  0
ARC
  5
2580
330
220
100
AcDbEntity
  8
0
  6
Continuous
 62
     9
100
AcDbCircle
 10
81.9393495809
 20
40.5513259881
 30
0.0
 40
0.1242701021
100
AcDbArc
 50
357.3768256421
 51
357.8066662928
  0
ARC
  5
2581
330
220
100
AcDbEntity
  8
0
  6
Continuous
 62
     9
100
AcDbCircle
 10
82.1287134599
 20
40.1558576601
 30
0.0
 40
0.1220536577
100
AcDbArc
 50
177.518314423
 51
177.8071056519
  0
ARC
  5
2582
330
220
100
AcDbEntity
  8
0
  6
Continuous
 62
     7
100
AcDbCircle
 10
82.13048743059999
 20
42.273887306
 30
0.0
 40
0.094
100
AcDbArc
 50
352.0
 51
90.0
  0
ARC
  5
2583
330
220
100
AcDbEntity
  8
0
  6
Continuous
 62
     7
100
AcDbCircle
 10
24.3467566912
 20
42.273887306
 30
0.0
 40
0.094
100
AcDbArc
 50
90.0
 51
188.0
  0
ARC
  5
2584
330
220
100
AcDbEntity
  8
0
  6
Continuous
 62
     6
100
AcDbCircle
 10
82.08760894840001
 20
40.5473786162
 30
0.0
 40
0.0243864005
100
AcDbArc
 50
188.1675163786
 51
193.9750721987
  0
SPLINE
  5
25B3
330
220
100
AcDbEntity
  8
DEFAULT_2
  6
HIDDEN
 62
     8
100
AcDbSpline
210
0.0
220
0.0
230
1.0
 70
     8
 71
     3
 72
    12
 73
     8
 74
     0
 42
0.0000001
 43
0.0000000001
 40
0.0
 40
0.0
 40
0.0
 40
0.0
 40
0.1012159055
 40
0.2093992214
 40
0.4556509112
 40
0.7293981054000001
 40
1.0
 40
1.0
 40
1.0
 40
1.0
 10
79.77170691339999
 20
39.3421969299
 30
0.0
 10
79.7657883884
 20
39.3266512265
 30
0.0
 10
79.753533023
 20
39.2944937498
 30
0.0
 10
79.72641463149999
 20
39.2246922805
 30
0.0
 10
79.6879824328
 20
39.1288721002
 30
0.0
 10
79.6390154124
 20
39.00852265530001
 30
0.0
 10
79.6056855341
 20
38.9255011402
 30
0.0
 10
79.5893694226
 20
38.8841305266
 30
0.0
  0
LINE
  5
25B4
330
220
100
AcDbEntity
  8
DEFAULT_2
  6
HIDDEN
 62
     8
100
AcDbLine
 10
80.62378651520001
 20
41.5802844459
 30
0.0
 11
80.80297243709999
 21
42.0470739111
 31
0.0
  0
SPLINE
  5
25B5
330
220
100
AcDbEntity
  8
DEFAULT_2
  6
HIDDEN
 62
     8
100
AcDbSpline
210
0.0
220
0.0
230
1.0
 70
     8
 71
     3
 72
    16
 73
    12
 74
     0
 42
0.0000001
 43
0.0000000001
 40
0.0
 40
0.0
 40
0.0
 40
0.0
 40
0.2499967375
 40
0.3749958458
 40
0.4999955803000001
 40
0.5624953334000001
 40
0.6249955888000001
 40
0.6874963365000001
 40
0.7499970454000002
 40
0.8749981869999999
 40
1.0
 40
1.0
 40
1.0
 40
1.0
 10
76.1323130854
 20
26.6697344504
 30
0.0
 10
76.2708630881
 20
27.3281315869
 30
0.0
 10
76.47114806479999
 20
28.3172979927
 30
0.0
 10
76.74647763819999
 20
29.6344765236
 30
0.0
 10
76.92678894380001
 20
30.4559748465
 30
0.0
 10
77.0782418606
 20
31.111539265
 30
0.0
 10
77.19599647629999
 20
31.6022361582
 30
0.0
 10
77.3182995067
 20
32.0918232446
 30
0.0
 10
77.4877798893
 20
32.7429710244
 30
0.0
 10
77.7125070182
 20
33.5535045643
 30
0.0
 10
77.906715315
 20
34.19777044
 30
0.0
 10
78.00748082930001
 20
34.5187428237
 30
0.0
  0
LINE
  5
25B6
330
220
100
AcDbEntity
  8
DEFAULT_2
  6
HIDDEN
 62
     8
100
AcDbLine
 10
69.3282697118
 20
25.4164046303
 30
0.0
 11
34.6476158508
 21
26.2488366858
 31
0.0
  0
SPLINE
  5
25B7
330
220
100
AcDbEntity
  8
DEFAULT_2
  6
HIDDEN
 62
     8
100
AcDbSpline
210
0.0
220
0.0
230
1.0
 70
     8
 71
     3
 72
    15
 73
    11
 74
     0
 42
0.0000001
 43
0.0000000001
 40
0.0
 40
0.0
 40
0.0
 40
0.0
 40
0.1249983962
 40
0.2499951741
 40
0.3749956334
 40
0.4999990865
 40
0.6250029652000001
 40
0.7500042918000001
 40
0.8750016549999999
 40
1.0
 40
1.0
 40
1.0
 40
1.0
 10
76.13231308569999
 20
26.6697344519
 30
0.0
 10
76.11554775729999
 20
26.590064701
 30
0.0
 10
76.0813328726
 20
26.4307244283
 30
0.0
 10
75.99935921530001
 20
26.1994794258
 30
0.0
 10
75.8752717778
 20
25.9871422566
 30
0.0
 10
75.7095787363
 20
25.8051630259
 30
0.0
 10
75.5091770067
 20
25.6623512004
 30
0.0
 10
75.28391780319999
 20
25.5637984443
 30
0.0
 10
75.0449320452
 20
25.5084259249
 30
0.0
 10
74.8827399817
 20
25.4923575261
 30
0.0
 10
74.8016666684
 20
25.4849105209
 30
0.0
  0
SPLINE
  5
25B8
330
220
100
AcDbEntity
  8
DEFAULT_2
  6
HIDDEN
 62
     8
100
AcDbSpline
210
0.0
220
0.0
230
1.0
 70
     8
 71
     3
 72
    15
 73
    11
 74
     0
 42
0.0000001
 43
0.0000000001
 40
0.0
 40
0.0
 40
0.0
 40
0.0
 40
0.124999128
 40
0.2499967023
 40
0.3749974201
 40
0.5
 40
0.6250025799
 40
0.7500032977
 40
0.875000872
 40
1.0
 40
1.0
 40
1.0
 40
1.0
 10
33.34710004250001
 20
27.0674190186
 30
0.0
 10
33.3781809058
 20
27.0064193898
 30
0.0
 10
33.4406680355
 20
26.8845024597
 30
0.0
 10
33.5533936733
 20
26.7120648245
 30
0.0
 10
33.69204715369999
 20
26.5591661467
 30
0.0
 10
33.8559213737
 20
26.4334216842
 30
0.0
 10
34.0401702936
 20
26.3400473549
 30
0.0
 10
34.2379952014
 20
26.2811567855
 30
0.0
 10
34.4422240387
 20
26.2540940905
 30
0.0
 10
34.5791740802
 20
26.2504794866
 30
0.0
 10
34.6476158508
 20
26.2488366858
 30
0.0
  0
SPLINE
  5
25B9
330
220
100
AcDbEntity
  8
DEFAULT_2
  6
HIDDEN
 62
     8
100
AcDbSpline
210
0.0
220
0.0
230
1.0
 70
     8
 71
     3
 72
    17
 73
    13
 74
     0
 42
0.0000001
 43
0.0000000001
 40
0.0
 40
0.0
 40
0.0
 40
0.0
 40
0.1250001407
 40
0.2500015523
 40
0.375004423
 40
0.5000073646000001
 40
0.6250075386000001
 40
0.6875066357
 40
0.7500053979000001
 40
0.8125040398000001
 40
0.8750026637999999
 40
1.0
 40
1.0
 40
1.0
 40
1.0
 10
78.0074808295
 20
34.5187428244
 30
0.0
 10
78.0561339783
 20
34.6737196259
 30
0.0
 10
78.1551417717
 20
34.9831437643
 30
0.0
 10
78.30872445199999
 20
35.4456270036
 30
0.0
 10
78.467258227
 20
35.9064404645
 30
0.0
 10
78.6306217707
 20
36.3655620809
 30
0.0
 10
78.7708832233
 20
36.74666742300001
 30
0.0
 10
78.8854062697
 20
37.05067875840001
 30
0.0
 10
78.9722112827
 20
37.2783383529
 30
0.0
 10
79.0595876064
 20
37.505778163
 30
0.0
 10
79.17624620019999
 20
37.808970725
 30
0.0
 10
79.2634963727
 20
38.0364588604
 30
0.0
 10
79.3216669106
 20
38.1881161796
 30
0.0
  0
SPLINE
  5
25BA
330
220
100
AcDbEntity
  8
DEFAULT_2
  6
HIDDEN
 62
     8
100
AcDbSpline
210
0.0
220
0.0
230
1.0
 70
     8
 71
     3
 72
    11
 73
     7
 74
     0
 42
0.0000001
 43
0.0000000001
 40
0.0
 40
0.0
 40
0.0
 40
0.0
 40
0.3386959103
 40
0.6100833908
 40
0.8201826002
 40
1.0
 40
1.0
 40
1.0
 40
1.0
 10
80.5825687966
 20
41.4728956352
 30
0.0
 10
80.55449460590001
 20
41.3997356891
 30
0.0
 10
80.5039512573
 20
41.26794479409999
 30
0.0
 10
80.4362190385
 20
41.0906848228
 30
0.0
 10
80.3819121359
 20
40.94764591839999
 30
0.0
 10
80.35006609140001
 20
40.86324174659999
 30
0.0
 10
80.33537759919999
 20
40.8243179704
 30
0.0
  0
LINE
  5
25BB
330
220
100
AcDbEntity
  8
0
  6
Continuous
 62
     7
100
AcDbLine
 10
82.0547431319
 20
40.3532705283
 30
0.0
 11
82.0574818591
 21
40.37281079689999
 31
0.0
  0
LINE
  5
25BC
330
220
100
AcDbEntity
  8
0
  6
Continuous
 62
     7
100
AcDbLine
 10
82.0574818591
 20
40.37281079689999
 30
0.0
 11
82.05788554660001
 21
40.37569982309999
 31
0.0
  0
SPLINE
  5
25BD
330
220
100
AcDbEntity
  8
0
  6
Continuous
 62
     7
100
AcDbSpline
210
0.0
220
0.0
230
1.0
 70
     8
 71
     3
 72
    26
 73
    22
 74
     0
 42
0.0000001
 43
0.0000000001
 40
0.0
 40
0.0
 40
0.0
 40
0.0
 40
0.2019894667
 40
0.3904592689
 40
0.4780528584000001
 40
0.56043722
 40
0.6370684815
 40
0.7074410706
 40
0.7710911631
 40
0.8275999507999999
 40
0.8765967785999999
 40
0.9177623437999999
 40
0.9353235427999999
 40
0.9508329838999999
 40
0.9642664720999999
 40
0.9756062975
 40
0.9848390484999999
 40
0.9919614668000001
 40
0.9969875673999998
 40
0.9987343018
 40
1.0
 40
1.0
 40
1.0
 40
1.0
 10
82.0765904912
 20
40.5121997306
 30
0.0
 10
82.0812960091
 20
40.54723316039999
 30
0.0
 10
82.0902486592
 20
40.6149745126
 30
0.0
 10
82.10081276709999
 20
40.6979642062
 30
0.0
 10
82.1084612109
 20
40.7602243915
 30
0.0
 10
82.11358535189999
 20
40.8030756482
 30
0.0
 10
82.11820560449998
 20
40.8429517712
 30
0.0
 10
82.1222918349
 20
40.87958904429999
 30
0.0
 10
82.12581764760001
 20
40.9127451594
 30
0.0
 10
82.128761169
 20
40.9422008659
 30
0.0
 10
82.13110383109999
 20
40.9677614034
 30
0.0
 10
82.1326184227
 20
40.9865527065
 30
0.0
 10
82.133494859
 20
40.9995146032
 30
0.0
 10
82.13395817629999
 20
41.0076397339
 30
0.0
 10
82.1342638696
 20
41.0146830029
 30
0.0
 10
82.13441164329999
 20
41.02063221329999
 30
0.0
 10
82.13440656059999
 20
41.0254808141
 30
0.0
 10
82.13424569270001
 20
41.029217763
 30
0.0
 10
82.1339833122
 20
41.031643809
 30
0.0
 10
82.13364857349999
 20
41.03301051829999
 30
0.0
 10
82.13344851169999
 20
41.03350462729999
 30
0.0
 10
82.13333051460001
 20
41.0336920768
 30
0.0
  0
LINE
  5
25BE
330
220
100
AcDbEntity
  8
0
  6
Continuous
 62
     7
100
AcDbLine
 10
82.0547431319
 20
40.3532705283
 30
0.0
 11
82.05447657810001
 21
40.3513742399
 31
0.0
  0
LINE
  5
25BF
330
220
100
AcDbEntity
  8
0
  6
Continuous
 62
     7
100
AcDbLine
 10
82.05447657810001
 20
40.3513742399
 30
0.0
 11
82.0544198147
 21
40.3509705458
 31
0.0
  0
LINE
  5
25C0
330
220
100
AcDbEntity
  8
0
  6
Continuous
 62
     7
100
AcDbLine
 10
82.0544198147
 20
40.3509705458
 30
0.0
 11
82.05135311259999
 21
40.3292257109
 31
0.0
  0
LINE
  5
25C1
330
220
100
AcDbEntity
  8
0
  6
Continuous
 62
     7
100
AcDbLine
 10
82.05135311259999
 20
40.3292257109
 30
0.0
 11
82.05094428390001
 21
40.3263364637
 31
0.0
  0
SPLINE
  5
25C2
330
220
100
AcDbEntity
  8
0
  6
Continuous
 62
     7
100
AcDbSpline
210
0.0
220
0.0
230
1.0
 70
     8
 71
     3
 72
    26
 73
    22
 74
     0
 42
0.0000001
 43
0.0000000001
 40
0.0
 40
0.0
 40
0.0
 40
0.0
 40
0.201988761
 40
0.3904583199
 40
0.4780519304000001
 40
0.5604363693
 40
0.6370677264
 40
0.7074404171
 40
0.7710906113
 40
0.827599499
 40
0.8765964278
 40
0.9177620999999998
 40
0.9353234243999999
 40
0.9508328604999999
 40
0.9642663926999999
 40
0.9756062876999999
 40
0.9848389783
 40
0.9919615006
 40
0.9969874872
 40
0.9987342578999999
 40
1.0
 40
1.0
 40
1.0
 40
1.0
 10
82.03122996060001
 20
40.189629468
 30
0.0
 10
82.0260910118
 20
40.1546563948
 30
0.0
 10
82.01601384040001
 20
40.08707195489999
 30
0.0
 10
82.0032802332
 20
40.0043858056
 30
0.0
 10
81.99346108209999
 20
39.9424296212
 30
0.0
 10
81.98656837779999
 20
39.8998261528
 30
0.0
 10
81.9800118454
 20
39.8602214499
 30
0.0
 10
81.9738352531
 20
39.8238773266
 30
0.0
 10
81.96808005719999
 20
39.7910339814
 30
0.0
 10
81.96278569989999
 20
39.7619082001
 30
0.0
 10
81.9579880504
 20
39.7366923127
 30
0.0
 10
81.95426135119999
 20
39.71821163980001
 30
0.0
 10
81.9515289775
 20
39.70551042469999
 30
0.0
 10
81.9497334495
 20
39.6975724384
 30
0.0
 10
81.94808478330001
 20
39.6907178597
 30
0.0
 10
81.94658607479999
 20
39.6849584884
 30
0.0
 10
81.9452439381
 20
39.6802992234
 30
0.0
 10
81.9440587128
 20
39.67675149340001
 30
0.0
 10
81.94313737619999
 20
39.67449186039999
 30
0.0
 10
81.9424386939
 20
39.6732704489
 30
0.0
 10
81.94211011829999
 20
39.6728506479
 30
0.0
 10
81.94194499529999
 20
39.6727029982
 30
0.0
  0
SPLINE
  5
25C3
330
220
100
AcDbEntity
  8
0
  6
Continuous
 62
     7
100
AcDbSpline
210
0.0
220
0.0
230
1.0
 70
     8
 71
     3
 72
    33
 73
    29
 74
     0
 42
0.0000001
 43
0.0000000001
 40
0.0
 40
0.0
 40
0.0
 40
0.0
 40
0.0003126653
 40
0.0006645219
 40
0.0011067114
 40
0.0016661314
 40
0.0031821201
 40
0.0052625667
 40
0.0079232689
 40
0.0111708381
 40
0.01500766
 40
0.0194337335
 40
0.024448107
 40
0.0300491923
 40
0.0429998708
 40
0.0582590509
 40
0.0757923921
 40
0.1175134218
 40
0.1677692601
 40
0.2260795988
 40
0.291884641
 40
0.3645513335
 40
0.4433798676
 40
0.5276106177000001
 40
0.6164316692
 40
0.7089864143000001
 40
0.8043829582999999
 40
1.0
 40
1.0
 40
1.0
 40
1.0
 10
81.82883712659998
 20
39.6251910826
 30
0.0
 10
81.82875928119999
 20
39.6251859889
 30
0.0
 10
81.8285884554
 20
39.6252172281
 30
0.0
 10
81.8283647382
 20
39.6253905649
 30
0.0
 10
81.8281681542
 20
39.6256683333
 30
0.0
 10
81.8279026024
 20
39.6262399369
 30
0.0
 10
81.8276397602
 20
39.62724886690001
 30
0.0
 10
81.82739983260001
 20
39.6287916768
 30
0.0
 10
81.82722009290001
 20
39.6307781698
 30
0.0
 10
81.82710039179999
 20
39.6332069308
 30
0.0
 10
81.82704294549999
 20
39.63607865050001
 30
0.0
 10
81.8270481232
 20
39.63939156929999
 30
0.0
 10
81.8271164116
 20
39.6431440418
 30
0.0
 10
81.8273014146
 20
39.6490211494
 30
0.0
 10
81.8277067514
 20
39.657447962
 30
0.0
 10
81.8284212646
 20
39.6688390162
 30
0.0
 10
81.829790172
 20
39.6873804168
 30
0.0
 10
81.8321610083
 20
39.7146018102
 30
0.0
 10
81.83581717930001
 20
39.7519210745
 30
0.0
 10
81.84040430279999
 20
39.79518559400001
 30
0.0
 10
81.84587955140001
 20
39.8439778502
 30
0.0
 10
81.8521925291
 20
39.8978269294
 30
0.0
 10
81.85928327
 20
39.9562130789
 30
0.0
 10
81.8670841325
 20
40.0185727764
 30
0.0
 10
81.87552031850001
 20
40.08430409909999
 30
0.0
 10
81.8845106868
 20
40.1527727787
 30
0.0
 10
81.89722815399999
 20
40.2476266377
 30
0.0
 10
81.90715657430001
 20
40.3195546379
 30
0.0
 10
81.9139487624
 20
40.367887306
 30
0.0
  0
SPLINE
  5
25C4
330
220
100
AcDbEntity
  8
0
  6
Continuous
 62
     7
100
AcDbSpline
210
0.0
220
0.0
230
1.0
 70
     8
 71
     3
 72
    32
 73
    28
 74
     0
 42
0.0000001
 43
0.0000000001
 40
0.0
 40
0.0
 40
0.0
 40
0.0
 40
0.0006915548
 40
0.0011793202
 40
0.0017902022
 40
0.0034154159
 40
0.0056059362
 40
0.0083746456
 40
0.0117270418
 40
0.0156650746
 40
0.0201884065
 40
0.0309853742
 40
0.0441006446
 40
0.0595062652
 40
0.077168344
 40
0.0970456953
 40
0.1190922267
 40
0.16947853
 40
0.2278490649
 40
0.2936471827
 40
0.366244127
 40
0.4449454401
 40
0.5289977986
 40
0.6175964168000001
 40
0.7098926209
 40
0.8050026596999998
 40
1.0
 40
1.0
 40
1.0
 40
1.0
 10
81.94451599409999
 20
39.6947498111
 30
0.0
 10
81.9443645165
 20
39.6947711204
 30
0.0
 10
81.9441400366
 20
39.6949600553
 30
0.0
 10
81.9439457578
 20
39.69530011630001
 30
0.0
 10
81.9437183277
 20
39.6958621154
 30
0.0
 10
81.94349728569999
 20
39.6968186497
 30
0.0
 10
81.9432947399
 20
39.6982618138
 30
0.0
 10
81.94314670119998
 20
39.7000951393
 30
0.0
 10
81.94305149020001
 20
39.7023184448
 30
0.0
 10
81.94301134499999
 20
39.7049315554
 30
0.0
 10
81.943033158
 20
39.7091915758
 30
0.0
 10
81.9432197202
 20
39.71547945840001
 30
0.0
 10
81.9436495072
 20
39.7241660801
 30
0.0
 10
81.94430026810001
 20
39.7343611079
 30
0.0
 10
81.9451710408
 20
39.7460400821
 30
0.0
 10
81.946260592
 20
39.759175274
 30
0.0
 10
81.94808560309999
 20
39.7795123159
 30
0.0
 10
81.95091762109999
 20
39.8083070615
 30
0.0
 10
81.95499616739999
 20
39.84670215980001
 30
0.0
 10
81.9598566284
 20
39.8899539088
 30
0.0
 10
81.9654533279
 20
39.9376476623
 30
0.0
 10
81.9717338188
 20
39.9893261729
 30
0.0
 10
81.97863846209999
 20
40.0444939982
 30
0.0
 10
81.98610152589999
 20
40.1026222146
 30
0.0
 10
81.99405169010001
 20
40.1631536217
 30
0.0
 10
82.005293791
 20
40.24698943349999
 30
0.0
 10
82.01406879449999
 20
40.3105575937
 30
0.0
 10
82.0200712417
 20
40.3532705283
 30
0.0
  0
SPLINE
  5
25C5
330
220
100
AcDbEntity
  8
0
  6
Continuous
 62
     7
100
AcDbSpline
210
0.0
220
0.0
230
1.0
 70
     8
 71
     3
 72
    33
 73
    29
 74
     0
 42
0.0000001
 43
0.0000000001
 40
0.0
 40
0.0
 40
0.0
 40
0.0
 40
0.0003118667
 40
0.0006632932
 40
0.0011055476
 40
0.0016654765
 40
0.0031837231
 40
0.0052679269
 40
0.0079336665
 40
0.0111874033
 40
0.015031621
 40
0.0194662617
 40
0.0244902407
 40
0.0301019135
 40
0.0430768948
 40
0.0583638734
 40
0.075928323
 40
0.1177190925
 40
0.1680511073
 40
0.2264388953
 40
0.2923167719
 40
0.365045184
 40
0.4439173339
 40
0.5281662474000001
 40
0.6169724364000001
 40
0.7094716423000001
 40
0.8047643974999999
 40
1.0
 40
1.0
 40
1.0
 40
1.0
 10
82.03771260759999
 20
41.1105555415
 30
0.0
 10
82.0376388474
 20
41.1105820211
 30
0.0
 10
82.03746502639999
 20
41.1105989528
 30
0.0
 10
82.03720088199998
 20
41.110492575
 30
0.0
 10
82.0369340064
 20
41.11027751469999
 30
0.0
 10
82.0365188178
 20
41.1097964038
 30
0.0
 10
82.03598491619999
 20
41.1088903356
 30
0.0
 10
82.03532486790001
 20
41.10745998819999
 30
0.0
 10
82.0345997327
 20
41.10558252949999
 30
0.0
 10
82.0338097421
 20
41.1032593997
 30
0.0
 10
82.0329568987
 20
41.1004893124
 30
0.0
 10
82.0320420304
 20
41.097273885
 30
0.0
 10
82.031066071
 20
41.09361463019999
 30
0.0
 10
82.02961292659999
 20
41.0878620676
 30
0.0
 10
82.02766472049999
 20
41.07957534199999
 30
0.0
 10
82.0251921458
 20
41.06832791739999
 30
0.0
 10
82.0213667183
 20
41.0499649579
 30
0.0
 10
82.01609972840001
 20
41.0229084553
 30
0.0
 10
82.00927188060001
 20
40.98570754839999
 30
0.0
 10
82.0016944147
 20
40.9424916826
 30
0.0
 10
81.9934425189
 20
40.8936812974
 30
0.0
 10
81.9845989222
 20
40.8397510917
 30
0.0
 10
81.97525069479999
 20
40.7812260694
 30
0.0
 10
81.96548965099999
 20
40.7186760115
 30
0.0
 10
81.9554113473
 20
40.6527100306
 30
0.0
 10
81.9451141699
 20
40.5839703743
 30
0.0
 10
81.9311140954
 20
40.4887426607
 30
0.0
 10
81.9207762002
 20
40.4164708085
 30
0.0
 10
81.9139487624
 20
40.367887306
 30
0.0
  0
SPLINE
  5
25C6
330
220
100
AcDbEntity
  8
0
  6
Continuous
 62
     7
100
AcDbSpline
210
0.0
220
0.0
230
1.0
 70
     8
 71
     3
 72
    10
 73
     6
 74
     0
 42
0.0000001
 43
0.0000000001
 40
0.0
 40
0.0
 40
0.0
 40
0.0
 40
0.3752519926
 40
0.6505219603
 40
1.0
 40
1.0
 40
1.0
 40
1.0
 10
82.12972158280001
 20
41.01179124549999
 30
0.0
 10
82.1295516338
 20
41.0118151532
 30
0.0
 10
82.1292499051
 20
41.0116589696
 30
0.0
 10
82.12894341489999
 20
41.0113296045
 30
0.0
 10
82.1287742528
 20
41.0110958238
 30
0.0
 10
82.12868671749999
 20
41.0109620902
 30
0.0
  0
SPLINE
  5
25C7
330
220
100
AcDbEntity
  8
0
  6
Continuous
 62
     7
100
AcDbSpline
210
0.0
220
0.0
230
1.0
 70
     8
 71
     3
 72
    26
 73
    22
 74
     0
 42
0.0000001
 43
0.0000000001
 40
0.0
 40
0.0
 40
0.0
 40
0.0
 40
0.0016690785
 40
0.003870286
 40
0.0099025675
 40
0.0181264552
 40
0.0285367831
 40
0.0411177132
 40
0.0558438854
 40
0.0726852755
 40
0.0916047129
 40
0.1355081584
 40
0.1871649112
 40
0.2461132634
 40
0.3118246899
 40
0.383709108
 40
0.4611204471
 40
0.5433626095000001
 40
0.6296958254
 40
0.8114984479
 40
1.0
 40
1.0
 40
1.0
 40
1.0
 10
82.12868671749999
 20
41.0109620902
 30
0.0
 10
82.12848381409999
 20
41.0106521012
 30
0.0
 10
82.12807862220001
 20
41.0098915121
 30
0.0
 10
82.1272082067
 20
41.0078724311
 30
0.0
 10
82.1260388023
 20
41.0044065206
 30
0.0
 10
82.1245257174
 20
40.9991446314
 30
0.0
 10
82.1228105463
 20
40.99243015409999
 30
0.0
 10
82.12089608140001
 20
40.9842795595
 30
0.0
 10
82.11879015760001
 20
40.97470842599999
 30
0.0
 10
82.1164980026
 20
40.9637384507
 30
0.0
 10
82.1130258458
 20
40.94639919929999
 30
0.0
 10
82.1082945702
 20
40.9214315303
 30
0.0
 10
82.10221463180001
 20
40.8876777286
 30
0.0
 10
82.0955427598
 20
40.8491128418
 30
0.0
 10
82.0883400001
 20
40.80608385829999
 30
0.0
 10
82.08067262710001
 20
40.7589778647
 30
0.0
 10
82.0726103387
 20
40.7082188976
 30
0.0
 10
82.06422616160001
 20
40.6542639369
 30
0.0
 10
82.05251638760001
 20
40.57737596569999
 30
0.0
 10
82.0376762132
 20
40.47710656999999
 30
0.0
 10
82.0260406723
 20
40.3957364036
 30
0.0
 10
82.02021614960001
 20
40.3543015323
 30
0.0
  0
LINE
  5
25C8
330
220
100
AcDbEntity
  8
0
  6
Continuous
 62
     7
100
AcDbLine
 10
82.02021614960001
 20
40.3543015323
 30
0.0
 11
82.0200712417
 21
40.3532705283
 31
0.0
  0
SPLINE
  5
25C9
330
220
100
AcDbEntity
  8
0
  6
Continuous
 62
     7
100
AcDbSpline
210
0.0
220
0.0
230
1.0
 70
     8
 71
     3
 72
    29
 73
    25
 74
     0
 42
0.0000001
 43
0.0000000001
 40
0.0
 40
0.0
 40
0.0
 40
0.0
 40
0.2066320641
 40
0.3048602221
 40
0.398793636
 40
0.4877908683
 40
0.5712443468
 40
0.6485846497
 40
0.7192844340000001
 40
0.782862166
 40
0.8388856627999999
 40
0.8869755209999999
 40
0.9268087161
 40
0.9435446479999999
 40
0.9581239298999999
 40
0.9705241110999999
 40
0.9807297715999998
 40
0.9850071398
 40
0.9887337148
 40
0.9919110733
 40
0.9945430421999999
 40
0.9966373078
 40
0.9982106118999999
 40
1.0
 40
1.0
 40
1.0
 40
1.0
 10
82.07600863999999
 20
40.5122885875
 30
0.0
 10
82.0806134306
 20
40.5466300877
 30
0.0
 10
82.08729832800001
 20
40.5973114906
 30
0.0
 10
82.0957924616
 20
40.6636411133
 30
0.0
 10
82.10165467320001
 20
40.7104210754
 30
0.0
 10
82.10707702310001
 20
40.7547591148
 30
0.0
 10
82.11202265149999
 20
40.7963521107
 30
0.0
 10
82.11645811149999
 20
40.83491570169999
 30
0.0
 10
82.12035366169999
 20
40.87018625329999
 30
0.0
 10
82.1236833526
 20
40.90192263889999
 30
0.0
 10
82.12642620329999
 20
40.9299079399
 30
0.0
 10
82.1285643905
 20
40.9539508793
 30
0.0
 10
82.1299048246
 20
40.9714500879
 30
0.0
 10
82.13063705139999
 20
40.98335825929999
 30
0.0
 10
82.1309952872
 20
40.9906801225
 30
0.0
 10
82.13119562680001
 20
40.9969126098
 30
0.0
 10
82.1312360335
 20
41.0014209256
 30
0.0
 10
82.13117541669999
 20
41.00447429239999
 30
0.0
 10
82.1310935175
 20
41.0063469573
 30
0.0
 10
82.13097145129999
 20
41.0079437807
 30
0.0
 10
82.1308150774
 20
41.00925437589999
 30
0.0
 10
82.1306115303
 20
41.010308741
 30
0.0
 10
82.1303671963
 20
41.011144528
 30
0.0
 10
82.1300187085
 20
41.011749447
 30
0.0
 10
82.12972158280001
 20
41.01179124549999
 30
0.0
  0
SPLINE
  5
25CA
330
220
100
AcDbEntity
  8
0
  6
Continuous
 62
     7
100
AcDbSpline
210
0.0
220
0.0
230
1.0
 70
     8
 71
     3
 72
    29
 73
    25
 74
     0
 42
0.0000001
 43
0.0000000001
 40
0.0
 40
0.0
 40
0.0
 40
0.0
 40
0.2066319684
 40
0.3048602585
 40
0.398793878
 40
0.4877913878000001
 40
0.5712451383000001
 40
0.6485856739
 40
0.7192856359000001
 40
0.7828634834999999
 40
0.8388870337
 40
0.8869768881999998
 40
0.9268100322
 40
0.9435458831999998
 40
0.9581251138999999
 40
0.9705250601999999
 40
0.9807306671999999
 40
0.9850078914
 40
0.9887342923
 40
0.9919115804999998
 40
0.9945435042999999
 40
0.9966376711
 40
0.9982107717999999
 40
1.0
 40
1.0
 40
1.0
 40
1.0
 10
82.030646369
 20
40.1897058688
 30
0.0
 10
82.0256013973
 20
40.15542545119999
 30
0.0
 10
82.0180493984
 20
40.104864747
 30
0.0
 10
82.0079207747
 20
40.03876332159999
 30
0.0
 10
82.00065397180001
 20
39.9921796387
 30
0.0
 10
81.9936378286
 20
39.9480645206
 30
0.0
 10
81.98692051450001
 20
39.9067195239
 30
0.0
 10
81.9805483088
 20
39.8684272339
 30
0.0
 10
81.97456533430001
 20
39.83344927880001
 30
0.0
 10
81.9690131501
 20
39.8020245998
 30
0.0
 10
81.9639314155
 20
39.77436749440001
 30
0.0
 10
81.9593557487
 20
39.7506667396
 30
0.0
 10
81.9558180027
 20
39.7334761234
 30
0.0
 10
81.953237606
 20
39.7218275915
 30
0.0
 10
81.9515626279
 20
39.714690777
 30
0.0
 10
81.95003629090001
 20
39.70864466510001
 30
0.0
 10
81.9488317791
 20
39.7043000122
 30
0.0
 10
81.9479314067
 20
39.7013817734
 30
0.0
 10
81.9473362079
 20
39.6996043476
 30
0.0
 10
81.94677848560001
 20
39.698103129
 30
0.0
 10
81.94626672449999
 20
39.6968864939
 30
0.0
 10
81.9457802978
 20
39.6959291878
 30
0.0
 10
81.94531492039999
 20
39.6951932674
 30
0.0
 10
81.9448131004
 20
39.6947080153
 30
0.0
 10
81.94451599409999
 20
39.6947498111
 30
0.0
  0
SPLINE
  5
25CB
330
220
100
AcDbEntity
  8
0
  6
Continuous
 62
     7
100
AcDbSpline
210
0.0
220
0.0
230
1.0
 70
     8
 71
     3
 72
    18
 73
    14
 74
     0
 42
0.0000001
 43
0.0000000001
 40
0.0
 40
0.0
 40
0.0
 40
0.0
 40
0.1870819788
 40
0.3630515034
 40
0.5241204423000001
 40
0.6668221571000001
 40
0.7880884587
 40
0.8398508588
 40
0.8853187472
 40
0.9242505101999999
 40
0.9564420991
 40
0.9817301593999999
 40
1.0
 40
1.0
 40
1.0
 40
1.0
 10
82.0710547978
 20
40.5129536509
 30
0.0
 10
82.07515916270001
 20
40.5435627844
 30
0.0
 10
82.0830097684
 20
40.602978325
 30
0.0
 10
82.0939726855
 20
40.688801906
 30
0.0
 10
82.1036161441
 20
40.76740746849999
 30
0.0
 10
82.1117344207
 20
40.83710083519999
 30
0.0
 10
82.11735710840001
 20
40.8889177506
 30
0.0
 10
82.12091942939999
 20
40.92481056739999
 30
0.0
 10
82.12297115030001
 20
40.9471944143
 30
0.0
 10
82.12453825289999
 20
40.9663773268
 30
0.0
 10
82.1256190106
 20
40.9822572794
 30
0.0
 10
82.12620688740001
 20
40.99474783239999
 30
0.0
 10
82.12631199369999
 20
41.00194219819999
 30
0.0
 10
82.1262241988
 20
41.00495686539999
 30
0.0
  0
SPLINE
  5
25CC
330
220
100
AcDbEntity
  8
0
  6
Continuous
 62
     7
100
AcDbSpline
210
0.0
220
0.0
230
1.0
 70
     8
 71
     3
 72
    18
 73
    14
 74
     0
 42
0.0000001
 43
0.0000000001
 40
0.0
 40
0.0
 40
0.0
 40
0.0
 40
0.1868986663
 40
0.3627164659000001
 40
0.5236781286
 40
0.6663286481
 40
0.7876086298000001
 40
0.8394044339
 40
0.8849242484000001
 40
0.9239266227999999
 40
0.9562076547
 40
0.9816038806999999
 40
1.0
 40
1.0
 40
1.0
 40
1.0
 10
82.02570108229998
 20
40.1904318194
 30
0.0
 10
82.0212102786
 20
40.15991668689999
 30
0.0
 10
82.0123810451
 20
40.1007122751
 30
0.0
 10
81.9992651183
 20
40.01529067489999
 30
0.0
 10
81.98686889079999
 20
39.9371472368
 30
0.0
 10
81.97546089959999
 20
39.86796124219999
 30
0.0
 10
81.96658031149999
 20
39.8166184335
 30
0.0
 10
81.9601077553
 20
39.781128871
 30
0.0
 10
81.9559058929
 20
39.7590279131
 30
0.0
 10
81.95211953419999
 20
39.7401272596
 30
0.0
 10
81.9487749524
 20
39.7245254585
 30
0.0
 10
81.94588981629999
 20
39.7123072595
 30
0.0
 10
81.94400312499999
 20
39.7053261323
 30
0.0
 10
81.94308631990001
 20
39.7024319689
 30
0.0
  0
SPLINE
  5
25CD
330
220
100
AcDbEntity
  8
0
  6
Continuous
 62
     7
100
AcDbSpline
210
0.0
220
0.0
230
1.0
 70
     8
 71
     3
 72
    35
 73
    31
 74
     0
 42
0.0000001
 43
0.0000000001
 40
0.0
 40
0.0
 40
0.0
 40
0.0
 40
0.0007711713
 40
0.0010886668
 40
0.0014487324
 40
0.0019037497
 40
0.0024807304
 40
0.0040458539
 40
0.006194351
 40
0.0089420916
 40
0.0122949694
 40
0.016255141
 40
0.0208230187
 40
0.0259974077
 40
0.0381557454
 40
0.0527066524
 40
0.0696165306
 40
0.0888460625
 40
0.1103481328
 40
0.134070754
 40
0.1599551552
 40
0.1879377395
 40
0.2179491119
 40
0.2837558324
 40
0.3567224236
 40
0.4361239895000001
 40
0.5211711655000001
 40
0.6110182036000001
 40
0.801497685
 40
1.0
 40
1.0
 40
1.0
 40
1.0
 10
81.94194499529999
 20
39.6727029982
 30
0.0
 10
81.94181341430001
 20
39.6725853413
 30
0.0
 10
81.94158043939999
 20
39.6724275153
 30
0.0
 10
81.94123975850001
 20
39.6724921716
 30
0.0
 10
81.94103247619999
 20
39.6726590584
 30
0.0
 10
81.9408506447
 20
39.6729233074
 30
0.0
 10
81.9406050279
 20
39.6734669084
 30
0.0
 10
81.9403629534
 20
39.6744239402
 30
0.0
 10
81.94014331019999
 20
39.67588666800001
 30
0.0
 10
81.9399807353
 20
39.6777690314
 30
0.0
 10
81.93987490979999
 20
39.680069637
 30
0.0
 10
81.93982798010001
 20
39.6827889775
 30
0.0
 10
81.9398402866
 20
39.6859254458
 30
0.0
 10
81.9399423549
 20
39.6909373934
 30
0.0
 10
81.9402373474
 20
39.698229882
 30
0.0
 10
81.9408094379
 20
39.708197685
 30
0.0
 10
81.9416185146
 20
39.7197721403
 30
0.0
 10
81.9426631702
 20
39.7329243614
 30
0.0
 10
81.94394156020001
 20
39.7476218422
 30
0.0
 10
81.9454509166
 20
39.7638278752
 30
0.0
 10
81.94718773460001
 20
39.7815022122
 30
0.0
 10
81.9491478547
 20
39.8006007722
 30
0.0
 10
81.9521463491
 20
39.8287783421
 30
0.0
 10
81.9564269473
 20
39.8671736619
 30
0.0
 10
81.9622150938
 20
39.9167750714
 30
0.0
 10
81.9687454954
 20
39.9707231516
 30
0.0
 10
81.97595354270001
 20
40.02848072659999
 30
0.0
 10
81.9865822456
 20
40.1114326956
 30
0.0
 10
82.00100138419999
 20
40.2200792829
 30
0.0
 10
82.0131715964
 20
40.3082776428
 30
0.0
 10
82.019494445
 20
40.3532705283
 30
0.0
  0
SPLINE
  5
25CE
330
220
100
AcDbEntity
  8
0
  6
Continuous
 62
     7
100
AcDbSpline
210
0.0
220
0.0
230
1.0
 70
     8
 71
     3
 72
    35
 73
    31
 74
     0
 42
0.0000001
 43
0.0000000001
 40
0.0
 40
0.0
 40
0.0
 40
0.0
 40
0.0007689854
 40
0.0010858904
 40
0.0014461007
 40
0.001901925
 40
0.0024802072
 40
0.0040490103
 40
0.0062022351
 40
0.0089557169
 40
0.012315325
 40
0.016283066
 40
0.0208592447
 40
0.0260427972
 40
0.0382217163
 40
0.0527958337
 40
0.0697313415
 40
0.0889885128
 40
0.1105197944
 40
0.1342728428
 40
0.1601882598
 40
0.1882020896
 40
0.2182441937
 40
0.284108799
 40
0.3571240669
 40
0.4365595908000001
 40
0.5216202048
 40
0.6114541786
 40
0.8018039320999999
 40
1.0
 40
1.0
 40
1.0
 40
1.0
 10
82.13333051460001
 20
41.0336920768
 30
0.0
 10
82.133236231
 20
41.0338418551
 30
0.0
 10
82.1330549366
 20
41.0340585864
 30
0.0
 10
82.13270811140001
 20
41.0340889391
 30
0.0
 10
82.1324619527
 20
41.0339838747
 30
0.0
 10
82.1322132993
 20
41.03377768409999
 30
0.0
 10
82.1318255713
 20
41.0333183151
 30
0.0
 10
82.13132664879999
 20
41.03245767349999
 30
0.0
 10
82.1307090728
 20
41.0311010921
 30
0.0
 10
82.13003023449999
 20
41.0293224986
 30
0.0
 10
82.12929019470001
 20
41.0271233258
 30
0.0
 10
82.128490892
 20
41.0245025634
 30
0.0
 10
82.1276330931
 20
41.0214616874
 30
0.0
 10
82.12634196659999
 20
41.016580163
 30
0.0
 10
82.124604726
 20
41.00943751269999
 30
0.0
 10
82.12239317279999
 20
40.9996284941
 30
0.0
 10
82.11996498720001
 20
40.9881993078
 30
0.0
 10
82.11732685200001
 20
40.97517849659999
 30
0.0
 10
82.1144860403
 20
40.96059825909999
 30
0.0
 10
82.11145011979999
 20
40.9444951586
 30
0.0
 10
82.10822689609999
 20
40.9269093733
 30
0.0
 10
82.104824655
 20
40.90788504979999
 30
0.0
 10
82.0999085801
 20
40.8797914327
 30
0.0
 10
82.09339880420001
 20
40.84146248199999
 30
0.0
 10
82.0852396737
 20
40.79188366959999
 30
0.0
 10
82.07659451880001
 20
40.73790796179999
 30
0.0
 10
82.0675504153
 20
40.6800764053
 30
0.0
 10
82.0548344496
 20
40.59698222669999
 30
0.0
 10
82.03867034639999
 20
40.4880749911
 30
0.0
 10
82.02600037180001
 20
40.3995524198
 30
0.0
 10
82.01965059229999
 20
40.3543814931
 30
0.0
  0
LINE
  5
25CF
330
220
100
AcDbEntity
  8
0
  6
Continuous
 62
     7
100
AcDbLine
 10
82.01965059229999
 20
40.3543814931
 30
0.0
 11
82.019494445
 21
40.3532705283
 31
0.0
  0
SPLINE
  5
25D0
330
220
100
AcDbEntity
  8
0
  6
Continuous
 62
    40
100
AcDbSpline
210
0.0
220
0.0
230
1.0
 70
     8
 71
     3
 72
    12
 73
     8
 74
     0
 42
0.0000001
 43
0.0000000001
 40
0.0
 40
0.0
 40
0.0
 40
0.0
 40
0.1138249509
 40
0.2719586158
 40
0.4736488813000001
 40
0.7766479667000001
 40
1.0
 40
1.0
 40
1.0
 40
1.0
 10
82.066859474
 20
40.4572131632
 30
0.0
 10
82.06641539960001
 20
40.45427576679999
 30
0.0
 10
82.0653545416
 20
40.44729862519999
 30
0.0
 10
82.0634962173
 20
40.4349905294
 30
0.0
 10
82.0608093559
 20
40.41652142
 30
0.0
 10
82.05800456029999
 20
40.3960667734
 30
0.0
 10
82.0560762923
 20
40.3816877155
 30
0.0
 10
82.05535309449999
 20
40.3760278794
 30
0.0
  0
SPLINE
  5
25D1
330
220
100
AcDbEntity
  8
0
  6
Continuous
 62
    40
100
AcDbSpline
210
0.0
220
0.0
230
1.0
 70
     8
 71
     3
 72
    12
 73
     8
 74
     0
 42
0.0000001
 43
0.0000000001
 40
0.0
 40
0.0
 40
0.0
 40
0.0
 40
0.183280726
 40
0.3698978289
 40
0.5702935269000001
 40
0.8291169523
 40
1.0
 40
1.0
 40
1.0
 40
1.0
 10
82.0543661826
 20
40.3732244564
 30
0.0
 10
82.0550349117
 20
40.37845801409999
 30
0.0
 10
82.0565398265
 20
40.3897818306
 30
0.0
 10
82.05913566280001
 20
40.40797107969999
 30
0.0
 10
82.06200872889999
 20
40.4271485732
 30
0.0
 10
82.06468739079999
 20
40.4443049208
 30
0.0
 10
82.0662796671
 20
40.453868215
 30
0.0
 10
82.066859474
 20
40.4572131632
 30
0.0
  0
SPLINE
  5
25D2
330
220
100
AcDbEntity
  8
0
  6
Continuous
 62
    40
100
AcDbSpline
210
0.0
220
0.0
230
1.0
 70
     8
 71
     3
 72
    12
 73
     8
 74
     0
 42
0.0000001
 43
0.0000000001
 40
0.0
 40
0.0
 40
0.0
 40
0.0
 40
0.1138249509
 40
0.2719586158
 40
0.4736488813000001
 40
0.7766479667000001
 40
1.0
 40
1.0
 40
1.0
 40
1.0
 10
82.03691744889999
 20
40.2455344915
 30
0.0
 10
82.0373615233
 20
40.2484718879
 30
0.0
 10
82.03842238129999
 20
40.2554490295
 30
0.0
 10
82.04028070559999
 20
40.2677571253
 30
0.0
 10
82.04296756700001
 20
40.28622623469999
 30
0.0
 10
82.0457723626
 20
40.3066808813
 30
0.0
 10
82.04770063069998
 20
40.3210599392
 30
0.0
 10
82.0484238284
 20
40.32671977529999
 30
0.0
  0
SPLINE
  5
25D3
330
220
100
AcDbEntity
  8
0
  6
Continuous
 62
    40
100
AcDbSpline
210
0.0
220
0.0
230
1.0
 70
     8
 71
     3
 72
    12
 73
     8
 74
     0
 42
0.0000001
 43
0.0000000001
 40
0.0
 40
0.0
 40
0.0
 40
0.0
 40
0.183280726
 40
0.3698978289
 40
0.5702935269000001
 40
0.8291169523
 40
1.0
 40
1.0
 40
1.0
 40
1.0
 10
82.0494107404
 20
40.3295231982
 30
0.0
 10
82.0487420112
 20
40.3242896406
 30
0.0
 10
82.04723709639999
 20
40.31296582409999
 30
0.0
 10
82.04464126020001
 20
40.294776575
 30
0.0
 10
82.041768194
 20
40.27559908149999
 30
0.0
 10
82.0390895322
 20
40.25844273389999
 30
0.0
 10
82.03749725580001
 20
40.24887943969999
 30
0.0
 10
82.03691744889999
 20
40.2455344915
 30
0.0
  0
SPLINE
  5
25D4
330
220
100
AcDbEntity
  8
0
  6
Continuous
 62
    40
100
AcDbSpline
210
0.0
220
0.0
230
1.0
 70
     8
 71
     3
 72
    47
 73
    43
 74
     0
 42
0.0000001
 43
0.0000000001
 40
0.0
 40
0.0
 40
0.0
 40
0.0
 40
0.0625
 40
0.125
 40
0.140625
 40
0.15625
 40
0.1640625
 40
0.171875
 40
0.1875
 40
0.21875
 40
0.25
 40
0.28125
 40
0.3125
 40
0.328125
 40
0.3359375
 40
0.34375
 40
0.359375
 40
0.375
 40
0.4375
 40
0.46875
 40
0.484375
 40
0.5
 40
0.515625
 40
0.53125
 40
0.5625
 40
0.625
 40
0.640625
 40
0.65625
 40
0.6640625
 40
0.671875
 40
0.6875
 40
0.71875
 40
0.75
 40
0.78125
 40
0.8125
 40
0.828125
 40
0.8359375
 40
0.84375
 40
0.859375
 40
0.875
 40
0.9375
 40
1.0
 40
1.0
 40
1.0
 40
1.0
 10
82.0679911428
 20
40.5251494202
 30
0.0
 10
82.06796268519999
 20
40.5251972338
 30
0.0
 10
82.0679058428
 20
40.5252933786
 30
0.0
 10
82.06784156759999
 20
40.5253992124
 30
0.0
 10
82.06779919510001
 20
40.5254731648
 30
0.0
 10
82.06778083489998
 20
40.5254989644
 30
0.0
 10
82.06776779109999
 20
40.5255312978
 30
0.0
 10
82.0677487336
 20
40.5255208675
 30
0.0
 10
82.06771258699999
 20
40.5254827331
 30
0.0
 10
82.0676624206
 20
40.5254387192
 30
0.0
 10
82.0676015487
 20
40.52538111959999
 30
0.0
 10
82.0675410109
 20
40.5253259098
 30
0.0
 10
82.06749000909999
 20
40.5252759215
 30
0.0
 10
82.06745532440001
 20
40.5252482423
 30
0.0
 10
82.0674339281
 20
40.52522108379999
 30
0.0
 10
82.06740659839999
 20
40.525151239
 30
0.0
 10
82.0673744613
 20
40.52507850189999
 30
0.0
 10
82.0672956916
 20
40.5248921308
 30
0.0
 10
82.067204036
 20
40.52467641349999
 30
0.0
 10
82.06711308900001
 20
40.5244658759
 30
0.0
 10
82.0670597383
 20
40.5243355126
 30
0.0
 10
82.0670236658
 20
40.5242664285
 30
0.0
 10
82.06697252159999
 20
40.5240876192
 30
0.0
 10
82.06690958359999
 20
40.5238874583
 30
0.0
 10
82.06679702370001
 20
40.52351957399999
 30
0.0
 10
82.0666851818
 20
40.52315689599999
 30
0.0
 10
82.06658950620001
 20
40.5228474461
 30
0.0
 10
82.0665489846
 20
40.5227136678
 30
0.0
 10
82.0665181246
 20
40.5226181216
 30
0.0
 10
82.06648156109999
 20
40.52248054239999
 30
0.0
 10
82.0664149223
 20
40.52222023179999
 30
0.0
 10
82.0663211243
 20
40.5218586665
 30
0.0
 10
82.06620790850001
 20
40.52141999399999
 30
0.0
 10
82.0660950849
 20
40.5209840064
 30
0.0
 10
82.06600030670001
 20
40.520615729
 30
0.0
 10
82.06593538319999
 20
40.52036716429999
 30
0.0
 10
82.06589607519999
 20
40.5202107918
 30
0.0
 10
82.0658484517
 20
40.52000045239999
 30
0.0
 10
82.0657917647
 20
40.5197559746
 30
0.0
 10
82.06565337589999
 20
40.51915404219999
 30
0.0
 10
82.0654467834
 20
40.518257573
 30
0.0
 10
82.06526274300001
 20
40.51745809889999
 30
0.0
 10
82.06517077310001
 20
40.5170586884
 30
0.0
  0
LINE
  5
25D5
330
220
100
AcDbEntity
  8
0
  6
Continuous
 62
    40
100
AcDbLine
 10
82.06517077319999
 20
40.5170586885
 30
0.0
 11
82.0635225252
 21
40.50905415259999
 31
0.0
  0
SPLINE
  5
25D6
330
220
100
AcDbEntity
  8
0
  6
Continuous
 62
    40
100
AcDbSpline
210
0.0
220
0.0
230
1.0
 70
     8
 71
     3
 72
    80
 73
    76
 74
     0
 42
0.0000001
 43
0.0000000001
 40
0.0
 40
0.0
 40
0.0
 40
0.0
 40
0.0625
 40
0.09375
 40
0.109375
 40
0.125
 40
0.140625
 40
0.1484375
 40
0.15625
 40
0.16015625
 40
0.1640625
 40
0.166015625
 40
0.16796875
 40
0.169921875
 40
0.171875
 40
0.1796875
 40
0.1875
 40
0.1953125
 40
0.203125
 40
0.21875
 40
0.25
 40
0.28125
 40
0.296875
 40
0.3125
 40
0.3203125
 40
0.328125
 40
0.33203125
 40
0.333984375
 40
0.3359375
 40
0.33984375
 40
0.34375
 40
0.3515625
 40
0.359375
 40
0.375
 40
0.40625
 40
0.4375
 40
0.453125
 40
0.46875
 40
0.4765625
 40
0.484375
 40
0.4921875
 40
0.49609375
 40
0.5
 40
0.50390625
 40
0.5078125
 40
0.515625
 40
0.5234375
 40
0.53125
 40
0.546875
 40
0.5625
 40
0.59375
 40
0.609375
 40
0.625
 40
0.640625
 40
0.65625
 40
0.66015625
 40
0.6640625
 40
0.666015625
 40
0.66796875
 40
0.671875
 40
0.6796875
 40
0.6875
 40
0.703125
 40
0.71875
 40
0.75
 40
0.78125
 40
0.8125
 40
0.828125
 40
0.8359375
 40
0.84375
 40
0.859375
 40
0.875
 40
0.90625
 40
0.9375
 40
1.0
 40
1.0
 40
1.0
 40
1.0
 10
82.06352252530001
 20
40.50905415299999
 30
0.0
 10
82.063148152
 20
40.50702478949999
 30
0.0
 10
82.06258659120001
 20
40.5039807367
 30
0.0
 10
82.06193144009999
 20
40.50042936759999
 30
0.0
 10
82.06155706350001
 20
40.4983999771
 30
0.0
 10
82.0612762936
 20
40.49687803699999
 30
0.0
 10
82.0610422788
 20
40.4956094261
 30
0.0
 10
82.0608551565
 20
40.49459527209999
 30
0.0
 10
82.0607380012
 20
40.4939597527
 30
0.0
 10
82.0606447439
 20
40.49345516899999
 30
0.0
 10
82.0605853926
 20
40.49313106129999
 30
0.0
 10
82.0605403519
 20
40.4928918001
 30
0.0
 10
82.06049988990001
 20
40.4926575252
 30
0.0
 10
82.06045755560001
 20
40.492407886
 30
0.0
 10
82.06037385020001
 20
40.4919165112
 30
0.0
 10
82.06024788749999
 20
40.4911761294
 30
0.0
 10
82.06008016850001
 20
40.490190851
 30
0.0
 10
82.05991238760001
 20
40.4892050649
 30
0.0
 10
82.0596887015
 20
40.4878908613
 30
0.0
 10
82.05929723969999
 20
40.48559091489999
 30
0.0
 10
82.0587380213
 20
40.4823053825
 30
0.0
 10
82.05817877319999
 20
40.4790196005
 30
0.0
 10
82.05773143569999
 20
40.4763914897
 30
0.0
 10
82.0574517124
 20
40.4747477582
 30
0.0
 10
82.05722824819998
 20
40.4734354336
 30
0.0
 10
82.05708786550001
 20
40.47260916039999
 30
0.0
 10
82.05699103569999
 20
40.4720429349
 30
0.0
 10
82.0569334544
 20
40.4717003429
 30
0.0
 10
82.0568673966
 20
40.4712860448
 30
0.0
 10
82.05678772669999
 20
40.4707927242
 30
0.0
 10
82.05665863289999
 20
40.4699896906
 30
0.0
 10
82.0564978209
 20
40.4689905958
 30
0.0
 10
82.05624021189999
 20
40.4673894227
 30
0.0
 10
82.05578954039999
 20
40.4645885898
 30
0.0
 10
82.05514564939999
 20
40.46058677269999
 30
0.0
 10
82.0545017817
 20
40.4565851411
 30
0.0
 10
82.0539866913
 20
40.4533838924
 30
0.0
 10
82.05366473879999
 20
40.4513828779
 30
0.0
 10
82.05340722609999
 20
40.4497826138
 30
0.0
 10
82.05321395629999
 20
40.4485809138
 30
0.0
 10
82.0530533286
 20
40.4475842752
 30
0.0
 10
82.05292386100001
 20
40.446776248
 30
0.0
 10
82.0528293983
 20
40.4461995096
 30
0.0
 10
82.05272486650001
 20
40.44551100169999
 30
0.0
 10
82.052589008
 20
40.4446320338
 30
0.0
 10
82.05241797819999
 20
40.4435199286
 30
0.0
 10
82.05221325889999
 20
40.4421911359
 30
0.0
 10
82.05194011939999
 20
40.4404174098
 30
0.0
 10
82.05159875680001
 20
40.43820093709999
 30
0.0
 10
82.0510525425
 20
40.4346542021
 30
0.0
 10
82.0505063354
 20
40.43110754799999
 30
0.0
 10
82.0499601322
 20
40.4275609351
 30
0.0
 10
82.04955046100002
 20
40.424900771
 30
0.0
 10
82.0491408628
 20
40.4222414041
 30
0.0
 10
82.0488334594
 20
40.4202446405
 30
0.0
 10
82.04862884229999
 20
40.41891694639999
 30
0.0
 10
82.0485431111
 20
40.4183585595
 30
0.0
 10
82.0484756321
 20
40.41792393629999
 30
0.0
 10
82.04840410880001
 20
40.4174451126
 30
0.0
 10
82.0482770639
 20
40.41658663469999
 30
0.0
 10
82.0480965517
 20
40.41537095219999
 30
0.0
 10
82.0478071842
 20
40.4134198738
 30
0.0
 10
82.04744566249999
 20
40.4109830661
 30
0.0
 10
82.04686712279999
 20
40.4070830892
 30
0.0
 10
82.04614398560002
 20
40.4022080902
 30
0.0
 10
82.04527619830001
 20
40.39635985239999
 30
0.0
 10
82.04455306779999
 20
40.3914804878
 30
0.0
 10
82.04404683259999
 20
40.3880764118
 30
0.0
 10
82.0437576229
 20
40.3861132968
 30
0.0
 10
82.04346866759999
 20
40.38408265
 30
0.0
 10
82.04310738630001
 20
40.3815674643
 30
0.0
 10
82.04252938499999
 20
40.37753024479999
 30
0.0
 10
82.0418068667
 20
40.37248814699999
 30
0.0
 10
82.0406508467
 20
40.3644183054
 30
0.0
 10
82.03978382969999
 20
40.3583664834
 30
0.0
 10
82.0392058188
 20
40.3543318111
 30
0.0
  0
SPLINE
  5
25D7
330
220
100
AcDbEntity
  8
0
  6
Continuous
 62
    40
100
AcDbSpline
210
0.0
220
0.0
230
1.0
 70
     8
 71
     3
 72
    79
 73
    75
 74
     0
 42
0.0000001
 43
0.0000000001
 40
0.0
 40
0.0
 40
0.0
 40
0.0
 40
0.0625
 40
0.125
 40
0.140625
 40
0.15625
 40
0.171875
 40
0.1875
 40
0.25
 40
0.28125
 40
0.296875
 40
0.3125
 40
0.3203125
 40
0.328125
 40
0.33203125
 40
0.3359375
 40
0.34375
 40
0.359375
 40
0.375
 40
0.390625
 40
0.40625
 40
0.4375
 40
0.453125
 40
0.46875
 40
0.4765625
 40
0.484375
 40
0.4921875
 40
0.49609375
 40
0.498046875
 40
0.5
 40
0.501953125
 40
0.50390625
 40
0.5078125
 40
0.515625
 40
0.5234375
 40
0.53125
 40
0.546875
 40
0.5625
 40
0.578125
 40
0.59375
 40
0.609375
 40
0.625
 40
0.640625
 40
0.6484375
 40
0.65625
 40
0.66015625
 40
0.6640625
 40
0.666015625
 40
0.66796875
 40
0.671875
 40
0.6796875
 40
0.6875
 40
0.703125
 40
0.71875
 40
0.75
 40
0.78125
 40
0.796875
 40
0.8046875
 40
0.8125
 40
0.8203125
 40
0.828125
 40
0.830078125
 40
0.83203125
 40
0.833984375
 40
0.8359375
 40
0.83984375
 40
0.84375
 40
0.8515625
 40
0.859375
 40
0.875
 40
0.890625
 40
0.90625
 40
0.9375
 40
1.0
 40
1.0
 40
1.0
 40
1.0
 10
82.0389319829
 20
40.3523852323
 30
0.0
 10
82.03838204520002
 20
40.3484038831
 30
0.0
 10
82.03728230260001
 20
40.34044148719999
 30
0.0
 10
82.0360444954
 20
40.3314824306
 30
0.0
 10
82.03522016089999
 20
40.3255117113
 30
0.0
 10
82.034806452
 20
40.3225228353
 30
0.0
 10
82.0343987356
 20
40.31954762779999
 30
0.0
 10
82.0336245764
 20
40.3136913711
 30
0.0
 10
82.03270733550001
 20
40.306826926
 30
0.0
 10
82.0317961459
 20
40.2999765291
 30
0.0
 10
82.0312747304
 20
40.2960599766
 30
0.0
 10
82.0309492442
 20
40.29361388659999
 30
0.0
 10
82.03068808270002
 20
40.2916533117
 30
0.0
 10
82.0305265888
 20
40.2904363321
 30
0.0
 10
82.03039343
 20
40.2894435627
 30
0.0
 10
82.0302747404
 20
40.2885208325
 30
0.0
 10
82.03007375609999
 20
40.2869385955
 30
0.0
 10
82.02978312049999
 20
40.2846612417
 30
0.0
 10
82.0294358647
 20
40.2819357113
 30
0.0
 10
82.0290882057
 20
40.2792082288
 30
0.0
 10
82.0286248018
 20
40.27557227099999
 30
0.0
 10
82.0281613552
 20
40.2719361041
 30
0.0
 10
82.0276979307
 20
40.26830005029999
 30
0.0
 10
82.02740827060001
 20
40.26602740829999
 30
0.0
 10
82.02717658460001
 20
40.2642095264
 30
0.0
 10
82.0270027057
 20
40.262845485
 30
0.0
 10
82.02685817050001
 20
40.2617107872
 30
0.0
 10
82.0267562817
 20
40.2609125673
 30
0.0
 10
82.02669917459999
 20
40.2604625803
 30
0.0
 10
82.02665320319999
 20
40.26010779719999
 30
0.0
 10
82.0266192385
 20
40.2598191161
 30
0.0
 10
82.02656976410001
 20
40.2594111509
 30
0.0
 10
82.02648513529998
 20
40.25870795449999
 30
0.0
 10
82.02636321680001
 20
40.25769777179999
 30
0.0
 10
82.0262173513
 20
40.25648795659999
 30
0.0
 10
82.02602271139999
 20
40.25487402989999
 30
0.0
 10
82.02577946399999
 20
40.2528569097
 30
0.0
 10
82.0254875444
 20
40.2504362415
 30
0.0
 10
82.02519563130001
 20
40.2480156082
 30
0.0
 10
82.0249037153
 20
40.2455949592
 30
0.0
 10
82.02461180410001
 20
40.243174338
 30
0.0
 10
82.0243198768
 20
40.2407536216
 30
0.0
 10
82.02407665359999
 20
40.2387366519
 30
0.0
 10
82.02388196420001
 20
40.2371224182
 30
0.0
 10
82.0237605355
 20
40.2361150201
 30
0.0
 10
82.02366281519999
 20
40.2353056709
 30
0.0
 10
82.0236030573
 20
40.2348076556
 30
0.0
 10
82.0235522337
 20
40.2343913138
 30
0.0
 10
82.02351242569999
 20
40.2340404281
 30
0.0
 10
82.0234478789
 20
40.2334567851
 30
0.0
 10
82.0233529993
 20
40.2326071445
 30
0.0
 10
82.0232026841
 20
40.2312565857
 30
0.0
 10
82.02301427909999
 20
40.2295653513
 30
0.0
 10
82.0227131168
 20
40.2268610737
 30
0.0
 10
82.02233656510001
 20
40.223480139
 30
0.0
 10
82.02196005180001
 20
40.2200994333
 30
0.0
 10
82.02169648100001
 20
40.2177328699
 30
0.0
 10
82.02154587729999
 20
40.2163805981
 30
0.0
 10
82.0214329032
 20
40.2153662638
 30
0.0
 10
82.02132001029999
 20
40.2143524263
 30
0.0
 10
82.0212351129
 20
40.21359065539999
 30
0.0
 10
82.0211788689
 20
40.21308497429999
 30
0.0
 10
82.0211501143
 20
40.2128282657
 30
0.0
 10
82.0211238191
 20
40.21258659599999
 30
0.0
 10
82.02110046119999
 20
40.21233592809999
 30
0.0
 10
82.02106725689999
 20
40.21199809179999
 30
0.0
 10
82.0210163692
 20
40.21147124619999
 30
0.0
 10
82.02095199289999
 20
40.2108080009
 30
0.0
 10
82.02084941939999
 20
40.2097494287
 30
0.0
 10
82.0207210555
 20
40.2084253144
 30
0.0
 10
82.02056708169999
 20
40.2068367621
 30
0.0
 10
82.0203617614
 20
40.2047185581
 30
0.0
 10
82.02000246109999
 20
40.20101176399999
 30
0.0
 10
82.0196944859
 20
40.1978344903
 30
0.0
 10
82.0194891699
 20
40.19571631269999
 30
0.0
  0
LINE
  5
25D8
330
220
100
AcDbEntity
  8
0
  6
Continuous
 62
    40
100
AcDbLine
 10
82.01948916979999
 20
40.19571631149999
 30
0.0
 11
82.0188876635
 21
40.1877117757
 31
0.0
  0
SPLINE
  5
25D9
330
220
100
AcDbEntity
  8
0
  6
Continuous
 62
    40
100
AcDbSpline
210
0.0
220
0.0
230
1.0
 70
     8
 71
     3
 72
    44
 73
    40
 74
     0
 42
0.0000001
 43
0.0000000001
 40
0.0
 40
0.0
 40
0.0
 40
0.0
 40
0.0625
 40
0.125
 40
0.15625
 40
0.171875
 40
0.1875
 40
0.25
 40
0.28125
 40
0.3125
 40
0.328125
 40
0.3359375
 40
0.34375
 40
0.359375
 40
0.375
 40
0.4375
 40
0.46875
 40
0.484375
 40
0.5
 40
0.515625
 40
0.53125
 40
0.5625
 40
0.625
 40
0.640625
 40
0.65625
 40
0.6640625
 40
0.671875
 40
0.6875
 40
0.71875
 40
0.75
 40
0.78125
 40
0.8125
 40
0.828125
 40
0.8359375
 40
0.84375
 40
0.859375
 40
0.875
 40
0.9375
 40
1.0
 40
1.0
 40
1.0
 40
1.0
 10
82.0188876635
 20
40.187711776
 30
0.0
 10
82.018868921
 20
40.1873513545
 30
0.0
 10
82.01883123189999
 20
40.18662938619999
 30
0.0
 10
82.0187851406
 20
40.18573255169999
 30
0.0
 10
82.0187510022
 20
40.1850944301
 30
0.0
 10
82.01873440199999
 20
40.1847458228
 30
0.0
 10
82.01872532979999
 20
40.184310179
 30
0.0
 10
82.01870944920001
 20
40.183772821
 30
0.0
 10
82.018693631
 20
40.1831712256
 30
0.0
 10
82.0186839698
 20
40.1827971735
 30
0.0
 10
82.0186762243
 20
40.1825285119
 30
0.0
 10
82.0186734153
 20
40.1823861076
 30
0.0
 10
82.0186767174
 20
40.1822856848
 30
0.0
 10
82.01867875939999
 20
40.18214582819999
 30
0.0
 10
82.0186853496
 20
40.18182177639999
 30
0.0
 10
82.018692794
 20
40.1814420655
 30
0.0
 10
82.01869949270001
 20
40.1810571525
 30
0.0
 10
82.0187047663
 20
40.1808472517
 30
0.0
 10
82.0187045972
 20
40.1806611638
 30
0.0
 10
82.01872020229998
 20
40.1805847007
 30
0.0
 10
82.01873551010001
 20
40.18044453379999
 30
0.0
 10
82.01876482899999
 20
40.1802168237
 30
0.0
 10
82.01879340060001
 20
40.1799839394
 30
0.0
 10
82.01881768459999
 20
40.17978285329999
 30
0.0
 10
82.018828502
 20
40.1797039829
 30
0.0
 10
82.01883549879999
 20
40.1796292367
 30
0.0
 10
82.0188485649
 20
40.17959715729999
 30
0.0
 10
82.01887425269999
 20
40.17956085769999
 30
0.0
 10
82.0189094642
 20
40.179498559
 30
0.0
 10
82.01895239699998
 20
40.1794285753
 30
0.0
 10
82.0189949907
 20
40.1793562003
 30
0.0
 10
82.01903104979999
 20
40.1792998796
 30
0.0
 10
82.01905525429999
 20
40.1792531187
 30
0.0
 10
82.0190706936
 20
40.1792377773
 30
0.0
 10
82.01909218629999
 20
40.179265269
 30
0.0
 10
82.0191169831
 20
40.17928499279999
 30
0.0
 10
82.01917819870001
 20
40.1793443828
 30
0.0
 10
82.01926930090001
 20
40.1794283647
 30
0.0
 10
82.01935057369999
 20
40.1795050889
 30
0.0
 10
82.0193911734
 20
40.1795431918
 30
0.0
  0
SPLINE
  5
25DA
330
220
100
AcDbEntity
  8
0
  6
Continuous
 62
    40
100
AcDbSpline
210
0.0
220
0.0
230
1.0
 70
     8
 71
     3
 72
    90
 73
    86
 74
     0
 42
0.0000001
 43
0.0000000001
 40
0.0
 40
0.0
 40
0.0
 40
0.0
 40
0.0625
 40
0.09375
 40
0.125
 40
0.140625
 40
0.15625
 40
0.1640625
 40
0.171875
 40
0.1875
 40
0.21875
 40
0.25
 40
0.28125
 40
0.296875
 40
0.3125
 40
0.3203125
 40
0.328125
 40
0.33203125
 40
0.333984375
 40
0.3359375
 40
0.33984375
 40
0.34375
 40
0.359375
 40
0.375
 40
0.390625
 40
0.40625
 40
0.421875
 40
0.4375
 40
0.453125
 40
0.46875
 40
0.4765625
 40
0.484375
 40
0.4921875
 40
0.49609375
 40
0.498046875
 40
0.5
 40
0.501953125
 40
0.50390625
 40
0.5078125
 40
0.515625
 40
0.5234375
 40
0.53125
 40
0.546875
 40
0.5625
 40
0.578125
 40
0.59375
 40
0.609375
 40
0.625
 40
0.640625
 40
0.6484375
 40
0.65625
 40
0.66015625
 40
0.6640625
 40
0.666015625
 40
0.6669921875
 40
0.66796875
 40
0.669921875
 40
0.671875
 40
0.6796875
 40
0.6875
 40
0.6953125
 40
0.703125
 40
0.71875
 40
0.75
 40
0.78125
 40
0.796875
 40
0.8046875
 40
0.8125
 40
0.8203125
 40
0.828125
 40
0.830078125
 40
0.83203125
 40
0.8330078125
 40
0.833984375
 40
0.8359375
 40
0.83984375
 40
0.84375
 40
0.8515625
 40
0.859375
 40
0.875
 40
0.890625
 40
0.90625
 40
0.9375
 40
0.96875
 40
1.0
 40
1.0
 40
1.0
 40
1.0
 10
82.03031719470001
 20
40.3528779538
 30
0.0
 10
82.02965343249999
 20
40.3480632652
 30
0.0
 10
82.02865784630001
 20
40.3408413909
 30
0.0
 10
82.0273301693
 20
40.3312115905
 30
0.0
 10
82.02650084770001
 20
40.3251942876
 30
0.0
 10
82.02583630399999
 20
40.3203774304
 30
0.0
 10
82.0254234421
 20
40.3173737705
 30
0.0
 10
82.02508747699999
 20
40.3149550943
 30
0.0
 10
82.02477223210001
 20
40.31259391059999
 30
0.0
 10
82.0242301801
 20
40.3084885501
 30
0.0
 10
82.02345078769999
 20
40.3026097908
 30
0.0
 10
82.0225176685
 20
40.29556122699999
 30
0.0
 10
82.02173960699999
 20
40.2896862107
 30
0.0
 10
82.0211171911
 20
40.2849861355
 30
0.0
 10
82.02072832909999
 20
40.28204935059999
 30
0.0
 10
82.0204168761
 20
40.2796981093
 30
0.0
 10
82.02022305239999
 20
40.2782327357
 30
0.0
 10
82.02008570310001
 20
40.27719865119999
 30
0.0
 10
82.0200098349
 20
40.276620768
 30
0.0
 10
82.01994382429999
 20
40.2760919331
 30
0.0
 10
82.0198579416
 20
40.27541412459999
 30
0.0
 10
82.0196545964
 20
40.27380118239999
 30
0.0
 10
82.0193484137
 20
40.2713759736
 30
0.0
 10
82.018940836
 20
40.26814567459999
 30
0.0
 10
82.01853307989999
 20
40.26491448819999
 30
0.0
 10
82.01812537149999
 20
40.2616835388
 30
0.0
 10
82.01771765089999
 20
40.25845252889999
 30
0.0
 10
82.01730993149999
 20
40.2552215238
 30
0.0
 10
82.0169022193
 20
40.2519905601
 30
0.0
 10
82.01656243390001
 20
40.2492979483
 30
0.0
 10
82.0162906626
 20
40.2471441791
 30
0.0
 10
82.0160866784
 20
40.2455279769
 30
0.0
 10
82.0159171867
 20
40.244183926
 30
0.0
 10
82.01579757100001
 20
40.24323762619999
 30
0.0
 10
82.015730736
 20
40.24270541529999
 30
0.0
 10
82.01567633659999
 20
40.242282223
 30
0.0
 10
82.0156382717
 20
40.2419509011
 30
0.0
 10
82.0155818207
 20
40.2414770931
 30
0.0
 10
82.0154856863
 20
40.2406628598
 30
0.0
 10
82.01534696340001
 20
40.2394918634
 30
0.0
 10
82.01518109010001
 20
40.2380900089
 30
0.0
 10
82.0149597181
 20
40.23621970239999
 30
0.0
 10
82.0146830744
 20
40.23388221989999
 30
0.0
 10
82.0143510713
 20
40.231077069
 30
0.0
 10
82.0140190765
 20
40.22827196489999
 30
0.0
 10
82.01368707909999
 20
40.2254668452
 30
0.0
 10
82.01335508419999
 20
40.2226617412
 30
0.0
 10
82.0130230816
 20
40.2198565902
 30
0.0
 10
82.01274643640001
 20
40.2175191079
 30
0.0
 10
82.01252506729998
 20
40.215648801
 30
0.0
 10
82.0123868323
 20
40.21448058999999
 30
0.0
 10
82.01227596779999
 20
40.2135443476
 30
0.0
 10
82.01220730840001
 20
40.2129630147
 30
0.0
 10
82.0121579825
 20
40.21254842869999
 30
0.0
 10
82.0121317743
 20
40.21232349619999
 30
0.0
 10
82.01211301630001
 20
40.2121436627
 30
0.0
 10
82.0120870222
 20
40.21190345579999
 30
0.0
 10
82.0120267325
 20
40.21133964659999
 30
0.0
 10
82.01193541749999
 20
40.21048860389999
 30
0.0
 10
82.01181416729999
 20
40.2093569261
 30
0.0
 10
82.01169278260001
 20
40.2082244336
 30
0.0
 10
82.0115309832
 20
40.20671472780001
 30
0.0
 10
82.01124781229999
 20
40.20407260929999
 30
0.0
 10
82.0108432952
 20
40.2002982316
 30
0.0
 10
82.01043876920001
 20
40.1965237988
 30
0.0
 10
82.01015561060001
 20
40.1938817574
 30
0.0
 10
82.0099937918
 20
40.1923719305
 30
0.0
 10
82.0098724668
 20
40.1912398094
 30
0.0
 10
82.0097509924
 20
40.1901067367
 30
0.0
 10
82.0096603053
 20
40.1892596001
 30
0.0
 10
82.00959919609999
 20
40.18869069329999
 30
0.0
 10
82.009574703
 20
40.1884598229
 30
0.0
 10
82.00955284779999
 20
40.1882607235
 30
0.0
 10
82.00953925989999
 20
40.1881142969
 30
0.0
 10
82.00951932210001
 20
40.1878825232
 30
0.0
 10
82.0094888354
 20
40.18753864909999
 30
0.0
 10
82.00944117669999
 20
40.1869955864
 30
0.0
 10
82.0093812198
 20
40.1863143148
 30
0.0
 10
82.00928550310001
 20
40.1852256456
 30
0.0
 10
82.00916578380001
 20
40.1838643407
 30
0.0
 10
82.00902215200001
 20
40.1822309754
 30
0.0
 10
82.008830632
 20
40.1800530848
 30
0.0
 10
82.00859123569999
 20
40.1773307457
 30
0.0
 10
82.0083039586
 20
40.1740639284
 30
0.0
 10
82.0081124408
 20
40.1718860522
 30
0.0
 10
82.00801668190001
 20
40.1707971138
 30
0.0
  0
LINE
  5
25DB
330
220
100
AcDbEntity
  8
0
  6
Continuous
 62
    40
100
AcDbLine
 10
82.00801668190001
 20
40.1707971135
 30
0.0
 11
82.0078389504
 21
40.1681119939
 31
0.0
  0
LINE
  5
25DC
330
220
100
AcDbEntity
  8
0
  6
Continuous
 62
    40
100
AcDbLine
 10
82.0078389504
 20
40.1681119939
 30
0.0
 11
82.00770966090001
 21
40.1657521166
 31
0.0
  0
LINE
  5
25DD
330
220
100
AcDbEntity
  8
0
  6
Continuous
 62
    40
100
AcDbLine
 10
82.00770966090001
 20
40.1657521165
 30
0.0
 11
82.0075972298
 21
40.16202407099999
 31
0.0
  0
LINE
  5
25DE
330
220
100
AcDbEntity
  8
0
  6
Continuous
 62
    40
100
AcDbLine
 10
82.0075972298
 20
40.1620240709
 30
0.0
 11
82.00768017729998
 21
40.1596391263
 31
0.0
  0
SPLINE
  5
25DF
330
220
100
AcDbEntity
  8
0
  6
Continuous
 62
    40
100
AcDbSpline
210
0.0
220
0.0
230
1.0
 70
     8
 71
     3
 72
    27
 73
    23
 74
     0
 42
0.0000001
 43
0.0000000001
 40
0.0
 40
0.0
 40
0.0
 40
0.0
 40
0.125
 40
0.15625
 40
0.1875
 40
0.25
 40
0.3125
 40
0.34375
 40
0.375
 40
0.4375
 40
0.46875
 40
0.5
 40
0.53125
 40
0.5625
 40
0.625
 40
0.65625
 40
0.6875
 40
0.75
 40
0.8125
 40
0.84375
 40
0.875
 40
1.0
 40
1.0
 40
1.0
 40
1.0
 10
82.00768017729998
 20
40.1596391263
 30
0.0
 10
82.00770321090001
 20
40.1594908716
 30
0.0
 10
82.00773329350001
 20
40.15931462010001
 30
0.0
 10
82.00776552079998
 20
40.159075918
 30
0.0
 10
82.0077952655
 20
40.1589748103
 30
0.0
 10
82.00783566430001
 20
40.15887104499999
 30
0.0
 10
82.0078739436
 20
40.1587523425
 30
0.0
 10
82.0079070795
 20
40.1586751342
 30
0.0
 10
82.0079486458
 20
40.15865753689999
 30
0.0
 10
82.00798747189999
 20
40.158620548
 30
0.0
 10
82.00802819569998
 20
40.1585970257
 30
0.0
 10
82.0080557856
 20
40.1585583757
 30
0.0
 10
82.00809423850001
 20
40.1585970257
 30
0.0
 10
82.0081415735
 20
40.158620548
 30
0.0
 10
82.0081907958
 20
40.15865753689999
 30
0.0
 10
82.0082373079
 20
40.1586751342
 30
0.0
 10
82.008292144
 20
40.1587523425
 30
0.0
 10
82.0083637858
 20
40.15887104499999
 30
0.0
 10
82.0084333488
 20
40.1589748103
 30
0.0
 10
82.0084915109
 20
40.159075918
 30
0.0
 10
82.00859082779999
 20
40.15931462010001
 30
0.0
 10
82.00867044769999
 20
40.1594908717
 30
0.0
 10
82.0087351497
 20
40.1596391264
 30
0.0
  0
LINE
  5
25E0
330
220
100
AcDbEntity
  8
0
  6
Continuous
 62
    40
100
AcDbLine
 10
82.0087351497
 20
40.1596391263
 30
0.0
 11
82.00926354419999
 21
40.16123575019999
 31
0.0
  0
LINE
  5
25E1
330
220
100
AcDbEntity
  8
0
  6
Continuous
 62
    40
100
AcDbLine
 10
82.06330531689999
 20
40.5455399105
 30
0.0
 11
82.0632889612
 21
40.54634749509999
 31
0.0
  0
SPLINE
  5
25E2
330
220
100
AcDbEntity
  8
0
  6
Continuous
 62
    40
100
AcDbSpline
210
0.0
220
0.0
230
1.0
 70
     8
 71
     3
 72
    37
 73
    33
 74
     0
 42
0.0000001
 43
0.0000000001
 40
0.0
 40
0.0
 40
0.0
 40
0.0
 40
0.0625
 40
0.125
 40
0.15625
 40
0.171875
 40
0.1875
 40
0.25
 40
0.28125
 40
0.3125
 40
0.328125
 40
0.34375
 40
0.375
 40
0.4375
 40
0.46875
 40
0.484375
 40
0.5
 40
0.515625
 40
0.53125
 40
0.5625
 40
0.625
 40
0.65625
 40
0.671875
 40
0.6875
 40
0.75
 40
0.78125
 40
0.8125
 40
0.828125
 40
0.84375
 40
0.875
 40
0.9375
 40
1.0
 40
1.0
 40
1.0
 40
1.0
 10
82.0632889612
 20
40.54634749499999
 30
0.0
 10
82.06327976309999
 20
40.5464841527
 30
0.0
 10
82.0632615325
 20
40.54675833010001
 30
0.0
 10
82.0632379171
 20
40.5470967417
 30
0.0
 10
82.0632229061
 20
40.5473415498
 30
0.0
 10
82.06321197120001
 20
40.5474691561
 30
0.0
 10
82.06318275100001
 20
40.5475938106
 30
0.0
 10
82.063152873
 20
40.5477609332
 30
0.0
 10
82.0631171023
 20
40.5479443114
 30
0.0
 10
82.06309399270001
 20
40.54805317929999
 30
0.0
 10
82.06307771810001
 20
40.5481559626
 30
0.0
 10
82.06305319350001
 20
40.54820058479999
 30
0.0
 10
82.0630064676
 20
40.5482518461
 30
0.0
 10
82.062954465
 20
40.54832026639999
 30
0.0
 10
82.0629090997
 20
40.5483811423
 30
0.0
 10
82.06288224259999
 20
40.54840928239999
 30
0.0
 10
82.0628648629
 20
40.5484500377
 30
0.0
 10
82.06283689760001
 20
40.5484155149
 30
0.0
 10
82.06280329470001
 20
40.5483956838
 30
0.0
 10
82.0627428551
 20
40.5483493604
 30
0.0
 10
82.0626739375
 20
40.5482974939
 30
0.0
 10
82.06261485899998
 20
40.5482609092
 30
0.0
 10
82.0625789227
 20
40.5482243833
 30
0.0
 10
82.06251308309999
 20
40.5480839255
 30
0.0
 10
82.0624401243
 20
40.5479479678
 30
0.0
 10
82.0623554642
 20
40.54778256619999
 30
0.0
 10
82.06230134340001
 20
40.54767234699999
 30
0.0
 10
82.0622612662
 20
40.54760310059999
 30
0.0
 10
82.06220927789999
 20
40.5474636128
 30
0.0
 10
82.0621127545
 20
40.5471868058
 30
0.0
 10
82.06197778179999
 20
40.5468085796
 30
0.0
 10
82.06186891439999
 20
40.5465007529
 30
0.0
 10
82.0618145919
 20
40.5463474953
 30
0.0
  0
LINE
  5
25E3
330
220
100
AcDbEntity
  8
0
  6
Continuous
 62
    40
100
AcDbLine
 10
82.06181459179999
 20
40.54634749499999
 30
0.0
 11
82.06047946380001
 21
40.5412578211
 31
0.0
  0
LINE
  5
25E4
330
220
100
AcDbEntity
  8
0
  6
Continuous
 62
    40
100
AcDbLine
 10
82.0604794639
 20
40.5412578215
 30
0.0
 11
82.0593685384
 21
40.53621282449999
 31
0.0
  0
SPLINE
  5
25E5
330
220
100
AcDbEntity
  8
0
  6
Continuous
 62
    40
100
AcDbSpline
210
0.0
220
0.0
230
1.0
 70
     8
 71
     3
 72
    92
 73
    88
 74
     0
 42
0.0000001
 43
0.0000000001
 40
0.0
 40
0.0
 40
0.0
 40
0.0
 40
0.03125
 40
0.0625
 40
0.09375
 40
0.109375
 40
0.125
 40
0.140625
 40
0.1484375
 40
0.15625
 40
0.16015625
 40
0.1640625
 40
0.166015625
 40
0.1669921875
 40
0.16796875
 40
0.169921875
 40
0.171875
 40
0.1796875
 40
0.1875
 40
0.1953125
 40
0.203125
 40
0.21875
 40
0.25
 40
0.28125
 40
0.296875
 40
0.3046875
 40
0.3125
 40
0.3203125
 40
0.328125
 40
0.330078125
 40
0.33203125
 40
0.3330078125
 40
0.333984375
 40
0.3359375
 40
0.33984375
 40
0.34375
 40
0.3515625
 40
0.359375
 40
0.375
 40
0.390625
 40
0.40625
 40
0.421875
 40
0.4375
 40
0.453125
 40
0.46875
 40
0.4765625
 40
0.484375
 40
0.4921875
 40
0.49609375
 40
0.498046875
 40
0.5
 40
0.501953125
 40
0.50390625
 40
0.5078125
 40
0.515625
 40
0.5234375
 40
0.53125
 40
0.546875
 40
0.5625
 40
0.578125
 40
0.59375
 40
0.609375
 40
0.625
 40
0.640625
 40
0.65625
 40
0.66015625
 40
0.6640625
 40
0.666015625
 40
0.66796875
 40
0.671875
 40
0.6796875
 40
0.6875
 40
0.703125
 40
0.71875
 40
0.75
 40
0.78125
 40
0.8125
 40
0.8203125
 40
0.828125
 40
0.83203125
 40
0.8359375
 40
0.84375
 40
0.859375
 40
0.875
 40
0.90625
 40
0.9375
 40
1.0
 40
1.0
 40
1.0
 40
1.0
 10
82.0593685384
 20
40.53621282449999
 30
0.0
 10
82.05915856249999
 20
40.5351256561
 30
0.0
 10
82.0587386106
 20
40.5329513199
 30
0.0
 10
82.0581086824
 20
40.5296898126
 30
0.0
 10
82.0575837434
 20
40.52697189839999
 30
0.0
 10
82.0571637897
 20
40.5247975479
 30
0.0
 10
82.05684883100001
 20
40.52316683759999
 30
0.0
 10
82.0565863446
 20
40.5218077448
 30
0.0
 10
82.0563764022
 20
40.52072084649999
 30
0.0
 10
82.05624508179999
 20
40.520040679
 30
0.0
 10
82.05614026920001
 20
40.5194985054
 30
0.0
 10
82.0560742051
 20
40.519155174
 30
0.0
 10
82.05602907499999
 20
40.5189238064
 30
0.0
 10
82.0560015422
 20
40.5187775707
 30
0.0
 10
82.05596744020001
 20
40.5185785075
 30
0.0
 10
82.055927058
 20
40.5183477352
 30
0.0
 10
82.0558282928
 20
40.5177790202
 30
0.0
 10
82.05568092109999
 20
40.5169321898
 30
0.0
 10
82.05548398180001
 20
40.51579951479999
 30
0.0
 10
82.0552871613
 20
40.5146677942
 30
0.0
 10
82.05502469249999
 20
40.5131585004
 30
0.0
 10
82.0545653914
 20
40.5105173923
 30
0.0
 10
82.05390923619999
 20
40.5067442926
 30
0.0
 10
82.0532530876
 20
40.502971248
 30
0.0
 10
82.05279377729999
 20
40.5003300627
 30
0.0
 10
82.0525313231
 20
40.4988208902
 30
0.0
 10
82.0523344577
 20
40.4976887975
 30
0.0
 10
82.05213768680001
 20
40.4965575198
 30
0.0
 10
82.0519898438
 20
40.4957067767
 30
0.0
 10
82.0518916936
 20
40.49514316799999
 30
0.0
 10
82.0518501849
 20
40.49490304329999
 30
0.0
 10
82.05181840739999
 20
40.4947232788
 30
0.0
 10
82.0517814025
 20
40.49449840349999
 30
0.0
 10
82.05171421520001
 20
40.4940839122
 30
0.0
 10
82.0516195006
 20
40.4935027173
 30
0.0
 10
82.051467249
 20
40.4925666942
 30
0.0
 10
82.05127717699999
 20
40.49139875779999
 30
0.0
 10
82.0509729263
 20
40.48952889
 30
0.0
 10
82.05059265939999
 20
40.4871919567
 30
0.0
 10
82.0501363191
 20
40.4843874644
 30
0.0
 10
82.04967998429999
 20
40.4815830191
 30
0.0
 10
82.0492236477
 20
40.4787785582
 30
0.0
 10
82.0487673128
 20
40.4759741128
 30
0.0
 10
82.04831097299999
 20
40.4731696206
 30
0.0
 10
82.04793070470001
 20
40.47083268709999
 30
0.0
 10
82.04762645689999
 20
40.46896281969999
 30
0.0
 10
82.0473983615
 20
40.4675612949
 30
0.0
 10
82.04720799430001
 20
40.4663905721
 30
0.0
 10
82.04707530189999
 20
40.46557653239999
 30
0.0
 10
82.0469985961
 20
40.46510283179999
 30
0.0
 10
82.04694354999999
 20
40.4647715998
 30
0.0
 10
82.04687901159999
 20
40.4643484613
 30
0.0
 10
82.0467962714
 20
40.4638163346
 30
0.0
 10
82.04664993340001
 20
40.4628701764
 30
0.0
 10
82.04644168559999
 20
40.4615263309
 30
0.0
 10
82.046191443
 20
40.4599103737
 30
0.0
 10
82.0458579069
 20
40.4577569317
 30
0.0
 10
82.0454409453
 20
40.4550647288
 30
0.0
 10
82.04494060909999
 20
40.4518342558
 30
0.0
 10
82.0444402685
 20
40.44860374139999
 30
0.0
 10
82.0439399277
 20
40.4453732222
 30
0.0
 10
82.0434395918
 20
40.44214276349999
 30
0.0
 10
82.0429392369
 20
40.4389120677
 30
0.0
 10
82.0424389531
 20
40.43568225989999
 30
0.0
 10
82.04206354109999
 20
40.4332574179
 30
0.0
 10
82.04181357619999
 20
40.43164472269999
 30
0.0
 10
82.04170896310001
 20
40.4309670134
 30
0.0
 10
82.04162634810002
 20
40.43043826639999
 30
0.0
 10
82.0415398003
 20
40.4298604398
 30
0.0
 10
82.0413865144
 20
40.42882643979999
 30
0.0
 10
82.041168488
 20
40.4273611945
 30
0.0
 10
82.0408191129
 20
40.4250101537
 30
0.0
 10
82.04038257630001
 20
40.4220736245
 30
0.0
 10
82.0396840163
 20
40.417373935
 30
0.0
 10
82.0388108484
 20
40.41149955709999
 30
0.0
 10
82.0377630453
 20
40.40445104449999
 30
0.0
 10
82.0369771594
 20
40.39916215659999
 30
0.0
 10
82.03645329190001
 20
40.3956401722
 30
0.0
 10
82.03623492910001
 20
40.394166806
 30
0.0
 10
82.0360604364
 20
40.3930018134
 30
0.0
 10
82.03588522130001
 20
40.3917867175
 30
0.0
 10
82.03557825930001
 20
40.3896370205
 30
0.0
 10
82.03513991740001
 20
40.38657817069999
 30
0.0
 10
82.03443847229999
 20
40.38167722319999
 30
0.0
 10
82.03356169960001
 20
40.37555336389999
 30
0.0
 10
82.0321588444
 20
40.3657538837
 30
0.0
 10
82.03110670719999
 20
40.35840456729999
 30
0.0
 10
82.0304052814
 20
40.3535049578
 30
0.0
  0
SPLINE
  5
25E6
330
220
100
AcDbEntity
  8
0
  6
Continuous
 62
    40
100
AcDbSpline
210
0.0
220
0.0
230
1.0
 70
     8
 71
     3
 72
    12
 73
     8
 74
     0
 42
0.0000001
 43
0.0000000001
 40
0.0
 40
0.0
 40
0.0
 40
0.0
 40
0.183280726
 40
0.3698978289
 40
0.5702935269000001
 40
0.8291169523
 40
1.0
 40
1.0
 40
1.0
 40
1.0
 10
82.05180264170001
 20
40.3732244564
 30
0.0
 10
82.05247137079998
 20
40.37845801409999
 30
0.0
 10
82.0539762857
 20
40.3897818306
 30
0.0
 10
82.05657212189999
 20
40.40797107969999
 30
0.0
 10
82.059445188
 20
40.4271485732
 30
0.0
 10
82.06212384990001
 20
40.4443049208
 30
0.0
 10
82.06371612619999
 20
40.453868215
 30
0.0
 10
82.06429593320001
 20
40.4572131632
 30
0.0
  0
SPLINE
  5
25E7
330
220
100
AcDbEntity
  8
0
  6
Continuous
 62
    40
100
AcDbSpline
210
0.0
220
0.0
230
1.0
 70
     8
 71
     3
 72
    12
 73
     8
 74
     0
 42
0.0000001
 43
0.0000000001
 40
0.0
 40
0.0
 40
0.0
 40
0.0
 40
0.1138249509
 40
0.2719586158
 40
0.4736488813000001
 40
0.7766479667000001
 40
1.0
 40
1.0
 40
1.0
 40
1.0
 10
82.06429593320001
 20
40.4572131632
 30
0.0
 10
82.06385185870001
 20
40.45427576679999
 30
0.0
 10
82.0627910007
 20
40.44729862519999
 30
0.0
 10
82.0609326764
 20
40.4349905294
 30
0.0
 10
82.05824581500001
 20
40.41652142
 30
0.0
 10
82.0554410195
 20
40.3960667734
 30
0.0
 10
82.05351275140001
 20
40.3816877155
 30
0.0
 10
82.05278955359998
 20
40.3760278794
 30
0.0
  0
SPLINE
  5
25E8
330
220
100
AcDbEntity
  8
0
  6
Continuous
 62
    40
100
AcDbSpline
210
0.0
220
0.0
230
1.0
 70
     8
 71
     3
 72
    12
 73
     8
 74
     0
 42
0.0000001
 43
0.0000000001
 40
0.0
 40
0.0
 40
0.0
 40
0.0
 40
0.1138249509
 40
0.2719586158
 40
0.4736488813000001
 40
0.7766479667000001
 40
1.0
 40
1.0
 40
1.0
 40
1.0
 10
82.03435390800001
 20
40.2455344915
 30
0.0
 10
82.03479798249999
 20
40.2484718879
 30
0.0
 10
82.03585884049999
 20
40.2554490295
 30
0.0
 10
82.0377171648
 20
40.2677571253
 30
0.0
 10
82.0404040262
 20
40.28622623469999
 30
0.0
 10
82.04320882180001
 20
40.3066808813
 30
0.0
 10
82.0451370898
 20
40.3210599392
 30
0.0
 10
82.04586028760001
 20
40.32671977529999
 30
0.0
  0
SPLINE
  5
25E9
330
220
100
AcDbEntity
  8
0
  6
Continuous
 62
    40
100
AcDbSpline
210
0.0
220
0.0
230
1.0
 70
     8
 71
     3
 72
    12
 73
     8
 74
     0
 42
0.0000001
 43
0.0000000001
 40
0.0
 40
0.0
 40
0.0
 40
0.0
 40
0.183280726
 40
0.3698978289
 40
0.5702935269000001
 40
0.8291169523
 40
1.0
 40
1.0
 40
1.0
 40
1.0
 10
82.0468471995
 20
40.3295231982
 30
0.0
 10
82.04617847039999
 20
40.3242896406
 30
0.0
 10
82.04467355549999
 20
40.31296582409999
 30
0.0
 10
82.04207771929999
 20
40.294776575
 30
0.0
 10
82.03920465320001
 20
40.27559908149999
 30
0.0
 10
82.0365259913
 20
40.25844273389999
 30
0.0
 10
82.034933715
 20
40.24887943969999
 30
0.0
 10
82.03435390800001
 20
40.2455344915
 30
0.0
  0
SPLINE
  5
25EA
330
220
100
AcDbEntity
  8
0
  6
Continuous
 62
    40
100
AcDbSpline
210
0.0
220
0.0
230
1.0
 70
     8
 71
     3
 72
    12
 73
     8
 74
     0
 42
0.0000001
 43
0.0000000001
 40
0.0
 40
0.0
 40
0.0
 40
0.0
 40
0.1138249509
 40
0.2719586158
 40
0.4736488813000001
 40
0.7766479667000001
 40
1.0
 40
1.0
 40
1.0
 40
1.0
 10
82.06557770359999
 20
40.4572131632
 30
0.0
 10
82.0651336292
 20
40.45427576679999
 30
0.0
 10
82.0640727712
 20
40.44729862519999
 30
0.0
 10
82.06221444689999
 20
40.4349905294
 30
0.0
 10
82.05952758550001
 20
40.41652142
 30
0.0
 10
82.05672278989998
 20
40.3960667734
 30
0.0
 10
82.0547945218
 20
40.3816877155
 30
0.0
 10
82.0540713241
 20
40.3760278794
 30
0.0
  0
SPLINE
  5
25EB
330
220
100
AcDbEntity
  8
0
  6
Continuous
 62
    40
100
AcDbSpline
210
0.0
220
0.0
230
1.0
 70
     8
 71
     3
 72
    12
 73
     8
 74
     0
 42
0.0000001
 43
0.0000000001
 40
0.0
 40
0.0
 40
0.0
 40
0.0
 40
0.183280726
 40
0.3698978289
 40
0.5702935269000001
 40
0.8291169523
 40
1.0
 40
1.0
 40
1.0
 40
1.0
 10
82.0530844121
 20
40.3732244564
 30
0.0
 10
82.0537531413
 20
40.37845801409999
 30
0.0
 10
82.05525805609999
 20
40.3897818306
 30
0.0
 10
82.0578538924
 20
40.40797107969999
 30
0.0
 10
82.0607269585
 20
40.4271485732
 30
0.0
 10
82.0634056203
 20
40.4443049208
 30
0.0
 10
82.06499789670001
 20
40.453868215
 30
0.0
 10
82.06557770359999
 20
40.4572131632
 30
0.0
  0
SPLINE
  5
25EC
330
220
100
AcDbEntity
  8
0
  6
Continuous
 62
    40
100
AcDbSpline
210
0.0
220
0.0
230
1.0
 70
     8
 71
     3
 72
    12
 73
     8
 74
     0
 42
0.0000001
 43
0.0000000001
 40
0.0
 40
0.0
 40
0.0
 40
0.0
 40
0.1138249509
 40
0.2719586158
 40
0.4736488813000001
 40
0.7766479667000001
 40
1.0
 40
1.0
 40
1.0
 40
1.0
 10
82.0356356785
 20
40.2455344915
 30
0.0
 10
82.03607975289999
 20
40.2484718879
 30
0.0
 10
82.0371406109
 20
40.2554490295
 30
0.0
 10
82.0389989352
 20
40.2677571253
 30
0.0
 10
82.04168579659999
 20
40.28622623469999
 30
0.0
 10
82.04449059220001
 20
40.3066808813
 30
0.0
 10
82.0464188602
 20
40.3210599392
 30
0.0
 10
82.047142058
 20
40.32671977529999
 30
0.0
  0
SPLINE
  5
25ED
330
220
100
AcDbEntity
  8
0
  6
Continuous
 62
    40
100
AcDbSpline
210
0.0
220
0.0
230
1.0
 70
     8
 71
     3
 72
    12
 73
     8
 74
     0
 42
0.0000001
 43
0.0000000001
 40
0.0
 40
0.0
 40
0.0
 40
0.0
 40
0.183280726
 40
0.3698978289
 40
0.5702935269000001
 40
0.8291169523
 40
1.0
 40
1.0
 40
1.0
 40
1.0
 10
82.04812896989999
 20
40.3295231982
 30
0.0
 10
82.0474602408
 20
40.3242896406
 30
0.0
 10
82.045955326
 20
40.31296582409999
 30
0.0
 10
82.04335948970001
 20
40.294776575
 30
0.0
 10
82.0404864236
 20
40.27559908149999
 30
0.0
 10
82.0378077618
 20
40.25844273389999
 30
0.0
 10
82.03621548539999
 20
40.24887943969999
 30
0.0
 10
82.0356356785
 20
40.2455344915
 30
0.0
  0
SPLINE
  5
25EE
330
220
100
AcDbEntity
  8
0
  6
Continuous
 62
     9
100
AcDbSpline
210
0.0
220
0.0
230
1.0
 70
     8
 71
     3
 72
    18
 73
    14
 74
     0
 42
0.0000001
 43
0.0000000001
 40
0.0
 40
0.0
 40
0.0
 40
0.0
 40
0.1907088405
 40
0.3753578675
 40
0.5459119276
 40
0.6956810303000001
 40
0.8194194917
 40
0.869913513
 40
0.9120003234999998
 40
0.9453107151000001
 40
0.9700342818000001
 40
0.9873706409999998
 40
1.0
 40
1.0
 40
1.0
 40
1.0
 10
78.2614963819
 20
42.2607704573
 30
0.0
 10
78.4768452691
 20
42.26076985849999
 30
0.0
 10
78.90069997560001
 20
42.2599597005
 30
0.0
 10
79.51714290099999
 20
42.2583872532
 30
0.0
 10
80.08735807169999
 20
42.25742843379999
 30
0.0
 10
80.5887934817
 20
42.25710173969999
 30
0.0
 10
80.95465701180001
 20
42.2572886485
 30
0.0
 10
81.1989247736
 20
42.25781119709999
 30
0.0
 10
81.34108060779999
 20
42.2583300696
 30
0.0
 10
81.45413535919999
 20
42.25898709089999
 30
0.0
 10
81.53924089520002
 20
42.259714406
 30
0.0
 10
81.60099176720001
 20
42.2604248011
 30
0.0
 10
81.63482851460001
 20
42.2607201226
 30
0.0
 10
81.64908961729999
 20
42.26072218929999
 30
0.0
  0
SPLINE
  5
25EF
330
220
100
AcDbEntity
  8
0
  6
Continuous
 62
     9
100
AcDbSpline
210
0.0
220
0.0
230
1.0
 70
     8
 71
     3
 72
    18
 73
    14
 74
     0
 42
0.0000001
 43
0.0000000001
 40
0.0
 40
0.0
 40
0.0
 40
0.0
 40
0.0126293588
 40
0.0299657504
 40
0.0546893549
 40
0.0880003571
 40
0.130088417
 40
0.1805839141
 40
0.3043235629
 40
0.4540929802000001
 40
0.6246435835000001
 40
0.8092912446999999
 40
1.0
 40
1.0
 40
1.0
 40
1.0
 10
24.8281545044
 20
42.26072218929999
 30
0.0
 10
24.842415607
 20
42.2607201227
 30
0.0
 10
24.8762523908
 20
42.260424801
 30
0.0
 10
24.9380033418
 20
42.25971440459999
 30
0.0
 10
25.0231096465
 20
42.25898708039999
 30
0.0
 10
25.13616654090001
 20
42.2583300616
 30
0.0
 10
25.2783261418
 20
42.25781116719999
 30
0.0
 10
25.5225983218
 20
42.2572886465
 30
0.0
 10
25.8884652145
 20
42.25710173889999
 30
0.0
 10
26.3898984171
 20
42.2574284477
 30
0.0
 10
26.9601084973
 20
42.2583872688
 30
0.0
 10
27.5765458807
 20
42.2599597076
 30
0.0
 10
28.0003989489
 20
42.26076985849999
 30
0.0
 10
28.2157477398
 20
42.2607704573
 30
0.0
  0
SPLINE
  5
25F0
330
220
100
AcDbEntity
  8
0
  6
Continuous
 62
     6
100
AcDbSpline
210
0.0
220
0.0
230
1.0
 70
     8
 71
     3
 72
    15
 73
    11
 74
     0
 42
0.0000001
 43
0.0000000001
 40
0.0
 40
0.0
 40
0.0
 40
0.0
 40
0.0859635833
 40
0.145161715
 40
0.2326508719
 40
0.3193497429
 40
0.4197360140999999
 40
0.5376315082000001
 40
0.6739136490000001
 40
1.0
 40
1.0
 40
1.0
 40
1.0
 10
82.0257522151
 20
40.1905967678
 30
0.0
 10
82.02655567049999
 20
40.1919929314
 30
0.0
 10
82.0277561388
 20
40.19444458249999
 30
0.0
 10
82.0292567115
 20
40.19854130819999
 30
0.0
 10
82.0304268579
 20
40.2027596265
 30
0.0
 10
82.03157937109999
 20
40.2077742118
 30
0.0
 10
82.0327363101
 20
40.21337123659999
 30
0.0
 10
82.03399015269999
 20
40.2198960011
 30
0.0
 10
82.0359381966
 20
40.23059357989999
 30
0.0
 10
82.0373946461
 20
40.2391347307
 30
0.0
 10
82.0383982825
 20
40.2451621651
 30
0.0
  0
LINE
  5
25F1
330
220
100
AcDbEntity
  8
0
  6
Continuous
 62
     6
100
AcDbLine
 10
82.0383982825
 20
40.2451621651
 30
0.0
 11
82.03899400940001
 21
40.24875817709999
 31
0.0
  0
SPLINE
  5
25F2
330
220
100
AcDbEntity
  8
0
  6
Continuous
 62
     6
100
AcDbSpline
210
0.0
220
0.0
230
1.0
 70
     8
 71
     3
 72
     9
 73
     5
 74
     0
 42
0.0000001
 43
0.0000000001
 40
0.0
 40
0.0
 40
0.0
 40
0.0
 40
0.4647258895000001
 40
1.0
 40
1.0
 40
1.0
 40
1.0
 10
82.03899400940001
 20
40.24875817709999
 30
0.0
 10
82.0408863789
 20
40.26023811519999
 30
0.0
 10
82.04478702640001
 20
40.2849689314
 30
0.0
 10
82.04847927699999
 20
40.3097313619
 30
0.0
 10
82.0504092062
 20
40.322992773
 30
0.0
  0
LINE
  5
25F3
330
220
100
AcDbEntity
  8
0
  6
Continuous
 62
     6
100
AcDbLine
 10
82.0504092062
 20
40.322992773
 30
0.0
 11
82.0508923733
 21
40.3263197697
 31
0.0
  0
LINE
  5
25F4
330
220
100
AcDbEntity
  8
0
  6
Continuous
 62
     6
100
AcDbLine
 10
82.0508923733
 20
40.3263197697
 30
0.0
 11
82.0513067217
 21
40.329183931
 31
0.0
  0
LINE
  5
25F5
330
220
100
AcDbEntity
  8
0
  6
Continuous
 62
     6
100
AcDbLine
 10
82.05446815270001
 20
40.35137536389999
 30
0.0
 11
82.05473473780001
 21
40.35327459709999
 31
0.0
  0
LINE
  5
25F6
330
220
100
AcDbEntity
  8
0
  6
Continuous
 62
     6
100
AcDbLine
 10
82.0574510157
 20
40.3728878407
 30
0.0
 11
82.0578429312
 21
40.3757587057
 31
0.0
  0
LINE
  5
25F7
330
220
100
AcDbEntity
  8
0
  6
Continuous
 62
     6
100
AcDbLine
 10
82.0578429312
 20
40.3757587057
 30
0.0
 11
82.0585664965
 21
40.38108788729999
 31
0.0
  0
SPLINE
  5
25F8
330
220
100
AcDbEntity
  8
0
  6
Continuous
 62
     6
100
AcDbSpline
210
0.0
220
0.0
230
1.0
 70
     8
 71
     3
 72
     9
 73
     5
 74
     0
 42
0.0000001
 43
0.0000000001
 40
0.0
 40
0.0
 40
0.0
 40
0.0
 40
0.5388004222000001
 40
1.0
 40
1.0
 40
1.0
 40
1.0
 10
82.0585664965
 20
40.38108788729999
 30
0.0
 10
82.06041032729999
 20
40.3947169227
 30
0.0
 10
82.0637407038
 20
40.4200245387
 30
0.0
 10
82.06684686379999
 20
40.445361112
 30
0.0
 10
82.0681896381
 20
40.45705666849999
 30
0.0
  0
SPLINE
  5
25F9
330
220
100
AcDbEntity
  8
0
  6
Continuous
 62
     6
100
AcDbSpline
210
0.0
220
0.0
230
1.0
 70
     8
 71
     3
 72
    12
 73
     8
 74
     0
 42
0.0000001
 43
0.0000000001
 40
0.0
 40
0.0
 40
0.0
 40
0.0
 40
0.3354119848
 40
0.6012405997000001
 40
0.7079449433000001
 40
0.7999188587999999
 40
1.0
 40
1.0
 40
1.0
 40
1.0
 10
82.0681896381
 20
40.45705666849999
 30
0.0
 10
82.06885091350001
 20
40.46281637369999
 30
0.0
 10
82.06999509939999
 20
40.4731460585
 30
0.0
 10
82.07119269000001
 20
40.4853235276
 30
0.0
 10
82.07182819679999
 20
40.49332954479999
 30
0.0
 10
82.0722444445
 20
40.5002034932
 30
0.0
 10
82.07228206479999
 20
40.5052884215
 30
0.0
 10
82.07182288629999
 20
40.5087161727
 30
0.0
  0
LINE
  5
25FA
330
220
100
AcDbEntity
  8
0
  6
Continuous
 62
     6
100
AcDbLine
 10
82.07182288629999
 20
40.5087161727
 30
0.0
 11
82.07105701039999
 21
40.51277020989999
 31
0.0
  0
LINE
  5
25FB
330
220
100
AcDbEntity
  8
0
  6
Continuous
 62
     6
100
AcDbLine
 10
82.01099494300001
 20
40.1649530704
 30
0.0
 11
82.0093698236
 21
40.1615305026
 31
0.0
  0
LINE
  5
25FC
330
220
100
AcDbEntity
  8
0
  6
Continuous
 62
     6
100
AcDbLine
 10
82.0093698236
 20
40.1615305026
 30
0.0
 11
82.0092416577
 21
40.16116261199999
 31
0.0
  0
LINE
  5
25FD
330
220
100
AcDbEntity
  8
0
  6
Continuous
 62
     6
100
AcDbLine
 10
82.0633068453
 20
40.54555368649999
 30
0.0
 11
82.0634699008
 21
40.54391409489999
 31
0.0
  0
LINE
  5
25FE
330
220
100
AcDbEntity
  8
0
  6
Continuous
 62
     7
100
AcDbLine
 10
82.0190847219
 20
40.17893556489999
 30
0.0
 11
82.01669987850001
 21
40.1635616965
 31
0.0
  0
SPLINE
  5
25FF
330
220
100
AcDbEntity
  8
0
  6
Continuous
 62
     7
100
AcDbSpline
210
0.0
220
0.0
230
1.0
 70
     8
 71
     3
 72
    53
 73
    49
 74
     0
 42
0.0000001
 43
0.0000000001
 40
0.0
 40
0.0
 40
0.0
 40
0.0
 40
0.0458722947
 40
0.0891851998
 40
0.129653607
 40
0.1670108324
 40
0.2010103813
 40
0.2314290144
 40
0.258066087
 40
0.2699123941
 40
0.2807492491
 40
0.2905600554
 40
0.2993305357
 40
0.3070466874
 40
0.3136952961
 40
0.3192680651
 40
0.3237608421
 40
0.3256019443
 40
0.3271733599
 40
0.3284765983
 40
0.3295153533
 40
0.3302983106
 40
0.3308466529
 40
0.3312235042
 40
0.3315937317
 40
0.3321283975
 40
0.332895501
 40
0.3339176766
 40
0.3352039972
 40
0.3367582292
 40
0.3385820017999999
 40
0.3430399897999999
 40
0.3485781911
 40
0.3551927535
 40
0.3628749565
 40
0.3716117218
 40
0.3921937217
 40
0.4168114637000001
 40
0.4453012385
 40
0.477480443
 40
0.5131335904
 40
0.5520295179
 40
0.5939083822
 40
0.6384974669
 40
0.6855004022
 40
0.7854946953000001
 40
0.8912570602999998
 40
1.0
 40
1.0
 40
1.0
 40
1.0
 10
82.01669987850001
 20
40.1635616965
 30
0.0
 10
82.0153851683
 20
40.15513113029999
 30
0.0
 10
82.01280699660001
 20
40.13874380579999
 30
0.0
 10
82.00898579359998
 20
40.1149322439
 30
0.0
 10
82.0053382721
 20
40.0926970433
 30
0.0
 10
82.0018887484
 20
40.0721850029
 30
0.0
 10
81.9986603159
 20
40.05353152659999
 30
0.0
 10
81.99567475010001
 20
40.03685993709999
 30
0.0
 10
81.99332285489999
 20
40.0242612998
 30
0.0
 10
81.9915700159
 20
40.0152564756
 30
0.0
 10
81.990379896
 20
40.00933073179999
 30
0.0
 10
81.9892641965
 20
40.0039737142
 30
0.0
 10
81.9882249105
 20
39.9991938675
 30
0.0
 10
81.9872640005
 20
39.9949991577
 30
0.0
 10
81.98638354899999
 20
39.9913965038
 30
0.0
 10
81.98558517790001
 20
39.98839165750001
 30
0.0
 10
81.98495599600001
 20
39.9862675516
 30
0.0
 10
81.9844859344
 20
39.9848741084
 30
0.0
 10
81.98417899049999
 20
39.9840521743
 30
0.0
 10
81.98389346170001
 20
39.983382277
 30
0.0
 10
81.98363167430001
 20
39.9828625688
 30
0.0
 10
81.98338850449999
 20
39.9824929901
 30
0.0
 10
81.98317145930001
 20
39.9822587217
 30
0.0
 10
81.98292299010001
 20
39.9821687139
 30
0.0
 10
81.98270301079999
 20
39.9823110986
 30
0.0
 10
81.98255732719999
 20
39.982589372
 30
0.0
 10
81.9824242107
 20
39.983001699
 30
0.0
 10
81.9823146963
 20
39.9835641715
 30
0.0
 10
81.9822236819
 20
39.9842770762
 30
0.0
 10
81.9821539828
 20
39.9851421268
 30
0.0
 10
81.98208444989999
 20
39.9865981578
 30
0.0
 10
81.9820631351
 20
39.9887972884
 30
0.0
 10
81.9821217043
 20
39.9918865965
 30
0.0
 10
81.9822662706
 20
39.9955733715
 30
0.0
 10
81.98249668459999
 20
39.9998516175
 30
0.0
 10
81.98294400199999
 20
40.0067195338
 30
0.0
 10
81.98373269159999
 20
40.0167213367
 30
0.0
 10
81.9849667275
 20
40.03037244
 30
0.0
 10
81.98652910499999
 20
40.0461592042
 30
0.0
 10
81.988410304
 20
40.06397663229999
 30
0.0
 10
81.9905984697
 20
40.0837077071
 30
0.0
 10
81.9930797321
 20
40.10522129289999
 30
0.0
 10
81.99583776979999
 20
40.12837592719999
 30
0.0
 10
81.9988547225
 20
40.1530181821
 30
0.0
 10
82.00328837310001
 20
40.18837729429999
 30
0.0
 10
82.0093255099
 20
40.23500275399999
 30
0.0
 10
82.01710064290001
 20
40.292982315
 30
0.0
 10
82.02256976439999
 20
40.33250483129999
 30
0.0
 10
82.02538316850001
 20
40.3525349095
 30
0.0
  0
LINE
  5
2600
330
220
100
AcDbEntity
  8
0
  6
Continuous
 62
     7
100
AcDbLine
 10
82.02538316850001
 20
40.3525349095
 30
0.0
 11
82.02552563460001
 21
40.3535489431
 31
0.0
  0
LINE
  5
2601
330
220
100
AcDbEntity
  8
0
  6
Continuous
 62
     7
100
AcDbLine
 10
82.067876876
 20
40.5259182115
 30
0.0
 11
82.0698040881
 21
40.5411920009
 31
0.0
  0
SPLINE
  5
2602
330
220
100
AcDbEntity
  8
0
  6
Continuous
 62
     7
100
AcDbSpline
210
0.0
220
0.0
230
1.0
 70
     8
 71
     3
 72
    46
 73
    42
 74
     0
 42
0.0000001
 43
0.0000000001
 40
0.0
 40
0.0
 40
0.0
 40
0.0
 40
0.1091161648
 40
0.2077765498
 40
0.2943469079
 40
0.3326436521
 40
0.3673945408
 40
0.3984606228
 40
0.4257137265
 40
0.4490401166
 40
0.4683524915
 40
0.4764780209000001
 40
0.4835724903
 40
0.4896323964000001
 40
0.4946558277000001
 40
0.4986437431000001
 40
0.5016040417000001
 40
0.5035678078000001
 40
0.5046678685
 40
0.5050891472
 40
0.5056094993000001
 40
0.5063203884
 40
0.5072591337
 40
0.5084416647
 40
0.5098757992000001
 40
0.5135125654000001
 40
0.5181836102
 40
0.5238913171
 40
0.5306342754
 40
0.5384093125
 40
0.5472113161
 40
0.5570309726
 40
0.5796809763000001
 40
0.6062728503
 40
0.6366997807
 40
0.6708330322000001
 40
0.7085376867000001
 40
0.7496534191
 40
0.7940108049
 40
0.8917047615000001
 40
1.0
 40
1.0
 40
1.0
 40
1.0
 10
82.0698040881
 20
40.5411920009
 30
0.0
 10
82.07146122839999
 20
40.5544099721
 30
0.0
 10
82.07456422319999
 20
40.57958597869999
 30
0.0
 10
82.0787753813
 20
40.6152738787
 30
0.0
 10
82.08179949709998
 20
40.64239545239999
 30
0.0
 10
82.0838276381
 20
40.661776653
 30
0.0
 10
82.08508352009999
 20
40.6744252526
 30
0.0
 10
82.0861330207
 20
40.6857392267
 30
0.0
 10
82.0869724777
 20
40.69567168339999
 30
0.0
 10
82.0875985862
 20
40.7041815753
 30
0.0
 10
82.08796162490001
 20
40.7103689884
 30
0.0
 10
82.08813207250001
 20
40.7145814514
 30
0.0
 10
82.08819754329999
 20
40.71717893579999
 30
0.0
 10
82.08820967079999
 20
40.71939765969999
 30
0.0
 10
82.0881669597
 20
40.7212394116
 30
0.0
 10
82.088076885
 20
40.7226935406
 30
0.0
 10
82.0879271751
 20
40.7237857117
 30
0.0
 10
82.0877564469
 20
40.72447541289999
 30
0.0
 10
82.08750527579999
 20
40.7248915324
 30
0.0
 10
82.08723743849999
 20
40.72490200229999
 30
0.0
 10
82.0870620184
 20
40.72478880139999
 30
0.0
 10
82.08688289520001
 20
40.7245932995
 30
0.0
 10
82.0866908984
 20
40.7243041229
 30
0.0
 10
82.0864852302
 20
40.7239216851
 30
0.0
 10
82.0861666717
 20
40.72322737869999
 30
0.0
 10
82.0857458801
 20
40.72211388409999
 30
0.0
 10
82.08521677529999
 20
40.720486401
 30
0.0
 10
82.0846341118
 20
40.71847864019999
 30
0.0
 10
82.0839985621
 20
40.7160924498
 30
0.0
 10
82.08331143429999
 20
40.7133294831
 30
0.0
 10
82.08257360620001
 20
40.7101923752
 30
0.0
 10
82.0814699862
 20
40.705276004
 30
0.0
 10
82.07998042760001
 20
40.6982207396
 30
0.0
 10
82.0780790457
 20
40.6886819026
 30
0.0
 10
82.0759974813
 20
40.6777499046
 30
0.0
 10
82.07374443739999
 20
40.6654698062
 30
0.0
 10
82.0713300707
 20
40.65189280699999
 30
0.0
 10
82.06876429020001
 20
40.6370751082
 30
0.0
 10
82.0650344823
 20
40.61502636
 30
0.0
 10
82.06009194299999
 20
40.58486488479999
 30
0.0
 10
82.0561551793
 20
40.5600266438
 30
0.0
 10
82.0541131599
 20
40.54696406929999
 30
0.0
  0
LINE
  5
2603
330
220
100
AcDbEntity
  8
0
  6
Continuous
 62
     7
100
AcDbLine
 10
82.02561549069999
 20
40.3541882503
 30
0.0
 11
82.02552563460001
 21
40.3535489431
 31
0.0
  0
SPLINE
  5
2604
330
220
100
AcDbEntity
  8
0
  6
Continuous
 62
     7
100
AcDbSpline
210
0.0
220
0.0
230
1.0
 70
     8
 71
     3
 72
    40
 73
    36
 74
     0
 42
0.0000001
 43
0.0000000001
 40
0.0
 40
0.0
 40
0.0
 40
0.0
 40
0.0041179189
 40
0.0075311226
 40
0.0102441163
 40
0.0122679837
 40
0.0136335435
 40
0.0144546265
 40
0.0147969869
 40
0.0152032837
 40
0.0157309409
 40
0.0164069761
 40
0.0182473523
 40
0.0207714357
 40
0.0239937256
 40
0.0279200963
 40
0.0325528968
 40
0.0378911674
 40
0.0439315586
 40
0.0506701561
 40
0.0662247203
 40
0.084518443
 40
0.1055000663
 40
0.1291058472
 40
0.155270997
 40
0.1839219491
 40
0.2149711512
 40
0.2483296388
 40
0.3215860091
 40
0.402831486
 40
0.4911222001
 40
0.5854313881000001
 40
0.6846447438
 40
0.7876127803000001
 40
1.0
 40
1.0
 40
1.0
 40
1.0
 10
81.98222311109999
 20
39.98749949030001
 30
0.0
 10
81.9820743728
 20
39.9870014254
 30
0.0
 10
81.98179266290001
 20
39.9860935102
 30
0.0
 10
81.98136694170001
 20
39.984871466
 30
0.0
 10
81.9809845355
 20
39.9839176856
 30
0.0
 10
81.9806324536
 20
39.9832256573
 30
0.0
 10
81.98034146800001
 20
39.9827910944
 30
0.0
 10
81.98004730820001
 20
39.9825891965
 30
0.0
 10
81.9798452907
 20
39.9826450289
 30
0.0
 10
81.97972739939999
 20
39.98276045340001
 30
0.0
 10
81.97962354780001
 20
39.98293628840001
 30
0.0
 10
81.97948416699999
 20
39.9832956358
 30
0.0
 10
81.97934998479999
 20
39.9839202248
 30
0.0
 10
81.9792325282
 20
39.984870803
 30
0.0
 10
81.97915173869999
 20
39.9860897451
 30
0.0
 10
81.97910749890001
 20
39.98757637820001
 30
0.0
 10
81.9791011568
 20
39.98933079869999
 30
0.0
 10
81.97913287979998
 20
39.9913517392
 30
0.0
 10
81.9792028372
 20
39.9936376576
 30
0.0
 10
81.9793547757
 20
39.997211001
 30
0.0
 10
81.979648772
 20
40.00232605079999
 30
0.0
 10
81.98013722709999
 20
40.0092300258
 30
0.0
 10
81.9807764235
 20
40.0171417595
 30
0.0
 10
81.98156457240001
 20
40.0260379875
 30
0.0
 10
81.9824999193
 20
40.03589284679999
 30
0.0
 10
81.98357995949999
 20
40.0466776087
 30
0.0
 10
81.9848014579
 20
40.05836063199999
 30
0.0
 10
81.9866736105
 20
40.0756366799
 30
0.0
 10
81.98934729189998
 20
40.09919899359999
 30
0.0
 10
81.992959396
 20
40.12963288429999
 30
0.0
 10
81.99702726220001
 20
40.1626884821
 30
0.0
 10
82.00150370899999
 20
40.1979787012
 30
0.0
 10
82.00633645560001
 20
40.2350910588
 30
0.0
 10
82.01325237869999
 20
40.28696256609999
 30
0.0
 10
82.0186834747
 20
40.3263974949
 30
0.0
 10
82.02241247359999
 20
40.35294625599999
 30
0.0
  0
LINE
  5
2605
330
220
100
AcDbEntity
  8
0
  6
Continuous
 62
     7
100
AcDbLine
 10
82.02241247359999
 20
40.35294625599999
 30
0.0
 11
82.02255582120001
 21
40.35396656529999
 31
0.0
  0
SPLINE
  5
2606
330
220
100
AcDbEntity
  8
0
  6
Continuous
 62
     7
100
AcDbSpline
210
0.0
220
0.0
230
1.0
 70
     8
 71
     3
 72
    40
 73
    36
 74
     0
 42
0.0000001
 43
0.0000000001
 40
0.0
 40
0.0
 40
0.0
 40
0.0
 40
0.0041466279
 40
0.0075857587
 40
0.0103218767
 40
0.012365853
 40
0.0137476214
 40
0.014576998
 40
0.0149173409
 40
0.0153186635
 40
0.0158404616
 40
0.0165107059
 40
0.0183408271
 40
0.020856919
 40
0.0240735008
 40
0.0279963334
 40
0.0326276922
 40
0.0379670488
 40
0.0440110078
 40
0.050755467
 40
0.0663278838
 40
0.0846466824
 40
0.1056609275
 40
0.129305518
 40
0.1555140432
 40
0.1842124938
 40
0.2153119821
 40
0.2487217166
 40
0.3220785549
 40
0.4034106912
 40
0.4917606405
 40
0.5860868698
 40
0.6852602205000001
 40
0.7881162381
 40
1.0
 40
1.0
 40
1.0
 40
1.0
 10
82.0852295733
 20
40.7198879536
 30
0.0
 10
82.0852246943
 20
40.7204166286
 30
0.0
 10
82.08520556379999
 20
40.7213835788
 30
0.0
 10
82.08513501149999
 20
40.7226987728
 30
0.0
 10
82.085031324
 20
40.72374021139999
 30
0.0
 10
82.08488466529999
 20
40.7245186582
 30
0.0
 10
82.08472412549999
 20
40.7250272053
 30
0.0
 10
82.08449928710001
 20
40.725311877
 30
0.0
 10
82.08428748979999
 20
40.7253197166
 30
0.0
 10
82.0841410559
 20
40.725242981
 30
0.0
 10
82.08399201729999
 20
40.725103484
 30
0.0
 10
82.08375742040001
 20
40.7247962323
 30
0.0
 10
82.0834543874
 20
40.7242299689
 30
0.0
 10
82.08307685459999
 20
40.7233425431
 30
0.0
 10
82.08266005129999
 20
40.72218347089999
 30
0.0
 10
82.0822040178
 20
40.7207535167
 30
0.0
 10
82.08171005050001
 20
40.7190521606
 30
0.0
 10
82.08117869369999
 20
40.71708054280001
 30
0.0
 10
82.0806105229
 20
40.7148400907
 30
0.0
 10
82.07976334799999
 20
40.71132464139999
 30
0.0
 10
82.07862459499999
 20
40.70626999229999
 30
0.0
 10
82.0771761343
 20
40.6994208763
 30
0.0
 10
82.0755930432
 20
40.6915486838
 30
0.0
 10
82.0738800866
 20
40.6826768395
 30
0.0
 10
82.0720428271
 20
40.672831373
 30
0.0
 10
82.070086938
 20
40.6620412951
 30
0.0
 10
82.0680181562
 20
40.6503386822
 30
0.0
 10
82.0650232396
 20
40.6330176585
 30
0.0
 10
82.06105598209999
 20
40.6093652173
 30
0.0
 10
82.05608687500001
 20
40.5787785213
 30
0.0
 10
82.05083209399999
 20
40.5455298996
 30
0.0
 10
82.0453544222
 20
40.5100137783
 30
0.0
 10
82.0397187905
 20
40.4726508328
 30
0.0
 10
82.03200736019999
 20
40.4204430535
 30
0.0
 10
82.0263153395
 20
40.3807189978
 30
0.0
 10
82.02255582120001
 20
40.35396656529999
 30
0.0
  0
LINE
  5
2607
330
220
100
AcDbEntity
  8
0
  6
Continuous
 62
     9
100
AcDbLine
 10
82.0712102307
 20
40.5106752441
 30
0.0
 11
82.07105696560001
 21
40.5127698403
 31
0.0
  0
LINE
  5
2608
330
220
100
AcDbEntity
  8
0
  6
Continuous
 62
     9
100
AcDbLine
 10
82.0544567904
 20
40.3513738273
 30
0.0
 11
82.0547238291
 21
40.35327630949999
 31
0.0
  0
SPLINE
  5
2609
330
220
100
AcDbEntity
  8
0
  6
Continuous
 62
     9
100
AcDbSpline
210
0.0
220
0.0
230
1.0
 70
     8
 71
     3
 72
    48
 73
    44
 74
     0
 42
0.0000001
 43
0.0000000001
 40
0.0
 40
0.0
 40
0.0
 40
0.0
 40
0.0977048816
 40
0.1913967986
 40
0.2775405689999999
 40
0.3167528037
 40
0.3528878962
 40
0.3856029337
 40
0.4145908655
 40
0.4395785451
 40
0.4504955354
 40
0.4603291801
 40
0.4690564514
 40
0.4766547692
 40
0.4831072399
 40
0.4884036663000001
 40
0.4906158109000001
 40
0.4925362065
 40
0.4941646154
 40
0.4955016469000001
 40
0.4965502024
 40
0.4973183940000001
 40
0.4978280725000001
 40
0.4981572877
 40
0.498525936
 40
0.4991109844
 40
0.5010980341
 40
0.5025241727000001
 40
0.5042421789000001
 40
0.5085538355
 40
0.5140286778000001
 40
0.5206578156
 40
0.5284304611000001
 40
0.5373291945
 40
0.5584122942000001
 40
0.5837160204
 40
0.6130003365
 40
0.6459892823
 40
0.6823731423
 40
0.7218066832
 40
0.8083024096999999
 40
0.9022149243999999
 40
1.0
 40
1.0
 40
1.0
 40
1.0
 10
82.0547238291
 20
40.35327630949999
 30
0.0
 10
82.05606684820001
 20
40.36285583949999
 30
0.0
 10
82.0586522155
 20
40.3816278657
 30
0.0
 10
82.06226263439999
 20
40.40886749699999
 30
0.0
 10
82.0649896309
 20
40.4303822451
 30
0.0
 10
82.066912925
 20
40.4462545136
 30
0.0
 10
82.06815560349999
 20
40.4568807861
 30
0.0
 10
82.06923300380001
 20
40.4665071337
 30
0.0
 10
82.0701350881
 20
40.47504241099999
 30
0.0
 10
82.0707598637
 20
40.481436729
 30
0.0
 10
82.0711608893
 20
40.4859472598
 30
0.0
 10
82.0713993797
 20
40.48885597099999
 30
0.0
 10
82.07158903040001
 20
40.4914389345
 30
0.0
 10
82.0717295032
 20
40.4936897499
 30
0.0
 10
82.07182054909999
 20
40.49560311829999
 30
0.0
 10
82.0718580067
 20
40.4969849965
 30
0.0
 10
82.07185949360001
 20
40.49791857379999
 30
0.0
 10
82.0718480646
 20
40.498488839
 30
0.0
 10
82.0718247011
 20
40.49897218619999
 30
0.0
 10
82.07178868719999
 20
40.4993678476
 30
0.0
 10
82.0717429095
 20
40.4996776205
 30
0.0
 10
82.07168186750001
 20
40.4998993091
 30
0.0
 10
82.07161857050001
 20
40.50004831339999
 30
0.0
 10
82.0715021492
 20
40.5001177132
 30
0.0
 10
82.07138030729998
 20
40.5000433259
 30
0.0
 10
82.07121080890001
 20
40.49981161859999
 30
0.0
 10
82.07104820300001
 20
40.49944320429999
 30
0.0
 10
82.07087132380001
 20
40.498968676
 30
0.0
 10
82.07064060209999
 20
40.49826665699999
 30
0.0
 10
82.07032840329999
 20
40.4971713757
 30
0.0
 10
82.0699280444
 20
40.49559594709999
 30
0.0
 10
82.0694809103
 20
40.49367950619999
 30
0.0
 10
82.0689882121
 20
40.49142580809999
 30
0.0
 10
82.0682286613
 20
40.4877658875
 30
0.0
 10
82.0671845366
 20
40.48239268389999
 30
0.0
 10
82.0658331083
 20
40.4750237278
 30
0.0
 10
82.0643356927
 20
40.4664834258
 30
0.0
 10
82.06270686020001
 20
40.45685265969999
 30
0.0
 10
82.0609624339
 20
40.44622249389999
 30
0.0
 10
82.0584254881
 20
40.4303542594
 30
0.0
 10
82.05510625530001
 20
40.40884336269999
 30
0.0
 10
82.05106025239999
 20
40.3815996819
 30
0.0
 10
82.04836750289999
 20
40.36281267369999
 30
0.0
 10
82.0470171991
 20
40.3532261499
 30
0.0
  0
LINE
  5
260A
330
220
100
AcDbEntity
  8
0
  6
Continuous
 62
     9
100
AcDbLine
 10
82.0470171991
 20
40.3532261499
 30
0.0
 11
82.04690801899999
 21
40.3524506488
 31
0.0
  0
LINE
  5
260B
330
220
100
AcDbEntity
  8
0
  6
Continuous
 62
     9
100
AcDbLine
 10
82.04690801899999
 20
40.3524506488
 30
0.0
 11
82.0467565917
 21
40.3513738273
 31
0.0
  0
SPLINE
  5
260C
330
220
100
AcDbEntity
  8
0
  6
Continuous
 62
     9
100
AcDbSpline
210
0.0
220
0.0
230
1.0
 70
     8
 71
     3
 72
    17
 73
    13
 74
     0
 42
0.0000001
 43
0.0000000001
 40
0.0
 40
0.0
 40
0.0
 40
0.0
 40
0.0840482266
 40
0.1321066006
 40
0.1521183817
 40
0.1770999876
 40
0.2105686566
 40
0.2540147431
 40
0.37309032
 40
0.5367220102
 40
0.7456067108
 40
1.0
 40
1.0
 40
1.0
 40
1.0
 10
82.07105696060001
 20
40.5127698604
 30
0.0
 10
82.07103561310001
 20
40.5128561073
 30
0.0
 10
82.071001341
 20
40.5129862453
 30
0.0
 10
82.07088908699999
 20
40.5131328559
 30
0.0
 10
82.0707840827
 20
40.5131260586
 30
0.0
 10
82.07071366159999
 20
40.513078764
 30
0.0
 10
82.07064053819999
 20
40.5129992235
 30
0.0
 10
82.070524422
 20
40.5128269235
 30
0.0
 10
82.07037338300001
 20
40.5125158119
 30
0.0
 10
82.0701838443
 20
40.5120318439
 30
0.0
 10
82.0699734937
 20
40.5114031126
 30
0.0
 10
82.0698332211
 20
40.51093384579999
 30
0.0
 10
82.06975895479999
 20
40.51067537789999
 30
0.0
  0
SPLINE
  5
260D
330
220
100
AcDbEntity
  8
0
  6
Continuous
 62
     9
100
AcDbSpline
210
0.0
220
0.0
230
1.0
 70
     8
 71
     3
 72
    17
 73
    13
 74
     0
 42
0.0000001
 43
0.0000000001
 40
0.0
 40
0.0
 40
0.0
 40
0.0
 40
0.0195781263
 40
0.04650985
 40
0.0806194649
 40
0.1216504845
 40
0.2232326079
 40
0.3482427735
 40
0.4929563817
 40
0.6530577035000001
 40
0.8237620843
 40
1.0
 40
1.0
 40
1.0
 40
1.0
 10
82.06975895479999
 20
40.51067537789999
 30
0.0
 10
82.06947213079999
 20
40.5096771501
 30
0.0
 10
82.0688762283
 20
40.5072817152
 30
0.0
 10
82.06795652149999
 20
40.5031049465
 30
0.0
 10
82.0668855519
 20
40.4977966663
 30
0.0
 10
82.06513827130001
 20
40.4885857222
 30
0.0
 10
82.0626762528
 20
40.47460288449999
 30
0.0
 10
82.0594506714
 20
40.4551709033
 30
0.0
 10
82.05588096259999
 20
40.43264968879999
 30
0.0
 10
82.05207440210001
 20
40.40771217989999
 30
0.0
 10
82.0481461618
 20
40.38110185019999
 30
0.0
 10
82.04553987609999
 20
40.3628819909
 30
0.0
 10
82.0442360048
 20
40.35362395169999
 30
0.0
  0
LINE
  5
260E
330
220
100
AcDbEntity
  8
0
  6
Continuous
 62
     9
100
AcDbLine
 10
82.0442360048
 20
40.35362395169999
 30
0.0
 11
82.043968119
 21
40.3517197758
 31
0.0
  0
SPLINE
  5
260F
330
220
100
AcDbEntity
  8
0
  6
Continuous
 62
     9
100
AcDbSpline
210
0.0
220
0.0
230
1.0
 70
     8
 71
     3
 72
    48
 73
    44
 74
     0
 42
0.0000001
 43
0.0000000001
 40
0.0
 40
0.0
 40
0.0
 40
0.0
 40
0.0973666805
 40
0.190934679
 40
0.2770942935
 40
0.3163527848999999
 40
0.3525495917
 40
0.3853369048
 40
0.4144007301000001
 40
0.4394639015
 40
0.4504166172
 40
0.4602839864
 40
0.4690426993
 40
0.4766698319
 40
0.4831477774000001
 40
0.4884660598
 40
0.4906877139
 40
0.4926166354000001
 40
0.4942525493
 40
0.4955960105
 40
0.4966498013000001
 40
0.4974218777
 40
0.4979337223
 40
0.4982624696000001
 40
0.4986289710000001
 40
0.4992126508000001
 40
0.5012004141
 40
0.5026285818
 40
0.50434966
 40
0.5086704635000001
 40
0.5141582838000001
 40
0.5208040532
 40
0.5285967236
 40
0.5375182243
 40
0.5586537898000001
 40
0.5840165499000002
 40
0.6133610288
 40
0.6464072715000001
 40
0.6828387973000001
 40
0.7223055027
 40
0.8087943251999998
 40
0.9025650129
 40
1.0
 40
1.0
 40
1.0
 40
1.0
 10
82.0467565917
 20
40.3513738273
 30
0.0
 10
82.04539797709999
 20
40.3417060342
 30
0.0
 10
82.0427802164
 20
40.3227410601
 30
0.0
 10
82.03912165830001
 20
40.29519910829999
 30
0.0
 10
82.0363544053
 20
40.27341664989999
 30
0.0
 10
82.0344001627
 20
40.257330032
 30
0.0
 10
82.03313608270001
 20
40.2465505604
 30
0.0
 10
82.0320392026
 20
40.23678079209999
 30
0.0
 10
82.03111995409999
 20
40.22811460349999
 30
0.0
 10
82.03048255069999
 20
40.2216202637
 30
0.0
 10
82.03007283149998
 20
40.21703788139999
 30
0.0
 10
82.02982883909999
 20
40.21408209079999
 30
0.0
 10
82.02963444759999
 20
40.21145687669999
 30
0.0
 10
82.02949000609999
 20
40.2091688525
 30
0.0
 10
82.02939579349999
 20
40.20722351229999
 30
0.0
 10
82.02935626149999
 20
40.2058183385
 30
0.0
 10
82.0293535426
 20
40.2048688478
 30
0.0
 10
82.02936431119999
 20
40.2042887251
 30
0.0
 10
82.0293872058
 20
40.20379692299999
 30
0.0
 10
82.02942298020001
 20
40.2033942067
 30
0.0
 10
82.02946863300001
 20
40.2030788422
 30
0.0
 10
82.0295299254
 20
40.2028529221
 30
0.0
 10
82.029593139
 20
40.2027012881
 30
0.0
 10
82.02971031469999
 20
40.20262952639999
 30
0.0
 10
82.0298337003
 20
40.20270459569999
 30
0.0
 10
82.0300044915
 20
40.20293945299999
 30
0.0
 10
82.0301687693
 20
40.20331291059999
 30
0.0
 10
82.03034741880001
 20
40.2037942946
 30
0.0
 10
82.0305807065
 20
40.2045069038
 30
0.0
 10
82.0308964892
 20
40.2056189042
 30
0.0
 10
82.0313016308
 20
40.2072185357
 30
0.0
 10
82.03175426159999
 20
40.20916459939999
 30
0.0
 10
82.03225314069999
 20
40.2114531894
 30
0.0
 10
82.0330223426
 20
40.2151695943
 30
0.0
 10
82.03407988
 20
40.2206250862
 30
0.0
 10
82.03544871140001
 20
40.2281055822
 30
0.0
 10
82.03696527279999
 20
40.23677286689999
 30
0.0
 10
82.0386145091
 20
40.24654343299999
 30
0.0
 10
82.04038021789999
 20
40.2573234959
 30
0.0
 10
82.0429460835
 20
40.27340235869999
 30
0.0
 10
82.04629997759999
 20
40.29517731979999
 30
0.0
 10
82.0503826424
 20
40.32272044479999
 30
0.0
 10
82.05309722269999
 20
40.3416992519
 30
0.0
 10
82.0544567904
 20
40.3513738273
 30
0.0
  0
SPLINE
  5
2610
330
220
100
AcDbEntity
  8
0
  6
Continuous
 62
     9
100
AcDbSpline
210
0.0
220
0.0
230
1.0
 70
     8
 71
     3
 72
    17
 73
    13
 74
     0
 42
0.0000001
 43
0.0000000001
 40
0.0
 40
0.0
 40
0.0
 40
0.0
 40
0.0437401628
 40
0.0773761251
 40
0.1021522439
 40
0.1211767459
 40
0.1651785713
 40
0.2445890389
 40
0.3666160837
 40
0.5329035519
 40
0.7439735492000001
 40
1.0
 40
1.0
 40
1.0
 40
1.0
 10
82.01099501569999
 20
40.164953593
 30
0.0
 10
82.0109643638
 20
40.1649002934
 30
0.0
 10
82.0109067307
 20
40.16480769050001
 30
0.0
 10
82.01081452409999
 20
40.1646970659
 30
0.0
 10
82.01072770319999
 20
40.1646285893
 30
0.0
 10
82.0105964568
 20
40.16460659559999
 30
0.0
 10
82.0104508838
 20
40.16479009869999
 30
0.0
 10
82.0103687972
 20
40.1651145856
 30
0.0
 10
82.0102856323
 20
40.1656308856
 30
0.0
 10
82.0102373059
 20
40.16632953139999
 30
0.0
 10
82.0102101328
 20
40.1672203654
 30
0.0
 10
82.01021085509999
 20
40.16787683869999
 30
0.0
 10
82.01021454010001
 20
40.1682367119
 30
0.0
  0
SPLINE
  5
2611
330
220
100
AcDbEntity
  8
0
  6
Continuous
 62
     9
100
AcDbSpline
210
0.0
220
0.0
230
1.0
 70
     8
 71
     3
 72
    16
 73
    12
 74
     0
 42
0.0000001
 43
0.0000000001
 40
0.0
 40
0.0
 40
0.0
 40
0.0
 40
0.0206034728
 40
0.0484160618
 40
0.1248705714
 40
0.2271625389
 40
0.3522946847
 40
0.4965985842000001
 40
0.6558116353
 40
0.8252968266999999
 40
1.0
 40
1.0
 40
1.0
 40
1.0
 10
82.01021454010001
 20
40.1682367119
 30
0.0
 10
82.0102276465
 20
40.1695166669
 30
0.0
 10
82.0103510616
 20
40.1725230807
 30
0.0
 10
82.01086414689999
 20
40.1802639614
 30
0.0
 10
82.0120354542
 20
40.1930448894
 30
0.0
 10
82.0140239304
 20
40.21181873309999
 30
0.0
 10
82.0166855125
 20
40.2347594597
 30
0.0
 10
82.01993977849999
 20
40.2611904564
 30
0.0
 10
82.0236960275
 20
40.2903355289
 30
0.0
 10
82.02784400849999
 20
40.3213339098
 30
0.0
 10
82.03077412749999
 20
40.3425155103
 30
0.0
 10
82.03228455600001
 20
40.35326359869999
 30
0.0
  0
SPLINE
  5
2612
330
220
100
AcDbEntity
  8
0
  6
Continuous
 62
     9
100
AcDbSpline
210
0.0
220
0.0
230
1.0
 70
     8
 71
     3
 72
    17
 73
    13
 74
     0
 42
0.0000001
 43
0.0000000001
 40
0.0
 40
0.0
 40
0.0
 40
0.0
 40
0.176715676
 40
0.3479551912
 40
0.5085202874000001
 40
0.6535366226
 40
0.7786041419
 40
0.8799332487
 40
0.9207068243
 40
0.9544670756
 40
0.9809562714
 40
1.0
 40
1.0
 40
1.0
 40
1.0
 10
82.043968119
 20
40.3517197758
 30
0.0
 10
82.04265560919999
 20
40.34238006119999
 30
0.0
 10
82.04011148300001
 20
40.3239843772
 30
0.0
 10
82.03651464329999
 20
40.2970834532
 30
0.0
 10
82.0332668648
 20
40.271843043
 30
0.0
 10
82.03046503979999
 20
40.2490301097
 30
0.0
 10
82.0281937362
 20
40.2293378635
 30
0.0
 10
82.0267003941
 20
40.2151565681
 30
0.0
 10
82.0258433709
 20
40.2058097284
 30
0.0
 10
82.02541508960001
 20
40.2004347177
 30
0.0
 10
82.02515649250001
 20
40.196210745
 30
0.0
 10
82.02507653229998
 20
40.19378066979999
 30
0.0
 10
82.02508290389999
 20
40.19276430739999
 30
0.0
  0
SPLINE
  5
2613
330
220
100
AcDbEntity
  8
0
  6
Continuous
 62
     9
100
AcDbSpline
210
0.0
220
0.0
230
1.0
 70
     8
 71
     3
 72
    17
 73
    13
 74
     0
 42
0.0000001
 43
0.0000000001
 40
0.0
 40
0.0
 40
0.0
 40
0.0
 40
0.2533142132
 40
0.4608516954
 40
0.622923814
 40
0.7403417235
 40
0.7830158956000001
 40
0.8158668728
 40
0.8406072234999999
 40
0.8611204738999999
 40
0.9122116255999999
 40
1.0
 40
1.0
 40
1.0
 40
1.0
 10
82.02508290389999
 20
40.19276430739999
 30
0.0
 10
82.02508447499999
 20
40.192513702
 30
0.0
 10
82.02509243909998
 20
40.1920578005
 30
0.0
 10
82.0251242133
 20
40.1914420635
 30
0.0
 10
82.0251747336
 20
40.1909628188
 30
0.0
 10
82.02523466429999
 20
40.19064862839999
 30
0.0
 10
82.0252987257
 20
40.1904681462
 30
0.0
 10
82.0253466329
 20
40.19038090179999
 30
0.0
 10
82.0254016197
 20
40.19032351079999
 30
0.0
 10
82.02549988799999
 20
40.19029795679999
 30
0.0
 10
82.02563972890001
 20
40.19040850729999
 30
0.0
 10
82.0257089527
 20
40.1905218004
 30
0.0
 10
82.02575225910001
 20
40.1905970846
 30
0.0
  0
LINE
  5
2614
330
220
100
AcDbEntity
  8
0
  6
Continuous
 62
     9
100
AcDbLine
 10
82.009444791
 20
40.16122241179999
 30
0.0
 11
82.00938921619998
 21
40.1609889699
 31
0.0
  0
SPLINE
  5
2615
330
220
100
AcDbEntity
  8
0
  6
Continuous
 62
     9
100
AcDbSpline
210
0.0
220
0.0
230
1.0
 70
     8
 71
     3
 72
    24
 73
    20
 74
     0
 42
0.0000001
 43
0.0000000001
 40
0.0
 40
0.0
 40
0.0
 40
0.0
 40
0.1150215779
 40
0.2153471916
 40
0.3009328843
 40
0.371757023
 40
0.4692558448
 40
0.4966800904000001
 40
0.5122051517
 40
0.5185021597000001
 40
0.5263596922
 40
0.5369661121
 40
0.5508197417
 40
0.5890204277000001
 40
0.6417462506
 40
0.7091871296
 40
0.7913878634999999
 40
0.8883377384999999
 40
1.0
 40
1.0
 40
1.0
 40
1.0
 10
82.00927766360001
 20
40.16052585679999
 30
0.0
 10
82.0091625308
 20
40.1600517599
 30
0.0
 10
82.0089418108
 20
40.15916524929999
 30
0.0
 10
82.0086137236
 20
40.1579321073
 30
0.0
 10
82.00831163689999
 20
40.15688437179999
 30
0.0
 10
82.0079825025
 20
40.1558633532
 30
0.0
 10
82.00768288810001
 20
40.1550710984
 30
0.0
 10
82.00738614489999
 20
40.1545724268
 30
0.0
 10
82.00719943930002
 20
40.1544227051
 30
0.0
 10
82.00707110039999
 20
40.1544645726
 30
0.0
 10
82.00700155529998
 20
40.1545468957
 30
0.0
 10
82.0069404458
 20
40.15466996469999
 30
0.0
 10
82.0068594804
 20
40.1549239791
 30
0.0
 10
82.00678542730001
 20
40.15536353459999
 30
0.0
 10
82.0067256703
 20
40.1560327159
 30
0.0
 10
82.00669189439999
 20
40.1568907447
 30
0.0
 10
82.0066839599
 20
40.1579367341
 30
0.0
 10
82.00670270939999
 20
40.15917019689999
 30
0.0
 10
82.0067310916
 20
40.16005462519999
 30
0.0
 10
82.0067491858
 20
40.16052790699999
 30
0.0
  0
SPLINE
  5
2616
330
220
100
AcDbEntity
  8
0
  6
Continuous
 62
     9
100
AcDbSpline
210
0.0
220
0.0
230
1.0
 70
     8
 71
     3
 72
    12
 73
     8
 74
     0
 42
0.0000001
 43
0.0000000001
 40
0.0
 40
0.0
 40
0.0
 40
0.0
 40
0.073392387
 40
0.1662087512
 40
0.4020215401
 40
0.6878660070000001
 40
1.0
 40
1.0
 40
1.0
 40
1.0
 10
82.0074423235
 20
40.171182606
 30
0.0
 10
82.0078072985
 20
40.1756635426
 30
0.0
 10
82.00875747100001
 20
40.18580113579999
 30
0.0
 10
82.01135531170001
 20
40.21029047119999
 30
0.0
 10
82.0158180223
 20
40.2476670333
 30
0.0
 10
82.02235400040001
 20
40.2983227311
 30
0.0
 10
82.02732374529999
 20
40.3346146923
 30
0.0
 10
82.0299845749
 20
40.3535489431
 30
0.0
  0
SPLINE
  5
2617
330
220
100
AcDbEntity
  8
0
  6
Continuous
 62
     9
100
AcDbSpline
210
0.0
220
0.0
230
1.0
 70
     8
 71
     3
 72
    12
 73
     8
 74
     0
 42
0.0000001
 43
0.0000000001
 40
0.0
 40
0.0
 40
0.0
 40
0.0
 40
0.3110112439999999
 40
0.5964723577000001
 40
0.8326709785999998
 40
0.9259603668
 40
1.0
 40
1.0
 40
1.0
 40
1.0
 10
82.0299845749
 20
40.3535489431
 30
0.0
 10
82.03264826739999
 20
40.3725035664
 30
0.0
 10
82.03788516279999
 20
40.4088378555
 30
0.0
 10
82.04558814169999
 20
40.4595018323
 30
0.0
 10
82.0516292329
 20
40.4968643943
 30
0.0
 10
82.05591015819999
 20
40.52132757559999
 30
0.0
 10
82.05780687169999
 20
40.5314501025
 30
0.0
 10
82.05869886329999
 20
40.5359186386
 30
0.0
  0
LINE
  5
2618
330
220
100
AcDbEntity
  8
0
  6
Continuous
 62
     9
100
AcDbLine
 10
82.0598878782
 20
40.54167295630001
 30
0.0
 11
82.0607656488
 21
40.5455900908
 31
0.0
  0
SPLINE
  5
2619
330
220
100
AcDbEntity
  8
0
  6
Continuous
 62
     9
100
AcDbSpline
210
0.0
220
0.0
230
1.0
 70
     8
 71
     3
 72
    24
 73
    20
 74
     0
 42
0.0000001
 43
0.0000000001
 40
0.0
 40
0.0
 40
0.0
 40
0.0
 40
0.1150215779
 40
0.2153471916
 40
0.3009328843
 40
0.371757023
 40
0.4692558448
 40
0.4966800904000001
 40
0.5122051517
 40
0.5185021597000001
 40
0.5263596922
 40
0.5369661121
 40
0.5508197417
 40
0.5890204277000001
 40
0.6417462506
 40
0.7091871296
 40
0.7913878634999999
 40
0.8883377384999999
 40
1.0
 40
1.0
 40
1.0
 40
1.0
 10
82.06100016209999
 20
40.5465720294
 30
0.0
 10
82.0611152949
 20
40.5470461262
 30
0.0
 10
82.06133601479999
 20
40.5479326369
 30
0.0
 10
82.0616641021
 20
40.5491657789
 30
0.0
 10
82.06196618879999
 20
40.55021351439999
 30
0.0
 10
82.0622953231
 20
40.5512345329
 30
0.0
 10
82.0625949375
 20
40.5520267878
 30
0.0
 10
82.06289168069998
 20
40.5525254594
 30
0.0
 10
82.0630783864
 20
40.55267518109999
 30
0.0
 10
82.0632067252
 20
40.55263331349999
 30
0.0
 10
82.06327627029999
 20
40.5525509905
 30
0.0
 10
82.06333737989998
 20
40.55242792139999
 30
0.0
 10
82.06341834529998
 20
40.5521739071
 30
0.0
 10
82.06349239839999
 20
40.55173435159999
 30
0.0
 10
82.06355215530001
 20
40.5510651703
 30
0.0
 10
82.06358593119999
 20
40.5502071414
 30
0.0
 10
82.0635938658
 20
40.5491611521
 30
0.0
 10
82.0635751162
 20
40.5479276892
 30
0.0
 10
82.06354673399999
 20
40.547043261
 30
0.0
 10
82.06352863979999
 20
40.5465699792
 30
0.0
  0
LINE
  5
261A
330
220
100
AcDbEntity
  8
0
  6
Continuous
 62
     9
100
AcDbLine
 10
82.0634894654
 20
40.5456385137
 30
0.0
 11
82.0634829843
 21
40.5454979816
 31
0.0
  0
SPLINE
  5
261B
330
220
100
AcDbEntity
  8
0
  6
Continuous
 62
     9
100
AcDbSpline
210
0.0
220
0.0
230
1.0
 70
     8
 71
     3
 72
    15
 73
    11
 74
     0
 42
0.0000001
 43
0.0000000001
 40
0.0
 40
0.0
 40
0.0
 40
0.0
 40
0.3426084179
 40
0.5014127704
 40
0.6455800571000001
 40
0.7708515657
 40
0.8735543766999999
 40
0.9506783958999999
 40
0.9789162023000001
 40
1.0
 40
1.0
 40
1.0
 40
1.0
 10
82.03228455600001
 20
40.35326359869999
 30
0.0
 10
82.03526401839999
 20
40.37446521529999
 30
0.0
 10
82.0397523689
 20
40.4054764453
 30
0.0
 10
82.0458214375
 20
40.44536043789999
 30
0.0
 10
82.04999652779999
 20
40.4717942139
 30
0.0
 10
82.05378374570001
 20
40.4947396892
 30
0.0
 10
82.0570730646
 20
40.5135196759
 30
0.0
 10
82.05949420279999
 20
40.52629604969999
 30
0.0
 10
82.0611538094
 20
40.5340216329
 30
0.0
 10
82.06187394199998
 20
40.5370194379
 30
0.0
 10
82.06221836880001
 20
40.5382911699
 30
0.0
  0
LINE
  5
261C
330
220
100
AcDbEntity
  8
0
  6
Continuous
 62
     9
100
AcDbLine
 10
82.06221836880001
 20
40.5382911699
 30
0.0
 11
82.063035844
 21
40.5409078632
 31
0.0
  0
SPLINE
  5
261D
330
220
100
AcDbEntity
  8
0
  6
Continuous
 62
     9
100
AcDbSpline
210
0.0
220
0.0
230
1.0
 70
     8
 71
     3
 72
    15
 73
    11
 74
     0
 42
0.0000001
 43
0.0000000001
 40
0.0
 40
0.0
 40
0.0
 40
0.0
 40
0.2293470273
 40
0.4119536232
 40
0.5491639611
 40
0.6444297977000001
 40
0.7086400020000001
 40
0.7718662299
 40
0.8651216564
 40
1.0
 40
1.0
 40
1.0
 40
1.0
 10
82.063035844
 20
40.5409078632
 30
0.0
 10
82.06308440029999
 20
40.5410320105
 30
0.0
 10
82.0631761761
 20
40.5412532865
 30
0.0
 10
82.06331623930001
 20
40.5415404513
 30
0.0
 10
82.06344633589999
 20
40.5417447038
 30
0.0
 10
82.0635608499
 20
40.5418743509
 30
0.0
 10
82.0636944059
 20
40.5419254962
 30
0.0
 10
82.0638114926
 20
40.54184520429999
 30
0.0
 10
82.0638863978
 20
40.5416919676
 30
0.0
 10
82.0639254527
 20
40.5415648207
 30
0.0
 10
82.06394428000001
 20
40.54148871859999
 30
0.0
  0
ENDSEC
  0
SECTION
  2
OBJECTS
  0
DICTIONARY
  5
C
330
0
100
AcDbDictionary
281
     1
  3
ACAD_CIP_PREVIOUS_PRODUCT_INFO
350
2783
  3
ACAD_COLOR
350
2718
  3
ACAD_DETAILVIEWSTYLE
350
2731
  3
ACAD_GROUP
350
D
  3
ACAD_IMAGE_DICT
350
26DF
  3
ACAD_IMAGE_VARS
350
26E0
  3
ACAD_LAYOUT
350
1A
  3
ACAD_MATERIAL
350
26E6
  3
ACAD_MLEADERSTYLE
350
272D
  3
ACAD_MLINESTYLE
350
17
  3
ACAD_PLOTSETTINGS
350
19
  3
ACAD_PLOTSTYLENAME
350
E
  3
ACAD_SCALELIST
350
271B
  3
ACAD_SECTIONVIEWSTYLE
350
272F
  3
ACAD_TABLESTYLE
350
2719
  3
ACAD_VISUALSTYLE
350
26FF
  3
ACDB_RECOMPOSE_DATA
350
28BC
  3
AcDbVariableDictionary
350
2776
  3
AcDsDecomposeData
350
28C3
  3
DWGPROPS
350
28BD
  0
DICTIONARY
  5
2737
330
8
100
AcDbDictionary
280
     1
281
     1
  0
DICTIONARY
  5
27C5
330
2
100
AcDbDictionary
280
     1
281
     1
  3
ACAD_LAYERSTATES
360
27C6
  0
DICTIONARY
  5
2784
330
10
100
AcDbDictionary
280
     1
281
     1
  3
ADSK_XREC_LAYER_RECONCILED
360
2785
  0
DICTIONARY
  5
2786
330
1FA
100
AcDbDictionary
280
     1
281
     1
  3
ADSK_XREC_LAYER_RECONCILED
360
2787
  0
DICTIONARY
  5
2788
330
1FB
100
AcDbDictionary
280
     1
281
     1
  3
ADSK_XREC_LAYER_RECONCILED
360
2789
  0
DICTIONARY
  5
278A
330
1FC
100
AcDbDictionary
280
     1
281
     1
  3
ADSK_XREC_LAYER_RECONCILED
360
278B
  0
DICTIONARY
  5
278C
330
1FD
100
AcDbDictionary
280
     1
281
     1
  3
ADSK_XREC_LAYER_RECONCILED
360
278D
  0
DICTIONARY
  5
278E
330
1FE
100
AcDbDictionary
280
     1
281
     1
  3
ADSK_XREC_LAYER_RECONCILED
360
278F
  0
DICTIONARY
  5
2790
330
1FF
100
AcDbDictionary
280
     1
281
     1
  3
ADSK_XREC_LAYER_RECONCILED
360
2791
  0
DICTIONARY
  5
2792
330
200
100
AcDbDictionary
280
     1
281
     1
  3
ADSK_XREC_LAYER_RECONCILED
360
2793
  0
DICTIONARY
  5
2794
330
201
100
AcDbDictionary
280
     1
281
     1
  3
ADSK_XREC_LAYER_RECONCILED
360
2795
  0
DICTIONARY
  5
2796
330
202
100
AcDbDictionary
280
     1
281
     1
  3
ADSK_XREC_LAYER_RECONCILED
360
2797
  0
DICTIONARY
  5
2798
330
203
100
AcDbDictionary
280
     1
281
     1
  3
ADSK_XREC_LAYER_RECONCILED
360
2799
  0
DICTIONARY
  5
279A
330
204
100
AcDbDictionary
280
     1
281
     1
  3
ADSK_XREC_LAYER_RECONCILED
360
279B
  0
DICTIONARY
  5
279C
330
205
100
AcDbDictionary
280
     1
281
     1
  3
ADSK_XREC_LAYER_RECONCILED
360
279D
  0
DICTIONARY
  5
279E
330
206
100
AcDbDictionary
280
     1
281
     1
  3
ADSK_XREC_LAYER_RECONCILED
360
279F
  0
DICTIONARY
  5
27A0
330
207
100
AcDbDictionary
280
     1
281
     1
  3
ADSK_XREC_LAYER_RECONCILED
360
27A1
  0
DICTIONARY
  5
27A2
330
208
100
AcDbDictionary
280
     1
281
     1
  3
ADSK_XREC_LAYER_RECONCILED
360
27A3
  0
DICTIONARY
  5
27A4
330
209
100
AcDbDictionary
280
     1
281
     1
  3
ADSK_XREC_LAYER_RECONCILED
360
27A5
  0
DICTIONARY
  5
27A6
330
20A
100
AcDbDictionary
280
     1
281
     1
  3
ADSK_XREC_LAYER_RECONCILED
360
27A7
  0
DICTIONARY
  5
27A8
330
20B
100
AcDbDictionary
280
     1
281
     1
  3
ADSK_XREC_LAYER_RECONCILED
360
27A9
  0
DICTIONARY
  5
27AA
330
20C
100
AcDbDictionary
280
     1
281
     1
  3
ADSK_XREC_LAYER_RECONCILED
360
27AB
  0
DICTIONARY
  5
27AC
330
20D
100
AcDbDictionary
280
     1
281
     1
  3
ADSK_XREC_LAYER_RECONCILED
360
27AD
  0
DICTIONARY
  5
27AE
330
20E
100
AcDbDictionary
280
     1
281
     1
  3
ADSK_XREC_LAYER_RECONCILED
360
27AF
  0
DICTIONARY
  5
27B0
330
20F
100
AcDbDictionary
280
     1
281
     1
  3
ADSK_XREC_LAYER_RECONCILED
360
27B1
  0
DICTIONARY
  5
27B2
330
210
100
AcDbDictionary
280
     1
281
     1
  3
ADSK_XREC_LAYER_RECONCILED
360
27B3
  0
DICTIONARY
  5
27B4
330
211
100
AcDbDictionary
280
     1
281
     1
  3
ADSK_XREC_LAYER_RECONCILED
360
27B5
  0
DICTIONARY
  5
27B6
330
212
100
AcDbDictionary
280
     1
281
     1
  3
ADSK_XREC_LAYER_RECONCILED
360
27B7
  0
DICTIONARY
  5
27B8
330
213
100
AcDbDictionary
280
     1
281
     1
  3
ADSK_XREC_LAYER_RECONCILED
360
27B9
  0
DICTIONARY
  5
27BA
330
214
100
AcDbDictionary
280
     1
281
     1
  3
ADSK_XREC_LAYER_RECONCILED
360
27BB
  0
DICTIONARY
  5
27BC
330
215
100
AcDbDictionary
280
     1
281
     1
  3
ADSK_XREC_LAYER_RECONCILED
360
27BD
  0
DICTIONARY
  5
27BE
330
216
100
AcDbDictionary
280
     1
281
     1
  3
ADSK_XREC_LAYER_RECONCILED
360
27BF
  0
DICTIONARY
  5
27C0
330
217
100
AcDbDictionary
280
     1
281
     1
  3
ADSK_XREC_LAYER_RECONCILED
360
27C1
  0
XRECORD
  5
2783
102
{ACAD_REACTORS
330
C
102
}
330
C
100
AcDbXrecord
280
     1
300
ACDLT
300
2018
300
ACDLT_F_S
  0
DICTIONARY
  5
2718
102
{ACAD_REACTORS
330
C
102
}
330
C
100
AcDbDictionary
281
     1
  0
DICTIONARY
  5
2731
102
{ACAD_REACTORS
330
C
102
}
330
C
100
AcDbDictionary
281
     1
  3
Imperial24
350
2732
  0
DICTIONARY
  5
D
102
{ACAD_REACTORS
330
C
102
}
330
C
100
AcDbDictionary
281
     1
  0
DICTIONARY
  5
26DF
330
C
100
AcDbDictionary
281
     1
  3
VIBE-5828_img_1
350
26E3
  0
RASTERVARIABLES
  5
26E0
330
C
100
AcDbRasterVariables
 90
        0
 70
     0
 71
     1
 72
     5
  0
DICTIONARY
  5
1A
102
{ACAD_REACTORS
330
C
102
}
330
C
100
AcDbDictionary
281
     1
  3
Layout1
350
26E2
  3
Model
350
26E1
  0
DICTIONARY
  5
26E6
102
{ACAD_REACTORS
330
C
102
}
330
C
100
AcDbDictionary
281
     1
  3
ByBlock
350
26EF
  3
ByLayer
350
26E7
  3
Global
350
26F7
  0
DICTIONARY
  5
272D
102
{ACAD_REACTORS
330
C
102
}
330
C
100
AcDbDictionary
281
     1
  3
Standard
350
272E
  0
DICTIONARY
  5
17
102
{ACAD_REACTORS
330
C
102
}
330
C
100
AcDbDictionary
281
     1
  3
Standard
350
18
  0
DICTIONARY
  5
19
102
{ACAD_REACTORS
330
C
102
}
330
C
100
AcDbDictionary
281
     1
  0
ACDBDICTIONARYWDFLT
  5
E
102
{ACAD_REACTORS
330
C
102
}
330
C
100
AcDbDictionary
281
     1
  3
Normal
350
F
100
AcDbDictionaryWithDefault
340
F
  0
DICTIONARY
  5
271B
102
{ACAD_REACTORS
330
C
102
}
330
C
100
AcDbDictionary
281
     1
  3
A0
350
271C
  3
A1
350
271D
  3
A2
350
271E
  3
A3
350
271F
  3
A4
350
2720
  3
A5
350
2721
  3
A6
350
2722
  3
A7
350
2723
  3
A8
350
2724
  3
A9
350
2725
  3
B0
350
2726
  3
B1
350
2727
  3
B2
350
2728
  3
B3
350
2729
  3
B4
350
272A
  3
B5
350
272B
  3
B6
350
272C
  0
DICTIONARY
  5
272F
102
{ACAD_REACTORS
330
C
102
}
330
C
100
AcDbDictionary
281
     1
  3
Imperial24
350
2730
  0
DICTIONARY
  5
2719
102
{ACAD_REACTORS
330
C
102
}
330
C
100
AcDbDictionary
281
     1
  3
Standard
350
271A
  0
DICTIONARY
  5
26FF
102
{ACAD_REACTORS
330
C
102
}
330
C
100
AcDbDictionary
281
     1
  3
2dWireframe
350
2705
  3
Basic
350
2704
  3
Brighten
350
270B
  3
ColorChange
350
270F
  3
Conceptual
350
2708
  3
Dim
350
270A
  3
EdgeColorOff
350
2717
  3
Facepattern
350
270E
  3
Flat
350
2700
  3
FlatWithEdges
350
2701
  3
Gouraud
350
2702
  3
GouraudWithEdges
350
2703
  3
Hidden
350
2707
  3
JitterOff
350
2715
  3
Linepattern
350
270D
  3
OverhangOff
350
2716
  3
Realistic
350
2709
  3
Shaded
350
2714
  3
Shaded with edges
350
2713
  3
Shades of Gray
350
2710
  3
Sketchy
350
2711
  3
Thicken
350
270C
  3
Wireframe
350
2706
  3
X-Ray
350
2712
  0
XRECORD
  5
28BC
102
{ACAD_REACTORS
330
C
102
}
330
C
100
AcDbXrecord
280
     1
 90
        1
330
271A
  0
DICTIONARY
  5
2776
102
{ACAD_REACTORS
330
C
102
}
330
C
100
AcDbDictionary
281
     1
  3
CANNOSCALE
350
277B
  3
CMLEADERSTYLE
350
2778
  3
CTABLESTYLE
350
2777
  3
CVIEWDETAILSTYLE
350
2779
  3
CVIEWSECTIONSTYLE
350
277A
  3
DIMASSOC
350
277E
  3
INDEXCTL
350
277D
  3
SORTENTS
350
277C
  3
XCLIPFRAME
350
28BA
  0
DICTIONARY
  5
28C3
102
{ACAD_REACTORS
330
C
102
}
330
C
100
AcDbDictionary
281
     1
  3
AcDsRecords
350
28C5
  3
AcDsSchemas
350
28C4
1001
ACAD
1070
     2
  0
XRECORD
  5
28BD
102
{ACAD_REACTORS
330
C
102
}
330
C
100
AcDbXrecord
280
     1
  1
DWGPROPS COOKIE
  2

  3

  4

  6

  7

  8
guillaumes
  9

300
=
301
=
302
=
303
=
304
=
305
=
306
=
307
=
308
=
309
=
 40
0.0013078703703704
 41
2458297.331342592
 42
2458297.394988426
  1

 90
        0
  0
DICTIONARY
  5
27C6
102
{ACAD_REACTORS
330
27C5
102
}
330
27C5
100
AcDbDictionary
281
     1
  0
XRECORD
  5
2785
102
{ACAD_REACTORS
330
2784
102
}
330
2784
100
AcDbXrecord
280
     1
290
     1
  0
XRECORD
  5
2787
102
{ACAD_REACTORS
330
2786
102
}
330
2786
100
AcDbXrecord
280
     1
290
     1
  0
XRECORD
  5
2789
102
{ACAD_REACTORS
330
2788
102
}
330
2788
100
AcDbXrecord
280
     1
290
     1
  0
XRECORD
  5
278B
102
{ACAD_REACTORS
330
278A
102
}
330
278A
100
AcDbXrecord
280
     1
290
     1
  0
XRECORD
  5
278D
102
{ACAD_REACTORS
330
278C
102
}
330
278C
100
AcDbXrecord
280
     1
290
     1
  0
XRECORD
  5
278F
102
{ACAD_REACTORS
330
278E
102
}
330
278E
100
AcDbXrecord
280
     1
290
     1
  0
XRECORD
  5
2791
102
{ACAD_REACTORS
330
2790
102
}
330
2790
100
AcDbXrecord
280
     1
290
     1
  0
XRECORD
  5
2793
102
{ACAD_REACTORS
330
2792
102
}
330
2792
100
AcDbXrecord
280
     1
290
     1
  0
XRECORD
  5
2795
102
{ACAD_REACTORS
330
2794
102
}
330
2794
100
AcDbXrecord
280
     1
290
     1
  0
XRECORD
  5
2797
102
{ACAD_REACTORS
330
2796
102
}
330
2796
100
AcDbXrecord
280
     1
290
     1
  0
XRECORD
  5
2799
102
{ACAD_REACTORS
330
2798
102
}
330
2798
100
AcDbXrecord
280
     1
290
     1
  0
XRECORD
  5
279B
102
{ACAD_REACTORS
330
279A
102
}
330
279A
100
AcDbXrecord
280
     1
290
     1
  0
XRECORD
  5
279D
102
{ACAD_REACTORS
330
279C
102
}
330
279C
100
AcDbXrecord
280
     1
290
     1
  0
XRECORD
  5
279F
102
{ACAD_REACTORS
330
279E
102
}
330
279E
100
AcDbXrecord
280
     1
290
     1
  0
XRECORD
  5
27A1
102
{ACAD_REACTORS
330
27A0
102
}
330
27A0
100
AcDbXrecord
280
     1
290
     1
  0
XRECORD
  5
27A3
102
{ACAD_REACTORS
330
27A2
102
}
330
27A2
100
AcDbXrecord
280
     1
290
     1
  0
XRECORD
  5
27A5
102
{ACAD_REACTORS
330
27A4
102
}
330
27A4
100
AcDbXrecord
280
     1
290
     1
  0
XRECORD
  5
27A7
102
{ACAD_REACTORS
330
27A6
102
}
330
27A6
100
AcDbXrecord
280
     1
290
     1
  0
XRECORD
  5
27A9
102
{ACAD_REACTORS
330
27A8
102
}
330
27A8
100
AcDbXrecord
280
     1
290
     1
  0
XRECORD
  5
27AB
102
{ACAD_REACTORS
330
27AA
102
}
330
27AA
100
AcDbXrecord
280
     1
290
     1
  0
XRECORD
  5
27AD
102
{ACAD_REACTORS
330
27AC
102
}
330
27AC
100
AcDbXrecord
280
     1
290
     1
  0
XRECORD
  5
27AF
102
{ACAD_REACTORS
330
27AE
102
}
330
27AE
100
AcDbXrecord
280
     1
290
     1
  0
XRECORD
  5
27B1
102
{ACAD_REACTORS
330
27B0
102
}
330
27B0
100
AcDbXrecord
280
     1
290
     1
  0
XRECORD
  5
27B3
102
{ACAD_REACTORS
330
27B2
102
}
330
27B2
100
AcDbXrecord
280
     1
290
     1
  0
XRECORD
  5
27B5
102
{ACAD_REACTORS
330
27B4
102
}
330
27B4
100
AcDbXrecord
280
     1
290
     1
  0
XRECORD
  5
27B7
102
{ACAD_REACTORS
330
27B6
102
}
330
27B6
100
AcDbXrecord
280
     1
290
     1
  0
XRECORD
  5
27B9
102
{ACAD_REACTORS
330
27B8
102
}
330
27B8
100
AcDbXrecord
280
     1
290
     1
  0
XRECORD
  5
27BB
102
{ACAD_REACTORS
330
27BA
102
}
330
27BA
100
AcDbXrecord
280
     1
290
     1
  0
XRECORD
  5
27BD
102
{ACAD_REACTORS
330
27BC
102
}
330
27BC
100
AcDbXrecord
280
     1
290
     1
  0
XRECORD
  5
27BF
102
{ACAD_REACTORS
330
27BE
102
}
330
27BE
100
AcDbXrecord
280
     1
290
     1
  0
XRECORD
  5
27C1
102
{ACAD_REACTORS
330
27C0
102
}
330
27C0
100
AcDbXrecord
280
     1
290
     1
  0
ACDBDETAILVIEWSTYLE
  5
2732
102
{ACAD_XDICTIONARY
360
2900
102
}
102
{ACAD_REACTORS
330
2731
102
}
330
2731
100
AcDbModelDocViewStyle
 70
     0
  3
Imperial24
290
     0
100
AcDbDetailViewStyle
 70
     0
 71
     0
 90
        3
 71
     1
340
11
 40
0.24
340
0
 40
0.24
300

 40
0.36
280
     3
 71
     2
340
16
 90
       25
 71
     3
340
11
 40
0.24
 90
        1
 40
0.75
 90
        1
300
%<\AcVar ViewType \f "%tc1">% %<\AcVar ViewDetailId>%\PSCALE %<\AcVar ViewScale \f "%sn">%
 71
     4
340
16
 90
       25
340
16
 90
       25
280
     0
  0
IMAGEDEF
  5
26E3
102
{ACAD_REACTORS
330
26DF
102
}
330
26DF
100
AcDbRasterImageDef
 90
        0
  1
VIBE-5828_img_1.png
 10
6119.0
 20
5312.0
 11
0.0066666667
 21
0.0066666667
280
     1
281
     0
  0
LAYOUT
  5
26E2
102
{ACAD_XDICTIONARY
360
28C8
102
}
102
{ACAD_REACTORS
330
1A
102
}
330
1A
100
AcDbPlotSettings
  1

  2
none_device
  4
ANSI_B_(17.00_x_11.00_Inches)
  6

 40
0.0
 41
0.0
 42
0.0
 43
0.0
 44
431.8
 45
279.4
 46
0.0
 47
0.0
 48
0.0
 49
0.0
140
0.0
141
0.0
142
1.0
143
1.0
 70
     0
 72
     0
 73
     0
 74
     0
  7

 75
     0
147
1.0
148
0.0
149
0.0
100
AcDbLayout
  1
Layout1
 70
     1
 71
     1
 10
0.0
 20
0.0
 11
12.0
 21
9.0
 12
0.0
 22
0.0
 32
0.0
 14
1.000000000000000E+20
 24
1.000000000000000E+20
 34
1.000000000000000E+20
 15
-1.000000000000000E+20
 25
-1.000000000000000E+20
 35
-1.000000000000000E+20
146
0.0
 13
0.0
 23
0.0
 33
0.0
 16
1.0
 26
0.0
 36
0.0
 17
0.0
 27
1.0
 37
0.0
 76
     0
330
221
  0
LAYOUT
  5
26E1
102
{ACAD_XDICTIONARY
360
28C6
102
}
102
{ACAD_REACTORS
330
1A
102
}
330
1A
100
AcDbPlotSettings
  1

  2
none_device
  4
ANSI_B_(17.00_x_11.00_Inches)
  6

 40
0.0
 41
0.0
 42
0.0
 43
0.0
 44
431.8
 45
279.4
 46
0.0
 47
0.0
 48
0.0
 49
0.0
140
0.0
141
0.0
142
1.0
143
1.0
 70
  1024
 72
     0
 73
     0
 74
     0
  7

 75
     0
147
1.0
148
0.0
149
0.0
100
AcDbLayout
  1
Model
 70
     0
 71
     0
 10
0.0
 20
0.0
 11
17.0
 21
11.0
 12
0.0
 22
0.0
 32
0.0
 14
0.0
 24
0.0
 34
0.0
 15
0.0
 25
0.0
 35
0.0
146
0.0
 13
0.0
 23
0.0
 33
0.0
 16
1.0
 26
0.0
 36
0.0
 17
0.0
 27
1.0
 37
0.0
 76
     0
330
220
331
1F4
  0
MATERIAL
  5
26EF
102
{ACAD_XDICTIONARY
360
26F0
102
}
102
{ACAD_REACTORS
330
26E6
102
}
330
26E6
100
AcDbMaterial
  1
ByBlock
 72
     0
 43
0.0208333333333333
 43
0.0
 43
0.0
 43
0.0
 43
0.0
 43
0.0208333333333333
 43
0.0
 43
0.0
 43
0.0
 43
0.0
 43
1.0
 43
0.0
 43
0.0
 43
0.0
 43
0.0
 43
1.0
 77
     0
 47
0.0208333333333333
 47
0.0
 47
0.0
 47
0.0
 47
0.0
 47
0.0208333333333333
 47
0.0
 47
0.0
 47
0.0
 47
0.0
 47
1.0
 47
0.0
 47
0.0
 47
0.0
 47
0.0
 47
1.0
171
     0
 49
0.0208333333333333
 49
0.0
 49
0.0
 49
0.0
 49
0.0
 49
0.0208333333333333
 49
0.0
 49
0.0
 49
0.0
 49
0.0
 49
1.0
 49
0.0
 49
0.0
 49
0.0
 49
0.0
 49
1.0
175
     0
142
0.0208333333333333
142
0.0
142
0.0
142
0.0
142
0.0
142
0.0208333333333333
142
0.0
142
0.0
142
0.0
142
0.0
142
1.0
142
0.0
142
0.0
142
0.0
142
0.0
142
1.0
179
     0
144
0.0208333333333333
144
0.0
144
0.0
144
0.0
144
0.0
144
0.0208333333333333
144
0.0
144
0.0
144
0.0
144
0.0
144
1.0
144
0.0
144
0.0
144
0.0
144
0.0
144
1.0
147
0.0208333333333333
147
0.0
147
0.0
147
0.0
147
0.0
147
0.0208333333333333
147
0.0
147
0.0
147
0.0
147
0.0
147
1.0
147
0.0
147
0.0
147
0.0
147
0.0
147
1.0
  0
MATERIAL
  5
26E7
102
{ACAD_XDICTIONARY
360
26E8
102
}
102
{ACAD_REACTORS
330
26E6
102
}
330
26E6
100
AcDbMaterial
  1
ByLayer
 72
     0
 43
0.0208333333333333
 43
0.0
 43
0.0
 43
0.0
 43
0.0
 43
0.0208333333333333
 43
0.0
 43
0.0
 43
0.0
 43
0.0
 43
1.0
 43
0.0
 43
0.0
 43
0.0
 43
0.0
 43
1.0
 77
     0
 47
0.0208333333333333
 47
0.0
 47
0.0
 47
0.0
 47
0.0
 47
0.0208333333333333
 47
0.0
 47
0.0
 47
0.0
 47
0.0
 47
1.0
 47
0.0
 47
0.0
 47
0.0
 47
0.0
 47
1.0
171
     0
 49
0.0208333333333333
 49
0.0
 49
0.0
 49
0.0
 49
0.0
 49
0.0208333333333333
 49
0.0
 49
0.0
 49
0.0
 49
0.0
 49
1.0
 49
0.0
 49
0.0
 49
0.0
 49
0.0
 49
1.0
175
     0
142
0.0208333333333333
142
0.0
142
0.0
142
0.0
142
0.0
142
0.0208333333333333
142
0.0
142
0.0
142
0.0
142
0.0
142
1.0
142
0.0
142
0.0
142
0.0
142
0.0
142
1.0
179
     0
144
0.0208333333333333
144
0.0
144
0.0
144
0.0
144
0.0
144
0.0208333333333333
144
0.0
144
0.0
144
0.0
144
0.0
144
1.0
144
0.0
144
0.0
144
0.0
144
0.0
144
1.0
147
0.0208333333333333
147
0.0
147
0.0
147
0.0
147
0.0
147
0.0208333333333333
147
0.0
147
0.0
147
0.0
147
0.0
147
1.0
147
0.0
147
0.0
147
0.0
147
0.0
147
1.0
  0
MATERIAL
  5
26F7
102
{ACAD_XDICTIONARY
360
26F8
102
}
102
{ACAD_REACTORS
330
26E6
102
}
330
26E6
100
AcDbMaterial
  1
Global
 72
     0
 43
0.0208333333333333
 43
0.0
 43
0.0
 43
0.0
 43
0.0
 43
0.0208333333333333
 43
0.0
 43
0.0
 43
0.0
 43
0.0
 43
1.0
 43
0.0
 43
0.0
 43
0.0
 43
0.0
 43
1.0
 77
     0
 47
0.0208333333333333
 47
0.0
 47
0.0
 47
0.0
 47
0.0
 47
0.0208333333333333
 47
0.0
 47
0.0
 47
0.0
 47
0.0
 47
1.0
 47
0.0
 47
0.0
 47
0.0
 47
0.0
 47
1.0
171
     0
 49
0.0208333333333333
 49
0.0
 49
0.0
 49
0.0
 49
0.0
 49
0.0208333333333333
 49
0.0
 49
0.0
 49
0.0
 49
0.0
 49
1.0
 49
0.0
 49
0.0
 49
0.0
 49
0.0
 49
1.0
175
     0
142
0.0208333333333333
142
0.0
142
0.0
142
0.0
142
0.0
142
0.0208333333333333
142
0.0
142
0.0
142
0.0
142
0.0
142
1.0
142
0.0
142
0.0
142
0.0
142
0.0
142
1.0
179
     0
144
0.0208333333333333
144
0.0
144
0.0
144
0.0
144
0.0
144
0.0208333333333333
144
0.0
144
0.0
144
0.0
144
0.0
144
1.0
144
0.0
144
0.0
144
0.0
144
0.0
144
1.0
147
0.0208333333333333
147
0.0
147
0.0
147
0.0
147
0.0
147
0.0208333333333333
147
0.0
147
0.0
147
0.0
147
0.0
147
1.0
147
0.0
147
0.0
147
0.0
147
0.0
147
1.0
  0
MLEADERSTYLE
  5
272E
102
{ACAD_REACTORS
330
272D
102
}
330
272D
100
AcDbMLeaderStyle
170
     2
171
     1
172
     0
 90
        2
 40
0.0
 41
0.0
173
     1
 91
-1056964608
340
14
 92
       -2
290
     1
 42
0.09
291
     1
 43
0.36
  3
Standard
 44
0.18
300

342
11
174
     1
178
     6
175
     1
176
     0
 93
-1056964608
 45
0.18
292
     0
297
     0
 46
0.18
 94
-1056964608
 47
1.0
 49
1.0
140
1.0
293
     1
141
0.0
294
     1
177
     0
142
1.0
295
     0
296
     0
143
0.125
1001
ACAD_MLEADERVER
1070
     2
  0
MLINESTYLE
  5
18
102
{ACAD_REACTORS
330
17
102
}
330
17
100
AcDbMlineStyle
  2
STANDARD
 70
     0
  3

 62
   256
 51
90.0
 52
90.0
 71
     2
 49
0.5
 62
   256
  6
BYLAYER
 49
-0.5
 62
   256
  6
BYLAYER
  0
ACDBPLACEHOLDER
  5
F
102
{ACAD_REACTORS
330
E
102
}
330
E
  0
SCALE
  5
271C
102
{ACAD_REACTORS
330
271B
102
}
330
271B
100
AcDbScale
 70
     0
300
1:1
140
1.0
141
1.0
290
     1
  0
SCALE
  5
271D
102
{ACAD_REACTORS
330
271B
102
}
330
271B
100
AcDbScale
 70
     0
300
1/128" = 1'-0"
140
0.0078125
141
12.0
290
     0
  0
SCALE
  5
271E
102
{ACAD_REACTORS
330
271B
102
}
330
271B
100
AcDbScale
 70
     0
300
1/64" = 1'-0"
140
0.015625
141
12.0
290
     0
  0
SCALE
  5
271F
102
{ACAD_REACTORS
330
271B
102
}
330
271B
100
AcDbScale
 70
     0
300
1/32" = 1'-0"
140
0.03125
141
12.0
290
     0
  0
SCALE
  5
2720
102
{ACAD_REACTORS
330
271B
102
}
330
271B
100
AcDbScale
 70
     0
300
1/16" = 1'-0"
140
0.0625
141
12.0
290
     0
  0
SCALE
  5
2721
102
{ACAD_REACTORS
330
271B
102
}
330
271B
100
AcDbScale
 70
     0
300
3/32" = 1'-0"
140
0.09375
141
12.0
290
     0
  0
SCALE
  5
2722
102
{ACAD_REACTORS
330
271B
102
}
330
271B
100
AcDbScale
 70
     0
300
1/8" = 1'-0"
140
0.125
141
12.0
290
     0
  0
SCALE
  5
2723
102
{ACAD_REACTORS
330
271B
102
}
330
271B
100
AcDbScale
 70
     0
300
3/16" = 1'-0"
140
0.1875
141
12.0
290
     0
  0
SCALE
  5
2724
102
{ACAD_REACTORS
330
271B
102
}
330
271B
100
AcDbScale
 70
     0
300
1/4" = 1'-0"
140
0.25
141
12.0
290
     0
  0
SCALE
  5
2725
102
{ACAD_REACTORS
330
271B
102
}
330
271B
100
AcDbScale
 70
     0
300
3/8" = 1'-0"
140
0.375
141
12.0
290
     0
  0
SCALE
  5
2726
102
{ACAD_REACTORS
330
271B
102
}
330
271B
100
AcDbScale
 70
     0
300
1/2" = 1'-0"
140
0.5
141
12.0
290
     0
  0
SCALE
  5
2727
102
{ACAD_REACTORS
330
271B
102
}
330
271B
100
AcDbScale
 70
     0
300
3/4" = 1'-0"
140
0.75
141
12.0
290
     0
  0
SCALE
  5
2728
102
{ACAD_REACTORS
330
271B
102
}
330
271B
100
AcDbScale
 70
     0
300
1" = 1'-0"
140
1.0
141
12.0
290
     0
  0
SCALE
  5
2729
102
{ACAD_REACTORS
330
271B
102
}
330
271B
100
AcDbScale
 70
     0
300
1-1/2" = 1'-0"
140
1.5
141
12.0
290
     0
  0
SCALE
  5
272A
102
{ACAD_REACTORS
330
271B
102
}
330
271B
100
AcDbScale
 70
     0
300
3" = 1'-0"
140
3.0
141
12.0
290
     0
  0
SCALE
  5
272B
102
{ACAD_REACTORS
330
271B
102
}
330
271B
100
AcDbScale
 70
     0
300
6" = 1'-0"
140
6.0
141
12.0
290
     0
  0
SCALE
  5
272C
102
{ACAD_REACTORS
330
271B
102
}
330
271B
100
AcDbScale
 70
     0
300
1'-0" = 1'-0"
140
12.0
141
12.0
290
     0
  0
ACDBSECTIONVIEWSTYLE
  5
2730
102
{ACAD_XDICTIONARY
360
28FE
102
}
102
{ACAD_REACTORS
330
272F
102
}
330
272F
100
AcDbModelDocViewStyle
 70
     0
  3
Imperial24
290
     0
100
AcDbSectionViewStyle
 70
     0
 71
     0
 90
       78
 71
     1
340
11
 40
0.24
340
0
340
0
 40
0.24
300
I, O, Q, S, X, Z
 40
0.48
 90
        3
 40
0.18
 90
        1
 71
     2
340
16
 90
       25
340
16
 90
       50
 40
0.24
 40
0.0
 40
0.24
 71
     3
340
11
 40
0.24
 90
        1
 40
0.75
 90
        1
300
%<\AcVar ViewType \f "%tc1">% %<\AcVar ViewSectionStartId>%-%<\AcVar ViewSectionEndId>%\PSCALE %<\AcVar ViewScale \f "%sn">%
 71
     4
300
ANSI31
 40
1.0
 90
        0
290
     0
290
     0
 90
        6
 40
0.0
 40
1.570796326794896
 40
0.2617993877991494
 40
1.308996938995747
 40
-0.2617993877991494
 40
1.832595714594046
  0
TABLESTYLE
  5
271A
102
{ACAD_XDICTIONARY
360
2734
102
}
102
{ACAD_REACTORS
330
2719
102
}
330
2719
100
AcDbTableStyle
  3
Standard
 70
     0
 71
     0
 40
0.06
 41
0.06
280
     0
281
     0
  7
STANDARD
140
0.18
170
     2
 62
     0
 63
     7
283
     0
274
    -2
284
     1
 64
     0
275
    -2
285
     1
 65
     0
276
    -2
286
     1
 66
     0
277
    -2
287
     1
 67
     0
278
    -2
288
     1
 68
     0
279
    -2
289
     1
 69
     0
  7
STANDARD
140
0.25
170
     5
 62
     0
 63
     7
283
     0
274
    -2
284
     1
 64
     0
275
    -2
285
     1
 65
     0
276
    -2
286
     1
 66
     0
277
    -2
287
     1
 67
     0
278
    -2
288
     1
 68
     0
279
    -2
289
     1
 69
     0
  7
STANDARD
140
0.18
170
     5
 62
     0
 63
     7
283
     0
274
    -2
284
     1
 64
     0
275
    -2
285
     1
 65
     0
276
    -2
286
     1
 66
     0
277
    -2
287
     1
 67
     0
278
    -2
288
     1
 68
     0
279
    -2
289
     1
 69
     0
  0
VISUALSTYLE
  5
2705
102
{ACAD_XDICTIONARY
360
28D7
102
}
102
{ACAD_REACTORS
330
26FF
102
}
330
26FF
100
AcDbVisualStyle
  2
2dWireframe
 70
     4
 71
     0
 72
     2
 73
     0
 90
        0
 40
-0.6
 41
-30.0
 62
     5
 63
     7
 74
     1
 91
        4
 64
     7
 65
   257
 75
     1
175
     1
 42
1.0
 92
        0
 66
   257
 43
1.0
 76
     1
 77
     6
 78
     2
 67
     7
 79
     5
170
     0
171
     0
290
     0
174
     0
 93
        1
 44
0.0
173
     0
291
     0
 45
0.0
1001
ACAD
1000
AcDbSavedByObjectVersion
1070
     0
  0
VISUALSTYLE
  5
2704
102
{ACAD_XDICTIONARY
360
28D5
102
}
102
{ACAD_REACTORS
330
26FF
102
}
330
26FF
100
AcDbVisualStyle
  2
Basic
 70
     7
 71
     1
 72
     0
 73
     1
 90
        0
 40
-0.6
 41
-30.0
 62
     5
 63
     7
 74
     0
 91
        4
 64
     7
 65
   257
 75
     1
175
     1
 42
1.0
 92
        8
 66
     7
 43
1.0
 76
     1
 77
     6
 78
     2
 67
     7
 79
     5
170
     0
171
     0
290
     0
174
     0
 93
        1
 44
0.0
173
     0
291
     1
 45
0.0
1001
ACAD
1000
AcDbSavedByObjectVersion
1070
     0
  0
VISUALSTYLE
  5
270B
102
{ACAD_XDICTIONARY
360
28E3
102
}
102
{ACAD_REACTORS
330
26FF
102
}
330
26FF
100
AcDbVisualStyle
  2
Brighten
 70
    12
 71
     2
 72
     2
 73
     0
 90
        0
 40
-0.6
 41
-30.0
 62
     5
 63
     7
 74
     1
 91
        4
 64
     7
 65
   257
 75
     1
175
     1
 42
1.0
 92
        8
 66
     7
 43
1.0
 76
     1
 77
     6
 78
     2
 67
     7
 79
     5
170
     0
171
     0
290
     0
174
     0
 93
        1
 44
50.0
173
     0
291
     1
 45
0.0
1001
ACAD
1000
AcDbSavedByObjectVersion
1070
     0
  0
VISUALSTYLE
  5
270F
102
{ACAD_XDICTIONARY
360
28EB
102
}
102
{ACAD_REACTORS
330
26FF
102
}
330
26FF
100
AcDbVisualStyle
  2
ColorChange
 70
    16
 71
     2
 72
     2
 73
     3
 90
        0
 40
-0.6
 41
-30.0
 62
     5
 63
     8
 74
     1
 91
        4
 64
     7
 65
   257
 75
     1
175
     1
 42
1.0
 92
        8
 66
     8
 43
1.0
 76
     1
 77
     6
 78
     2
 67
     7
 79
     5
170
     0
171
     0
290
     0
174
     0
 93
        1
 44
0.0
173
     0
291
     1
 45
0.0
1001
ACAD
1000
AcDbSavedByObjectVersion
1070
     0
  0
VISUALSTYLE
  5
2708
102
{ACAD_XDICTIONARY
360
28DD
102
}
102
{ACAD_REACTORS
330
26FF
102
}
330
26FF
100
AcDbVisualStyle
  2
Conceptual
 70
     9
 71
     3
 72
     2
 73
     0
 90
        0
 40
-0.6
 41
-30.0
 62
     5
 63
     7
 74
     2
 91
        2
 64
     7
 65
   257
 75
     1
175
     1
 42
179.0
 92
        8
 66
     7
 43
1.0
 76
     1
 77
     6
 78
     2
 67
     7
 79
     3
170
     0
171
     0
290
     0
174
     0
 93
        1
 44
0.0
173
     0
291
     0
 45
0.0
1001
ACAD
1000
AcDbSavedByObjectVersion
1070
     0
  0
VISUALSTYLE
  5
270A
102
{ACAD_XDICTIONARY
360
28E1
102
}
102
{ACAD_REACTORS
330
26FF
102
}
330
26FF
100
AcDbVisualStyle
  2
Dim
 70
    11
 71
     2
 72
     2
 73
     0
 90
        0
 40
-0.6
 41
-30.0
 62
     5
 63
     7
 74
     1
 91
        4
 64
     7
 65
   257
 75
     1
175
     1
 42
1.0
 92
        8
 66
     7
 43
1.0
 76
     1
 77
     6
 78
     2
 67
     7
 79
     5
170
     0
171
     0
290
     0
174
     0
 93
        1
 44
-50.0
173
     0
291
     1
 45
0.0
1001
ACAD
1000
AcDbSavedByObjectVersion
1070
     0
  0
VISUALSTYLE
  5
2717
102
{ACAD_XDICTIONARY
360
28FB
102
}
102
{ACAD_REACTORS
330
26FF
102
}
330
26FF
100
AcDbVisualStyle
  2
EdgeColorOff
 70
    22
 71
     2
 72
     2
 73
     0
 90
        0
 40
-0.6
 41
-30.0
 62
     5
 63
     7
 74
     1
 91
        4
 64
     7
 65
   257
 75
     1
175
     1
 42
1.0
 92
        8
 66
     7
 43
1.0
 76
     1
 77
     6
 78
     2
 67
     7
 79
     5
170
     0
171
     0
290
     0
174
     0
 93
        1
 44
0.0
173
     0
291
     1
 45
0.0
1001
ACAD
1000
AcDbSavedByObjectVersion
1070
     0
  0
VISUALSTYLE
  5
270E
102
{ACAD_XDICTIONARY
360
28E9
102
}
102
{ACAD_REACTORS
330
26FF
102
}
330
26FF
100
AcDbVisualStyle
  2
Facepattern
 70
    15
 71
     2
 72
     2
 73
     0
 90
        0
 40
-0.6
 41
-30.0
 62
     5
 63
     7
 74
     1
 91
        4
 64
     7
 65
   257
 75
     1
175
     1
 42
1.0
 92
        8
 66
     7
 43
1.0
 76
     1
 77
     6
 78
     2
 67
     7
 79
     5
170
     0
171
     0
290
     0
174
     0
 93
        1
 44
0.0
173
     0
291
     1
 45
0.0
1001
ACAD
1000
AcDbSavedByObjectVersion
1070
     0
  0
VISUALSTYLE
  5
2700
102
{ACAD_XDICTIONARY
360
28CD
102
}
102
{ACAD_REACTORS
330
26FF
102
}
330
26FF
100
AcDbVisualStyle
  2
Flat
 70
     0
 71
     2
 72
     1
 73
     1
 90
        2
 40
-0.6
 41
30.0
 62
     5
 63
     7
 74
     0
 91
        0
 64
     7
 65
   257
 75
     1
175
     1
 42
1.0
 92
        8
 66
     7
 43
1.0
 76
     1
 77
     6
 78
     2
 67
     7
 79
     5
170
     0
171
     0
290
     0
174
     0
 93
       13
 44
0.0
173
     0
291
     1
 45
0.0
1001
ACAD
1000
AcDbSavedByObjectVersion
1070
     0
  0
VISUALSTYLE
  5
2701
102
{ACAD_XDICTIONARY
360
28CF
102
}
102
{ACAD_REACTORS
330
26FF
102
}
330
26FF
100
AcDbVisualStyle
  2
FlatWithEdges
 70
     1
 71
     2
 72
     1
 73
     1
 90
        2
 40
-0.6
 41
30.0
 62
     5
 63
     7
 74
     1
 91
        0
 64
     7
 65
   257
 75
     1
175
     1
 42
1.0
 92
        0
 66
   257
 43
1.0
 76
     1
 77
     6
 78
     2
 67
     7
 79
     5
170
     0
171
     0
290
     0
174
     0
 93
       13
 44
0.0
173
     0
291
     1
 45
0.0
1001
ACAD
1000
AcDbSavedByObjectVersion
1070
     0
  0
VISUALSTYLE
  5
2702
102
{ACAD_XDICTIONARY
360
28D1
102
}
102
{ACAD_REACTORS
330
26FF
102
}
330
26FF
100
AcDbVisualStyle
  2
Gouraud
 70
     2
 71
     2
 72
     2
 73
     1
 90
        2
 40
-0.6
 41
30.0
 62
     5
 63
     7
 74
     0
 91
        0
 64
     7
 65
   257
 75
     1
175
     1
 42
1.0
 92
        0
 66
     7
 43
1.0
 76
     1
 77
     6
 78
     2
 67
     7
 79
     5
170
     0
171
     0
290
     0
174
     0
 93
       13
 44
0.0
173
     0
291
     1
 45
0.0
1001
ACAD
1000
AcDbSavedByObjectVersion
1070
     0
  0
VISUALSTYLE
  5
2703
102
{ACAD_XDICTIONARY
360
28D3
102
}
102
{ACAD_REACTORS
330
26FF
102
}
330
26FF
100
AcDbVisualStyle
  2
GouraudWithEdges
 70
     3
 71
     2
 72
     2
 73
     1
 90
        2
 40
-0.6
 41
30.0
 62
     5
 63
     7
 74
     1
 91
        0
 64
     7
 65
   257
 75
     1
175
     1
 42
1.0
 92
        0
 66
   257
 43
1.0
 76
     1
 77
     6
 78
     2
 67
     7
 79
     5
170
     0
171
     0
290
     0
174
     0
 93
       13
 44
0.0
173
     0
291
     1
 45
0.0
1001
ACAD
1000
AcDbSavedByObjectVersion
1070
     0
  0
VISUALSTYLE
  5
2707
102
{ACAD_XDICTIONARY
360
28DB
102
}
102
{ACAD_REACTORS
330
26FF
102
}
330
26FF
100
AcDbVisualStyle
  2
Hidden
 70
     6
 71
     1
 72
     2
 73
     2
 90
        0
 40
-0.6
 41
-30.0
 62
     5
 63
     7
 74
     2
 91
        2
 64
     7
 65
   257
 75
     2
175
     1
 42
40.0
 92
        0
 66
   257
 43
1.0
 76
     1
 77
     6
 78
     2
 67
     7
 79
     3
170
     0
171
     0
290
     0
174
     0
 93
        1
 44
0.0
173
     0
291
     0
 45
0.0
1001
ACAD
1000
AcDbSavedByObjectVersion
1070
     0
  0
VISUALSTYLE
  5
2715
102
{ACAD_XDICTIONARY
360
28F7
102
}
102
{ACAD_REACTORS
330
26FF
102
}
330
26FF
100
AcDbVisualStyle
  2
JitterOff
 70
    20
 71
     2
 72
     2
 73
     0
 90
        0
 40
-0.6
 41
-30.0
 62
     5
 63
     7
 74
     1
 91
        4
 64
     7
 65
   257
 75
     1
175
     1
 42
1.0
 92
       10
 66
     7
 43
1.0
 76
     1
 77
     6
 78
     2
 67
     7
 79
     5
170
     0
171
     0
290
     0
174
     0
 93
        1
 44
0.0
173
     0
291
     1
 45
0.0
1001
ACAD
1000
AcDbSavedByObjectVersion
1070
     0
  0
VISUALSTYLE
  5
270D
102
{ACAD_XDICTIONARY
360
28E7
102
}
102
{ACAD_REACTORS
330
26FF
102
}
330
26FF
100
AcDbVisualStyle
  2
Linepattern
 70
    14
 71
     2
 72
     2
 73
     0
 90
        0
 40
-0.6
 41
-30.0
 62
     5
 63
     7
 74
     1
 91
        4
 64
     7
 65
   257
 75
     7
175
     7
 42
1.0
 92
        8
 66
     7
 43
1.0
 76
     1
 77
     6
 78
     2
 67
     7
 79
     5
170
     0
171
     0
290
     0
174
     0
 93
        1
 44
0.0
173
     0
291
     1
 45
0.0
1001
ACAD
1000
AcDbSavedByObjectVersion
1070
     0
  0
VISUALSTYLE
  5
2716
102
{ACAD_XDICTIONARY
360
28F9
102
}
102
{ACAD_REACTORS
330
26FF
102
}
330
26FF
100
AcDbVisualStyle
  2
OverhangOff
 70
    21
 71
     2
 72
     2
 73
     0
 90
        0
 40
-0.6
 41
-30.0
 62
     5
 63
     7
 74
     1
 91
        4
 64
     7
 65
   257
 75
     1
175
     1
 42
1.0
 92
        9
 66
     7
 43
1.0
 76
     1
 77
     6
 78
     2
 67
     7
 79
     5
170
     0
171
     0
290
     0
174
     0
 93
        1
 44
0.0
173
     0
291
     1
 45
0.0
1001
ACAD
1000
AcDbSavedByObjectVersion
1070
     0
  0
VISUALSTYLE
  5
2709
102
{ACAD_XDICTIONARY
360
28DF
102
}
102
{ACAD_REACTORS
330
26FF
102
}
330
26FF
100
AcDbVisualStyle
  2
Realistic
 70
     8
 71
     2
 72
     2
 73
     0
 90
        2
 40
-0.6
 41
30.0
 62
     5
 63
     7
 74
     0
 91
        0
 64
     7
 65
   257
 75
     1
175
     1
 42
1.0
 92
        8
 66
   257
 43
1.0
 76
     1
 77
     6
 78
     2
 67
     7
 79
     3
170
     0
171
     0
290
     0
174
     0
 93
       13
 44
0.0
173
     0
291
     0
 45
0.0
1001
ACAD
1000
AcDbSavedByObjectVersion
1070
     0
  0
VISUALSTYLE
  5
2714
102
{ACAD_XDICTIONARY
360
28F5
102
}
102
{ACAD_REACTORS
330
26FF
102
}
330
26FF
100
AcDbVisualStyle
  2
Shaded
 70
    27
 71
     2
 72
     2
 73
     1
 90
        2
 40
-0.6
 41
30.0
 62
     5
 63
     7
 74
     0
 91
        4
 64
     7
 65
   257
 75
     1
175
     1
 42
1.0
 92
        8
 66
   257
 43
1.0
 76
     1
 77
     6
 78
     2
 67
     8
 79
     3
170
     0
171
     0
290
     0
174
     0
 93
        5
 44
0.0
173
     0
291
     0
 45
0.0
1001
ACAD
1000
AcDbSavedByObjectVersion
1070
     0
  0
VISUALSTYLE
  5
2713
102
{ACAD_XDICTIONARY
360
28F3
102
}
102
{ACAD_REACTORS
330
26FF
102
}
330
26FF
100
AcDbVisualStyle
  2
Shaded with edges
 70
    26
 71
     2
 72
     2
 73
     1
 90
        2
 40
-0.6
 41
30.0
 62
     5
 63
     7
 74
     1
 91
        2
 64
     7
 65
   257
 75
     2
175
     1
 42
1.0
 92
        8
 66
   257
 43
1.0
 76
     1
 77
     6
 78
     2
 67
     7
 79
     3
170
     0
171
     0
290
     0
174
     0
 93
        5
 44
0.0
173
     0
291
     0
 45
0.0
1001
ACAD
1000
AcDbSavedByObjectVersion
1070
     0
  0
VISUALSTYLE
  5
2710
102
{ACAD_XDICTIONARY
360
28ED
102
}
102
{ACAD_REACTORS
330
26FF
102
}
330
26FF
100
AcDbVisualStyle
  2
Shades of Gray
 70
    23
 71
     2
 72
     2
 73
     3
 90
        0
 40
-0.6
 41
-30.0
 62
     5
 63
     7
 74
     2
 91
        2
 64
     7
 65
     7
 75
     1
175
     1
 42
40.0
 92
        8
 66
     7
 43
1.0
 76
     1
 77
     6
 78
     2
 67
     7
 79
     3
170
     0
171
     0
290
     0
174
     0
 93
        1
 44
0.0
173
     0
291
     0
 45
0.0
1001
ACAD
1000
AcDbSavedByObjectVersion
1070
     0
  0
VISUALSTYLE
  5
2711
102
{ACAD_XDICTIONARY
360
28EF
102
}
102
{ACAD_REACTORS
330
26FF
102
}
330
26FF
100
AcDbVisualStyle
  2
Sketchy
 70
    24
 71
     1
 72
     2
 73
     2
 90
        0
 40
-0.6
 41
-30.0
 62
     5
 63
     7
 74
     2
 91
        2
 64
     7
 65
     7
 75
     1
175
     1
 42
40.0
 92
       11
 66
     7
 43
1.0
 76
     1
 77
     6
 78
     2
 67
     7
 79
     6
170
     0
171
     0
290
     0
174
     0
 93
        1
 44
0.0
173
     0
291
     0
 45
0.0
1001
ACAD
1000
AcDbSavedByObjectVersion
1070
     0
  0
VISUALSTYLE
  5
270C
102
{ACAD_XDICTIONARY
360
28E5
102
}
102
{ACAD_REACTORS
330
26FF
102
}
330
26FF
100
AcDbVisualStyle
  2
Thicken
 70
    13
 71
     2
 72
     2
 73
     0
 90
        0
 40
-0.6
 41
-30.0
 62
     5
 63
     7
 74
     1
 91
        4
 64
     7
 65
   257
 75
     1
175
     1
 42
1.0
 92
       12
 66
     7
 43
1.0
 76
     1
 77
     6
 78
     2
 67
     7
 79
     5
170
     0
171
     0
290
     0
174
     0
 93
        1
 44
0.0
173
     0
291
     1
 45
0.0
1001
ACAD
1000
AcDbSavedByObjectVersion
1070
     0
  0
VISUALSTYLE
  5
2706
102
{ACAD_XDICTIONARY
360
28D9
102
}
102
{ACAD_REACTORS
330
26FF
102
}
330
26FF
100
AcDbVisualStyle
  2
Wireframe
 70
     5
 71
     0
 72
     2
 73
     0
 90
        0
 40
-0.6
 41
-30.0
 62
     5
 63
     7
 74
     1
 91
        4
 64
     7
 65
   257
 75
     1
175
     1
 42
1.0
 92
        0
 66
   257
 43
1.0
 76
     1
 77
     6
 78
     2
 67
     7
 79
     3
170
     0
171
     0
290
     0
174
     0
 93
        1
 44
0.0
173
     0
291
     0
 45
0.0
1001
ACAD
1000
AcDbSavedByObjectVersion
1070
     0
  0
VISUALSTYLE
  5
2712
102
{ACAD_XDICTIONARY
360
28F1
102
}
102
{ACAD_REACTORS
330
26FF
102
}
330
26FF
100
AcDbVisualStyle
  2
X-Ray
 70
    25
 71
     2
 72
     2
 73
     1
 90
        1
 40
0.5
 41
-30.0
 62
     5
 63
     7
 74
     1
 91
        0
 64
     7
 65
   257
 75
     1
175
     1
 42
1.0
 92
        8
 66
     7
 43
1.0
 76
     1
 77
     6
 78
     2
 67
     7
 79
     3
170
     0
171
     0
290
     0
174
     0
 93
       13
 44
0.0
173
     0
291
     0
 45
0.0
1001
ACAD
1000
AcDbSavedByObjectVersion
1070
     0
  0
DICTIONARYVAR
  5
277B
102
{ACAD_REACTORS
330
2776
102
}
330
2776
100
DictionaryVariables
280
     0
  1
1:1
  0
DICTIONARYVAR
  5
2778
102
{ACAD_REACTORS
330
2776
102
}
330
2776
100
DictionaryVariables
280
     0
  1
STANDARD
  0
DICTIONARYVAR
  5
2777
102
{ACAD_REACTORS
330
2776
102
}
330
2776
100
DictionaryVariables
280
     0
  1
STANDARD
  0
DICTIONARYVAR
  5
2779
102
{ACAD_REACTORS
330
2776
102
}
330
2776
100
DictionaryVariables
280
     0
  1
Imperial24
  0
DICTIONARYVAR
  5
277A
102
{ACAD_REACTORS
330
2776
102
}
330
2776
100
DictionaryVariables
280
     0
  1
Imperial24
  0
DICTIONARYVAR
  5
277E
102
{ACAD_REACTORS
330
2776
102
}
330
2776
100
DictionaryVariables
280
     0
  1
1
  0
DICTIONARYVAR
  5
277D
102
{ACAD_REACTORS
330
2776
102
}
330
2776
100
DictionaryVariables
280
     0
  1
0
  0
DICTIONARYVAR
  5
277C
102
{ACAD_REACTORS
330
2776
102
}
330
2776
100
DictionaryVariables
280
     0
  1
127
  0
DICTIONARYVAR
  5
28BA
102
{ACAD_REACTORS
330
2776
102
}
330
2776
100
DictionaryVariables
280
     0
  1
2
  0
DICTIONARY
  5
28C5
102
{ACAD_REACTORS
330
28C3
102
}
330
28C3
100
AcDbDictionary
281
     1
  0
DICTIONARY
  5
28C4
102
{ACAD_REACTORS
330
28C3
102
}
330
28C3
100
AcDbDictionary
281
     1
  3
925813216
350
28BE
  3
925813232
350
28BF
  3
925813248
350
28C0
  3
925813264
350
28C1
  3
925813280
350
28C2
  0
DICTIONARY
  5
2900
330
2732
100
AcDbDictionary
280
     1
281
     1
  3
ACAD_XREC_ROUNDTRIP
360
2901
  0
DICTIONARY
  5
28C8
330
26E2
100
AcDbDictionary
280
     1
281
     1
  3
ACAD_XREC_ROUNDTRIP
360
28C9
  0
DICTIONARY
  5
28C6
330
26E1
100
AcDbDictionary
280
     1
281
     1
  3
ACAD_XREC_ROUNDTRIP
360
28C7
  0
DICTIONARY
  5
26F0
330
26EF
100
AcDbDictionary
280
     1
281
     1
  3
ACAD_XREC_ROUNDTRIP
360
28CB
  3
BUMPTILE
360
26F2
  3
DIFFUSETILE
360
26F1
  3
OPACITYTILE
360
26F5
  3
REFLECTIONTILE
360
26F4
  3
REFRACTIONTILE
360
26F6
  3
SPECULARTILE
360
26F3
  0
DICTIONARY
  5
26E8
330
26E7
100
AcDbDictionary
280
     1
281
     1
  3
ACAD_XREC_ROUNDTRIP
360
28CA
  3
BUMPTILE
360
26EA
  3
DIFFUSETILE
360
26E9
  3
OPACITYTILE
360
26ED
  3
REFLECTIONTILE
360
26EC
  3
REFRACTIONTILE
360
26EE
  3
SPECULARTILE
360
26EB
  0
DICTIONARY
  5
26F8
330
26F7
100
AcDbDictionary
280
     1
281
     1
  3
ACAD_XREC_ROUNDTRIP
360
28CC
  3
BUMPTILE
360
26FA
  3
DIFFUSETILE
360
26F9
  3
OPACITYTILE
360
26FD
  3
REFLECTIONTILE
360
26FC
  3
REFRACTIONTILE
360
26FE
  3
SPECULARTILE
360
26FB
  0
DICTIONARY
  5
28FE
330
2730
100
AcDbDictionary
280
     1
281
     1
  3
ACAD_XREC_ROUNDTRIP
360
28FF
  0
DICTIONARY
  5
2734
330
271A
100
AcDbDictionary
280
     1
281
     1
  3
ACAD_ROUNDTRIP_2008_TABLESTYLE_CELLSTYLEMAP
360
28BB
  3
ACAD_XREC_ROUNDTRIP
360
28FD
  0
DICTIONARY
  5
28D7
330
2705
100
AcDbDictionary
280
     1
281
     1
  3
ACAD_XREC_ROUNDTRIP
360
28D8
  0
DICTIONARY
  5
28D5
330
2704
100
AcDbDictionary
280
     1
281
     1
  3
ACAD_XREC_ROUNDTRIP
360
28D6
  0
DICTIONARY
  5
28E3
330
270B
100
AcDbDictionary
280
     1
281
     1
  3
ACAD_XREC_ROUNDTRIP
360
28E4
  0
DICTIONARY
  5
28EB
330
270F
100
AcDbDictionary
280
     1
281
     1
  3
ACAD_XREC_ROUNDTRIP
360
28EC
  0
DICTIONARY
  5
28DD
330
2708
100
AcDbDictionary
280
     1
281
     1
  3
ACAD_XREC_ROUNDTRIP
360
28DE
  0
DICTIONARY
  5
28E1
330
270A
100
AcDbDictionary
280
     1
281
     1
  3
ACAD_XREC_ROUNDTRIP
360
28E2
  0
DICTIONARY
  5
28FB
330
2717
100
AcDbDictionary
280
     1
281
     1
  3
ACAD_XREC_ROUNDTRIP
360
28FC
  0
DICTIONARY
  5
28E9
330
270E
100
AcDbDictionary
280
     1
281
     1
  3
ACAD_XREC_ROUNDTRIP
360
28EA
  0
DICTIONARY
  5
28CD
330
2700
100
AcDbDictionary
280
     1
281
     1
  3
ACAD_XREC_ROUNDTRIP
360
28CE
  0
DICTIONARY
  5
28CF
330
2701
100
AcDbDictionary
280
     1
281
     1
  3
ACAD_XREC_ROUNDTRIP
360
28D0
  0
DICTIONARY
  5
28D1
330
2702
100
AcDbDictionary
280
     1
281
     1
  3
ACAD_XREC_ROUNDTRIP
360
28D2
  0
DICTIONARY
  5
28D3
330
2703
100
AcDbDictionary
280
     1
281
     1
  3
ACAD_XREC_ROUNDTRIP
360
28D4
  0
DICTIONARY
  5
28DB
330
2707
100
AcDbDictionary
280
     1
281
     1
  3
ACAD_XREC_ROUNDTRIP
360
28DC
  0
DICTIONARY
  5
28F7
330
2715
100
AcDbDictionary
280
     1
281
     1
  3
ACAD_XREC_ROUNDTRIP
360
28F8
  0
DICTIONARY
  5
28E7
330
270D
100
AcDbDictionary
280
     1
281
     1
  3
ACAD_XREC_ROUNDTRIP
360
28E8
  0
DICTIONARY
  5
28F9
330
2716
100
AcDbDictionary
280
     1
281
     1
  3
ACAD_XREC_ROUNDTRIP
360
28FA
  0
DICTIONARY
  5
28DF
330
2709
100
AcDbDictionary
280
     1
281
     1
  3
ACAD_XREC_ROUNDTRIP
360
28E0
  0
DICTIONARY
  5
28F5
330
2714
100
AcDbDictionary
280
     1
281
     1
  3
ACAD_XREC_ROUNDTRIP
360
28F6
  0
DICTIONARY
  5
28F3
330
2713
100
AcDbDictionary
280
     1
281
     1
  3
ACAD_XREC_ROUNDTRIP
360
28F4
  0
DICTIONARY
  5
28ED
330
2710
100
AcDbDictionary
280
     1
281
     1
  3
ACAD_XREC_ROUNDTRIP
360
28EE
  0
DICTIONARY
  5
28EF
330
2711
100
AcDbDictionary
280
     1
281
     1
  3
ACAD_XREC_ROUNDTRIP
360
28F0
  0
DICTIONARY
  5
28E5
330
270C
100
AcDbDictionary
280
     1
281
     1
  3
ACAD_XREC_ROUNDTRIP
360
28E6
  0
DICTIONARY
  5
28D9
330
2706
100
AcDbDictionary
280
     1
281
     1
  3
ACAD_XREC_ROUNDTRIP
360
28DA
  0
DICTIONARY
  5
28F1
330
2712
100
AcDbDictionary
280
     1
281
     1
  3
ACAD_XREC_ROUNDTRIP
360
28F2
  0
XRECORD
  5
28BE
102
{ACAD_REACTORS
330
28C4
102
}
330
28C4
100
AcDbXrecord
280
     1
  1
AcDb_Thumbnail_Schema
102
{ATTRRECORD
341
28BF
  2
AcDbDs::TreatedAsObjectData
280
     1
291
     1
102
ATTRRECORD}
102
{ATTRRECORD
341
28C0
  2
AcDbDs::Legacy
280
     1
291
     1
102
ATTRRECORD}
  2
AcDbDs::ID
280
    10
 91
        8
102
{ATTRRECORD
341
28C1
  2
AcDs:Indexable
280
     1
291
     1
102
ATTRRECORD}
102
{ATTRRECORD
341
28C2
  2
AcDbDs::HandleAttribute
280
     7
282
     1
102
ATTRRECORD}
  2
Thumbnail_Data
280
    15
 91
        0
  0
XRECORD
  5
28BF
102
{ACAD_REACTORS
330
28C4
102
}
330
28C4
100
AcDbXrecord
280
     1
  1
AcDbDs::TreatedAsObjectDataSchema
  2
AcDbDs::TreatedAsObjectData
280
     1
 91
        0
  0
XRECORD
  5
28C0
102
{ACAD_REACTORS
330
28C4
102
}
330
28C4
100
AcDbXrecord
280
     1
  1
AcDbDs::LegacySchema
  2
AcDbDs::Legacy
280
     1
 91
        0
  0
XRECORD
  5
28C1
102
{ACAD_REACTORS
330
28C4
102
}
330
28C4
100
AcDbXrecord
280
     1
  1
AcDbDs::IndexedPropertySchema
  2
AcDs:Indexable
280
     1
 91
        0
  0
XRECORD
  5
28C2
102
{ACAD_REACTORS
330
28C4
102
}
330
28C4
100
AcDbXrecord
280
     1
  1
AcDbDs::HandleAttributeSchema
  2
AcDbDs::HandleAttribute
280
     7
 91
        1
284
     1
  0
XRECORD
  5
2901
102
{ACAD_REACTORS
330
2900
102
}
330
2900
100
AcDbXrecord
280
     1
102
DISPLAYNAME
  1
Imperial24
102
FLAGS
 90
        0
  0
XRECORD
  5
28C9
102
{ACAD_REACTORS
330
28C8
102
}
330
28C8
100
AcDbXrecord
280
     1
102
SHADEPLOT
 70
     0
102
SHADEPLOTRESLEVEL
 70
     2
102
SHADEPLOTCUSTOMDPI
 70
   300
  0
XRECORD
  5
28C7
102
{ACAD_REACTORS
330
28C6
102
}
330
28C6
100
AcDbXrecord
280
     1
102
SHADEPLOT
 70
     0
102
SHADEPLOTRESLEVEL
 70
     2
102
SHADEPLOTCUSTOMDPI
 70
   300
  0
XRECORD
  5
28CB
102
{ACAD_REACTORS
330
26F0
102
}
330
26F0
100
AcDbXrecord
280
     1
102
MATERIAL
148
0.0
149
0.0
149
0.0
 93
        0
 94
      127
282
     0
 72
     0
 77
     0
171
     0
175
     0
179
     0
273
     0
  0
XRECORD
  5
26F2
102
{ACAD_REACTORS
330
26F0
102
}
330
26F0
100
AcDbXrecord
280
     1
270
     1
271
     1
  0
XRECORD
  5
26F1
102
{ACAD_REACTORS
330
26F0
102
}
330
26F0
100
AcDbXrecord
280
     1
270
     1
271
     1
  0
XRECORD
  5
26F5
102
{ACAD_REACTORS
330
26F0
102
}
330
26F0
100
AcDbXrecord
280
     1
270
     1
271
     1
  0
XRECORD
  5
26F4
102
{ACAD_REACTORS
330
26F0
102
}
330
26F0
100
AcDbXrecord
280
     1
270
     1
271
     1
  0
XRECORD
  5
26F6
102
{ACAD_REACTORS
330
26F0
102
}
330
26F0
100
AcDbXrecord
280
     1
270
     1
271
     1
  0
XRECORD
  5
26F3
102
{ACAD_REACTORS
330
26F0
102
}
330
26F0
100
AcDbXrecord
280
     1
270
     1
271
     1
  0
XRECORD
  5
28CA
102
{ACAD_REACTORS
330
26E8
102
}
330
26E8
100
AcDbXrecord
280
     1
102
MATERIAL
148
0.0
149
0.0
149
0.0
 93
        0
 94
      127
282
     0
 72
     0
 77
     0
171
     0
175
     0
179
     0
273
     0
  0
XRECORD
  5
26EA
102
{ACAD_REACTORS
330
26E8
102
}
330
26E8
100
AcDbXrecord
280
     1
270
     1
271
     1
  0
XRECORD
  5
26E9
102
{ACAD_REACTORS
330
26E8
102
}
330
26E8
100
AcDbXrecord
280
     1
270
     1
271
     1
  0
XRECORD
  5
26ED
102
{ACAD_REACTORS
330
26E8
102
}
330
26E8
100
AcDbXrecord
280
     1
270
     1
271
     1
  0
XRECORD
  5
26EC
102
{ACAD_REACTORS
330
26E8
102
}
330
26E8
100
AcDbXrecord
280
     1
270
     1
271
     1
  0
XRECORD
  5
26EE
102
{ACAD_REACTORS
330
26E8
102
}
330
26E8
100
AcDbXrecord
280
     1
270
     1
271
     1
  0
XRECORD
  5
26EB
102
{ACAD_REACTORS
330
26E8
102
}
330
26E8
100
AcDbXrecord
280
     1
270
     1
271
     1
  0
XRECORD
  5
28CC
102
{ACAD_REACTORS
330
26F8
102
}
330
26F8
100
AcDbXrecord
280
     1
102
MATERIAL
148
0.0
149
0.0
149
0.0
 93
        0
 94
      127
282
     0
 72
     0
 77
     0
171
     0
175
     0
179
     0
273
     0
  0
XRECORD
  5
26FA
102
{ACAD_REACTORS
330
26F8
102
}
330
26F8
100
AcDbXrecord
280
     1
270
     1
271
     1
  0
XRECORD
  5
26F9
102
{ACAD_REACTORS
330
26F8
102
}
330
26F8
100
AcDbXrecord
280
     1
270
     1
271
     1
  0
XRECORD
  5
26FD
102
{ACAD_REACTORS
330
26F8
102
}
330
26F8
100
AcDbXrecord
280
     1
270
     1
271
     1
  0
XRECORD
  5
26FC
102
{ACAD_REACTORS
330
26F8
102
}
330
26F8
100
AcDbXrecord
280
     1
270
     1
271
     1
  0
XRECORD
  5
26FE
102
{ACAD_REACTORS
330
26F8
102
}
330
26F8
100
AcDbXrecord
280
     1
270
     1
271
     1
  0
XRECORD
  5
26FB
102
{ACAD_REACTORS
330
26F8
102
}
330
26F8
100
AcDbXrecord
280
     1
270
     1
271
     1
  0
XRECORD
  5
28FF
102
{ACAD_REACTORS
330
28FE
102
}
330
28FE
100
AcDbXrecord
280
     1
102
DISPLAYNAME
  1
Imperial24
102
FLAGS
 90
        0
  0
CELLSTYLEMAP
  5
28BB
102
{ACAD_REACTORS
330
2734
102
}
330
2734
100
AcDbCellStyleMap
 90
        3
300
CELLSTYLE
  1
TABLEFORMAT_BEGIN
 90
        5
170
     1
 91
        0
 92
    32768
 62
   257
 93
        1
300
CONTENTFORMAT
  1
CONTENTFORMAT_BEGIN
 90
        0
 91
        0
 92
      512
 93
        0
300

 40
0.0
140
1.0
 94
        5
 62
     0
340
11
144
0.25
309
CONTENTFORMAT_END
171
     0
 94
        0
309
TABLEFORMAT_END
  1
CELLSTYLE_BEGIN
 90
        1
 91
        1
300
_TITLE
309
CELLSTYLE_END
300
CELLSTYLE
  1
TABLEFORMAT_BEGIN
 90
        5
170
     1
 91
        0
 92
        0
 62
   257
 93
        1
300
CONTENTFORMAT
  1
CONTENTFORMAT_BEGIN
 90
        0
 91
        0
 92
      512
 93
        0
300

 40
0.0
140
1.0
 94
        5
 62
     0
340
11
144
0.18
309
CONTENTFORMAT_END
171
     0
 94
        0
309
TABLEFORMAT_END
  1
CELLSTYLE_BEGIN
 90
        2
 91
        1
300
_HEADER
309
CELLSTYLE_END
300
CELLSTYLE
  1
TABLEFORMAT_BEGIN
 90
        5
170
     1
 91
        0
 92
        0
 62
   257
 93
        1
300
CONTENTFORMAT
  1
CONTENTFORMAT_BEGIN
 90
        0
 91
        0
 92
      512
 93
        0
300

 40
0.0
140
1.0
 94
        2
 62
     0
340
11
144
0.18
309
CONTENTFORMAT_END
171
     0
 94
        0
309
TABLEFORMAT_END
  1
CELLSTYLE_BEGIN
 90
        3
 91
        2
300
_DATA
309
CELLSTYLE_END
  0
XRECORD
  5
28FD
102
{ACAD_REACTORS
330
2734
102
}
330
2734
100
AcDbXrecord
280
     1
102
ACAD_ROUNDTRIP_PRE2007_TABLESTYLE
 90
      512
 91
        0
  1

 92
      512
 93
        0
  2

 94
      512
 95
        0
  3

  0
XRECORD
  5
28D8
102
{ACAD_REACTORS
330
28D7
102
}
330
28D7
100
AcDbXrecord
280
     1
102
RTVSPost2010Prop28
280
     1
102
RTVSPost2010PropOp28
 70
     1
102
RTVSPost2010Prop29
280
     1
102
RTVSPost2010PropOp29
 70
     1
102
RTVSPost2010Prop30
280
     0
102
RTVSPost2010PropOp30
 70
     1
102
RTVSPost2010Prop31
280
     0
102
RTVSPost2010PropOp31
 70
     1
102
RTVSPost2010Prop32
280
     0
102
RTVSPost2010PropOp32
 70
     1
102
RTVSPost2010Prop33
280
     0
102
RTVSPost2010PropOp33
 70
     1
102
RTVSPost2010Prop34
280
     0
102
RTVSPost2010PropOp34
 70
     1
102
RTVSPost2010Prop35
280
     0
102
RTVSPost2010PropOp35
 70
     1
102
RTVSPost2010Prop36
280
     0
102
RTVSPost2010PropOp36
 70
     1
102
RTVSPost2010Prop37
 90
       50
102
RTVSPost2010PropOp37
 70
     1
102
RTVSPost2010Prop38
140
0.0
102
RTVSPost2010PropOp38
 70
     1
102
RTVSPost2010Prop39
140
1.0
102
RTVSPost2010PropOp39
 70
     1
102
RTVSPost2010Prop40
 90
        0
102
RTVSPost2010PropOp40
 70
     1
102
RTVSPost2010Prop41ColorIndex
 90
       18
102
RTVSPost2010Prop41ColorRGB
 90
        0
102
RTVSPost2010PropOp41
 70
     1
102
RTVSPost2010Prop42
 90
       50
102
RTVSPost2010PropOp42
 70
     1
102
RTVSPost2010Prop43
 90
        3
102
RTVSPost2010PropOp43
 70
     1
102
RTVSPost2010Prop44ColorIndex
 90
        5
102
RTVSPost2010Prop44ColorRGB
 90
      255
102
RTVSPost2010PropOp44
 70
     1
102
RTVSPost2010Prop45
280
     0
102
RTVSPost2010PropOp45
 70
     1
102
RTVSPost2010Prop46
 90
       50
102
RTVSPost2010PropOp46
 70
     1
102
RTVSPost2010Prop47
 90
       50
102
RTVSPost2010PropOp47
 70
     1
102
RTVSPost2010Prop48
 90
       50
102
RTVSPost2010PropOp48
 70
     1
102
RTVSPost2010Prop49
280
     0
102
RTVSPost2010PropOp49
 70
     1
102
RTVSPost2010Prop50
 90
       50
102
RTVSPost2010PropOp50
 70
     1
102
RTVSPost2010Prop51ColorIndex
 90
      256
102
RTVSPost2010Prop51ColorRGB
 90
-16777216
102
RTVSPost2010PropOp51
 70
     0
102
RTVSPost2010Prop52
140
1.0
102
RTVSPost2010PropOp52
 70
     0
102
RTVSPost2010Prop53
 90
        2
102
RTVSPost2010PropOp53
 70
     1
102
RTVSPost2010Prop54
  1
strokes_ogs.tif
102
RTVSPost2010PropOp54
 70
     1
102
RTVSPost2010Prop55
280
     0
102
RTVSPost2010PropOp55
 70
     1
102
RTVSPost2010Prop56
140
1.0
102
RTVSPost2010PropOp56
 70
     1
102
RTVSPost2010Prop57
140
1.0
102
RTVSPost2010PropOp57
 70
     1
102
RTVSPropertyOp0
 70
     1
102
RTVSPropertyOp1
 70
     1
102
RTVSPropertyOp2
 70
     1
102
RTVSPropertyOp3
 70
     1
102
RTVSPropertyOp4
 70
     1
102
RTVSPropertyOp5
 70
     1
102
RTVSPropertyOp6
 70
     1
102
RTVSPropertyOp7
 70
     1
102
RTVSPropertyOp8
 70
     1
102
RTVSPropertyOp9
 70
     1
102
RTVSPropertyOp10
 70
     1
102
RTVSPropertyOp11
 70
     1
102
RTVSPropertyOp12
 70
     1
102
RTVSPropertyOp13
 70
     1
102
RTVSPropertyOp14
 70
     1
102
RTVSPropertyOp15
 70
     1
102
RTVSPropertyOp16
 70
     1
102
RTVSPropertyOp17
 70
     1
102
RTVSPropertyOp18
 70
     1
102
RTVSPropertyOp19
 70
     1
102
RTVSPropertyOp20
 70
     1
102
RTVSPropertyOp21
 70
     1
102
RTVSPropertyOp22
 70
     1
102
RTVSPropertyOp23
 70
     1
102
RTVSPropertyOp24
 70
     1
102
RTVSPropertyOp25
 70
     1
102
RTVSPropertyOp26
 70
     1
102
RTVSPropertyOp27
 70
     1
102
RTVSPropertyOp28
 70
     1
102
RTVSPropertyOp29
 70
     1
102
RTVSPropertyOp30
 70
     1
102
RTVSPropertyOp31
 70
     1
102
RTVSPropertyOp32
 70
     1
102
RTVSPropertyOp33
 70
     1
102
RTVSPropertyOp34
 70
     1
102
RTVSPropertyOp35
 70
     1
102
RTVSPropertyOp36
 70
     1
102
RTVSPropertyOp37
 70
     1
102
RTVSPropertyOp38
 70
     1
102
RTVSPropertyOp39
 70
     1
102
RTVSPropertyOp40
 70
     1
102
RTVSPropertyOp41
 70
     1
102
RTVSPropertyOp42
 70
     1
102
RTVSPropertyOp43
 70
     1
102
RTVSPropertyOp44
 70
     1
102
RTVSPropertyOp45
 70
     1
102
RTVSPropertyOp46
 70
     1
102
RTVSPropertyOp47
 70
     1
102
RTVSPropertyOp48
 70
     1
102
RTVSPropertyOp49
 70
     1
102
RTVSPropertyOp50
 70
     1
102
RTVSPropertyOp51
 70
     0
102
RTVSPropertyOp52
 70
     0
102
RTVSPropertyOp53
 70
     1
102
RTVSPropertyOp54
 70
     1
102
RTVSPropertyOp55
 70
     1
102
RTVSPropertyOp56
 70
     1
102
RTVSPropertyOp57
 70
     1
102
RTVSPropertyOp58
 70
     1
102
RTVSPropertyOp59
 70
     1
102
RTVSPropertyOp60
 70
     1
102
RTVSPropertyOp61
 70
     1
102
RTVSPropertyOp62
 70
     1
  0
XRECORD
  5
28D6
102
{ACAD_REACTORS
330
28D5
102
}
330
28D5
100
AcDbXrecord
280
     1
102
RTVSPost2010Prop28
280
     0
102
RTVSPost2010PropOp28
 70
     1
102
RTVSPost2010Prop29
280
     1
102
RTVSPost2010PropOp29
 70
     1
102
RTVSPost2010Prop30
280
     1
102
RTVSPost2010PropOp30
 70
     1
102
RTVSPost2010Prop31
280
     0
102
RTVSPost2010PropOp31
 70
     1
102
RTVSPost2010Prop32
280
     0
102
RTVSPost2010PropOp32
 70
     1
102
RTVSPost2010Prop33
280
     0
102
RTVSPost2010PropOp33
 70
     1
102
RTVSPost2010Prop34
280
     0
102
RTVSPost2010PropOp34
 70
     1
102
RTVSPost2010Prop35
280
     0
102
RTVSPost2010PropOp35
 70
     1
102
RTVSPost2010Prop36
280
     0
102
RTVSPost2010PropOp36
 70
     1
102
RTVSPost2010Prop37
 90
       50
102
RTVSPost2010PropOp37
 70
     1
102
RTVSPost2010Prop38
140
0.0
102
RTVSPost2010PropOp38
 70
     1
102
RTVSPost2010Prop39
140
1.0
102
RTVSPost2010PropOp39
 70
     1
102
RTVSPost2010Prop40
 90
        0
102
RTVSPost2010PropOp40
 70
     1
102
RTVSPost2010Prop41ColorIndex
 90
       18
102
RTVSPost2010Prop41ColorRGB
 90
        0
102
RTVSPost2010PropOp41
 70
     1
102
RTVSPost2010Prop42
 90
       50
102
RTVSPost2010PropOp42
 70
     1
102
RTVSPost2010Prop43
 90
        3
102
RTVSPost2010PropOp43
 70
     1
102
RTVSPost2010Prop44ColorIndex
 90
        5
102
RTVSPost2010Prop44ColorRGB
 90
      255
102
RTVSPost2010PropOp44
 70
     1
102
RTVSPost2010Prop45
280
     0
102
RTVSPost2010PropOp45
 70
     1
102
RTVSPost2010Prop46
 90
       50
102
RTVSPost2010PropOp46
 70
     1
102
RTVSPost2010Prop47
 90
       50
102
RTVSPost2010PropOp47
 70
     1
102
RTVSPost2010Prop48
 90
       50
102
RTVSPost2010PropOp48
 70
     1
102
RTVSPost2010Prop49
280
     0
102
RTVSPost2010PropOp49
 70
     1
102
RTVSPost2010Prop50
 90
       50
102
RTVSPost2010PropOp50
 70
     1
102
RTVSPost2010Prop51ColorIndex
 90
      256
102
RTVSPost2010Prop51ColorRGB
 90
-16777216
102
RTVSPost2010PropOp51
 70
     0
102
RTVSPost2010Prop52
140
1.0
102
RTVSPost2010PropOp52
 70
     0
102
RTVSPost2010Prop53
 90
        2
102
RTVSPost2010PropOp53
 70
     1
102
RTVSPost2010Prop54
  1
strokes_ogs.tif
102
RTVSPost2010PropOp54
 70
     1
102
RTVSPost2010Prop55
280
     0
102
RTVSPost2010PropOp55
 70
     1
102
RTVSPost2010Prop56
140
1.0
102
RTVSPost2010PropOp56
 70
     1
102
RTVSPost2010Prop57
140
1.0
102
RTVSPost2010PropOp57
 70
     1
102
RTVSPropertyOp0
 70
     1
102
RTVSPropertyOp1
 70
     1
102
RTVSPropertyOp2
 70
     1
102
RTVSPropertyOp3
 70
     1
102
RTVSPropertyOp4
 70
     1
102
RTVSPropertyOp5
 70
     1
102
RTVSPropertyOp6
 70
     1
102
RTVSPropertyOp7
 70
     1
102
RTVSPropertyOp8
 70
     1
102
RTVSPropertyOp9
 70
     1
102
RTVSPropertyOp10
 70
     1
102
RTVSPropertyOp11
 70
     1
102
RTVSPropertyOp12
 70
     1
102
RTVSPropertyOp13
 70
     1
102
RTVSPropertyOp14
 70
     1
102
RTVSPropertyOp15
 70
     1
102
RTVSPropertyOp16
 70
     1
102
RTVSPropertyOp17
 70
     1
102
RTVSPropertyOp18
 70
     1
102
RTVSPropertyOp19
 70
     1
102
RTVSPropertyOp20
 70
     1
102
RTVSPropertyOp21
 70
     1
102
RTVSPropertyOp22
 70
     1
102
RTVSPropertyOp23
 70
     1
102
RTVSPropertyOp24
 70
     1
102
RTVSPropertyOp25
 70
     1
102
RTVSPropertyOp26
 70
     1
102
RTVSPropertyOp27
 70
     1
102
RTVSPropertyOp28
 70
     1
102
RTVSPropertyOp29
 70
     1
102
RTVSPropertyOp30
 70
     1
102
RTVSPropertyOp31
 70
     1
102
RTVSPropertyOp32
 70
     1
102
RTVSPropertyOp33
 70
     1
102
RTVSPropertyOp34
 70
     1
102
RTVSPropertyOp35
 70
     1
102
RTVSPropertyOp36
 70
     1
102
RTVSPropertyOp37
 70
     1
102
RTVSPropertyOp38
 70
     1
102
RTVSPropertyOp39
 70
     1
102
RTVSPropertyOp40
 70
     1
102
RTVSPropertyOp41
 70
     1
102
RTVSPropertyOp42
 70
     1
102
RTVSPropertyOp43
 70
     1
102
RTVSPropertyOp44
 70
     1
102
RTVSPropertyOp45
 70
     1
102
RTVSPropertyOp46
 70
     1
102
RTVSPropertyOp47
 70
     1
102
RTVSPropertyOp48
 70
     1
102
RTVSPropertyOp49
 70
     1
102
RTVSPropertyOp50
 70
     1
102
RTVSPropertyOp51
 70
     0
102
RTVSPropertyOp52
 70
     0
102
RTVSPropertyOp53
 70
     1
102
RTVSPropertyOp54
 70
     1
102
RTVSPropertyOp55
 70
     1
102
RTVSPropertyOp56
 70
     1
102
RTVSPropertyOp57
 70
     1
102
RTVSPropertyOp58
 70
     1
102
RTVSPropertyOp59
 70
     1
102
RTVSPropertyOp60
 70
     1
102
RTVSPropertyOp61
 70
     1
102
RTVSPropertyOp62
 70
     1
  0
XRECORD
  5
28E4
102
{ACAD_REACTORS
330
28E3
102
}
330
28E3
100
AcDbXrecord
280
     1
102
RTVSPost2010Prop28
280
     0
102
RTVSPost2010PropOp28
 70
     1
102
RTVSPost2010Prop29
280
     1
102
RTVSPost2010PropOp29
 70
     1
102
RTVSPost2010Prop30
280
     1
102
RTVSPost2010PropOp30
 70
     1
102
RTVSPost2010Prop31
280
     0
102
RTVSPost2010PropOp31
 70
     1
102
RTVSPost2010Prop32
280
     0
102
RTVSPost2010PropOp32
 70
     1
102
RTVSPost2010Prop33
280
     0
102
RTVSPost2010PropOp33
 70
     1
102
RTVSPost2010Prop34
280
     0
102
RTVSPost2010PropOp34
 70
     1
102
RTVSPost2010Prop35
280
     0
102
RTVSPost2010PropOp35
 70
     1
102
RTVSPost2010Prop36
280
     0
102
RTVSPost2010PropOp36
 70
     1
102
RTVSPost2010Prop37
 90
       50
102
RTVSPost2010PropOp37
 70
     1
102
RTVSPost2010Prop38
140
0.0
102
RTVSPost2010PropOp38
 70
     1
102
RTVSPost2010Prop39
140
1.0
102
RTVSPost2010PropOp39
 70
     1
102
RTVSPost2010Prop40
 90
        0
102
RTVSPost2010PropOp40
 70
     1
102
RTVSPost2010Prop41ColorIndex
 90
       18
102
RTVSPost2010Prop41ColorRGB
 90
        0
102
RTVSPost2010PropOp41
 70
     1
102
RTVSPost2010Prop42
 90
       50
102
RTVSPost2010PropOp42
 70
     1
102
RTVSPost2010Prop43
 90
        3
102
RTVSPost2010PropOp43
 70
     1
102
RTVSPost2010Prop44ColorIndex
 90
        5
102
RTVSPost2010Prop44ColorRGB
 90
      255
102
RTVSPost2010PropOp44
 70
     1
102
RTVSPost2010Prop45
280
     0
102
RTVSPost2010PropOp45
 70
     1
102
RTVSPost2010Prop46
 90
       50
102
RTVSPost2010PropOp46
 70
     1
102
RTVSPost2010Prop47
 90
       50
102
RTVSPost2010PropOp47
 70
     1
102
RTVSPost2010Prop48
 90
       50
102
RTVSPost2010PropOp48
 70
     1
102
RTVSPost2010Prop49
280
     0
102
RTVSPost2010PropOp49
 70
     1
102
RTVSPost2010Prop50
 90
       50
102
RTVSPost2010PropOp50
 70
     1
102
RTVSPost2010Prop51ColorIndex
 90
      256
102
RTVSPost2010Prop51ColorRGB
 90
-16777216
102
RTVSPost2010PropOp51
 70
     0
102
RTVSPost2010Prop52
140
1.0
102
RTVSPost2010PropOp52
 70
     0
102
RTVSPost2010Prop53
 90
        2
102
RTVSPost2010PropOp53
 70
     1
102
RTVSPost2010Prop54
  1
strokes_ogs.tif
102
RTVSPost2010PropOp54
 70
     1
102
RTVSPost2010Prop55
280
     0
102
RTVSPost2010PropOp55
 70
     1
102
RTVSPost2010Prop56
140
1.0
102
RTVSPost2010PropOp56
 70
     1
102
RTVSPost2010Prop57
140
1.0
102
RTVSPost2010PropOp57
 70
     1
102
RTVSPropertyOp0
 70
     1
102
RTVSPropertyOp1
 70
     1
102
RTVSPropertyOp2
 70
     1
102
RTVSPropertyOp3
 70
     1
102
RTVSPropertyOp4
 70
     1
102
RTVSPropertyOp5
 70
     1
102
RTVSPropertyOp6
 70
     1
102
RTVSPropertyOp7
 70
     1
102
RTVSPropertyOp8
 70
     1
102
RTVSPropertyOp9
 70
     1
102
RTVSPropertyOp10
 70
     1
102
RTVSPropertyOp11
 70
     1
102
RTVSPropertyOp12
 70
     1
102
RTVSPropertyOp13
 70
     1
102
RTVSPropertyOp14
 70
     1
102
RTVSPropertyOp15
 70
     1
102
RTVSPropertyOp16
 70
     1
102
RTVSPropertyOp17
 70
     1
102
RTVSPropertyOp18
 70
     1
102
RTVSPropertyOp19
 70
     1
102
RTVSPropertyOp20
 70
     1
102
RTVSPropertyOp21
 70
     1
102
RTVSPropertyOp22
 70
     1
102
RTVSPropertyOp23
 70
     1
102
RTVSPropertyOp24
 70
     1
102
RTVSPropertyOp25
 70
     1
102
RTVSPropertyOp26
 70
     1
102
RTVSPropertyOp27
 70
     1
102
RTVSPropertyOp28
 70
     1
102
RTVSPropertyOp29
 70
     1
102
RTVSPropertyOp30
 70
     1
102
RTVSPropertyOp31
 70
     1
102
RTVSPropertyOp32
 70
     1
102
RTVSPropertyOp33
 70
     1
102
RTVSPropertyOp34
 70
     1
102
RTVSPropertyOp35
 70
     1
102
RTVSPropertyOp36
 70
     1
102
RTVSPropertyOp37
 70
     1
102
RTVSPropertyOp38
 70
     1
102
RTVSPropertyOp39
 70
     1
102
RTVSPropertyOp40
 70
     1
102
RTVSPropertyOp41
 70
     1
102
RTVSPropertyOp42
 70
     1
102
RTVSPropertyOp43
 70
     1
102
RTVSPropertyOp44
 70
     1
102
RTVSPropertyOp45
 70
     1
102
RTVSPropertyOp46
 70
     1
102
RTVSPropertyOp47
 70
     1
102
RTVSPropertyOp48
 70
     1
102
RTVSPropertyOp49
 70
     1
102
RTVSPropertyOp50
 70
     1
102
RTVSPropertyOp51
 70
     0
102
RTVSPropertyOp52
 70
     0
102
RTVSPropertyOp53
 70
     1
102
RTVSPropertyOp54
 70
     1
102
RTVSPropertyOp55
 70
     1
102
RTVSPropertyOp56
 70
     1
102
RTVSPropertyOp57
 70
     1
102
RTVSPropertyOp58
 70
     1
102
RTVSPropertyOp59
 70
     1
102
RTVSPropertyOp60
 70
     1
102
RTVSPropertyOp61
 70
     1
102
RTVSPropertyOp62
 70
     1
  0
XRECORD
  5
28EC
102
{ACAD_REACTORS
330
28EB
102
}
330
28EB
100
AcDbXrecord
280
     1
102
RTVSPost2010Prop28
280
     0
102
RTVSPost2010PropOp28
 70
     1
102
RTVSPost2010Prop29
280
     1
102
RTVSPost2010PropOp29
 70
     1
102
RTVSPost2010Prop30
280
     1
102
RTVSPost2010PropOp30
 70
     1
102
RTVSPost2010Prop31
280
     0
102
RTVSPost2010PropOp31
 70
     1
102
RTVSPost2010Prop32
280
     0
102
RTVSPost2010PropOp32
 70
     1
102
RTVSPost2010Prop33
280
     0
102
RTVSPost2010PropOp33
 70
     1
102
RTVSPost2010Prop34
280
     0
102
RTVSPost2010PropOp34
 70
     1
102
RTVSPost2010Prop35
280
     0
102
RTVSPost2010PropOp35
 70
     1
102
RTVSPost2010Prop36
280
     0
102
RTVSPost2010PropOp36
 70
     1
102
RTVSPost2010Prop37
 90
       50
102
RTVSPost2010PropOp37
 70
     1
102
RTVSPost2010Prop38
140
0.0
102
RTVSPost2010PropOp38
 70
     1
102
RTVSPost2010Prop39
140
1.0
102
RTVSPost2010PropOp39
 70
     1
102
RTVSPost2010Prop40
 90
        0
102
RTVSPost2010PropOp40
 70
     1
102
RTVSPost2010Prop41ColorIndex
 90
       18
102
RTVSPost2010Prop41ColorRGB
 90
        0
102
RTVSPost2010PropOp41
 70
     1
102
RTVSPost2010Prop42
 90
       50
102
RTVSPost2010PropOp42
 70
     1
102
RTVSPost2010Prop43
 90
        3
102
RTVSPost2010PropOp43
 70
     1
102
RTVSPost2010Prop44ColorIndex
 90
        5
102
RTVSPost2010Prop44ColorRGB
 90
      255
102
RTVSPost2010PropOp44
 70
     1
102
RTVSPost2010Prop45
280
     0
102
RTVSPost2010PropOp45
 70
     1
102
RTVSPost2010Prop46
 90
       50
102
RTVSPost2010PropOp46
 70
     1
102
RTVSPost2010Prop47
 90
       50
102
RTVSPost2010PropOp47
 70
     1
102
RTVSPost2010Prop48
 90
       50
102
RTVSPost2010PropOp48
 70
     1
102
RTVSPost2010Prop49
280
     0
102
RTVSPost2010PropOp49
 70
     1
102
RTVSPost2010Prop50
 90
       50
102
RTVSPost2010PropOp50
 70
     1
102
RTVSPost2010Prop51ColorIndex
 90
      256
102
RTVSPost2010Prop51ColorRGB
 90
-16777216
102
RTVSPost2010PropOp51
 70
     0
102
RTVSPost2010Prop52
140
1.0
102
RTVSPost2010PropOp52
 70
     0
102
RTVSPost2010Prop53
 90
        2
102
RTVSPost2010PropOp53
 70
     1
102
RTVSPost2010Prop54
  1
strokes_ogs.tif
102
RTVSPost2010PropOp54
 70
     1
102
RTVSPost2010Prop55
280
     0
102
RTVSPost2010PropOp55
 70
     1
102
RTVSPost2010Prop56
140
1.0
102
RTVSPost2010PropOp56
 70
     1
102
RTVSPost2010Prop57
140
1.0
102
RTVSPost2010PropOp57
 70
     1
102
RTVSPropertyOp0
 70
     1
102
RTVSPropertyOp1
 70
     1
102
RTVSPropertyOp2
 70
     1
102
RTVSPropertyOp3
 70
     1
102
RTVSPropertyOp4
 70
     1
102
RTVSPropertyOp5
 70
     1
102
RTVSPropertyOp6
 70
     1
102
RTVSPropertyOp7
 70
     1
102
RTVSPropertyOp8
 70
     1
102
RTVSPropertyOp9
 70
     1
102
RTVSPropertyOp10
 70
     1
102
RTVSPropertyOp11
 70
     1
102
RTVSPropertyOp12
 70
     1
102
RTVSPropertyOp13
 70
     1
102
RTVSPropertyOp14
 70
     1
102
RTVSPropertyOp15
 70
     1
102
RTVSPropertyOp16
 70
     1
102
RTVSPropertyOp17
 70
     1
102
RTVSPropertyOp18
 70
     1
102
RTVSPropertyOp19
 70
     1
102
RTVSPropertyOp20
 70
     1
102
RTVSPropertyOp21
 70
     1
102
RTVSPropertyOp22
 70
     1
102
RTVSPropertyOp23
 70
     1
102
RTVSPropertyOp24
 70
     1
102
RTVSPropertyOp25
 70
     1
102
RTVSPropertyOp26
 70
     1
102
RTVSPropertyOp27
 70
     1
102
RTVSPropertyOp28
 70
     1
102
RTVSPropertyOp29
 70
     1
102
RTVSPropertyOp30
 70
     1
102
RTVSPropertyOp31
 70
     1
102
RTVSPropertyOp32
 70
     1
102
RTVSPropertyOp33
 70
     1
102
RTVSPropertyOp34
 70
     1
102
RTVSPropertyOp35
 70
     1
102
RTVSPropertyOp36
 70
     1
102
RTVSPropertyOp37
 70
     1
102
RTVSPropertyOp38
 70
     1
102
RTVSPropertyOp39
 70
     1
102
RTVSPropertyOp40
 70
     1
102
RTVSPropertyOp41
 70
     1
102
RTVSPropertyOp42
 70
     1
102
RTVSPropertyOp43
 70
     1
102
RTVSPropertyOp44
 70
     1
102
RTVSPropertyOp45
 70
     1
102
RTVSPropertyOp46
 70
     1
102
RTVSPropertyOp47
 70
     1
102
RTVSPropertyOp48
 70
     1
102
RTVSPropertyOp49
 70
     1
102
RTVSPropertyOp50
 70
     1
102
RTVSPropertyOp51
 70
     0
102
RTVSPropertyOp52
 70
     0
102
RTVSPropertyOp53
 70
     1
102
RTVSPropertyOp54
 70
     1
102
RTVSPropertyOp55
 70
     1
102
RTVSPropertyOp56
 70
     1
102
RTVSPropertyOp57
 70
     1
102
RTVSPropertyOp58
 70
     1
102
RTVSPropertyOp59
 70
     1
102
RTVSPropertyOp60
 70
     1
102
RTVSPropertyOp61
 70
     1
102
RTVSPropertyOp62
 70
     1
  0
XRECORD
  5
28DE
102
{ACAD_REACTORS
330
28DD
102
}
330
28DD
100
AcDbXrecord
280
     1
102
RTVSPost2010Prop28
280
     0
102
RTVSPost2010PropOp28
 70
     1
102
RTVSPost2010Prop29
280
     1
102
RTVSPost2010PropOp29
 70
     1
102
RTVSPost2010Prop30
280
     1
102
RTVSPost2010PropOp30
 70
     1
102
RTVSPost2010Prop31
280
     0
102
RTVSPost2010PropOp31
 70
     1
102
RTVSPost2010Prop32
280
     0
102
RTVSPost2010PropOp32
 70
     1
102
RTVSPost2010Prop33
280
     0
102
RTVSPost2010PropOp33
 70
     1
102
RTVSPost2010Prop34
280
     0
102
RTVSPost2010PropOp34
 70
     1
102
RTVSPost2010Prop35
280
     0
102
RTVSPost2010PropOp35
 70
     1
102
RTVSPost2010Prop36
280
     0
102
RTVSPost2010PropOp36
 70
     1
102
RTVSPost2010Prop37
 90
       50
102
RTVSPost2010PropOp37
 70
     1
102
RTVSPost2010Prop38
140
0.0
102
RTVSPost2010PropOp38
 70
     1
102
RTVSPost2010Prop39
140
1.0
102
RTVSPost2010PropOp39
 70
     1
102
RTVSPost2010Prop40
 90
        0
102
RTVSPost2010PropOp40
 70
     1
102
RTVSPost2010Prop41ColorIndex
 90
       18
102
RTVSPost2010Prop41ColorRGB
 90
        0
102
RTVSPost2010PropOp41
 70
     1
102
RTVSPost2010Prop42
 90
       50
102
RTVSPost2010PropOp42
 70
     1
102
RTVSPost2010Prop43
 90
        3
102
RTVSPost2010PropOp43
 70
     1
102
RTVSPost2010Prop44ColorIndex
 90
        5
102
RTVSPost2010Prop44ColorRGB
 90
      255
102
RTVSPost2010PropOp44
 70
     1
102
RTVSPost2010Prop45
280
     0
102
RTVSPost2010PropOp45
 70
     1
102
RTVSPost2010Prop46
 90
       50
102
RTVSPost2010PropOp46
 70
     1
102
RTVSPost2010Prop47
 90
       50
102
RTVSPost2010PropOp47
 70
     1
102
RTVSPost2010Prop48
 90
       50
102
RTVSPost2010PropOp48
 70
     1
102
RTVSPost2010Prop49
280
     0
102
RTVSPost2010PropOp49
 70
     1
102
RTVSPost2010Prop50
 90
       50
102
RTVSPost2010PropOp50
 70
     1
102
RTVSPost2010Prop51ColorIndex
 90
      256
102
RTVSPost2010Prop51ColorRGB
 90
-16777216
102
RTVSPost2010PropOp51
 70
     0
102
RTVSPost2010Prop52
140
1.0
102
RTVSPost2010PropOp52
 70
     0
102
RTVSPost2010Prop53
 90
        2
102
RTVSPost2010PropOp53
 70
     1
102
RTVSPost2010Prop54
  1
strokes_ogs.tif
102
RTVSPost2010PropOp54
 70
     1
102
RTVSPost2010Prop55
280
     0
102
RTVSPost2010PropOp55
 70
     1
102
RTVSPost2010Prop56
140
1.0
102
RTVSPost2010PropOp56
 70
     1
102
RTVSPost2010Prop57
140
1.0
102
RTVSPost2010PropOp57
 70
     1
102
RTVSPropertyOp0
 70
     1
102
RTVSPropertyOp1
 70
     1
102
RTVSPropertyOp2
 70
     1
102
RTVSPropertyOp3
 70
     1
102
RTVSPropertyOp4
 70
     1
102
RTVSPropertyOp5
 70
     1
102
RTVSPropertyOp6
 70
     1
102
RTVSPropertyOp7
 70
     1
102
RTVSPropertyOp8
 70
     1
102
RTVSPropertyOp9
 70
     1
102
RTVSPropertyOp10
 70
     1
102
RTVSPropertyOp11
 70
     1
102
RTVSPropertyOp12
 70
     1
102
RTVSPropertyOp13
 70
     1
102
RTVSPropertyOp14
 70
     1
102
RTVSPropertyOp15
 70
     1
102
RTVSPropertyOp16
 70
     1
102
RTVSPropertyOp17
 70
     1
102
RTVSPropertyOp18
 70
     1
102
RTVSPropertyOp19
 70
     1
102
RTVSPropertyOp20
 70
     1
102
RTVSPropertyOp21
 70
     1
102
RTVSPropertyOp22
 70
     1
102
RTVSPropertyOp23
 70
     1
102
RTVSPropertyOp24
 70
     1
102
RTVSPropertyOp25
 70
     1
102
RTVSPropertyOp26
 70
     1
102
RTVSPropertyOp27
 70
     1
102
RTVSPropertyOp28
 70
     1
102
RTVSPropertyOp29
 70
     1
102
RTVSPropertyOp30
 70
     1
102
RTVSPropertyOp31
 70
     1
102
RTVSPropertyOp32
 70
     1
102
RTVSPropertyOp33
 70
     1
102
RTVSPropertyOp34
 70
     1
102
RTVSPropertyOp35
 70
     1
102
RTVSPropertyOp36
 70
     1
102
RTVSPropertyOp37
 70
     1
102
RTVSPropertyOp38
 70
     1
102
RTVSPropertyOp39
 70
     1
102
RTVSPropertyOp40
 70
     1
102
RTVSPropertyOp41
 70
     1
102
RTVSPropertyOp42
 70
     1
102
RTVSPropertyOp43
 70
     1
102
RTVSPropertyOp44
 70
     1
102
RTVSPropertyOp45
 70
     1
102
RTVSPropertyOp46
 70
     1
102
RTVSPropertyOp47
 70
     1
102
RTVSPropertyOp48
 70
     1
102
RTVSPropertyOp49
 70
     1
102
RTVSPropertyOp50
 70
     1
102
RTVSPropertyOp51
 70
     0
102
RTVSPropertyOp52
 70
     0
102
RTVSPropertyOp53
 70
     1
102
RTVSPropertyOp54
 70
     1
102
RTVSPropertyOp55
 70
     1
102
RTVSPropertyOp56
 70
     1
102
RTVSPropertyOp57
 70
     1
102
RTVSPropertyOp58
 70
     1
102
RTVSPropertyOp59
 70
     1
102
RTVSPropertyOp60
 70
     1
102
RTVSPropertyOp61
 70
     1
102
RTVSPropertyOp62
 70
     1
  0
XRECORD
  5
28E2
102
{ACAD_REACTORS
330
28E1
102
}
330
28E1
100
AcDbXrecord
280
     1
102
RTVSPost2010Prop28
280
     0
102
RTVSPost2010PropOp28
 70
     1
102
RTVSPost2010Prop29
280
     1
102
RTVSPost2010PropOp29
 70
     1
102
RTVSPost2010Prop30
280
     1
102
RTVSPost2010PropOp30
 70
     1
102
RTVSPost2010Prop31
280
     0
102
RTVSPost2010PropOp31
 70
     1
102
RTVSPost2010Prop32
280
     0
102
RTVSPost2010PropOp32
 70
     1
102
RTVSPost2010Prop33
280
     0
102
RTVSPost2010PropOp33
 70
     1
102
RTVSPost2010Prop34
280
     0
102
RTVSPost2010PropOp34
 70
     1
102
RTVSPost2010Prop35
280
     0
102
RTVSPost2010PropOp35
 70
     1
102
RTVSPost2010Prop36
280
     0
102
RTVSPost2010PropOp36
 70
     1
102
RTVSPost2010Prop37
 90
       50
102
RTVSPost2010PropOp37
 70
     1
102
RTVSPost2010Prop38
140
0.0
102
RTVSPost2010PropOp38
 70
     1
102
RTVSPost2010Prop39
140
1.0
102
RTVSPost2010PropOp39
 70
     1
102
RTVSPost2010Prop40
 90
        0
102
RTVSPost2010PropOp40
 70
     1
102
RTVSPost2010Prop41ColorIndex
 90
       18
102
RTVSPost2010Prop41ColorRGB
 90
        0
102
RTVSPost2010PropOp41
 70
     1
102
RTVSPost2010Prop42
 90
       50
102
RTVSPost2010PropOp42
 70
     1
102
RTVSPost2010Prop43
 90
        3
102
RTVSPost2010PropOp43
 70
     1
102
RTVSPost2010Prop44ColorIndex
 90
        5
102
RTVSPost2010Prop44ColorRGB
 90
      255
102
RTVSPost2010PropOp44
 70
     1
102
RTVSPost2010Prop45
280
     0
102
RTVSPost2010PropOp45
 70
     1
102
RTVSPost2010Prop46
 90
       50
102
RTVSPost2010PropOp46
 70
     1
102
RTVSPost2010Prop47
 90
       50
102
RTVSPost2010PropOp47
 70
     1
102
RTVSPost2010Prop48
 90
       50
102
RTVSPost2010PropOp48
 70
     1
102
RTVSPost2010Prop49
280
     0
102
RTVSPost2010PropOp49
 70
     1
102
RTVSPost2010Prop50
 90
       50
102
RTVSPost2010PropOp50
 70
     1
102
RTVSPost2010Prop51ColorIndex
 90
      256
102
RTVSPost2010Prop51ColorRGB
 90
-16777216
102
RTVSPost2010PropOp51
 70
     0
102
RTVSPost2010Prop52
140
1.0
102
RTVSPost2010PropOp52
 70
     0
102
RTVSPost2010Prop53
 90
        2
102
RTVSPost2010PropOp53
 70
     1
102
RTVSPost2010Prop54
  1
strokes_ogs.tif
102
RTVSPost2010PropOp54
 70
     1
102
RTVSPost2010Prop55
280
     0
102
RTVSPost2010PropOp55
 70
     1
102
RTVSPost2010Prop56
140
1.0
102
RTVSPost2010PropOp56
 70
     1
102
RTVSPost2010Prop57
140
1.0
102
RTVSPost2010PropOp57
 70
     1
102
RTVSPropertyOp0
 70
     1
102
RTVSPropertyOp1
 70
     1
102
RTVSPropertyOp2
 70
     1
102
RTVSPropertyOp3
 70
     1
102
RTVSPropertyOp4
 70
     1
102
RTVSPropertyOp5
 70
     1
102
RTVSPropertyOp6
 70
     1
102
RTVSPropertyOp7
 70
     1
102
RTVSPropertyOp8
 70
     1
102
RTVSPropertyOp9
 70
     1
102
RTVSPropertyOp10
 70
     1
102
RTVSPropertyOp11
 70
     1
102
RTVSPropertyOp12
 70
     1
102
RTVSPropertyOp13
 70
     1
102
RTVSPropertyOp14
 70
     1
102
RTVSPropertyOp15
 70
     1
102
RTVSPropertyOp16
 70
     1
102
RTVSPropertyOp17
 70
     1
102
RTVSPropertyOp18
 70
     1
102
RTVSPropertyOp19
 70
     1
102
RTVSPropertyOp20
 70
     1
102
RTVSPropertyOp21
 70
     1
102
RTVSPropertyOp22
 70
     1
102
RTVSPropertyOp23
 70
     1
102
RTVSPropertyOp24
 70
     1
102
RTVSPropertyOp25
 70
     1
102
RTVSPropertyOp26
 70
     1
102
RTVSPropertyOp27
 70
     1
102
RTVSPropertyOp28
 70
     1
102
RTVSPropertyOp29
 70
     1
102
RTVSPropertyOp30
 70
     1
102
RTVSPropertyOp31
 70
     1
102
RTVSPropertyOp32
 70
     1
102
RTVSPropertyOp33
 70
     1
102
RTVSPropertyOp34
 70
     1
102
RTVSPropertyOp35
 70
     1
102
RTVSPropertyOp36
 70
     1
102
RTVSPropertyOp37
 70
     1
102
RTVSPropertyOp38
 70
     1
102
RTVSPropertyOp39
 70
     1
102
RTVSPropertyOp40
 70
     1
102
RTVSPropertyOp41
 70
     1
102
RTVSPropertyOp42
 70
     1
102
RTVSPropertyOp43
 70
     1
102
RTVSPropertyOp44
 70
     1
102
RTVSPropertyOp45
 70
     1
102
RTVSPropertyOp46
 70
     1
102
RTVSPropertyOp47
 70
     1
102
RTVSPropertyOp48
 70
     1
102
RTVSPropertyOp49
 70
     1
102
RTVSPropertyOp50
 70
     1
102
RTVSPropertyOp51
 70
     0
102
RTVSPropertyOp52
 70
     0
102
RTVSPropertyOp53
 70
     1
102
RTVSPropertyOp54
 70
     1
102
RTVSPropertyOp55
 70
     1
102
RTVSPropertyOp56
 70
     1
102
RTVSPropertyOp57
 70
     1
102
RTVSPropertyOp58
 70
     1
102
RTVSPropertyOp59
 70
     1
102
RTVSPropertyOp60
 70
     1
102
RTVSPropertyOp61
 70
     1
102
RTVSPropertyOp62
 70
     1
  0
XRECORD
  5
28FC
102
{ACAD_REACTORS
330
28FB
102
}
330
28FB
100
AcDbXrecord
280
     1
102
RTVSPost2010Prop28
280
     0
102
RTVSPost2010PropOp28
 70
     1
102
RTVSPost2010Prop29
280
     1
102
RTVSPost2010PropOp29
 70
     1
102
RTVSPost2010Prop30
280
     1
102
RTVSPost2010PropOp30
 70
     1
102
RTVSPost2010Prop31
280
     0
102
RTVSPost2010PropOp31
 70
     1
102
RTVSPost2010Prop32
280
     0
102
RTVSPost2010PropOp32
 70
     1
102
RTVSPost2010Prop33
280
     0
102
RTVSPost2010PropOp33
 70
     1
102
RTVSPost2010Prop34
280
     0
102
RTVSPost2010PropOp34
 70
     1
102
RTVSPost2010Prop35
280
     0
102
RTVSPost2010PropOp35
 70
     1
102
RTVSPost2010Prop36
280
     0
102
RTVSPost2010PropOp36
 70
     1
102
RTVSPost2010Prop37
 90
       50
102
RTVSPost2010PropOp37
 70
     0
102
RTVSPost2010Prop38
140
0.0
102
RTVSPost2010PropOp38
 70
     0
102
RTVSPost2010Prop39
140
1.0
102
RTVSPost2010PropOp39
 70
     0
102
RTVSPost2010Prop40
 90
        0
102
RTVSPost2010PropOp40
 70
     0
102
RTVSPost2010Prop41ColorIndex
 90
       18
102
RTVSPost2010Prop41ColorRGB
 90
        0
102
RTVSPost2010PropOp41
 70
     0
102
RTVSPost2010Prop42
 90
       50
102
RTVSPost2010PropOp42
 70
     0
102
RTVSPost2010Prop43
 90
        3
102
RTVSPost2010PropOp43
 70
     0
102
RTVSPost2010Prop44ColorIndex
 90
        5
102
RTVSPost2010Prop44ColorRGB
 90
      255
102
RTVSPost2010PropOp44
 70
     0
102
RTVSPost2010Prop45
280
     0
102
RTVSPost2010PropOp45
 70
     1
102
RTVSPost2010Prop46
 90
       50
102
RTVSPost2010PropOp46
 70
     0
102
RTVSPost2010Prop47
 90
       50
102
RTVSPost2010PropOp47
 70
     0
102
RTVSPost2010Prop48
 90
       50
102
RTVSPost2010PropOp48
 70
     0
102
RTVSPost2010Prop49
280
     0
102
RTVSPost2010PropOp49
 70
     1
102
RTVSPost2010Prop50
 90
       50
102
RTVSPost2010PropOp50
 70
     0
102
RTVSPost2010Prop51ColorIndex
 90
      256
102
RTVSPost2010Prop51ColorRGB
 90
-16777216
102
RTVSPost2010PropOp51
 70
     0
102
RTVSPost2010Prop52
140
1.0
102
RTVSPost2010PropOp52
 70
     0
102
RTVSPost2010Prop53
 90
        2
102
RTVSPost2010PropOp53
 70
     0
102
RTVSPost2010Prop54
  1
strokes_ogs.tif
102
RTVSPost2010PropOp54
 70
     0
102
RTVSPost2010Prop55
280
     0
102
RTVSPost2010PropOp55
 70
     1
102
RTVSPost2010Prop56
140
1.0
102
RTVSPost2010PropOp56
 70
     0
102
RTVSPost2010Prop57
140
1.0
102
RTVSPost2010PropOp57
 70
     0
102
RTVSPropertyOp0
 70
     0
102
RTVSPropertyOp1
 70
     0
102
RTVSPropertyOp2
 70
     0
102
RTVSPropertyOp3
 70
     0
102
RTVSPropertyOp4
 70
     0
102
RTVSPropertyOp5
 70
     0
102
RTVSPropertyOp6
 70
     0
102
RTVSPropertyOp7
 70
     0
102
RTVSPropertyOp8
 70
     0
102
RTVSPropertyOp9
 70
     0
102
RTVSPropertyOp10
 70
     0
102
RTVSPropertyOp11
 70
     0
102
RTVSPropertyOp12
 70
     0
102
RTVSPropertyOp13
 70
     0
102
RTVSPropertyOp14
 70
     2
102
RTVSPropertyOp15
 70
     0
102
RTVSPropertyOp16
 70
     0
102
RTVSPropertyOp17
 70
     0
102
RTVSPropertyOp18
 70
     0
102
RTVSPropertyOp19
 70
     0
102
RTVSPropertyOp20
 70
     0
102
RTVSPropertyOp21
 70
     0
102
RTVSPropertyOp22
 70
     0
102
RTVSPropertyOp23
 70
     0
102
RTVSPropertyOp24
 70
     0
102
RTVSPropertyOp25
 70
     0
102
RTVSPropertyOp26
 70
     0
102
RTVSPropertyOp27
 70
     0
102
RTVSPropertyOp28
 70
     1
102
RTVSPropertyOp29
 70
     1
102
RTVSPropertyOp30
 70
     1
102
RTVSPropertyOp31
 70
     1
102
RTVSPropertyOp32
 70
     1
102
RTVSPropertyOp33
 70
     1
102
RTVSPropertyOp34
 70
     1
102
RTVSPropertyOp35
 70
     1
102
RTVSPropertyOp36
 70
     1
102
RTVSPropertyOp37
 70
     0
102
RTVSPropertyOp38
 70
     0
102
RTVSPropertyOp39
 70
     0
102
RTVSPropertyOp40
 70
     0
102
RTVSPropertyOp41
 70
     0
102
RTVSPropertyOp42
 70
     0
102
RTVSPropertyOp43
 70
     0
102
RTVSPropertyOp44
 70
     0
102
RTVSPropertyOp45
 70
     1
102
RTVSPropertyOp46
 70
     0
102
RTVSPropertyOp47
 70
     0
102
RTVSPropertyOp48
 70
     0
102
RTVSPropertyOp49
 70
     1
102
RTVSPropertyOp50
 70
     0
102
RTVSPropertyOp51
 70
     0
102
RTVSPropertyOp52
 70
     0
102
RTVSPropertyOp53
 70
     0
102
RTVSPropertyOp54
 70
     0
102
RTVSPropertyOp55
 70
     1
102
RTVSPropertyOp56
 70
     0
102
RTVSPropertyOp57
 70
     0
102
RTVSPropertyOp58
 70
     0
102
RTVSPropertyOp59
 70
     0
102
RTVSPropertyOp60
 70
     0
102
RTVSPropertyOp61
 70
     0
102
RTVSPropertyOp62
 70
     0
  0
XRECORD
  5
28EA
102
{ACAD_REACTORS
330
28E9
102
}
330
28E9
100
AcDbXrecord
280
     1
102
RTVSPost2010Prop28
280
     0
102
RTVSPost2010PropOp28
 70
     1
102
RTVSPost2010Prop29
280
     1
102
RTVSPost2010PropOp29
 70
     1
102
RTVSPost2010Prop30
280
     1
102
RTVSPost2010PropOp30
 70
     1
102
RTVSPost2010Prop31
280
     0
102
RTVSPost2010PropOp31
 70
     1
102
RTVSPost2010Prop32
280
     0
102
RTVSPost2010PropOp32
 70
     1
102
RTVSPost2010Prop33
280
     0
102
RTVSPost2010PropOp33
 70
     1
102
RTVSPost2010Prop34
280
     0
102
RTVSPost2010PropOp34
 70
     1
102
RTVSPost2010Prop35
280
     0
102
RTVSPost2010PropOp35
 70
     1
102
RTVSPost2010Prop36
280
     0
102
RTVSPost2010PropOp36
 70
     1
102
RTVSPost2010Prop37
 90
       50
102
RTVSPost2010PropOp37
 70
     1
102
RTVSPost2010Prop38
140
0.0
102
RTVSPost2010PropOp38
 70
     1
102
RTVSPost2010Prop39
140
1.0
102
RTVSPost2010PropOp39
 70
     1
102
RTVSPost2010Prop40
 90
        0
102
RTVSPost2010PropOp40
 70
     1
102
RTVSPost2010Prop41ColorIndex
 90
       18
102
RTVSPost2010Prop41ColorRGB
 90
        0
102
RTVSPost2010PropOp41
 70
     1
102
RTVSPost2010Prop42
 90
       50
102
RTVSPost2010PropOp42
 70
     1
102
RTVSPost2010Prop43
 90
        3
102
RTVSPost2010PropOp43
 70
     1
102
RTVSPost2010Prop44ColorIndex
 90
        5
102
RTVSPost2010Prop44ColorRGB
 90
      255
102
RTVSPost2010PropOp44
 70
     1
102
RTVSPost2010Prop45
280
     0
102
RTVSPost2010PropOp45
 70
     1
102
RTVSPost2010Prop46
 90
       50
102
RTVSPost2010PropOp46
 70
     1
102
RTVSPost2010Prop47
 90
       50
102
RTVSPost2010PropOp47
 70
     1
102
RTVSPost2010Prop48
 90
       50
102
RTVSPost2010PropOp48
 70
     1
102
RTVSPost2010Prop49
280
     0
102
RTVSPost2010PropOp49
 70
     1
102
RTVSPost2010Prop50
 90
       50
102
RTVSPost2010PropOp50
 70
     1
102
RTVSPost2010Prop51ColorIndex
 90
      256
102
RTVSPost2010Prop51ColorRGB
 90
-16777216
102
RTVSPost2010PropOp51
 70
     0
102
RTVSPost2010Prop52
140
1.0
102
RTVSPost2010PropOp52
 70
     0
102
RTVSPost2010Prop53
 90
        2
102
RTVSPost2010PropOp53
 70
     1
102
RTVSPost2010Prop54
  1
strokes_ogs.tif
102
RTVSPost2010PropOp54
 70
     1
102
RTVSPost2010Prop55
280
     0
102
RTVSPost2010PropOp55
 70
     1
102
RTVSPost2010Prop56
140
1.0
102
RTVSPost2010PropOp56
 70
     1
102
RTVSPost2010Prop57
140
1.0
102
RTVSPost2010PropOp57
 70
     1
102
RTVSPropertyOp0
 70
     1
102
RTVSPropertyOp1
 70
     1
102
RTVSPropertyOp2
 70
     1
102
RTVSPropertyOp3
 70
     1
102
RTVSPropertyOp4
 70
     1
102
RTVSPropertyOp5
 70
     1
102
RTVSPropertyOp6
 70
     1
102
RTVSPropertyOp7
 70
     1
102
RTVSPropertyOp8
 70
     1
102
RTVSPropertyOp9
 70
     1
102
RTVSPropertyOp10
 70
     1
102
RTVSPropertyOp11
 70
     1
102
RTVSPropertyOp12
 70
     1
102
RTVSPropertyOp13
 70
     1
102
RTVSPropertyOp14
 70
     1
102
RTVSPropertyOp15
 70
     1
102
RTVSPropertyOp16
 70
     1
102
RTVSPropertyOp17
 70
     1
102
RTVSPropertyOp18
 70
     1
102
RTVSPropertyOp19
 70
     1
102
RTVSPropertyOp20
 70
     1
102
RTVSPropertyOp21
 70
     1
102
RTVSPropertyOp22
 70
     1
102
RTVSPropertyOp23
 70
     1
102
RTVSPropertyOp24
 70
     1
102
RTVSPropertyOp25
 70
     1
102
RTVSPropertyOp26
 70
     1
102
RTVSPropertyOp27
 70
     1
102
RTVSPropertyOp28
 70
     1
102
RTVSPropertyOp29
 70
     1
102
RTVSPropertyOp30
 70
     1
102
RTVSPropertyOp31
 70
     1
102
RTVSPropertyOp32
 70
     1
102
RTVSPropertyOp33
 70
     1
102
RTVSPropertyOp34
 70
     1
102
RTVSPropertyOp35
 70
     1
102
RTVSPropertyOp36
 70
     1
102
RTVSPropertyOp37
 70
     1
102
RTVSPropertyOp38
 70
     1
102
RTVSPropertyOp39
 70
     1
102
RTVSPropertyOp40
 70
     1
102
RTVSPropertyOp41
 70
     1
102
RTVSPropertyOp42
 70
     1
102
RTVSPropertyOp43
 70
     1
102
RTVSPropertyOp44
 70
     1
102
RTVSPropertyOp45
 70
     1
102
RTVSPropertyOp46
 70
     1
102
RTVSPropertyOp47
 70
     1
102
RTVSPropertyOp48
 70
     1
102
RTVSPropertyOp49
 70
     1
102
RTVSPropertyOp50
 70
     1
102
RTVSPropertyOp51
 70
     0
102
RTVSPropertyOp52
 70
     0
102
RTVSPropertyOp53
 70
     1
102
RTVSPropertyOp54
 70
     1
102
RTVSPropertyOp55
 70
     1
102
RTVSPropertyOp56
 70
     1
102
RTVSPropertyOp57
 70
     1
102
RTVSPropertyOp58
 70
     1
102
RTVSPropertyOp59
 70
     1
102
RTVSPropertyOp60
 70
     1
102
RTVSPropertyOp61
 70
     1
102
RTVSPropertyOp62
 70
     1
  0
XRECORD
  5
28CE
102
{ACAD_REACTORS
330
28CD
102
}
330
28CD
100
AcDbXrecord
280
     1
102
RTVSPost2010Prop28
280
     0
102
RTVSPost2010PropOp28
 70
     1
102
RTVSPost2010Prop29
280
     1
102
RTVSPost2010PropOp29
 70
     1
102
RTVSPost2010Prop30
280
     1
102
RTVSPost2010PropOp30
 70
     1
102
RTVSPost2010Prop31
280
     0
102
RTVSPost2010PropOp31
 70
     1
102
RTVSPost2010Prop32
280
     0
102
RTVSPost2010PropOp32
 70
     1
102
RTVSPost2010Prop33
280
     0
102
RTVSPost2010PropOp33
 70
     1
102
RTVSPost2010Prop34
280
     0
102
RTVSPost2010PropOp34
 70
     1
102
RTVSPost2010Prop35
280
     0
102
RTVSPost2010PropOp35
 70
     1
102
RTVSPost2010Prop36
280
     0
102
RTVSPost2010PropOp36
 70
     1
102
RTVSPost2010Prop37
 90
       50
102
RTVSPost2010PropOp37
 70
     1
102
RTVSPost2010Prop38
140
0.0
102
RTVSPost2010PropOp38
 70
     1
102
RTVSPost2010Prop39
140
1.0
102
RTVSPost2010PropOp39
 70
     1
102
RTVSPost2010Prop40
 90
        0
102
RTVSPost2010PropOp40
 70
     1
102
RTVSPost2010Prop41ColorIndex
 90
       18
102
RTVSPost2010Prop41ColorRGB
 90
        0
102
RTVSPost2010PropOp41
 70
     1
102
RTVSPost2010Prop42
 90
       50
102
RTVSPost2010PropOp42
 70
     1
102
RTVSPost2010Prop43
 90
        3
102
RTVSPost2010PropOp43
 70
     1
102
RTVSPost2010Prop44ColorIndex
 90
        5
102
RTVSPost2010Prop44ColorRGB
 90
      255
102
RTVSPost2010PropOp44
 70
     1
102
RTVSPost2010Prop45
280
     0
102
RTVSPost2010PropOp45
 70
     1
102
RTVSPost2010Prop46
 90
       50
102
RTVSPost2010PropOp46
 70
     1
102
RTVSPost2010Prop47
 90
       50
102
RTVSPost2010PropOp47
 70
     1
102
RTVSPost2010Prop48
 90
       50
102
RTVSPost2010PropOp48
 70
     1
102
RTVSPost2010Prop49
280
     0
102
RTVSPost2010PropOp49
 70
     1
102
RTVSPost2010Prop50
 90
       50
102
RTVSPost2010PropOp50
 70
     1
102
RTVSPost2010Prop51ColorIndex
 90
      256
102
RTVSPost2010Prop51ColorRGB
 90
-16777216
102
RTVSPost2010PropOp51
 70
     0
102
RTVSPost2010Prop52
140
1.0
102
RTVSPost2010PropOp52
 70
     0
102
RTVSPost2010Prop53
 90
        2
102
RTVSPost2010PropOp53
 70
     1
102
RTVSPost2010Prop54
  1
strokes_ogs.tif
102
RTVSPost2010PropOp54
 70
     1
102
RTVSPost2010Prop55
280
     0
102
RTVSPost2010PropOp55
 70
     1
102
RTVSPost2010Prop56
140
1.0
102
RTVSPost2010PropOp56
 70
     1
102
RTVSPost2010Prop57
140
1.0
102
RTVSPost2010PropOp57
 70
     1
102
RTVSPropertyOp0
 70
     1
102
RTVSPropertyOp1
 70
     1
102
RTVSPropertyOp2
 70
     1
102
RTVSPropertyOp3
 70
     1
102
RTVSPropertyOp4
 70
     1
102
RTVSPropertyOp5
 70
     1
102
RTVSPropertyOp6
 70
     1
102
RTVSPropertyOp7
 70
     1
102
RTVSPropertyOp8
 70
     1
102
RTVSPropertyOp9
 70
     1
102
RTVSPropertyOp10
 70
     1
102
RTVSPropertyOp11
 70
     1
102
RTVSPropertyOp12
 70
     1
102
RTVSPropertyOp13
 70
     1
102
RTVSPropertyOp14
 70
     1
102
RTVSPropertyOp15
 70
     1
102
RTVSPropertyOp16
 70
     1
102
RTVSPropertyOp17
 70
     1
102
RTVSPropertyOp18
 70
     1
102
RTVSPropertyOp19
 70
     1
102
RTVSPropertyOp20
 70
     1
102
RTVSPropertyOp21
 70
     1
102
RTVSPropertyOp22
 70
     1
102
RTVSPropertyOp23
 70
     1
102
RTVSPropertyOp24
 70
     1
102
RTVSPropertyOp25
 70
     1
102
RTVSPropertyOp26
 70
     1
102
RTVSPropertyOp27
 70
     1
102
RTVSPropertyOp28
 70
     1
102
RTVSPropertyOp29
 70
     1
102
RTVSPropertyOp30
 70
     1
102
RTVSPropertyOp31
 70
     1
102
RTVSPropertyOp32
 70
     1
102
RTVSPropertyOp33
 70
     1
102
RTVSPropertyOp34
 70
     1
102
RTVSPropertyOp35
 70
     1
102
RTVSPropertyOp36
 70
     1
102
RTVSPropertyOp37
 70
     1
102
RTVSPropertyOp38
 70
     1
102
RTVSPropertyOp39
 70
     1
102
RTVSPropertyOp40
 70
     1
102
RTVSPropertyOp41
 70
     1
102
RTVSPropertyOp42
 70
     1
102
RTVSPropertyOp43
 70
     1
102
RTVSPropertyOp44
 70
     1
102
RTVSPropertyOp45
 70
     1
102
RTVSPropertyOp46
 70
     1
102
RTVSPropertyOp47
 70
     1
102
RTVSPropertyOp48
 70
     1
102
RTVSPropertyOp49
 70
     1
102
RTVSPropertyOp50
 70
     1
102
RTVSPropertyOp51
 70
     0
102
RTVSPropertyOp52
 70
     0
102
RTVSPropertyOp53
 70
     1
102
RTVSPropertyOp54
 70
     1
102
RTVSPropertyOp55
 70
     1
102
RTVSPropertyOp56
 70
     1
102
RTVSPropertyOp57
 70
     1
102
RTVSPropertyOp58
 70
     1
102
RTVSPropertyOp59
 70
     1
102
RTVSPropertyOp60
 70
     1
102
RTVSPropertyOp61
 70
     1
102
RTVSPropertyOp62
 70
     1
  0
XRECORD
  5
28D0
102
{ACAD_REACTORS
330
28CF
102
}
330
28CF
100
AcDbXrecord
280
     1
102
RTVSPost2010Prop28
280
     0
102
RTVSPost2010PropOp28
 70
     1
102
RTVSPost2010Prop29
280
     1
102
RTVSPost2010PropOp29
 70
     1
102
RTVSPost2010Prop30
280
     1
102
RTVSPost2010PropOp30
 70
     1
102
RTVSPost2010Prop31
280
     0
102
RTVSPost2010PropOp31
 70
     1
102
RTVSPost2010Prop32
280
     0
102
RTVSPost2010PropOp32
 70
     1
102
RTVSPost2010Prop33
280
     0
102
RTVSPost2010PropOp33
 70
     1
102
RTVSPost2010Prop34
280
     0
102
RTVSPost2010PropOp34
 70
     1
102
RTVSPost2010Prop35
280
     0
102
RTVSPost2010PropOp35
 70
     1
102
RTVSPost2010Prop36
280
     0
102
RTVSPost2010PropOp36
 70
     1
102
RTVSPost2010Prop37
 90
       50
102
RTVSPost2010PropOp37
 70
     1
102
RTVSPost2010Prop38
140
0.0
102
RTVSPost2010PropOp38
 70
     1
102
RTVSPost2010Prop39
140
1.0
102
RTVSPost2010PropOp39
 70
     1
102
RTVSPost2010Prop40
 90
        0
102
RTVSPost2010PropOp40
 70
     1
102
RTVSPost2010Prop41ColorIndex
 90
       18
102
RTVSPost2010Prop41ColorRGB
 90
        0
102
RTVSPost2010PropOp41
 70
     1
102
RTVSPost2010Prop42
 90
       50
102
RTVSPost2010PropOp42
 70
     1
102
RTVSPost2010Prop43
 90
        3
102
RTVSPost2010PropOp43
 70
     1
102
RTVSPost2010Prop44ColorIndex
 90
        5
102
RTVSPost2010Prop44ColorRGB
 90
      255
102
RTVSPost2010PropOp44
 70
     1
102
RTVSPost2010Prop45
280
     0
102
RTVSPost2010PropOp45
 70
     1
102
RTVSPost2010Prop46
 90
       50
102
RTVSPost2010PropOp46
 70
     1
102
RTVSPost2010Prop47
 90
       50
102
RTVSPost2010PropOp47
 70
     1
102
RTVSPost2010Prop48
 90
       50
102
RTVSPost2010PropOp48
 70
     1
102
RTVSPost2010Prop49
280
     0
102
RTVSPost2010PropOp49
 70
     1
102
RTVSPost2010Prop50
 90
       50
102
RTVSPost2010PropOp50
 70
     1
102
RTVSPost2010Prop51ColorIndex
 90
      256
102
RTVSPost2010Prop51ColorRGB
 90
-16777216
102
RTVSPost2010PropOp51
 70
     0
102
RTVSPost2010Prop52
140
1.0
102
RTVSPost2010PropOp52
 70
     0
102
RTVSPost2010Prop53
 90
        2
102
RTVSPost2010PropOp53
 70
     1
102
RTVSPost2010Prop54
  1
strokes_ogs.tif
102
RTVSPost2010PropOp54
 70
     1
102
RTVSPost2010Prop55
280
     0
102
RTVSPost2010PropOp55
 70
     1
102
RTVSPost2010Prop56
140
1.0
102
RTVSPost2010PropOp56
 70
     1
102
RTVSPost2010Prop57
140
1.0
102
RTVSPost2010PropOp57
 70
     1
102
RTVSPropertyOp0
 70
     1
102
RTVSPropertyOp1
 70
     1
102
RTVSPropertyOp2
 70
     1
102
RTVSPropertyOp3
 70
     1
102
RTVSPropertyOp4
 70
     1
102
RTVSPropertyOp5
 70
     1
102
RTVSPropertyOp6
 70
     1
102
RTVSPropertyOp7
 70
     1
102
RTVSPropertyOp8
 70
     1
102
RTVSPropertyOp9
 70
     1
102
RTVSPropertyOp10
 70
     1
102
RTVSPropertyOp11
 70
     1
102
RTVSPropertyOp12
 70
     1
102
RTVSPropertyOp13
 70
     1
102
RTVSPropertyOp14
 70
     1
102
RTVSPropertyOp15
 70
     1
102
RTVSPropertyOp16
 70
     1
102
RTVSPropertyOp17
 70
     1
102
RTVSPropertyOp18
 70
     1
102
RTVSPropertyOp19
 70
     1
102
RTVSPropertyOp20
 70
     1
102
RTVSPropertyOp21
 70
     1
102
RTVSPropertyOp22
 70
     1
102
RTVSPropertyOp23
 70
     1
102
RTVSPropertyOp24
 70
     1
102
RTVSPropertyOp25
 70
     1
102
RTVSPropertyOp26
 70
     1
102
RTVSPropertyOp27
 70
     1
102
RTVSPropertyOp28
 70
     1
102
RTVSPropertyOp29
 70
     1
102
RTVSPropertyOp30
 70
     1
102
RTVSPropertyOp31
 70
     1
102
RTVSPropertyOp32
 70
     1
102
RTVSPropertyOp33
 70
     1
102
RTVSPropertyOp34
 70
     1
102
RTVSPropertyOp35
 70
     1
102
RTVSPropertyOp36
 70
     1
102
RTVSPropertyOp37
 70
     1
102
RTVSPropertyOp38
 70
     1
102
RTVSPropertyOp39
 70
     1
102
RTVSPropertyOp40
 70
     1
102
RTVSPropertyOp41
 70
     1
102
RTVSPropertyOp42
 70
     1
102
RTVSPropertyOp43
 70
     1
102
RTVSPropertyOp44
 70
     1
102
RTVSPropertyOp45
 70
     1
102
RTVSPropertyOp46
 70
     1
102
RTVSPropertyOp47
 70
     1
102
RTVSPropertyOp48
 70
     1
102
RTVSPropertyOp49
 70
     1
102
RTVSPropertyOp50
 70
     1
102
RTVSPropertyOp51
 70
     0
102
RTVSPropertyOp52
 70
     0
102
RTVSPropertyOp53
 70
     1
102
RTVSPropertyOp54
 70
     1
102
RTVSPropertyOp55
 70
     1
102
RTVSPropertyOp56
 70
     1
102
RTVSPropertyOp57
 70
     1
102
RTVSPropertyOp58
 70
     1
102
RTVSPropertyOp59
 70
     1
102
RTVSPropertyOp60
 70
     1
102
RTVSPropertyOp61
 70
     1
102
RTVSPropertyOp62
 70
     1
  0
XRECORD
  5
28D2
102
{ACAD_REACTORS
330
28D1
102
}
330
28D1
100
AcDbXrecord
280
     1
102
RTVSPost2010Prop28
280
     0
102
RTVSPost2010PropOp28
 70
     1
102
RTVSPost2010Prop29
280
     1
102
RTVSPost2010PropOp29
 70
     1
102
RTVSPost2010Prop30
280
     1
102
RTVSPost2010PropOp30
 70
     1
102
RTVSPost2010Prop31
280
     0
102
RTVSPost2010PropOp31
 70
     1
102
RTVSPost2010Prop32
280
     0
102
RTVSPost2010PropOp32
 70
     1
102
RTVSPost2010Prop33
280
     0
102
RTVSPost2010PropOp33
 70
     1
102
RTVSPost2010Prop34
280
     0
102
RTVSPost2010PropOp34
 70
     1
102
RTVSPost2010Prop35
280
     0
102
RTVSPost2010PropOp35
 70
     1
102
RTVSPost2010Prop36
280
     0
102
RTVSPost2010PropOp36
 70
     1
102
RTVSPost2010Prop37
 90
       50
102
RTVSPost2010PropOp37
 70
     1
102
RTVSPost2010Prop38
140
0.0
102
RTVSPost2010PropOp38
 70
     1
102
RTVSPost2010Prop39
140
1.0
102
RTVSPost2010PropOp39
 70
     1
102
RTVSPost2010Prop40
 90
        0
102
RTVSPost2010PropOp40
 70
     1
102
RTVSPost2010Prop41ColorIndex
 90
       18
102
RTVSPost2010Prop41ColorRGB
 90
        0
102
RTVSPost2010PropOp41
 70
     1
102
RTVSPost2010Prop42
 90
       50
102
RTVSPost2010PropOp42
 70
     1
102
RTVSPost2010Prop43
 90
        3
102
RTVSPost2010PropOp43
 70
     1
102
RTVSPost2010Prop44ColorIndex
 90
        5
102
RTVSPost2010Prop44ColorRGB
 90
      255
102
RTVSPost2010PropOp44
 70
     1
102
RTVSPost2010Prop45
280
     0
102
RTVSPost2010PropOp45
 70
     1
102
RTVSPost2010Prop46
 90
       50
102
RTVSPost2010PropOp46
 70
     1
102
RTVSPost2010Prop47
 90
       50
102
RTVSPost2010PropOp47
 70
     1
102
RTVSPost2010Prop48
 90
       50
102
RTVSPost2010PropOp48
 70
     1
102
RTVSPost2010Prop49
280
     0
102
RTVSPost2010PropOp49
 70
     1
102
RTVSPost2010Prop50
 90
       50
102
RTVSPost2010PropOp50
 70
     1
102
RTVSPost2010Prop51ColorIndex
 90
      256
102
RTVSPost2010Prop51ColorRGB
 90
-16777216
102
RTVSPost2010PropOp51
 70
     0
102
RTVSPost2010Prop52
140
1.0
102
RTVSPost2010PropOp52
 70
     0
102
RTVSPost2010Prop53
 90
        2
102
RTVSPost2010PropOp53
 70
     1
102
RTVSPost2010Prop54
  1
strokes_ogs.tif
102
RTVSPost2010PropOp54
 70
     1
102
RTVSPost2010Prop55
280
     0
102
RTVSPost2010PropOp55
 70
     1
102
RTVSPost2010Prop56
140
1.0
102
RTVSPost2010PropOp56
 70
     1
102
RTVSPost2010Prop57
140
1.0
102
RTVSPost2010PropOp57
 70
     1
102
RTVSPropertyOp0
 70
     1
102
RTVSPropertyOp1
 70
     1
102
RTVSPropertyOp2
 70
     1
102
RTVSPropertyOp3
 70
     1
102
RTVSPropertyOp4
 70
     1
102
RTVSPropertyOp5
 70
     1
102
RTVSPropertyOp6
 70
     1
102
RTVSPropertyOp7
 70
     1
102
RTVSPropertyOp8
 70
     1
102
RTVSPropertyOp9
 70
     1
102
RTVSPropertyOp10
 70
     1
102
RTVSPropertyOp11
 70
     1
102
RTVSPropertyOp12
 70
     1
102
RTVSPropertyOp13
 70
     1
102
RTVSPropertyOp14
 70
     1
102
RTVSPropertyOp15
 70
     1
102
RTVSPropertyOp16
 70
     1
102
RTVSPropertyOp17
 70
     1
102
RTVSPropertyOp18
 70
     1
102
RTVSPropertyOp19
 70
     1
102
RTVSPropertyOp20
 70
     1
102
RTVSPropertyOp21
 70
     1
102
RTVSPropertyOp22
 70
     1
102
RTVSPropertyOp23
 70
     1
102
RTVSPropertyOp24
 70
     1
102
RTVSPropertyOp25
 70
     1
102
RTVSPropertyOp26
 70
     1
102
RTVSPropertyOp27
 70
     1
102
RTVSPropertyOp28
 70
     1
102
RTVSPropertyOp29
 70
     1
102
RTVSPropertyOp30
 70
     1
102
RTVSPropertyOp31
 70
     1
102
RTVSPropertyOp32
 70
     1
102
RTVSPropertyOp33
 70
     1
102
RTVSPropertyOp34
 70
     1
102
RTVSPropertyOp35
 70
     1
102
RTVSPropertyOp36
 70
     1
102
RTVSPropertyOp37
 70
     1
102
RTVSPropertyOp38
 70
     1
102
RTVSPropertyOp39
 70
     1
102
RTVSPropertyOp40
 70
     1
102
RTVSPropertyOp41
 70
     1
102
RTVSPropertyOp42
 70
     1
102
RTVSPropertyOp43
 70
     1
102
RTVSPropertyOp44
 70
     1
102
RTVSPropertyOp45
 70
     1
102
RTVSPropertyOp46
 70
     1
102
RTVSPropertyOp47
 70
     1
102
RTVSPropertyOp48
 70
     1
102
RTVSPropertyOp49
 70
     1
102
RTVSPropertyOp50
 70
     1
102
RTVSPropertyOp51
 70
     0
102
RTVSPropertyOp52
 70
     0
102
RTVSPropertyOp53
 70
     1
102
RTVSPropertyOp54
 70
     1
102
RTVSPropertyOp55
 70
     1
102
RTVSPropertyOp56
 70
     1
102
RTVSPropertyOp57
 70
     1
102
RTVSPropertyOp58
 70
     1
102
RTVSPropertyOp59
 70
     1
102
RTVSPropertyOp60
 70
     1
102
RTVSPropertyOp61
 70
     1
102
RTVSPropertyOp62
 70
     1
  0
XRECORD
  5
28D4
102
{ACAD_REACTORS
330
28D3
102
}
330
28D3
100
AcDbXrecord
280
     1
102
RTVSPost2010Prop28
280
     0
102
RTVSPost2010PropOp28
 70
     1
102
RTVSPost2010Prop29
280
     1
102
RTVSPost2010PropOp29
 70
     1
102
RTVSPost2010Prop30
280
     1
102
RTVSPost2010PropOp30
 70
     1
102
RTVSPost2010Prop31
280
     0
102
RTVSPost2010PropOp31
 70
     1
102
RTVSPost2010Prop32
280
     0
102
RTVSPost2010PropOp32
 70
     1
102
RTVSPost2010Prop33
280
     0
102
RTVSPost2010PropOp33
 70
     1
102
RTVSPost2010Prop34
280
     0
102
RTVSPost2010PropOp34
 70
     1
102
RTVSPost2010Prop35
280
     0
102
RTVSPost2010PropOp35
 70
     1
102
RTVSPost2010Prop36
280
     0
102
RTVSPost2010PropOp36
 70
     1
102
RTVSPost2010Prop37
 90
       50
102
RTVSPost2010PropOp37
 70
     1
102
RTVSPost2010Prop38
140
0.0
102
RTVSPost2010PropOp38
 70
     1
102
RTVSPost2010Prop39
140
1.0
102
RTVSPost2010PropOp39
 70
     1
102
RTVSPost2010Prop40
 90
        0
102
RTVSPost2010PropOp40
 70
     1
102
RTVSPost2010Prop41ColorIndex
 90
       18
102
RTVSPost2010Prop41ColorRGB
 90
        0
102
RTVSPost2010PropOp41
 70
     1
102
RTVSPost2010Prop42
 90
       50
102
RTVSPost2010PropOp42
 70
     1
102
RTVSPost2010Prop43
 90
        3
102
RTVSPost2010PropOp43
 70
     1
102
RTVSPost2010Prop44ColorIndex
 90
        5
102
RTVSPost2010Prop44ColorRGB
 90
      255
102
RTVSPost2010PropOp44
 70
     1
102
RTVSPost2010Prop45
280
     0
102
RTVSPost2010PropOp45
 70
     1
102
RTVSPost2010Prop46
 90
       50
102
RTVSPost2010PropOp46
 70
     1
102
RTVSPost2010Prop47
 90
       50
102
RTVSPost2010PropOp47
 70
     1
102
RTVSPost2010Prop48
 90
       50
102
RTVSPost2010PropOp48
 70
     1
102
RTVSPost2010Prop49
280
     0
102
RTVSPost2010PropOp49
 70
     1
102
RTVSPost2010Prop50
 90
       50
102
RTVSPost2010PropOp50
 70
     1
102
RTVSPost2010Prop51ColorIndex
 90
      256
102
RTVSPost2010Prop51ColorRGB
 90
-16777216
102
RTVSPost2010PropOp51
 70
     0
102
RTVSPost2010Prop52
140
1.0
102
RTVSPost2010PropOp52
 70
     0
102
RTVSPost2010Prop53
 90
        2
102
RTVSPost2010PropOp53
 70
     1
102
RTVSPost2010Prop54
  1
strokes_ogs.tif
102
RTVSPost2010PropOp54
 70
     1
102
RTVSPost2010Prop55
280
     0
102
RTVSPost2010PropOp55
 70
     1
102
RTVSPost2010Prop56
140
1.0
102
RTVSPost2010PropOp56
 70
     1
102
RTVSPost2010Prop57
140
1.0
102
RTVSPost2010PropOp57
 70
     1
102
RTVSPropertyOp0
 70
     1
102
RTVSPropertyOp1
 70
     1
102
RTVSPropertyOp2
 70
     1
102
RTVSPropertyOp3
 70
     1
102
RTVSPropertyOp4
 70
     1
102
RTVSPropertyOp5
 70
     1
102
RTVSPropertyOp6
 70
     1
102
RTVSPropertyOp7
 70
     1
102
RTVSPropertyOp8
 70
     1
102
RTVSPropertyOp9
 70
     1
102
RTVSPropertyOp10
 70
     1
102
RTVSPropertyOp11
 70
     1
102
RTVSPropertyOp12
 70
     1
102
RTVSPropertyOp13
 70
     1
102
RTVSPropertyOp14
 70
     1
102
RTVSPropertyOp15
 70
     1
102
RTVSPropertyOp16
 70
     1
102
RTVSPropertyOp17
 70
     1
102
RTVSPropertyOp18
 70
     1
102
RTVSPropertyOp19
 70
     1
102
RTVSPropertyOp20
 70
     1
102
RTVSPropertyOp21
 70
     1
102
RTVSPropertyOp22
 70
     1
102
RTVSPropertyOp23
 70
     1
102
RTVSPropertyOp24
 70
     1
102
RTVSPropertyOp25
 70
     1
102
RTVSPropertyOp26
 70
     1
102
RTVSPropertyOp27
 70
     1
102
RTVSPropertyOp28
 70
     1
102
RTVSPropertyOp29
 70
     1
102
RTVSPropertyOp30
 70
     1
102
RTVSPropertyOp31
 70
     1
102
RTVSPropertyOp32
 70
     1
102
RTVSPropertyOp33
 70
     1
102
RTVSPropertyOp34
 70
     1
102
RTVSPropertyOp35
 70
     1
102
RTVSPropertyOp36
 70
     1
102
RTVSPropertyOp37
 70
     1
102
RTVSPropertyOp38
 70
     1
102
RTVSPropertyOp39
 70
     1
102
RTVSPropertyOp40
 70
     1
102
RTVSPropertyOp41
 70
     1
102
RTVSPropertyOp42
 70
     1
102
RTVSPropertyOp43
 70
     1
102
RTVSPropertyOp44
 70
     1
102
RTVSPropertyOp45
 70
     1
102
RTVSPropertyOp46
 70
     1
102
RTVSPropertyOp47
 70
     1
102
RTVSPropertyOp48
 70
     1
102
RTVSPropertyOp49
 70
     1
102
RTVSPropertyOp50
 70
     1
102
RTVSPropertyOp51
 70
     0
102
RTVSPropertyOp52
 70
     0
102
RTVSPropertyOp53
 70
     1
102
RTVSPropertyOp54
 70
     1
102
RTVSPropertyOp55
 70
     1
102
RTVSPropertyOp56
 70
     1
102
RTVSPropertyOp57
 70
     1
102
RTVSPropertyOp58
 70
     1
102
RTVSPropertyOp59
 70
     1
102
RTVSPropertyOp60
 70
     1
102
RTVSPropertyOp61
 70
     1
102
RTVSPropertyOp62
 70
     1
  0
XRECORD
  5
28DC
102
{ACAD_REACTORS
330
28DB
102
}
330
28DB
100
AcDbXrecord
280
     1
102
RTVSPost2010Prop28
280
     0
102
RTVSPost2010PropOp28
 70
     1
102
RTVSPost2010Prop29
280
     1
102
RTVSPost2010PropOp29
 70
     1
102
RTVSPost2010Prop30
280
     1
102
RTVSPost2010PropOp30
 70
     1
102
RTVSPost2010Prop31
280
     0
102
RTVSPost2010PropOp31
 70
     1
102
RTVSPost2010Prop32
280
     0
102
RTVSPost2010PropOp32
 70
     1
102
RTVSPost2010Prop33
280
     0
102
RTVSPost2010PropOp33
 70
     1
102
RTVSPost2010Prop34
280
     0
102
RTVSPost2010PropOp34
 70
     1
102
RTVSPost2010Prop35
280
     0
102
RTVSPost2010PropOp35
 70
     1
102
RTVSPost2010Prop36
280
     0
102
RTVSPost2010PropOp36
 70
     1
102
RTVSPost2010Prop37
 90
       50
102
RTVSPost2010PropOp37
 70
     1
102
RTVSPost2010Prop38
140
0.0
102
RTVSPost2010PropOp38
 70
     1
102
RTVSPost2010Prop39
140
1.0
102
RTVSPost2010PropOp39
 70
     1
102
RTVSPost2010Prop40
 90
        0
102
RTVSPost2010PropOp40
 70
     1
102
RTVSPost2010Prop41ColorIndex
 90
       18
102
RTVSPost2010Prop41ColorRGB
 90
        0
102
RTVSPost2010PropOp41
 70
     1
102
RTVSPost2010Prop42
 90
       50
102
RTVSPost2010PropOp42
 70
     1
102
RTVSPost2010Prop43
 90
        3
102
RTVSPost2010PropOp43
 70
     1
102
RTVSPost2010Prop44ColorIndex
 90
        5
102
RTVSPost2010Prop44ColorRGB
 90
      255
102
RTVSPost2010PropOp44
 70
     1
102
RTVSPost2010Prop45
280
     0
102
RTVSPost2010PropOp45
 70
     1
102
RTVSPost2010Prop46
 90
       50
102
RTVSPost2010PropOp46
 70
     1
102
RTVSPost2010Prop47
 90
       50
102
RTVSPost2010PropOp47
 70
     1
102
RTVSPost2010Prop48
 90
       50
102
RTVSPost2010PropOp48
 70
     1
102
RTVSPost2010Prop49
280
     0
102
RTVSPost2010PropOp49
 70
     1
102
RTVSPost2010Prop50
 90
       50
102
RTVSPost2010PropOp50
 70
     1
102
RTVSPost2010Prop51ColorIndex
 90
      256
102
RTVSPost2010Prop51ColorRGB
 90
-16777216
102
RTVSPost2010PropOp51
 70
     0
102
RTVSPost2010Prop52
140
1.0
102
RTVSPost2010PropOp52
 70
     0
102
RTVSPost2010Prop53
 90
        2
102
RTVSPost2010PropOp53
 70
     1
102
RTVSPost2010Prop54
  1
strokes_ogs.tif
102
RTVSPost2010PropOp54
 70
     1
102
RTVSPost2010Prop55
280
     0
102
RTVSPost2010PropOp55
 70
     1
102
RTVSPost2010Prop56
140
1.0
102
RTVSPost2010PropOp56
 70
     1
102
RTVSPost2010Prop57
140
1.0
102
RTVSPost2010PropOp57
 70
     1
102
RTVSPropertyOp0
 70
     1
102
RTVSPropertyOp1
 70
     1
102
RTVSPropertyOp2
 70
     1
102
RTVSPropertyOp3
 70
     1
102
RTVSPropertyOp4
 70
     1
102
RTVSPropertyOp5
 70
     1
102
RTVSPropertyOp6
 70
     1
102
RTVSPropertyOp7
 70
     1
102
RTVSPropertyOp8
 70
     1
102
RTVSPropertyOp9
 70
     1
102
RTVSPropertyOp10
 70
     1
102
RTVSPropertyOp11
 70
     1
102
RTVSPropertyOp12
 70
     1
102
RTVSPropertyOp13
 70
     1
102
RTVSPropertyOp14
 70
     1
102
RTVSPropertyOp15
 70
     1
102
RTVSPropertyOp16
 70
     1
102
RTVSPropertyOp17
 70
     1
102
RTVSPropertyOp18
 70
     1
102
RTVSPropertyOp19
 70
     1
102
RTVSPropertyOp20
 70
     1
102
RTVSPropertyOp21
 70
     1
102
RTVSPropertyOp22
 70
     1
102
RTVSPropertyOp23
 70
     1
102
RTVSPropertyOp24
 70
     1
102
RTVSPropertyOp25
 70
     1
102
RTVSPropertyOp26
 70
     1
102
RTVSPropertyOp27
 70
     1
102
RTVSPropertyOp28
 70
     1
102
RTVSPropertyOp29
 70
     1
102
RTVSPropertyOp30
 70
     1
102
RTVSPropertyOp31
 70
     1
102
RTVSPropertyOp32
 70
     1
102
RTVSPropertyOp33
 70
     1
102
RTVSPropertyOp34
 70
     1
102
RTVSPropertyOp35
 70
     1
102
RTVSPropertyOp36
 70
     1
102
RTVSPropertyOp37
 70
     1
102
RTVSPropertyOp38
 70
     1
102
RTVSPropertyOp39
 70
     1
102
RTVSPropertyOp40
 70
     1
102
RTVSPropertyOp41
 70
     1
102
RTVSPropertyOp42
 70
     1
102
RTVSPropertyOp43
 70
     1
102
RTVSPropertyOp44
 70
     1
102
RTVSPropertyOp45
 70
     1
102
RTVSPropertyOp46
 70
     1
102
RTVSPropertyOp47
 70
     1
102
RTVSPropertyOp48
 70
     1
102
RTVSPropertyOp49
 70
     1
102
RTVSPropertyOp50
 70
     1
102
RTVSPropertyOp51
 70
     0
102
RTVSPropertyOp52
 70
     0
102
RTVSPropertyOp53
 70
     1
102
RTVSPropertyOp54
 70
     1
102
RTVSPropertyOp55
 70
     1
102
RTVSPropertyOp56
 70
     1
102
RTVSPropertyOp57
 70
     1
102
RTVSPropertyOp58
 70
     1
102
RTVSPropertyOp59
 70
     1
102
RTVSPropertyOp60
 70
     1
102
RTVSPropertyOp61
 70
     1
102
RTVSPropertyOp62
 70
     1
  0
XRECORD
  5
28F8
102
{ACAD_REACTORS
330
28F7
102
}
330
28F7
100
AcDbXrecord
280
     1
102
RTVSPost2010Prop28
280
     0
102
RTVSPost2010PropOp28
 70
     1
102
RTVSPost2010Prop29
280
     1
102
RTVSPost2010PropOp29
 70
     1
102
RTVSPost2010Prop30
280
     1
102
RTVSPost2010PropOp30
 70
     1
102
RTVSPost2010Prop31
280
     0
102
RTVSPost2010PropOp31
 70
     1
102
RTVSPost2010Prop32
280
     0
102
RTVSPost2010PropOp32
 70
     1
102
RTVSPost2010Prop33
280
     0
102
RTVSPost2010PropOp33
 70
     1
102
RTVSPost2010Prop34
280
     0
102
RTVSPost2010PropOp34
 70
     1
102
RTVSPost2010Prop35
280
     0
102
RTVSPost2010PropOp35
 70
     1
102
RTVSPost2010Prop36
280
     0
102
RTVSPost2010PropOp36
 70
     1
102
RTVSPost2010Prop37
 90
       50
102
RTVSPost2010PropOp37
 70
     0
102
RTVSPost2010Prop38
140
0.0
102
RTVSPost2010PropOp38
 70
     0
102
RTVSPost2010Prop39
140
1.0
102
RTVSPost2010PropOp39
 70
     0
102
RTVSPost2010Prop40
 90
        0
102
RTVSPost2010PropOp40
 70
     0
102
RTVSPost2010Prop41ColorIndex
 90
       18
102
RTVSPost2010Prop41ColorRGB
 90
        0
102
RTVSPost2010PropOp41
 70
     0
102
RTVSPost2010Prop42
 90
       50
102
RTVSPost2010PropOp42
 70
     0
102
RTVSPost2010Prop43
 90
        3
102
RTVSPost2010PropOp43
 70
     0
102
RTVSPost2010Prop44ColorIndex
 90
        5
102
RTVSPost2010Prop44ColorRGB
 90
      255
102
RTVSPost2010PropOp44
 70
     0
102
RTVSPost2010Prop45
280
     0
102
RTVSPost2010PropOp45
 70
     1
102
RTVSPost2010Prop46
 90
       50
102
RTVSPost2010PropOp46
 70
     0
102
RTVSPost2010Prop47
 90
       50
102
RTVSPost2010PropOp47
 70
     0
102
RTVSPost2010Prop48
 90
       50
102
RTVSPost2010PropOp48
 70
     0
102
RTVSPost2010Prop49
280
     0
102
RTVSPost2010PropOp49
 70
     1
102
RTVSPost2010Prop50
 90
       50
102
RTVSPost2010PropOp50
 70
     0
102
RTVSPost2010Prop51ColorIndex
 90
      256
102
RTVSPost2010Prop51ColorRGB
 90
-16777216
102
RTVSPost2010PropOp51
 70
     0
102
RTVSPost2010Prop52
140
1.0
102
RTVSPost2010PropOp52
 70
     0
102
RTVSPost2010Prop53
 90
        2
102
RTVSPost2010PropOp53
 70
     0
102
RTVSPost2010Prop54
  1
strokes_ogs.tif
102
RTVSPost2010PropOp54
 70
     0
102
RTVSPost2010Prop55
280
     0
102
RTVSPost2010PropOp55
 70
     1
102
RTVSPost2010Prop56
140
1.0
102
RTVSPost2010PropOp56
 70
     0
102
RTVSPost2010Prop57
140
1.0
102
RTVSPost2010PropOp57
 70
     0
102
RTVSPropertyOp0
 70
     0
102
RTVSPropertyOp1
 70
     0
102
RTVSPropertyOp2
 70
     0
102
RTVSPropertyOp3
 70
     0
102
RTVSPropertyOp4
 70
     0
102
RTVSPropertyOp5
 70
     0
102
RTVSPropertyOp6
 70
     0
102
RTVSPropertyOp7
 70
     0
102
RTVSPropertyOp8
 70
     0
102
RTVSPropertyOp9
 70
     0
102
RTVSPropertyOp10
 70
     0
102
RTVSPropertyOp11
 70
     0
102
RTVSPropertyOp12
 70
     0
102
RTVSPropertyOp13
 70
     0
102
RTVSPropertyOp14
 70
     2
102
RTVSPropertyOp15
 70
     0
102
RTVSPropertyOp16
 70
     0
102
RTVSPropertyOp17
 70
     0
102
RTVSPropertyOp18
 70
     0
102
RTVSPropertyOp19
 70
     0
102
RTVSPropertyOp20
 70
     0
102
RTVSPropertyOp21
 70
     0
102
RTVSPropertyOp22
 70
     0
102
RTVSPropertyOp23
 70
     0
102
RTVSPropertyOp24
 70
     0
102
RTVSPropertyOp25
 70
     0
102
RTVSPropertyOp26
 70
     0
102
RTVSPropertyOp27
 70
     0
102
RTVSPropertyOp28
 70
     1
102
RTVSPropertyOp29
 70
     1
102
RTVSPropertyOp30
 70
     1
102
RTVSPropertyOp31
 70
     1
102
RTVSPropertyOp32
 70
     1
102
RTVSPropertyOp33
 70
     1
102
RTVSPropertyOp34
 70
     1
102
RTVSPropertyOp35
 70
     1
102
RTVSPropertyOp36
 70
     1
102
RTVSPropertyOp37
 70
     0
102
RTVSPropertyOp38
 70
     0
102
RTVSPropertyOp39
 70
     0
102
RTVSPropertyOp40
 70
     0
102
RTVSPropertyOp41
 70
     0
102
RTVSPropertyOp42
 70
     0
102
RTVSPropertyOp43
 70
     0
102
RTVSPropertyOp44
 70
     0
102
RTVSPropertyOp45
 70
     1
102
RTVSPropertyOp46
 70
     0
102
RTVSPropertyOp47
 70
     0
102
RTVSPropertyOp48
 70
     0
102
RTVSPropertyOp49
 70
     1
102
RTVSPropertyOp50
 70
     0
102
RTVSPropertyOp51
 70
     0
102
RTVSPropertyOp52
 70
     0
102
RTVSPropertyOp53
 70
     0
102
RTVSPropertyOp54
 70
     0
102
RTVSPropertyOp55
 70
     1
102
RTVSPropertyOp56
 70
     0
102
RTVSPropertyOp57
 70
     0
102
RTVSPropertyOp58
 70
     0
102
RTVSPropertyOp59
 70
     0
102
RTVSPropertyOp60
 70
     0
102
RTVSPropertyOp61
 70
     0
102
RTVSPropertyOp62
 70
     0
  0
XRECORD
  5
28E8
102
{ACAD_REACTORS
330
28E7
102
}
330
28E7
100
AcDbXrecord
280
     1
102
RTVSPost2010Prop28
280
     0
102
RTVSPost2010PropOp28
 70
     1
102
RTVSPost2010Prop29
280
     1
102
RTVSPost2010PropOp29
 70
     1
102
RTVSPost2010Prop30
280
     1
102
RTVSPost2010PropOp30
 70
     1
102
RTVSPost2010Prop31
280
     0
102
RTVSPost2010PropOp31
 70
     1
102
RTVSPost2010Prop32
280
     0
102
RTVSPost2010PropOp32
 70
     1
102
RTVSPost2010Prop33
280
     0
102
RTVSPost2010PropOp33
 70
     1
102
RTVSPost2010Prop34
280
     0
102
RTVSPost2010PropOp34
 70
     1
102
RTVSPost2010Prop35
280
     0
102
RTVSPost2010PropOp35
 70
     1
102
RTVSPost2010Prop36
280
     0
102
RTVSPost2010PropOp36
 70
     1
102
RTVSPost2010Prop37
 90
       50
102
RTVSPost2010PropOp37
 70
     1
102
RTVSPost2010Prop38
140
0.0
102
RTVSPost2010PropOp38
 70
     1
102
RTVSPost2010Prop39
140
1.0
102
RTVSPost2010PropOp39
 70
     1
102
RTVSPost2010Prop40
 90
        0
102
RTVSPost2010PropOp40
 70
     1
102
RTVSPost2010Prop41ColorIndex
 90
       18
102
RTVSPost2010Prop41ColorRGB
 90
        0
102
RTVSPost2010PropOp41
 70
     1
102
RTVSPost2010Prop42
 90
       50
102
RTVSPost2010PropOp42
 70
     1
102
RTVSPost2010Prop43
 90
        3
102
RTVSPost2010PropOp43
 70
     1
102
RTVSPost2010Prop44ColorIndex
 90
        5
102
RTVSPost2010Prop44ColorRGB
 90
      255
102
RTVSPost2010PropOp44
 70
     1
102
RTVSPost2010Prop45
280
     0
102
RTVSPost2010PropOp45
 70
     1
102
RTVSPost2010Prop46
 90
       50
102
RTVSPost2010PropOp46
 70
     1
102
RTVSPost2010Prop47
 90
       50
102
RTVSPost2010PropOp47
 70
     1
102
RTVSPost2010Prop48
 90
       50
102
RTVSPost2010PropOp48
 70
     1
102
RTVSPost2010Prop49
280
     0
102
RTVSPost2010PropOp49
 70
     1
102
RTVSPost2010Prop50
 90
       50
102
RTVSPost2010PropOp50
 70
     1
102
RTVSPost2010Prop51ColorIndex
 90
      256
102
RTVSPost2010Prop51ColorRGB
 90
-16777216
102
RTVSPost2010PropOp51
 70
     0
102
RTVSPost2010Prop52
140
1.0
102
RTVSPost2010PropOp52
 70
     0
102
RTVSPost2010Prop53
 90
        2
102
RTVSPost2010PropOp53
 70
     1
102
RTVSPost2010Prop54
  1
strokes_ogs.tif
102
RTVSPost2010PropOp54
 70
     1
102
RTVSPost2010Prop55
280
     0
102
RTVSPost2010PropOp55
 70
     1
102
RTVSPost2010Prop56
140
1.0
102
RTVSPost2010PropOp56
 70
     1
102
RTVSPost2010Prop57
140
1.0
102
RTVSPost2010PropOp57
 70
     1
102
RTVSPropertyOp0
 70
     1
102
RTVSPropertyOp1
 70
     1
102
RTVSPropertyOp2
 70
     1
102
RTVSPropertyOp3
 70
     1
102
RTVSPropertyOp4
 70
     1
102
RTVSPropertyOp5
 70
     1
102
RTVSPropertyOp6
 70
     1
102
RTVSPropertyOp7
 70
     1
102
RTVSPropertyOp8
 70
     1
102
RTVSPropertyOp9
 70
     1
102
RTVSPropertyOp10
 70
     1
102
RTVSPropertyOp11
 70
     1
102
RTVSPropertyOp12
 70
     1
102
RTVSPropertyOp13
 70
     1
102
RTVSPropertyOp14
 70
     1
102
RTVSPropertyOp15
 70
     1
102
RTVSPropertyOp16
 70
     1
102
RTVSPropertyOp17
 70
     1
102
RTVSPropertyOp18
 70
     1
102
RTVSPropertyOp19
 70
     1
102
RTVSPropertyOp20
 70
     1
102
RTVSPropertyOp21
 70
     1
102
RTVSPropertyOp22
 70
     1
102
RTVSPropertyOp23
 70
     1
102
RTVSPropertyOp24
 70
     1
102
RTVSPropertyOp25
 70
     1
102
RTVSPropertyOp26
 70
     1
102
RTVSPropertyOp27
 70
     1
102
RTVSPropertyOp28
 70
     1
102
RTVSPropertyOp29
 70
     1
102
RTVSPropertyOp30
 70
     1
102
RTVSPropertyOp31
 70
     1
102
RTVSPropertyOp32
 70
     1
102
RTVSPropertyOp33
 70
     1
102
RTVSPropertyOp34
 70
     1
102
RTVSPropertyOp35
 70
     1
102
RTVSPropertyOp36
 70
     1
102
RTVSPropertyOp37
 70
     1
102
RTVSPropertyOp38
 70
     1
102
RTVSPropertyOp39
 70
     1
102
RTVSPropertyOp40
 70
     1
102
RTVSPropertyOp41
 70
     1
102
RTVSPropertyOp42
 70
     1
102
RTVSPropertyOp43
 70
     1
102
RTVSPropertyOp44
 70
     1
102
RTVSPropertyOp45
 70
     1
102
RTVSPropertyOp46
 70
     1
102
RTVSPropertyOp47
 70
     1
102
RTVSPropertyOp48
 70
     1
102
RTVSPropertyOp49
 70
     1
102
RTVSPropertyOp50
 70
     1
102
RTVSPropertyOp51
 70
     0
102
RTVSPropertyOp52
 70
     0
102
RTVSPropertyOp53
 70
     1
102
RTVSPropertyOp54
 70
     1
102
RTVSPropertyOp55
 70
     1
102
RTVSPropertyOp56
 70
     1
102
RTVSPropertyOp57
 70
     1
102
RTVSPropertyOp58
 70
     1
102
RTVSPropertyOp59
 70
     1
102
RTVSPropertyOp60
 70
     1
102
RTVSPropertyOp61
 70
     1
102
RTVSPropertyOp62
 70
     1
  0
XRECORD
  5
28FA
102
{ACAD_REACTORS
330
28F9
102
}
330
28F9
100
AcDbXrecord
280
     1
102
RTVSPost2010Prop28
280
     0
102
RTVSPost2010PropOp28
 70
     1
102
RTVSPost2010Prop29
280
     1
102
RTVSPost2010PropOp29
 70
     1
102
RTVSPost2010Prop30
280
     1
102
RTVSPost2010PropOp30
 70
     1
102
RTVSPost2010Prop31
280
     0
102
RTVSPost2010PropOp31
 70
     1
102
RTVSPost2010Prop32
280
     0
102
RTVSPost2010PropOp32
 70
     1
102
RTVSPost2010Prop33
280
     0
102
RTVSPost2010PropOp33
 70
     1
102
RTVSPost2010Prop34
280
     0
102
RTVSPost2010PropOp34
 70
     1
102
RTVSPost2010Prop35
280
     0
102
RTVSPost2010PropOp35
 70
     1
102
RTVSPost2010Prop36
280
     0
102
RTVSPost2010PropOp36
 70
     1
102
RTVSPost2010Prop37
 90
       50
102
RTVSPost2010PropOp37
 70
     0
102
RTVSPost2010Prop38
140
0.0
102
RTVSPost2010PropOp38
 70
     0
102
RTVSPost2010Prop39
140
1.0
102
RTVSPost2010PropOp39
 70
     0
102
RTVSPost2010Prop40
 90
        0
102
RTVSPost2010PropOp40
 70
     0
102
RTVSPost2010Prop41ColorIndex
 90
       18
102
RTVSPost2010Prop41ColorRGB
 90
        0
102
RTVSPost2010PropOp41
 70
     0
102
RTVSPost2010Prop42
 90
       50
102
RTVSPost2010PropOp42
 70
     0
102
RTVSPost2010Prop43
 90
        3
102
RTVSPost2010PropOp43
 70
     0
102
RTVSPost2010Prop44ColorIndex
 90
        5
102
RTVSPost2010Prop44ColorRGB
 90
      255
102
RTVSPost2010PropOp44
 70
     0
102
RTVSPost2010Prop45
280
     0
102
RTVSPost2010PropOp45
 70
     1
102
RTVSPost2010Prop46
 90
       50
102
RTVSPost2010PropOp46
 70
     0
102
RTVSPost2010Prop47
 90
       50
102
RTVSPost2010PropOp47
 70
     0
102
RTVSPost2010Prop48
 90
       50
102
RTVSPost2010PropOp48
 70
     0
102
RTVSPost2010Prop49
280
     0
102
RTVSPost2010PropOp49
 70
     1
102
RTVSPost2010Prop50
 90
       50
102
RTVSPost2010PropOp50
 70
     0
102
RTVSPost2010Prop51ColorIndex
 90
      256
102
RTVSPost2010Prop51ColorRGB
 90
-16777216
102
RTVSPost2010PropOp51
 70
     0
102
RTVSPost2010Prop52
140
1.0
102
RTVSPost2010PropOp52
 70
     0
102
RTVSPost2010Prop53
 90
        2
102
RTVSPost2010PropOp53
 70
     0
102
RTVSPost2010Prop54
  1
strokes_ogs.tif
102
RTVSPost2010PropOp54
 70
     0
102
RTVSPost2010Prop55
280
     0
102
RTVSPost2010PropOp55
 70
     1
102
RTVSPost2010Prop56
140
1.0
102
RTVSPost2010PropOp56
 70
     0
102
RTVSPost2010Prop57
140
1.0
102
RTVSPost2010PropOp57
 70
     0
102
RTVSPropertyOp0
 70
     0
102
RTVSPropertyOp1
 70
     0
102
RTVSPropertyOp2
 70
     0
102
RTVSPropertyOp3
 70
     0
102
RTVSPropertyOp4
 70
     0
102
RTVSPropertyOp5
 70
     0
102
RTVSPropertyOp6
 70
     0
102
RTVSPropertyOp7
 70
     0
102
RTVSPropertyOp8
 70
     0
102
RTVSPropertyOp9
 70
     0
102
RTVSPropertyOp10
 70
     0
102
RTVSPropertyOp11
 70
     0
102
RTVSPropertyOp12
 70
     0
102
RTVSPropertyOp13
 70
     0
102
RTVSPropertyOp14
 70
     2
102
RTVSPropertyOp15
 70
     0
102
RTVSPropertyOp16
 70
     0
102
RTVSPropertyOp17
 70
     0
102
RTVSPropertyOp18
 70
     0
102
RTVSPropertyOp19
 70
     0
102
RTVSPropertyOp20
 70
     0
102
RTVSPropertyOp21
 70
     0
102
RTVSPropertyOp22
 70
     0
102
RTVSPropertyOp23
 70
     0
102
RTVSPropertyOp24
 70
     0
102
RTVSPropertyOp25
 70
     0
102
RTVSPropertyOp26
 70
     0
102
RTVSPropertyOp27
 70
     0
102
RTVSPropertyOp28
 70
     1
102
RTVSPropertyOp29
 70
     1
102
RTVSPropertyOp30
 70
     1
102
RTVSPropertyOp31
 70
     1
102
RTVSPropertyOp32
 70
     1
102
RTVSPropertyOp33
 70
     1
102
RTVSPropertyOp34
 70
     1
102
RTVSPropertyOp35
 70
     1
102
RTVSPropertyOp36
 70
     1
102
RTVSPropertyOp37
 70
     0
102
RTVSPropertyOp38
 70
     0
102
RTVSPropertyOp39
 70
     0
102
RTVSPropertyOp40
 70
     0
102
RTVSPropertyOp41
 70
     0
102
RTVSPropertyOp42
 70
     0
102
RTVSPropertyOp43
 70
     0
102
RTVSPropertyOp44
 70
     0
102
RTVSPropertyOp45
 70
     1
102
RTVSPropertyOp46
 70
     0
102
RTVSPropertyOp47
 70
     0
102
RTVSPropertyOp48
 70
     0
102
RTVSPropertyOp49
 70
     1
102
RTVSPropertyOp50
 70
     0
102
RTVSPropertyOp51
 70
     0
102
RTVSPropertyOp52
 70
     0
102
RTVSPropertyOp53
 70
     0
102
RTVSPropertyOp54
 70
     0
102
RTVSPropertyOp55
 70
     1
102
RTVSPropertyOp56
 70
     0
102
RTVSPropertyOp57
 70
     0
102
RTVSPropertyOp58
 70
     0
102
RTVSPropertyOp59
 70
     0
102
RTVSPropertyOp60
 70
     0
102
RTVSPropertyOp61
 70
     0
102
RTVSPropertyOp62
 70
     0
  0
XRECORD
  5
28E0
102
{ACAD_REACTORS
330
28DF
102
}
330
28DF
100
AcDbXrecord
280
     1
102
RTVSPost2010Prop28
280
     0
102
RTVSPost2010PropOp28
 70
     1
102
RTVSPost2010Prop29
280
     1
102
RTVSPost2010PropOp29
 70
     1
102
RTVSPost2010Prop30
280
     1
102
RTVSPost2010PropOp30
 70
     1
102
RTVSPost2010Prop31
280
     0
102
RTVSPost2010PropOp31
 70
     1
102
RTVSPost2010Prop32
280
     0
102
RTVSPost2010PropOp32
 70
     1
102
RTVSPost2010Prop33
280
     0
102
RTVSPost2010PropOp33
 70
     1
102
RTVSPost2010Prop34
280
     0
102
RTVSPost2010PropOp34
 70
     1
102
RTVSPost2010Prop35
280
     0
102
RTVSPost2010PropOp35
 70
     1
102
RTVSPost2010Prop36
280
     0
102
RTVSPost2010PropOp36
 70
     1
102
RTVSPost2010Prop37
 90
       50
102
RTVSPost2010PropOp37
 70
     1
102
RTVSPost2010Prop38
140
0.0
102
RTVSPost2010PropOp38
 70
     1
102
RTVSPost2010Prop39
140
1.0
102
RTVSPost2010PropOp39
 70
     1
102
RTVSPost2010Prop40
 90
        0
102
RTVSPost2010PropOp40
 70
     1
102
RTVSPost2010Prop41ColorIndex
 90
       18
102
RTVSPost2010Prop41ColorRGB
 90
        0
102
RTVSPost2010PropOp41
 70
     1
102
RTVSPost2010Prop42
 90
       50
102
RTVSPost2010PropOp42
 70
     1
102
RTVSPost2010Prop43
 90
        3
102
RTVSPost2010PropOp43
 70
     1
102
RTVSPost2010Prop44ColorIndex
 90
        5
102
RTVSPost2010Prop44ColorRGB
 90
      255
102
RTVSPost2010PropOp44
 70
     1
102
RTVSPost2010Prop45
280
     0
102
RTVSPost2010PropOp45
 70
     1
102
RTVSPost2010Prop46
 90
       50
102
RTVSPost2010PropOp46
 70
     1
102
RTVSPost2010Prop47
 90
       50
102
RTVSPost2010PropOp47
 70
     1
102
RTVSPost2010Prop48
 90
       50
102
RTVSPost2010PropOp48
 70
     1
102
RTVSPost2010Prop49
280
     0
102
RTVSPost2010PropOp49
 70
     1
102
RTVSPost2010Prop50
 90
       50
102
RTVSPost2010PropOp50
 70
     1
102
RTVSPost2010Prop51ColorIndex
 90
      256
102
RTVSPost2010Prop51ColorRGB
 90
-16777216
102
RTVSPost2010PropOp51
 70
     0
102
RTVSPost2010Prop52
140
1.0
102
RTVSPost2010PropOp52
 70
     0
102
RTVSPost2010Prop53
 90
        2
102
RTVSPost2010PropOp53
 70
     1
102
RTVSPost2010Prop54
  1
strokes_ogs.tif
102
RTVSPost2010PropOp54
 70
     1
102
RTVSPost2010Prop55
280
     0
102
RTVSPost2010PropOp55
 70
     1
102
RTVSPost2010Prop56
140
1.0
102
RTVSPost2010PropOp56
 70
     1
102
RTVSPost2010Prop57
140
1.0
102
RTVSPost2010PropOp57
 70
     1
102
RTVSPropertyOp0
 70
     1
102
RTVSPropertyOp1
 70
     1
102
RTVSPropertyOp2
 70
     1
102
RTVSPropertyOp3
 70
     1
102
RTVSPropertyOp4
 70
     1
102
RTVSPropertyOp5
 70
     1
102
RTVSPropertyOp6
 70
     1
102
RTVSPropertyOp7
 70
     1
102
RTVSPropertyOp8
 70
     1
102
RTVSPropertyOp9
 70
     1
102
RTVSPropertyOp10
 70
     1
102
RTVSPropertyOp11
 70
     1
102
RTVSPropertyOp12
 70
     1
102
RTVSPropertyOp13
 70
     1
102
RTVSPropertyOp14
 70
     1
102
RTVSPropertyOp15
 70
     1
102
RTVSPropertyOp16
 70
     1
102
RTVSPropertyOp17
 70
     1
102
RTVSPropertyOp18
 70
     1
102
RTVSPropertyOp19
 70
     1
102
RTVSPropertyOp20
 70
     1
102
RTVSPropertyOp21
 70
     1
102
RTVSPropertyOp22
 70
     1
102
RTVSPropertyOp23
 70
     1
102
RTVSPropertyOp24
 70
     1
102
RTVSPropertyOp25
 70
     1
102
RTVSPropertyOp26
 70
     1
102
RTVSPropertyOp27
 70
     1
102
RTVSPropertyOp28
 70
     1
102
RTVSPropertyOp29
 70
     1
102
RTVSPropertyOp30
 70
     1
102
RTVSPropertyOp31
 70
     1
102
RTVSPropertyOp32
 70
     1
102
RTVSPropertyOp33
 70
     1
102
RTVSPropertyOp34
 70
     1
102
RTVSPropertyOp35
 70
     1
102
RTVSPropertyOp36
 70
     1
102
RTVSPropertyOp37
 70
     1
102
RTVSPropertyOp38
 70
     1
102
RTVSPropertyOp39
 70
     1
102
RTVSPropertyOp40
 70
     1
102
RTVSPropertyOp41
 70
     1
102
RTVSPropertyOp42
 70
     1
102
RTVSPropertyOp43
 70
     1
102
RTVSPropertyOp44
 70
     1
102
RTVSPropertyOp45
 70
     1
102
RTVSPropertyOp46
 70
     1
102
RTVSPropertyOp47
 70
     1
102
RTVSPropertyOp48
 70
     1
102
RTVSPropertyOp49
 70
     1
102
RTVSPropertyOp50
 70
     1
102
RTVSPropertyOp51
 70
     0
102
RTVSPropertyOp52
 70
     0
102
RTVSPropertyOp53
 70
     1
102
RTVSPropertyOp54
 70
     1
102
RTVSPropertyOp55
 70
     1
102
RTVSPropertyOp56
 70
     1
102
RTVSPropertyOp57
 70
     1
102
RTVSPropertyOp58
 70
     1
102
RTVSPropertyOp59
 70
     1
102
RTVSPropertyOp60
 70
     1
102
RTVSPropertyOp61
 70
     1
102
RTVSPropertyOp62
 70
     1
  0
XRECORD
  5
28F6
102
{ACAD_REACTORS
330
28F5
102
}
330
28F5
100
AcDbXrecord
280
     1
102
RTVSPost2010Prop28
280
     0
102
RTVSPost2010PropOp28
 70
     1
102
RTVSPost2010Prop29
280
     1
102
RTVSPost2010PropOp29
 70
     1
102
RTVSPost2010Prop30
280
     1
102
RTVSPost2010PropOp30
 70
     1
102
RTVSPost2010Prop31
280
     0
102
RTVSPost2010PropOp31
 70
     1
102
RTVSPost2010Prop32
280
     0
102
RTVSPost2010PropOp32
 70
     1
102
RTVSPost2010Prop33
280
     0
102
RTVSPost2010PropOp33
 70
     1
102
RTVSPost2010Prop34
280
     0
102
RTVSPost2010PropOp34
 70
     1
102
RTVSPost2010Prop35
280
     0
102
RTVSPost2010PropOp35
 70
     1
102
RTVSPost2010Prop36
280
     0
102
RTVSPost2010PropOp36
 70
     1
102
RTVSPost2010Prop37
 90
       50
102
RTVSPost2010PropOp37
 70
     1
102
RTVSPost2010Prop38
140
0.0
102
RTVSPost2010PropOp38
 70
     1
102
RTVSPost2010Prop39
140
1.0
102
RTVSPost2010PropOp39
 70
     1
102
RTVSPost2010Prop40
 90
        0
102
RTVSPost2010PropOp40
 70
     1
102
RTVSPost2010Prop41ColorIndex
 90
       18
102
RTVSPost2010Prop41ColorRGB
 90
        0
102
RTVSPost2010PropOp41
 70
     1
102
RTVSPost2010Prop42
 90
       50
102
RTVSPost2010PropOp42
 70
     1
102
RTVSPost2010Prop43
 90
        3
102
RTVSPost2010PropOp43
 70
     1
102
RTVSPost2010Prop44ColorIndex
 90
        5
102
RTVSPost2010Prop44ColorRGB
 90
      255
102
RTVSPost2010PropOp44
 70
     1
102
RTVSPost2010Prop45
280
     0
102
RTVSPost2010PropOp45
 70
     1
102
RTVSPost2010Prop46
 90
       50
102
RTVSPost2010PropOp46
 70
     1
102
RTVSPost2010Prop47
 90
       50
102
RTVSPost2010PropOp47
 70
     1
102
RTVSPost2010Prop48
 90
       50
102
RTVSPost2010PropOp48
 70
     1
102
RTVSPost2010Prop49
280
     0
102
RTVSPost2010PropOp49
 70
     1
102
RTVSPost2010Prop50
 90
       50
102
RTVSPost2010PropOp50
 70
     1
102
RTVSPost2010Prop51ColorIndex
 90
      256
102
RTVSPost2010Prop51ColorRGB
 90
-16777216
102
RTVSPost2010PropOp51
 70
     0
102
RTVSPost2010Prop52
140
1.0
102
RTVSPost2010PropOp52
 70
     0
102
RTVSPost2010Prop53
 90
        2
102
RTVSPost2010PropOp53
 70
     1
102
RTVSPost2010Prop54
  1
strokes_ogs.tif
102
RTVSPost2010PropOp54
 70
     1
102
RTVSPost2010Prop55
280
     0
102
RTVSPost2010PropOp55
 70
     1
102
RTVSPost2010Prop56
140
1.0
102
RTVSPost2010PropOp56
 70
     1
102
RTVSPost2010Prop57
140
1.0
102
RTVSPost2010PropOp57
 70
     1
102
RTVSPropertyOp0
 70
     1
102
RTVSPropertyOp1
 70
     1
102
RTVSPropertyOp2
 70
     1
102
RTVSPropertyOp3
 70
     1
102
RTVSPropertyOp4
 70
     1
102
RTVSPropertyOp5
 70
     1
102
RTVSPropertyOp6
 70
     1
102
RTVSPropertyOp7
 70
     1
102
RTVSPropertyOp8
 70
     1
102
RTVSPropertyOp9
 70
     1
102
RTVSPropertyOp10
 70
     1
102
RTVSPropertyOp11
 70
     1
102
RTVSPropertyOp12
 70
     1
102
RTVSPropertyOp13
 70
     1
102
RTVSPropertyOp14
 70
     1
102
RTVSPropertyOp15
 70
     1
102
RTVSPropertyOp16
 70
     1
102
RTVSPropertyOp17
 70
     1
102
RTVSPropertyOp18
 70
     1
102
RTVSPropertyOp19
 70
     1
102
RTVSPropertyOp20
 70
     1
102
RTVSPropertyOp21
 70
     1
102
RTVSPropertyOp22
 70
     1
102
RTVSPropertyOp23
 70
     1
102
RTVSPropertyOp24
 70
     1
102
RTVSPropertyOp25
 70
     1
102
RTVSPropertyOp26
 70
     1
102
RTVSPropertyOp27
 70
     1
102
RTVSPropertyOp28
 70
     1
102
RTVSPropertyOp29
 70
     1
102
RTVSPropertyOp30
 70
     1
102
RTVSPropertyOp31
 70
     1
102
RTVSPropertyOp32
 70
     1
102
RTVSPropertyOp33
 70
     1
102
RTVSPropertyOp34
 70
     1
102
RTVSPropertyOp35
 70
     1
102
RTVSPropertyOp36
 70
     1
102
RTVSPropertyOp37
 70
     1
102
RTVSPropertyOp38
 70
     1
102
RTVSPropertyOp39
 70
     1
102
RTVSPropertyOp40
 70
     1
102
RTVSPropertyOp41
 70
     1
102
RTVSPropertyOp42
 70
     1
102
RTVSPropertyOp43
 70
     1
102
RTVSPropertyOp44
 70
     1
102
RTVSPropertyOp45
 70
     1
102
RTVSPropertyOp46
 70
     1
102
RTVSPropertyOp47
 70
     1
102
RTVSPropertyOp48
 70
     1
102
RTVSPropertyOp49
 70
     1
102
RTVSPropertyOp50
 70
     1
102
RTVSPropertyOp51
 70
     0
102
RTVSPropertyOp52
 70
     0
102
RTVSPropertyOp53
 70
     1
102
RTVSPropertyOp54
 70
     1
102
RTVSPropertyOp55
 70
     1
102
RTVSPropertyOp56
 70
     1
102
RTVSPropertyOp57
 70
     1
102
RTVSPropertyOp58
 70
     1
102
RTVSPropertyOp59
 70
     1
102
RTVSPropertyOp60
 70
     1
102
RTVSPropertyOp61
 70
     1
102
RTVSPropertyOp62
 70
     1
  0
XRECORD
  5
28F4
102
{ACAD_REACTORS
330
28F3
102
}
330
28F3
100
AcDbXrecord
280
     1
102
RTVSPost2010Prop28
280
     0
102
RTVSPost2010PropOp28
 70
     1
102
RTVSPost2010Prop29
280
     1
102
RTVSPost2010PropOp29
 70
     1
102
RTVSPost2010Prop30
280
     1
102
RTVSPost2010PropOp30
 70
     1
102
RTVSPost2010Prop31
280
     0
102
RTVSPost2010PropOp31
 70
     1
102
RTVSPost2010Prop32
280
     0
102
RTVSPost2010PropOp32
 70
     1
102
RTVSPost2010Prop33
280
     0
102
RTVSPost2010PropOp33
 70
     1
102
RTVSPost2010Prop34
280
     0
102
RTVSPost2010PropOp34
 70
     1
102
RTVSPost2010Prop35
280
     0
102
RTVSPost2010PropOp35
 70
     1
102
RTVSPost2010Prop36
280
     0
102
RTVSPost2010PropOp36
 70
     1
102
RTVSPost2010Prop37
 90
       50
102
RTVSPost2010PropOp37
 70
     1
102
RTVSPost2010Prop38
140
0.0
102
RTVSPost2010PropOp38
 70
     1
102
RTVSPost2010Prop39
140
1.0
102
RTVSPost2010PropOp39
 70
     1
102
RTVSPost2010Prop40
 90
        0
102
RTVSPost2010PropOp40
 70
     1
102
RTVSPost2010Prop41ColorIndex
 90
       18
102
RTVSPost2010Prop41ColorRGB
 90
        0
102
RTVSPost2010PropOp41
 70
     1
102
RTVSPost2010Prop42
 90
       50
102
RTVSPost2010PropOp42
 70
     1
102
RTVSPost2010Prop43
 90
        3
102
RTVSPost2010PropOp43
 70
     1
102
RTVSPost2010Prop44ColorIndex
 90
        5
102
RTVSPost2010Prop44ColorRGB
 90
      255
102
RTVSPost2010PropOp44
 70
     1
102
RTVSPost2010Prop45
280
     0
102
RTVSPost2010PropOp45
 70
     1
102
RTVSPost2010Prop46
 90
       50
102
RTVSPost2010PropOp46
 70
     1
102
RTVSPost2010Prop47
 90
       50
102
RTVSPost2010PropOp47
 70
     1
102
RTVSPost2010Prop48
 90
       50
102
RTVSPost2010PropOp48
 70
     1
102
RTVSPost2010Prop49
280
     0
102
RTVSPost2010PropOp49
 70
     1
102
RTVSPost2010Prop50
 90
       50
102
RTVSPost2010PropOp50
 70
     1
102
RTVSPost2010Prop51ColorIndex
 90
      256
102
RTVSPost2010Prop51ColorRGB
 90
-16777216
102
RTVSPost2010PropOp51
 70
     0
102
RTVSPost2010Prop52
140
1.0
102
RTVSPost2010PropOp52
 70
     0
102
RTVSPost2010Prop53
 90
        2
102
RTVSPost2010PropOp53
 70
     1
102
RTVSPost2010Prop54
  1
strokes_ogs.tif
102
RTVSPost2010PropOp54
 70
     1
102
RTVSPost2010Prop55
280
     0
102
RTVSPost2010PropOp55
 70
     1
102
RTVSPost2010Prop56
140
1.0
102
RTVSPost2010PropOp56
 70
     1
102
RTVSPost2010Prop57
140
1.0
102
RTVSPost2010PropOp57
 70
     1
102
RTVSPropertyOp0
 70
     1
102
RTVSPropertyOp1
 70
     1
102
RTVSPropertyOp2
 70
     1
102
RTVSPropertyOp3
 70
     1
102
RTVSPropertyOp4
 70
     1
102
RTVSPropertyOp5
 70
     1
102
RTVSPropertyOp6
 70
     1
102
RTVSPropertyOp7
 70
     1
102
RTVSPropertyOp8
 70
     1
102
RTVSPropertyOp9
 70
     1
102
RTVSPropertyOp10
 70
     1
102
RTVSPropertyOp11
 70
     1
102
RTVSPropertyOp12
 70
     1
102
RTVSPropertyOp13
 70
     1
102
RTVSPropertyOp14
 70
     1
102
RTVSPropertyOp15
 70
     1
102
RTVSPropertyOp16
 70
     1
102
RTVSPropertyOp17
 70
     1
102
RTVSPropertyOp18
 70
     1
102
RTVSPropertyOp19
 70
     1
102
RTVSPropertyOp20
 70
     1
102
RTVSPropertyOp21
 70
     1
102
RTVSPropertyOp22
 70
     1
102
RTVSPropertyOp23
 70
     1
102
RTVSPropertyOp24
 70
     1
102
RTVSPropertyOp25
 70
     1
102
RTVSPropertyOp26
 70
     1
102
RTVSPropertyOp27
 70
     1
102
RTVSPropertyOp28
 70
     1
102
RTVSPropertyOp29
 70
     1
102
RTVSPropertyOp30
 70
     1
102
RTVSPropertyOp31
 70
     1
102
RTVSPropertyOp32
 70
     1
102
RTVSPropertyOp33
 70
     1
102
RTVSPropertyOp34
 70
     1
102
RTVSPropertyOp35
 70
     1
102
RTVSPropertyOp36
 70
     1
102
RTVSPropertyOp37
 70
     1
102
RTVSPropertyOp38
 70
     1
102
RTVSPropertyOp39
 70
     1
102
RTVSPropertyOp40
 70
     1
102
RTVSPropertyOp41
 70
     1
102
RTVSPropertyOp42
 70
     1
102
RTVSPropertyOp43
 70
     1
102
RTVSPropertyOp44
 70
     1
102
RTVSPropertyOp45
 70
     1
102
RTVSPropertyOp46
 70
     1
102
RTVSPropertyOp47
 70
     1
102
RTVSPropertyOp48
 70
     1
102
RTVSPropertyOp49
 70
     1
102
RTVSPropertyOp50
 70
     1
102
RTVSPropertyOp51
 70
     0
102
RTVSPropertyOp52
 70
     0
102
RTVSPropertyOp53
 70
     1
102
RTVSPropertyOp54
 70
     1
102
RTVSPropertyOp55
 70
     1
102
RTVSPropertyOp56
 70
     1
102
RTVSPropertyOp57
 70
     1
102
RTVSPropertyOp58
 70
     1
102
RTVSPropertyOp59
 70
     1
102
RTVSPropertyOp60
 70
     1
102
RTVSPropertyOp61
 70
     1
102
RTVSPropertyOp62
 70
     1
  0
XRECORD
  5
28EE
102
{ACAD_REACTORS
330
28ED
102
}
330
28ED
100
AcDbXrecord
280
     1
102
RTVSPost2010Prop28
280
     0
102
RTVSPost2010PropOp28
 70
     1
102
RTVSPost2010Prop29
280
     1
102
RTVSPost2010PropOp29
 70
     1
102
RTVSPost2010Prop30
280
     1
102
RTVSPost2010PropOp30
 70
     1
102
RTVSPost2010Prop31
280
     0
102
RTVSPost2010PropOp31
 70
     1
102
RTVSPost2010Prop32
280
     0
102
RTVSPost2010PropOp32
 70
     1
102
RTVSPost2010Prop33
280
     0
102
RTVSPost2010PropOp33
 70
     1
102
RTVSPost2010Prop34
280
     0
102
RTVSPost2010PropOp34
 70
     1
102
RTVSPost2010Prop35
280
     0
102
RTVSPost2010PropOp35
 70
     1
102
RTVSPost2010Prop36
280
     0
102
RTVSPost2010PropOp36
 70
     1
102
RTVSPost2010Prop37
 90
       50
102
RTVSPost2010PropOp37
 70
     1
102
RTVSPost2010Prop38
140
0.0
102
RTVSPost2010PropOp38
 70
     1
102
RTVSPost2010Prop39
140
1.0
102
RTVSPost2010PropOp39
 70
     1
102
RTVSPost2010Prop40
 90
        0
102
RTVSPost2010PropOp40
 70
     1
102
RTVSPost2010Prop41ColorIndex
 90
       18
102
RTVSPost2010Prop41ColorRGB
 90
        0
102
RTVSPost2010PropOp41
 70
     1
102
RTVSPost2010Prop42
 90
       50
102
RTVSPost2010PropOp42
 70
     1
102
RTVSPost2010Prop43
 90
        3
102
RTVSPost2010PropOp43
 70
     1
102
RTVSPost2010Prop44ColorIndex
 90
        5
102
RTVSPost2010Prop44ColorRGB
 90
      255
102
RTVSPost2010PropOp44
 70
     1
102
RTVSPost2010Prop45
280
     0
102
RTVSPost2010PropOp45
 70
     1
102
RTVSPost2010Prop46
 90
       50
102
RTVSPost2010PropOp46
 70
     1
102
RTVSPost2010Prop47
 90
       50
102
RTVSPost2010PropOp47
 70
     1
102
RTVSPost2010Prop48
 90
       50
102
RTVSPost2010PropOp48
 70
     1
102
RTVSPost2010Prop49
280
     0
102
RTVSPost2010PropOp49
 70
     1
102
RTVSPost2010Prop50
 90
       50
102
RTVSPost2010PropOp50
 70
     1
102
RTVSPost2010Prop51ColorIndex
 90
      256
102
RTVSPost2010Prop51ColorRGB
 90
-16777216
102
RTVSPost2010PropOp51
 70
     0
102
RTVSPost2010Prop52
140
1.0
102
RTVSPost2010PropOp52
 70
     0
102
RTVSPost2010Prop53
 90
        2
102
RTVSPost2010PropOp53
 70
     1
102
RTVSPost2010Prop54
  1
strokes_ogs.tif
102
RTVSPost2010PropOp54
 70
     1
102
RTVSPost2010Prop55
280
     0
102
RTVSPost2010PropOp55
 70
     1
102
RTVSPost2010Prop56
140
1.0
102
RTVSPost2010PropOp56
 70
     1
102
RTVSPost2010Prop57
140
1.0
102
RTVSPost2010PropOp57
 70
     1
102
RTVSPropertyOp0
 70
     1
102
RTVSPropertyOp1
 70
     1
102
RTVSPropertyOp2
 70
     1
102
RTVSPropertyOp3
 70
     1
102
RTVSPropertyOp4
 70
     1
102
RTVSPropertyOp5
 70
     1
102
RTVSPropertyOp6
 70
     1
102
RTVSPropertyOp7
 70
     1
102
RTVSPropertyOp8
 70
     1
102
RTVSPropertyOp9
 70
     1
102
RTVSPropertyOp10
 70
     1
102
RTVSPropertyOp11
 70
     1
102
RTVSPropertyOp12
 70
     1
102
RTVSPropertyOp13
 70
     1
102
RTVSPropertyOp14
 70
     1
102
RTVSPropertyOp15
 70
     1
102
RTVSPropertyOp16
 70
     1
102
RTVSPropertyOp17
 70
     1
102
RTVSPropertyOp18
 70
     1
102
RTVSPropertyOp19
 70
     1
102
RTVSPropertyOp20
 70
     1
102
RTVSPropertyOp21
 70
     1
102
RTVSPropertyOp22
 70
     1
102
RTVSPropertyOp23
 70
     1
102
RTVSPropertyOp24
 70
     1
102
RTVSPropertyOp25
 70
     1
102
RTVSPropertyOp26
 70
     1
102
RTVSPropertyOp27
 70
     1
102
RTVSPropertyOp28
 70
     1
102
RTVSPropertyOp29
 70
     1
102
RTVSPropertyOp30
 70
     1
102
RTVSPropertyOp31
 70
     1
102
RTVSPropertyOp32
 70
     1
102
RTVSPropertyOp33
 70
     1
102
RTVSPropertyOp34
 70
     1
102
RTVSPropertyOp35
 70
     1
102
RTVSPropertyOp36
 70
     1
102
RTVSPropertyOp37
 70
     1
102
RTVSPropertyOp38
 70
     1
102
RTVSPropertyOp39
 70
     1
102
RTVSPropertyOp40
 70
     1
102
RTVSPropertyOp41
 70
     1
102
RTVSPropertyOp42
 70
     1
102
RTVSPropertyOp43
 70
     1
102
RTVSPropertyOp44
 70
     1
102
RTVSPropertyOp45
 70
     1
102
RTVSPropertyOp46
 70
     1
102
RTVSPropertyOp47
 70
     1
102
RTVSPropertyOp48
 70
     1
102
RTVSPropertyOp49
 70
     1
102
RTVSPropertyOp50
 70
     1
102
RTVSPropertyOp51
 70
     0
102
RTVSPropertyOp52
 70
     0
102
RTVSPropertyOp53
 70
     1
102
RTVSPropertyOp54
 70
     1
102
RTVSPropertyOp55
 70
     1
102
RTVSPropertyOp56
 70
     1
102
RTVSPropertyOp57
 70
     1
102
RTVSPropertyOp58
 70
     1
102
RTVSPropertyOp59
 70
     1
102
RTVSPropertyOp60
 70
     1
102
RTVSPropertyOp61
 70
     1
102
RTVSPropertyOp62
 70
     1
  0
XRECORD
  5
28F0
102
{ACAD_REACTORS
330
28EF
102
}
330
28EF
100
AcDbXrecord
280
     1
102
RTVSPost2010Prop28
280
     0
102
RTVSPost2010PropOp28
 70
     1
102
RTVSPost2010Prop29
280
     1
102
RTVSPost2010PropOp29
 70
     1
102
RTVSPost2010Prop30
280
     1
102
RTVSPost2010PropOp30
 70
     1
102
RTVSPost2010Prop31
280
     0
102
RTVSPost2010PropOp31
 70
     1
102
RTVSPost2010Prop32
280
     0
102
RTVSPost2010PropOp32
 70
     1
102
RTVSPost2010Prop33
280
     0
102
RTVSPost2010PropOp33
 70
     1
102
RTVSPost2010Prop34
280
     0
102
RTVSPost2010PropOp34
 70
     1
102
RTVSPost2010Prop35
280
     0
102
RTVSPost2010PropOp35
 70
     1
102
RTVSPost2010Prop36
280
     0
102
RTVSPost2010PropOp36
 70
     1
102
RTVSPost2010Prop37
 90
       50
102
RTVSPost2010PropOp37
 70
     1
102
RTVSPost2010Prop38
140
0.0
102
RTVSPost2010PropOp38
 70
     1
102
RTVSPost2010Prop39
140
1.0
102
RTVSPost2010PropOp39
 70
     1
102
RTVSPost2010Prop40
 90
        0
102
RTVSPost2010PropOp40
 70
     1
102
RTVSPost2010Prop41ColorIndex
 90
       18
102
RTVSPost2010Prop41ColorRGB
 90
        0
102
RTVSPost2010PropOp41
 70
     1
102
RTVSPost2010Prop42
 90
       50
102
RTVSPost2010PropOp42
 70
     1
102
RTVSPost2010Prop43
 90
        3
102
RTVSPost2010PropOp43
 70
     1
102
RTVSPost2010Prop44ColorIndex
 90
        5
102
RTVSPost2010Prop44ColorRGB
 90
      255
102
RTVSPost2010PropOp44
 70
     1
102
RTVSPost2010Prop45
280
     0
102
RTVSPost2010PropOp45
 70
     1
102
RTVSPost2010Prop46
 90
       50
102
RTVSPost2010PropOp46
 70
     1
102
RTVSPost2010Prop47
 90
       50
102
RTVSPost2010PropOp47
 70
     1
102
RTVSPost2010Prop48
 90
       50
102
RTVSPost2010PropOp48
 70
     1
102
RTVSPost2010Prop49
280
     0
102
RTVSPost2010PropOp49
 70
     1
102
RTVSPost2010Prop50
 90
       50
102
RTVSPost2010PropOp50
 70
     1
102
RTVSPost2010Prop51ColorIndex
 90
      256
102
RTVSPost2010Prop51ColorRGB
 90
-16777216
102
RTVSPost2010PropOp51
 70
     0
102
RTVSPost2010Prop52
140
1.0
102
RTVSPost2010PropOp52
 70
     0
102
RTVSPost2010Prop53
 90
        2
102
RTVSPost2010PropOp53
 70
     1
102
RTVSPost2010Prop54
  1
strokes_ogs.tif
102
RTVSPost2010PropOp54
 70
     1
102
RTVSPost2010Prop55
280
     0
102
RTVSPost2010PropOp55
 70
     1
102
RTVSPost2010Prop56
140
1.0
102
RTVSPost2010PropOp56
 70
     1
102
RTVSPost2010Prop57
140
1.0
102
RTVSPost2010PropOp57
 70
     1
102
RTVSPropertyOp0
 70
     1
102
RTVSPropertyOp1
 70
     1
102
RTVSPropertyOp2
 70
     1
102
RTVSPropertyOp3
 70
     1
102
RTVSPropertyOp4
 70
     1
102
RTVSPropertyOp5
 70
     1
102
RTVSPropertyOp6
 70
     1
102
RTVSPropertyOp7
 70
     1
102
RTVSPropertyOp8
 70
     1
102
RTVSPropertyOp9
 70
     1
102
RTVSPropertyOp10
 70
     1
102
RTVSPropertyOp11
 70
     1
102
RTVSPropertyOp12
 70
     1
102
RTVSPropertyOp13
 70
     1
102
RTVSPropertyOp14
 70
     1
102
RTVSPropertyOp15
 70
     1
102
RTVSPropertyOp16
 70
     1
102
RTVSPropertyOp17
 70
     1
102
RTVSPropertyOp18
 70
     1
102
RTVSPropertyOp19
 70
     1
102
RTVSPropertyOp20
 70
     1
102
RTVSPropertyOp21
 70
     1
102
RTVSPropertyOp22
 70
     1
102
RTVSPropertyOp23
 70
     1
102
RTVSPropertyOp24
 70
     1
102
RTVSPropertyOp25
 70
     1
102
RTVSPropertyOp26
 70
     1
102
RTVSPropertyOp27
 70
     1
102
RTVSPropertyOp28
 70
     1
102
RTVSPropertyOp29
 70
     1
102
RTVSPropertyOp30
 70
     1
102
RTVSPropertyOp31
 70
     1
102
RTVSPropertyOp32
 70
     1
102
RTVSPropertyOp33
 70
     1
102
RTVSPropertyOp34
 70
     1
102
RTVSPropertyOp35
 70
     1
102
RTVSPropertyOp36
 70
     1
102
RTVSPropertyOp37
 70
     1
102
RTVSPropertyOp38
 70
     1
102
RTVSPropertyOp39
 70
     1
102
RTVSPropertyOp40
 70
     1
102
RTVSPropertyOp41
 70
     1
102
RTVSPropertyOp42
 70
     1
102
RTVSPropertyOp43
 70
     1
102
RTVSPropertyOp44
 70
     1
102
RTVSPropertyOp45
 70
     1
102
RTVSPropertyOp46
 70
     1
102
RTVSPropertyOp47
 70
     1
102
RTVSPropertyOp48
 70
     1
102
RTVSPropertyOp49
 70
     1
102
RTVSPropertyOp50
 70
     1
102
RTVSPropertyOp51
 70
     0
102
RTVSPropertyOp52
 70
     0
102
RTVSPropertyOp53
 70
     1
102
RTVSPropertyOp54
 70
     1
102
RTVSPropertyOp55
 70
     1
102
RTVSPropertyOp56
 70
     1
102
RTVSPropertyOp57
 70
     1
102
RTVSPropertyOp58
 70
     1
102
RTVSPropertyOp59
 70
     1
102
RTVSPropertyOp60
 70
     1
102
RTVSPropertyOp61
 70
     1
102
RTVSPropertyOp62
 70
     1
  0
XRECORD
  5
28E6
102
{ACAD_REACTORS
330
28E5
102
}
330
28E5
100
AcDbXrecord
280
     1
102
RTVSPost2010Prop28
280
     0
102
RTVSPost2010PropOp28
 70
     1
102
RTVSPost2010Prop29
280
     1
102
RTVSPost2010PropOp29
 70
     1
102
RTVSPost2010Prop30
280
     1
102
RTVSPost2010PropOp30
 70
     1
102
RTVSPost2010Prop31
280
     0
102
RTVSPost2010PropOp31
 70
     1
102
RTVSPost2010Prop32
280
     0
102
RTVSPost2010PropOp32
 70
     1
102
RTVSPost2010Prop33
280
     0
102
RTVSPost2010PropOp33
 70
     1
102
RTVSPost2010Prop34
280
     0
102
RTVSPost2010PropOp34
 70
     1
102
RTVSPost2010Prop35
280
     0
102
RTVSPost2010PropOp35
 70
     1
102
RTVSPost2010Prop36
280
     0
102
RTVSPost2010PropOp36
 70
     1
102
RTVSPost2010Prop37
 90
       50
102
RTVSPost2010PropOp37
 70
     1
102
RTVSPost2010Prop38
140
0.0
102
RTVSPost2010PropOp38
 70
     1
102
RTVSPost2010Prop39
140
1.0
102
RTVSPost2010PropOp39
 70
     1
102
RTVSPost2010Prop40
 90
        0
102
RTVSPost2010PropOp40
 70
     1
102
RTVSPost2010Prop41ColorIndex
 90
       18
102
RTVSPost2010Prop41ColorRGB
 90
        0
102
RTVSPost2010PropOp41
 70
     1
102
RTVSPost2010Prop42
 90
       50
102
RTVSPost2010PropOp42
 70
     1
102
RTVSPost2010Prop43
 90
        3
102
RTVSPost2010PropOp43
 70
     1
102
RTVSPost2010Prop44ColorIndex
 90
        5
102
RTVSPost2010Prop44ColorRGB
 90
      255
102
RTVSPost2010PropOp44
 70
     1
102
RTVSPost2010Prop45
280
     0
102
RTVSPost2010PropOp45
 70
     1
102
RTVSPost2010Prop46
 90
       50
102
RTVSPost2010PropOp46
 70
     1
102
RTVSPost2010Prop47
 90
       50
102
RTVSPost2010PropOp47
 70
     1
102
RTVSPost2010Prop48
 90
       50
102
RTVSPost2010PropOp48
 70
     1
102
RTVSPost2010Prop49
280
     0
102
RTVSPost2010PropOp49
 70
     1
102
RTVSPost2010Prop50
 90
       50
102
RTVSPost2010PropOp50
 70
     1
102
RTVSPost2010Prop51ColorIndex
 90
      256
102
RTVSPost2010Prop51ColorRGB
 90
-16777216
102
RTVSPost2010PropOp51
 70
     0
102
RTVSPost2010Prop52
140
1.0
102
RTVSPost2010PropOp52
 70
     0
102
RTVSPost2010Prop53
 90
        2
102
RTVSPost2010PropOp53
 70
     1
102
RTVSPost2010Prop54
  1
strokes_ogs.tif
102
RTVSPost2010PropOp54
 70
     1
102
RTVSPost2010Prop55
280
     0
102
RTVSPost2010PropOp55
 70
     1
102
RTVSPost2010Prop56
140
1.0
102
RTVSPost2010PropOp56
 70
     1
102
RTVSPost2010Prop57
140
1.0
102
RTVSPost2010PropOp57
 70
     1
102
RTVSPropertyOp0
 70
     1
102
RTVSPropertyOp1
 70
     1
102
RTVSPropertyOp2
 70
     1
102
RTVSPropertyOp3
 70
     1
102
RTVSPropertyOp4
 70
     1
102
RTVSPropertyOp5
 70
     1
102
RTVSPropertyOp6
 70
     1
102
RTVSPropertyOp7
 70
     1
102
RTVSPropertyOp8
 70
     1
102
RTVSPropertyOp9
 70
     1
102
RTVSPropertyOp10
 70
     1
102
RTVSPropertyOp11
 70
     1
102
RTVSPropertyOp12
 70
     1
102
RTVSPropertyOp13
 70
     1
102
RTVSPropertyOp14
 70
     1
102
RTVSPropertyOp15
 70
     1
102
RTVSPropertyOp16
 70
     1
102
RTVSPropertyOp17
 70
     1
102
RTVSPropertyOp18
 70
     1
102
RTVSPropertyOp19
 70
     1
102
RTVSPropertyOp20
 70
     1
102
RTVSPropertyOp21
 70
     1
102
RTVSPropertyOp22
 70
     1
102
RTVSPropertyOp23
 70
     1
102
RTVSPropertyOp24
 70
     1
102
RTVSPropertyOp25
 70
     1
102
RTVSPropertyOp26
 70
     1
102
RTVSPropertyOp27
 70
     1
102
RTVSPropertyOp28
 70
     1
102
RTVSPropertyOp29
 70
     1
102
RTVSPropertyOp30
 70
     1
102
RTVSPropertyOp31
 70
     1
102
RTVSPropertyOp32
 70
     1
102
RTVSPropertyOp33
 70
     1
102
RTVSPropertyOp34
 70
     1
102
RTVSPropertyOp35
 70
     1
102
RTVSPropertyOp36
 70
     1
102
RTVSPropertyOp37
 70
     1
102
RTVSPropertyOp38
 70
     1
102
RTVSPropertyOp39
 70
     1
102
RTVSPropertyOp40
 70
     1
102
RTVSPropertyOp41
 70
     1
102
RTVSPropertyOp42
 70
     1
102
RTVSPropertyOp43
 70
     1
102
RTVSPropertyOp44
 70
     1
102
RTVSPropertyOp45
 70
     1
102
RTVSPropertyOp46
 70
     1
102
RTVSPropertyOp47
 70
     1
102
RTVSPropertyOp48
 70
     1
102
RTVSPropertyOp49
 70
     1
102
RTVSPropertyOp50
 70
     1
102
RTVSPropertyOp51
 70
     0
102
RTVSPropertyOp52
 70
     0
102
RTVSPropertyOp53
 70
     1
102
RTVSPropertyOp54
 70
     1
102
RTVSPropertyOp55
 70
     1
102
RTVSPropertyOp56
 70
     1
102
RTVSPropertyOp57
 70
     1
102
RTVSPropertyOp58
 70
     1
102
RTVSPropertyOp59
 70
     1
102
RTVSPropertyOp60
 70
     1
102
RTVSPropertyOp61
 70
     1
102
RTVSPropertyOp62
 70
     1
  0
XRECORD
  5
28DA
102
{ACAD_REACTORS
330
28D9
102
}
330
28D9
100
AcDbXrecord
280
     1
102
RTVSPost2010Prop28
280
     0
102
RTVSPost2010PropOp28
 70
     1
102
RTVSPost2010Prop29
280
     1
102
RTVSPost2010PropOp29
 70
     1
102
RTVSPost2010Prop30
280
     1
102
RTVSPost2010PropOp30
 70
     1
102
RTVSPost2010Prop31
280
     0
102
RTVSPost2010PropOp31
 70
     1
102
RTVSPost2010Prop32
280
     0
102
RTVSPost2010PropOp32
 70
     1
102
RTVSPost2010Prop33
280
     0
102
RTVSPost2010PropOp33
 70
     1
102
RTVSPost2010Prop34
280
     0
102
RTVSPost2010PropOp34
 70
     1
102
RTVSPost2010Prop35
280
     0
102
RTVSPost2010PropOp35
 70
     1
102
RTVSPost2010Prop36
280
     0
102
RTVSPost2010PropOp36
 70
     1
102
RTVSPost2010Prop37
 90
       50
102
RTVSPost2010PropOp37
 70
     1
102
RTVSPost2010Prop38
140
0.0
102
RTVSPost2010PropOp38
 70
     1
102
RTVSPost2010Prop39
140
1.0
102
RTVSPost2010PropOp39
 70
     1
102
RTVSPost2010Prop40
 90
        0
102
RTVSPost2010PropOp40
 70
     1
102
RTVSPost2010Prop41ColorIndex
 90
       18
102
RTVSPost2010Prop41ColorRGB
 90
        0
102
RTVSPost2010PropOp41
 70
     1
102
RTVSPost2010Prop42
 90
       50
102
RTVSPost2010PropOp42
 70
     1
102
RTVSPost2010Prop43
 90
        3
102
RTVSPost2010PropOp43
 70
     1
102
RTVSPost2010Prop44ColorIndex
 90
        5
102
RTVSPost2010Prop44ColorRGB
 90
      255
102
RTVSPost2010PropOp44
 70
     1
102
RTVSPost2010Prop45
280
     0
102
RTVSPost2010PropOp45
 70
     1
102
RTVSPost2010Prop46
 90
       50
102
RTVSPost2010PropOp46
 70
     1
102
RTVSPost2010Prop47
 90
       50
102
RTVSPost2010PropOp47
 70
     1
102
RTVSPost2010Prop48
 90
       50
102
RTVSPost2010PropOp48
 70
     1
102
RTVSPost2010Prop49
280
     0
102
RTVSPost2010PropOp49
 70
     1
102
RTVSPost2010Prop50
 90
       50
102
RTVSPost2010PropOp50
 70
     1
102
RTVSPost2010Prop51ColorIndex
 90
      256
102
RTVSPost2010Prop51ColorRGB
 90
-16777216
102
RTVSPost2010PropOp51
 70
     0
102
RTVSPost2010Prop52
140
1.0
102
RTVSPost2010PropOp52
 70
     0
102
RTVSPost2010Prop53
 90
        2
102
RTVSPost2010PropOp53
 70
     1
102
RTVSPost2010Prop54
  1
strokes_ogs.tif
102
RTVSPost2010PropOp54
 70
     1
102
RTVSPost2010Prop55
280
     0
102
RTVSPost2010PropOp55
 70
     1
102
RTVSPost2010Prop56
140
1.0
102
RTVSPost2010PropOp56
 70
     1
102
RTVSPost2010Prop57
140
1.0
102
RTVSPost2010PropOp57
 70
     1
102
RTVSPropertyOp0
 70
     1
102
RTVSPropertyOp1
 70
     1
102
RTVSPropertyOp2
 70
     1
102
RTVSPropertyOp3
 70
     1
102
RTVSPropertyOp4
 70
     1
102
RTVSPropertyOp5
 70
     1
102
RTVSPropertyOp6
 70
     1
102
RTVSPropertyOp7
 70
     1
102
RTVSPropertyOp8
 70
     1
102
RTVSPropertyOp9
 70
     1
102
RTVSPropertyOp10
 70
     1
102
RTVSPropertyOp11
 70
     1
102
RTVSPropertyOp12
 70
     1
102
RTVSPropertyOp13
 70
     1
102
RTVSPropertyOp14
 70
     1
102
RTVSPropertyOp15
 70
     1
102
RTVSPropertyOp16
 70
     1
102
RTVSPropertyOp17
 70
     1
102
RTVSPropertyOp18
 70
     1
102
RTVSPropertyOp19
 70
     1
102
RTVSPropertyOp20
 70
     1
102
RTVSPropertyOp21
 70
     1
102
RTVSPropertyOp22
 70
     1
102
RTVSPropertyOp23
 70
     1
102
RTVSPropertyOp24
 70
     1
102
RTVSPropertyOp25
 70
     1
102
RTVSPropertyOp26
 70
     1
102
RTVSPropertyOp27
 70
     1
102
RTVSPropertyOp28
 70
     1
102
RTVSPropertyOp29
 70
     1
102
RTVSPropertyOp30
 70
     1
102
RTVSPropertyOp31
 70
     1
102
RTVSPropertyOp32
 70
     1
102
RTVSPropertyOp33
 70
     1
102
RTVSPropertyOp34
 70
     1
102
RTVSPropertyOp35
 70
     1
102
RTVSPropertyOp36
 70
     1
102
RTVSPropertyOp37
 70
     1
102
RTVSPropertyOp38
 70
     1
102
RTVSPropertyOp39
 70
     1
102
RTVSPropertyOp40
 70
     1
102
RTVSPropertyOp41
 70
     1
102
RTVSPropertyOp42
 70
     1
102
RTVSPropertyOp43
 70
     1
102
RTVSPropertyOp44
 70
     1
102
RTVSPropertyOp45
 70
     1
102
RTVSPropertyOp46
 70
     1
102
RTVSPropertyOp47
 70
     1
102
RTVSPropertyOp48
 70
     1
102
RTVSPropertyOp49
 70
     1
102
RTVSPropertyOp50
 70
     1
102
RTVSPropertyOp51
 70
     0
102
RTVSPropertyOp52
 70
     0
102
RTVSPropertyOp53
 70
     1
102
RTVSPropertyOp54
 70
     1
102
RTVSPropertyOp55
 70
     1
102
RTVSPropertyOp56
 70
     1
102
RTVSPropertyOp57
 70
     1
102
RTVSPropertyOp58
 70
     1
102
RTVSPropertyOp59
 70
     1
102
RTVSPropertyOp60
 70
     1
102
RTVSPropertyOp61
 70
     1
102
RTVSPropertyOp62
 70
     1
  0
XRECORD
  5
28F2
102
{ACAD_REACTORS
330
28F1
102
}
330
28F1
100
AcDbXrecord
280
     1
102
RTVSPost2010Prop28
280
     0
102
RTVSPost2010PropOp28
 70
     1
102
RTVSPost2010Prop29
280
     1
102
RTVSPost2010PropOp29
 70
     1
102
RTVSPost2010Prop30
280
     1
102
RTVSPost2010PropOp30
 70
     1
102
RTVSPost2010Prop31
280
     0
102
RTVSPost2010PropOp31
 70
     1
102
RTVSPost2010Prop32
280
     0
102
RTVSPost2010PropOp32
 70
     1
102
RTVSPost2010Prop33
280
     0
102
RTVSPost2010PropOp33
 70
     1
102
RTVSPost2010Prop34
280
     0
102
RTVSPost2010PropOp34
 70
     1
102
RTVSPost2010Prop35
280
     0
102
RTVSPost2010PropOp35
 70
     1
102
RTVSPost2010Prop36
280
     0
102
RTVSPost2010PropOp36
 70
     1
102
RTVSPost2010Prop37
 90
       50
102
RTVSPost2010PropOp37
 70
     1
102
RTVSPost2010Prop38
140
0.0
102
RTVSPost2010PropOp38
 70
     1
102
RTVSPost2010Prop39
140
1.0
102
RTVSPost2010PropOp39
 70
     1
102
RTVSPost2010Prop40
 90
        0
102
RTVSPost2010PropOp40
 70
     1
102
RTVSPost2010Prop41ColorIndex
 90
       18
102
RTVSPost2010Prop41ColorRGB
 90
        0
102
RTVSPost2010PropOp41
 70
     1
102
RTVSPost2010Prop42
 90
       50
102
RTVSPost2010PropOp42
 70
     1
102
RTVSPost2010Prop43
 90
        3
102
RTVSPost2010PropOp43
 70
     1
102
RTVSPost2010Prop44ColorIndex
 90
        5
102
RTVSPost2010Prop44ColorRGB
 90
      255
102
RTVSPost2010PropOp44
 70
     1
102
RTVSPost2010Prop45
280
     0
102
RTVSPost2010PropOp45
 70
     1
102
RTVSPost2010Prop46
 90
       50
102
RTVSPost2010PropOp46
 70
     1
102
RTVSPost2010Prop47
 90
       50
102
RTVSPost2010PropOp47
 70
     1
102
RTVSPost2010Prop48
 90
       50
102
RTVSPost2010PropOp48
 70
     1
102
RTVSPost2010Prop49
280
     0
102
RTVSPost2010PropOp49
 70
     1
102
RTVSPost2010Prop50
 90
       50
102
RTVSPost2010PropOp50
 70
     1
102
RTVSPost2010Prop51ColorIndex
 90
      256
102
RTVSPost2010Prop51ColorRGB
 90
-16777216
102
RTVSPost2010PropOp51
 70
     0
102
RTVSPost2010Prop52
140
1.0
102
RTVSPost2010PropOp52
 70
     0
102
RTVSPost2010Prop53
 90
        2
102
RTVSPost2010PropOp53
 70
     1
102
RTVSPost2010Prop54
  1
strokes_ogs.tif
102
RTVSPost2010PropOp54
 70
     1
102
RTVSPost2010Prop55
280
     0
102
RTVSPost2010PropOp55
 70
     1
102
RTVSPost2010Prop56
140
1.0
102
RTVSPost2010PropOp56
 70
     1
102
RTVSPost2010Prop57
140
1.0
102
RTVSPost2010PropOp57
 70
     1
102
RTVSPropertyOp0
 70
     1
102
RTVSPropertyOp1
 70
     1
102
RTVSPropertyOp2
 70
     1
102
RTVSPropertyOp3
 70
     1
102
RTVSPropertyOp4
 70
     1
102
RTVSPropertyOp5
 70
     1
102
RTVSPropertyOp6
 70
     1
102
RTVSPropertyOp7
 70
     1
102
RTVSPropertyOp8
 70
     1
102
RTVSPropertyOp9
 70
     1
102
RTVSPropertyOp10
 70
     1
102
RTVSPropertyOp11
 70
     1
102
RTVSPropertyOp12
 70
     1
102
RTVSPropertyOp13
 70
     1
102
RTVSPropertyOp14
 70
     1
102
RTVSPropertyOp15
 70
     1
102
RTVSPropertyOp16
 70
     1
102
RTVSPropertyOp17
 70
     1
102
RTVSPropertyOp18
 70
     1
102
RTVSPropertyOp19
 70
     1
102
RTVSPropertyOp20
 70
     1
102
RTVSPropertyOp21
 70
     1
102
RTVSPropertyOp22
 70
     1
102
RTVSPropertyOp23
 70
     1
102
RTVSPropertyOp24
 70
     1
102
RTVSPropertyOp25
 70
     1
102
RTVSPropertyOp26
 70
     1
102
RTVSPropertyOp27
 70
     1
102
RTVSPropertyOp28
 70
     1
102
RTVSPropertyOp29
 70
     1
102
RTVSPropertyOp30
 70
     1
102
RTVSPropertyOp31
 70
     1
102
RTVSPropertyOp32
 70
     1
102
RTVSPropertyOp33
 70
     1
102
RTVSPropertyOp34
 70
     1
102
RTVSPropertyOp35
 70
     1
102
RTVSPropertyOp36
 70
     1
102
RTVSPropertyOp37
 70
     1
102
RTVSPropertyOp38
 70
     1
102
RTVSPropertyOp39
 70
     1
102
RTVSPropertyOp40
 70
     1
102
RTVSPropertyOp41
 70
     1
102
RTVSPropertyOp42
 70
     1
102
RTVSPropertyOp43
 70
     1
102
RTVSPropertyOp44
 70
     1
102
RTVSPropertyOp45
 70
     1
102
RTVSPropertyOp46
 70
     1
102
RTVSPropertyOp47
 70
     1
102
RTVSPropertyOp48
 70
     1
102
RTVSPropertyOp49
 70
     1
102
RTVSPropertyOp50
 70
     1
102
RTVSPropertyOp51
 70
     0
102
RTVSPropertyOp52
 70
     0
102
RTVSPropertyOp53
 70
     1
102
RTVSPropertyOp54
 70
     1
102
RTVSPropertyOp55
 70
     1
102
RTVSPropertyOp56
 70
     1
102
RTVSPropertyOp57
 70
     1
102
RTVSPropertyOp58
 70
     1
102
RTVSPropertyOp59
 70
     1
102
RTVSPropertyOp60
 70
     1
102
RTVSPropertyOp61
 70
     1
102
RTVSPropertyOp62
 70
     1
  0
ENDSEC
  0
EOF
