  0
SECTION
  2
HEADER
  9
$ACADVER
  1
AC1015
  9
$ACADMAINTVER
 70
    20
  9
$DWGCODEPAGE
  3
ANSI_1252
  9
$INSBASE
 10
0.0
 20
0.0
 30
0.0
  9
$EXTMIN
 10
19.23844445500924
 20
19.75309274409466
 30
-0.0015258207003583
  9
$EXTMAX
 10
77.26090524894584
 20
40.76302101737013
 30
0.0000000349246037
  9
$LIMMIN
 10
0.0
 20
0.0
  9
$LIMMAX
 10
181.3333333333
 20
117.3333333333
  9
$ORTHOMODE
 70
     0
  9
$REGENMODE
 70
     1
  9
$FILLMODE
 70
     1
  9
$QTEXTMODE
 70
     0
  9
$MIRRTEXT
 70
     0
  9
$LTSCALE
 40
9.973333333300001
  9
$ATTMODE
 70
     1
  9
$TEXTSIZE
 40
0.2
  9
$TRACEWID
 40
0.05
  9
$TEXTSTYLE
  7
STANDARD
  9
$CLAYER
  8
0
  9
$CELTYPE
  6
BYLAYER
  9
$CECOLOR
 62
   256
  9
$CELTSCALE
 40
1.0
  9
$DISPSILH
 70
     0
  9
$DIMSCALE
 40
1.0
  9
$DIMASZ
 40
2.0
  9
$DIMEXO
 40
0.0625
  9
$DIMDLI
 40
6.890666666699999
  9
$DIMRND
 40
0.0
  9
$DIMDLE
 40
0.0
  9
$DIMEXE
 40
0.125
  9
$DIMTP
 40
0.001
  9
$DIMTM
 40
0.001
  9
$DIMTXT
 40
1.333333333299999
  9
$DIMCEN
 40
1.631999999999999
  9
$DIMTSZ
 40
0.0
  9
$DIMTOL
 70
     1
  9
$DIMLIM
 70
     0
  9
$DIMTIH
 70
     1
  9
$DIMTOH
 70
     1
  9
$DIMSE1
 70
     0
  9
$DIMSE2
 70
     0
  9
$DIMTAD
 70
     0
  9
$DIMZIN
 70
     0
  9
$DIMBLK
  1
_FILLED
  9
$DIMASO
 70
     1
  9
$DIMSHO
 70
     1
  9
$DIMPOST
  1

  9
$DIMAPOST
  1

  9
$DIMALT
 70
     1
  9
$DIMALTD
 70
     2
  9
$DIMALTF
 40
25.4
  9
$DIMLFAC
 40
1.0
  9
$DIMTOFL
 70
     0
  9
$DIMTVP
 40
0.0
  9
$DIMTIX
 70
     0
  9
$DIMSOXD
 70
     0
  9
$DIMSAH
 70
     0
  9
$DIMBLK1
  1

  9
$DIMBLK2
  1

  9
$DIMSTYLE
  2
STANDARD
  9
$DIMCLRD
 70
     0
  9
$DIMCLRE
 70
     0
  9
$DIMCLRT
 70
     0
  9
$DIMTFAC
 40
1.0
  9
$DIMGAP
 40
0.09
  9
$DIMJUST
 70
     0
  9
$DIMSD1
 70
     0
  9
$DIMSD2
 70
     0
  9
$DIMTOLJ
 70
     1
  9
$DIMTZIN
 70
     0
  9
$DIMALTZ
 70
     0
  9
$DIMALTTZ
 70
     0
  9
$DIMUPT
 70
     0
  9
$DIMDEC
 70
     4
  9
$DIMTDEC
 70
     4
  9
$DIMALTU
 70
     2
  9
$DIMALTTD
 70
     2
  9
$DIMTXSTY
  7
STANDARD
  9
$DIMAUNIT
 70
     0
  9
$DIMADEC
 70
     0
  9
$DIMALTRND
 40
0.0
  9
$DIMAZIN
 70
     0
  9
$DIMDSEP
 70
    46
  9
$DIMATFIT
 70
     3
  9
$DIMFRAC
 70
     0
  9
$DIMLDRBLK
  1

  9
$DIMLUNIT
 70
     2
  9
$DIMLWD
 70
    -2
  9
$DIMLWE
 70
    -2
  9
$DIMTMOVE
 70
     0
  9
$LUNITS
 70
     2
  9
$LUPREC
 70
     4
  9
$SKETCHINC
 40
0.1
  9
$FILLETRAD
 40
0.0
  9
$AUNITS
 70
     0
  9
$AUPREC
 70
     0
  9
$MENU
  1
.
  9
$ELEVATION
 40
0.0
  9
$PELEVATION
 40
0.0
  9
$THICKNESS
 40
0.0
  9
$LIMCHECK
 70
     0
  9
$CHAMFERA
 40
0.0
  9
$CHAMFERB
 40
0.0
  9
$CHAMFERC
 40
0.0
  9
$CHAMFERD
 40
0.0
  9
$SKPOLY
 70
     0
  9
$TDCREATE
 40
2458389.568379629
  9
$TDUCREATE
 40
2458389.735046297
  9
$TDUPDATE
 40
2458389.632210648
  9
$TDUUPDATE
 40
2458389.798877315
  9
$TDINDWG
 40
0.0007986111
  9
$TDUSRTIMER
 40
0.0007986111
  9
$USRTIMER
 70
     1
  9
$ANGBASE
 50
0.0
  9
$ANGDIR
 70
     0
  9
$PDMODE
 70
     3
  9
$PDSIZE
 40
0.03125
  9
$PLINEWID
 40
0.0
  9
$SPLFRAME
 70
     0
  9
$SPLINETYPE
 70
     6
  9
$SPLINESEGS
 70
     8
  9
$HANDSEED
  5
26F2
  9
$SURFTAB1
 70
     6
  9
$SURFTAB2
 70
     6
  9
$SURFTYPE
 70
     6
  9
$SURFU
 70
     6
  9
$SURFV
 70
     6
  9
$UCSBASE
  2

  9
$UCSNAME
  2

  9
$UCSORG
 10
0.0
 20
0.0
 30
0.0
  9
$UCSXDIR
 10
1.0
 20
0.0
 30
0.0
  9
$UCSYDIR
 10
0.0
 20
1.0
 30
0.0
  9
$UCSORTHOREF
  2

  9
$UCSORTHOVIEW
 70
     0
  9
$UCSORGTOP
 10
0.0
 20
0.0
 30
0.0
  9
$UCSORGBOTTOM
 10
0.0
 20
0.0
 30
0.0
  9
$UCSORGLEFT
 10
0.0
 20
0.0
 30
0.0
  9
$UCSORGRIGHT
 10
0.0
 20
0.0
 30
0.0
  9
$UCSORGFRONT
 10
0.0
 20
0.0
 30
0.0
  9
$UCSORGBACK
 10
0.0
 20
0.0
 30
0.0
  9
$PUCSBASE
  2

  9
$PUCSNAME
  2

  9
$PUCSORG
 10
0.0
 20
0.0
 30
0.0
  9
$PUCSXDIR
 10
1.0
 20
0.0
 30
0.0
  9
$PUCSYDIR
 10
0.0
 20
1.0
 30
0.0
  9
$PUCSORTHOREF
  2

  9
$PUCSORTHOVIEW
 70
     0
  9
$PUCSORGTOP
 10
0.0
 20
0.0
 30
0.0
  9
$PUCSORGBOTTOM
 10
0.0
 20
0.0
 30
0.0
  9
$PUCSORGLEFT
 10
0.0
 20
0.0
 30
0.0
  9
$PUCSORGRIGHT
 10
0.0
 20
0.0
 30
0.0
  9
$PUCSORGFRONT
 10
0.0
 20
0.0
 30
0.0
  9
$PUCSORGBACK
 10
0.0
 20
0.0
 30
0.0
  9
$USERI1
 70
     0
  9
$USERI2
 70
     0
  9
$USERI3
 70
     0
  9
$USERI4
 70
     0
  9
$USERI5
 70
     0
  9
$USERR1
 40
0.0
  9
$USERR2
 40
0.0
  9
$USERR3
 40
0.0
  9
$USERR4
 40
0.0
  9
$USERR5
 40
0.0
  9
$WORLDVIEW
 70
     1
  9
$SHADEDGE
 70
     3
  9
$SHADEDIF
 70
    70
  9
$TILEMODE
 70
     1
  9
$MAXACTVP
 70
    64
  9
$PINSBASE
 10
0.0
 20
0.0
 30
0.0
  9
$PLIMCHECK
 70
     0
  9
$PEXTMIN
 10
1.000000000000000E+20
 20
1.000000000000000E+20
 30
1.000000000000000E+20
  9
$PEXTMAX
 10
-1.000000000000000E+20
 20
-1.000000000000000E+20
 30
-1.000000000000000E+20
  9
$PLIMMIN
 10
0.0
 20
0.0
  9
$PLIMMAX
 10
12.0
 20
9.0
  9
$UNITMODE
 70
     0
  9
$VISRETAIN
 70
     1
  9
$PLINEGEN
 70
     0
  9
$PSLTSCALE
 70
     1
  9
$TREEDEPTH
 70
  3020
  9
$CMLSTYLE
  2
Standard
  9
$CMLJUST
 70
     0
  9
$CMLSCALE
 40
1.0
  9
$PROXYGRAPHICS
 70
     1
  9
$MEASUREMENT
 70
     0
  9
$CELWEIGHT
370
    -1
  9
$ENDCAPS
280
     0
  9
$JOINSTYLE
280
     0
  9
$LWDISPLAY
290
     0
  9
$INSUNITS
 70
     1
  9
$HYPERLINKBASE
  1

  9
$STYLESHEET
  1

  9
$XEDIT
290
     1
  9
$CEPSNTYPE
380
     0
  9
$PSTYLEMODE
290
     1
  9
$FINGERPRINTGUID
  2
{B6178286-FE9E-4042-A7CD-2748ED8250BA}
  9
$VERSIONGUID
  2
{5995C3AC-B4BE-174C-8D70-8CB3A04F7AE6}
  9
$EXTNAMES
290
     1
  9
$PSVPSCALE
 40
0.0
  9
$OLESTARTUP
290
     0
  0
ENDSEC
  0
SECTION
  2
CLASSES
  0
CLASS
  1
ACDBDICTIONARYWDFLT
  2
AcDbDictionaryWithDefault
  3
ObjectDBX Classes
 90
        0
280
     0
281
     0
  0
CLASS
  1
ACDBPLACEHOLDER
  2
AcDbPlaceHolder
  3
ObjectDBX Classes
 90
        0
280
     0
281
     0
  0
CLASS
  1
LAYOUT
  2
AcDbLayout
  3
ObjectDBX Classes
 90
        0
280
     0
281
     0
  0
CLASS
  1
MATERIAL
  2
AcDbMaterial
  3
ObjectDBX Classes
 90
     1153
280
     0
281
     0
  0
CLASS
  1
VISUALSTYLE
  2
AcDbVisualStyle
  3
ObjectDBX Classes
 90
     4095
280
     0
281
     0
  0
CLASS
  1
TABLESTYLE
  2
AcDbTableStyle
  3
ObjectDBX Classes
 90
     4095
280
     0
281
     0
  0
CLASS
  1
SCALE
  2
AcDbScale
  3
ObjectDBX Classes
 90
     1153
280
     0
281
     0
  0
CLASS
  1
MLEADERSTYLE
  2
AcDbMLeaderStyle
  3
ACDB_MLEADERSTYLE_CLASS
 90
     4095
280
     0
281
     0
  0
CLASS
  1
ACDBSECTIONVIEWSTYLE
  2
AcDbSectionViewStyle
  3
ObjectDBX Classes
 90
     1025
280
     0
281
     0
  0
CLASS
  1
ACDBDETAILVIEWSTYLE
  2
AcDbDetailViewStyle
  3
ObjectDBX Classes
 90
     1025
280
     0
281
     0
  0
CLASS
  1
CELLSTYLEMAP
  2
AcDbCellStyleMap
  3
ObjectDBX Classes
 90
     1152
280
     0
281
     0
  0
CLASS
  1
DICTIONARYVAR
  2
AcDbDictionaryVar
  3
ObjectDBX Classes
 90
        0
280
     0
281
     0
  0
ENDSEC
  0
SECTION
  2
TABLES
  0
TABLE
  2
VPORT
  5
8
102
{ACAD_XDICTIONARY
360
2591
102
}
330
0
100
AcDbSymbolTable
 70
     1
  0
VPORT
  5
1F4
330
8
100
AcDbSymbolTableRecord
100
AcDbViewportTableRecord
  2
*ACTIVE
 70
     0
 10
0.0
 20
0.0
 11
1.0
 21
1.0
 12
48.24967485197754
 22
30.2580568807324
 13
0.0
 23
0.0
 14
1.0
 24
1.0
 15
0.0
 25
0.0
 16
0.0
 26
0.0
 36
1.0
 17
0.0
 27
0.0
 37
0.0
 40
29.02601750921236
 41
2.005224660397074
 42
50.0
 43
0.0
 44
0.0
 50
0.0
 51
0.0
 71
     0
 72
   100
 73
     1
 74
     1
 75
     0
 76
     0
 77
     0
 78
     0
281
     0
 65
     1
110
0.0
120
0.0
130
0.0
111
1.0
121
0.0
131
0.0
112
0.0
122
1.0
132
0.0
 79
     0
146
0.0
1001
ACAD_NAV_VCDISPLAY
1070
     3
  0
ENDTAB
  0
TABLE
  2
LTYPE
  5
5
330
0
100
AcDbSymbolTable
 70
     6
  0
LTYPE
  5
14
330
5
100
AcDbSymbolTableRecord
100
AcDbLinetypeTableRecord
  2
BYBLOCK
 70
     0
  3

 72
    65
 73
     0
 40
0.0
  0
LTYPE
  5
15
330
5
100
AcDbSymbolTableRecord
100
AcDbLinetypeTableRecord
  2
BYLAYER
 70
     0
  3

 72
    65
 73
     0
 40
0.0
  0
LTYPE
  5
16
330
5
100
AcDbSymbolTableRecord
100
AcDbLinetypeTableRecord
  2
CONTINUOUS
 70
     0
  3
Solid line
 72
    65
 73
     0
 40
0.0
  0
LTYPE
  5
1F5
330
5
100
AcDbSymbolTableRecord
100
AcDbLinetypeTableRecord
  2
CENTER
 70
     0
  3
____ _ ____ _ ____ _ ____ _ ____ _ ____ _ ____
 72
    65
 73
     4
 40
0.6
 49
0.375
 74
     0
 49
-0.075
 74
     0
 49
0.075
 74
     0
 49
-0.075
 74
     0
  0
LTYPE
  5
1F6
330
5
100
AcDbSymbolTableRecord
100
AcDbLinetypeTableRecord
  2
HIDDEN
 70
     0
  3
- - - - - - - - - - - - - - - - - - - -
 72
    65
 73
     2
 40
0.2
 49
0.1
 74
     0
 49
-0.1
 74
     0
  0
LTYPE
  5
1F7
330
5
100
AcDbSymbolTableRecord
100
AcDbLinetypeTableRecord
  2
PHANTOM
 70
     0
  3
_____ _ _ _____ _ _ _____ _ _ _____
 72
    65
 73
     6
 40
0.8
 49
0.45
 74
     0
 49
-0.05
 74
     0
 49
0.1
 74
     0
 49
-0.05
 74
     0
 49
0.1
 74
     0
 49
-0.05
 74
     0
  0
LTYPE
  5
1F8
330
5
100
AcDbSymbolTableRecord
100
AcDbLinetypeTableRecord
  2
DOT
 70
     0
  3
. . . . . . . . . . . . . . . . . . . .
 72
    65
 73
     2
 40
0.2
 49
0.1
 74
     0
 49
-0.1
 74
     0
  0
LTYPE
  5
1F9
330
5
100
AcDbSymbolTableRecord
100
AcDbLinetypeTableRecord
  2
DASHED
 70
     0
  3
- - - - - - - - - - - - - - - - - - - -
 72
    65
 73
     2
 40
0.2
 49
0.1
 74
     0
 49
-0.1
 74
     0
  0
ENDTAB
  0
TABLE
  2
LAYER
  5
2
330
0
100
AcDbSymbolTable
 70
    39
  0
LAYER
  5
10
102
{ACAD_XDICTIONARY
360
25DE
102
}
330
2
100
AcDbSymbolTableRecord
100
AcDbLayerTableRecord
  2
0
 70
     0
 62
     7
  6
CONTINUOUS
370
    -3
390
F
  0
LAYER
  5
1FA
102
{ACAD_XDICTIONARY
360
25E0
102
}
330
2
100
AcDbSymbolTableRecord
100
AcDbLayerTableRecord
  2
DEFAULT_1
 70
     0
 62
     7
  6
CENTER
370
    -3
390
F
  0
LAYER
  5
1FB
102
{ACAD_XDICTIONARY
360
25E2
102
}
330
2
100
AcDbSymbolTableRecord
100
AcDbLayerTableRecord
  2
DEFAULT_2
 70
     0
 62
     8
  6
HIDDEN
370
    -3
390
F
  0
LAYER
  5
1FC
102
{ACAD_XDICTIONARY
360
25E4
102
}
330
2
100
AcDbSymbolTableRecord
100
AcDbLayerTableRecord
  2
DEFAULT_3
 70
     0
 62
     7
  6
PHANTOM
370
    -3
390
F
  0
LAYER
  5
1FD
102
{ACAD_XDICTIONARY
360
25E6
102
}
330
2
100
AcDbSymbolTableRecord
100
AcDbLayerTableRecord
  2
0_DEFAULT
 70
     0
 62
     7
  6
CONTINUOUS
370
    -3
390
F
  0
LAYER
  5
1FE
102
{ACAD_XDICTIONARY
360
25E8
102
}
330
2
100
AcDbSymbolTableRecord
100
AcDbLayerTableRecord
  2
1_CURVES
 70
     0
 62
     7
  6
CONTINUOUS
370
    -3
390
F
  0
LAYER
  5
1FF
102
{ACAD_XDICTIONARY
360
25EA
102
}
330
2
100
AcDbSymbolTableRecord
100
AcDbLayerTableRecord
  2
1_CURVES_CHROMO_INV
 70
     0
 62
     7
  6
CONTINUOUS
370
    -3
390
F
  0
LAYER
  5
200
102
{ACAD_XDICTIONARY
360
25EC
102
}
330
2
100
AcDbSymbolTableRecord
100
AcDbLayerTableRecord
  2
1_CURVES_DOT
 70
     0
 62
     7
  6
CONTINUOUS
370
    -3
390
F
  0
LAYER
  5
201
102
{ACAD_XDICTIONARY
360
25EE
102
}
330
2
100
AcDbSymbolTableRecord
100
AcDbLayerTableRecord
  2
1_CURVES_JETS
 70
     0
 62
     7
  6
CONTINUOUS
370
    -3
390
F
  0
LAYER
  5
202
102
{ACAD_XDICTIONARY
360
25F0
102
}
330
2
100
AcDbSymbolTableRecord
100
AcDbLayerTableRecord
  2
1_CURVES_PATINS
 70
     0
 62
     7
  6
CONTINUOUS
370
    -3
390
F
  0
LAYER
  5
203
102
{ACAD_XDICTIONARY
360
25F2
102
}
330
2
100
AcDbSymbolTableRecord
100
AcDbLayerTableRecord
  2
1_CURVES_SPEC_FRONT
 70
     0
 62
     7
  6
CONTINUOUS
370
    -3
390
F
  0
LAYER
  5
204
102
{ACAD_XDICTIONARY
360
25F4
102
}
330
2
100
AcDbSymbolTableRecord
100
AcDbLayerTableRecord
  2
1_CURVES_SPEC_RIGHT
 70
     0
 62
     7
  6
CONTINUOUS
370
    -3
390
F
  0
LAYER
  5
205
102
{ACAD_XDICTIONARY
360
25F6
102
}
330
2
100
AcDbSymbolTableRecord
100
AcDbLayerTableRecord
  2
2_PLANES
 70
     0
 62
     7
  6
CONTINUOUS
370
    -3
390
F
  0
LAYER
  5
206
102
{ACAD_XDICTIONARY
360
25F8
102
}
330
2
100
AcDbSymbolTableRecord
100
AcDbLayerTableRecord
  2
2_PLANES_CHROMO_INV
 70
     0
 62
     7
  6
CONTINUOUS
370
    -3
390
F
  0
LAYER
  5
207
102
{ACAD_XDICTIONARY
360
25FA
102
}
330
2
100
AcDbSymbolTableRecord
100
AcDbLayerTableRecord
  2
2_PLANES_JETS
 70
     0
 62
     7
  6
CONTINUOUS
370
    -3
390
F
  0
LAYER
  5
208
102
{ACAD_XDICTIONARY
360
25FC
102
}
330
2
100
AcDbSymbolTableRecord
100
AcDbLayerTableRecord
  2
3_POINTS
 70
     0
 62
     7
  6
CONTINUOUS
370
    -3
390
F
  0
LAYER
  5
209
102
{ACAD_XDICTIONARY
360
25FE
102
}
330
2
100
AcDbSymbolTableRecord
100
AcDbLayerTableRecord
  2
3_POINTS_JETS
 70
     0
 62
     7
  6
CONTINUOUS
370
    -3
390
F
  0
LAYER
  5
20A
102
{ACAD_XDICTIONARY
360
2600
102
}
330
2
100
AcDbSymbolTableRecord
100
AcDbLayerTableRecord
  2
3_POINTS_SPEC
 70
     0
 62
     7
  6
CONTINUOUS
370
    -3
390
F
  0
LAYER
  5
20B
102
{ACAD_XDICTIONARY
360
2602
102
}
330
2
100
AcDbSymbolTableRecord
100
AcDbLayerTableRecord
  2
4_CSYS
 70
     0
 62
     7
  6
CONTINUOUS
370
    -3
390
F
  0
LAYER
  5
20C
102
{ACAD_XDICTIONARY
360
2604
102
}
330
2
100
AcDbSymbolTableRecord
100
AcDbLayerTableRecord
  2
5_AXIS
 70
     0
 62
     7
  6
CONTINUOUS
370
    -3
390
F
  0
LAYER
  5
20D
102
{ACAD_XDICTIONARY
360
2606
102
}
330
2
100
AcDbSymbolTableRecord
100
AcDbLayerTableRecord
  2
5_AXIS_CHROMO_INV
 70
     0
 62
     7
  6
CONTINUOUS
370
    -3
390
F
  0
LAYER
  5
20E
102
{ACAD_XDICTIONARY
360
2608
102
}
330
2
100
AcDbSymbolTableRecord
100
AcDbLayerTableRecord
  2
5_AXIS_JETS
 70
     0
 62
     7
  6
CONTINUOUS
370
    -3
390
F
  0
LAYER
  5
20F
102
{ACAD_XDICTIONARY
360
260A
102
}
330
2
100
AcDbSymbolTableRecord
100
AcDbLayerTableRecord
  2
6_SURFACES
 70
     0
 62
     7
  6
CONTINUOUS
370
    -3
390
F
  0
LAYER
  5
210
102
{ACAD_XDICTIONARY
360
260C
102
}
330
2
100
AcDbSymbolTableRecord
100
AcDbLayerTableRecord
  2
6_SURFACES_AIRE
 70
     0
 62
     7
  6
CONTINUOUS
370
    -3
390
F
  0
LAYER
  5
211
102
{ACAD_XDICTIONARY
360
260E
102
}
330
2
100
AcDbSymbolTableRecord
100
AcDbLayerTableRecord
  2
6_SURFACES_CHROMO_INV
 70
     0
 62
     7
  6
CONTINUOUS
370
    -3
390
F
  0
LAYER
  5
212
102
{ACAD_XDICTIONARY
360
2610
102
}
330
2
100
AcDbSymbolTableRecord
100
AcDbLayerTableRecord
  2
6_SURFACES_JUPE
 70
     0
 62
     7
  6
CONTINUOUS
370
    -3
390
F
  0
LAYER
  5
213
102
{ACAD_XDICTIONARY
360
2612
102
}
330
2
100
AcDbSymbolTableRecord
100
AcDbLayerTableRecord
  2
6_SURFACES_JUPE_MURAL
 70
     0
 62
     7
  6
CONTINUOUS
370
    -3
390
F
  0
LAYER
  5
214
102
{ACAD_XDICTIONARY
360
2614
102
}
330
2
100
AcDbSymbolTableRecord
100
AcDbLayerTableRecord
  2
6_SURFACES_OFFSET_FIBRE_ACRYLIQ
 70
     0
 62
     7
  6
CONTINUOUS
370
    -3
390
F
  0
LAYER
  5
215
102
{ACAD_XDICTIONARY
360
2616
102
}
330
2
100
AcDbSymbolTableRecord
100
AcDbLayerTableRecord
  2
6_SURFACES_POUR_CONDUIT
 70
     0
 62
     7
  6
CONTINUOUS
370
    -3
390
F
  0
LAYER
  5
216
102
{ACAD_XDICTIONARY
360
2618
102
}
330
2
100
AcDbSymbolTableRecord
100
AcDbLayerTableRecord
  2
6_SURFACES_POUR_HFL
 70
     0
 62
     7
  6
CONTINUOUS
370
    -3
390
F
  0
LAYER
  5
217
102
{ACAD_XDICTIONARY
360
261A
102
}
330
2
100
AcDbSymbolTableRecord
100
AcDbLayerTableRecord
  2
6_SURFACES_TOOLING
 70
     0
 62
     7
  6
CONTINUOUS
370
    -3
390
F
  0
LAYER
  5
218
102
{ACAD_XDICTIONARY
360
261C
102
}
330
2
100
AcDbSymbolTableRecord
100
AcDbLayerTableRecord
  2
6_SURFACES_TOOLING_BRIDE
 70
     0
 62
     7
  6
CONTINUOUS
370
    -3
390
F
  0
LAYER
  5
219
102
{ACAD_XDICTIONARY
360
261E
102
}
330
2
100
AcDbSymbolTableRecord
100
AcDbLayerTableRecord
  2
6_SURFACES_TOOLING_DROP-IN
 70
     0
 62
     7
  6
CONTINUOUS
370
    -3
390
F
  0
LAYER
  5
21A
102
{ACAD_XDICTIONARY
360
2620
102
}
330
2
100
AcDbSymbolTableRecord
100
AcDbLayerTableRecord
  2
6_SURFACES_TOOLING_FS
 70
     0
 62
     7
  6
CONTINUOUS
370
    -3
390
F
  0
LAYER
  5
21B
102
{ACAD_XDICTIONARY
360
2622
102
}
330
2
100
AcDbSymbolTableRecord
100
AcDbLayerTableRecord
  2
6_SURFACES_TOOLING_FS_MURAL
 70
     0
 62
     7
  6
CONTINUOUS
370
    -3
390
F
  0
LAYER
  5
21C
102
{ACAD_XDICTIONARY
360
2624
102
}
330
2
100
AcDbSymbolTableRecord
100
AcDbLayerTableRecord
  2
7_NOTES
 70
     0
 62
     7
  6
CONTINUOUS
370
    -3
390
F
  0
LAYER
  5
21D
102
{ACAD_XDICTIONARY
360
2626
102
}
330
2
100
AcDbSymbolTableRecord
100
AcDbLayerTableRecord
  2
DEGAGEMENT_SERIGRAPHIE
 70
     0
 62
     7
  6
CONTINUOUS
370
    -3
390
F
  0
LAYER
  5
21E
102
{ACAD_XDICTIONARY
360
2628
102
}
330
2
100
AcDbSymbolTableRecord
100
AcDbLayerTableRecord
  2
NONE
 70
     0
 62
     7
  6
CONTINUOUS
370
    -3
390
F
  0
LAYER
  5
21F
102
{ACAD_XDICTIONARY
360
262A
102
}
330
2
100
AcDbSymbolTableRecord
100
AcDbLayerTableRecord
  2
XSEC_DATUMS
 70
     0
 62
     7
  6
CONTINUOUS
370
    -3
390
F
  0
ENDTAB
  0
TABLE
  2
STYLE
  5
3
330
0
100
AcDbSymbolTable
 70
     2
  0
STYLE
  5
11
330
3
100
AcDbSymbolTableRecord
100
AcDbTextStyleTableRecord
  2
STANDARD
 70
     0
 40
0.0
 41
1.0
 50
0.0
 71
     0
 42
0.2
  3
trium.ttf
  4

  0
STYLE
  5
220
330
3
100
AcDbSymbolTableRecord
100
AcDbTextStyleTableRecord
  2
TEXTSTYLE_1
 70
     0
 40
0.0
 41
0.8
 50
0.0
 71
     0
 42
0.2
  3
gdt
  4

  0
ENDTAB
  0
TABLE
  2
VIEW
  5
6
330
0
100
AcDbSymbolTable
 70
     0
  0
ENDTAB
  0
TABLE
  2
UCS
  5
7
330
0
100
AcDbSymbolTable
 70
     0
  0
ENDTAB
  0
TABLE
  2
APPID
  5
9
330
0
100
AcDbSymbolTable
 70
     3
  0
APPID
  5
221
330
9
100
AcDbSymbolTableRecord
100
AcDbRegAppTableRecord
  2
ACAD
 70
     0
  0
APPID
  5
25CB
330
9
100
AcDbSymbolTableRecord
100
AcDbRegAppTableRecord
  2
ACAD_MLEADERVER
 70
     0
  0
APPID
  5
262C
330
9
100
AcDbSymbolTableRecord
100
AcDbRegAppTableRecord
  2
ACAD_NAV_VCDISPLAY
 70
     0
  0
ENDTAB
  0
TABLE
  2
DIMSTYLE
  5
A
330
0
100
AcDbSymbolTable
 70
     1
100
AcDbDimStyleTable
 71
     0
  0
DIMSTYLE
105
225
330
A
100
AcDbSymbolTableRecord
100
AcDbDimStyleTableRecord
  2
STANDARD
 70
     0
 41
2.0
 44
0.125
 47
0.001
 48
0.001
 71
     1
 78
     4
 79
     1
140
1.333333333299999
170
     1
179
     3
271
     3
272
     3
284
     4
340
11
341
224
342
224
343
224
344
224
  0
ENDTAB
  0
TABLE
  2
BLOCK_RECORD
  5
1
330
0
100
AcDbSymbolTable
 70
     1
  0
BLOCK_RECORD
  5
222
330
1
100
AcDbSymbolTableRecord
100
AcDbBlockTableRecord
  2
*Model_Space
340
253D
  0
BLOCK_RECORD
  5
223
330
1
100
AcDbSymbolTableRecord
100
AcDbBlockTableRecord
  2
*Paper_Space
340
253E
  0
BLOCK_RECORD
  5
224
330
1
100
AcDbSymbolTableRecord
100
AcDbBlockTableRecord
  2
_FILLED
340
0
  0
ENDTAB
  0
ENDSEC
  0
SECTION
  2
BLOCKS
  0
BLOCK
  5
20
330
222
100
AcDbEntity
  8
0
100
AcDbBlockBegin
  2
*Model_Space
 70
     0
 10
0.0
 20
0.0
 30
0.0
  3
*Model_Space
  1

  0
ENDBLK
  5
21
330
222
100
AcDbEntity
  8
0
100
AcDbBlockEnd
  0
BLOCK
  5
1C
330
223
100
AcDbEntity
 67
     1
  8
0
100
AcDbBlockBegin
  2
*Paper_Space
 70
     0
 10
0.0
 20
0.0
 30
0.0
  3
*Paper_Space
  1

  0
ENDBLK
  5
1D
330
223
100
AcDbEntity
 67
     1
  8
0
100
AcDbBlockEnd
  0
BLOCK
  5
226
330
224
100
AcDbEntity
  8
0
100
AcDbBlockBegin
  2
_FILLED
 70
     0
 10
0.0
 20
0.0
 30
0.0
  3
_FILLED
  1

  0
SOLID
  5
227
330
224
100
AcDbEntity
  8
0
  6
ByBlock
 62
     0
100
AcDbTrace
 10
0.0
 20
0.0
 30
0.0
 11
-1.0
 21
0.1666666667
 31
0.0
 12
-1.0
 22
-0.1666666667
 32
0.0
 13
-1.0
 23
-0.1666666667
 33
0.0
  0
ENDBLK
  5
228
330
224
100
AcDbEntity
  8
0
  6
ByBlock
 62
     0
100
AcDbBlockEnd
  0
ENDSEC
  0
SECTION
  2
ENTITIES
  0
LWPOLYLINE
  5
22D
330
222
100
AcDbEntity
  8
0
  6
Continuous
 62
     7
100
AcDbPolyline
 90
       11
 70
     0
 43
0.0
 10
19.2499174649
 20
40.6339333023
 10
19.426884505
 20
38.1838159315
 10
19.6374805693
 20
35.94153760800001
 10
19.8842301408
 20
33.8532791747
 10
20.1660582708
 20
31.8549183752
 10
20.48890218
 20
29.8830242909
 10
20.8595601484
 20
27.8956073065
 10
21.2780042136
 20
25.9006610977
 10
21.7418331028
 20
23.9132518036
 10
22.2472632086
 20
21.9481541671
 10
22.7867443693
 20
20.0285073223
  0
LWPOLYLINE
  5
22E
330
222
100
AcDbEntity
  8
0
  6
Continuous
 62
     7
100
AcDbPolyline
 90
       10
 70
     0
 43
0.0
 10
22.7967291817
 20
19.9990202964
 10
22.81354674320001
 20
19.9616332601
 10
22.8343448334
 20
19.9263054789
 10
22.8588749262
 20
19.8934590668
 10
22.8868439289
 20
19.8634865053
 10
22.9179176782
 20
19.8367459608
 10
22.951724867
 20
19.8135570469
 10
22.9878611652
 20
19.7941971112
 10
23.0258942047
 20
19.7788976446
 10
23.06536888510001
 20
19.7678414006
  0
LINE
  5
22F
330
222
100
AcDbEntity
  8
0
  6
Continuous
 62
     7
100
AcDbLine
 10
22.7867443693
 20
20.0285073223
 30
0.0
 11
22.7967291817
 21
19.9990202964
 31
0.0
  0
LINE
  5
230
330
222
100
AcDbEntity
  8
0
  6
Continuous
 62
     7
100
AcDbLine
 10
22.7867443791
 20
20.0285072887
 30
0.0
 11
22.7868752097
 21
20.028753201
 31
0.0
  0
LWPOLYLINE
  5
231
330
222
100
AcDbEntity
  8
0
  6
Continuous
 62
     7
100
AcDbPolyline
 90
        5
 70
     0
 43
0.0
 10
73.37656786850001
 20
19.7611644882
 10
73.416937924
 20
19.7678336964
 10
73.45634103890001
 20
19.7788615211
 10
73.4943081072
 20
19.7941166687
 10
73.5303871185
 20
19.8134175206
  0
LWPOLYLINE
  5
232
330
222
100
AcDbEntity
  8
0
  6
Continuous
 62
     7
100
AcDbPolyline
 90
        3
 70
     0
 43
0.0
 10
23.06536888510001
 20
19.7678414006
 10
23.1058129488
 20
19.7611601853
 10
23.1466198516
 20
19.7589333023
  0
LINE
  5
233
330
222
100
AcDbEntity
  8
0
  6
Continuous
 62
     7
100
AcDbLine
 10
73.33572167799999
 20
19.7589333023
 30
0.0
 11
73.37656786850001
 21
19.7611644882
 31
0.0
  0
LINE
  5
234
330
222
100
AcDbEntity
  8
0
  6
Continuous
 62
     7
100
AcDbLine
 10
23.1466198516
 20
19.7589333023
 30
0.0
 11
73.3357217115
 21
19.7589333023
 31
0.0
  0
LINE
  5
235
330
222
100
AcDbEntity
  8
5_AXIS
  6
HIDDEN
 62
     8
100
AcDbLine
 10
67.3519750545
 20
23.1339333023
 30
0.0
 11
65.35197809520001
 21
23.1339333023
 31
0.0
  0
LINE
  5
236
330
222
100
AcDbEntity
  8
DEFAULT_2
  6
HIDDEN
 62
     8
100
AcDbLine
 10
67.6234231842
 20
23.1339333023
 30
0.0
 11
65.0805299654
 21
23.1339333023
 31
0.0
  0
LINE
  5
237
330
222
100
AcDbEntity
  8
0
  6
Continuous
 62
     9
100
AcDbLine
 10
48.2411707648
 20
20.038476734
 30
0.0
 11
48.2411707648
 21
19.7589333023
 31
0.0
  0
LINE
  5
238
330
222
100
AcDbEntity
  8
DEFAULT_2
  6
HIDDEN
 62
     8
100
AcDbLine
 10
64.8153649225
 20
23.2437682593
 30
0.0
 11
64.4132225764
 21
23.6459106054
 31
0.0
  0
LINE
  5
239
330
222
100
AcDbEntity
  8
0
  6
Continuous
 62
     7
100
AcDbLine
 10
77.2323985609
 20
40.6339333023
 30
0.0
 11
19.2499174657
 21
40.6339333023
 31
0.0
  0
LINE
  5
23A
330
222
100
AcDbEntity
  8
6_SURFACES_TOOLING_FS_MURAL
  6
Continuous
 62
     7
100
AcDbLine
 10
20.2472703707
 20
40.7589333023
 30
0.0
 11
76.2723103446
 21
40.7589333023
 31
0.0
  0
LINE
  5
23B
330
222
100
AcDbEntity
  8
0
  6
Continuous
 62
     7
100
AcDbLine
 10
19.3419986782
 20
40.7589333023
 30
0.0
 11
77.1403428812
 21
40.7589333023
 31
0.0
  0
LINE
  5
23C
330
222
100
AcDbEntity
  8
0
  6
Continuous
 62
     7
100
AcDbLine
 10
77.2341122182
 20
40.65835285699999
 30
0.0
 11
77.2341339979
 21
40.6583721653
 31
0.0
  0
LINE
  5
23D
330
222
100
AcDbEntity
  8
DEFAULT_2
  6
HIDDEN
 62
     8
100
AcDbLine
 10
74.8121813652
 20
37.8504980189
 30
0.0
 11
74.7900091499
 21
37.859010091
 31
0.0
  0
LINE
  5
23E
330
222
100
AcDbEntity
  8
DEFAULT_2
  6
HIDDEN
 62
     8
100
AcDbLine
 10
74.82338270709999
 20
37.8796715075
 30
0.0
 11
74.79420873969999
 21
37.8908716025
 31
0.0
  0
LINE
  5
23F
330
222
100
AcDbEntity
  8
DEFAULT_2
  6
HIDDEN
 62
     8
100
AcDbLine
 10
74.84578175840001
 20
37.9380198794
 30
0.0
 11
74.81660779100001
 21
37.9492199744
 31
0.0
  0
LINE
  5
240
330
222
100
AcDbEntity
  8
DEFAULT_2
  6
HIDDEN
 62
     8
100
AcDbLine
 10
74.9737289296
 20
37.9223738085
 30
0.0
 11
74.85053063879999
 21
37.96967051420001
 31
0.0
  0
LINE
  5
241
330
222
100
AcDbEntity
  8
DEFAULT_2
  6
HIDDEN
 62
     8
100
AcDbLine
 10
75.1599216222
 20
37.884366865
 30
0.0
 11
74.8681819482
 21
37.9963678142
 31
0.0
  0
LINE
  5
242
330
222
100
AcDbEntity
  8
DEFAULT_2
  6
HIDDEN
 62
     8
100
AcDbLine
 10
75.1935230455
 20
37.9718883301
 30
0.0
 11
74.84226847800001
 21
38.106737473
 31
0.0
  0
LINE
  5
243
330
222
100
AcDbEntity
  8
DEFAULT_1
  6
CENTER
 62
     7
100
AcDbLine
 10
73.8856567158
 20
38.6748301604
 30
0.0
 11
76.25652779959999
 21
37.7646357796
 31
0.0
  0
LINE
  5
244
330
222
100
AcDbEntity
  8
DEFAULT_2
  6
HIDDEN
 62
     8
100
AcDbLine
 10
75.32792418459999
 20
38.3219759389
 30
0.0
 11
74.9766696171
 21
38.4568250817
 31
0.0
  0
LINE
  5
245
330
222
100
AcDbEntity
  8
DEFAULT_2
  6
HIDDEN
 62
     8
100
AcDbLine
 10
75.3615233308
 20
38.4094982781
 30
0.0
 11
75.0697836568
 21
38.5214992274
 31
0.0
  0
LINE
  5
246
330
222
100
AcDbEntity
  8
DEFAULT_2
  6
HIDDEN
 62
     8
100
AcDbLine
 10
75.07380223520001
 20
38.5534302304
 30
0.0
 11
75.19768629649999
 21
38.5058702524
 31
0.0
  0
LINE
  5
247
330
222
100
AcDbEntity
  8
DEFAULT_2
  6
HIDDEN
 62
     8
100
AcDbLine
 10
75.09218384669999
 20
38.5798471622
 30
0.0
 11
75.0630098793
 21
38.5910472571
 31
0.0
  0
LINE
  5
248
330
222
100
AcDbEntity
  8
DEFAULT_2
  6
HIDDEN
 62
     8
100
AcDbLine
 10
75.1145851751
 20
38.6381946599
 30
0.0
 11
75.08541120770001
 21
38.6493947548
 31
0.0
  0
LINE
  5
249
330
222
100
AcDbEntity
  8
DEFAULT_2
  6
HIDDEN
 62
     8
100
AcDbLine
 10
75.12578537839999
 20
38.6673685856
 30
0.0
 11
75.1036131632
 21
38.6758806578
 31
0.0
  0
LINE
  5
24A
330
222
100
AcDbEntity
  8
DEFAULT_1
  6
CENTER
 62
     7
100
AcDbLine
 10
66.35197657479999
 20
21.7621279202
 30
0.0
 11
66.35197657479999
 21
24.4983968386
 31
0.0
  0
LINE
  5
24B
330
222
100
AcDbEntity
  8
0
  6
Continuous
 62
     7
100
AcDbLine
 10
73.69559715040001
 20
20.0285072887
 30
0.0
 11
73.69546631979999
 21
20.028753201
 31
0.0
  0
LINE
  5
24C
330
222
100
AcDbEntity
  8
DEFAULT_2
  6
HIDDEN
 62
     8
100
AcDbLine
 10
67.8885882272
 20
23.2437682593
 30
0.0
 11
68.2608445468
 21
23.6160245789
 31
0.0
  0
LINE
  5
24D
330
222
100
AcDbEntity
  8
DEFAULT_2
  6
HIDDEN
 62
     8
100
AcDbLine
 10
72.54088862119999
 20
30.8303681054
 30
0.0
 11
72.5409547374
 21
30.8306191235
 31
0.0
  0
LINE
  5
24E
330
222
100
AcDbEntity
  8
DEFAULT_2
  6
HIDDEN
 62
     8
100
AcDbLine
 10
73.0863176041
 20
32.734677519
 30
0.0
 11
73.086419143
 21
32.73500470760001
 31
0.0
  0
LINE
  5
24F
330
222
100
AcDbEntity
  8
DEFAULT_2
  6
HIDDEN
 62
     8
100
AcDbLine
 10
73.086419143
 20
32.73500470760001
 30
0.0
 11
73.4559045744
 21
33.8712633921
 31
0.0
  0
LINE
  5
250
330
222
100
AcDbEntity
  8
DEFAULT_2
  6
HIDDEN
 62
     8
100
AcDbLine
 10
73.4559045744
 20
33.8712633921
 30
0.0
 11
73.4560365267
 21
33.8716515665
 31
0.0
  0
LINE
  5
251
330
222
100
AcDbEntity
  8
DEFAULT_2
  6
HIDDEN
 62
     8
100
AcDbLine
 10
75.0131739082
 20
38.63561970380001
 30
0.0
 11
74.7497476756
 21
37.9494479906
 31
0.0
  0
LINE
  5
252
330
222
100
AcDbEntity
  8
DEFAULT_2
  6
HIDDEN
 62
     8
100
AcDbLine
 10
74.97666847859999
 20
38.4568255188
 30
0.0
 11
74.84226733949999
 21
38.1067379101
 31
0.0
  0
LINE
  5
253
330
222
100
AcDbEntity
  8
DEFAULT_2
  6
HIDDEN
 62
     8
100
AcDbLine
 10
75.0450360068
 20
38.6314213194
 30
0.0
 11
74.77623372859999
 21
37.9312461019
 31
0.0
  0
LINE
  5
254
330
222
100
AcDbEntity
  8
DEFAULT_2
  6
HIDDEN
 62
     8
100
AcDbLine
 10
75.08541006909999
 20
38.6493951919
 30
0.0
 11
74.7942076011
 21
37.8908720396
 31
0.0
  0
LINE
  5
255
330
222
100
AcDbEntity
  8
DEFAULT_2
  6
HIDDEN
 62
     8
100
AcDbLine
 10
75.10361180779999
 20
38.6758811781
 30
0.0
 11
74.7900091499
 21
37.859010091
 31
0.0
  0
LINE
  5
256
330
222
100
AcDbEntity
  8
DEFAULT_2
  6
HIDDEN
 62
     8
100
AcDbLine
 10
74.8121813652
 20
37.8504980189
 30
0.0
 11
75.125784023
 21
38.667369106
 31
0.0
  0
LINE
  5
257
330
222
100
AcDbEntity
  8
DEFAULT_2
  6
HIDDEN
 62
     8
100
AcDbLine
 10
74.5051246152
 20
36.7017823747
 30
0.0
 11
74.97372892979999
 21
37.9223738085
 31
0.0
  0
LINE
  5
258
330
222
100
AcDbEntity
  8
DEFAULT_2
  6
HIDDEN
 62
     8
100
AcDbLine
 10
75.18648009569999
 20
38.4766986291
 30
0.0
 11
75.15287981090001
 21
38.3891767269
 31
0.0
  0
LINE
  5
259
330
222
100
AcDbEntity
  8
DEFAULT_2
  6
HIDDEN
 62
     8
100
AcDbLine
 10
75.3031759653
 20
38.4318982494
 30
0.0
 11
75.2695756805
 21
38.3443763472
 31
0.0
  0
LINE
  5
25A
330
222
100
AcDbEntity
  8
DEFAULT_2
  6
HIDDEN
 62
     8
100
AcDbLine
 10
75.3615233308
 20
38.4094982781
 30
0.0
 11
75.1599216222
 21
37.884366865
 31
0.0
  0
LINE
  5
25B
330
222
100
AcDbEntity
  8
0
  6
Continuous
 62
     6
100
AcDbLine
 10
77.1914589509
 20
38.56115135559999
 30
0.0
 11
77.2045632763
 21
38.5877540759
 31
0.0
  0
LINE
  5
25C
330
222
100
AcDbEntity
  8
0
  6
Continuous
 62
     6
100
AcDbLine
 10
77.1649832992
 20
38.56141303
 30
0.0
 11
77.17806905999999
 21
38.5879413698
 31
0.0
  0
LINE
  5
25D
330
222
100
AcDbEntity
  8
0
  6
Continuous
 62
     7
100
AcDbLine
 10
73.5641485396
 20
19.836534296
 30
0.0
 11
73.59519042399999
 21
19.8631917838
 31
0.0
  0
LINE
  5
25E
330
222
100
AcDbEntity
  8
0
  6
Continuous
 62
     7
100
AcDbLine
 10
73.5303871185
 20
19.8134175206
 30
0.0
 11
73.5641485396
 21
19.836534296
 31
0.0
  0
LINE
  5
25F
330
222
100
AcDbEntity
  8
0
  6
Continuous
 62
    40
100
AcDbLine
 10
77.1893679167
 20
38.725122985
 30
0.0
 11
77.19230753939999
 21
38.7719500078
 31
0.0
  0
LINE
  5
260
330
222
100
AcDbEntity
  8
0
  6
Continuous
 62
    40
100
AcDbLine
 10
77.1931381965
 20
38.7747728623
 30
0.0
 11
77.19019857390001
 21
38.7279458395
 31
0.0
  0
LINE
  5
261
330
222
100
AcDbEntity
  8
0
  6
Continuous
 62
    40
100
AcDbLine
 10
77.1907001629
 20
38.725122985
 30
0.0
 11
77.19363978549999
 21
38.7719500078
 31
0.0
  0
LINE
  5
262
330
222
100
AcDbEntity
  8
0
  6
Continuous
 62
    40
100
AcDbLine
 10
77.19447044270001
 20
38.7747728623
 30
0.0
 11
77.19153082
 21
38.7279458395
 31
0.0
  0
LINE
  5
263
330
222
100
AcDbEntity
  8
0
  6
Continuous
 62
    40
100
AcDbLine
 10
77.19203240899999
 20
38.725122985
 30
0.0
 11
77.1949720317
 21
38.7719500078
 31
0.0
  0
LINE
  5
264
330
222
100
AcDbEntity
  8
0
  6
Continuous
 62
    40
100
AcDbLine
 10
77.1958026888
 20
38.7747728623
 30
0.0
 11
77.1928630662
 21
38.7279458395
 31
0.0
  0
LINE
  5
265
330
222
100
AcDbEntity
  8
0
  6
Continuous
 62
     9
100
AcDbLine
 10
77.20804998109999
 20
38.6011624969
 30
0.0
 11
77.207994333
 21
38.6003491566
 31
0.0
  0
LINE
  5
266
330
222
100
AcDbEntity
  8
0
  6
Continuous
 62
     9
100
AcDbLine
 10
77.2302710605
 20
38.8990640679
 30
0.0
 11
77.2303267086
 21
38.8998774082
 31
0.0
  0
LINE
  5
267
330
222
100
AcDbEntity
  8
0
  6
Continuous
 62
     7
100
AcDbLine
 10
77.0450998691
 20
38.0110104016
 30
0.0
 11
77.0455398326
 21
38.0173190448
 31
0.0
  0
LINE
  5
268
330
222
100
AcDbEntity
  8
6_SURFACES
  6
Continuous
 62
     7
100
AcDbLine
 10
77.15104667350001
 20
39.5072593222
 30
0.0
 11
77.23242406459999
 21
40.6339333023
 31
0.0
  0
LINE
  5
269
330
222
100
AcDbEntity
  8
0
  6
Continuous
 62
     7
100
AcDbLine
 10
77.15445615180001
 20
38.0655292954
 30
0.0
 11
77.15634765539999
 21
38.0917015211
 31
0.0
  0
LINE
  5
26A
330
222
100
AcDbEntity
  8
0
  6
Continuous
 62
     9
100
AcDbLine
 10
77.205708334
 20
38.6034040256
 30
0.0
 11
77.20456323189999
 21
38.5877540286
 31
0.0
  0
LINE
  5
26B
330
222
100
AcDbEntity
  8
0
  6
Continuous
 62
    40
100
AcDbLine
 10
77.20167160799999
 20
38.6082618453
 30
0.0
 11
77.20137392699999
 21
38.6042433793
 31
0.0
  0
LINE
  5
26C
330
222
100
AcDbEntity
  8
0
  6
Continuous
 62
    40
100
AcDbLine
 10
77.20137392699999
 20
38.6042433792
 30
0.0
 11
77.1998526209
 21
38.58364116110001
 31
0.0
  0
LINE
  5
26D
330
222
100
AcDbEntity
  8
0
  6
Continuous
 62
     9
100
AcDbLine
 10
77.21663040840001
 20
38.750298057
 30
0.0
 11
77.205708334
 21
38.6034040256
 31
0.0
  0
LINE
  5
26E
330
222
100
AcDbEntity
  8
0
  6
Continuous
 62
     9
100
AcDbLine
 10
77.219208307
 20
38.7501132824
 30
0.0
 11
77.2302710605
 21
38.8990640679
 31
0.0
  0
LINE
  5
26F
330
222
100
AcDbEntity
  8
0
  6
Continuous
 62
     6
100
AcDbLine
 10
77.2125592764
 20
38.6620940359
 30
0.0
 11
77.2108299827
 21
38.6388105518
 31
0.0
  0
LINE
  5
270
330
222
100
AcDbEntity
  8
0
  6
Continuous
 62
     7
100
AcDbLine
 10
77.15634765539999
 20
38.0917015211
 30
0.0
 11
77.1913739851
 21
38.56350379550001
 31
0.0
  0
LINE
  5
271
330
222
100
AcDbEntity
  8
0
  6
Continuous
 62
     7
100
AcDbLine
 10
77.21991071149999
 20
38.9407058455
 30
0.0
 11
77.2550172999
 21
39.4142843677
 31
0.0
  0
LINE
  5
272
330
222
100
AcDbEntity
  8
0
  6
Continuous
 62
    40
100
AcDbLine
 10
77.2160417581
 20
38.7078702949
 30
0.0
 11
77.2206668946
 21
38.7703172037
 31
0.0
  0
LINE
  5
273
330
222
100
AcDbEntity
  8
0
  6
Continuous
 62
    40
100
AcDbLine
 10
77.21886128539999
 20
38.7457827324
 30
0.0
 11
77.2162232654
 21
38.7103652754
 31
0.0
  0
LINE
  5
274
330
222
100
AcDbEntity
  8
0
  6
Continuous
 62
     9
100
AcDbLine
 10
77.21679460859999
 20
38.7190079166
 30
0.0
 11
77.214577606
 21
38.6892314651
 31
0.0
  0
LINE
  5
275
330
222
100
AcDbEntity
  8
0
  6
Continuous
 62
    40
100
AcDbLine
 10
77.2165031972
 20
38.7142131879
 30
0.0
 11
77.2187631604
 21
38.7445694248
 31
0.0
  0
LINE
  5
276
330
222
100
AcDbEntity
  8
0
  6
Continuous
 62
    40
100
AcDbLine
 10
77.21679460859999
 20
38.7190079166
 30
0.0
 11
77.21664583529999
 21
38.716173876
 31
0.0
  0
LINE
  5
277
330
222
100
AcDbEntity
  8
0
  6
Continuous
 62
    40
100
AcDbLine
 10
77.2188425556
 20
38.7454655771
 30
0.0
 11
77.21936299959999
 21
38.7524604569
 31
0.0
  0
LINE
  5
278
330
222
100
AcDbEntity
  8
0
  6
Continuous
 62
     9
100
AcDbLine
 10
77.214577606
 20
38.6892314651
 30
0.0
 11
77.21316774279999
 21
38.6702751755
 31
0.0
  0
LINE
  5
279
330
222
100
AcDbEntity
  8
0
  6
Continuous
 62
     9
100
AcDbLine
 10
77.21316774279999
 20
38.6702751755
 30
0.0
 11
77.20804998109999
 21
38.6011624969
 31
0.0
  0
LINE
  5
27A
330
222
100
AcDbEntity
  8
0
  6
Continuous
 62
    40
100
AcDbLine
 10
77.22303909869999
 20
38.8021338923
 30
0.0
 11
77.219208307
 21
38.7501132824
 31
0.0
  0
LINE
  5
27B
330
222
100
AcDbEntity
  8
0
  6
Continuous
 62
     7
100
AcDbLine
 10
77.21935168979999
 20
38.9387488645
 30
0.0
 11
77.1913739851
 21
38.56350379550001
 31
0.0
  0
LINE
  5
27C
330
222
100
AcDbEntity
  8
0
  6
Continuous
 62
    40
100
AcDbLine
 10
77.21679460859999
 20
38.7190079166
 30
0.0
 11
77.21646453089999
 21
38.7142131879
 31
0.0
  0
LINE
  5
27D
330
222
100
AcDbEntity
  8
0
  6
Continuous
 62
     6
100
AcDbLine
 10
77.23010467619999
 20
38.89700785570001
 30
0.0
 11
77.2194505483
 21
38.7544674307
 31
0.0
  0
LINE
  5
27E
330
222
100
AcDbEntity
  8
0
  6
Continuous
 62
     6
100
AcDbLine
 10
77.21263705510001
 20
38.6621001061
 30
0.0
 11
77.21466541609999
 21
38.68923806780001
 31
0.0
  0
LINE
  5
27F
330
222
100
AcDbEntity
  8
0
  6
Continuous
 62
    40
100
AcDbLine
 10
77.21617067359999
 20
38.7103652754
 30
0.0
 11
77.219462915
 21
38.7544641795
 31
0.0
  0
LINE
  5
280
330
222
100
AcDbEntity
  8
0
  6
Continuous
 62
     7
100
AcDbLine
 10
77.191638943
 20
38.5615167525
 30
0.0
 11
77.15612916970001
 21
38.0879682922
 31
0.0
  0
LINE
  5
281
330
222
100
AcDbEntity
  8
0
  6
Continuous
 62
    40
100
AcDbLine
 10
77.2191127345
 20
38.7501132824
 30
0.0
 11
77.2244833885
 21
38.8215051249
 31
0.0
  0
LINE
  5
282
330
222
100
AcDbEntity
  8
0
  6
Continuous
 62
    40
100
AcDbLine
 10
77.2245938186
 20
38.91550701110001
 30
0.0
 11
77.222900146
 21
38.8929851382
 31
0.0
  0
LINE
  5
283
330
222
100
AcDbEntity
  8
0
  6
Continuous
 62
    40
100
AcDbLine
 10
77.1720805289
 20
38.7511075288
 30
0.0
 11
77.1720535272
 21
38.7507518375
 31
0.0
  0
LINE
  5
284
330
222
100
AcDbEntity
  8
0
  6
Continuous
 62
     7
100
AcDbLine
 10
77.25496281009999
 20
39.4142885043
 30
0.0
 11
77.21935168979999
 21
38.9387488645
 31
0.0
  0
LINE
  5
285
330
222
100
AcDbEntity
  8
0
  6
Continuous
 62
    40
100
AcDbLine
 10
77.1807687156
 20
38.7516070936
 30
0.0
 11
77.18074189149999
 21
38.7512545177
 31
0.0
  0
LINE
  5
286
330
222
100
AcDbEntity
  8
0
  6
Continuous
 62
    40
100
AcDbLine
 10
77.18074189149999
 20
38.7512545177
 30
0.0
 11
77.180684419
 21
38.7504982533
 31
0.0
  0
LINE
  5
287
330
222
100
AcDbEntity
  8
0
  6
Continuous
 62
     9
100
AcDbLine
 10
77.20806011669999
 20
38.6011643872
 30
0.0
 11
77.219208307
 21
38.7501132824
 31
0.0
  0
LINE
  5
288
330
222
100
AcDbEntity
  8
0
  6
Continuous
 62
    40
100
AcDbLine
 10
77.21679460859999
 20
38.7190079166
 30
0.0
 11
77.21661426459999
 21
38.716173876
 31
0.0
  0
LINE
  5
289
330
222
100
AcDbEntity
  8
0
  6
Continuous
 62
     7
100
AcDbLine
 10
77.2566903177
 20
39.4367233646
 30
0.0
 11
77.25496281009999
 21
39.4142885043
 31
0.0
  0
LINE
  5
28A
330
222
100
AcDbEntity
  8
0
  6
Continuous
 62
     9
100
AcDbLine
 10
77.2303267086
 20
38.8998774082
 30
0.0
 11
77.21679460859999
 21
38.7190079166
 31
0.0
  0
LINE
  5
28B
330
222
100
AcDbEntity
  8
0
  6
Continuous
 62
     9
100
AcDbLine
 10
77.21950352260001
 20
38.93745229909999
 30
0.0
 11
77.2197868517
 21
38.9410939573
 31
0.0
  0
LINE
  5
28C
330
222
100
AcDbEntity
  8
0
  6
Continuous
 62
     9
100
AcDbLine
 10
77.22880130810001
 20
38.91284208550001
 30
0.0
 11
77.21663040840001
 21
38.750298057
 31
0.0
  0
LINE
  5
28D
330
222
100
AcDbEntity
  8
0
  6
Continuous
 62
     7
100
AcDbLine
 10
77.15662788039999
 20
39.5068562029
 30
0.0
 11
77.1558708509
 21
39.4972005109
 31
0.0
  0
LINE
  5
28E
330
222
100
AcDbEntity
  8
0
  6
Continuous
 62
     9
100
AcDbLine
 10
77.207994333
 20
38.6003491566
 30
0.0
 11
77.20806011669999
 21
38.6011643872
 31
0.0
  0
LINE
  5
28F
330
222
100
AcDbEntity
  8
6_SURFACES
  6
Continuous
 62
     7
100
AcDbLine
 10
76.84486096029999
 20
35.94153760800001
 30
0.0
 11
77.03969714510001
 21
38.016015854
 31
0.0
  0
LWPOLYLINE
  5
290
330
222
100
AcDbEntity
  8
6_SURFACES
  6
Continuous
 62
     7
100
AcDbPolyline
 90
        9
 70
     0
 43
0.0
 10
73.69559716020001
 20
20.0285073223
 10
74.2350783209
 20
21.9481541671
 10
74.7405084267
 20
23.9132518036
 10
75.2043373159
 20
25.9006610977
 10
75.62278138109999
 20
27.8956073065
 10
75.99343934949999
 20
29.8830242909
 10
76.3162832588
 20
31.8549183752
 10
76.59811138870001
 20
33.8532791747
 10
76.84486096029999
 20
35.94153760800001
  0
LWPOLYLINE
  5
291
330
222
100
AcDbEntity
  8
0
  6
Continuous
 62
     7
100
AcDbPolyline
 90
        3
 70
     0
 43
0.0
 10
73.66849094079999
 20
19.9610471614
 10
73.68534601649999
 20
19.998331599
 10
73.69559716020001
 20
20.0285073223
  0
LINE
  5
292
330
222
100
AcDbEntity
  8
0
  6
Continuous
 62
     7
100
AcDbLine
 10
73.6476740536
 20
19.925821036
 30
0.0
 11
73.66849094079999
 21
19.9610471614
 31
0.0
  0
LINE
  5
293
330
222
100
AcDbEntity
  8
0
  6
Continuous
 62
     7
100
AcDbLine
 10
73.6231431951
 20
19.8930726133
 30
0.0
 11
73.6476740536
 21
19.925821036
 31
0.0
  0
LINE
  5
294
330
222
100
AcDbEntity
  8
0
  6
Continuous
 62
     7
100
AcDbLine
 10
73.59519042399999
 20
19.8631917838
 30
0.0
 11
73.6231431951
 21
19.8930726133
 31
0.0
  0
LINE
  5
295
330
222
100
AcDbEntity
  8
0
  6
Continuous
 62
     6
100
AcDbLine
 10
77.21978689470001
 20
38.941093895
 30
0.0
 11
77.22880134499999
 21
38.9128420321
 31
0.0
  0
LINE
  5
296
330
222
100
AcDbEntity
  8
0
  6
Continuous
 62
     6
100
AcDbLine
 10
77.1937897575
 20
38.9404888012
 30
0.0
 11
77.2027165571
 21
38.9122876984
 31
0.0
  0
ARC
  5
2365
330
222
100
AcDbEntity
  8
0
  6
Continuous
 62
     7
100
AcDbCircle
 10
23.1468691435
 20
20.1347866599
 30
0.0
 40
0.3758533623
100
AcDbArc
 50
263.662318164
 51
269.9984008367
  0
ARC
  5
2366
330
222
100
AcDbEntity
  8
DEFAULT_2
  6
HIDDEN
 62
     8
100
AcDbCircle
 10
65.0805299654
 20
23.5089333023
 30
0.0
 40
0.375
100
AcDbArc
 50
225.0
 51
270.0
  0
ARC
  5
2367
330
222
100
AcDbEntity
  8
DEFAULT_2
  6
HIDDEN
 62
     8
100
AcDbCircle
 10
67.6234231842
 20
23.5089333023
 30
0.0
 40
0.375
100
AcDbArc
 50
270.0
 51
315.0
  0
ARC
  5
2368
330
222
100
AcDbEntity
  8
0
  6
Continuous
 62
     7
100
AcDbCircle
 10
23.1468226292
 20
20.1339333023
 30
0.0
 40
0.375
100
AcDbArc
 50
196.2888708916
 51
270.0
  0
ARC
  5
2369
330
222
100
AcDbEntity
  8
DEFAULT_2
  6
HIDDEN
 62
     8
100
AcDbCircle
 10
64.32483422869999
 20
23.5575222578
 30
0.0
 40
0.125
100
AcDbArc
 50
45.0
 51
88.6283943797
  0
ARC
  5
236A
330
222
100
AcDbEntity
  8
DEFAULT_2
  6
HIDDEN
 62
     8
100
AcDbCircle
 10
67.04865986299999
 20
53.9066889106
 30
0.0
 40
30.2818893325
100
AcDbArc
 50
272.4514019462
 51
275.2426798782
  0
ARC
  5
236B
330
222
100
AcDbEntity
  8
0
  6
Continuous
 62
     7
100
AcDbCircle
 10
52.7331879247
 20
40.6082695575
 30
0.0
 40
24.5339372947
100
AcDbArc
 50
355.2749360452
 51
355.6559679603
  0
ARC
  5
236C
330
222
100
AcDbEntity
  8
0
  6
Continuous
 62
     7
100
AcDbCircle
 10
52.7421931836
 20
40.6083780531
 30
0.0
 40
24.52496612
100
AcDbArc
 50
355.6565456952
 51
356.0338836626
  0
ARC
  5
236D
330
222
100
AcDbEntity
  8
0
  6
Continuous
 62
     7
100
AcDbCircle
 10
19.3419987175
 20
40.6649333023
 30
0.0
 40
0.094
100
AcDbArc
 50
90.0
 51
184.014259701
  0
ARC
  5
236E
330
222
100
AcDbEntity
  8
DEFAULT_2
  6
HIDDEN
 62
     8
100
AcDbCircle
 10
116.9814725562
 20
19.1320395353
 30
0.0
 40
45.9545034614
100
AcDbArc
 50
162.7823515664
 51
165.2519681061
  0
ARC
  5
236F
330
222
100
AcDbEntity
  8
0
  6
Continuous
 62
     7
100
AcDbCircle
 10
73.33547239560001
 20
20.134786264
 30
0.0
 40
0.3758529665
100
AcDbArc
 50
270.0015977048
 51
276.3407222066
  0
ARC
  5
2370
330
222
100
AcDbEntity
  8
0
  6
Continuous
 62
     7
100
AcDbCircle
 10
73.3355189003
 20
20.1339333023
 30
0.0
 40
0.375
100
AcDbArc
 50
270.0
 51
343.7111291084
  0
ARC
  5
2371
330
222
100
AcDbEntity
  8
0
  6
Continuous
 62
     7
100
AcDbCircle
 10
73.33572167799999
 20
20.1339333023
 30
0.0
 40
0.375
100
AcDbArc
 50
306.7540217438
 51
343.6719867499
  0
ARC
  5
2372
330
222
100
AcDbEntity
  8
DEFAULT_2
  6
HIDDEN
 62
     8
100
AcDbCircle
 10
68.34923289449999
 20
23.5276362313
 30
0.0
 40
0.125
100
AcDbArc
 50
92.45041864559999
 51
134.9999999988
  0
ARC
  5
2373
330
222
100
AcDbEntity
  8
DEFAULT_2
  6
HIDDEN
 62
     8
100
AcDbCircle
 10
75.07852495059999
 20
38.6105309708
 30
0.0
 40
0.07
100
AcDbArc
 50
68.99784656
 51
158.99784656
  0
ARC
  5
2374
330
222
100
AcDbEntity
  8
DEFAULT_2
  6
HIDDEN
 62
     8
100
AcDbCircle
 10
74.8150973626
 20
37.924359778
 30
0.0
 40
0.07
100
AcDbArc
 50
158.99784656
 51
248.99784656
  0
ARC
  5
2375
330
222
100
AcDbEntity
  8
DEFAULT_2
  6
HIDDEN
 62
     8
100
AcDbCircle
 10
75.0742099742
 20
38.6202212245
 30
0.0
 40
0.03125
100
AcDbArc
 50
68.99784656
 51
248.99784656
  0
ARC
  5
2376
330
222
100
AcDbEntity
  8
DEFAULT_2
  6
HIDDEN
 62
     8
100
AcDbCircle
 10
74.80540769600001
 20
37.920046007
 30
0.0
 40
0.03125
100
AcDbArc
 50
68.99784656
 51
248.99784656
  0
ARC
  5
2377
330
222
100
AcDbEntity
  8
DEFAULT_2
  6
HIDDEN
 62
     8
100
AcDbCircle
 10
74.83151638689999
 20
38.0787304643
 30
0.0
 40
0.03
100
AcDbArc
 50
68.99784656
 51
158.99784656
  0
ARC
  5
2378
330
222
100
AcDbEntity
  8
DEFAULT_2
  6
HIDDEN
 62
     8
100
AcDbCircle
 10
74.9874217082
 20
38.4848320904
 30
0.0
 40
0.03
100
AcDbArc
 50
158.99784656
 51
248.99784656
  0
ARC
  5
2379
330
222
100
AcDbEntity
  8
0
  6
Continuous
 62
     9
100
AcDbCircle
 10
77.58060857699999
 20
38.8812479306
 30
0.0
 40
0.3954412394
100
AcDbArc
 50
171.392256542
 51
172.2219709734
  0
ARC
  5
237A
330
222
100
AcDbEntity
  8
0
  6
Continuous
 62
     9
100
AcDbCircle
 10
77.51531209709999
 20
38.5618559592
 30
0.0
 40
0.3544408529
100
AcDbArc
 50
179.0874228991
 51
179.9602257686
  0
ARC
  5
237B
330
222
100
AcDbEntity
  8
0
  6
Continuous
 62
     9
100
AcDbCircle
 10
77.407692924
 20
38.9072519463
 30
0.0
 40
0.2205813508
100
AcDbArc
 50
170.3725589813
 51
171.3483597025
  0
ARC
  5
237C
330
222
100
AcDbEntity
  8
0
  6
Continuous
 62
     7
100
AcDbCircle
 10
76.9933355883
 20
38.1976964133
 30
0.0
 40
0.188178917
100
AcDbArc
 50
277.4159840997
 51
315.4797209578
  0
ARC
  5
237D
330
222
100
AcDbEntity
  8
0
  6
Continuous
 62
     7
100
AcDbCircle
 10
77.02068555470001
 20
38.1969129903
 30
0.0
 40
0.1875
100
AcDbArc
 50
277.4816827749
 51
315.5157590715
  0
ARC
  5
237E
330
222
100
AcDbEntity
  8
0
  6
Continuous
 62
     9
100
AcDbCircle
 10
77.03916567829999
 20
38.9411958434
 30
0.0
 40
0.1539791721
100
AcDbArc
 50
0.9448303520999997
 51
1.109918165699999
  0
ARC
  5
237F
330
222
100
AcDbEntity
  8
0
  6
Continuous
 62
     9
100
AcDbCircle
 10
77.0143012156
 20
38.5836917845
 30
0.0
 40
0.1516730952
100
AcDbArc
 50
350.1229794879
 51
350.3834306941
  0
ARC
  5
2380
330
222
100
AcDbEntity
  8
0
  6
Continuous
 62
     9
100
AcDbCircle
 10
77.33572104930001
 20
38.9192618766
 30
0.0
 40
0.1476147018
100
AcDbArc
 50
170.1033271116
 51
170.296536229
  0
ARC
  5
2381
330
222
100
AcDbEntity
  8
0
  6
Continuous
 62
     9
100
AcDbCircle
 10
77.2991881035
 20
38.5607593334
 30
0.0
 40
0.1383084864
100
AcDbArc
 50
181.1142057098
 51
181.3609660614
  0
ARC
  5
2382
330
222
100
AcDbEntity
  8
0
  6
Continuous
 62
     9
100
AcDbCircle
 10
77.3182352877
 20
38.9223158564
 30
0.0
 40
0.1298642472
100
AcDbArc
 50
169.7194665485
 51
170.1047492793
  0
ARC
  5
2383
330
222
100
AcDbEntity
  8
0
  6
Continuous
 62
     9
100
AcDbCircle
 10
77.0402100467
 20
38.5791566204
 30
0.0
 40
0.1253703139
100
AcDbArc
 50
349.714084481
 51
350.0327121584
  0
ARC
  5
2384
330
222
100
AcDbEntity
  8
0
  6
Continuous
 62
     9
100
AcDbCircle
 10
77.06933070739999
 20
38.9418336156
 30
0.0
 40
0.123807415
100
AcDbArc
 50
1.140999136899999
 51
1.692535794799999
  0
ARC
  5
2385
330
222
100
AcDbEntity
  8
0
  6
Continuous
 62
     9
100
AcDbCircle
 10
77.2808726237
 20
38.5603201134
 30
0.0
 40
0.1199877415
100
AcDbArc
 50
181.3590162673
 51
181.694272171
  0
ARC
  5
2386
330
222
100
AcDbEntity
  8
0
  6
Continuous
 62
     6
100
AcDbCircle
 10
77.19617203
 20
38.9024309084
 30
0.0
 40
0.03425
100
AcDbArc
 50
355.7360023874
 51
17.6965674079
  0
ARC
  5
2387
330
222
100
AcDbEntity
  8
0
  6
Continuous
 62
     6
100
AcDbCircle
 10
77.17383861950001
 20
38.6028887764
 30
0.0
 40
0.03425
100
AcDbArc
 50
333.775437367
 51
355.7360023874
  0
ARC
  5
2388
330
222
100
AcDbEntity
  8
DEFAULT_2
  6
HIDDEN
 62
     8
100
AcDbCircle
 10
76.2723103446
 20
40.2589333023
 30
0.0
 40
0.375
100
AcDbArc
 50
90.0
 51
158.9996771503
  0
ARC
  5
2389
330
222
100
AcDbEntity
  8
0
  6
Continuous
 62
     7
100
AcDbCircle
 10
77.0790743134
 20
39.3259665693
 30
0.0
 40
0.1881788746
100
AcDbArc
 50
35.8290150722
 51
73.89276119
  0
ARC
  5
238A
330
222
100
AcDbEntity
  8
0
  6
Continuous
 62
     7
100
AcDbCircle
 10
77.1049155176
 20
39.3266295047
 30
0.0
 40
0.1875
100
AcDbArc
 50
35.9562457033
 51
73.99032199999999
  0
ARC
  5
238B
330
222
100
AcDbEntity
  8
0
  6
Continuous
 62
     7
100
AcDbCircle
 10
77.14034283229999
 20
40.6649333023
 30
0.0
 40
0.094
100
AcDbArc
 50
355.9857407013
 51
90.0
  0
SPLINE
  5
23C3
330
222
100
AcDbEntity
  8
DEFAULT_2
  6
HIDDEN
 62
     8
100
AcDbSpline
210
0.0
220
0.0
230
1.0
 70
     8
 71
     3
 72
    15
 73
    11
 74
     0
 42
0.0000001
 43
0.0000000001
 40
0.0
 40
0.0
 40
0.0
 40
0.0
 40
0.1250287725
 40
0.2500485564
 40
0.3750650807
 40
0.5000731487
 40
0.6250702655
 40
0.7500565195000001
 40
0.8750343764
 40
1.0
 40
1.0
 40
1.0
 40
1.0
 10
21.1589181802
 20
40.4326635416
 30
0.0
 10
21.4766677054
 20
39.8059561568
 30
0.0
 10
22.1119662788
 20
38.5524963678
 30
0.0
 10
23.0643108032
 20
36.6720498693
 30
0.0
 10
24.01614754780001
 20
34.7914767316
 30
0.0
 10
24.9678587156
 20
32.9109828216
 30
0.0
 10
25.91962587
 20
31.0307079085
 30
0.0
 10
26.8715963515
 20
29.1507262371
 30
0.0
 10
27.8236018584
 20
27.270960719
 30
0.0
 10
28.4580359365
 20
26.0177249666
 30
0.0
 10
28.7750422125
 20
25.3910389879
 30
0.0
  0
SPLINE
  5
23C4
330
222
100
AcDbEntity
  8
DEFAULT_2
  6
HIDDEN
 62
     8
100
AcDbSpline
210
0.0
220
0.0
230
1.0
 70
     8
 71
     3
 72
    17
 73
    13
 74
     0
 42
0.0000001
 43
0.0000000001
 40
0.0
 40
0.0
 40
0.0
 40
0.0
 40
0.0591498732
 40
0.1200675385
 40
0.2453449115
 40
0.3730556470000001
 40
0.5014863346000001
 40
0.6296738888000001
 40
0.7567066434000001
 40
0.8810124538
 40
0.9413921026999998
 40
1.0
 40
1.0
 40
1.0
 40
1.0
 10
28.7750398857
 20
25.3910388928
 30
0.0
 10
28.7909895672
 20
25.3603240389
 30
0.0
 10
28.8234335758
 20
25.2980048602
 30
0.0
 10
28.8932436193
 20
25.1725573526
 30
0.0
 10
28.9951655651
 20
25.0190951194
 30
0.0
 10
29.1467384065
 20
24.8538109435
 30
0.0
 10
29.3267713622
 20
24.716946727
 30
0.0
 10
29.5285989631
 20
24.6157836372
 30
0.0
 10
29.7428023093
 20
24.5531407986
 30
0.0
 10
29.9243057629
 20
24.5300989971
 30
0.0
 10
30.0665166159
 20
24.5235027073
 30
0.0
 10
30.1361322587
 20
24.5222467504
 30
0.0
 10
30.1704193607
 20
24.5216640107
 30
0.0
  0
SPLINE
  5
23C5
330
222
100
AcDbEntity
  8
DEFAULT_2
  6
HIDDEN
 62
     8
100
AcDbSpline
210
0.0
220
0.0
230
1.0
 70
     8
 71
     3
 72
    50
 73
    46
 74
     0
 42
0.0000001
 43
0.0000000001
 40
0.0
 40
0.0
 40
0.0
 40
0.0
 40
0.000209015
 40
0.0006834414
 40
0.0014495855
 40
0.0025119412
 40
0.0055290559
 40
0.009733124
 40
0.0151156372
 40
0.0216649934
 40
0.0293651113
 40
0.0381985493
 40
0.0481435379
 40
0.0591765634
 40
0.0843980469
 40
0.1136209436
 40
0.1465640464
 40
0.1829104649
 40
0.2223103469
 40
0.2643844032
 40
0.3087276867
 40
0.4024961391
 40
0.5000120862
 40
0.5975275343000001
 40
0.6912946905
 40
0.7356372636000001
 40
0.7777107184000001
 40
0.8171101621
 40
0.8534563460999999
 40
0.8863994229000001
 40
0.915622444
 40
0.9408441779
 40
0.9518773256000001
 40
0.9618223540999998
 40
0.9706557633
 40
0.9783557318999999
 40
0.9849047435999999
 40
0.9902866353
 40
0.9944896262999998
 40
0.9961462320999999
 40
0.9975049928
 40
0.9985658486
 40
0.9993297593000001
 40
0.9998003427
 40
1.0
 40
1.0
 40
1.0
 40
1.0
 10
75.1905096227
 20
38.5086254289
 30
0.0
 10
75.1904689567
 20
38.5086410408
 30
0.0
 10
75.19033254989999
 20
38.5085229381
 30
0.0
 10
75.1901740881
 20
38.5082990044
 30
0.0
 10
75.18991344439999
 20
38.5078780491
 30
0.0
 10
75.1894369976
 20
38.506997377
 30
0.0
 10
75.1886717631
 20
38.5054422236
 30
0.0
 10
75.1875704836
 20
38.5030609207
 30
0.0
 10
75.18620131729999
 20
38.4999880386
 30
0.0
 10
75.1845717768
 20
38.496235587
 30
0.0
 10
75.1826851472
 20
38.4918101917
 30
0.0
 10
75.1805468749
 20
38.4867230889
 30
0.0
 10
75.1781621749
 20
38.4809860952
 30
0.0
 10
75.17449534890001
 20
38.472083468
 30
0.0
 10
75.16935062359999
 20
38.459444577
 30
0.0
 10
75.1625493774
 20
38.44255019190001
 30
0.0
 10
75.1549407718
 20
38.4234816202
 30
0.0
 10
75.1465995371
 20
38.40242192570001
 30
0.0
 10
75.1376073981
 20
38.3795733421
 30
0.0
 10
75.12805204060001
 20
38.3551554646
 30
0.0
 10
75.1144288901
 20
38.3201621293
 30
0.0
 10
75.0967262507
 20
38.27435798
 30
0.0
 10
75.0751894004
 20
38.2181558103
 30
0.0
 10
75.05380520029999
 20
38.1618956747
 30
0.0
 10
75.0364820392
 20
38.1159472367
 30
0.0
 10
75.02331230029999
 20
38.0807813351
 30
0.0
 10
75.01415421919999
 20
38.0562120893
 30
0.0
 10
75.0056167449
 20
38.0331900432
 30
0.0
 10
74.997780785
 20
38.0119373296
 30
0.0
 10
74.9907204384
 20
37.9926590692
 30
0.0
 10
74.98450252179999
 20
37.9755413258
 30
0.0
 10
74.9798862785
 20
37.9626998934
 30
0.0
 10
74.9766618518
 20
37.9536275609
 30
0.0
 10
74.9745978349
 20
37.9477675464
 30
0.0
 10
74.9727827991
 20
37.942556324
 30
0.0
 10
74.97122100439999
 20
37.9380064614
 30
0.0
 10
74.96991576949999
 20
37.9341288955
 30
0.0
 10
74.96887019439999
 20
37.9309335892
 30
0.0
 10
74.9681692487
 20
37.9286970325
 30
0.0
 10
74.9677452925
 20
37.9272550568
 30
0.0
 10
74.96751927439999
 20
37.926433089
 30
0.0
 10
74.96735925270001
 20
37.92579695100001
 30
0.0
 10
74.967262242
 20
37.9253103503
 30
0.0
 10
74.967227858
 20
37.9250458742
 30
0.0
 10
74.967238326
 20
37.9248655977
 30
0.0
 10
74.96727717129999
 20
37.9248506847
 30
0.0
  0
SPLINE
  5
23C6
330
222
100
AcDbEntity
  8
DEFAULT_2
  6
HIDDEN
 62
     8
100
AcDbSpline
210
0.0
220
0.0
230
1.0
 70
     8
 71
     3
 72
    14
 73
    10
 74
     0
 42
0.0000001
 43
0.0000000001
 40
0.0
 40
0.0
 40
0.0
 40
0.0
 40
0.2503626108
 40
0.3754452034
 40
0.5004618787
 40
0.6254159998
 40
0.7503177588
 40
0.8751762006999999
 40
1.0
 40
1.0
 40
1.0
 40
1.0
 10
71.25718275609999
 20
25.0350397966
 30
0.0
 10
71.35920500890001
 20
25.5198550818
 30
0.0
 10
71.5080760055
 20
26.2477477218
 30
0.0
 10
71.7077485497
 20
27.2177554861
 30
0.0
 10
71.860318273
 20
27.9440878078
 30
0.0
 10
72.01781463420001
 20
28.6690065412
 30
0.0
 10
72.1824596851
 20
29.3920215157
 30
0.0
 10
72.35582440439999
 20
30.1127336511
 30
0.0
 10
72.4779746497
 20
30.5915053089
 30
0.0
 10
72.54088862119999
 20
30.8303681054
 30
0.0
  0
LINE
  5
23C7
330
222
100
AcDbEntity
  8
DEFAULT_2
  6
HIDDEN
 62
     8
100
AcDbLine
 10
75.19768629649999
 20
38.5058702525
 30
0.0
 11
75.9222184419
 21
40.393323256
 31
0.0
  0
LINE
  5
23C8
330
222
100
AcDbEntity
  8
DEFAULT_2
  6
HIDDEN
 62
     8
100
AcDbLine
 10
64.32781693169999
 20
23.6825024156
 30
0.0
 11
29.6471650566
 21
24.5149186752
 31
0.0
  0
SPLINE
  5
23C9
330
222
100
AcDbEntity
  8
DEFAULT_2
  6
HIDDEN
 62
     8
100
AcDbSpline
210
0.0
220
0.0
230
1.0
 70
     8
 71
     3
 72
    19
 73
    15
 74
     0
 42
0.0000001
 43
0.0000000001
 40
0.0
 40
0.0
 40
0.0
 40
0.0
 40
0.0589432407
 40
0.1196875216
 40
0.181753816
 40
0.2447118384
 40
0.37204429
 40
0.5001055751
 40
0.6280796909000001
 40
0.7552236662000001
 40
0.8181051732
 40
0.8801388881000001
 40
0.9409231315999999
 40
1.0
 40
1.0
 40
1.0
 40
1.0
 10
71.2571827564
 20
25.035039798
 30
0.0
 10
71.2486327568
 20
24.9944097485
 30
0.0
 10
71.2311123943
 20
24.9119380284
 30
0.0
 10
71.20011371619999
 20
24.7876655827
 30
0.0
 10
71.16028864579999
 20
24.6628845965
 30
0.0
 10
71.09300681649999
 20
24.4981698081
 30
0.0
 10
70.9789417618
 20
24.3032135594
 30
0.0
 10
70.79574297169999
 20
24.1020532037
 30
0.0
 10
70.5743337992
 20
23.9442090082
 30
0.0
 10
70.3677271738
 20
23.8536904248
 30
0.0
 10
70.1966417599
 20
23.8056163791
 30
0.0
 10
70.0682165068
 20
23.7801206043
 30
0.0
 10
69.94114322109999
 20
23.7633044654
 30
0.0
 10
69.8570887279
 20
23.7552869835
 30
0.0
 10
69.8156491377
 20
23.7514805395
 30
0.0
  0
SPLINE
  5
23CA
330
222
100
AcDbEntity
  8
DEFAULT_2
  6
HIDDEN
 62
     8
100
AcDbSpline
210
0.0
220
0.0
230
1.0
 70
     8
 71
     3
 72
    15
 73
    11
 74
     0
 42
0.0000001
 43
0.0000000001
 40
0.0
 40
0.0
 40
0.0
 40
0.0
 40
0.2497246018
 40
0.3745832231
 40
0.4994606960000001
 40
0.6244297797999999
 40
0.7495776289000001
 40
0.8121880784
 40
0.8747958495
 40
1.0
 40
1.0
 40
1.0
 40
1.0
 10
73.4560365267
 20
33.8716515665
 30
0.0
 10
73.5369063656
 20
34.1095491959
 30
0.0
 10
73.6611635788
 20
34.4653985008
 30
0.0
 10
73.83271232439999
 20
34.9377620694
 30
0.0
 10
73.96433270060001
 20
35.2910657737
 30
0.0
 10
74.0986623825
 20
35.6436566819
 30
0.0
 10
74.2116263196
 20
35.9373393693
 30
0.0
 10
74.3020720848
 20
36.1724554073
 30
0.0
 10
74.39236640289999
 20
36.4076903304
 30
0.0
 10
74.45999736340001
 20
36.5841457146
 30
0.0
 10
74.5051182117
 20
36.7017656822
 30
0.0
  0
SPLINE
  5
23CB
330
222
100
AcDbEntity
  8
DEFAULT_2
  6
HIDDEN
 62
     8
100
AcDbSpline
210
0.0
220
0.0
230
1.0
 70
     8
 71
     3
 72
    50
 73
    46
 74
     0
 42
0.0000001
 43
0.0000000001
 40
0.0
 40
0.0
 40
0.0
 40
0.0
 40
0.0001997323
 40
0.00067035
 40
0.0014342829
 40
0.0024951553
 40
0.0038539294
 40
0.0055105462
 40
0.0097135542
 40
0.0150954585
 40
0.0216444788
 40
0.0293444531
 40
0.0381778655
 40
0.0481228947
 40
0.0591560413
 40
0.0843777677
 40
0.113600776
 40
0.146543836
 40
0.1828899997
 40
0.2222894203
 40
0.2643628497
 40
0.3087053948
 40
0.4024724821000001
 40
0.4999878378
 40
0.5975036744
 40
0.6912720106
 40
0.7356152392000001
 40
0.7776892463
 40
0.8170890870999999
 40
0.8534354747
 40
0.8863785593000001
 40
0.9156014521999999
 40
0.9408229480999999
 40
0.9518559867
 40
0.961800992
 40
0.9706344515000001
 40
0.9783345955999999
 40
0.9848839826999999
 40
0.9902665329000001
 40
0.9944706447999999
 40
0.9974878134999999
 40
0.9985502029
 40
0.9993163884999999
 40
0.9997908734000001
 40
1.0
 40
1.0
 40
1.0
 40
1.0
 10
74.85053063869999
 20
37.9696705143
 30
0.0
 10
74.8504917788
 20
37.9696854329
 30
0.0
 10
74.85048121030001
 20
37.969865701
 30
0.0
 10
74.85051556710001
 20
37.9701302452
 30
0.0
 10
74.8506124846
 20
37.97061685900001
 30
0.0
 10
74.850772435
 20
37.9712530374
 30
0.0
 10
74.8509983638
 20
37.9720750356
 30
0.0
 10
74.85142218899999
 20
37.9735170627
 30
0.0
 10
74.8521229624
 20
37.975753684
 30
0.0
 10
74.85316832949999
 20
37.9789490714
 30
0.0
 10
74.85447334369999
 20
37.9828267224
 30
0.0
 10
74.8560349106
 20
37.987376673
 30
0.0
 10
74.8578497159
 20
37.9925879846
 30
0.0
 10
74.8599135055
 20
37.9984480874
 30
0.0
 10
74.8631376266
 20
38.0075205385
 30
0.0
 10
74.86775353819999
 20
38.0203621024
 30
0.0
 10
74.8739711834
 20
38.0374799586
 30
0.0
 10
74.88103142209999
 20
38.0567582728
 30
0.0
 10
74.88886748759999
 20
38.078010962
 30
0.0
 10
74.8974053256
 20
38.1010328882
 30
0.0
 10
74.9065640636
 20
38.1256019045
 30
0.0
 10
74.91973512539999
 20
38.1607673297
 30
0.0
 10
74.93706076310001
 20
38.2067148533
 30
0.0
 10
74.9584490805
 20
38.2629734383
 30
0.0
 10
74.97999095229999
 20
38.3191736872
 30
0.0
 10
74.997698254
 20
38.36497603260001
 30
0.0
 10
75.01132520270001
 20
38.3999678861
 30
0.0
 10
75.02088330069999
 20
38.424384691
 30
0.0
 10
75.02987807460001
 20
38.4472322407
 30
0.0
 10
75.0382217944
 20
38.4682909586
 30
0.0
 10
75.04583269859999
 20
38.48735862650001
 30
0.0
 10
75.0526360276
 20
38.5042521935
 30
0.0
 10
75.0577823527
 20
38.51689045510001
 30
0.0
 10
75.0614503388
 20
38.525792626
 30
0.0
 10
75.0638358044
 20
38.5315293206
 30
0.0
 10
75.06597477539999
 20
38.5366161513
 30
0.0
 10
75.06786203539999
 20
38.5410413014
 30
0.0
 10
75.06949213689999
 20
38.5447935367
 30
0.0
 10
75.070861793
 20
38.54786622800001
 30
0.0
 10
75.0719634915
 20
38.55024737820001
 30
0.0
 10
75.07272903569999
 20
38.5518023989
 30
0.0
 10
75.07320570410001
 20
38.5526830023
 30
0.0
 10
75.0734664747
 20
38.5531038822
 30
0.0
 10
75.0736250517
 20
38.5533278444
 30
0.0
 10
75.0737615475
 20
38.5534458507
 30
0.0
 10
75.07380223520001
 20
38.5534302304
 30
0.0
  0
SPLINE
  5
23CC
330
222
100
AcDbEntity
  8
DEFAULT_2
  6
HIDDEN
 62
     8
100
AcDbSpline
210
0.0
220
0.0
230
1.0
 70
     8
 71
     3
 72
    15
 73
    11
 74
     0
 42
0.0000001
 43
0.0000000001
 40
0.0
 40
0.0
 40
0.0
 40
0.0
 40
0.1249656983
 40
0.2499436228
 40
0.3749298163000001
 40
0.4999268224000001
 40
0.6249348411
 40
0.7499514437000001
 40
0.8749712526999999
 40
1.0
 40
1.0
 40
1.0
 40
1.0
 10
28.7750435479
 20
25.39103889030001
 30
0.0
 10
28.4580369075
 20
26.0177251955
 30
0.0
 10
27.8236013669
 20
27.2709611855
 30
0.0
 10
26.8715941483
 20
29.1507264745
 30
0.0
 10
25.9196244467
 20
31.0307080117
 30
0.0
 10
24.9678608365
 20
32.9109834525
 30
0.0
 10
24.0161503599
 20
34.7914773197
 30
0.0
 10
23.0643095037
 20
36.6720488391
 30
0.0
 10
22.1119660288
 20
38.5524964838
 30
0.0
 10
21.4766680401
 20
39.8059566509
 30
0.0
 10
21.1589180687
 20
40.4326636914
 30
0.0
  0
SPLINE
  5
23CD
330
222
100
AcDbEntity
  8
DEFAULT_2
  6
HIDDEN
 62
     8
100
AcDbSpline
210
0.0
220
0.0
230
1.0
 70
     8
 71
     3
 72
    15
 73
    11
 74
     0
 42
0.0000001
 43
0.0000000001
 40
0.0
 40
0.0
 40
0.0
 40
0.0
 40
0.1253968636
 40
0.2506686341
 40
0.3758139089
 40
0.5008328853
 40
0.6257374803
 40
0.7505480722
 40
0.8752896508999999
 40
1.0
 40
1.0
 40
1.0
 40
1.0
 10
21.1589245399
 20
40.4326637703
 30
0.0
 10
21.151109728
 20
40.44772654259999
 30
0.0
 10
21.133422721
 20
40.4768164914
 30
0.0
 10
21.1012649621
 20
40.5164085709
 30
0.0
 10
21.0640657954
 20
40.55124630259999
 30
0.0
 10
21.0225175721
 20
40.5806733024
 30
0.0
 10
20.9773889381
 20
40.6041476251
 30
0.0
 10
20.9295120337
 20
40.621232544
 30
0.0
 10
20.8797854131
 20
40.63161235099999
 30
0.0
 10
20.8459825757
 20
40.63393335119999
 30
0.0
 10
20.8291061414
 20
40.63393335119999
 30
0.0
  0
LINE
  5
23CE
330
222
100
AcDbEntity
  8
0
  6
Continuous
 62
    40
100
AcDbLine
 10
77.2169246164
 20
38.7202377756
 30
0.0
 11
77.2183395859
 21
38.7391039351
 31
0.0
  0
LINE
  5
23CF
330
222
100
AcDbEntity
  8
0
  6
Continuous
 62
    40
100
AcDbLine
 10
77.2252436017
 20
38.9239922268
 30
0.0
 11
77.2245938187
 21
38.9155070118
 31
0.0
  0
LINE
  5
23D0
330
222
100
AcDbEntity
  8
0
  6
Continuous
 62
    40
100
AcDbLine
 10
77.222900146
 20
38.8929851382
 30
0.0
 11
77.2122621307
 21
38.7506234891
 31
0.0
  0
LINE
  5
23D1
330
222
100
AcDbEntity
  8
0
  6
Continuous
 62
    40
100
AcDbLine
 10
77.2122621309
 20
38.75062349170001
 30
0.0
 11
77.20167160789999
 21
38.6082618438
 31
0.0
  0
LINE
  5
23D2
330
222
100
AcDbEntity
  8
0
  6
Continuous
 62
    40
100
AcDbLine
 10
77.1998526209
 20
38.583641161
 30
0.0
 11
77.19939137739999
 21
38.5772547502
 31
0.0
  0
SPLINE
  5
23D3
330
222
100
AcDbEntity
  8
0
  6
Continuous
 62
     7
100
AcDbSpline
210
0.0
220
0.0
230
1.0
 70
     8
 71
     3
 72
    29
 73
    25
 74
     0
 42
0.0000001
 43
0.0000000001
 40
0.0
 40
0.0
 40
0.0
 40
0.0
 40
0.1912247249
 40
0.2846039456
 40
0.375340701
 40
0.462599101
 40
0.5455748855
 40
0.6235036262
 40
0.6956676017
 40
0.7614025990000001
 40
0.8201041984999999
 40
0.8712336825999999
 40
0.8938101407999999
 40
0.9143238796999998
 40
0.9327292545999998
 40
0.9489845167
 40
0.9630549313999999
 40
0.9749105380999999
 40
0.9845300952
 40
0.9919011171999999
 40
0.9947453334999998
 40
0.9970332575
 40
0.9987756213999999
 40
1.0
 40
1.0
 40
1.0
 40
1.0
 10
77.1973226536
 20
38.750979964
 30
0.0
 10
77.2006360913
 20
38.7946138019
 30
0.0
 10
77.2054046338
 20
38.8595675508
 30
0.0
 10
77.21135353200001
 20
38.94525354280001
 30
0.0
 10
77.2154830059
 20
39.007216925
 30
0.0
 10
77.2192779508
 20
39.0668163613
 30
0.0
 10
77.2227035657
 20
39.1235021391
 30
0.0
 10
77.22572868260001
 20
39.176751317
 30
0.0
 10
77.22832593060001
 20
39.2260726992
 30
0.0
 10
77.23047243599999
 20
39.2710113531
 30
0.0
 10
77.23214926549999
 20
39.3111527753
 30
0.0
 10
77.23318471109999
 20
39.34143541440001
 30
0.0
 10
77.23374720799999
 20
39.3629892211
 30
0.0
 10
77.2340256371
 20
39.3770590995
 30
0.0
 10
77.23417861779999
 20
39.3896843022
 30
0.0
 10
77.2342062881
 20
39.4008360302
 30
0.0
 10
77.2341093047
 20
39.4104884514
 30
0.0
 10
77.23389046859999
 20
39.4186204814
 30
0.0
 10
77.2335505291
 20
39.4252130627
 30
0.0
 10
77.23315080919999
 20
39.4297374671
 30
0.0
 10
77.23273838049999
 20
39.4325690816
 30
0.0
 10
77.2324284969
 20
39.434113695
 30
0.0
 10
77.2320934224
 20
39.43526783780001
 30
0.0
 10
77.23180883339999
 20
39.4358941168
 30
0.0
 10
77.23164475149999
 20
39.4361212298
 30
0.0
  0
LINE
  5
23D4
330
222
100
AcDbEntity
  8
0
  6
Continuous
 62
     7
100
AcDbLine
 10
77.1973226536
 20
38.750979964
 30
0.0
 11
77.1972405731
 21
38.7498993672
 31
0.0
  0
SPLINE
  5
23D5
330
222
100
AcDbEntity
  8
0
  6
Continuous
 62
     7
100
AcDbSpline
210
0.0
220
0.0
230
1.0
 70
     8
 71
     3
 72
    29
 73
    25
 74
     0
 42
0.0000001
 43
0.0000000001
 40
0.0
 40
0.0
 40
0.0
 40
0.0
 40
0.1911022697
 40
0.2844485392
 40
0.3751680547
 40
0.4624224692000001
 40
0.5454049676000001
 40
0.6233486116
 40
0.6955332385
 40
0.7612923116000001
 40
0.8200192437999998
 40
0.8711733452
 40
0.8937612934
 40
0.9142856981999999
 40
0.9327007449999999
 40
0.9489645387999999
 40
0.9630421627
 40
0.9749035925000001
 40
0.9845273901
 40
0.9919010806999999
 40
0.9947459804999999
 40
0.997034099
 40
0.9987762564
 40
1.0
 40
1.0
 40
1.0
 40
1.0
 10
77.1972405731
 20
38.7498993672
 30
0.0
 10
77.19391926109999
 20
38.7061861155
 30
0.0
 10
77.18881206589999
 20
38.6411328297
 30
0.0
 10
77.1817354809
 20
38.5553598751
 30
0.0
 10
77.176445833
 20
38.4933435638
 30
0.0
 10
77.17118186020001
 20
38.433711425
 30
0.0
 10
77.165992468
 20
38.3770151918
 30
0.0
 10
77.16092611319999
 20
38.3237795137
 30
0.0
 10
77.15603020899999
 20
38.2744969527
 30
0.0
 10
77.15135113149999
 20
38.2296233754
 30
0.0
 10
77.14693303539999
 20
38.1895738793
 30
0.0
 10
77.1433725408
 20
38.15939405530001
 30
0.0
 10
77.14066546249999
 20
38.1379391376
 30
0.0
 10
77.1388104008
 20
38.123946947
 30
0.0
 10
77.13704988189999
 20
38.1114060396
 30
0.0
 10
77.1353884217
 20
38.1003450442
 30
0.0
 10
77.13383058479999
 20
38.0907895484
 30
0.0
 10
77.1323823692
 20
38.0827601162
 30
0.0
 10
77.1310473897
 20
38.07627557510001
 30
0.0
 10
77.1299664508
 20
38.0718507288
 30
0.0
 10
77.1291292835
 20
38.0691062144
 30
0.0
 10
77.1285885779
 20
38.0676222175
 30
0.0
 10
77.1280820998
 20
38.0665292663
 30
0.0
 10
77.1277054931
 20
38.0659517916
 30
0.0
 10
77.1275085972
 20
38.0657516894
 30
0.0
  0
SPLINE
  5
23D6
330
222
100
AcDbEntity
  8
0
  6
Continuous
 62
     7
100
AcDbSpline
210
0.0
220
0.0
230
1.0
 70
     8
 71
     3
 72
    33
 73
    29
 74
     0
 42
0.0000001
 43
0.0000000001
 40
0.0
 40
0.0
 40
0.0
 40
0.0
 40
0.0003269532
 40
0.0006903809
 40
0.0011409298
 40
0.0017063018
 40
0.0032297376
 40
0.0053144821
 40
0.0079778013
 40
0.0112270153
 40
0.0150649485
 40
0.0194918301
 40
0.0245068379
 40
0.0301084869
 40
0.0430604073
 40
0.0583211728
 40
0.0758566645
 40
0.1175837361
 40
0.1678477949
 40
0.2261677997
 40
0.2919828585
 40
0.3646585662
 40
0.4434935697000001
 40
0.5277265564000001
 40
0.6165438257
 40
0.7090869279000001
 40
0.8044621132999999
 40
1.0
 40
1.0
 40
1.0
 40
1.0
 10
77.0176241464
 20
38.0110926724
 30
0.0
 10
77.01754311260001
 20
38.0110821453
 30
0.0
 10
77.0173640256
 20
38.0111009215
 30
0.0
 10
77.0171175972
 20
38.0112575092
 30
0.0
 10
77.0168916935
 20
38.01152165739999
 30
0.0
 10
77.0165738815
 20
38.0120735763
 30
0.0
 10
77.01622734060001
 20
38.0130639577
 30
0.0
 10
77.01586769149999
 20
38.014589782
 30
0.0
 10
77.0155397428
 20
38.0165629429
 30
0.0
 10
77.01524358569999
 20
38.0189820774
 30
0.0
 10
77.0149813646
 20
38.0218481801
 30
0.0
 10
77.01475360679999
 20
38.025159536
 30
0.0
 10
77.01456091939999
 20
38.0289145495
 30
0.0
 10
77.0143407692
 20
38.0348010168
 30
0.0
 10
77.01417162040001
 20
38.0432510414
 30
0.0
 10
77.0141172103
 20
38.05468491820001
 30
0.0
 10
77.0142439925
 20
38.0733102582
 30
0.0
 10
77.0148077892
 20
38.1006792902
 30
0.0
 10
77.01600520220001
 20
38.1382275546
 30
0.0
 10
77.0177578256
 20
38.18177988889999
 30
0.0
 10
77.0200502154
 20
38.2309151489
 30
0.0
 10
77.02286275739999
 20
38.2851582077
 30
0.0
 10
77.026169255
 20
38.3439843822
 30
0.0
 10
77.02993855459999
 20
38.4068246628
 30
0.0
 10
77.03413471240001
 20
38.473071136
 30
0.0
 10
77.0387174204
 20
38.54208312300001
 30
0.0
 10
77.04533971869999
 20
38.6376904383
 30
0.0
 10
77.05065897029999
 20
38.7102032748
 30
0.0
 10
77.0543593992
 20
38.7589333023
 30
0.0
  0
SPLINE
  5
23D7
330
222
100
AcDbEntity
  8
0
  6
Continuous
 62
     7
100
AcDbSpline
210
0.0
220
0.0
230
1.0
 70
     8
 71
     3
 72
    32
 73
    28
 74
     0
 42
0.0000001
 43
0.0000000001
 40
0.0
 40
0.0
 40
0.0
 40
0.0
 40
0.0007174255
 40
0.0012144992
 40
0.0018328871
 40
0.0034696071
 40
0.0056689479
 40
0.0084449071
 40
0.011803546
 40
0.0157471801
 40
0.0202756745
 40
0.0310820398
 40
0.0442060338
 40
0.059619956
 40
0.0772900987
 40
0.0971752807
 40
0.1192294503
 40
0.1696301415
 40
0.228013343
 40
0.2938214518
 40
0.3664245585
 40
0.4451269107
 40
0.5291737927
 40
0.6177589688000001
 40
0.7100322882
 40
0.8051085468
 40
1.0
 40
1.0
 40
1.0
 40
1.0
 10
77.1286153231
 20
38.0878919116
 30
0.0
 10
77.1284568224
 20
38.0879039608
 30
0.0
 10
77.12821038439999
 20
38.0880762615
 30
0.0
 10
77.1279811607
 20
38.0884069978
 30
0.0
 10
77.12770449439999
 20
38.0889544613
 30
0.0
 10
77.12740564169999
 20
38.0898982796
 30
0.0
 10
77.12709252350001
 20
38.09133029130001
 30
0.0
 10
77.12680880979999
 20
38.0931557997
 30
0.0
 10
77.1265530446
 20
38.0953744321
 30
0.0
 10
77.1263274185
 20
38.0979863051
 30
0.0
 10
77.1260508463
 20
38.1022490537
 30
0.0
 10
77.1258038866
 20
38.1085506586
 30
0.0
 10
77.1256425464
 20
38.1172668924
 30
0.0
 10
77.12560612449999
 20
38.1275053357
 30
0.0
 10
77.1256953455
 20
38.1392414202
 30
0.0
 10
77.1259108568
 20
38.1524473128
 30
0.0
 10
77.12638881640001
 20
38.1729013914
 30
0.0
 10
77.12732472929999
 20
38.2018762535
 30
0.0
 10
77.12888860779999
 20
38.2405287808
 30
0.0
 10
77.130928242
 20
38.2840845013
 30
0.0
 10
77.1334250021
 20
38.3321250954
 30
0.0
 10
77.13635616739999
 20
38.3841891662
 30
0.0
 10
77.13969417920001
 20
38.4397766276
 30
0.0
 10
77.14340745850001
 20
38.4983535095
 30
0.0
 10
77.1474605688
 20
38.5593572173
 30
0.0
 10
77.1533148289
 20
38.6438468193
 30
0.0
 10
77.1580157154
 20
38.7079223629
 30
0.0
 10
77.16128539520001
 20
38.750979964
 30
0.0
  0
SPLINE
  5
23D8
330
222
100
AcDbEntity
  8
0
  6
Continuous
 62
     7
100
AcDbSpline
210
0.0
220
0.0
230
1.0
 70
     8
 71
     3
 72
    33
 73
    29
 74
     0
 42
0.0000001
 43
0.0000000001
 40
0.0
 40
0.0
 40
0.0
 40
0.0
 40
0.0003264782
 40
0.000689632
 40
0.0011401865
 40
0.0017058197
 40
0.0032304911
 40
0.0053173322
 40
0.0079834806
 40
0.0112361679
 40
0.0150782723
 40
0.0195099909
 40
0.0245304254
 40
0.0301380573
 40
0.0431037171
 40
0.0583802029
 40
0.0759332902
 40
0.1176998139
 40
0.1680069715
 40
0.2263707993
 40
0.2922270744
 40
0.3649377145
 40
0.4437974124000001
 40
0.5280406986
 40
0.6168495882000001
 40
0.7093613034999999
 40
0.8046778107999999
 40
1.0
 40
1.0
 40
1.0
 40
1.0
 10
77.13128163260001
 20
39.50675725030001
 30
0.0
 10
77.1312029165
 20
39.5067799563
 30
0.0
 10
77.1310224753
 20
39.5067883468
 30
0.0
 10
77.1307544967
 20
39.5066699351
 30
0.0
 10
77.13049058500001
 20
39.5064416225
 30
0.0
 10
77.13009186329999
 20
39.5059412221
 30
0.0
 10
77.1295982221
 20
39.505009537
 30
0.0
 10
77.1290103541
 20
39.50354780940001
 30
0.0
 10
77.12838604419999
 20
39.5016367922
 30
0.0
 10
77.12772557920001
 20
39.49927784150001
 30
0.0
 10
77.1270309657
 20
39.4964696449
 30
0.0
 10
77.12630297629999
 20
39.4932138333
 30
0.0
 10
77.1255424565
 20
39.4895119297
 30
0.0
 10
77.12443143779999
 20
39.4836964202
 30
0.0
 10
77.1229821899
 20
39.475326212
 30
0.0
 10
77.12119412539999
 20
39.4639741732
 30
0.0
 10
77.1184951108
 20
39.4454505115
 30
0.0
 10
77.11490341040001
 20
39.41817544780001
 30
0.0
 10
77.11039643710001
 20
39.3806946527
 30
0.0
 10
77.1055299088
 20
39.337170084
 30
0.0
 10
77.10035262079999
 20
39.2880245491
 30
0.0
 10
77.09491742209999
 20
39.23373533
 30
0.0
 10
77.0892781566
 20
39.1748301007
 30
0.0
 10
77.08349047289999
 20
39.1118814357
 30
0.0
 10
77.0776111636
 20
39.0455013438
 30
0.0
 10
77.07169765039999
 20
38.9763350491
 30
0.0
 10
77.06378028479999
 20
38.8805148389
 30
0.0
 10
77.0580706758
 20
38.807806181
 30
0.0
 10
77.0543593992
 20
38.7589333023
 30
0.0
  0
SPLINE
  5
23D9
330
222
100
AcDbEntity
  8
0
  6
Continuous
 62
     7
100
AcDbSpline
210
0.0
220
0.0
230
1.0
 70
     8
 71
     3
 72
    32
 73
    28
 74
     0
 42
0.0000001
 43
0.0000000001
 40
0.0
 40
0.0
 40
0.0
 40
0.0
 40
0.0007168423
 40
0.0012138878
 40
0.0018324145
 40
0.0034699443
 40
0.0056707549
 40
0.0084487464
 40
0.0118099012
 40
0.0157565942
 40
0.0202886886
 40
0.0311036051
 40
0.0442379765
 40
0.0596638414
 40
0.077347412
 40
0.0972471867
 40
0.1193169997
 40
0.1697508585
 40
0.2281678814
 40
0.2940078794
 40
0.3666380921
 40
0.4453597022000001
 40
0.5294147696
 40
0.6179937397
 40
0.7102430895000001
 40
0.8052743403
 40
1.0
 40
1.0
 40
1.0
 40
1.0
 10
77.229393215
 20
39.4140680163
 30
0.0
 10
77.2292343445
 20
39.4140800937
 30
0.0
 10
77.22896405180001
 20
39.4139463314
 30
0.0
 10
77.22868699660001
 20
39.4136529342
 30
0.0
 10
77.2283299502
 20
39.4131515207
 30
0.0
 10
77.2278909285
 20
39.4122601251
 30
0.0
 10
77.2273637668
 20
39.4108863809
 30
0.0
 10
77.2268060965
 20
39.4091176383
 30
0.0
 10
77.2262165132
 20
39.4069544993
 30
0.0
 10
77.22559719590001
 20
39.40439651070001
 30
0.0
 10
77.2246772295
 20
39.4002078063
 30
0.0
 10
77.22347760689999
 20
39.3939911914
 30
0.0
 10
77.2219968997
 20
39.38536532150001
 30
0.0
 10
77.2204092638
 20
39.37520998530001
 30
0.0
 10
77.2187191812
 20
39.3635495727
 30
0.0
 10
77.21693150510001
 20
39.3504116999
 30
0.0
 10
77.21430559419999
 20
39.330042088
 30
0.0
 10
77.21084239060001
 20
39.30114929070001
 30
0.0
 10
77.2065352154
 20
39.2625610016
 30
0.0
 10
77.2019569365
 20
39.21903978280001
 30
0.0
 10
77.19715265399999
 20
39.1710051559
 30
0.0
 10
77.19216994159999
 20
39.1189201238
 30
0.0
 10
77.187057442
 20
39.0632868926
 30
0.0
 10
77.18186494390001
 20
39.00464194739999
 30
0.0
 10
77.17664274180001
 20
38.9435507552
 30
0.0
 10
77.1696511983
 20
38.8589324482
 30
0.0
 10
77.164608464
 20
38.7947269898
 30
0.0
 10
77.1613302569
 20
38.7515706434
 30
0.0
  0
LINE
  5
23DA
330
222
100
AcDbEntity
  8
0
  6
Continuous
 62
     7
100
AcDbLine
 10
77.1613302569
 20
38.7515706434
 30
0.0
 11
77.16128539520001
 21
38.750979964
 31
0.0
  0
SPLINE
  5
23DB
330
222
100
AcDbEntity
  8
0
  6
Continuous
 62
     7
100
AcDbSpline
210
0.0
220
0.0
230
1.0
 70
     8
 71
     3
 72
    29
 73
    25
 74
     0
 42
0.0000001
 43
0.0000000001
 40
0.0
 40
0.0
 40
0.0
 40
0.0
 40
0.2065974474
 40
0.3048098884
 40
0.3987288094
 40
0.4877129070000001
 40
0.5711547327000001
 40
0.6484850111
 40
0.7191765656
 40
0.7827480613
 40
0.8387675698
 40
0.8868560409
 40
0.9266909954
 40
0.9434292668999999
 40
0.9580121204000001
 40
0.9704173404
 40
0.9806300825
 40
0.9849119906
 40
0.9886439854999998
 40
0.9918279509999999
 40
0.9944681263999999
 40
0.9965729136
 40
0.9981604027999999
 40
1.0
 40
1.0
 40
1.0
 40
1.0
 10
77.2084251613
 20
38.9120714767
 30
0.0
 10
77.21081881180001
 20
38.946639235
 30
0.0
 10
77.2142356156
 20
38.997647932
 30
0.0
 10
77.218441393
 20
39.064390427
 30
0.0
 10
77.2212735407
 20
39.1114540593
 30
0.0
 10
77.22381811169999
 20
39.1560529777
 30
0.0
 10
77.2260579281
 20
39.19788227290001
 30
0.0
 10
77.2279780571
 20
39.2366559736
 30
0.0
 10
77.2295659777
 20
39.2721090349
 30
0.0
 10
77.23081154609999
 20
39.3039991184
 30
0.0
 10
77.2317081031
 20
39.3321083792
 30
0.0
 10
77.2322504847
 20
39.3562447569
 30
0.0
 10
77.2324199329
 20
39.373798742
 30
0.0
 10
77.23234739369999
 20
39.38573306889999
 30
0.0
 10
77.2322067595
 20
39.3930657923
 30
0.0
 10
77.2319778371
 20
39.3993012982
 30
0.0
 10
77.2317031272
 20
39.4038052853
 30
0.0
 10
77.2314252563
 20
39.40685011
 30
0.0
 10
77.2312080895
 20
39.408715237
 30
0.0
 10
77.2309684026
 20
39.41030229760001
 30
0.0
 10
77.23071282689999
 20
39.4116024299
 30
0.0
 10
77.23042618779999
 20
39.4126419743
 30
0.0
 10
77.2301097491
 20
39.4134705206
 30
0.0
 10
77.22970086460001
 20
39.4140446288
 30
0.0
 10
77.229393215
 20
39.4140680163
 30
0.0
  0
LINE
  5
23DC
330
222
100
AcDbEntity
  8
0
  6
Continuous
 62
     7
100
AcDbLine
 10
77.1967231428
 20
38.750979964
 30
0.0
 11
77.1966445563
 21
38.7499453623
 31
0.0
  0
SPLINE
  5
23DD
330
222
100
AcDbEntity
  8
0
  6
Continuous
 62
     7
100
AcDbSpline
210
0.0
220
0.0
230
1.0
 70
     8
 71
     3
 72
    29
 73
    25
 74
     0
 42
0.0000001
 43
0.0000000001
 40
0.0
 40
0.0
 40
0.0
 40
0.0
 40
0.2065973886
 40
0.3048099033
 40
0.3987289401
 40
0.4877131951
 40
0.5711551749
 40
0.6484855856000001
 40
0.7191772412999999
 40
0.7827488031000001
 40
0.8387683423
 40
0.8868568118
 40
0.9266917378
 40
0.9434299638
 40
0.9580127884999999
 40
0.9704178752
 40
0.9806305871999999
 40
0.9849124139
 40
0.9886443098
 40
0.9918282356
 40
0.9944683854
 40
0.9965731168999999
 40
0.9981604912999999
 40
1.0
 40
1.0
 40
1.0
 40
1.0
 10
77.18374534739999
 20
38.5872992712
 30
0.0
 10
77.18088795220001
 20
38.5527662896
 30
0.0
 10
77.1765575503
 20
38.5018263168
 30
0.0
 10
77.17062951189999
 20
38.4352137624
 30
0.0
 10
77.1663173023
 20
38.3882618989
 30
0.0
 10
77.16209326100001
 20
38.343789923
 30
0.0
 10
77.15798648189999
 20
38.3021018533
 30
0.0
 10
77.1540254186
 20
38.26348265
 30
0.0
 10
77.1502377459
 20
38.2281962151
 30
0.0
 10
77.14665005659999
 20
38.1964836429
 30
0.0
 10
77.1432886879
 20
38.1685612859
 30
0.0
 10
77.14017755589999
 20
38.14461978110001
 30
0.0
 10
77.13769245029999
 20
38.12724153860001
 30
0.0
 10
77.1358173233
 20
38.1154550722
 30
0.0
 10
77.134570251
 20
38.1082277367
 30
0.0
 10
77.1334016883
 20
38.1020983764
 30
0.0
 10
77.1324495379
 20
38.0976875987
 30
0.0
 10
77.1317147457
 20
38.0947197224
 30
0.0
 10
77.1312182253
 20
38.0929088428
 30
0.0
 10
77.13074146949999
 20
38.09137623170001
 30
0.0
 10
77.1302923643
 20
38.0901296518
 30
0.0
 10
77.1298519365
 20
38.0891453764
 30
0.0
 10
77.12941391609999
 20
38.0883741996
 30
0.0
 10
77.1289229621
 20
38.0878685249
 30
0.0
 10
77.1286153231
 20
38.0878919116
 30
0.0
  0
LINE
  5
23DE
330
222
100
AcDbEntity
  8
0
  6
Continuous
 62
     7
100
AcDbLine
 10
77.20329515819999
 20
38.9103411873
 30
0.0
 11
77.20336298319999
 21
38.9113196691
 31
0.0
  0
LINE
  5
23DF
330
222
100
AcDbEntity
  8
0
  6
Continuous
 62
     7
100
AcDbLine
 10
77.20336298319999
 20
38.9113196691
 30
0.0
 11
77.2034390523
 21
38.9124178101
 31
0.0
  0
SPLINE
  5
23E0
330
222
100
AcDbEntity
  8
0
  6
Continuous
 62
     7
100
AcDbSpline
210
0.0
220
0.0
230
1.0
 70
     8
 71
     3
 72
    19
 73
    15
 74
     0
 42
0.0000001
 43
0.0000000001
 40
0.0
 40
0.0
 40
0.0
 40
0.0
 40
0.1877333581
 40
0.3642435355
 40
0.5256943032
 40
0.6685778735
 40
0.7897930458
 40
0.841435107
 40
0.8867169374999999
 40
0.9253959003
 40
0.9572681577999999
 40
0.9821721286
 40
0.9919745970999999
 40
1.0
 40
1.0
 40
1.0
 40
1.0
 10
77.2034390523
 20
38.9124178101
 30
0.0
 10
77.2055825642
 20
38.9433725665
 30
0.0
 10
77.20961989439999
 20
39.003440041
 30
0.0
 10
77.2150527287
 20
39.0901579724
 30
0.0
 10
77.2196061609
 20
39.1695026856
 30
0.0
 10
77.2231834487
 20
39.239747688
 30
0.0
 10
77.2254035799
 20
39.2918876947
 30
0.0
 10
77.22658695949999
 20
39.327922972
 30
0.0
 10
77.22714253939999
 20
39.350329001
 30
0.0
 10
77.22741637919999
 20
39.3694727569
 30
0.0
 10
77.22740713430001
 20
39.3852501265
 30
0.0
 10
77.2271631033
 20
39.39625388159999
 30
0.0
 10
77.22678338850001
 20
39.4033069374
 30
0.0
 10
77.2265400845
 20
39.4062443447
 30
0.0
 10
77.2263975988
 20
39.4075631217
 30
0.0
  0
LINE
  5
23E1
330
222
100
AcDbEntity
  8
0
  6
Continuous
 62
     7
100
AcDbLine
 10
77.1789357695
 20
38.5897855378
 30
0.0
 11
77.17885478560001
 21
38.5888059627
 31
0.0
  0
LINE
  5
23E2
330
222
100
AcDbEntity
  8
0
  6
Continuous
 62
     7
100
AcDbLine
 10
77.17885478560001
 20
38.5888059627
 30
0.0
 11
77.1787641102
 21
38.5877097668
 31
0.0
  0
SPLINE
  5
23E3
330
222
100
AcDbEntity
  8
0
  6
Continuous
 62
     7
100
AcDbSpline
210
0.0
220
0.0
230
1.0
 70
     8
 71
     3
 72
    19
 73
    15
 74
     0
 42
0.0000001
 43
0.0000000001
 40
0.0
 40
0.0
 40
0.0
 40
0.0
 40
0.1877976704
 40
0.36436145
 40
0.5258501603
 40
0.6687520721000001
 40
0.7899624864
 40
0.8415927910999998
 40
0.8868563901999999
 40
0.9255104114999999
 40
0.9573509887
 40
0.9822166704
 40
0.9919976725999999
 40
1.0
 40
1.0
 40
1.0
 40
1.0
 10
77.1787641102
 20
38.5877097668
 30
0.0
 10
77.17620426739999
 20
38.55677232260001
 30
0.0
 10
77.17111615500001
 20
38.4967580426
 30
0.0
 10
77.1633792057
 20
38.41017911210001
 30
0.0
 10
77.15588749529999
 20
38.3310300937
 30
0.0
 10
77.1488065253
 20
38.26103451690001
 30
0.0
 10
77.1431205925
 20
38.2091514497
 30
0.0
 10
77.1388440777
 20
38.1733527755
 30
0.0
 10
77.1360072673
 20
38.151126605
 30
0.0
 10
77.13338522419999
 20
38.1321714989
 30
0.0
 10
77.130992358
 20
38.1165906328
 30
0.0
 10
77.1290888068
 20
38.1057640423
 30
0.0
 10
77.1276479939
 20
38.0988624217
 30
0.0
 10
77.1269638067
 20
38.0960026669
 30
0.0
 10
77.12662371489999
 20
38.0947243395
 30
0.0
  0
SPLINE
  5
23E4
330
222
100
AcDbEntity
  8
0
  6
Continuous
 62
     7
100
AcDbSpline
210
0.0
220
0.0
230
1.0
 70
     8
 71
     3
 72
    35
 73
    31
 74
     0
 42
0.0000001
 43
0.0000000001
 40
0.0
 40
0.0
 40
0.0
 40
0.0
 40
0.0008151864
 40
0.0011471572
 40
0.0015130938
 40
0.0019673636
 40
0.0025396208
 40
0.0040890801
 40
0.0062183415
 40
0.0089455589
 40
0.0122776363
 40
0.0162172141
 40
0.0207649887
 40
0.0259200277
 40
0.0380422854
 40
0.052561077
 40
0.0694431426
 40
0.0886492992
 40
0.1101324362
 40
0.1338405657
 40
0.159714752
 40
0.1876913105
 40
0.2177005812
 40
0.2835140311
 40
0.3564999554999999
 40
0.4359307439000001
 40
0.5210139444
 40
0.6109004221000001
 40
0.8014544087
 40
1.0
 40
1.0
 40
1.0
 40
1.0
 10
77.1275085972
 20
38.0657516894
 30
0.0
 10
77.12737749909999
 20
38.0656184564
 30
0.0
 10
77.1271474217
 20
38.065437627
 30
0.0
 10
77.12678682519999
 20
38.065461027
 30
0.0
 10
77.1265553372
 20
38.0656029188
 30
0.0
 10
77.12634460229999
 20
38.0658462116
 30
0.0
 10
77.12604784319999
 20
38.0663595014
 30
0.0
 10
77.1257253887
 20
38.0672855566
 30
0.0
 10
77.125391198
 20
38.0687160512
 30
0.0
 10
77.1250871406
 20
38.0705702762
 30
0.0
 10
77.12481306569999
 20
38.07284676270001
 30
0.0
 10
77.1245711226
 20
38.0755464277
 30
0.0
 10
77.1243618015
 20
38.0786676919
 30
0.0
 10
77.12411375810001
 20
38.08366607489999
 30
0.0
 10
77.12390674640001
 20
38.0909544631
 30
0.0
 10
77.12380108720001
 20
38.1009337419
 30
0.0
 10
77.12383038279999
 20
38.1125378017
 30
0.0
 10
77.123995203
 20
38.1257376327
 30
0.0
 10
77.1242959179
 20
38.1405005628
 30
0.0
 10
77.12473222709999
 20
38.1567896102
 30
0.0
 10
77.1253032939
 20
38.1745642037
 30
0.0
 10
77.12600787789999
 20
38.1937798479
 30
0.0
 10
77.1271593469
 20
38.2221428306
 30
0.0
 10
77.1289327928
 20
38.26080906820001
 30
0.0
 10
77.13149465419999
 20
38.3107822387
 30
0.0
 10
77.1345275405
 20
38.365154906
 30
0.0
 10
77.13800157770001
 20
38.42338369610001
 30
0.0
 10
77.1432805818
 20
38.5070293712
 30
0.0
 10
77.1507159625
 20
38.6166061266
 30
0.0
 10
77.1572387554
 20
38.7055855781
 30
0.0
 10
77.16068588449999
 20
38.750979964
 30
0.0
  0
SPLINE
  5
23E5
330
222
100
AcDbEntity
  8
0
  6
Continuous
 62
     7
100
AcDbSpline
210
0.0
220
0.0
230
1.0
 70
     8
 71
     3
 72
    35
 73
    31
 74
     0
 42
0.0000001
 43
0.0000000001
 40
0.0
 40
0.0
 40
0.0
 40
0.0
 40
0.0008138888
 40
0.0011454694
 40
0.0015114239
 40
0.0019661027
 40
0.0025390663
 40
0.0040905826
 40
0.0062225173
 40
0.0089529855
 40
0.0122888821
 40
0.0162327601
 40
0.0207852499
 40
0.0259454907
 40
0.0380794373
 40
0.0526114022
 40
0.069508016
 40
0.088729852
 40
0.1102295618
 40
0.1339549477
 40
0.1598467242
 40
0.1878409999
 40
0.2178676956
 40
0.2837139625
 40
0.356727481
 40
0.4361775192000001
 40
0.5212683393999999
 40
0.6111474181000001
 40
0.8016279062999998
 40
1.0
 40
1.0
 40
1.0
 40
1.0
 10
77.23164475149999
 20
39.4361212298
 30
0.0
 10
77.2315351233
 20
39.4362729711
 30
0.0
 10
77.2313345042
 20
39.4364869088
 30
0.0
 10
77.23097365200001
 20
39.4365174603
 30
0.0
 10
77.23072290320001
 20
39.4364111309
 30
0.0
 10
77.2304773356
 20
39.4362011333
 30
0.0
 10
77.23010558899999
 20
39.43573595650001
 30
0.0
 10
77.22964585149999
 20
39.434864985
 30
0.0
 10
77.22909798649999
 20
39.43349505309999
 30
0.0
 10
77.2285157658
 20
39.4317000423
 30
0.0
 10
77.2278992536
 20
39.4294814311
 30
0.0
 10
77.2272504397
 20
39.4268380186
 30
0.0
 10
77.226570044
 20
39.4237713077
 30
0.0
 10
77.22556684369999
 20
39.418847384
 30
0.0
 10
77.22425725479999
 20
39.4116445316
 30
0.0
 10
77.22264028880001
 20
39.4017558935
 30
0.0
 10
77.22091084039999
 20
39.39023477550001
 30
0.0
 10
77.21907387909999
 20
39.3771099882
 30
0.0
 10
77.2171347403
 20
39.3624140282
 30
0.0
 10
77.2150987552
 20
39.3461837917
 30
0.0
 10
77.21297125159999
 20
39.3284598109
 30
0.0
 10
77.2107577764
 20
39.3092866159
 30
0.0
 10
77.2076012866
 20
39.2809716736
 30
0.0
 10
77.20350030839999
 20
39.2423434793
 30
0.0
 10
77.19846792689999
 20
39.1923834137
 30
0.0
 10
77.1932364889
 20
39.137995203
 30
0.0
 10
77.1878589085
 20
39.0797244277
 30
0.0
 10
77.1804221078
 20
38.9959979281
 30
0.0
 10
77.1711981646
 20
38.8862728531
 30
0.0
 10
77.1641899122
 20
38.79710872869999
 30
0.0
 10
77.16073395689999
 20
38.751612915
 30
0.0
  0
LINE
  5
23E6
330
222
100
AcDbEntity
  8
0
  6
Continuous
 62
     7
100
AcDbLine
 10
77.16073395689999
 20
38.751612915
 30
0.0
 11
77.16068588449999
 21
38.750979964
 31
0.0
  0
SPLINE
  5
23E7
330
222
100
AcDbEntity
  8
0
  6
Continuous
 62
    40
100
AcDbSpline
210
0.0
220
0.0
230
1.0
 70
     8
 71
     3
 72
    12
 73
     8
 74
     0
 42
0.0000001
 43
0.0000000001
 40
0.0
 40
0.0
 40
0.0
 40
0.0
 40
0.1138249509
 40
0.2719586158
 40
0.4736488813000001
 40
0.7766479667000001
 40
1.0
 40
1.0
 40
1.0
 40
1.0
 10
77.2021116662
 20
38.8565208723
 30
0.0
 10
77.201854548
 20
38.8535631157
 30
0.0
 10
77.20123752479999
 20
38.8465376129
 30
0.0
 10
77.2001626674
 20
38.8341442049
 30
0.0
 10
77.1986554537
 20
38.8155470791
 30
0.0
 10
77.19716385560001
 20
38.79495065349999
 30
0.0
 10
77.19616043960001
 20
38.7804719289
 30
0.0
 10
77.1958026888
 20
38.7747728623
 30
0.0
  0
SPLINE
  5
23E8
330
222
100
AcDbEntity
  8
0
  6
Continuous
 62
    40
100
AcDbSpline
210
0.0
220
0.0
230
1.0
 70
     8
 71
     3
 72
    12
 73
     8
 74
     0
 42
0.0000001
 43
0.0000000001
 40
0.0
 40
0.0
 40
0.0
 40
0.0
 40
0.183280726
 40
0.3698978289
 40
0.5702935269000001
 40
0.8291169523
 40
1.0
 40
1.0
 40
1.0
 40
1.0
 10
77.1949720317
 20
38.7719500078
 30
0.0
 10
77.19530283800001
 20
38.7772198413
 30
0.0
 10
77.19607887489999
 20
38.7886221474
 30
0.0
 10
77.1975109573
 20
38.8069374732
 30
0.0
 10
77.1991624046
 20
38.82624789320001
 30
0.0
 10
77.2007524645
 20
38.8435231579
 30
0.0
 10
77.2017418361
 20
38.853152739
 30
0.0
 10
77.2021116662
 20
38.8565208723
 30
0.0
  0
SPLINE
  5
23E9
330
222
100
AcDbEntity
  8
0
  6
Continuous
 62
    40
100
AcDbSpline
210
0.0
220
0.0
230
1.0
 70
     8
 71
     3
 72
    12
 73
     8
 74
     0
 42
0.0000001
 43
0.0000000001
 40
0.0
 40
0.0
 40
0.0
 40
0.0
 40
0.1138249509
 40
0.2719586158
 40
0.4736488813000001
 40
0.7766479667000001
 40
1.0
 40
1.0
 40
1.0
 40
1.0
 10
77.18572343159999
 20
38.643374975
 30
0.0
 10
77.1859805499
 20
38.6463327316
 30
0.0
 10
77.186597573
 20
38.6533582344
 30
0.0
 10
77.1876724305
 20
38.6657516424
 30
0.0
 10
77.1891796442
 20
38.6843487682
 30
0.0
 10
77.1906712423
 20
38.7049451937
 30
0.0
 10
77.1916746582
 20
38.71942391840001
 30
0.0
 10
77.19203240899999
 20
38.725122985
 30
0.0
  0
SPLINE
  5
23EA
330
222
100
AcDbEntity
  8
0
  6
Continuous
 62
    40
100
AcDbSpline
210
0.0
220
0.0
230
1.0
 70
     8
 71
     3
 72
    12
 73
     8
 74
     0
 42
0.0000001
 43
0.0000000001
 40
0.0
 40
0.0
 40
0.0
 40
0.0
 40
0.183280726
 40
0.3698978289
 40
0.5702935269000001
 40
0.8291169523
 40
1.0
 40
1.0
 40
1.0
 40
1.0
 10
77.1928630662
 20
38.7279458395
 30
0.0
 10
77.19253225989999
 20
38.722676006
 30
0.0
 10
77.19175622289999
 20
38.7112736999
 30
0.0
 10
77.19032414059999
 20
38.6929583741
 30
0.0
 10
77.18867269319999
 20
38.6736479541
 30
0.0
 10
77.18708263339999
 20
38.6563726894
 30
0.0
 10
77.1860932618
 20
38.6467431083
 30
0.0
 10
77.18572343159999
 20
38.643374975
 30
0.0
  0
SPLINE
  5
23EB
330
222
100
AcDbEntity
  8
0
  6
Continuous
 62
    40
100
AcDbSpline
210
0.0
220
0.0
230
1.0
 70
     8
 71
     3
 72
    46
 73
    42
 74
     0
 42
0.0000001
 43
0.0000000001
 40
0.0
 40
0.0
 40
0.0
 40
0.0
 40
0.0625
 40
0.125
 40
0.140625
 40
0.15625
 40
0.1640625
 40
0.171875
 40
0.1875
 40
0.21875
 40
0.25
 40
0.28125
 40
0.3125
 40
0.328125
 40
0.3359375
 40
0.34375
 40
0.359375
 40
0.375
 40
0.4375
 40
0.46875
 40
0.484375
 40
0.5
 40
0.515625
 40
0.53125
 40
0.5625
 40
0.625
 40
0.640625
 40
0.65625
 40
0.6640625
 40
0.671875
 40
0.6875
 40
0.71875
 40
0.75
 40
0.78125
 40
0.8125
 40
0.828125
 40
0.84375
 40
0.859375
 40
0.875
 40
0.9375
 40
1.0
 40
1.0
 40
1.0
 40
1.0
 10
77.1988687088
 20
38.92444363
 30
0.0
 10
77.1988359491
 20
38.9244936783
 30
0.0
 10
77.1987704693
 20
38.9245942959
 30
0.0
 10
77.1986966261
 20
38.9247051456
 30
0.0
 10
77.1986476575
 20
38.9247824654
 30
0.0
 10
77.19862686979999
 20
38.9248096334
 30
0.0
 10
77.1986111355
 20
38.9248431425
 30
0.0
 10
77.1985921253
 20
38.9248335917
 30
0.0
 10
77.1985573347
 20
38.9247968589
 30
0.0
 10
77.19850843509999
 20
38.9247549196
 30
0.0
 10
77.19844938979999
 20
38.9246997764
 30
0.0
 10
77.19839052560001
 20
38.9246470396
 30
0.0
 10
77.19834117339999
 20
38.9245990843
 30
0.0
 10
77.19830717479999
 20
38.9245728795
 30
0.0
 10
77.19828689739999
 20
38.9245464839
 30
0.0
 10
77.198263422
 20
38.92447710280001
 30
0.0
 10
77.1982351693
 20
38.9244050473
 30
0.0
 10
77.1981664783
 20
38.9242202294
 30
0.0
 10
77.1980864713
 20
38.924006336
 30
0.0
 10
77.1980068406
 20
38.9237976593
 30
0.0
 10
77.1979606014
 20
38.923668288
 30
0.0
 10
77.19792802239999
 20
38.9236001513
 30
0.0
 10
77.19788740979999
 20
38.9234215115
 30
0.0
 10
77.1978360591
 20
38.9232218415
 30
0.0
 10
77.1977449182
 20
38.9228547575
 30
0.0
 10
77.1976540925
 20
38.9224925368
 30
0.0
 10
77.1975764789
 20
38.9221842559
 30
0.0
 10
77.19754359479999
 20
38.922049833
 30
0.0
 10
77.19751857199999
 20
38.9219564093
 30
0.0
 10
77.1974888477
 20
38.9218113052
 30
0.0
 10
77.197434644
 20
38.9215333305
 30
0.0
 10
77.1973583631
 20
38.9211489719
 30
0.0
 10
77.197266289
 20
38.9206815054
 30
0.0
 10
77.19717451840001
 20
38.9202185868
 30
0.0
 10
77.1970974787
 20
38.91982285840001
 30
0.0
 10
77.19703704930001
 20
38.91952791260001
 30
0.0
 10
77.1969884586
 20
38.9192477702
 30
0.0
 10
77.1969389525
 20
38.918951122
 30
0.0
 10
77.1968404114
 20
38.9183663183
 30
0.0
 10
77.19669240029999
 20
38.9174855171
 30
0.0
 10
77.1965609158
 20
38.91670404380001
 30
0.0
 10
77.1964951635
 20
38.9163131245
 30
0.0
  0
LINE
  5
23EC
330
222
100
AcDbEntity
  8
0
  6
Continuous
 62
    40
100
AcDbLine
 10
77.1964951634
 20
38.916313124
 30
0.0
 11
77.19533912600001
 21
38.9082531056
 31
0.0
  0
SPLINE
  5
23ED
330
222
100
AcDbEntity
  8
0
  6
Continuous
 62
    40
100
AcDbSpline
210
0.0
220
0.0
230
1.0
 70
     8
 71
     3
 72
    82
 73
    78
 74
     0
 42
0.0000001
 43
0.0000000001
 40
0.0
 40
0.0
 40
0.0
 40
0.0
 40
0.0625
 40
0.09375
 40
0.109375
 40
0.125
 40
0.140625
 40
0.1484375
 40
0.15625
 40
0.16015625
 40
0.1640625
 40
0.166015625
 40
0.1669921875
 40
0.16796875
 40
0.169921875
 40
0.171875
 40
0.1796875
 40
0.1875
 40
0.1953125
 40
0.203125
 40
0.21875
 40
0.25
 40
0.28125
 40
0.296875
 40
0.3125
 40
0.3203125
 40
0.328125
 40
0.33203125
 40
0.333984375
 40
0.3359375
 40
0.33984375
 40
0.34375
 40
0.3515625
 40
0.359375
 40
0.375
 40
0.40625
 40
0.4375
 40
0.453125
 40
0.46875
 40
0.4765625
 40
0.484375
 40
0.4921875
 40
0.49609375
 40
0.5
 40
0.50390625
 40
0.5078125
 40
0.515625
 40
0.5234375
 40
0.53125
 40
0.546875
 40
0.5625
 40
0.59375
 40
0.609375
 40
0.625
 40
0.640625
 40
0.65625
 40
0.66015625
 40
0.6640625
 40
0.666015625
 40
0.66796875
 40
0.671875
 40
0.6796875
 40
0.6875
 40
0.703125
 40
0.71875
 40
0.75
 40
0.78125
 40
0.8125
 40
0.8203125
 40
0.828125
 40
0.8359375
 40
0.84375
 40
0.859375
 40
0.875
 40
0.90625
 40
0.9375
 40
1.0
 40
1.0
 40
1.0
 40
1.0
 10
77.1953391261
 20
38.9082531061
 30
0.0
 10
77.1950912544
 20
38.9062096762
 30
0.0
 10
77.19471944670001
 20
38.9031445284
 30
0.0
 10
77.1942856717
 20
38.899568533
 30
0.0
 10
77.19403779939999
 20
38.8975250924
 30
0.0
 10
77.1938518977
 20
38.8959925529
 30
0.0
 10
77.19369697160001
 20
38.894715306
 30
0.0
 10
77.19357304849999
 20
38.89369380170001
 30
0.0
 10
77.1934955563
 20
38.8930546938
 30
0.0
 10
77.19343365479999
 20
38.8925449367
 30
0.0
 10
77.19339475560001
 20
38.8922228494
 30
0.0
 10
77.1933679486
 20
38.8920043809
 30
0.0
 10
77.1933519694
 20
38.8918686011
 30
0.0
 10
77.1933335011
 20
38.8916916138
 30
0.0
 10
77.19331126649999
 20
38.8914844645
 30
0.0
 10
77.19325720319999
 20
38.8909757137
 30
0.0
 10
77.19317640229999
 20
38.8902174566
 30
0.0
 10
77.19306849979999
 20
38.88920366420001
 30
0.0
 10
77.1929606422
 20
38.88819061599999
 30
0.0
 10
77.1928168164
 20
38.8868396262
 30
0.0
 10
77.1925651282
 20
38.88447550809999
 30
0.0
 10
77.1922055726
 20
38.88109819050001
 30
0.0
 10
77.191846008
 20
38.8777206795
 30
0.0
 10
77.19155837869999
 20
38.8750191396
 30
0.0
 10
77.1913785591
 20
38.8733296018
 30
0.0
 10
77.19123482090001
 20
38.8719804351
 30
0.0
 10
77.19114471649999
 20
38.8711315847
 30
0.0
 10
77.1910821805
 20
38.8705486552
 30
0.0
 10
77.19104560529999
 20
38.87019792610001
 30
0.0
 10
77.19100586399999
 20
38.8697807955
 30
0.0
 10
77.1909572715
 20
38.869282118
 30
0.0
 10
77.1908789176
 20
38.86847152820001
 30
0.0
 10
77.1907811826
 20
38.8674626409
 30
0.0
 10
77.19062469089999
 20
38.86584599360001
 30
0.0
 10
77.19035088439999
 20
38.8630179906
 30
0.0
 10
77.1899597042
 20
38.8589774063
 30
0.0
 10
77.1895685332
 20
38.8549369902
 30
0.0
 10
77.18925559670001
 20
38.8517047175
 30
0.0
 10
77.18906000609999
 20
38.84968431260001
 30
0.0
 10
77.1889035464
 20
38.8480685363
 30
0.0
 10
77.18878616640001
 20
38.8468552021
 30
0.0
 10
77.18868846159999
 20
38.8458488686
 30
0.0
 10
77.18861004689999
 20
38.8450330847
 30
0.0
 10
77.18855192159999
 20
38.844450531
 30
0.0
 10
77.1884911786
 20
38.8437561993
 30
0.0
 10
77.18841110229999
 20
38.84286946920001
 30
0.0
 10
77.1883106932
 20
38.8417476603
 30
0.0
 10
77.1881903366
 20
38.8404072236
 30
0.0
 10
77.18802981430001
 20
38.838617972
 30
0.0
 10
77.1878291774
 20
38.83638209260001
 30
0.0
 10
77.1875081494
 20
38.8328043067
 30
0.0
 10
77.18718712340001
 20
38.8292266017
 30
0.0
 10
77.1868660984
 20
38.8256489379
 30
0.0
 10
77.1866253245
 20
38.8229654856
 30
0.0
 10
77.18638457049999
 20
38.8202828307
 30
0.0
 10
77.18620394930001
 20
38.81826860050001
 30
0.0
 10
77.1860836219
 20
38.8169292629
 30
0.0
 10
77.18603335640001
 20
38.8163660232
 30
0.0
 10
77.18599344499999
 20
38.815927521
 30
0.0
 10
77.185952433
 20
38.8154448064
 30
0.0
 10
77.18588015049999
 20
38.8145795139
 30
0.0
 10
77.1857771567
 20
38.8133540996
 30
0.0
 10
77.18561221749999
 20
38.8113874466
 30
0.0
 10
77.18540609439999
 20
38.8089311842
 30
0.0
 10
77.18507626970001
 20
38.8050000001
 30
0.0
 10
77.1846639928
 20
38.8000865374
 30
0.0
 10
77.18416928349999
 20
38.79418964460001
 30
0.0
 10
77.1837981779
 20
38.7897685667
 30
0.0
 10
77.1835508896
 20
38.7868187591
 30
0.0
 10
77.1834270392
 20
38.7853481694
 30
0.0
 10
77.1833039908
 20
38.7838608079
 30
0.0
 10
77.1831437429
 20
38.781797857
 30
0.0
 10
77.1829421263
 20
38.7792464926
 30
0.0
 10
77.1826202699
 20
38.7751490392
 30
0.0
 10
77.1822176993
 20
38.7700324533
 30
0.0
 10
77.18157372669999
 20
38.7618429792
 30
0.0
 10
77.18109071569999
 20
38.7557015344
 30
0.0
 10
77.1807687154
 20
38.751607091
 30
0.0
  0
SPLINE
  5
23EE
330
222
100
AcDbEntity
  8
0
  6
Continuous
 62
    40
100
AcDbSpline
210
0.0
220
0.0
230
1.0
 70
     8
 71
     3
 72
    78
 73
    74
 74
     0
 42
0.0000001
 43
0.0000000001
 40
0.0
 40
0.0
 40
0.0
 40
0.0
 40
0.0625
 40
0.125
 40
0.15625
 40
0.171875
 40
0.1875
 40
0.25
 40
0.28125
 40
0.296875
 40
0.3125
 40
0.3203125
 40
0.328125
 40
0.33203125
 40
0.3359375
 40
0.34375
 40
0.359375
 40
0.375
 40
0.390625
 40
0.40625
 40
0.4375
 40
0.453125
 40
0.46875
 40
0.4765625
 40
0.484375
 40
0.4921875
 40
0.49609375
 40
0.498046875
 40
0.5
 40
0.501953125
 40
0.50390625
 40
0.5078125
 40
0.515625
 40
0.5234375
 40
0.53125
 40
0.546875
 40
0.5625
 40
0.578125
 40
0.59375
 40
0.609375
 40
0.625
 40
0.640625
 40
0.6484375
 40
0.65625
 40
0.66015625
 40
0.6640625
 40
0.666015625
 40
0.66796875
 40
0.671875
 40
0.6796875
 40
0.6875
 40
0.703125
 40
0.71875
 40
0.75
 40
0.78125
 40
0.796875
 40
0.8046875
 40
0.8125
 40
0.8203125
 40
0.828125
 40
0.830078125
 40
0.83203125
 40
0.833984375
 40
0.8359375
 40
0.83984375
 40
0.84375
 40
0.8515625
 40
0.859375
 40
0.875
 40
0.890625
 40
0.90625
 40
0.9375
 40
1.0
 40
1.0
 40
1.0
 40
1.0
 10
77.180684419
 20
38.7504982532
 30
0.0
 10
77.1803899281
 20
38.74648930780001
 30
0.0
 10
77.1798004659
 20
38.7384701642
 30
0.0
 10
77.17906603989999
 20
38.72845249840001
 30
0.0
 10
77.17854752859999
 20
38.72142862270001
 30
0.0
 10
77.1782580812
 20
38.7174328312
 30
0.0
 10
77.1778612109
 20
38.7115364461
 30
0.0
 10
77.1773854995
 20
38.7046241153
 30
0.0
 10
77.17691523780001
 20
38.6977262897
 30
0.0
 10
77.1766458804
 20
38.6937825849
 30
0.0
 10
77.1764778256
 20
38.6913195411
 30
0.0
 10
77.17634283619999
 20
38.6893453765
 30
0.0
 10
77.17625968490001
 20
38.6881199616
 30
0.0
 10
77.1761903794
 20
38.687120311
 30
0.0
 10
77.1761312381
 20
38.6861911849
 30
0.0
 10
77.1760324632
 20
38.6845979809
 30
0.0
 10
77.17588888699999
 20
38.6823048419
 30
0.0
 10
77.17571765409999
 20
38.6795604198
 30
0.0
 10
77.175546138
 20
38.676814032
 30
0.0
 10
77.1753175491
 20
38.673152872
 30
0.0
 10
77.17508893039999
 20
38.6694915015
 30
0.0
 10
77.1748603269
 20
38.6658302448
 30
0.0
 10
77.1747174366
 20
38.6635418503
 30
0.0
 10
77.174603152
 20
38.6617113679
 30
0.0
 10
77.1745173634
 20
38.6603378718
 30
0.0
 10
77.17444611180001
 20
38.659195309
 30
0.0
 10
77.17439576699999
 20
38.65839155630001
 30
0.0
 10
77.17436773020001
 20
38.6579384503
 30
0.0
 10
77.1743446415
 20
38.6575812081
 30
0.0
 10
77.1743294316
 20
38.657290526
 30
0.0
 10
77.17430640339999
 20
38.6568797331
 30
0.0
 10
77.1742673846
 20
38.6561716625
 30
0.0
 10
77.17421097409999
 20
38.6551544779
 30
0.0
 10
77.1741435679
 20
38.653936277
 30
0.0
 10
77.17405359299999
 20
38.6523111635
 30
0.0
 10
77.1739411586
 20
38.6502800619
 30
0.0
 10
77.17380622260001
 20
38.64784261510001
 30
0.0
 10
77.1736712908
 20
38.6454052035
 30
0.0
 10
77.17353635720001
 20
38.6429677761
 30
0.0
 10
77.17340142649999
 20
38.6405303766
 30
0.0
 10
77.1732664858
 20
38.63809288130001
 30
0.0
 10
77.1731540662
 20
38.6360619312
 30
0.0
 10
77.17306406119999
 20
38.63443650860001
 30
0.0
 10
77.1730079659
 20
38.6334221279
 30
0.0
 10
77.17296272829999
 20
38.6326071687
 30
0.0
 10
77.1729352792
 20
38.6321057016
 30
0.0
 10
77.1729114316
 20
38.6316864739
 30
0.0
 10
77.1728944778
 20
38.631333156
 30
0.0
 10
77.17286801090001
 20
38.6307454676
 30
0.0
 10
77.17282853020001
 20
38.6298899379
 30
0.0
 10
77.1727662949
 20
38.6285300178
 30
0.0
 10
77.17268818099999
 20
38.6268270608
 30
0.0
 10
77.1725633776
 20
38.6241040388
 30
0.0
 10
77.17240731140001
 20
38.6206996696
 30
0.0
 10
77.1722512692
 20
38.6172955309
 30
0.0
 10
77.17214203260001
 20
38.614912564
 30
0.0
 10
77.1720796167
 20
38.6135509191
 30
0.0
 10
77.1720327917
 20
38.612529554
 30
0.0
 10
77.1719860165
 20
38.6115086893
 30
0.0
 10
77.17195079529999
 20
38.61074163820001
 30
0.0
 10
77.17192753199999
 20
38.610232452
 30
0.0
 10
77.1719155121
 20
38.609973964
 30
0.0
 10
77.1719050017
 20
38.6097306193
 30
0.0
 10
77.1718981704
 20
38.6094782139
 30
0.0
 10
77.17188717209999
 20
38.6091380359
 30
0.0
 10
77.17187094909999
 20
38.60860753860001
 30
0.0
 10
77.17185019979999
 20
38.607939696
 30
0.0
 10
77.17181726390001
 20
38.60687378650001
 30
0.0
 10
77.17177600380001
 20
38.6055404943
 30
0.0
 10
77.17172653029999
 20
38.6039409311
 30
0.0
 10
77.17166055209999
 20
38.601808045
 30
0.0
 10
77.1715450967
 20
38.5980755577
 30
0.0
 10
77.1714461327
 20
38.5948762611
 30
0.0
 10
77.1713801572
 20
38.5927434016
 30
0.0
  0
LINE
  5
23EF
330
222
100
AcDbEntity
  8
0
  6
Continuous
 62
    40
100
AcDbLine
 10
77.1713801572
 20
38.5927434004
 30
0.0
 11
77.17131208179999
 21
38.58468338210001
 31
0.0
  0
SPLINE
  5
23F0
330
222
100
AcDbEntity
  8
0
  6
Continuous
 62
    40
100
AcDbSpline
210
0.0
220
0.0
230
1.0
 70
     8
 71
     3
 72
    47
 73
    43
 74
     0
 42
0.0000001
 43
0.0000000001
 40
0.0
 40
0.0
 40
0.0
 40
0.0
 40
0.0625
 40
0.125
 40
0.140625
 40
0.15625
 40
0.1640625
 40
0.171875
 40
0.1875
 40
0.21875
 40
0.25
 40
0.28125
 40
0.3125
 40
0.328125
 40
0.3359375
 40
0.34375
 40
0.359375
 40
0.375
 40
0.4375
 40
0.46875
 40
0.484375
 40
0.5
 40
0.515625
 40
0.53125
 40
0.5625
 40
0.625
 40
0.640625
 40
0.65625
 40
0.6640625
 40
0.671875
 40
0.6875
 40
0.71875
 40
0.75
 40
0.78125
 40
0.8125
 40
0.828125
 40
0.8359375
 40
0.84375
 40
0.859375
 40
0.875
 40
0.9375
 40
1.0
 40
1.0
 40
1.0
 40
1.0
 10
77.17131208179999
 20
38.58468338250001
 30
0.0
 10
77.17131820829999
 20
38.5843014154
 30
0.0
 10
77.17133041949999
 20
38.5835369764
 30
0.0
 10
77.1713443451
 20
38.5826792541
 30
0.0
 10
77.1713533546
 20
38.5821041266
 30
0.0
 10
77.17135751349999
 20
38.5818693802
 30
0.0
 10
77.1713598963
 20
38.5816701782
 30
0.0
 10
77.17136573229999
 20
38.5815126837
 30
0.0
 10
77.17137755100001
 20
38.5812564588
 30
0.0
 10
77.17139358979999
 20
38.5808802169
 30
0.0
 10
77.17141322239999
 20
38.5804333964
 30
0.0
 10
77.17143266269999
 20
38.5799842267
 30
0.0
 10
77.1714491826
 20
38.579613858
 30
0.0
 10
77.1714601593
 20
38.57934735510001
 30
0.0
 10
77.17146734239999
 20
38.5792063055
 30
0.0
 10
77.1714779528
 20
38.5791075503
 30
0.0
 10
77.17149004609999
 20
38.5789696716
 30
0.0
 10
77.1715200176
 20
38.57865045309999
 30
0.0
 10
77.1715548456
 20
38.5782763685
 30
0.0
 10
77.1715892608
 20
38.5778970437
 30
0.0
 10
77.1716097293
 20
38.5776904103
 30
0.0
 10
77.1716227907
 20
38.5775065613
 30
0.0
 10
77.1716446109
 20
38.5774331464
 30
0.0
 10
77.17167065099999
 20
38.5772967617
 30
0.0
 10
77.1717176266
 20
38.5770758002
 30
0.0
 10
77.1717641857
 20
38.5768496258
 30
0.0
 10
77.1718039821
 20
38.5766542812
 30
0.0
 10
77.171820948
 20
38.5765778381
 30
0.0
 10
77.17183361
 20
38.5765049504
 30
0.0
 10
77.1718496075
 20
38.576475035
 30
0.0
 10
77.1718791541
 20
38.5764426644
 30
0.0
 10
77.17192054659999
 20
38.5763859029
 30
0.0
 10
77.1719705933
 20
38.576322603
 30
0.0
 10
77.17202044459999
 20
38.57625687570001
 30
0.0
 10
77.17206232560001
 20
38.5762061829
 30
0.0
 10
77.17209101739999
 20
38.576163192
 30
0.0
 10
77.1721083826
 20
38.576150269
 30
0.0
 10
77.17212939879999
 20
38.5761811736
 30
0.0
 10
77.1721544212
 20
38.5762048235
 30
0.0
 10
77.17221550229999
 20
38.576273916
 30
0.0
 10
77.1723066889
 20
38.5763723332
 30
0.0
 10
77.17238792039999
 20
38.5764619369
 30
0.0
 10
77.1724285141
 20
38.5765064736
 30
0.0
  0
SPLINE
  5
23F1
330
222
100
AcDbEntity
  8
0
  6
Continuous
 62
    40
100
AcDbSpline
210
0.0
220
0.0
230
1.0
 70
     8
 71
     3
 72
    90
 73
    86
 74
     0
 42
0.0000001
 43
0.0000000001
 40
0.0
 40
0.0
 40
0.0
 40
0.0
 40
0.0625
 40
0.09375
 40
0.125
 40
0.140625
 40
0.15625
 40
0.1640625
 40
0.171875
 40
0.1875
 40
0.21875
 40
0.25
 40
0.28125
 40
0.296875
 40
0.3125
 40
0.3203125
 40
0.328125
 40
0.33203125
 40
0.333984375
 40
0.3359375
 40
0.33984375
 40
0.34375
 40
0.359375
 40
0.375
 40
0.390625
 40
0.40625
 40
0.421875
 40
0.4375
 40
0.453125
 40
0.46875
 40
0.4765625
 40
0.484375
 40
0.4921875
 40
0.49609375
 40
0.498046875
 40
0.5
 40
0.501953125
 40
0.50390625
 40
0.5078125
 40
0.515625
 40
0.5234375
 40
0.53125
 40
0.546875
 40
0.5625
 40
0.578125
 40
0.59375
 40
0.609375
 40
0.625
 40
0.640625
 40
0.6484375
 40
0.65625
 40
0.66015625
 40
0.6640625
 40
0.666015625
 40
0.6669921875
 40
0.66796875
 40
0.669921875
 40
0.671875
 40
0.6796875
 40
0.6875
 40
0.6953125
 40
0.703125
 40
0.71875
 40
0.75
 40
0.78125
 40
0.796875
 40
0.8046875
 40
0.8125
 40
0.8203125
 40
0.828125
 40
0.830078125
 40
0.83203125
 40
0.8330078125
 40
0.833984375
 40
0.8359375
 40
0.83984375
 40
0.84375
 40
0.8515625
 40
0.859375
 40
0.875
 40
0.890625
 40
0.90625
 40
0.9375
 40
0.96875
 40
1.0
 40
1.0
 40
1.0
 40
1.0
 10
77.1720535272
 20
38.7507518375
 30
0.0
 10
77.1716984951
 20
38.7459030794
 30
0.0
 10
77.1711659952
 20
38.7386301002
 30
0.0
 10
77.17045580229999
 20
38.7289321632
 30
0.0
 10
77.1700123338
 20
38.7228722681
 30
0.0
 10
77.16965664219999
 20
38.71802135260001
 30
0.0
 10
77.169436426
 20
38.7149963712
 30
0.0
 10
77.16925546369999
 20
38.7125607179
 30
0.0
 10
77.16909198579999
 20
38.710182265
 30
0.0
 10
77.16881402270001
 20
38.70604654760001
 30
0.0
 10
77.16841268589999
 20
38.7001244925
 30
0.0
 10
77.1679328987
 20
38.6930239429
 30
0.0
 10
77.1675326814
 20
38.6871056127
 30
0.0
 10
77.16721254630001
 20
38.6823708836
 30
0.0
 10
77.1670125624
 20
38.67941244300001
 30
0.0
 10
77.16685232420001
 20
38.6770438706
 30
0.0
 10
77.1667527527
 20
38.6755676801
 30
0.0
 10
77.16668189519999
 20
38.6745259936
 30
0.0
 10
77.1666432162
 20
38.6739438137
 30
0.0
 10
77.16661135879999
 20
38.67341086
 30
0.0
 10
77.16656920529999
 20
38.6727278421
 30
0.0
 10
77.166469956
 20
38.6711024476
 30
0.0
 10
77.1663202761
 20
38.6686585393
 30
0.0
 10
77.1661211636
 20
38.6654033197
 30
0.0
 10
77.1659219277
 20
38.6621472094
 30
0.0
 10
77.16572272479999
 20
38.658891337
 30
0.0
 10
77.1655235133
 20
38.6556354039
 30
0.0
 10
77.1653243029
 20
38.65237947550001
 30
0.0
 10
77.1651250971
 20
38.6491235888
 30
0.0
 10
77.1649590759
 20
38.6464102072
 30
0.0
 10
77.16482629579999
 20
38.6442398236
 30
0.0
 10
77.16472661
 20
38.6426111563
 30
0.0
 10
77.16464385890001
 20
38.6412567315
 30
0.0
 10
77.1645853043
 20
38.6403031433
 30
0.0
 10
77.1645528265
 20
38.6397668093
 30
0.0
 10
77.16452570209999
 20
38.639340407
 30
0.0
 10
77.1645091505
 20
38.6390063248
 30
0.0
 10
77.1644833938
 20
38.6385286796
 30
0.0
 10
77.16444003789999
 20
38.6377078042
 30
0.0
 10
77.1643772025
 20
38.63652728090001
 30
0.0
 10
77.16430218460001
 20
38.63511401050001
 30
0.0
 10
77.16420202640001
 20
38.6332284771
 30
0.0
 10
77.1640768747
 20
38.6308719629
 30
0.0
 10
77.1639266729
 20
38.6280439731
 30
0.0
 10
77.1637764764
 20
38.6252160303
 30
0.0
 10
77.1636262782
 20
38.6223880719
 30
0.0
 10
77.1634760817
 20
38.6195601292
 30
0.0
 10
77.16332588029999
 20
38.6167321393
 30
0.0
 10
77.16320072720001
 20
38.6143756253
 30
0.0
 10
77.16310057189999
 20
38.6124900914
 30
0.0
 10
77.1630380495
 20
38.6113123675
 30
0.0
 10
77.1629878607
 20
38.6103685054
 30
0.0
 10
77.16295688239999
 20
38.6097824316
 30
0.0
 10
77.1629344167
 20
38.6093644842
 30
0.0
 10
77.16292280090001
 20
38.6091376977
 30
0.0
 10
77.16291578679999
 20
38.6089562621
 30
0.0
 10
77.1629054464
 20
38.6087139665
 30
0.0
 10
77.1628819238
 20
38.6081452151
 30
0.0
 10
77.1628460963
 20
38.6072867294
 30
0.0
 10
77.16279863699999
 20
38.6061451445
 30
0.0
 10
77.16275109449999
 20
38.60500274039999
 30
0.0
 10
77.16268773359999
 20
38.6034798207
 30
0.0
 10
77.1625768385
 20
38.6008145772
 30
0.0
 10
77.1624184246
 20
38.59700716400001
 30
0.0
 10
77.1622600054
 20
38.593199696
 30
0.0
 10
77.16214911779999
 20
38.5905345293
 30
0.0
 10
77.1620857451
 20
38.58901148880001
 30
0.0
 10
77.1620382388
 20
38.5878694554
 30
0.0
 10
77.16199064369999
 20
38.5867264783
 30
0.0
 10
77.16195519660001
 20
38.5858718913
 30
0.0
 10
77.16193117749999
 20
38.5852980518
 30
0.0
 10
77.1619217465
 20
38.5850650751
 30
0.0
 10
77.16191285579999
 20
38.5848644098
 30
0.0
 10
77.16190888699999
 20
38.58471598179999
 30
0.0
 10
77.1619042284
 20
38.5844805036
 30
0.0
 10
77.16189638020001
 20
38.5841314428
 30
0.0
 10
77.1618844898
 20
38.5835800224
 30
0.0
 10
77.1618693985
 20
38.5828883238
 30
0.0
 10
77.16184538
 20
38.58178296030001
 30
0.0
 10
77.16181531310001
 20
38.5804007913
 30
0.0
 10
77.16177925149999
 20
38.5787423874
 30
0.0
 10
77.1617311629
 20
38.5765311127
 30
0.0
 10
77.1616710544
 20
38.5737670431
 30
0.0
 10
77.1615989232
 20
38.5704501494
 30
0.0
 10
77.161550836
 20
38.5682388889
 30
0.0
 10
77.16152679229999
 20
38.5671332584
 30
0.0
  0
LINE
  5
23F2
330
222
100
AcDbEntity
  8
0
  6
Continuous
 62
    40
100
AcDbLine
 10
77.16152679229999
 20
38.5671332554
 30
0.0
 11
77.1615588142
 21
38.5620532897
 31
0.0
  0
LINE
  5
23F3
330
222
100
AcDbEntity
  8
0
  6
Continuous
 62
    40
100
AcDbLine
 10
77.1615588142
 20
38.5620532897
 30
0.0
 11
77.1617014287
 21
38.55829940360001
 31
0.0
  0
LINE
  5
23F4
330
222
100
AcDbEntity
  8
0
  6
Continuous
 62
    40
100
AcDbLine
 10
77.1617014287
 20
38.55829940360001
 30
0.0
 11
77.16195363549999
 21
38.5558979279
 31
0.0
  0
SPLINE
  5
23F5
330
222
100
AcDbEntity
  8
0
  6
Continuous
 62
    40
100
AcDbSpline
210
0.0
220
0.0
230
1.0
 70
     8
 71
     3
 72
    27
 73
    23
 74
     0
 42
0.0000001
 43
0.0000000001
 40
0.0
 40
0.0
 40
0.0
 40
0.0
 40
0.125
 40
0.15625
 40
0.1875
 40
0.25
 40
0.3125
 40
0.34375
 40
0.375
 40
0.4375
 40
0.46875
 40
0.5
 40
0.53125
 40
0.5625
 40
0.625
 40
0.65625
 40
0.6875
 40
0.75
 40
0.8125
 40
0.84375
 40
0.875
 40
1.0
 40
1.0
 40
1.0
 40
1.0
 10
77.16195363549999
 20
38.5558979279
 30
0.0
 10
77.1619878947
 20
38.5557486457
 30
0.0
 10
77.1620314291
 20
38.5555711724
 30
0.0
 10
77.16208153930001
 20
38.5553308159
 30
0.0
 10
77.16211949249999
 20
38.5552290073
 30
0.0
 10
77.1621687042
 20
38.5551245228
 30
0.0
 10
77.1622167526
 20
38.5550049975
 30
0.0
 10
77.1622565672
 20
38.5549272541
 30
0.0
 10
77.16230099509999
 20
38.5549095348
 30
0.0
 10
77.16234392459999
 20
38.5548722895
 30
0.0
 10
77.16238788930001
 20
38.55484860420001
 30
0.0
 10
77.1624192558
 20
38.5548096862
 30
0.0
 10
77.16245653289999
 20
38.55484860420001
 30
0.0
 10
77.16250409469999
 20
38.5548722895
 30
0.0
 10
77.16255268090001
 20
38.5549095348
 30
0.0
 10
77.16259979989999
 20
38.5549272541
 30
0.0
 10
77.16265142170001
 20
38.5550049975
 30
0.0
 10
77.162717623
 20
38.5551245228
 30
0.0
 10
77.1627827033
 20
38.5552290073
 30
0.0
 10
77.16283611859999
 20
38.5553308159
 30
0.0
 10
77.1629227329
 20
38.5555711725
 30
0.0
 10
77.16299322100001
 20
38.5557486458
 30
0.0
 10
77.1630501524
 20
38.555897928
 30
0.0
  0
LINE
  5
23F6
330
222
100
AcDbEntity
  8
0
  6
Continuous
 62
    40
100
AcDbLine
 10
77.1630501524
 20
38.5558979279
 30
0.0
 11
77.1635610176
 21
38.5578202215
 31
0.0
  0
LINE
  5
23F7
330
222
100
AcDbEntity
  8
0
  6
Continuous
 62
    40
100
AcDbLine
 10
77.19292671649999
 20
38.9442552835
 30
0.0
 11
77.1928372592
 21
38.9452867199
 31
0.0
  0
SPLINE
  5
23F8
330
222
100
AcDbEntity
  8
0
  6
Continuous
 62
    40
100
AcDbSpline
210
0.0
220
0.0
230
1.0
 70
     8
 71
     3
 72
    37
 73
    33
 74
     0
 42
0.0000001
 43
0.0000000001
 40
0.0
 40
0.0
 40
0.0
 40
0.0
 40
0.0625
 40
0.125
 40
0.15625
 40
0.171875
 40
0.1875
 40
0.25
 40
0.28125
 40
0.3125
 40
0.328125
 40
0.34375
 40
0.375
 40
0.4375
 40
0.46875
 40
0.484375
 40
0.5
 40
0.515625
 40
0.53125
 40
0.5625
 40
0.625
 40
0.65625
 40
0.671875
 40
0.6875
 40
0.75
 40
0.78125
 40
0.8125
 40
0.828125
 40
0.84375
 40
0.875
 40
0.9375
 40
1.0
 40
1.0
 40
1.0
 40
1.0
 10
77.1928372592
 20
38.9452867199
 30
0.0
 10
77.19281818749999
 20
38.9454243249
 30
0.0
 10
77.1927801561
 20
38.9457004027
 30
0.0
 10
77.19273205729999
 20
38.9460411599
 30
0.0
 10
77.1926994164
 20
38.9462876649
 30
0.0
 10
77.19267916949999
 20
38.9464161557
 30
0.0
 10
77.1926401225
 20
38.9465416741
 30
0.0
 10
77.1925974362
 20
38.9467099552
 30
0.0
 10
77.19254749370001
 20
38.9468946044
 30
0.0
 10
77.1925158968
 20
38.9470042269
 30
0.0
 10
77.19249182760001
 20
38.9471077227
 30
0.0
 10
77.1924632315
 20
38.9471526542
 30
0.0
 10
77.1924110977
 20
38.9472042708
 30
0.0
 10
77.1923522852
 20
38.9472731653
 30
0.0
 10
77.19230089639999
 20
38.9473344632
 30
0.0
 10
77.1922710231
 20
38.9473627983
 30
0.0
 10
77.19225012249999
 20
38.9474038362
 30
0.0
 10
77.1922234587
 20
38.94736907409999
 30
0.0
 10
77.1921899128
 20
38.9473491055
 30
0.0
 10
77.19213031719999
 20
38.947302461
 30
0.0
 10
77.19206229560001
 20
38.947250235
 30
0.0
 10
77.19200343689999
 20
38.9472133967
 30
0.0
 10
77.19196862770001
 20
38.9471766176
 30
0.0
 10
77.19190997130001
 20
38.9470351863
 30
0.0
 10
77.19184360199999
 20
38.9468982862
 30
0.0
 10
77.19176711999999
 20
38.9467317381
 30
0.0
 10
77.19171853929999
 20
38.9466207549
 30
0.0
 10
77.19168170340001
 20
38.9465510285
 30
0.0
 10
77.19163737619999
 20
38.946410574
 30
0.0
 10
77.1915563176
 20
38.9461318483
 30
0.0
 10
77.19144235439999
 20
38.9457510004
 30
0.0
 10
77.19135062470001
 20
38.9454410401
 30
0.0
 10
77.1913048297
 20
38.9452867202
 30
0.0
  0
LINE
  5
23F9
330
222
100
AcDbEntity
  8
0
  6
Continuous
 62
    40
100
AcDbLine
 10
77.1913048296
 20
38.9452867199
 30
0.0
 11
77.19098410239999
 21
38.943915654
 31
0.0
  0
LINE
  5
23FA
330
222
100
AcDbEntity
  8
0
  6
Continuous
 62
    40
100
AcDbLine
 10
77.19098410239999
 20
38.943915654
 30
0.0
 11
77.19027136760001
 21
38.9401617679
 31
0.0
  0
LINE
  5
23FB
330
222
100
AcDbEntity
  8
0
  6
Continuous
 62
    40
100
AcDbLine
 10
77.19027136760001
 20
38.9401617679
 30
0.0
 11
77.18946782749999
 21
38.93508180219999
 31
0.0
  0
SPLINE
  5
23FC
330
222
100
AcDbEntity
  8
0
  6
Continuous
 62
    40
100
AcDbSpline
210
0.0
220
0.0
230
1.0
 70
     8
 71
     3
 72
    92
 73
    88
 74
     0
 42
0.0000001
 43
0.0000000001
 40
0.0
 40
0.0
 40
0.0
 40
0.0
 40
0.03125
 40
0.0625
 40
0.09375
 40
0.109375
 40
0.125
 40
0.140625
 40
0.1484375
 40
0.15625
 40
0.16015625
 40
0.1640625
 40
0.166015625
 40
0.1669921875
 40
0.16796875
 40
0.169921875
 40
0.171875
 40
0.1796875
 40
0.1875
 40
0.1953125
 40
0.203125
 40
0.21875
 40
0.25
 40
0.28125
 40
0.296875
 40
0.3046875
 40
0.3125
 40
0.3203125
 40
0.328125
 40
0.330078125
 40
0.33203125
 40
0.3330078125
 40
0.333984375
 40
0.3359375
 40
0.33984375
 40
0.34375
 40
0.3515625
 40
0.359375
 40
0.375
 40
0.390625
 40
0.40625
 40
0.421875
 40
0.4375
 40
0.453125
 40
0.46875
 40
0.4765625
 40
0.484375
 40
0.4921875
 40
0.49609375
 40
0.498046875
 40
0.5
 40
0.501953125
 40
0.50390625
 40
0.5078125
 40
0.515625
 40
0.5234375
 40
0.53125
 40
0.546875
 40
0.5625
 40
0.578125
 40
0.59375
 40
0.609375
 40
0.625
 40
0.640625
 40
0.65625
 40
0.66015625
 40
0.6640625
 40
0.666015625
 40
0.66796875
 40
0.671875
 40
0.6796875
 40
0.6875
 40
0.703125
 40
0.71875
 40
0.75
 40
0.78125
 40
0.8125
 40
0.8203125
 40
0.828125
 40
0.83203125
 40
0.8359375
 40
0.84375
 40
0.859375
 40
0.875
 40
0.90625
 40
0.9375
 40
1.0
 40
1.0
 40
1.0
 40
1.0
 10
77.18946782749999
 20
38.9350818021
 30
0.0
 10
77.18932524999999
 20
38.9339870982
 30
0.0
 10
77.189040095
 20
38.93179769079999
 30
0.0
 10
77.18861236229999
 20
38.9285135767
 30
0.0
 10
77.18825591889999
 20
38.9257768237
 30
0.0
 10
77.1879707631
 20
38.9235874019
 30
0.0
 10
77.1877568993
 20
38.9219453885
 30
0.0
 10
77.1875786696
 20
38.9205768753
 30
0.0
 10
77.1874361081
 20
38.9194824433
 30
0.0
 10
77.1873469562
 20
38.91879756130001
 30
0.0
 10
77.18727575159999
 20
38.9182516298
 30
0.0
 10
77.1872309819
 20
38.9179059185
 30
0.0
 10
77.18720017779999
 20
38.9176729472
 30
0.0
 10
77.18718173890001
 20
38.9175256979
 30
0.0
 10
77.1871601487
 20
38.917325255
 30
0.0
 10
77.1871342382
 20
38.9170928831
 30
0.0
 10
77.1870711663
 20
38.91652022610001
 30
0.0
 10
77.1869769308
 20
38.915667526
 30
0.0
 10
77.1868510707
 20
38.914527
 30
0.0
 10
77.18672526749999
 20
38.913387435
 30
0.0
 10
77.18655751
 20
38.9118676798
 30
0.0
 10
77.1862639438
 20
38.90920826510001
 30
0.0
 10
77.1858445582
 20
38.90540901260001
 30
0.0
 10
77.18542517569999
 20
38.9016098156
 30
0.0
 10
77.18513160509999
 20
38.89895032320001
 30
0.0
 10
77.18496385439999
 20
38.8974306901
 30
0.0
 10
77.1848380305
 20
38.8962907504
 30
0.0
 10
77.1847122481
 20
38.8951516314
 30
0.0
 10
77.1846177951
 20
38.8942949914
 30
0.0
 10
77.1845550071
 20
38.8937274762
 30
0.0
 10
77.1845285766
 20
38.8934856871
 30
0.0
 10
77.1845080593
 20
38.8933046766
 30
0.0
 10
77.1844852486
 20
38.89307824260001
 30
0.0
 10
77.18444426419999
 20
38.89266087820001
 30
0.0
 10
77.1843862711
 20
38.8920756549
 30
0.0
 10
77.1842931713
 20
38.8911331438
 30
0.0
 10
77.18417690310001
 20
38.889957112
 30
0.0
 10
77.18399081439999
 20
38.8880742835
 30
0.0
 10
77.183758224
 20
38.885721152
 30
0.0
 10
77.18347910670001
 20
38.8828972207
 30
0.0
 10
77.18319999180001
 20
38.8800733367
 30
0.0
 10
77.1829208761
 20
38.877249437
 30
0.0
 10
77.1826417611
 20
38.874425553
 30
0.0
 10
77.1823626443
 20
38.8716016218
 30
0.0
 10
77.18213005229999
 20
38.8692484901
 30
0.0
 10
77.1819439667
 20
38.8673656619
 30
0.0
 10
77.1818044355
 20
38.86595442260001
 30
0.0
 10
77.1816880544
 20
38.86477558510001
 30
0.0
 10
77.1816067939
 20
38.86395590300001
 30
0.0
 10
77.1815600372
 20
38.8634789189
 30
0.0
 10
77.18152587729999
 20
38.8631453911
 30
0.0
 10
77.1814882479
 20
38.86271931960001
 30
0.0
 10
77.1814392856
 20
38.8621835045
 30
0.0
 10
77.18135303770001
 20
38.86123078820001
 30
0.0
 10
77.1812301213
 20
38.8598776279
 30
0.0
 10
77.18108249530001
 20
38.8582504699
 30
0.0
 10
77.18088570479999
 20
38.8560821016
 30
0.0
 10
77.1806397016
 20
38.853371238
 30
0.0
 10
77.18034450409999
 20
38.8501183734
 30
0.0
 10
77.180049305
 20
38.8468654671
 30
0.0
 10
77.17975410609999
 20
38.8436125559
 30
0.0
 10
77.179458908
 20
38.8403597057
 30
0.0
 10
77.17916370659999
 20
38.8371066167
 30
0.0
 10
77.17886851739999
 20
38.8338544219
 30
0.0
 10
77.17864709149999
 20
38.8314127723
 30
0.0
 10
77.1784995271
 20
38.8297888989
 30
0.0
 10
77.1784379632
 20
38.8291064921
 30
0.0
 10
77.1783888958
 20
38.8285740802
 30
0.0
 10
77.1783391566
 20
38.8279922485
 30
0.0
 10
77.17825180110001
 20
38.8269510814
 30
0.0
 10
77.17812717040001
 20
38.8254756799
 30
0.0
 10
77.1779276701
 20
38.82310834320001
 30
0.0
 10
77.17767832619999
 20
38.8201514598
 30
0.0
 10
77.1772793569
 20
38.8154191949
 30
0.0
 10
77.17678066239999
 20
38.80950409949999
 30
0.0
 10
77.1761821756
 20
38.8024067309
 30
0.0
 10
77.17573344999999
 20
38.7970811838
 30
0.0
 10
77.1754340838
 20
38.7935347871
 30
0.0
 10
77.1753096687
 20
38.7920512085
 30
0.0
 10
77.1752093883
 20
38.7908781409
 30
0.0
 10
77.17511184439999
 20
38.7896546227
 30
0.0
 10
77.17494241389999
 20
38.7874900253
 30
0.0
 10
77.174699707
 20
38.7844099735
 30
0.0
 10
77.1743117467
 20
38.7794750556
 30
0.0
 10
77.17382666929999
 20
38.7733087495
 30
0.0
 10
77.1730506168
 20
38.7634413454
 30
0.0
 10
77.1724685614
 20
38.7560410881
 30
0.0
 10
77.172080528
 20
38.7511075175
 30
0.0
  0
SPLINE
  5
23FD
330
222
100
AcDbEntity
  8
0
  6
Continuous
 62
    40
100
AcDbSpline
210
0.0
220
0.0
230
1.0
 70
     8
 71
     3
 72
    12
 73
     8
 74
     0
 42
0.0000001
 43
0.0000000001
 40
0.0
 40
0.0
 40
0.0
 40
0.0
 40
0.183280726
 40
0.3698978289
 40
0.5702935269000001
 40
0.8291169523
 40
1.0
 40
1.0
 40
1.0
 40
1.0
 10
77.19230753939999
 20
38.7719500078
 30
0.0
 10
77.19263834569999
 20
38.7772198413
 30
0.0
 10
77.19341438259999
 20
38.7886221474
 30
0.0
 10
77.19484646499999
 20
38.8069374732
 30
0.0
 10
77.19649791229999
 20
38.82624789320001
 30
0.0
 10
77.1980879722
 20
38.8435231579
 30
0.0
 10
77.1990773438
 20
38.853152739
 30
0.0
 10
77.199447174
 20
38.8565208723
 30
0.0
  0
SPLINE
  5
23FE
330
222
100
AcDbEntity
  8
0
  6
Continuous
 62
    40
100
AcDbSpline
210
0.0
220
0.0
230
1.0
 70
     8
 71
     3
 72
    12
 73
     8
 74
     0
 42
0.0000001
 43
0.0000000001
 40
0.0
 40
0.0
 40
0.0
 40
0.0
 40
0.1138249509
 40
0.2719586158
 40
0.4736488813000001
 40
0.7766479667000001
 40
1.0
 40
1.0
 40
1.0
 40
1.0
 10
77.199447174
 20
38.8565208723
 30
0.0
 10
77.1991900557
 20
38.8535631157
 30
0.0
 10
77.19857303249999
 20
38.8465376129
 30
0.0
 10
77.19749817510001
 20
38.8341442049
 30
0.0
 10
77.1959909614
 20
38.8155470791
 30
0.0
 10
77.1944993633
 20
38.79495065349999
 30
0.0
 10
77.19349594729999
 20
38.7804719289
 30
0.0
 10
77.1931381965
 20
38.7747728623
 30
0.0
  0
SPLINE
  5
23FF
330
222
100
AcDbEntity
  8
0
  6
Continuous
 62
    40
100
AcDbSpline
210
0.0
220
0.0
230
1.0
 70
     8
 71
     3
 72
    12
 73
     8
 74
     0
 42
0.0000001
 43
0.0000000001
 40
0.0
 40
0.0
 40
0.0
 40
0.0
 40
0.1138249509
 40
0.2719586158
 40
0.4736488813000001
 40
0.7766479667000001
 40
1.0
 40
1.0
 40
1.0
 40
1.0
 10
77.1830589393
 20
38.643374975
 30
0.0
 10
77.18331605759999
 20
38.6463327316
 30
0.0
 10
77.1839330807
 20
38.6533582344
 30
0.0
 10
77.1850079382
 20
38.6657516424
 30
0.0
 10
77.1865151519
 20
38.6843487682
 30
0.0
 10
77.18800675
 20
38.7049451937
 30
0.0
 10
77.1890101659
 20
38.71942391840001
 30
0.0
 10
77.1893679167
 20
38.725122985
 30
0.0
  0
SPLINE
  5
2400
330
222
100
AcDbEntity
  8
0
  6
Continuous
 62
    40
100
AcDbSpline
210
0.0
220
0.0
230
1.0
 70
     8
 71
     3
 72
    12
 73
     8
 74
     0
 42
0.0000001
 43
0.0000000001
 40
0.0
 40
0.0
 40
0.0
 40
0.0
 40
0.183280726
 40
0.3698978289
 40
0.5702935269000001
 40
0.8291169523
 40
1.0
 40
1.0
 40
1.0
 40
1.0
 10
77.19019857390001
 20
38.7279458395
 30
0.0
 10
77.18986776760001
 20
38.722676006
 30
0.0
 10
77.1890917306
 20
38.7112736999
 30
0.0
 10
77.1876596483
 20
38.6929583741
 30
0.0
 10
77.1860082009
 20
38.6736479541
 30
0.0
 10
77.1844181411
 20
38.6563726894
 30
0.0
 10
77.1834287695
 20
38.6467431083
 30
0.0
 10
77.1830589393
 20
38.643374975
 30
0.0
  0
SPLINE
  5
2401
330
222
100
AcDbEntity
  8
0
  6
Continuous
 62
    40
100
AcDbSpline
210
0.0
220
0.0
230
1.0
 70
     8
 71
     3
 72
    12
 73
     8
 74
     0
 42
0.0000001
 43
0.0000000001
 40
0.0
 40
0.0
 40
0.0
 40
0.0
 40
0.1138249509
 40
0.2719586158
 40
0.4736488813000001
 40
0.7766479667000001
 40
1.0
 40
1.0
 40
1.0
 40
1.0
 10
77.2007794201
 20
38.8565208723
 30
0.0
 10
77.20052230180001
 20
38.8535631157
 30
0.0
 10
77.1999052787
 20
38.8465376129
 30
0.0
 10
77.1988304212
 20
38.8341442049
 30
0.0
 10
77.19732320750001
 20
38.8155470791
 30
0.0
 10
77.1958316094
 20
38.79495065349999
 30
0.0
 10
77.1948281935
 20
38.7804719289
 30
0.0
 10
77.19447044270001
 20
38.7747728623
 30
0.0
  0
SPLINE
  5
2402
330
222
100
AcDbEntity
  8
0
  6
Continuous
 62
    40
100
AcDbSpline
210
0.0
220
0.0
230
1.0
 70
     8
 71
     3
 72
    12
 73
     8
 74
     0
 42
0.0000001
 43
0.0000000001
 40
0.0
 40
0.0
 40
0.0
 40
0.0
 40
0.183280726
 40
0.3698978289
 40
0.5702935269000001
 40
0.8291169523
 40
1.0
 40
1.0
 40
1.0
 40
1.0
 10
77.19363978549999
 20
38.7719500078
 30
0.0
 10
77.19397059180001
 20
38.7772198413
 30
0.0
 10
77.1947466288
 20
38.7886221474
 30
0.0
 10
77.1961787111
 20
38.8069374732
 30
0.0
 10
77.1978301585
 20
38.82624789320001
 30
0.0
 10
77.1994202183
 20
38.8435231579
 30
0.0
 10
77.20040958989999
 20
38.853152739
 30
0.0
 10
77.2007794201
 20
38.8565208723
 30
0.0
  0
SPLINE
  5
2403
330
222
100
AcDbEntity
  8
0
  6
Continuous
 62
    40
100
AcDbSpline
210
0.0
220
0.0
230
1.0
 70
     8
 71
     3
 72
    12
 73
     8
 74
     0
 42
0.0000001
 43
0.0000000001
 40
0.0
 40
0.0
 40
0.0
 40
0.0
 40
0.1138249509
 40
0.2719586158
 40
0.4736488813000001
 40
0.7766479667000001
 40
1.0
 40
1.0
 40
1.0
 40
1.0
 10
77.1843911855
 20
38.643374975
 30
0.0
 10
77.1846483037
 20
38.6463327316
 30
0.0
 10
77.18526532689999
 20
38.6533582344
 30
0.0
 10
77.18634018430001
 20
38.6657516424
 30
0.0
 10
77.187847398
 20
38.6843487682
 30
0.0
 10
77.18933899609999
 20
38.7049451937
 30
0.0
 10
77.1903424121
 20
38.71942391840001
 30
0.0
 10
77.1907001629
 20
38.725122985
 30
0.0
  0
SPLINE
  5
2404
330
222
100
AcDbEntity
  8
0
  6
Continuous
 62
    40
100
AcDbSpline
210
0.0
220
0.0
230
1.0
 70
     8
 71
     3
 72
    12
 73
     8
 74
     0
 42
0.0000001
 43
0.0000000001
 40
0.0
 40
0.0
 40
0.0
 40
0.0
 40
0.183280726
 40
0.3698978289
 40
0.5702935269000001
 40
0.8291169523
 40
1.0
 40
1.0
 40
1.0
 40
1.0
 10
77.19153082
 20
38.7279458395
 30
0.0
 10
77.1912000137
 20
38.722676006
 30
0.0
 10
77.1904239768
 20
38.7112736999
 30
0.0
 10
77.18899189439999
 20
38.6929583741
 30
0.0
 10
77.1873404471
 20
38.6736479541
 30
0.0
 10
77.1857503872
 20
38.6563726894
 30
0.0
 10
77.1847610156
 20
38.6467431083
 30
0.0
 10
77.1843911855
 20
38.643374975
 30
0.0
  0
LINE
  5
2405
330
222
100
AcDbEntity
  8
0
  6
Continuous
 62
     7
100
AcDbLine
 10
19.249942989
 20
40.6339333023
 30
0.0
 11
19.2482293316
 21
40.6583528563
 31
0.0
  0
LINE
  5
2406
330
222
100
AcDbEntity
  8
0
  6
Continuous
 62
     7
100
AcDbLine
 10
77.2323985609
 20
40.6339333023
 30
0.0
 11
77.2341122182
 21
40.65835285699999
 31
0.0
  0
LINE
  5
2407
330
222
100
AcDbEntity
  8
0
  6
Continuous
 62
     9
100
AcDbLine
 10
19.8522609854
 20
40.6575809842
 30
0.0
 11
19.8537753941
 21
40.63393335199999
 31
0.0
  0
LINE
  5
2408
330
222
100
AcDbEntity
  8
0
  6
Continuous
 62
     9
100
AcDbLine
 10
19.2482293316
 20
40.6583528563
 30
0.0
 11
19.8522609854
 21
40.6575809842
 31
0.0
  0
LINE
  5
2409
330
222
100
AcDbEntity
  8
0
  6
Continuous
 62
     9
100
AcDbLine
 10
73.5092160476
 20
40.65362976809999
 30
0.0
 11
73.50790644079999
 21
40.6339333166
 31
0.0
  0
LINE
  5
240A
330
222
100
AcDbEntity
  8
0
  6
Continuous
 62
     9
100
AcDbLine
 10
22.9731252361
 20
40.6536297023
 30
0.0
 11
22.9744346501
 21
40.6339333174
 31
0.0
  0
SPLINE
  5
240B
330
222
100
AcDbEntity
  8
0
  6
Continuous
 62
     9
100
AcDbSpline
210
0.0
220
0.0
230
1.0
 70
     8
 71
     3
 72
     9
 73
     5
 74
     0
 42
0.0000001
 43
0.0000000001
 40
0.0
 40
0.0
 40
0.0
 40
0.0
 40
0.4999999879
 40
1.0
 40
1.0
 40
1.0
 40
1.0
 10
22.9731252361
 20
40.6536297023
 30
0.0
 10
31.3958068278
 20
40.6542055732
 30
0.0
 10
48.24117043720001
 20
40.6559843426
 30
0.0
 10
65.08653404659999
 20
40.6542056433
 30
0.0
 10
73.5092160476
 20
40.65362976809999
 30
0.0
  0
LINE
  5
240C
330
222
100
AcDbEntity
  8
0
  6
Continuous
 62
     9
100
AcDbLine
 10
76.6300808822
 20
40.6575812717
 30
0.0
 11
76.62856647689999
 21
40.633933405
 31
0.0
  0
LINE
  5
240D
330
222
100
AcDbEntity
  8
0
  6
Continuous
 62
     9
100
AcDbLine
 10
76.6300808822
 20
40.6575812717
 30
0.0
 11
77.2341122245
 21
40.6583528665
 31
0.0
  0
SPLINE
  5
240E
330
222
100
AcDbEntity
  8
0
  6
Continuous
 62
     9
100
AcDbSpline
210
0.0
220
0.0
230
1.0
 70
     8
 71
     3
 72
    18
 73
    14
 74
     0
 42
0.0000001
 43
0.0000000001
 40
0.0
 40
0.0
 40
0.0
 40
0.0
 40
0.0155906616
 40
0.0388841465
 40
0.0697366932
 40
0.1079493601
 40
0.1532688789
 40
0.2053886758
 40
0.3285469034
 40
0.4739809184000001
 40
0.6375584149
 40
0.8145917736999999
 40
1.0
 40
1.0
 40
1.0
 40
1.0
 10
19.8522596057
 20
40.6575807212
 30
0.0
 10
19.8684738995
 20
40.6571948865
 30
0.0
 10
19.908921319
 20
40.65659175869999
 30
0.0
 10
19.9814640605
 20
40.6558556633
 30
0.0
 10
20.0775422419
 20
40.6551834784
 30
0.0
 10
20.196534473
 20
40.65456918179999
 30
0.0
 10
20.337651537
 20
40.65402796929999
 30
0.0
 10
20.5671370841
 20
40.65337102179999
 30
0.0
 10
20.9007717689
 20
40.6528054665
 30
0.0
 10
21.3503556135
 20
40.6524827935
 30
0.0
 10
21.8559855951
 20
40.6525044311
 30
0.0
 10
22.403200401
 20
40.6528725465
 30
0.0
 10
22.7802462214
 20
40.6533392514
 30
0.0
 10
22.9731252113
 20
40.6536297247
 30
0.0
  0
SPLINE
  5
240F
330
222
100
AcDbEntity
  8
0
  6
Continuous
 62
     9
100
AcDbSpline
210
0.0
220
0.0
230
1.0
 70
     8
 71
     3
 72
    18
 73
    14
 74
     0
 42
0.0000001
 43
0.0000000001
 40
0.0
 40
0.0
 40
0.0
 40
0.0
 40
0.1854073828
 40
0.3624406807
 40
0.5260182154999999
 40
0.6714522884000001
 40
0.7946106033
 40
0.8467304698999999
 40
0.892050075
 40
0.9302628302
 40
0.9611155066
 40
0.9844092041999999
 40
1.0
 40
1.0
 40
1.0
 40
1.0
 10
73.5092160714
 20
40.6536298681
 30
0.0
 10
73.7020942928
 20
40.65333934509999
 30
0.0
 10
74.07913938570001
 20
40.6528726403
 30
0.0
 10
74.62635360010001
 20
40.6525044254
 30
0.0
 10
75.1319839044
 20
40.6524828291
 30
0.0
 10
75.581568194
 20
40.6528056409
 30
0.0
 10
75.91520329089999
 20
40.6533713779
 30
0.0
 10
76.14468922029999
 20
40.65402849589999
 30
0.0
 10
76.2858066183
 20
40.6545697907
 30
0.0
 10
76.4047992319
 20
40.6551842383
 30
0.0
 10
76.500877918
 20
40.65585629949999
 30
0.0
 10
76.57342119
 20
40.6565928071
 30
0.0
 10
76.6138690027
 20
40.6571953583
 30
0.0
 10
76.6300834461
 20
40.6575811563
 30
0.0
  0
SPLINE
  5
2410
330
222
100
AcDbEntity
  8
0
  6
Continuous
 62
     9
100
AcDbSpline
210
0.0
220
0.0
230
1.0
 70
     8
 71
     3
 72
    15
 73
    11
 74
     0
 42
0.0000001
 43
0.0000000001
 40
0.0
 40
0.0
 40
0.0
 40
0.0
 40
0.1245089901
 40
0.2490871677
 40
0.3738176064
 40
0.4987334286
 40
0.6238460763
 40
0.7491340358
 40
0.8745369837
 40
1.0
 40
1.0
 40
1.0
 40
1.0
 10
19.9452516201
 20
40.7589333023
 30
0.0
 10
19.9388529233
 20
40.7589333023
 30
0.0
 10
19.9260122768
 20
40.7575962838
 30
0.0
 10
19.9076013735
 20
40.7516644201
 30
0.0
 10
19.8907784491
 20
40.7420605129
 30
0.0
 10
19.8762667094
 20
40.72919095729999
 30
0.0
 10
19.86467692579999
 20
40.71360317809999
 30
0.0
 10
19.8564997885
 20
40.6959551266
 30
0.0
 10
19.8520773688
 20
40.6770040677
 30
0.0
 10
19.8517598251
 20
40.6640090488
 30
0.0
 10
19.8522603006
 20
40.65758077609999
 30
0.0
  0
SPLINE
  5
2411
330
222
100
AcDbEntity
  8
0
  6
Continuous
 62
     9
100
AcDbSpline
210
0.0
220
0.0
230
1.0
 70
     8
 71
     3
 72
    19
 73
    15
 74
     0
 42
0.0000001
 43
0.0000000001
 40
0.0
 40
0.0
 40
0.0
 40
0.0
 40
0.0102299622
 40
0.0178115639
 40
0.0274500141
 40
0.0532680922
 40
0.087961204
 40
0.1313377679
 40
0.1830178641
 40
0.3090902875
 40
0.4608478346
 40
0.6316805241
 40
0.8140682598999999
 40
1.0
 40
1.0
 40
1.0
 40
1.0
 10
22.9821297562
 20
40.7589333023
 30
0.0
 10
22.9817659855
 20
40.7589333023
 30
0.0
 10
22.981181759
 20
40.7585003112
 30
0.0
 10
22.9806461112
 20
40.757704488
 30
0.0
 10
22.9799524767
 20
40.7563272824
 30
0.0
 10
22.9791718003
 20
40.75395421289999
 30
0.0
 10
22.9783051563
 20
40.7503602223
 30
0.0
 10
22.9774769078
 20
40.7458197916
 30
0.0
 10
22.9763544882
 20
40.73803585599999
 30
0.0
 10
22.9751819594
 20
40.7263729279
 30
0.0
 10
22.9741188085
 20
40.7104526375
 30
0.0
 10
22.9733900283
 20
40.692508858
 30
0.0
 10
22.9730295787
 20
40.6733391135
 30
0.0
 10
22.9730479522
 20
40.6602408476
 30
0.0
 10
22.9731252248
 20
40.6536296888
 30
0.0
  0
SPLINE
  5
2412
330
222
100
AcDbEntity
  8
0
  6
Continuous
 62
     9
100
AcDbSpline
210
0.0
220
0.0
230
1.0
 70
     8
 71
     3
 72
    19
 73
    15
 74
     0
 42
0.0000001
 43
0.0000000001
 40
0.0
 40
0.0
 40
0.0
 40
0.0
 40
0.0102299779
 40
0.0178115819
 40
0.0274500316
 40
0.0532681017
 40
0.0879611983
 40
0.1313377419
 40
0.1830178145
 40
0.3090901882999999
 40
0.4608476972
 40
0.631680378
 40
0.8140681535999998
 40
1.0
 40
1.0
 40
1.0
 40
1.0
 10
73.5002115206
 20
40.7589333023
 30
0.0
 10
73.50057529119999
 20
40.7589333023
 30
0.0
 10
73.50115951779999
 20
40.7585003128
 30
0.0
 10
73.50169516619999
 20
40.757704491
 30
0.0
 10
73.502388801
 20
40.75632728889999
 30
0.0
 10
73.5031694778
 20
40.75395422489999
 30
0.0
 10
73.5040361221
 20
40.7503602426
 30
0.0
 10
73.50486437109999
 20
40.74581982219999
 30
0.0
 10
73.5059867914
 20
40.73803590399999
 30
0.0
 10
73.50715932109999
 20
40.7263730004
 30
0.0
 10
73.5082224735
 20
40.7104527413
 30
0.0
 10
73.50895125550001
 20
40.6925089934
 30
0.0
 10
73.5093117074
 20
40.6733392774
 30
0.0
 10
73.5092933356
 20
40.6602410291
 30
0.0
 10
73.5092160639
 20
40.653629878
 30
0.0
  0
SPLINE
  5
2413
330
222
100
AcDbEntity
  8
0
  6
Continuous
 62
     9
100
AcDbSpline
210
0.0
220
0.0
230
1.0
 70
     8
 71
     3
 72
    15
 73
    11
 74
     0
 42
0.0000001
 43
0.0000000001
 40
0.0
 40
0.0
 40
0.0
 40
0.0
 40
0.1245089847
 40
0.2490871586
 40
0.3738175948
 40
0.4987334160000001
 40
0.6238460642
 40
0.7491340262000001
 40
0.8745369779999998
 40
1.0
 40
1.0
 40
1.0
 40
1.0
 10
76.53709081489999
 20
40.7589333023
 30
0.0
 10
76.5434894951
 20
40.7589333023
 30
0.0
 10
76.55633010779999
 20
40.7575962907
 30
0.0
 10
76.5747409672
 20
40.75166445719999
 30
0.0
 10
76.59156385989999
 20
40.7420605973
 30
0.0
 10
76.60607558529999
 20
40.72919110199999
 30
0.0
 10
76.61766537529999
 20
40.71360339059999
 30
0.0
 10
76.6258425422
 20
40.6959554084
 30
0.0
 10
76.63026501479999
 20
40.67700441329999
 30
0.0
 10
76.63058260859999
 20
40.6640094292
 30
0.0
 10
76.63008216119999
 20
40.65758117059999
 30
0.0
  0
SPLINE
  5
2414
330
222
100
AcDbEntity
  8
0
  6
Continuous
 62
     9
100
AcDbSpline
210
0.0
220
0.0
230
1.0
 70
     8
 71
     3
 72
    23
 73
    19
 74
     0
 42
0.0000001
 43
0.0000000001
 40
0.0
 40
0.0
 40
0.0
 40
0.0
 40
0.0312414745
 40
0.0624844341
 40
0.0937281189
 40
0.124972904
 40
0.1562187051
 40
0.187465177
 40
0.2187125741
 40
0.2499610052
 40
0.312459637
 40
0.3749602542
 40
0.4374631734000001
 40
0.4999680235000001
 40
0.6249775207
 40
0.7499883355
 40
0.8749970939
 40
1.0
 40
1.0
 40
1.0
 40
1.0
 10
19.2499429686
 20
40.6339333023
 30
0.0
 10
19.2652160183
 20
40.4162882736
 30
0.0
 10
19.2957494936
 20
39.980986726
 30
0.0
 10
19.3409472017
 20
39.3279831557
 30
0.0
 10
19.3878049467
 20
38.6750685163
 30
0.0
 10
19.4402185017
 20
38.0225529115
 30
0.0
 10
19.4972000357
 20
37.3704041338
 30
0.0
 10
19.558572926
 20
36.7186346086
 30
0.0
 10
19.6247437733
 20
36.0673153227
 30
0.0
 10
19.7193999531
 20
35.1995356576
 30
0.0
 10
19.8493560395
 20
34.116079078
 30
0.0
 10
20.0236358002
 20
32.8182315133
 30
0.0
 10
20.2166838122
 20
31.5229931848
 30
0.0
 10
20.4989188389
 20
29.79986636300001
 30
0.0
 10
20.8979612234
 20
27.65375054510001
 30
0.0
 10
21.4505151203
 20
25.0932559802
 30
0.0
 10
22.076340036
 20
22.54973713
 30
0.0
 10
22.5420216884
 20
20.8666911013
 30
0.0
 10
22.7868752097
 20
20.028753201
 30
0.0
  0
SPLINE
  5
2415
330
222
100
AcDbEntity
  8
0
  6
Continuous
 62
     9
100
AcDbSpline
210
0.0
220
0.0
230
1.0
 70
     8
 71
     3
 72
     9
 73
     5
 74
     0
 42
0.0000001
 43
0.0000000001
 40
0.0
 40
0.0
 40
0.0
 40
0.0
 40
0.4999887887
 40
1.0
 40
1.0
 40
1.0
 40
1.0
 10
77.2323985609
 20
40.6339333023
 30
0.0
 10
77.21912317180001
 20
40.4447554692
 30
0.0
 10
77.19256510939999
 20
40.0663917623
 30
0.0
 10
77.1663408778
 20
39.6880047547
 30
0.0
 10
77.1531085023
 20
39.4988153826
 30
0.0
  0
SPLINE
  5
2416
330
222
100
AcDbEntity
  8
0
  6
Continuous
 62
     9
100
AcDbSpline
210
0.0
220
0.0
230
1.0
 70
     8
 71
     3
 72
    21
 73
    17
 74
     0
 42
0.0000001
 43
0.0000000001
 40
0.0
 40
0.0
 40
0.0
 40
0.0
 40
0.0312452104
 40
0.0624910007
 40
0.0937375311
 40
0.1249849832
 40
0.15623325
 40
0.1874821238
 40
0.249980906
 40
0.3124814777
 40
0.3749840854999999
 40
0.4374882052000001
 40
0.4999932570000001
 40
0.6250024608000001
 40
0.7500117884000001
 40
1.0
 40
1.0
 40
1.0
 40
1.0
 10
77.04072812949999
 20
38.0150616998
 30
0.0
 10
77.0247656393
 20
37.8248754157
 30
0.0
 10
76.99167189939998
 20
37.4445965286
 30
0.0
 10
76.9386836498
 20
36.8744737906
 30
0.0
 10
76.88208995550001
 20
36.304683111
 30
0.0
 10
76.8217880237
 20
35.7352579027
 30
0.0
 10
76.75786566880001
 20
35.1662133031
 30
0.0
 10
76.66790796349999
 20
34.40801523440001
 30
0.0
 10
76.5466801541
 20
33.4613084105
 30
0.0
 10
76.3870189934
 20
32.3271441681
 30
0.0
 10
76.21299985479999
 20
31.1950606682
 30
0.0
 10
76.0247659975
 20
30.0652242149
 30
0.0
 10
75.7549327817
 20
28.5620344389
 30
0.0
 10
75.38231459710001
 20
26.6895242221
 30
0.0
 10
74.71116433510001
 20
23.7097784659
 30
0.0
 10
74.123760225
 20
21.4944609173
 30
0.0
 10
73.69546631979999
 20
20.028753201
 30
0.0
  0
SPLINE
  5
2417
330
222
100
AcDbEntity
  8
0
  6
Continuous
 62
     6
100
AcDbSpline
210
0.0
220
0.0
230
1.0
 70
     8
 71
     3
 72
    19
 73
    15
 74
     0
 42
0.0000001
 43
0.0000000001
 40
0.0
 40
0.0
 40
0.0
 40
0.0
 40
0.0296761403
 40
0.0502131852
 40
0.0811693082
 40
0.1122539423
 40
0.148350108
 40
0.1907479426
 40
0.2397193679
 40
0.3566806521
 40
0.4962149262
 40
0.6537180381000001
 40
0.8236750841999999
 40
1.0
 40
1.0
 40
1.0
 40
1.0
 10
77.17806905999999
 20
38.5879413698
 30
0.0
 10
77.17878403829999
 20
38.5893908224
 30
0.0
 10
77.17983108279999
 20
38.5919275187
 30
0.0
 10
77.1810872001
 20
38.5961693123
 30
0.0
 10
77.18201671199999
 20
38.6005739644
 30
0.0
 10
77.18288548310001
 20
38.6058477369
 30
0.0
 10
77.1837238344
 20
38.6117568043
 30
0.0
 10
77.18460133989999
 20
38.618643155
 30
0.0
 10
77.1859236825
 20
38.6299119415
 30
0.0
 10
77.18767379119999
 20
38.6464562086
 30
0.0
 10
77.18984122870001
 20
38.6688988752
 30
0.0
 10
77.19210861270001
 20
38.69423091690001
 30
0.0
 10
77.19439690299999
 20
38.7215722414
 30
0.0
 10
77.1958720884
 20
38.7403735227
 30
0.0
 10
77.1965992125
 20
38.7499488394
 30
0.0
  0
LINE
  5
2418
330
222
100
AcDbEntity
  8
0
  6
Continuous
 62
     6
100
AcDbLine
 10
77.1965992125
 20
38.7499488394
 30
0.0
 11
77.19668105050001
 21
38.7510279122
 31
0.0
  0
SPLINE
  5
2419
330
222
100
AcDbEntity
  8
0
  6
Continuous
 62
     6
100
AcDbSpline
210
0.0
220
0.0
230
1.0
 70
     8
 71
     3
 72
    16
 73
    12
 74
     0
 42
0.0000001
 43
0.0000000001
 40
0.0
 40
0.0
 40
0.0
 40
0.0
 40
0.1766940353
 40
0.3470430622
 40
0.5053529617
 40
0.6464316038
 40
0.7658965775
 40
0.8607199912
 40
0.8986998545999998
 40
0.9312353678
 40
1.0
 40
1.0
 40
1.0
 40
1.0
 10
77.19668105050001
 20
38.7510279122
 30
0.0
 10
77.19738209129999
 20
38.7602832186
 30
0.0
 10
77.19871489109999
 20
38.7784648554
 30
0.0
 10
77.2005222884
 20
38.80494978090001
 30
0.0
 10
77.2020643886
 20
38.8295772761
 30
0.0
 10
77.2032930939
 20
38.8515455592
 30
0.0
 10
77.2041703988
 20
38.870193314
 30
0.0
 10
77.20462777379999
 20
38.8834365974
 30
0.0
 10
77.20476346739999
 20
38.8921234698
 30
0.0
 10
77.2047387854
 20
38.899433123
 30
0.0
 10
77.20444607340001
 20
38.90478630469999
 30
0.0
 10
77.203733434
 20
38.9083275481
 30
0.0
  0
LINE
  5
241A
330
222
100
AcDbEntity
  8
0
  6
Continuous
 62
     6
100
AcDbLine
 10
77.203733434
 20
38.9083275481
 30
0.0
 11
77.2027165571
 21
38.9122876984
 31
0.0
  0
LINE
  5
241B
330
222
100
AcDbEntity
  8
0
  6
Continuous
 62
     6
100
AcDbLine
 10
77.1649832992
 20
38.56141303
 30
0.0
 11
77.163600029
 21
38.55793926150001
 31
0.0
  0
LINE
  5
241C
330
222
100
AcDbEntity
  8
0
  6
Continuous
 62
     6
100
AcDbLine
 10
77.163600029
 20
38.55793926150001
 30
0.0
 11
77.16352806729999
 21
38.5576794734
 31
0.0
  0
LINE
  5
241D
330
222
100
AcDbEntity
  8
0
  6
Continuous
 62
     6
100
AcDbLine
 10
77.19292422720001
 20
38.9443254104
 30
0.0
 11
77.1937897575
 21
38.9404888012
 31
0.0
  0
SPLINE
  5
241E
330
222
100
AcDbEntity
  8
0
  6
Continuous
 62
     7
100
AcDbSpline
210
0.0
220
0.0
230
1.0
 70
     8
 71
     3
 72
    52
 73
    48
 74
     0
 42
0.0000001
 43
0.0000000001
 40
0.0
 40
0.0
 40
0.0
 40
0.0
 40
0.0467706282
 40
0.0911397976
 40
0.1328007923
 40
0.1714709281
 40
0.2068815053
 40
0.2387934152
 40
0.2669842868
 40
0.2912663186
 40
0.3114713646
 40
0.3200038248
 40
0.32747046
 40
0.3338582368
 40
0.3391598019
 40
0.3433718451
 40
0.3464958064
 40
0.3485487064
 40
0.3491987628
 40
0.3496432702
 40
0.3500027053
 40
0.3504689813000001
 40
0.3511488825
 40
0.3520782752
 40
0.3532706852
 40
0.3547318024
 40
0.3564640431
 40
0.3584684467
 40
0.3632944389
 40
0.3692085778
 40
0.3762056821
 40
0.3842744493
 40
0.3934010402000001
 40
0.4035712199
 40
0.4147697709000001
 40
0.4269767954
 40
0.4543292943
 40
0.4854471078
 40
0.520113368
 40
0.5580942068
 40
0.5991256127000001
 40
0.6429292548
 40
0.6892021814
 40
0.7376292101999999
 40
0.7878718722000001
 40
0.8924269097999999
 40
1.0
 40
1.0
 40
1.0
 40
1.0
 10
77.17260540019999
 20
38.5767276885
 30
0.0
 10
77.171800775
 20
38.5677900103
 30
0.0
 10
77.1702089595
 20
38.5503756998
 30
0.0
 10
77.1678116394
 20
38.5250083561
 30
0.0
 10
77.16547836310001
 20
38.50119624860001
 30
0.0
 10
77.1632257066
 20
38.4791035087
 30
0.0
 10
77.1610690958
 20
38.458881417
 30
0.0
 10
77.1590241862
 20
38.4406697207
 30
0.0
 10
77.157105522
 20
38.424592813
 30
0.0
 10
77.1553273736
 20
38.4107618073
 30
0.0
 10
77.1539058213
 20
38.4006883645
 30
0.0
 10
77.1528328859
 20
38.3938250943
 30
0.0
 10
77.15211706249999
 20
38.3895898054
 30
0.0
 10
77.15144577949999
 20
38.3859755928
 30
0.0
 10
77.1508203849
 20
38.3829900957
 30
0.0
 10
77.1502456531
 20
38.3806309683
 30
0.0
 10
77.1497213741
 20
38.3789125794
 30
0.0
 10
77.1492953613
 20
38.3778634928
 30
0.0
 10
77.14894669579999
 20
38.3773739981
 30
0.0
 10
77.1487126319
 20
38.3771916165
 30
0.0
 10
77.14844696989999
 20
38.3772279485
 30
0.0
 10
77.1482524419
 20
38.3774609235
 30
0.0
 10
77.1480801892
 20
38.3778176729
 30
0.0
 10
77.14791836260001
 20
38.3783332435
 30
0.0
 10
77.14776738729999
 20
38.3790036595
 30
0.0
 10
77.14762761979999
 20
38.37983401480001
 30
0.0
 10
77.147499596
 20
38.3808231327
 30
0.0
 10
77.1473347617
 20
38.3824579456
 30
0.0
 10
77.1471705373
 20
38.3848982484
 30
0.0
 10
77.14703109189999
 20
38.3882988177
 30
0.0
 10
77.1469417248
 20
38.3923234254
 30
0.0
 10
77.1469026629
 20
38.3969651421
 30
0.0
 10
77.1469144959
 20
38.4022158019
 30
0.0
 10
77.1469774546
 20
38.4080666196
 30
0.0
 10
77.14709168999999
 20
38.41450779
 30
0.0
 10
77.14732115529999
 20
38.42424402050001
 30
0.0
 10
77.1477436207
 20
38.4377984045
 30
0.0
 10
77.14843122659999
 20
38.4556552829
 30
0.0
 10
77.1493133666
 20
38.4755450746
 30
0.0
 10
77.15038463509999
 20
38.497330177
 30
0.0
 10
77.1516377418
 20
38.5208614268
 30
0.0
 10
77.15306455709999
 20
38.5459765047
 30
0.0
 10
77.1546551978
 20
38.5725034143
 30
0.0
 10
77.15639902699999
 20
38.6002586869
 30
0.0
 10
77.158946227
 20
38.6391679198
 30
0.0
 10
77.162421795
 20
38.6893887611
 30
0.0
 10
77.1654135145
 20
38.7299795754
 30
0.0
 10
77.16697551660001
 20
38.75056030400001
 30
0.0
  0
LINE
  5
241F
330
222
100
AcDbEntity
  8
0
  6
Continuous
 62
     7
100
AcDbLine
 10
77.16697551660001
 20
38.75056030400001
 30
0.0
 11
77.1670188767
 21
38.75113145610001
 31
0.0
  0
SPLINE
  5
2420
330
222
100
AcDbEntity
  8
0
  6
Continuous
 62
     7
100
AcDbSpline
210
0.0
220
0.0
230
1.0
 70
     8
 71
     3
 72
    54
 73
    50
 74
     0
 42
0.0000001
 43
0.0000000001
 40
0.0
 40
0.0
 40
0.0
 40
0.0
 40
0.0466940819
 40
0.090984042
 40
0.1325626324
 40
0.1711464398
 40
0.2064664486
 40
0.2382830254
 40
0.2663737459
 40
0.2905505396
 40
0.3011173012
 40
0.3106456737999999
 40
0.3191212566
 40
0.3265299907
 40
0.3328588996000001
 40
0.3381005943999999
 40
0.3422520721
 40
0.3453153490999999
 40
0.3464439677
 40
0.3473116457
 40
0.3479351514
 40
0.3483611446
 40
0.3487230534
 40
0.3492101495
 40
0.3499174715
 40
0.3508766815
 40
0.3520999978
 40
0.3535926457
 40
0.3553568021
 40
0.3573933699
 40
0.3622841168
 40
0.3682632052000001
 40
0.3753252096
 40
0.3834586884
 40
0.392649556
 40
0.4028833409000001
 40
0.4141446455
 40
0.4264134289000001
 40
0.4538855568
 40
0.4851164423
 40
0.5198875909
 40
0.5579633894000001
 40
0.59907813
 40
0.6429517308000001
 40
0.6892795491000001
 40
0.7377446938
 40
0.7880070586
 40
0.8925406454
 40
1.0
 40
1.0
 40
1.0
 40
1.0
 10
77.19901354290001
 20
38.9242532172
 30
0.0
 10
77.19956973010001
 20
38.9332267821
 30
0.0
 10
77.20062944449999
 20
38.9507133949
 30
0.0
 10
77.20209503630001
 20
38.9761958058
 30
0.0
 10
77.2033881766
 20
39.00012381590001
 30
0.0
 10
77.2045004079
 20
39.0223317897
 30
0.0
 10
77.20542405020001
 20
39.0426670059
 30
0.0
 10
77.2061536034
 20
39.0609883023
 30
0.0
 10
77.20668411210001
 20
39.0771698524
 30
0.0
 10
77.20697106199999
 20
39.0892652542
 30
0.0
 10
77.2070880798
 20
39.0977889258
 30
0.0
 10
77.20712022479999
 20
39.1032900991
 30
0.0
 10
77.20710119979999
 20
39.1081832699
 30
0.0
 10
77.20703142819999
 20
39.11245996570001
 30
0.0
 10
77.20691117529999
 20
39.1161124924
 30
0.0
 10
77.2067424473
 20
39.1191357291
 30
0.0
 10
77.2065256774
 20
39.1215242024
 30
0.0
 10
77.2062945767
 20
39.123117028
 30
0.0
 10
77.20606667770001
 20
39.1240641165
 30
0.0
 10
77.2059005672
 20
39.12454358530001
 30
0.0
 10
77.2057281576
 20
39.1248677784
 30
0.0
 10
77.2055148059
 20
39.1250671742
 30
0.0
 10
77.20524587639999
 20
39.1250421779
 30
0.0
 10
77.20502277999999
 20
39.1248252723
 30
0.0
 10
77.2047955127
 20
39.1244801392
 30
0.0
 10
77.2045561517
 20
39.1239751446
 30
0.0
 10
77.2043032641
 20
39.1233144075
 30
0.0
 10
77.20403761029999
 20
39.1224931847
 30
0.0
 10
77.2037594593
 20
39.1215125648
 30
0.0
 10
77.2033468747
 20
39.1198905155
 30
0.0
 10
77.20281222
 20
39.1174630904
 30
0.0
 10
77.2021560786
 20
39.1140730908
 30
0.0
 10
77.20145507079999
 20
39.1100565289
 30
0.0
 10
77.20071049180001
 20
39.10542032969999
 30
0.0
 10
77.1999241469
 20
39.1001726154
 30
0.0
 10
77.19909760350001
 20
39.0943221831
 30
0.0
 10
77.1982325028
 20
39.0878788384
 30
0.0
 10
77.19698184810001
 20
39.07813845710001
 30
0.0
 10
77.1953433899
 20
39.0645714717
 30
0.0
 10
77.19331535100001
 20
39.0466878583
 30
0.0
 10
77.19117261609999
 20
39.0267628181
 30
0.0
 10
77.1889307532
 20
39.00493464210001
 30
0.0
 10
77.1866052176
 20
38.9813534018
 30
0.0
 10
77.18421262140001
 20
38.9561823376
 30
0.0
 10
77.18176930600001
 20
38.9295945585
 30
0.0
 10
77.1792925985
 20
38.9017746477
 30
0.0
 10
77.1759242226
 20
38.8627826059
 30
0.0
 10
77.17176528659999
 20
38.8124576108
 30
0.0
 10
77.1685855801
 20
38.7717629848
 30
0.0
 10
77.1670188767
 20
38.75113145610001
 30
0.0
  0
SPLINE
  5
2421
330
222
100
AcDbEntity
  8
0
  6
Continuous
 62
     7
100
AcDbSpline
210
0.0
220
0.0
230
1.0
 70
     8
 71
     3
 72
    39
 73
    35
 74
     0
 42
0.0000001
 43
0.0000000001
 40
0.0
 40
0.0
 40
0.0
 40
0.0
 40
0.0038772054
 40
0.0070578596
 40
0.0095485673
 40
0.0113655141
 40
0.0120349089
 40
0.0125607264
 40
0.0129719248
 40
0.0133270624
 40
0.0141820716
 40
0.0155726647
 40
0.017612085
 40
0.0203324563
 40
0.0237457014
 40
0.0278568638
 40
0.0326678184
 40
0.0381769581
 40
0.0512753994
 40
0.0671203656
 40
0.085675027
 40
0.1068866949
 40
0.1306920144
 40
0.1570266628
 40
0.1858162561
 40
0.2169736879
 40
0.2504108662
 40
0.3237363319
 40
0.4049387262
 40
0.4930808939000001
 40
0.5871453253
 40
0.6860278045000001
 40
0.7885917963
 40
1.0
 40
1.0
 40
1.0
 40
1.0
 10
77.1475105689
 20
38.3819266104
 30
0.0
 10
77.1473931034
 20
38.3814507366
 30
0.0
 10
77.14716830589999
 20
38.3805871657
 30
0.0
 10
77.14681914829999
 20
38.3794308869
 30
0.0
 10
77.14649147180001
 20
38.3785425848
 30
0.0
 10
77.1462179284
 20
38.3779727154
 30
0.0
 10
77.1459973816
 20
38.3776607599
 30
0.0
 10
77.14585276840001
 20
38.3775164993
 30
0.0
 10
77.1457065042
 20
38.3774350045
 30
0.0
 10
77.1454907796
 20
38.3774325719
 30
0.0
 10
77.14523962520001
 20
38.37769520070001
 30
0.0
 10
77.14503532569999
 20
38.37818960550001
 30
0.0
 10
77.14482961619999
 20
38.3789451219
 30
0.0
 10
77.1446489019
 20
38.3799615596
 30
0.0
 10
77.1444837628
 20
38.3812470286
 30
0.0
 10
77.1443397339
 20
38.3827998383
 30
0.0
 10
77.144215891
 20
38.3846202281
 30
0.0
 10
77.1440705904
 20
38.3875773427
 30
0.0
 10
77.14395464279999
 20
38.391931785
 30
0.0
 10
77.14390489420001
 20
38.3979364709
 30
0.0
 10
77.1439407413
 20
38.404966946
 30
0.0
 10
77.14406225409999
 20
38.4130028651
 30
0.0
 10
77.1442695793
 20
38.4220208484
 30
0.0
 10
77.14456253689999
 20
38.4319948946
 30
0.0
 10
77.1449404991
 20
38.4428961355
 30
0.0
 10
77.1454022936
 20
38.4546927863
 30
0.0
 10
77.1461518006
 20
38.4721125922
 30
0.0
 10
77.1472964209
 20
38.495847755
 30
0.0
 10
77.148936991
 20
38.5264823665
 30
0.0
 10
77.15086614669999
 20
38.5597267619
 30
0.0
 10
77.1530619393
 20
38.5951942769
 30
0.0
 10
77.1554989026
 20
38.6324733359
 30
0.0
 10
77.1590690888
 20
38.6845443261
 30
0.0
 10
77.1619621131
 20
38.7241314895
 30
0.0
 10
77.1639847097
 20
38.7507811191
 30
0.0
  0
LINE
  5
2422
330
222
100
AcDbEntity
  8
0
  6
Continuous
 62
     7
100
AcDbLine
 10
77.1639847097
 20
38.7507811191
 30
0.0
 11
77.1640285573
 21
38.75135869440001
 31
0.0
  0
SPLINE
  5
2423
330
222
100
AcDbEntity
  8
0
  6
Continuous
 62
     7
100
AcDbSpline
210
0.0
220
0.0
230
1.0
 70
     8
 71
     3
 72
    39
 73
    35
 74
     0
 42
0.0000001
 43
0.0000000001
 40
0.0
 40
0.0
 40
0.0
 40
0.0
 40
0.0038878884
 40
0.007077807
 40
0.0095763517
 40
0.0113995935
 40
0.0120714207
 40
0.012599017
 40
0.0130110397
 40
0.0133657082
 40
0.0142173437
 40
0.0156050093
 40
0.0176427561
 40
0.02036272
 40
0.0237767415
 40
0.0278897698
 40
0.0327036903
 40
0.0382171037
 40
0.0513276531
 40
0.0671887723
 40
0.0857630531
 40
0.1069979323
 40
0.1308292304
 40
0.1571917709
 40
0.1860109456
 40
0.2171988445
 40
0.2506663879
 40
0.3240496662
 40
0.4052998317000001
 40
0.4934723547
 40
0.5875417373
 40
0.6863957579000001
 40
0.7888898732
 40
1.0
 40
1.0
 40
1.0
 40
1.0
 10
77.20364389390001
 20
39.120509774
 30
0.0
 10
77.2035997074
 20
39.1210020738
 30
0.0
 10
77.20350798040001
 20
39.1218973035
 30
0.0
 10
77.2033373983
 20
39.1231034808
 30
0.0
 10
77.2031474017
 20
39.1240395195
 30
0.0
 10
77.2029627224
 20
39.1246499492
 30
0.0
 10
77.20279144979999
 20
39.1249953362
 30
0.0
 10
77.202670006
 20
39.1251617792
 30
0.0
 10
77.2025375452
 20
39.1252660769
 30
0.0
 10
77.2023240714
 20
39.1253029908
 30
0.0
 10
77.2020343229
 20
39.1250810233
 30
0.0
 10
77.2017570591
 20
39.1246212887
 30
0.0
 10
77.2014382048
 20
39.1239019617
 30
0.0
 10
77.20110471239999
 20
39.12291896860001
 30
0.0
 10
77.20074569000001
 20
39.121665756
 30
0.0
 10
77.20036702689999
 20
39.1201431565
 30
0.0
 10
77.1999677218
 20
39.1183510615
 30
0.0
 10
77.1993744765
 20
39.1154308789
 30
0.0
 10
77.19859814909999
 20
39.1111154736
 30
0.0
 10
77.1976368909
 20
39.1051475607
 30
0.0
 10
77.19660476680001
 20
39.0981455195
 30
0.0
 10
77.19550499010001
 20
39.0901297177
 30
0.0
 10
77.19434125779999
 20
39.0811235718
 30
0.0
 10
77.1931173618
 20
39.0711531967
 30
0.0
 10
77.1918371071
 20
39.0602476199
 30
0.0
 10
77.1905041748
 20
39.0484388717
 30
0.0
 10
77.18860317569999
 20
39.0309928304
 30
0.0
 10
77.186135857
 20
39.0072064543
 30
0.0
 10
77.1831139299
 20
38.9764859777
 30
0.0
 10
77.1799831898
 20
38.9431339715
 30
0.0
 10
77.17678079399999
 20
38.9075411129
 30
0.0
 10
77.17354419500001
 20
38.8701234581
 30
0.0
 10
77.1691915043
 20
38.81786732670001
 30
0.0
 10
77.16606079279999
 20
38.7781206987
 30
0.0
 10
77.1640285573
 20
38.75135869440001
 30
0.0
  0
LINE
  5
2424
330
222
100
AcDbEntity
  8
0
  6
Continuous
 62
     9
100
AcDbLine
 10
77.20301674809999
 20
38.9101934118
 30
0.0
 11
77.202716536
 21
38.9122873198
 31
0.0
  0
LINE
  5
2425
330
222
100
AcDbEntity
  8
0
  6
Continuous
 62
     9
100
AcDbLine
 10
77.1965870178
 20
38.74994792360001
 30
0.0
 11
77.19666899039999
 21
38.7510287821
 31
0.0
  0
SPLINE
  5
2426
330
222
100
AcDbEntity
  8
0
  6
Continuous
 62
     9
100
AcDbSpline
210
0.0
220
0.0
230
1.0
 70
     8
 71
     3
 72
    47
 73
    43
 74
     0
 42
0.0000001
 43
0.0000000001
 40
0.0
 40
0.0
 40
0.0
 40
0.0
 40
0.097564877
 40
0.1912392939
 40
0.2774549251
 40
0.3167298405
 40
0.3529406068999999
 40
0.3857417903
 40
0.4148228934000001
 40
0.4399085868000001
 40
0.4508754570000001
 40
0.4607592167
 40
0.4695366802000001
 40
0.4771851008
 40
0.4836872874
 40
0.4890329898
 40
0.493214209
 40
0.4948670453
 40
0.4962285643000001
 40
0.4973017623
 40
0.4980948648
 40
0.4986293936
 40
0.4989784696
 40
0.4999001968
 40
0.5007407439
 40
0.5018632734000001
 40
0.5032748893
 40
0.5049781335
 40
0.5092603205
 40
0.514706487
 40
0.521308161
 40
0.5290547483
 40
0.5379287627
 40
0.5589665106
 40
0.5842300722
 40
0.6134779020000001
 40
0.6464330600000001
 40
0.6827835513
 40
0.7221826173999999
 40
0.8085951985999999
 40
0.9023921354
 40
1.0
 40
1.0
 40
1.0
 40
1.0
 10
77.19666899039999
 20
38.7510287821
 30
0.0
 10
77.19740266159999
 20
38.7607150794
 30
0.0
 10
77.19879233189999
 20
38.7797051368
 30
0.0
 10
77.20066166889999
 20
38.8072667297
 30
0.0
 10
77.2020085934
 20
38.8290464574
 30
0.0
 10
77.2029103103
 20
38.8451210108
 30
0.0
 10
77.2034673703
 20
38.8558882264
 30
0.0
 10
77.20392166359999
 20
38.865644342
 30
0.0
 10
77.2042690067
 20
38.8742963988
 30
0.0
 10
77.20447597729999
 20
38.8807782494
 30
0.0
 10
77.20458059249999
 20
38.8853507314
 30
0.0
 10
77.2046270781
 20
38.8883003148
 30
0.0
 10
77.2046452978
 20
38.890919814
 30
0.0
 10
77.2046352398
 20
38.8932026835
 30
0.0
 10
77.2045973124
 20
38.8951435735
 30
0.0
 10
77.2045319252
 20
38.89673831280001
 30
0.0
 10
77.2044512463
 20
38.8978488349
 30
0.0
 10
77.2043672378
 20
38.898560611
 30
0.0
 10
77.2043020669
 20
38.8989622009
 30
0.0
 10
77.20423272959999
 20
38.8992770388
 30
0.0
 10
77.2041532234
 20
38.8995018601
 30
0.0
 10
77.2040771697
 20
38.8996539794
 30
0.0
 10
77.20389778499999
 20
38.8997473828
 30
0.0
 10
77.2037366493
 20
38.8995201499
 30
0.0
 10
77.2036204541
 20
38.89928104
 30
0.0
 10
77.2034982727
 20
38.8989592708
 30
0.0
 10
77.20337372729999
 20
38.8985590961
 30
0.0
 10
77.20318102749999
 20
38.8978467281
 30
0.0
 10
77.2029321618
 20
38.8967365514
 30
0.0
 10
77.20262407469999
 20
38.8951396359
 30
0.0
 10
77.20229124640001
 20
38.8931971216
 30
0.0
 10
77.2019342617
 20
38.8909126236
 30
0.0
 10
77.20139678629999
 20
38.8872018514
 30
0.0
 10
77.200681893
 20
38.8817548135
 30
0.0
 10
77.19978568890001
 20
38.8742862632
 30
0.0
 10
77.19881893520001
 20
38.8656314037
 30
0.0
 10
77.19779129389999
 20
38.8558728417
 30
0.0
 10
77.1967129647
 20
38.845103472
 30
0.0
 10
77.1951736879
 20
38.82903130840001
 30
0.0
 10
77.1932130915
 20
38.8072538803
 30
0.0
 10
77.1908964149
 20
38.77969006420001
 30
0.0
 10
77.189401358
 20
38.7606914832
 30
0.0
 10
77.1886636703
 20
38.7510011985
 30
0.0
  0
LINE
  5
2427
330
222
100
AcDbEntity
  8
0
  6
Continuous
 62
     9
100
AcDbLine
 10
77.1886636703
 20
38.7510011985
 30
0.0
 11
77.1886307108
 21
38.75056802079999
 31
0.0
  0
LINE
  5
2428
330
222
100
AcDbEntity
  8
0
  6
Continuous
 62
     9
100
AcDbLine
 10
77.1886307108
 20
38.75056802079999
 30
0.0
 11
77.18858358770001
 21
38.74994792360001
 31
0.0
  0
SPLINE
  5
2429
330
222
100
AcDbEntity
  8
0
  6
Continuous
 62
     9
100
AcDbSpline
210
0.0
220
0.0
230
1.0
 70
     8
 71
     3
 72
    17
 73
    13
 74
     0
 42
0.0000001
 43
0.0000000001
 40
0.0
 40
0.0
 40
0.0
 40
0.0
 40
0.0890425517
 40
0.1411779006
 40
0.1618857109
 40
0.1865635631
 40
0.2192190183
 40
0.2616434524
 40
0.3785185384
 40
0.5400664596000001
 40
0.7471222337000001
 40
1.0
 40
1.0
 40
1.0
 40
1.0
 10
77.20271652930001
 20
38.912287341
 30
0.0
 10
77.202688046
 20
38.9123773629
 30
0.0
 10
77.2026402603
 20
38.9125141042
 30
0.0
 10
77.2025193266
 20
38.9126645462
 30
0.0
 10
77.202409323
 20
38.9126635463
 30
0.0
 10
77.2023374775
 20
38.9126176126
 30
0.0
 10
77.2022666087
 20
38.9125385583
 30
0.0
 10
77.2021570741
 20
38.9123661644
 30
0.0
 10
77.20202114140001
 20
38.9120528857
 30
0.0
 10
77.20185708949999
 20
38.9115648502
 30
0.0
 10
77.20168138560001
 20
38.910929359
 30
0.0
 10
77.2015677893
 20
38.9104550181
 30
0.0
 10
77.2015083121
 20
38.9101935465
 30
0.0
  0
SPLINE
  5
242A
330
222
100
AcDbEntity
  8
0
  6
Continuous
 62
     9
100
AcDbSpline
210
0.0
220
0.0
230
1.0
 70
     8
 71
     3
 72
    17
 73
    13
 74
     0
 42
0.0000001
 43
0.0000000001
 40
0.0
 40
0.0
 40
0.0
 40
0.0
 40
0.0194650675
 40
0.0463073543
 40
0.0803521923
 40
0.121342553
 40
0.2229089599
 40
0.3479732963
 40
0.4927828678
 40
0.6529871636
 40
0.8237660190999999
 40
1.0
 40
1.0
 40
1.0
 40
1.0
 10
77.2015083121
 20
38.9101935465
 30
0.0
 10
77.2012783606
 20
38.9091826429
 30
0.0
 10
77.20082367509999
 20
38.9067572808
 30
0.0
 10
77.20015571720001
 20
38.9025301374
 30
0.0
 10
77.1994087426
 20
38.8971553576
 30
0.0
 10
77.19822788229999
 20
38.8878237258
 30
0.0
 10
77.1966344431
 20
38.8736587204
 30
0.0
 10
77.19462499710001
 20
38.8539776396
 30
0.0
 10
77.1924727528
 20
38.8311724065
 30
0.0
 10
77.19024311510001
 20
38.8059294086
 30
0.0
 10
77.1880048818
 20
38.7790073312
 30
0.0
 10
77.18656017189999
 20
38.7605815823
 30
0.0
 10
77.1858477718
 20
38.7512222719
 30
0.0
  0
LINE
  5
242B
330
222
100
AcDbEntity
  8
0
  6
Continuous
 62
     9
100
AcDbLine
 10
77.1858477718
 20
38.7512222719
 30
0.0
 11
77.1857651981
 21
38.7501361625
 31
0.0
  0
SPLINE
  5
242C
330
222
100
AcDbEntity
  8
0
  6
Continuous
 62
     9
100
AcDbSpline
210
0.0
220
0.0
230
1.0
 70
     8
 71
     3
 72
    47
 73
    43
 74
     0
 42
0.0000001
 43
0.0000000001
 40
0.0
 40
0.0
 40
0.0
 40
0.0
 40
0.0973722419
 40
0.1909755659
 40
0.2771991778
 40
0.3164997987
 40
0.3527450347
 40
0.3855866788
 40
0.4147103083000001
 40
0.4398383076
 40
0.4508251944
 40
0.4607278382000001
 40
0.4695228929
 40
0.4771874183
 40
0.4837038203000001
 40
0.4890616874
 40
0.4932529068
 40
0.4949098834
 40
0.4962749325
 40
0.4973509832
 40
0.4981461757
 40
0.4986818412
 40
0.4990306619
 40
0.4999503421
 40
0.5007908214
 40
0.5019139400000001
 40
0.5033267765999999
 40
0.5050318364000001
 40
0.5093193646000001
 40
0.5147730505000001
 40
0.5213843198000001
 40
0.5291424283000001
 40
0.5380295215
 40
0.5590973709
 40
0.5843947694000001
 40
0.6136771008
 40
0.646665159
 40
0.6830431231000001
 40
0.7224614799
 40
0.8088712655
 40
0.9025891943999999
 40
1.0
 40
1.0
 40
1.0
 40
1.0
 10
77.18858358770001
 20
38.74994792360001
 30
0.0
 10
77.18784423939999
 20
38.7402116298
 30
0.0
 10
77.18644315049999
 20
38.7211121347
 30
0.0
 10
77.18455745159999
 20
38.6933789731
 30
0.0
 10
77.18319742199999
 20
38.6714471692
 30
0.0
 10
77.1822859614
 20
38.6552507829
 30
0.0
 10
77.18172235609999
 20
38.644396449
 30
0.0
 10
77.18126226069999
 20
38.6345587601
 30
0.0
 10
77.1809099832
 20
38.6258322369
 30
0.0
 10
77.1806995284
 20
38.6192934903
 30
0.0
 10
77.1805926321
 20
38.614680137
 30
0.0
 10
77.18054476579999
 20
38.61170377150001
 30
0.0
 10
77.1805254227
 20
38.6090602386
 30
0.0
 10
77.1805346125
 20
38.6067562047
 30
0.0
 10
77.18057193699999
 20
38.6047971312
 30
0.0
 10
77.18063698129999
 20
38.6031872829
 30
0.0
 10
77.18071758079999
 20
38.6020661141
 30
0.0
 10
77.1808016687
 20
38.6013473963
 30
0.0
 10
77.180866976
 20
38.6009418029
 30
0.0
 10
77.1809364601
 20
38.6006237804
 30
0.0
 10
77.1810162801
 20
38.6003965775
 30
0.0
 10
77.1810923944
 20
38.6002429116
 30
0.0
 10
77.18127253510001
 20
38.6001477968
 30
0.0
 10
77.18143483670001
 20
38.6003769656
 30
0.0
 10
77.181551368
 20
38.600617639
 30
0.0
 10
77.1816742437
 20
38.6009420522
 30
0.0
 10
77.1817994351
 20
38.6013455192
 30
0.0
 10
77.18199323420001
 20
38.6020639515
 30
0.0
 10
77.1822435429
 20
38.6031836553
 30
0.0
 10
77.1825534905
 20
38.604794376
 30
0.0
 10
77.18288838229999
 20
38.6067537743
 30
0.0
 10
77.1832476262
 20
38.6090581577
 30
0.0
 10
77.1837885499
 20
38.6128011174
 30
0.0
 10
77.1845080856
 20
38.6182950336
 30
0.0
 10
77.1854101247
 20
38.6258271069
 30
0.0
 10
77.1863831281
 20
38.6345542676
 30
0.0
 10
77.1874172519
 20
38.6443924073
 30
0.0
 10
77.1885021804
 20
38.6552470791
 30
0.0
 10
77.19005014619999
 20
38.67143905050001
 30
0.0
 10
77.19202069100001
 20
38.69336658530001
 30
0.0
 10
77.19434707800001
 20
38.7211004089
 30
0.0
 10
77.1958473767
 20
38.7402077738
 30
0.0
 10
77.1965870178
 20
38.74994792360001
 30
0.0
  0
SPLINE
  5
242D
330
222
100
AcDbEntity
  8
0
  6
Continuous
 62
     9
100
AcDbSpline
210
0.0
220
0.0
230
1.0
 70
     8
 71
     3
 72
    17
 73
    13
 74
     0
 42
0.0000001
 43
0.0000000001
 40
0.0
 40
0.0
 40
0.0
 40
0.0
 40
0.1765019594
 40
0.3475826079
 40
0.5080488745000001
 40
0.6530298557
 40
0.7781271580000001
 40
0.8795511925999999
 40
0.9203963646
 40
0.9542440545999999
 40
0.9808365564
 40
1.0
 40
1.0
 40
1.0
 40
1.0
 10
77.1857651981
 20
38.7501361625
 30
0.0
 10
77.185050952
 20
38.7407304329
 30
0.0
 10
77.1836868028
 20
38.7222046243
 30
0.0
 10
77.1818206379
 20
38.6951170237
 30
0.0
 10
77.1802017011
 20
38.6697012937
 30
0.0
 10
77.17887732689999
 20
38.6467295985
 30
0.0
 10
77.1778871538
 20
38.6268999314
 30
0.0
 10
77.1773221737
 20
38.6126215925
 30
0.0
 10
77.17708202949999
 20
38.6032123441
 30
0.0
 10
77.1770110345
 20
38.5977994334
 30
0.0
 10
77.1770362725
 20
38.5935453121
 30
0.0
 10
77.1771224389
 20
38.5911001531
 30
0.0
 10
77.17719963669999
 20
38.5900789131
 30
0.0
  0
SPLINE
  5
242E
330
222
100
AcDbEntity
  8
0
  6
Continuous
 62
     9
100
AcDbSpline
210
0.0
220
0.0
230
1.0
 70
     8
 71
     3
 72
    17
 73
    13
 74
     0
 42
0.0000001
 43
0.0000000001
 40
0.0
 40
0.0
 40
0.0
 40
0.0
 40
0.2521767985999999
 40
0.458391621
 40
0.6189933490000001
 40
0.7348898246
 40
0.7768737368
 40
0.8091972018999999
 40
0.8337919924999999
 40
0.8548634251999999
 40
0.9087939119999999
 40
1.0
 40
1.0
 40
1.0
 40
1.0
 10
77.17719963669999
 20
38.5900789131
 30
0.0
 10
77.17721906379999
 20
38.5898219152
 30
0.0
 10
77.17725984659999
 20
38.5893551665
 30
0.0
 10
77.1773374238
 20
38.5887269799
 30
0.0
 10
77.17742539399999
 20
38.5882414876
 30
0.0
 10
77.1775117186
 20
38.5879262547
 30
0.0
 10
77.17759323830001
 20
38.5877490026
 30
0.0
 10
77.1776507668
 20
38.5876653593
 30
0.0
 10
77.1777147404
 20
38.5876135067
 30
0.0
 10
77.17782209159999
 20
38.5876014194
 30
0.0
 10
77.17795983100001
 20
38.5877313404
 30
0.0
 10
77.1780278608
 20
38.5878581068
 30
0.0
 10
77.1780690852
 20
38.5879417105
 30
0.0
  0
SPLINE
  5
242F
330
222
100
AcDbEntity
  8
0
  6
Continuous
 62
     9
100
AcDbSpline
210
0.0
220
0.0
230
1.0
 70
     8
 71
     3
 72
    16
 73
    12
 74
     0
 42
0.0000001
 43
0.0000000001
 40
0.0
 40
0.0
 40
0.0
 40
0.0
 40
0.0805728081
 40
0.1258235091
 40
0.1696722111
 40
0.2038272853
 40
0.2480912929
 40
0.3688927189
 40
0.5341490041000001
 40
0.7444512637999999
 40
1.0
 40
1.0
 40
1.0
 40
1.0
 10
77.16498334149999
 20
38.56141359929999
 30
0.0
 10
77.1649318841
 20
38.5613092142
 30
0.0
 10
77.1648572512
 20
38.5611521434
 30
0.0
 10
77.1646245572
 20
38.5609759808
 30
0.0
 10
77.16446297899999
 20
38.561118511
 30
0.0
 10
77.1643866139
 20
38.5612722984
 30
0.0
 10
77.1642838785
 20
38.5615440837
 30
0.0
 10
77.1641811364
 20
38.5620100571
 30
0.0
 10
77.1640749107
 20
38.562719711
 30
0.0
 10
77.1639847377
 20
38.56362695340001
 30
0.0
 10
77.16393844069999
 20
38.5642983316
 30
0.0
 10
77.1639168655
 20
38.5646668147
 30
0.0
  0
SPLINE
  5
2430
330
222
100
AcDbEntity
  8
0
  6
Continuous
 62
     9
100
AcDbSpline
210
0.0
220
0.0
230
1.0
 70
     8
 71
     3
 72
    16
 73
    12
 74
     0
 42
0.0000001
 43
0.0000000001
 40
0.0
 40
0.0
 40
0.0
 40
0.0
 40
0.0207184594
 40
0.0486305142
 40
0.1252382253
 40
0.2276218068
 40
0.3527828332
 40
0.4970528638000001
 40
0.6561708704
 40
0.8255029897
 40
1.0
 40
1.0
 40
1.0
 40
1.0
 10
77.1639168655
 20
38.5646668147
 30
0.0
 10
77.1638415296
 20
38.5659534755
 30
0.0
 10
77.16376044509999
 20
38.5689787174
 30
0.0
 10
77.1637549016
 20
38.5767697077
 30
0.0
 10
77.1640824855
 20
38.5896385131
 30
0.0
 10
77.1648426423
 20
38.6085440393
 30
0.0
 10
77.1660123394
 20
38.63164495719999
 30
0.0
 10
77.1675551641
 20
38.6582597918
 30
0.0
 10
77.1694308253
 20
38.6876072986
 30
0.0
 10
77.1715846518
 20
38.7188207766
 30
0.0
 10
77.1731561173
 20
38.740152158
 30
0.0
 10
77.1739780658
 20
38.7509761934
 30
0.0
  0
LINE
  5
2431
330
222
100
AcDbEntity
  8
0
  6
Continuous
 62
     9
100
AcDbLine
 10
77.16372624289999
 20
38.5576746932
 30
0.0
 11
77.16368811310001
 21
38.5574567882
 31
0.0
  0
SPLINE
  5
2432
330
222
100
AcDbEntity
  8
0
  6
Continuous
 62
     9
100
AcDbSpline
210
0.0
220
0.0
230
1.0
 70
     8
 71
     3
 72
    24
 73
    20
 74
     0
 42
0.0000001
 43
0.0000000001
 40
0.0
 40
0.0
 40
0.0
 40
0.0
 40
0.2134144253
 40
0.2981123448
 40
0.3681078545
 40
0.4234391270000001
 40
0.4642752755
 40
0.4912252029000001
 40
0.5067452502
 40
0.5133794093999999
 40
0.5216760784000001
 40
0.5327288227000001
 40
0.5470116818000001
 40
0.586009322
 40
0.6394580949000001
 40
0.7075570098
 40
0.7903564526000002
 40
0.8878490324999999
 40
1.0
 40
1.0
 40
1.0
 40
1.0
 10
77.16356552939998
 20
38.5567704532
 30
0.0
 10
77.1634033853
 20
38.5558773484
 30
0.0
 10
77.163163892
 20
38.5546317389
 30
0.0
 10
77.1628153031
 20
38.5531054696
 30
0.0
 10
77.16258766119999
 20
38.5522408946
 30
0.0
 10
77.1623794189
 20
38.5515667694
 30
0.0
 10
77.1621782056
 20
38.5510778855
 30
0.0
 10
77.16201386
 20
38.5507728996
 30
0.0
 10
77.1618257126
 20
38.5506251707
 30
0.0
 10
77.1616939998
 20
38.550667468
 30
0.0
 10
77.1616164741
 20
38.5507492187
 30
0.0
 10
77.16154417750001
 20
38.5508732542
 30
0.0
 10
77.16144257479999
 20
38.551128079
 30
0.0
 10
77.16133474750001
 20
38.55157049440001
 30
0.0
 10
77.161225966
 20
38.5522447159
 30
0.0
 10
77.16113103159999
 20
38.55310900940001
 30
0.0
 10
77.16104995159999
 20
38.5541624413
 30
0.0
 10
77.1609835621
 20
38.555404598
 30
0.0
 10
77.16095147909999
 20
38.5562957215
 30
0.0
 10
77.16093733840001
 20
38.5567725176
 30
0.0
  0
LINE
  5
2433
330
222
100
AcDbEntity
  8
0
  6
Continuous
 62
     9
100
AcDbLine
 10
77.1609057682
 20
38.5580698789
 30
0.0
 11
77.1608713296
 21
38.5621020089
 31
0.0
  0
SPLINE
  5
2434
330
222
100
AcDbEntity
  8
0
  6
Continuous
 62
     9
100
AcDbSpline
210
0.0
220
0.0
230
1.0
 70
     8
 71
     3
 72
    12
 73
     8
 74
     0
 42
0.0000001
 43
0.0000000001
 40
0.0
 40
0.0
 40
0.0
 40
0.0
 40
0.0735410048
 40
0.1664644959
 40
0.4023623402000001
 40
0.6881183893000001
 40
1.0
 40
1.0
 40
1.0
 40
1.0
 10
77.1609162014
 20
38.5675010683
 30
0.0
 10
77.1609836306
 20
38.5720101308
 30
0.0
 10
77.16126544949999
 20
38.5822145925
 30
0.0
 10
77.1622608158
 20
38.6068677884
 30
0.0
 10
77.1642974526
 20
38.6445004091
 30
0.0
 10
77.1675651875
 20
38.6955089534
 30
0.0
 10
77.1702052977
 20
38.73206164320001
 30
0.0
 10
77.17165340859999
 20
38.75113145610001
 30
0.0
  0
SPLINE
  5
2435
330
222
100
AcDbEntity
  8
0
  6
Continuous
 62
     9
100
AcDbSpline
210
0.0
220
0.0
230
1.0
 70
     8
 71
     3
 72
    12
 73
     8
 74
     0
 42
0.0000001
 43
0.0000000001
 40
0.0
 40
0.0
 40
0.0
 40
0.0
 40
0.3112490313
 40
0.5967895997000001
 40
0.8329050629999999
 40
0.926094855
 40
1.0
 40
1.0
 40
1.0
 40
1.0
 10
77.17165340859999
 20
38.75113145610001
 30
0.0
 10
77.1731024229
 20
38.770213164
 30
0.0
 10
77.1760158937
 20
38.8067904686
 30
0.0
 10
77.18049578359999
 20
38.85780431820001
 30
0.0
 10
77.1841744457
 20
38.8954292326
 30
0.0
 10
77.186921857
 20
38.920067514
 30
0.0
 10
77.1881890339
 20
38.9302632943
 30
0.0
 10
77.1888054721
 20
38.9347652256
 30
0.0
  0
SPLINE
  5
2436
330
222
100
AcDbEntity
  8
0
  6
Continuous
 62
     9
100
AcDbSpline
210
0.0
220
0.0
230
1.0
 70
     8
 71
     3
 72
    24
 73
    20
 74
     0
 42
0.0000001
 43
0.0000000001
 40
0.0
 40
0.0
 40
0.0
 40
0.0
 40
0.2134144253
 40
0.2981123448
 40
0.3681078545
 40
0.4234391270000001
 40
0.4642752755
 40
0.4912252029000001
 40
0.5067452502
 40
0.5133794093999999
 40
0.5216760784000001
 40
0.5327288227000001
 40
0.5470116818000001
 40
0.586009322
 40
0.6394580949000001
 40
0.7075570098
 40
0.7903564526000002
 40
0.8878490324999999
 40
1.0
 40
1.0
 40
1.0
 40
1.0
 10
77.19045591609999
 20
38.94549245909999
 30
0.0
 10
77.1906180602
 20
38.9463855639
 30
0.0
 10
77.1908575536
 20
38.94763117340001
 30
0.0
 10
77.19120614249999
 20
38.9491574427
 30
0.0
 10
77.1914337843
 20
38.9500220177
 30
0.0
 10
77.1916420267
 20
38.9506961429
 30
0.0
 10
77.19184323989999
 20
38.9511850268
 30
0.0
 10
77.19200758550001
 20
38.9514900126
 30
0.0
 10
77.19219573300001
 20
38.9516377416
 30
0.0
 10
77.19232744580001
 20
38.9515954442
 30
0.0
 10
77.1924049715
 20
38.9515136936
 30
0.0
 10
77.192477268
 20
38.95138965800001
 30
0.0
 10
77.19257887080001
 20
38.9511348333
 30
0.0
 10
77.1926866981
 20
38.9506924178
 30
0.0
 10
77.19279547959999
 20
38.9500181963
 30
0.0
 10
77.1928904139
 20
38.9491539029
 30
0.0
 10
77.19297149399999
 20
38.948100471
 30
0.0
 10
77.1930378835
 20
38.9468583143
 30
0.0
 10
77.19306996649999
 20
38.9459671907
 30
0.0
 10
77.1930841072
 20
38.9454903947
 30
0.0
  0
LINE
  5
2437
330
222
100
AcDbEntity
  8
0
  6
Continuous
 62
     9
100
AcDbLine
 10
77.1931135737
 20
38.9442989772
 30
0.0
 11
77.19311595989999
 21
38.9441784992
 31
0.0
  0
SPLINE
  5
2438
330
222
100
AcDbEntity
  8
0
  6
Continuous
 62
     9
100
AcDbSpline
210
0.0
220
0.0
230
1.0
 70
     8
 71
     3
 72
    16
 73
    12
 74
     0
 42
0.0000001
 43
0.0000000001
 40
0.0
 40
0.0
 40
0.0
 40
0.0
 40
0.1739832249
 40
0.3429375622
 40
0.5018249431
 40
0.6460179749
 40
0.7712577641
 40
0.873873275
 40
0.9508587791
 40
0.9790106960999999
 40
1.0
 40
1.0
 40
1.0
 40
1.0
 10
77.1739780658
 20
38.7509761934
 30
0.0
 10
77.1748003111
 20
38.7618041377
 30
0.0
 10
77.1764691962
 20
38.7831434284
 30
0.0
 10
77.1790560378
 20
38.8143578069
 30
0.0
 10
77.1816377082
 20
38.8437065727
 30
0.0
 10
77.1841372347
 20
38.8703230823
 30
0.0
 10
77.18647645129999
 20
38.8934267292
 30
0.0
 10
77.1885880417
 20
38.912335715
 30
0.0
 10
77.19021521950001
 20
38.9252018352
 30
0.0
 10
77.19140287970001
 20
38.932984022
 30
0.0
 10
77.1919429136
 20
38.9360042974
 30
0.0
 10
77.19221268910001
 20
38.9372862613
 30
0.0
  0
SPLINE
  5
2439
330
222
100
AcDbEntity
  8
0
  6
Continuous
 62
     9
100
AcDbSpline
210
0.0
220
0.0
230
1.0
 70
     8
 71
     3
 72
    17
 73
    13
 74
     0
 42
0.0000001
 43
0.0000000001
 40
0.0
 40
0.0
 40
0.0
 40
0.0
 40
0.255667414
 40
0.4662933418
 40
0.6320523183
 40
0.7534856140999999
 40
0.8323234267
 40
0.8762136634999999
 40
0.8956956796
 40
0.9211276079000001
 40
0.9554930137999999
 40
1.0
 40
1.0
 40
1.0
 40
1.0
 10
77.19221268910001
 20
38.9372862613
 30
0.0
 10
77.19229145719999
 20
38.9376605645
 30
0.0
 10
77.1924414401
 20
38.9383417859
 30
0.0
 10
77.19267480880001
 20
38.9392590085
 30
0.0
 10
77.19288611119999
 20
38.9399717208
 30
0.0
 10
77.19309272390001
 20
38.940485051
 30
0.0
 10
77.19325343770001
 20
38.94080244900001
 30
0.0
 10
77.19345167909999
 20
38.9409531978
 30
0.0
 10
77.1935827194
 20
38.9408957134
 30
0.0
 10
77.19365827899999
 20
38.9408023376
 30
0.0
 10
77.193730086
 20
38.9406631626
 30
0.0
 10
77.1937696306
 20
38.9405516833
 30
0.0
 10
77.1937897105
 20
38.9404881967
 30
0.0
  0
ENDSEC
  0
SECTION
  2
OBJECTS
  0
DICTIONARY
  5
C
330
0
100
AcDbDictionary
281
     1
  3
ACAD_CIP_PREVIOUS_PRODUCT_INFO
350
25DD
  3
ACAD_COLOR
350
2573
  3
ACAD_DETAILVIEWSTYLE
350
258C
  3
ACAD_GROUP
350
D
  3
ACAD_LAYOUT
350
1A
  3
ACAD_MATERIAL
350
2541
  3
ACAD_MLEADERSTYLE
350
2588
  3
ACAD_MLINESTYLE
350
17
  3
ACAD_PLOTSETTINGS
350
19
  3
ACAD_PLOTSTYLENAME
350
E
  3
ACAD_SCALELIST
350
2576
  3
ACAD_SECTIONVIEWSTYLE
350
258A
  3
ACAD_TABLESTYLE
350
2574
  3
ACAD_VISUALSTYLE
350
255A
  3
ACDB_RECOMPOSE_DATA
350
26B4
  3
AcDbVariableDictionary
350
25D0
  3
DWGPROPS
350
26B5
  0
DICTIONARY
  5
2591
330
8
100
AcDbDictionary
280
     1
281
     1
  0
DICTIONARY
  5
25DE
330
10
100
AcDbDictionary
280
     1
281
     1
  3
ADSK_XREC_LAYER_RECONCILED
360
25DF
  0
DICTIONARY
  5
25E0
330
1FA
100
AcDbDictionary
280
     1
281
     1
  3
ADSK_XREC_LAYER_RECONCILED
360
25E1
  0
DICTIONARY
  5
25E2
330
1FB
100
AcDbDictionary
280
     1
281
     1
  3
ADSK_XREC_LAYER_RECONCILED
360
25E3
  0
DICTIONARY
  5
25E4
330
1FC
100
AcDbDictionary
280
     1
281
     1
  3
ADSK_XREC_LAYER_RECONCILED
360
25E5
  0
DICTIONARY
  5
25E6
330
1FD
100
AcDbDictionary
280
     1
281
     1
  3
ADSK_XREC_LAYER_RECONCILED
360
25E7
  0
DICTIONARY
  5
25E8
330
1FE
100
AcDbDictionary
280
     1
281
     1
  3
ADSK_XREC_LAYER_RECONCILED
360
25E9
  0
DICTIONARY
  5
25EA
330
1FF
100
AcDbDictionary
280
     1
281
     1
  3
ADSK_XREC_LAYER_RECONCILED
360
25EB
  0
DICTIONARY
  5
25EC
330
200
100
AcDbDictionary
280
     1
281
     1
  3
ADSK_XREC_LAYER_RECONCILED
360
25ED
  0
DICTIONARY
  5
25EE
330
201
100
AcDbDictionary
280
     1
281
     1
  3
ADSK_XREC_LAYER_RECONCILED
360
25EF
  0
DICTIONARY
  5
25F0
330
202
100
AcDbDictionary
280
     1
281
     1
  3
ADSK_XREC_LAYER_RECONCILED
360
25F1
  0
DICTIONARY
  5
25F2
330
203
100
AcDbDictionary
280
     1
281
     1
  3
ADSK_XREC_LAYER_RECONCILED
360
25F3
  0
DICTIONARY
  5
25F4
330
204
100
AcDbDictionary
280
     1
281
     1
  3
ADSK_XREC_LAYER_RECONCILED
360
25F5
  0
DICTIONARY
  5
25F6
330
205
100
AcDbDictionary
280
     1
281
     1
  3
ADSK_XREC_LAYER_RECONCILED
360
25F7
  0
DICTIONARY
  5
25F8
330
206
100
AcDbDictionary
280
     1
281
     1
  3
ADSK_XREC_LAYER_RECONCILED
360
25F9
  0
DICTIONARY
  5
25FA
330
207
100
AcDbDictionary
280
     1
281
     1
  3
ADSK_XREC_LAYER_RECONCILED
360
25FB
  0
DICTIONARY
  5
25FC
330
208
100
AcDbDictionary
280
     1
281
     1
  3
ADSK_XREC_LAYER_RECONCILED
360
25FD
  0
DICTIONARY
  5
25FE
330
209
100
AcDbDictionary
280
     1
281
     1
  3
ADSK_XREC_LAYER_RECONCILED
360
25FF
  0
DICTIONARY
  5
2600
330
20A
100
AcDbDictionary
280
     1
281
     1
  3
ADSK_XREC_LAYER_RECONCILED
360
2601
  0
DICTIONARY
  5
2602
330
20B
100
AcDbDictionary
280
     1
281
     1
  3
ADSK_XREC_LAYER_RECONCILED
360
2603
  0
DICTIONARY
  5
2604
330
20C
100
AcDbDictionary
280
     1
281
     1
  3
ADSK_XREC_LAYER_RECONCILED
360
2605
  0
DICTIONARY
  5
2606
330
20D
100
AcDbDictionary
280
     1
281
     1
  3
ADSK_XREC_LAYER_RECONCILED
360
2607
  0
DICTIONARY
  5
2608
330
20E
100
AcDbDictionary
280
     1
281
     1
  3
ADSK_XREC_LAYER_RECONCILED
360
2609
  0
DICTIONARY
  5
260A
330
20F
100
AcDbDictionary
280
     1
281
     1
  3
ADSK_XREC_LAYER_RECONCILED
360
260B
  0
DICTIONARY
  5
260C
330
210
100
AcDbDictionary
280
     1
281
     1
  3
ADSK_XREC_LAYER_RECONCILED
360
260D
  0
DICTIONARY
  5
260E
330
211
100
AcDbDictionary
280
     1
281
     1
  3
ADSK_XREC_LAYER_RECONCILED
360
260F
  0
DICTIONARY
  5
2610
330
212
100
AcDbDictionary
280
     1
281
     1
  3
ADSK_XREC_LAYER_RECONCILED
360
2611
  0
DICTIONARY
  5
2612
330
213
100
AcDbDictionary
280
     1
281
     1
  3
ADSK_XREC_LAYER_RECONCILED
360
2613
  0
DICTIONARY
  5
2614
330
214
100
AcDbDictionary
280
     1
281
     1
  3
ADSK_XREC_LAYER_RECONCILED
360
2615
  0
DICTIONARY
  5
2616
330
215
100
AcDbDictionary
280
     1
281
     1
  3
ADSK_XREC_LAYER_RECONCILED
360
2617
  0
DICTIONARY
  5
2618
330
216
100
AcDbDictionary
280
     1
281
     1
  3
ADSK_XREC_LAYER_RECONCILED
360
2619
  0
DICTIONARY
  5
261A
330
217
100
AcDbDictionary
280
     1
281
     1
  3
ADSK_XREC_LAYER_RECONCILED
360
261B
  0
DICTIONARY
  5
261C
330
218
100
AcDbDictionary
280
     1
281
     1
  3
ADSK_XREC_LAYER_RECONCILED
360
261D
  0
DICTIONARY
  5
261E
330
219
100
AcDbDictionary
280
     1
281
     1
  3
ADSK_XREC_LAYER_RECONCILED
360
261F
  0
DICTIONARY
  5
2620
330
21A
100
AcDbDictionary
280
     1
281
     1
  3
ADSK_XREC_LAYER_RECONCILED
360
2621
  0
DICTIONARY
  5
2622
330
21B
100
AcDbDictionary
280
     1
281
     1
  3
ADSK_XREC_LAYER_RECONCILED
360
2623
  0
DICTIONARY
  5
2624
330
21C
100
AcDbDictionary
280
     1
281
     1
  3
ADSK_XREC_LAYER_RECONCILED
360
2625
  0
DICTIONARY
  5
2626
330
21D
100
AcDbDictionary
280
     1
281
     1
  3
ADSK_XREC_LAYER_RECONCILED
360
2627
  0
DICTIONARY
  5
2628
330
21E
100
AcDbDictionary
280
     1
281
     1
  3
ADSK_XREC_LAYER_RECONCILED
360
2629
  0
DICTIONARY
  5
262A
330
21F
100
AcDbDictionary
280
     1
281
     1
  3
ADSK_XREC_LAYER_RECONCILED
360
262B
  0
XRECORD
  5
25DD
102
{ACAD_REACTORS
330
C
102
}
330
C
100
AcDbXrecord
280
     1
300
ACDLT
300
2018
300
ACDLT_F_S
  0
DICTIONARY
  5
2573
102
{ACAD_REACTORS
330
C
102
}
330
C
100
AcDbDictionary
281
     1
  0
DICTIONARY
  5
258C
102
{ACAD_REACTORS
330
C
102
}
330
C
100
AcDbDictionary
281
     1
  3
Imperial24
350
258D
  0
DICTIONARY
  5
D
102
{ACAD_REACTORS
330
C
102
}
330
C
100
AcDbDictionary
281
     1
  0
DICTIONARY
  5
1A
102
{ACAD_REACTORS
330
C
102
}
330
C
100
AcDbDictionary
281
     1
  3
Layout1
350
253E
  3
Model
350
253D
  0
DICTIONARY
  5
2541
102
{ACAD_REACTORS
330
C
102
}
330
C
100
AcDbDictionary
281
     1
  3
ByBlock
350
254A
  3
ByLayer
350
2542
  3
Global
350
2552
  0
DICTIONARY
  5
2588
102
{ACAD_REACTORS
330
C
102
}
330
C
100
AcDbDictionary
281
     1
  3
Standard
350
2589
  0
DICTIONARY
  5
17
102
{ACAD_REACTORS
330
C
102
}
330
C
100
AcDbDictionary
281
     1
  3
Standard
350
18
  0
DICTIONARY
  5
19
102
{ACAD_REACTORS
330
C
102
}
330
C
100
AcDbDictionary
281
     1
  0
ACDBDICTIONARYWDFLT
  5
E
102
{ACAD_REACTORS
330
C
102
}
330
C
100
AcDbDictionary
281
     1
  3
Normal
350
F
100
AcDbDictionaryWithDefault
340
F
  0
DICTIONARY
  5
2576
102
{ACAD_REACTORS
330
C
102
}
330
C
100
AcDbDictionary
281
     1
  3
A0
350
2577
  3
A1
350
2578
  3
A2
350
2579
  3
A3
350
257A
  3
A4
350
257B
  3
A5
350
257C
  3
A6
350
257D
  3
A7
350
257E
  3
A8
350
257F
  3
A9
350
2580
  3
B0
350
2581
  3
B1
350
2582
  3
B2
350
2583
  3
B3
350
2584
  3
B4
350
2585
  3
B5
350
2586
  3
B6
350
2587
  0
DICTIONARY
  5
258A
102
{ACAD_REACTORS
330
C
102
}
330
C
100
AcDbDictionary
281
     1
  3
Imperial24
350
258B
  0
DICTIONARY
  5
2574
102
{ACAD_REACTORS
330
C
102
}
330
C
100
AcDbDictionary
281
     1
  3
Standard
350
2575
  0
DICTIONARY
  5
255A
102
{ACAD_REACTORS
330
C
102
}
330
C
100
AcDbDictionary
281
     1
  3
2dWireframe
350
2560
  3
Basic
350
255F
  3
Brighten
350
2566
  3
ColorChange
350
256A
  3
Conceptual
350
2563
  3
Dim
350
2565
  3
EdgeColorOff
350
2572
  3
Facepattern
350
2569
  3
Flat
350
255B
  3
FlatWithEdges
350
255C
  3
Gouraud
350
255D
  3
GouraudWithEdges
350
255E
  3
Hidden
350
2562
  3
JitterOff
350
2570
  3
Linepattern
350
2568
  3
OverhangOff
350
2571
  3
Realistic
350
2564
  3
Shaded
350
256F
  3
Shaded with edges
350
256E
  3
Shades of Gray
350
256B
  3
Sketchy
350
256C
  3
Thicken
350
2567
  3
Wireframe
350
2561
  3
X-Ray
350
256D
  0
XRECORD
  5
26B4
102
{ACAD_REACTORS
330
C
102
}
330
C
100
AcDbXrecord
280
     1
 90
        1
330
2575
  0
DICTIONARY
  5
25D0
102
{ACAD_REACTORS
330
C
102
}
330
C
100
AcDbDictionary
281
     1
  3
CANNOSCALE
350
25D5
  3
CMLEADERSTYLE
350
25D2
  3
CTABLESTYLE
350
25D1
  3
CVIEWDETAILSTYLE
350
25D3
  3
CVIEWSECTIONSTYLE
350
25D4
  3
DIMASSOC
350
25D8
  3
INDEXCTL
350
25D7
  3
SORTENTS
350
25D6
  3
XCLIPFRAME
350
26B2
  0
XRECORD
  5
26B5
102
{ACAD_REACTORS
330
C
102
}
330
C
100
AcDbXrecord
280
     1
  1
DWGPROPS COOKIE
  2

  3

  4

  6

  7

  8
guillaumes
  9

300
=
301
=
302
=
303
=
304
=
305
=
306
=
307
=
308
=
309
=
 40
0.000787037037037
 41
2458389.568379629
 42
2458389.632210648
  1

 90
        0
  0
XRECORD
  5
25DF
102
{ACAD_REACTORS
330
25DE
102
}
330
25DE
100
AcDbXrecord
280
     1
290
     1
  0
XRECORD
  5
25E1
102
{ACAD_REACTORS
330
25E0
102
}
330
25E0
100
AcDbXrecord
280
     1
290
     1
  0
XRECORD
  5
25E3
102
{ACAD_REACTORS
330
25E2
102
}
330
25E2
100
AcDbXrecord
280
     1
290
     1
  0
XRECORD
  5
25E5
102
{ACAD_REACTORS
330
25E4
102
}
330
25E4
100
AcDbXrecord
280
     1
290
     1
  0
XRECORD
  5
25E7
102
{ACAD_REACTORS
330
25E6
102
}
330
25E6
100
AcDbXrecord
280
     1
290
     1
  0
XRECORD
  5
25E9
102
{ACAD_REACTORS
330
25E8
102
}
330
25E8
100
AcDbXrecord
280
     1
290
     1
  0
XRECORD
  5
25EB
102
{ACAD_REACTORS
330
25EA
102
}
330
25EA
100
AcDbXrecord
280
     1
290
     1
  0
XRECORD
  5
25ED
102
{ACAD_REACTORS
330
25EC
102
}
330
25EC
100
AcDbXrecord
280
     1
290
     1
  0
XRECORD
  5
25EF
102
{ACAD_REACTORS
330
25EE
102
}
330
25EE
100
AcDbXrecord
280
     1
290
     1
  0
XRECORD
  5
25F1
102
{ACAD_REACTORS
330
25F0
102
}
330
25F0
100
AcDbXrecord
280
     1
290
     1
  0
XRECORD
  5
25F3
102
{ACAD_REACTORS
330
25F2
102
}
330
25F2
100
AcDbXrecord
280
     1
290
     1
  0
XRECORD
  5
25F5
102
{ACAD_REACTORS
330
25F4
102
}
330
25F4
100
AcDbXrecord
280
     1
290
     1
  0
XRECORD
  5
25F7
102
{ACAD_REACTORS
330
25F6
102
}
330
25F6
100
AcDbXrecord
280
     1
290
     1
  0
XRECORD
  5
25F9
102
{ACAD_REACTORS
330
25F8
102
}
330
25F8
100
AcDbXrecord
280
     1
290
     1
  0
XRECORD
  5
25FB
102
{ACAD_REACTORS
330
25FA
102
}
330
25FA
100
AcDbXrecord
280
     1
290
     1
  0
XRECORD
  5
25FD
102
{ACAD_REACTORS
330
25FC
102
}
330
25FC
100
AcDbXrecord
280
     1
290
     1
  0
XRECORD
  5
25FF
102
{ACAD_REACTORS
330
25FE
102
}
330
25FE
100
AcDbXrecord
280
     1
290
     1
  0
XRECORD
  5
2601
102
{ACAD_REACTORS
330
2600
102
}
330
2600
100
AcDbXrecord
280
     1
290
     1
  0
XRECORD
  5
2603
102
{ACAD_REACTORS
330
2602
102
}
330
2602
100
AcDbXrecord
280
     1
290
     1
  0
XRECORD
  5
2605
102
{ACAD_REACTORS
330
2604
102
}
330
2604
100
AcDbXrecord
280
     1
290
     1
  0
XRECORD
  5
2607
102
{ACAD_REACTORS
330
2606
102
}
330
2606
100
AcDbXrecord
280
     1
290
     1
  0
XRECORD
  5
2609
102
{ACAD_REACTORS
330
2608
102
}
330
2608
100
AcDbXrecord
280
     1
290
     1
  0
XRECORD
  5
260B
102
{ACAD_REACTORS
330
260A
102
}
330
260A
100
AcDbXrecord
280
     1
290
     1
  0
XRECORD
  5
260D
102
{ACAD_REACTORS
330
260C
102
}
330
260C
100
AcDbXrecord
280
     1
290
     1
  0
XRECORD
  5
260F
102
{ACAD_REACTORS
330
260E
102
}
330
260E
100
AcDbXrecord
280
     1
290
     1
  0
XRECORD
  5
2611
102
{ACAD_REACTORS
330
2610
102
}
330
2610
100
AcDbXrecord
280
     1
290
     1
  0
XRECORD
  5
2613
102
{ACAD_REACTORS
330
2612
102
}
330
2612
100
AcDbXrecord
280
     1
290
     1
  0
XRECORD
  5
2615
102
{ACAD_REACTORS
330
2614
102
}
330
2614
100
AcDbXrecord
280
     1
290
     1
  0
XRECORD
  5
2617
102
{ACAD_REACTORS
330
2616
102
}
330
2616
100
AcDbXrecord
280
     1
290
     1
  0
XRECORD
  5
2619
102
{ACAD_REACTORS
330
2618
102
}
330
2618
100
AcDbXrecord
280
     1
290
     1
  0
XRECORD
  5
261B
102
{ACAD_REACTORS
330
261A
102
}
330
261A
100
AcDbXrecord
280
     1
290
     1
  0
XRECORD
  5
261D
102
{ACAD_REACTORS
330
261C
102
}
330
261C
100
AcDbXrecord
280
     1
290
     1
  0
XRECORD
  5
261F
102
{ACAD_REACTORS
330
261E
102
}
330
261E
100
AcDbXrecord
280
     1
290
     1
  0
XRECORD
  5
2621
102
{ACAD_REACTORS
330
2620
102
}
330
2620
100
AcDbXrecord
280
     1
290
     1
  0
XRECORD
  5
2623
102
{ACAD_REACTORS
330
2622
102
}
330
2622
100
AcDbXrecord
280
     1
290
     1
  0
XRECORD
  5
2625
102
{ACAD_REACTORS
330
2624
102
}
330
2624
100
AcDbXrecord
280
     1
290
     1
  0
XRECORD
  5
2627
102
{ACAD_REACTORS
330
2626
102
}
330
2626
100
AcDbXrecord
280
     1
290
     1
  0
XRECORD
  5
2629
102
{ACAD_REACTORS
330
2628
102
}
330
2628
100
AcDbXrecord
280
     1
290
     1
  0
XRECORD
  5
262B
102
{ACAD_REACTORS
330
262A
102
}
330
262A
100
AcDbXrecord
280
     1
290
     1
  0
ACDBDETAILVIEWSTYLE
  5
258D
102
{ACAD_XDICTIONARY
360
26F0
102
}
102
{ACAD_REACTORS
330
258C
102
}
330
258C
100
AcDbModelDocViewStyle
 70
     0
  3
Imperial24
290
     0
100
AcDbDetailViewStyle
 70
     0
 71
     0
 90
        3
 71
     1
340
11
 40
0.24
340
0
 40
0.24
300

 40
0.36
280
     3
 71
     2
340
16
 90
       25
 71
     3
340
11
 40
0.24
 90
        1
 40
0.75
 90
        1
300
%<\AcVar ViewType \f "%tc1">% %<\AcVar ViewDetailId>%\PSCALE %<\AcVar ViewScale \f "%sn">%
 71
     4
340
16
 90
       25
340
16
 90
       25
280
     0
  0
LAYOUT
  5
253E
102
{ACAD_XDICTIONARY
360
26B8
102
}
102
{ACAD_REACTORS
330
1A
102
}
330
1A
100
AcDbPlotSettings
  1

  2
none_device
  4
ANSI_B_(17.00_x_11.00_Inches)
  6

 40
0.0
 41
0.0
 42
0.0
 43
0.0
 44
431.8
 45
279.4
 46
0.0
 47
0.0
 48
0.0
 49
0.0
140
0.0
141
0.0
142
1.0
143
1.0
 70
     0
 72
     0
 73
     0
 74
     0
  7

 75
     0
147
1.0
148
0.0
149
0.0
100
AcDbLayout
  1
Layout1
 70
     1
 71
     1
 10
0.0
 20
0.0
 11
12.0
 21
9.0
 12
0.0
 22
0.0
 32
0.0
 14
1.000000000000000E+20
 24
1.000000000000000E+20
 34
1.000000000000000E+20
 15
-1.000000000000000E+20
 25
-1.000000000000000E+20
 35
-1.000000000000000E+20
146
0.0
 13
0.0
 23
0.0
 33
0.0
 16
1.0
 26
0.0
 36
0.0
 17
0.0
 27
1.0
 37
0.0
 76
     0
330
223
  0
LAYOUT
  5
253D
102
{ACAD_XDICTIONARY
360
26B6
102
}
102
{ACAD_REACTORS
330
1A
102
}
330
1A
100
AcDbPlotSettings
  1

  2
none_device
  4
ANSI_B_(17.00_x_11.00_Inches)
  6

 40
0.0
 41
0.0
 42
0.0
 43
0.0
 44
431.8
 45
279.4
 46
0.0
 47
0.0
 48
0.0
 49
0.0
140
0.0
141
0.0
142
1.0
143
1.0
 70
  1024
 72
     0
 73
     0
 74
     0
  7

 75
     0
147
1.0
148
0.0
149
0.0
100
AcDbLayout
  1
Model
 70
     0
 71
     0
 10
0.0
 20
0.0
 11
17.0
 21
11.0
 12
0.0
 22
0.0
 32
0.0
 14
0.0
 24
0.0
 34
0.0
 15
0.0
 25
0.0
 35
0.0
146
0.0
 13
0.0
 23
0.0
 33
0.0
 16
1.0
 26
0.0
 36
0.0
 17
0.0
 27
1.0
 37
0.0
 76
     0
330
222
331
1F4
  0
MATERIAL
  5
254A
102
{ACAD_XDICTIONARY
360
254B
102
}
102
{ACAD_REACTORS
330
2541
102
}
330
2541
100
AcDbMaterial
  1
ByBlock
 72
     0
 43
0.0208333333333333
 43
0.0
 43
0.0
 43
0.0
 43
0.0
 43
0.0208333333333333
 43
0.0
 43
0.0
 43
0.0
 43
0.0
 43
1.0
 43
0.0
 43
0.0
 43
0.0
 43
0.0
 43
1.0
 77
     0
 47
0.0208333333333333
 47
0.0
 47
0.0
 47
0.0
 47
0.0
 47
0.0208333333333333
 47
0.0
 47
0.0
 47
0.0
 47
0.0
 47
1.0
 47
0.0
 47
0.0
 47
0.0
 47
0.0
 47
1.0
171
     0
 49
0.0208333333333333
 49
0.0
 49
0.0
 49
0.0
 49
0.0
 49
0.0208333333333333
 49
0.0
 49
0.0
 49
0.0
 49
0.0
 49
1.0
 49
0.0
 49
0.0
 49
0.0
 49
0.0
 49
1.0
175
     0
142
0.0208333333333333
142
0.0
142
0.0
142
0.0
142
0.0
142
0.0208333333333333
142
0.0
142
0.0
142
0.0
142
0.0
142
1.0
142
0.0
142
0.0
142
0.0
142
0.0
142
1.0
179
     0
144
0.0208333333333333
144
0.0
144
0.0
144
0.0
144
0.0
144
0.0208333333333333
144
0.0
144
0.0
144
0.0
144
0.0
144
1.0
144
0.0
144
0.0
144
0.0
144
0.0
144
1.0
147
0.0208333333333333
147
0.0
147
0.0
147
0.0
147
0.0
147
0.0208333333333333
147
0.0
147
0.0
147
0.0
147
0.0
147
1.0
147
0.0
147
0.0
147
0.0
147
0.0
147
1.0
  0
MATERIAL
  5
2542
102
{ACAD_XDICTIONARY
360
2543
102
}
102
{ACAD_REACTORS
330
2541
102
}
330
2541
100
AcDbMaterial
  1
ByLayer
 72
     0
 43
0.0208333333333333
 43
0.0
 43
0.0
 43
0.0
 43
0.0
 43
0.0208333333333333
 43
0.0
 43
0.0
 43
0.0
 43
0.0
 43
1.0
 43
0.0
 43
0.0
 43
0.0
 43
0.0
 43
1.0
 77
     0
 47
0.0208333333333333
 47
0.0
 47
0.0
 47
0.0
 47
0.0
 47
0.0208333333333333
 47
0.0
 47
0.0
 47
0.0
 47
0.0
 47
1.0
 47
0.0
 47
0.0
 47
0.0
 47
0.0
 47
1.0
171
     0
 49
0.0208333333333333
 49
0.0
 49
0.0
 49
0.0
 49
0.0
 49
0.0208333333333333
 49
0.0
 49
0.0
 49
0.0
 49
0.0
 49
1.0
 49
0.0
 49
0.0
 49
0.0
 49
0.0
 49
1.0
175
     0
142
0.0208333333333333
142
0.0
142
0.0
142
0.0
142
0.0
142
0.0208333333333333
142
0.0
142
0.0
142
0.0
142
0.0
142
1.0
142
0.0
142
0.0
142
0.0
142
0.0
142
1.0
179
     0
144
0.0208333333333333
144
0.0
144
0.0
144
0.0
144
0.0
144
0.0208333333333333
144
0.0
144
0.0
144
0.0
144
0.0
144
1.0
144
0.0
144
0.0
144
0.0
144
0.0
144
1.0
147
0.0208333333333333
147
0.0
147
0.0
147
0.0
147
0.0
147
0.0208333333333333
147
0.0
147
0.0
147
0.0
147
0.0
147
1.0
147
0.0
147
0.0
147
0.0
147
0.0
147
1.0
  0
MATERIAL
  5
2552
102
{ACAD_XDICTIONARY
360
2553
102
}
102
{ACAD_REACTORS
330
2541
102
}
330
2541
100
AcDbMaterial
  1
Global
 72
     0
 43
0.0208333333333333
 43
0.0
 43
0.0
 43
0.0
 43
0.0
 43
0.0208333333333333
 43
0.0
 43
0.0
 43
0.0
 43
0.0
 43
1.0
 43
0.0
 43
0.0
 43
0.0
 43
0.0
 43
1.0
 77
     0
 47
0.0208333333333333
 47
0.0
 47
0.0
 47
0.0
 47
0.0
 47
0.0208333333333333
 47
0.0
 47
0.0
 47
0.0
 47
0.0
 47
1.0
 47
0.0
 47
0.0
 47
0.0
 47
0.0
 47
1.0
171
     0
 49
0.0208333333333333
 49
0.0
 49
0.0
 49
0.0
 49
0.0
 49
0.0208333333333333
 49
0.0
 49
0.0
 49
0.0
 49
0.0
 49
1.0
 49
0.0
 49
0.0
 49
0.0
 49
0.0
 49
1.0
175
     0
142
0.0208333333333333
142
0.0
142
0.0
142
0.0
142
0.0
142
0.0208333333333333
142
0.0
142
0.0
142
0.0
142
0.0
142
1.0
142
0.0
142
0.0
142
0.0
142
0.0
142
1.0
179
     0
144
0.0208333333333333
144
0.0
144
0.0
144
0.0
144
0.0
144
0.0208333333333333
144
0.0
144
0.0
144
0.0
144
0.0
144
1.0
144
0.0
144
0.0
144
0.0
144
0.0
144
1.0
147
0.0208333333333333
147
0.0
147
0.0
147
0.0
147
0.0
147
0.0208333333333333
147
0.0
147
0.0
147
0.0
147
0.0
147
1.0
147
0.0
147
0.0
147
0.0
147
0.0
147
1.0
  0
MLEADERSTYLE
  5
2589
102
{ACAD_REACTORS
330
2588
102
}
330
2588
100
AcDbMLeaderStyle
170
     2
171
     1
172
     0
 90
        2
 40
0.0
 41
0.0
173
     1
 91
-1056964608
340
14
 92
       -2
290
     1
 42
0.09
291
     1
 43
0.36
  3
Standard
 44
0.18
300

342
11
174
     1
178
     6
175
     1
176
     0
 93
-1056964608
 45
0.18
292
     0
297
     0
 46
0.18
 94
-1056964608
 47
1.0
 49
1.0
140
1.0
293
     1
141
0.0
294
     1
177
     0
142
1.0
295
     0
296
     0
143
0.125
1001
ACAD_MLEADERVER
1070
     2
  0
MLINESTYLE
  5
18
102
{ACAD_REACTORS
330
17
102
}
330
17
100
AcDbMlineStyle
  2
STANDARD
 70
     0
  3

 62
   256
 51
90.0
 52
90.0
 71
     2
 49
0.5
 62
   256
  6
BYLAYER
 49
-0.5
 62
   256
  6
BYLAYER
  0
ACDBPLACEHOLDER
  5
F
102
{ACAD_REACTORS
330
E
102
}
330
E
  0
SCALE
  5
2577
102
{ACAD_REACTORS
330
2576
102
}
330
2576
100
AcDbScale
 70
     0
300
1:1
140
1.0
141
1.0
290
     1
  0
SCALE
  5
2578
102
{ACAD_REACTORS
330
2576
102
}
330
2576
100
AcDbScale
 70
     0
300
1/128" = 1'-0"
140
0.0078125
141
12.0
290
     0
  0
SCALE
  5
2579
102
{ACAD_REACTORS
330
2576
102
}
330
2576
100
AcDbScale
 70
     0
300
1/64" = 1'-0"
140
0.015625
141
12.0
290
     0
  0
SCALE
  5
257A
102
{ACAD_REACTORS
330
2576
102
}
330
2576
100
AcDbScale
 70
     0
300
1/32" = 1'-0"
140
0.03125
141
12.0
290
     0
  0
SCALE
  5
257B
102
{ACAD_REACTORS
330
2576
102
}
330
2576
100
AcDbScale
 70
     0
300
1/16" = 1'-0"
140
0.0625
141
12.0
290
     0
  0
SCALE
  5
257C
102
{ACAD_REACTORS
330
2576
102
}
330
2576
100
AcDbScale
 70
     0
300
3/32" = 1'-0"
140
0.09375
141
12.0
290
     0
  0
SCALE
  5
257D
102
{ACAD_REACTORS
330
2576
102
}
330
2576
100
AcDbScale
 70
     0
300
1/8" = 1'-0"
140
0.125
141
12.0
290
     0
  0
SCALE
  5
257E
102
{ACAD_REACTORS
330
2576
102
}
330
2576
100
AcDbScale
 70
     0
300
3/16" = 1'-0"
140
0.1875
141
12.0
290
     0
  0
SCALE
  5
257F
102
{ACAD_REACTORS
330
2576
102
}
330
2576
100
AcDbScale
 70
     0
300
1/4" = 1'-0"
140
0.25
141
12.0
290
     0
  0
SCALE
  5
2580
102
{ACAD_REACTORS
330
2576
102
}
330
2576
100
AcDbScale
 70
     0
300
3/8" = 1'-0"
140
0.375
141
12.0
290
     0
  0
SCALE
  5
2581
102
{ACAD_REACTORS
330
2576
102
}
330
2576
100
AcDbScale
 70
     0
300
1/2" = 1'-0"
140
0.5
141
12.0
290
     0
  0
SCALE
  5
2582
102
{ACAD_REACTORS
330
2576
102
}
330
2576
100
AcDbScale
 70
     0
300
3/4" = 1'-0"
140
0.75
141
12.0
290
     0
  0
SCALE
  5
2583
102
{ACAD_REACTORS
330
2576
102
}
330
2576
100
AcDbScale
 70
     0
300
1" = 1'-0"
140
1.0
141
12.0
290
     0
  0
SCALE
  5
2584
102
{ACAD_REACTORS
330
2576
102
}
330
2576
100
AcDbScale
 70
     0
300
1-1/2" = 1'-0"
140
1.5
141
12.0
290
     0
  0
SCALE
  5
2585
102
{ACAD_REACTORS
330
2576
102
}
330
2576
100
AcDbScale
 70
     0
300
3" = 1'-0"
140
3.0
141
12.0
290
     0
  0
SCALE
  5
2586
102
{ACAD_REACTORS
330
2576
102
}
330
2576
100
AcDbScale
 70
     0
300
6" = 1'-0"
140
6.0
141
12.0
290
     0
  0
SCALE
  5
2587
102
{ACAD_REACTORS
330
2576
102
}
330
2576
100
AcDbScale
 70
     0
300
1'-0" = 1'-0"
140
12.0
141
12.0
290
     0
  0
ACDBSECTIONVIEWSTYLE
  5
258B
102
{ACAD_XDICTIONARY
360
26EE
102
}
102
{ACAD_REACTORS
330
258A
102
}
330
258A
100
AcDbModelDocViewStyle
 70
     0
  3
Imperial24
290
     0
100
AcDbSectionViewStyle
 70
     0
 71
     0
 90
       78
 71
     1
340
11
 40
0.24
340
0
340
0
 40
0.24
300
I, O, Q, S, X, Z
 40
0.48
 90
        3
 40
0.18
 90
        1
 71
     2
340
16
 90
       25
340
16
 90
       50
 40
0.24
 40
0.0
 40
0.24
 71
     3
340
11
 40
0.24
 90
        1
 40
0.75
 90
        1
300
%<\AcVar ViewType \f "%tc1">% %<\AcVar ViewSectionStartId>%-%<\AcVar ViewSectionEndId>%\PSCALE %<\AcVar ViewScale \f "%sn">%
 71
     4
300
ANSI31
 40
1.0
 90
        0
290
     0
290
     0
 90
        6
 40
0.0
 40
1.570796326794896
 40
0.2617993877991494
 40
1.308996938995747
 40
-0.2617993877991494
 40
1.832595714594046
  0
TABLESTYLE
  5
2575
102
{ACAD_XDICTIONARY
360
258E
102
}
102
{ACAD_REACTORS
330
2574
102
}
330
2574
100
AcDbTableStyle
  3
Standard
 70
     0
 71
     0
 40
0.06
 41
0.06
280
     0
281
     0
  7
STANDARD
140
0.18
170
     2
 62
     0
 63
     7
283
     0
274
    -2
284
     1
 64
     0
275
    -2
285
     1
 65
     0
276
    -2
286
     1
 66
     0
277
    -2
287
     1
 67
     0
278
    -2
288
     1
 68
     0
279
    -2
289
     1
 69
     0
  7
STANDARD
140
0.25
170
     5
 62
     0
 63
     7
283
     0
274
    -2
284
     1
 64
     0
275
    -2
285
     1
 65
     0
276
    -2
286
     1
 66
     0
277
    -2
287
     1
 67
     0
278
    -2
288
     1
 68
     0
279
    -2
289
     1
 69
     0
  7
STANDARD
140
0.18
170
     5
 62
     0
 63
     7
283
     0
274
    -2
284
     1
 64
     0
275
    -2
285
     1
 65
     0
276
    -2
286
     1
 66
     0
277
    -2
287
     1
 67
     0
278
    -2
288
     1
 68
     0
279
    -2
289
     1
 69
     0
  0
VISUALSTYLE
  5
2560
102
{ACAD_XDICTIONARY
360
26C7
102
}
102
{ACAD_REACTORS
330
255A
102
}
330
255A
100
AcDbVisualStyle
  2
2dWireframe
 70
     4
 71
     0
 72
     2
 73
     0
 90
        0
 40
-0.6
 41
-30.0
 62
     5
 63
     7
 74
     1
 91
        4
 64
     7
 65
   257
 75
     1
175
     1
 42
1.0
 92
        0
 66
   257
 43
1.0
 76
     1
 77
     6
 78
     2
 67
     7
 79
     5
170
     0
171
     0
290
     0
174
     0
 93
        1
 44
0.0
173
     0
291
     0
 45
0.0
1001
ACAD
1000
AcDbSavedByObjectVersion
1070
     0
  0
VISUALSTYLE
  5
255F
102
{ACAD_XDICTIONARY
360
26C5
102
}
102
{ACAD_REACTORS
330
255A
102
}
330
255A
100
AcDbVisualStyle
  2
Basic
 70
     7
 71
     1
 72
     0
 73
     1
 90
        0
 40
-0.6
 41
-30.0
 62
     5
 63
     7
 74
     0
 91
        4
 64
     7
 65
   257
 75
     1
175
     1
 42
1.0
 92
        8
 66
     7
 43
1.0
 76
     1
 77
     6
 78
     2
 67
     7
 79
     5
170
     0
171
     0
290
     0
174
     0
 93
        1
 44
0.0
173
     0
291
     1
 45
0.0
1001
ACAD
1000
AcDbSavedByObjectVersion
1070
     0
  0
VISUALSTYLE
  5
2566
102
{ACAD_XDICTIONARY
360
26D3
102
}
102
{ACAD_REACTORS
330
255A
102
}
330
255A
100
AcDbVisualStyle
  2
Brighten
 70
    12
 71
     2
 72
     2
 73
     0
 90
        0
 40
-0.6
 41
-30.0
 62
     5
 63
     7
 74
     1
 91
        4
 64
     7
 65
   257
 75
     1
175
     1
 42
1.0
 92
        8
 66
     7
 43
1.0
 76
     1
 77
     6
 78
     2
 67
     7
 79
     5
170
     0
171
     0
290
     0
174
     0
 93
        1
 44
50.0
173
     0
291
     1
 45
0.0
1001
ACAD
1000
AcDbSavedByObjectVersion
1070
     0
  0
VISUALSTYLE
  5
256A
102
{ACAD_XDICTIONARY
360
26DB
102
}
102
{ACAD_REACTORS
330
255A
102
}
330
255A
100
AcDbVisualStyle
  2
ColorChange
 70
    16
 71
     2
 72
     2
 73
     3
 90
        0
 40
-0.6
 41
-30.0
 62
     5
 63
     8
 74
     1
 91
        4
 64
     7
 65
   257
 75
     1
175
     1
 42
1.0
 92
        8
 66
     8
 43
1.0
 76
     1
 77
     6
 78
     2
 67
     7
 79
     5
170
     0
171
     0
290
     0
174
     0
 93
        1
 44
0.0
173
     0
291
     1
 45
0.0
1001
ACAD
1000
AcDbSavedByObjectVersion
1070
     0
  0
VISUALSTYLE
  5
2563
102
{ACAD_XDICTIONARY
360
26CD
102
}
102
{ACAD_REACTORS
330
255A
102
}
330
255A
100
AcDbVisualStyle
  2
Conceptual
 70
     9
 71
     3
 72
     2
 73
     0
 90
        0
 40
-0.6
 41
-30.0
 62
     5
 63
     7
 74
     2
 91
        2
 64
     7
 65
   257
 75
     1
175
     1
 42
179.0
 92
        8
 66
     7
 43
1.0
 76
     1
 77
     6
 78
     2
 67
     7
 79
     3
170
     0
171
     0
290
     0
174
     0
 93
        1
 44
0.0
173
     0
291
     0
 45
0.0
1001
ACAD
1000
AcDbSavedByObjectVersion
1070
     0
  0
VISUALSTYLE
  5
2565
102
{ACAD_XDICTIONARY
360
26D1
102
}
102
{ACAD_REACTORS
330
255A
102
}
330
255A
100
AcDbVisualStyle
  2
Dim
 70
    11
 71
     2
 72
     2
 73
     0
 90
        0
 40
-0.6
 41
-30.0
 62
     5
 63
     7
 74
     1
 91
        4
 64
     7
 65
   257
 75
     1
175
     1
 42
1.0
 92
        8
 66
     7
 43
1.0
 76
     1
 77
     6
 78
     2
 67
     7
 79
     5
170
     0
171
     0
290
     0
174
     0
 93
        1
 44
-50.0
173
     0
291
     1
 45
0.0
1001
ACAD
1000
AcDbSavedByObjectVersion
1070
     0
  0
VISUALSTYLE
  5
2572
102
{ACAD_XDICTIONARY
360
26EB
102
}
102
{ACAD_REACTORS
330
255A
102
}
330
255A
100
AcDbVisualStyle
  2
EdgeColorOff
 70
    22
 71
     2
 72
     2
 73
     0
 90
        0
 40
-0.6
 41
-30.0
 62
     5
 63
     7
 74
     1
 91
        4
 64
     7
 65
   257
 75
     1
175
     1
 42
1.0
 92
        8
 66
     7
 43
1.0
 76
     1
 77
     6
 78
     2
 67
     7
 79
     5
170
     0
171
     0
290
     0
174
     0
 93
        1
 44
0.0
173
     0
291
     1
 45
0.0
1001
ACAD
1000
AcDbSavedByObjectVersion
1070
     0
  0
VISUALSTYLE
  5
2569
102
{ACAD_XDICTIONARY
360
26D9
102
}
102
{ACAD_REACTORS
330
255A
102
}
330
255A
100
AcDbVisualStyle
  2
Facepattern
 70
    15
 71
     2
 72
     2
 73
     0
 90
        0
 40
-0.6
 41
-30.0
 62
     5
 63
     7
 74
     1
 91
        4
 64
     7
 65
   257
 75
     1
175
     1
 42
1.0
 92
        8
 66
     7
 43
1.0
 76
     1
 77
     6
 78
     2
 67
     7
 79
     5
170
     0
171
     0
290
     0
174
     0
 93
        1
 44
0.0
173
     0
291
     1
 45
0.0
1001
ACAD
1000
AcDbSavedByObjectVersion
1070
     0
  0
VISUALSTYLE
  5
255B
102
{ACAD_XDICTIONARY
360
26BD
102
}
102
{ACAD_REACTORS
330
255A
102
}
330
255A
100
AcDbVisualStyle
  2
Flat
 70
     0
 71
     2
 72
     1
 73
     1
 90
        2
 40
-0.6
 41
30.0
 62
     5
 63
     7
 74
     0
 91
        0
 64
     7
 65
   257
 75
     1
175
     1
 42
1.0
 92
        8
 66
     7
 43
1.0
 76
     1
 77
     6
 78
     2
 67
     7
 79
     5
170
     0
171
     0
290
     0
174
     0
 93
       13
 44
0.0
173
     0
291
     1
 45
0.0
1001
ACAD
1000
AcDbSavedByObjectVersion
1070
     0
  0
VISUALSTYLE
  5
255C
102
{ACAD_XDICTIONARY
360
26BF
102
}
102
{ACAD_REACTORS
330
255A
102
}
330
255A
100
AcDbVisualStyle
  2
FlatWithEdges
 70
     1
 71
     2
 72
     1
 73
     1
 90
        2
 40
-0.6
 41
30.0
 62
     5
 63
     7
 74
     1
 91
        0
 64
     7
 65
   257
 75
     1
175
     1
 42
1.0
 92
        0
 66
   257
 43
1.0
 76
     1
 77
     6
 78
     2
 67
     7
 79
     5
170
     0
171
     0
290
     0
174
     0
 93
       13
 44
0.0
173
     0
291
     1
 45
0.0
1001
ACAD
1000
AcDbSavedByObjectVersion
1070
     0
  0
VISUALSTYLE
  5
255D
102
{ACAD_XDICTIONARY
360
26C1
102
}
102
{ACAD_REACTORS
330
255A
102
}
330
255A
100
AcDbVisualStyle
  2
Gouraud
 70
     2
 71
     2
 72
     2
 73
     1
 90
        2
 40
-0.6
 41
30.0
 62
     5
 63
     7
 74
     0
 91
        0
 64
     7
 65
   257
 75
     1
175
     1
 42
1.0
 92
        0
 66
     7
 43
1.0
 76
     1
 77
     6
 78
     2
 67
     7
 79
     5
170
     0
171
     0
290
     0
174
     0
 93
       13
 44
0.0
173
     0
291
     1
 45
0.0
1001
ACAD
1000
AcDbSavedByObjectVersion
1070
     0
  0
VISUALSTYLE
  5
255E
102
{ACAD_XDICTIONARY
360
26C3
102
}
102
{ACAD_REACTORS
330
255A
102
}
330
255A
100
AcDbVisualStyle
  2
GouraudWithEdges
 70
     3
 71
     2
 72
     2
 73
     1
 90
        2
 40
-0.6
 41
30.0
 62
     5
 63
     7
 74
     1
 91
        0
 64
     7
 65
   257
 75
     1
175
     1
 42
1.0
 92
        0
 66
   257
 43
1.0
 76
     1
 77
     6
 78
     2
 67
     7
 79
     5
170
     0
171
     0
290
     0
174
     0
 93
       13
 44
0.0
173
     0
291
     1
 45
0.0
1001
ACAD
1000
AcDbSavedByObjectVersion
1070
     0
  0
VISUALSTYLE
  5
2562
102
{ACAD_XDICTIONARY
360
26CB
102
}
102
{ACAD_REACTORS
330
255A
102
}
330
255A
100
AcDbVisualStyle
  2
Hidden
 70
     6
 71
     1
 72
     2
 73
     2
 90
        0
 40
-0.6
 41
-30.0
 62
     5
 63
     7
 74
     2
 91
        2
 64
     7
 65
   257
 75
     2
175
     1
 42
40.0
 92
        0
 66
   257
 43
1.0
 76
     1
 77
     6
 78
     2
 67
     7
 79
     3
170
     0
171
     0
290
     0
174
     0
 93
        1
 44
0.0
173
     0
291
     0
 45
0.0
1001
ACAD
1000
AcDbSavedByObjectVersion
1070
     0
  0
VISUALSTYLE
  5
2570
102
{ACAD_XDICTIONARY
360
26E7
102
}
102
{ACAD_REACTORS
330
255A
102
}
330
255A
100
AcDbVisualStyle
  2
JitterOff
 70
    20
 71
     2
 72
     2
 73
     0
 90
        0
 40
-0.6
 41
-30.0
 62
     5
 63
     7
 74
     1
 91
        4
 64
     7
 65
   257
 75
     1
175
     1
 42
1.0
 92
       10
 66
     7
 43
1.0
 76
     1
 77
     6
 78
     2
 67
     7
 79
     5
170
     0
171
     0
290
     0
174
     0
 93
        1
 44
0.0
173
     0
291
     1
 45
0.0
1001
ACAD
1000
AcDbSavedByObjectVersion
1070
     0
  0
VISUALSTYLE
  5
2568
102
{ACAD_XDICTIONARY
360
26D7
102
}
102
{ACAD_REACTORS
330
255A
102
}
330
255A
100
AcDbVisualStyle
  2
Linepattern
 70
    14
 71
     2
 72
     2
 73
     0
 90
        0
 40
-0.6
 41
-30.0
 62
     5
 63
     7
 74
     1
 91
        4
 64
     7
 65
   257
 75
     7
175
     7
 42
1.0
 92
        8
 66
     7
 43
1.0
 76
     1
 77
     6
 78
     2
 67
     7
 79
     5
170
     0
171
     0
290
     0
174
     0
 93
        1
 44
0.0
173
     0
291
     1
 45
0.0
1001
ACAD
1000
AcDbSavedByObjectVersion
1070
     0
  0
VISUALSTYLE
  5
2571
102
{ACAD_XDICTIONARY
360
26E9
102
}
102
{ACAD_REACTORS
330
255A
102
}
330
255A
100
AcDbVisualStyle
  2
OverhangOff
 70
    21
 71
     2
 72
     2
 73
     0
 90
        0
 40
-0.6
 41
-30.0
 62
     5
 63
     7
 74
     1
 91
        4
 64
     7
 65
   257
 75
     1
175
     1
 42
1.0
 92
        9
 66
     7
 43
1.0
 76
     1
 77
     6
 78
     2
 67
     7
 79
     5
170
     0
171
     0
290
     0
174
     0
 93
        1
 44
0.0
173
     0
291
     1
 45
0.0
1001
ACAD
1000
AcDbSavedByObjectVersion
1070
     0
  0
VISUALSTYLE
  5
2564
102
{ACAD_XDICTIONARY
360
26CF
102
}
102
{ACAD_REACTORS
330
255A
102
}
330
255A
100
AcDbVisualStyle
  2
Realistic
 70
     8
 71
     2
 72
     2
 73
     0
 90
        2
 40
-0.6
 41
30.0
 62
     5
 63
     7
 74
     0
 91
        0
 64
     7
 65
   257
 75
     1
175
     1
 42
1.0
 92
        8
 66
   257
 43
1.0
 76
     1
 77
     6
 78
     2
 67
     7
 79
     3
170
     0
171
     0
290
     0
174
     0
 93
       13
 44
0.0
173
     0
291
     0
 45
0.0
1001
ACAD
1000
AcDbSavedByObjectVersion
1070
     0
  0
VISUALSTYLE
  5
256F
102
{ACAD_XDICTIONARY
360
26E5
102
}
102
{ACAD_REACTORS
330
255A
102
}
330
255A
100
AcDbVisualStyle
  2
Shaded
 70
    27
 71
     2
 72
     2
 73
     1
 90
        2
 40
-0.6
 41
30.0
 62
     5
 63
     7
 74
     0
 91
        4
 64
     7
 65
   257
 75
     1
175
     1
 42
1.0
 92
        8
 66
   257
 43
1.0
 76
     1
 77
     6
 78
     2
 67
     8
 79
     3
170
     0
171
     0
290
     0
174
     0
 93
        5
 44
0.0
173
     0
291
     0
 45
0.0
1001
ACAD
1000
AcDbSavedByObjectVersion
1070
     0
  0
VISUALSTYLE
  5
256E
102
{ACAD_XDICTIONARY
360
26E3
102
}
102
{ACAD_REACTORS
330
255A
102
}
330
255A
100
AcDbVisualStyle
  2
Shaded with edges
 70
    26
 71
     2
 72
     2
 73
     1
 90
        2
 40
-0.6
 41
30.0
 62
     5
 63
     7
 74
     1
 91
        2
 64
     7
 65
   257
 75
     2
175
     1
 42
1.0
 92
        8
 66
   257
 43
1.0
 76
     1
 77
     6
 78
     2
 67
     7
 79
     3
170
     0
171
     0
290
     0
174
     0
 93
        5
 44
0.0
173
     0
291
     0
 45
0.0
1001
ACAD
1000
AcDbSavedByObjectVersion
1070
     0
  0
VISUALSTYLE
  5
256B
102
{ACAD_XDICTIONARY
360
26DD
102
}
102
{ACAD_REACTORS
330
255A
102
}
330
255A
100
AcDbVisualStyle
  2
Shades of Gray
 70
    23
 71
     2
 72
     2
 73
     3
 90
        0
 40
-0.6
 41
-30.0
 62
     5
 63
     7
 74
     2
 91
        2
 64
     7
 65
     7
 75
     1
175
     1
 42
40.0
 92
        8
 66
     7
 43
1.0
 76
     1
 77
     6
 78
     2
 67
     7
 79
     3
170
     0
171
     0
290
     0
174
     0
 93
        1
 44
0.0
173
     0
291
     0
 45
0.0
1001
ACAD
1000
AcDbSavedByObjectVersion
1070
     0
  0
VISUALSTYLE
  5
256C
102
{ACAD_XDICTIONARY
360
26DF
102
}
102
{ACAD_REACTORS
330
255A
102
}
330
255A
100
AcDbVisualStyle
  2
Sketchy
 70
    24
 71
     1
 72
     2
 73
     2
 90
        0
 40
-0.6
 41
-30.0
 62
     5
 63
     7
 74
     2
 91
        2
 64
     7
 65
     7
 75
     1
175
     1
 42
40.0
 92
       11
 66
     7
 43
1.0
 76
     1
 77
     6
 78
     2
 67
     7
 79
     6
170
     0
171
     0
290
     0
174
     0
 93
        1
 44
0.0
173
     0
291
     0
 45
0.0
1001
ACAD
1000
AcDbSavedByObjectVersion
1070
     0
  0
VISUALSTYLE
  5
2567
102
{ACAD_XDICTIONARY
360
26D5
102
}
102
{ACAD_REACTORS
330
255A
102
}
330
255A
100
AcDbVisualStyle
  2
Thicken
 70
    13
 71
     2
 72
     2
 73
     0
 90
        0
 40
-0.6
 41
-30.0
 62
     5
 63
     7
 74
     1
 91
        4
 64
     7
 65
   257
 75
     1
175
     1
 42
1.0
 92
       12
 66
     7
 43
1.0
 76
     1
 77
     6
 78
     2
 67
     7
 79
     5
170
     0
171
     0
290
     0
174
     0
 93
        1
 44
0.0
173
     0
291
     1
 45
0.0
1001
ACAD
1000
AcDbSavedByObjectVersion
1070
     0
  0
VISUALSTYLE
  5
2561
102
{ACAD_XDICTIONARY
360
26C9
102
}
102
{ACAD_REACTORS
330
255A
102
}
330
255A
100
AcDbVisualStyle
  2
Wireframe
 70
     5
 71
     0
 72
     2
 73
     0
 90
        0
 40
-0.6
 41
-30.0
 62
     5
 63
     7
 74
     1
 91
        4
 64
     7
 65
   257
 75
     1
175
     1
 42
1.0
 92
        0
 66
   257
 43
1.0
 76
     1
 77
     6
 78
     2
 67
     7
 79
     3
170
     0
171
     0
290
     0
174
     0
 93
        1
 44
0.0
173
     0
291
     0
 45
0.0
1001
ACAD
1000
AcDbSavedByObjectVersion
1070
     0
  0
VISUALSTYLE
  5
256D
102
{ACAD_XDICTIONARY
360
26E1
102
}
102
{ACAD_REACTORS
330
255A
102
}
330
255A
100
AcDbVisualStyle
  2
X-Ray
 70
    25
 71
     2
 72
     2
 73
     1
 90
        1
 40
0.5
 41
-30.0
 62
     5
 63
     7
 74
     1
 91
        0
 64
     7
 65
   257
 75
     1
175
     1
 42
1.0
 92
        8
 66
     7
 43
1.0
 76
     1
 77
     6
 78
     2
 67
     7
 79
     3
170
     0
171
     0
290
     0
174
     0
 93
       13
 44
0.0
173
     0
291
     0
 45
0.0
1001
ACAD
1000
AcDbSavedByObjectVersion
1070
     0
  0
DICTIONARYVAR
  5
25D5
102
{ACAD_REACTORS
330
25D0
102
}
330
25D0
100
DictionaryVariables
280
     0
  1
1:1
  0
DICTIONARYVAR
  5
25D2
102
{ACAD_REACTORS
330
25D0
102
}
330
25D0
100
DictionaryVariables
280
     0
  1
STANDARD
  0
DICTIONARYVAR
  5
25D1
102
{ACAD_REACTORS
330
25D0
102
}
330
25D0
100
DictionaryVariables
280
     0
  1
STANDARD
  0
DICTIONARYVAR
  5
25D3
102
{ACAD_REACTORS
330
25D0
102
}
330
25D0
100
DictionaryVariables
280
     0
  1
Imperial24
  0
DICTIONARYVAR
  5
25D4
102
{ACAD_REACTORS
330
25D0
102
}
330
25D0
100
DictionaryVariables
280
     0
  1
Imperial24
  0
DICTIONARYVAR
  5
25D8
102
{ACAD_REACTORS
330
25D0
102
}
330
25D0
100
DictionaryVariables
280
     0
  1
1
  0
DICTIONARYVAR
  5
25D7
102
{ACAD_REACTORS
330
25D0
102
}
330
25D0
100
DictionaryVariables
280
     0
  1
0
  0
DICTIONARYVAR
  5
25D6
102
{ACAD_REACTORS
330
25D0
102
}
330
25D0
100
DictionaryVariables
280
     0
  1
127
  0
DICTIONARYVAR
  5
26B2
102
{ACAD_REACTORS
330
25D0
102
}
330
25D0
100
DictionaryVariables
280
     0
  1
2
  0
DICTIONARY
  5
26F0
330
258D
100
AcDbDictionary
280
     1
281
     1
  3
ACAD_XREC_ROUNDTRIP
360
26F1
  0
DICTIONARY
  5
26B8
330
253E
100
AcDbDictionary
280
     1
281
     1
  3
ACAD_XREC_ROUNDTRIP
360
26B9
  0
DICTIONARY
  5
26B6
330
253D
100
AcDbDictionary
280
     1
281
     1
  3
ACAD_XREC_ROUNDTRIP
360
26B7
  0
DICTIONARY
  5
254B
330
254A
100
AcDbDictionary
280
     1
281
     1
  3
ACAD_XREC_ROUNDTRIP
360
26BB
  3
BUMPTILE
360
254D
  3
DIFFUSETILE
360
254C
  3
OPACITYTILE
360
2550
  3
REFLECTIONTILE
360
254F
  3
REFRACTIONTILE
360
2551
  3
SPECULARTILE
360
254E
  0
DICTIONARY
  5
2543
330
2542
100
AcDbDictionary
280
     1
281
     1
  3
ACAD_XREC_ROUNDTRIP
360
26BA
  3
BUMPTILE
360
2545
  3
DIFFUSETILE
360
2544
  3
OPACITYTILE
360
2548
  3
REFLECTIONTILE
360
2547
  3
REFRACTIONTILE
360
2549
  3
SPECULARTILE
360
2546
  0
DICTIONARY
  5
2553
330
2552
100
AcDbDictionary
280
     1
281
     1
  3
ACAD_XREC_ROUNDTRIP
360
26BC
  3
BUMPTILE
360
2555
  3
DIFFUSETILE
360
2554
  3
OPACITYTILE
360
2558
  3
REFLECTIONTILE
360
2557
  3
REFRACTIONTILE
360
2559
  3
SPECULARTILE
360
2556
  0
DICTIONARY
  5
26EE
330
258B
100
AcDbDictionary
280
     1
281
     1
  3
ACAD_XREC_ROUNDTRIP
360
26EF
  0
DICTIONARY
  5
258E
330
2575
100
AcDbDictionary
280
     1
281
     1
  3
ACAD_ROUNDTRIP_2008_TABLESTYLE_CELLSTYLEMAP
360
26B3
  3
ACAD_XREC_ROUNDTRIP
360
26ED
  0
DICTIONARY
  5
26C7
330
2560
100
AcDbDictionary
280
     1
281
     1
  3
ACAD_XREC_ROUNDTRIP
360
26C8
  0
DICTIONARY
  5
26C5
330
255F
100
AcDbDictionary
280
     1
281
     1
  3
ACAD_XREC_ROUNDTRIP
360
26C6
  0
DICTIONARY
  5
26D3
330
2566
100
AcDbDictionary
280
     1
281
     1
  3
ACAD_XREC_ROUNDTRIP
360
26D4
  0
DICTIONARY
  5
26DB
330
256A
100
AcDbDictionary
280
     1
281
     1
  3
ACAD_XREC_ROUNDTRIP
360
26DC
  0
DICTIONARY
  5
26CD
330
2563
100
AcDbDictionary
280
     1
281
     1
  3
ACAD_XREC_ROUNDTRIP
360
26CE
  0
DICTIONARY
  5
26D1
330
2565
100
AcDbDictionary
280
     1
281
     1
  3
ACAD_XREC_ROUNDTRIP
360
26D2
  0
DICTIONARY
  5
26EB
330
2572
100
AcDbDictionary
280
     1
281
     1
  3
ACAD_XREC_ROUNDTRIP
360
26EC
  0
DICTIONARY
  5
26D9
330
2569
100
AcDbDictionary
280
     1
281
     1
  3
ACAD_XREC_ROUNDTRIP
360
26DA
  0
DICTIONARY
  5
26BD
330
255B
100
AcDbDictionary
280
     1
281
     1
  3
ACAD_XREC_ROUNDTRIP
360
26BE
  0
DICTIONARY
  5
26BF
330
255C
100
AcDbDictionary
280
     1
281
     1
  3
ACAD_XREC_ROUNDTRIP
360
26C0
  0
DICTIONARY
  5
26C1
330
255D
100
AcDbDictionary
280
     1
281
     1
  3
ACAD_XREC_ROUNDTRIP
360
26C2
  0
DICTIONARY
  5
26C3
330
255E
100
AcDbDictionary
280
     1
281
     1
  3
ACAD_XREC_ROUNDTRIP
360
26C4
  0
DICTIONARY
  5
26CB
330
2562
100
AcDbDictionary
280
     1
281
     1
  3
ACAD_XREC_ROUNDTRIP
360
26CC
  0
DICTIONARY
  5
26E7
330
2570
100
AcDbDictionary
280
     1
281
     1
  3
ACAD_XREC_ROUNDTRIP
360
26E8
  0
DICTIONARY
  5
26D7
330
2568
100
AcDbDictionary
280
     1
281
     1
  3
ACAD_XREC_ROUNDTRIP
360
26D8
  0
DICTIONARY
  5
26E9
330
2571
100
AcDbDictionary
280
     1
281
     1
  3
ACAD_XREC_ROUNDTRIP
360
26EA
  0
DICTIONARY
  5
26CF
330
2564
100
AcDbDictionary
280
     1
281
     1
  3
ACAD_XREC_ROUNDTRIP
360
26D0
  0
DICTIONARY
  5
26E5
330
256F
100
AcDbDictionary
280
     1
281
     1
  3
ACAD_XREC_ROUNDTRIP
360
26E6
  0
DICTIONARY
  5
26E3
330
256E
100
AcDbDictionary
280
     1
281
     1
  3
ACAD_XREC_ROUNDTRIP
360
26E4
  0
DICTIONARY
  5
26DD
330
256B
100
AcDbDictionary
280
     1
281
     1
  3
ACAD_XREC_ROUNDTRIP
360
26DE
  0
DICTIONARY
  5
26DF
330
256C
100
AcDbDictionary
280
     1
281
     1
  3
ACAD_XREC_ROUNDTRIP
360
26E0
  0
DICTIONARY
  5
26D5
330
2567
100
AcDbDictionary
280
     1
281
     1
  3
ACAD_XREC_ROUNDTRIP
360
26D6
  0
DICTIONARY
  5
26C9
330
2561
100
AcDbDictionary
280
     1
281
     1
  3
ACAD_XREC_ROUNDTRIP
360
26CA
  0
DICTIONARY
  5
26E1
330
256D
100
AcDbDictionary
280
     1
281
     1
  3
ACAD_XREC_ROUNDTRIP
360
26E2
  0
XRECORD
  5
26F1
102
{ACAD_REACTORS
330
26F0
102
}
330
26F0
100
AcDbXrecord
280
     1
102
DISPLAYNAME
  1
Imperial24
102
FLAGS
 90
        0
  0
XRECORD
  5
26B9
102
{ACAD_REACTORS
330
26B8
102
}
330
26B8
100
AcDbXrecord
280
     1
102
SHADEPLOT
 70
     0
102
SHADEPLOTRESLEVEL
 70
     2
102
SHADEPLOTCUSTOMDPI
 70
   300
  0
XRECORD
  5
26B7
102
{ACAD_REACTORS
330
26B6
102
}
330
26B6
100
AcDbXrecord
280
     1
102
SHADEPLOT
 70
     0
102
SHADEPLOTRESLEVEL
 70
     2
102
SHADEPLOTCUSTOMDPI
 70
   300
  0
XRECORD
  5
26BB
102
{ACAD_REACTORS
330
254B
102
}
330
254B
100
AcDbXrecord
280
     1
102
MATERIAL
148
0.0
149
0.0
149
0.0
 93
        0
 94
      127
282
     0
 72
     0
 77
     0
171
     0
175
     0
179
     0
273
     0
  0
XRECORD
  5
254D
102
{ACAD_REACTORS
330
254B
102
}
330
254B
100
AcDbXrecord
280
     1
270
     1
271
     1
  0
XRECORD
  5
254C
102
{ACAD_REACTORS
330
254B
102
}
330
254B
100
AcDbXrecord
280
     1
270
     1
271
     1
  0
XRECORD
  5
2550
102
{ACAD_REACTORS
330
254B
102
}
330
254B
100
AcDbXrecord
280
     1
270
     1
271
     1
  0
XRECORD
  5
254F
102
{ACAD_REACTORS
330
254B
102
}
330
254B
100
AcDbXrecord
280
     1
270
     1
271
     1
  0
XRECORD
  5
2551
102
{ACAD_REACTORS
330
254B
102
}
330
254B
100
AcDbXrecord
280
     1
270
     1
271
     1
  0
XRECORD
  5
254E
102
{ACAD_REACTORS
330
254B
102
}
330
254B
100
AcDbXrecord
280
     1
270
     1
271
     1
  0
XRECORD
  5
26BA
102
{ACAD_REACTORS
330
2543
102
}
330
2543
100
AcDbXrecord
280
     1
102
MATERIAL
148
0.0
149
0.0
149
0.0
 93
        0
 94
      127
282
     0
 72
     0
 77
     0
171
     0
175
     0
179
     0
273
     0
  0
XRECORD
  5
2545
102
{ACAD_REACTORS
330
2543
102
}
330
2543
100
AcDbXrecord
280
     1
270
     1
271
     1
  0
XRECORD
  5
2544
102
{ACAD_REACTORS
330
2543
102
}
330
2543
100
AcDbXrecord
280
     1
270
     1
271
     1
  0
XRECORD
  5
2548
102
{ACAD_REACTORS
330
2543
102
}
330
2543
100
AcDbXrecord
280
     1
270
     1
271
     1
  0
XRECORD
  5
2547
102
{ACAD_REACTORS
330
2543
102
}
330
2543
100
AcDbXrecord
280
     1
270
     1
271
     1
  0
XRECORD
  5
2549
102
{ACAD_REACTORS
330
2543
102
}
330
2543
100
AcDbXrecord
280
     1
270
     1
271
     1
  0
XRECORD
  5
2546
102
{ACAD_REACTORS
330
2543
102
}
330
2543
100
AcDbXrecord
280
     1
270
     1
271
     1
  0
XRECORD
  5
26BC
102
{ACAD_REACTORS
330
2553
102
}
330
2553
100
AcDbXrecord
280
     1
102
MATERIAL
148
0.0
149
0.0
149
0.0
 93
        0
 94
      127
282
     0
 72
     0
 77
     0
171
     0
175
     0
179
     0
273
     0
  0
XRECORD
  5
2555
102
{ACAD_REACTORS
330
2553
102
}
330
2553
100
AcDbXrecord
280
     1
270
     1
271
     1
  0
XRECORD
  5
2554
102
{ACAD_REACTORS
330
2553
102
}
330
2553
100
AcDbXrecord
280
     1
270
     1
271
     1
  0
XRECORD
  5
2558
102
{ACAD_REACTORS
330
2553
102
}
330
2553
100
AcDbXrecord
280
     1
270
     1
271
     1
  0
XRECORD
  5
2557
102
{ACAD_REACTORS
330
2553
102
}
330
2553
100
AcDbXrecord
280
     1
270
     1
271
     1
  0
XRECORD
  5
2559
102
{ACAD_REACTORS
330
2553
102
}
330
2553
100
AcDbXrecord
280
     1
270
     1
271
     1
  0
XRECORD
  5
2556
102
{ACAD_REACTORS
330
2553
102
}
330
2553
100
AcDbXrecord
280
     1
270
     1
271
     1
  0
XRECORD
  5
26EF
102
{ACAD_REACTORS
330
26EE
102
}
330
26EE
100
AcDbXrecord
280
     1
102
DISPLAYNAME
  1
Imperial24
102
FLAGS
 90
        0
  0
CELLSTYLEMAP
  5
26B3
102
{ACAD_REACTORS
330
258E
102
}
330
258E
100
AcDbCellStyleMap
 90
        3
300
CELLSTYLE
  1
TABLEFORMAT_BEGIN
 90
        5
170
     1
 91
        0
 92
    32768
 62
   257
 93
        1
300
CONTENTFORMAT
  1
CONTENTFORMAT_BEGIN
 90
        0
 91
        0
 92
      512
 93
        0
300

 40
0.0
140
1.0
 94
        5
 62
     0
340
11
144
0.25
309
CONTENTFORMAT_END
171
     0
 94
        0
309
TABLEFORMAT_END
  1
CELLSTYLE_BEGIN
 90
        1
 91
        1
300
_TITLE
309
CELLSTYLE_END
300
CELLSTYLE
  1
TABLEFORMAT_BEGIN
 90
        5
170
     1
 91
        0
 92
        0
 62
   257
 93
        1
300
CONTENTFORMAT
  1
CONTENTFORMAT_BEGIN
 90
        0
 91
        0
 92
      512
 93
        0
300

 40
0.0
140
1.0
 94
        5
 62
     0
340
11
144
0.18
309
CONTENTFORMAT_END
171
     0
 94
        0
309
TABLEFORMAT_END
  1
CELLSTYLE_BEGIN
 90
        2
 91
        1
300
_HEADER
309
CELLSTYLE_END
300
CELLSTYLE
  1
TABLEFORMAT_BEGIN
 90
        5
170
     1
 91
        0
 92
        0
 62
   257
 93
        1
300
CONTENTFORMAT
  1
CONTENTFORMAT_BEGIN
 90
        0
 91
        0
 92
      512
 93
        0
300

 40
0.0
140
1.0
 94
        2
 62
     0
340
11
144
0.18
309
CONTENTFORMAT_END
171
     0
 94
        0
309
TABLEFORMAT_END
  1
CELLSTYLE_BEGIN
 90
        3
 91
        2
300
_DATA
309
CELLSTYLE_END
  0
XRECORD
  5
26ED
102
{ACAD_REACTORS
330
258E
102
}
330
258E
100
AcDbXrecord
280
     1
102
ACAD_ROUNDTRIP_PRE2007_TABLESTYLE
 90
      512
 91
        0
  1

 92
      512
 93
        0
  2

 94
      512
 95
        0
  3

  0
XRECORD
  5
26C8
102
{ACAD_REACTORS
330
26C7
102
}
330
26C7
100
AcDbXrecord
280
     1
102
RTVSPost2010Prop28
280
     1
102
RTVSPost2010PropOp28
 70
     1
102
RTVSPost2010Prop29
280
     1
102
RTVSPost2010PropOp29
 70
     1
102
RTVSPost2010Prop30
280
     0
102
RTVSPost2010PropOp30
 70
     1
102
RTVSPost2010Prop31
280
     0
102
RTVSPost2010PropOp31
 70
     1
102
RTVSPost2010Prop32
280
     0
102
RTVSPost2010PropOp32
 70
     1
102
RTVSPost2010Prop33
280
     0
102
RTVSPost2010PropOp33
 70
     1
102
RTVSPost2010Prop34
280
     0
102
RTVSPost2010PropOp34
 70
     1
102
RTVSPost2010Prop35
280
     0
102
RTVSPost2010PropOp35
 70
     1
102
RTVSPost2010Prop36
280
     0
102
RTVSPost2010PropOp36
 70
     1
102
RTVSPost2010Prop37
 90
       50
102
RTVSPost2010PropOp37
 70
     1
102
RTVSPost2010Prop38
140
0.0
102
RTVSPost2010PropOp38
 70
     1
102
RTVSPost2010Prop39
140
1.0
102
RTVSPost2010PropOp39
 70
     1
102
RTVSPost2010Prop40
 90
        0
102
RTVSPost2010PropOp40
 70
     1
102
RTVSPost2010Prop41ColorIndex
 90
       18
102
RTVSPost2010Prop41ColorRGB
 90
        0
102
RTVSPost2010PropOp41
 70
     1
102
RTVSPost2010Prop42
 90
       50
102
RTVSPost2010PropOp42
 70
     1
102
RTVSPost2010Prop43
 90
        3
102
RTVSPost2010PropOp43
 70
     1
102
RTVSPost2010Prop44ColorIndex
 90
        5
102
RTVSPost2010Prop44ColorRGB
 90
      255
102
RTVSPost2010PropOp44
 70
     1
102
RTVSPost2010Prop45
280
     0
102
RTVSPost2010PropOp45
 70
     1
102
RTVSPost2010Prop46
 90
       50
102
RTVSPost2010PropOp46
 70
     1
102
RTVSPost2010Prop47
 90
       50
102
RTVSPost2010PropOp47
 70
     1
102
RTVSPost2010Prop48
 90
       50
102
RTVSPost2010PropOp48
 70
     1
102
RTVSPost2010Prop49
280
     0
102
RTVSPost2010PropOp49
 70
     1
102
RTVSPost2010Prop50
 90
       50
102
RTVSPost2010PropOp50
 70
     1
102
RTVSPost2010Prop51ColorIndex
 90
      256
102
RTVSPost2010Prop51ColorRGB
 90
-16777216
102
RTVSPost2010PropOp51
 70
     0
102
RTVSPost2010Prop52
140
1.0
102
RTVSPost2010PropOp52
 70
     0
102
RTVSPost2010Prop53
 90
        2
102
RTVSPost2010PropOp53
 70
     1
102
RTVSPost2010Prop54
  1
strokes_ogs.tif
102
RTVSPost2010PropOp54
 70
     1
102
RTVSPost2010Prop55
280
     0
102
RTVSPost2010PropOp55
 70
     1
102
RTVSPost2010Prop56
140
1.0
102
RTVSPost2010PropOp56
 70
     1
102
RTVSPost2010Prop57
140
1.0
102
RTVSPost2010PropOp57
 70
     1
102
RTVSPropertyOp0
 70
     1
102
RTVSPropertyOp1
 70
     1
102
RTVSPropertyOp2
 70
     1
102
RTVSPropertyOp3
 70
     1
102
RTVSPropertyOp4
 70
     1
102
RTVSPropertyOp5
 70
     1
102
RTVSPropertyOp6
 70
     1
102
RTVSPropertyOp7
 70
     1
102
RTVSPropertyOp8
 70
     1
102
RTVSPropertyOp9
 70
     1
102
RTVSPropertyOp10
 70
     1
102
RTVSPropertyOp11
 70
     1
102
RTVSPropertyOp12
 70
     1
102
RTVSPropertyOp13
 70
     1
102
RTVSPropertyOp14
 70
     1
102
RTVSPropertyOp15
 70
     1
102
RTVSPropertyOp16
 70
     1
102
RTVSPropertyOp17
 70
     1
102
RTVSPropertyOp18
 70
     1
102
RTVSPropertyOp19
 70
     1
102
RTVSPropertyOp20
 70
     1
102
RTVSPropertyOp21
 70
     1
102
RTVSPropertyOp22
 70
     1
102
RTVSPropertyOp23
 70
     1
102
RTVSPropertyOp24
 70
     1
102
RTVSPropertyOp25
 70
     1
102
RTVSPropertyOp26
 70
     1
102
RTVSPropertyOp27
 70
     1
102
RTVSPropertyOp28
 70
     1
102
RTVSPropertyOp29
 70
     1
102
RTVSPropertyOp30
 70
     1
102
RTVSPropertyOp31
 70
     1
102
RTVSPropertyOp32
 70
     1
102
RTVSPropertyOp33
 70
     1
102
RTVSPropertyOp34
 70
     1
102
RTVSPropertyOp35
 70
     1
102
RTVSPropertyOp36
 70
     1
102
RTVSPropertyOp37
 70
     1
102
RTVSPropertyOp38
 70
     1
102
RTVSPropertyOp39
 70
     1
102
RTVSPropertyOp40
 70
     1
102
RTVSPropertyOp41
 70
     1
102
RTVSPropertyOp42
 70
     1
102
RTVSPropertyOp43
 70
     1
102
RTVSPropertyOp44
 70
     1
102
RTVSPropertyOp45
 70
     1
102
RTVSPropertyOp46
 70
     1
102
RTVSPropertyOp47
 70
     1
102
RTVSPropertyOp48
 70
     1
102
RTVSPropertyOp49
 70
     1
102
RTVSPropertyOp50
 70
     1
102
RTVSPropertyOp51
 70
     0
102
RTVSPropertyOp52
 70
     0
102
RTVSPropertyOp53
 70
     1
102
RTVSPropertyOp54
 70
     1
102
RTVSPropertyOp55
 70
     1
102
RTVSPropertyOp56
 70
     1
102
RTVSPropertyOp57
 70
     1
102
RTVSPropertyOp58
 70
     1
102
RTVSPropertyOp59
 70
     1
102
RTVSPropertyOp60
 70
     1
102
RTVSPropertyOp61
 70
     1
102
RTVSPropertyOp62
 70
     1
  0
XRECORD
  5
26C6
102
{ACAD_REACTORS
330
26C5
102
}
330
26C5
100
AcDbXrecord
280
     1
102
RTVSPost2010Prop28
280
     0
102
RTVSPost2010PropOp28
 70
     1
102
RTVSPost2010Prop29
280
     1
102
RTVSPost2010PropOp29
 70
     1
102
RTVSPost2010Prop30
280
     1
102
RTVSPost2010PropOp30
 70
     1
102
RTVSPost2010Prop31
280
     0
102
RTVSPost2010PropOp31
 70
     1
102
RTVSPost2010Prop32
280
     0
102
RTVSPost2010PropOp32
 70
     1
102
RTVSPost2010Prop33
280
     0
102
RTVSPost2010PropOp33
 70
     1
102
RTVSPost2010Prop34
280
     0
102
RTVSPost2010PropOp34
 70
     1
102
RTVSPost2010Prop35
280
     0
102
RTVSPost2010PropOp35
 70
     1
102
RTVSPost2010Prop36
280
     0
102
RTVSPost2010PropOp36
 70
     1
102
RTVSPost2010Prop37
 90
       50
102
RTVSPost2010PropOp37
 70
     1
102
RTVSPost2010Prop38
140
0.0
102
RTVSPost2010PropOp38
 70
     1
102
RTVSPost2010Prop39
140
1.0
102
RTVSPost2010PropOp39
 70
     1
102
RTVSPost2010Prop40
 90
        0
102
RTVSPost2010PropOp40
 70
     1
102
RTVSPost2010Prop41ColorIndex
 90
       18
102
RTVSPost2010Prop41ColorRGB
 90
        0
102
RTVSPost2010PropOp41
 70
     1
102
RTVSPost2010Prop42
 90
       50
102
RTVSPost2010PropOp42
 70
     1
102
RTVSPost2010Prop43
 90
        3
102
RTVSPost2010PropOp43
 70
     1
102
RTVSPost2010Prop44ColorIndex
 90
        5
102
RTVSPost2010Prop44ColorRGB
 90
      255
102
RTVSPost2010PropOp44
 70
     1
102
RTVSPost2010Prop45
280
     0
102
RTVSPost2010PropOp45
 70
     1
102
RTVSPost2010Prop46
 90
       50
102
RTVSPost2010PropOp46
 70
     1
102
RTVSPost2010Prop47
 90
       50
102
RTVSPost2010PropOp47
 70
     1
102
RTVSPost2010Prop48
 90
       50
102
RTVSPost2010PropOp48
 70
     1
102
RTVSPost2010Prop49
280
     0
102
RTVSPost2010PropOp49
 70
     1
102
RTVSPost2010Prop50
 90
       50
102
RTVSPost2010PropOp50
 70
     1
102
RTVSPost2010Prop51ColorIndex
 90
      256
102
RTVSPost2010Prop51ColorRGB
 90
-16777216
102
RTVSPost2010PropOp51
 70
     0
102
RTVSPost2010Prop52
140
1.0
102
RTVSPost2010PropOp52
 70
     0
102
RTVSPost2010Prop53
 90
        2
102
RTVSPost2010PropOp53
 70
     1
102
RTVSPost2010Prop54
  1
strokes_ogs.tif
102
RTVSPost2010PropOp54
 70
     1
102
RTVSPost2010Prop55
280
     0
102
RTVSPost2010PropOp55
 70
     1
102
RTVSPost2010Prop56
140
1.0
102
RTVSPost2010PropOp56
 70
     1
102
RTVSPost2010Prop57
140
1.0
102
RTVSPost2010PropOp57
 70
     1
102
RTVSPropertyOp0
 70
     1
102
RTVSPropertyOp1
 70
     1
102
RTVSPropertyOp2
 70
     1
102
RTVSPropertyOp3
 70
     1
102
RTVSPropertyOp4
 70
     1
102
RTVSPropertyOp5
 70
     1
102
RTVSPropertyOp6
 70
     1
102
RTVSPropertyOp7
 70
     1
102
RTVSPropertyOp8
 70
     1
102
RTVSPropertyOp9
 70
     1
102
RTVSPropertyOp10
 70
     1
102
RTVSPropertyOp11
 70
     1
102
RTVSPropertyOp12
 70
     1
102
RTVSPropertyOp13
 70
     1
102
RTVSPropertyOp14
 70
     1
102
RTVSPropertyOp15
 70
     1
102
RTVSPropertyOp16
 70
     1
102
RTVSPropertyOp17
 70
     1
102
RTVSPropertyOp18
 70
     1
102
RTVSPropertyOp19
 70
     1
102
RTVSPropertyOp20
 70
     1
102
RTVSPropertyOp21
 70
     1
102
RTVSPropertyOp22
 70
     1
102
RTVSPropertyOp23
 70
     1
102
RTVSPropertyOp24
 70
     1
102
RTVSPropertyOp25
 70
     1
102
RTVSPropertyOp26
 70
     1
102
RTVSPropertyOp27
 70
     1
102
RTVSPropertyOp28
 70
     1
102
RTVSPropertyOp29
 70
     1
102
RTVSPropertyOp30
 70
     1
102
RTVSPropertyOp31
 70
     1
102
RTVSPropertyOp32
 70
     1
102
RTVSPropertyOp33
 70
     1
102
RTVSPropertyOp34
 70
     1
102
RTVSPropertyOp35
 70
     1
102
RTVSPropertyOp36
 70
     1
102
RTVSPropertyOp37
 70
     1
102
RTVSPropertyOp38
 70
     1
102
RTVSPropertyOp39
 70
     1
102
RTVSPropertyOp40
 70
     1
102
RTVSPropertyOp41
 70
     1
102
RTVSPropertyOp42
 70
     1
102
RTVSPropertyOp43
 70
     1
102
RTVSPropertyOp44
 70
     1
102
RTVSPropertyOp45
 70
     1
102
RTVSPropertyOp46
 70
     1
102
RTVSPropertyOp47
 70
     1
102
RTVSPropertyOp48
 70
     1
102
RTVSPropertyOp49
 70
     1
102
RTVSPropertyOp50
 70
     1
102
RTVSPropertyOp51
 70
     0
102
RTVSPropertyOp52
 70
     0
102
RTVSPropertyOp53
 70
     1
102
RTVSPropertyOp54
 70
     1
102
RTVSPropertyOp55
 70
     1
102
RTVSPropertyOp56
 70
     1
102
RTVSPropertyOp57
 70
     1
102
RTVSPropertyOp58
 70
     1
102
RTVSPropertyOp59
 70
     1
102
RTVSPropertyOp60
 70
     1
102
RTVSPropertyOp61
 70
     1
102
RTVSPropertyOp62
 70
     1
  0
XRECORD
  5
26D4
102
{ACAD_REACTORS
330
26D3
102
}
330
26D3
100
AcDbXrecord
280
     1
102
RTVSPost2010Prop28
280
     0
102
RTVSPost2010PropOp28
 70
     1
102
RTVSPost2010Prop29
280
     1
102
RTVSPost2010PropOp29
 70
     1
102
RTVSPost2010Prop30
280
     1
102
RTVSPost2010PropOp30
 70
     1
102
RTVSPost2010Prop31
280
     0
102
RTVSPost2010PropOp31
 70
     1
102
RTVSPost2010Prop32
280
     0
102
RTVSPost2010PropOp32
 70
     1
102
RTVSPost2010Prop33
280
     0
102
RTVSPost2010PropOp33
 70
     1
102
RTVSPost2010Prop34
280
     0
102
RTVSPost2010PropOp34
 70
     1
102
RTVSPost2010Prop35
280
     0
102
RTVSPost2010PropOp35
 70
     1
102
RTVSPost2010Prop36
280
     0
102
RTVSPost2010PropOp36
 70
     1
102
RTVSPost2010Prop37
 90
       50
102
RTVSPost2010PropOp37
 70
     1
102
RTVSPost2010Prop38
140
0.0
102
RTVSPost2010PropOp38
 70
     1
102
RTVSPost2010Prop39
140
1.0
102
RTVSPost2010PropOp39
 70
     1
102
RTVSPost2010Prop40
 90
        0
102
RTVSPost2010PropOp40
 70
     1
102
RTVSPost2010Prop41ColorIndex
 90
       18
102
RTVSPost2010Prop41ColorRGB
 90
        0
102
RTVSPost2010PropOp41
 70
     1
102
RTVSPost2010Prop42
 90
       50
102
RTVSPost2010PropOp42
 70
     1
102
RTVSPost2010Prop43
 90
        3
102
RTVSPost2010PropOp43
 70
     1
102
RTVSPost2010Prop44ColorIndex
 90
        5
102
RTVSPost2010Prop44ColorRGB
 90
      255
102
RTVSPost2010PropOp44
 70
     1
102
RTVSPost2010Prop45
280
     0
102
RTVSPost2010PropOp45
 70
     1
102
RTVSPost2010Prop46
 90
       50
102
RTVSPost2010PropOp46
 70
     1
102
RTVSPost2010Prop47
 90
       50
102
RTVSPost2010PropOp47
 70
     1
102
RTVSPost2010Prop48
 90
       50
102
RTVSPost2010PropOp48
 70
     1
102
RTVSPost2010Prop49
280
     0
102
RTVSPost2010PropOp49
 70
     1
102
RTVSPost2010Prop50
 90
       50
102
RTVSPost2010PropOp50
 70
     1
102
RTVSPost2010Prop51ColorIndex
 90
      256
102
RTVSPost2010Prop51ColorRGB
 90
-16777216
102
RTVSPost2010PropOp51
 70
     0
102
RTVSPost2010Prop52
140
1.0
102
RTVSPost2010PropOp52
 70
     0
102
RTVSPost2010Prop53
 90
        2
102
RTVSPost2010PropOp53
 70
     1
102
RTVSPost2010Prop54
  1
strokes_ogs.tif
102
RTVSPost2010PropOp54
 70
     1
102
RTVSPost2010Prop55
280
     0
102
RTVSPost2010PropOp55
 70
     1
102
RTVSPost2010Prop56
140
1.0
102
RTVSPost2010PropOp56
 70
     1
102
RTVSPost2010Prop57
140
1.0
102
RTVSPost2010PropOp57
 70
     1
102
RTVSPropertyOp0
 70
     1
102
RTVSPropertyOp1
 70
     1
102
RTVSPropertyOp2
 70
     1
102
RTVSPropertyOp3
 70
     1
102
RTVSPropertyOp4
 70
     1
102
RTVSPropertyOp5
 70
     1
102
RTVSPropertyOp6
 70
     1
102
RTVSPropertyOp7
 70
     1
102
RTVSPropertyOp8
 70
     1
102
RTVSPropertyOp9
 70
     1
102
RTVSPropertyOp10
 70
     1
102
RTVSPropertyOp11
 70
     1
102
RTVSPropertyOp12
 70
     1
102
RTVSPropertyOp13
 70
     1
102
RTVSPropertyOp14
 70
     1
102
RTVSPropertyOp15
 70
     1
102
RTVSPropertyOp16
 70
     1
102
RTVSPropertyOp17
 70
     1
102
RTVSPropertyOp18
 70
     1
102
RTVSPropertyOp19
 70
     1
102
RTVSPropertyOp20
 70
     1
102
RTVSPropertyOp21
 70
     1
102
RTVSPropertyOp22
 70
     1
102
RTVSPropertyOp23
 70
     1
102
RTVSPropertyOp24
 70
     1
102
RTVSPropertyOp25
 70
     1
102
RTVSPropertyOp26
 70
     1
102
RTVSPropertyOp27
 70
     1
102
RTVSPropertyOp28
 70
     1
102
RTVSPropertyOp29
 70
     1
102
RTVSPropertyOp30
 70
     1
102
RTVSPropertyOp31
 70
     1
102
RTVSPropertyOp32
 70
     1
102
RTVSPropertyOp33
 70
     1
102
RTVSPropertyOp34
 70
     1
102
RTVSPropertyOp35
 70
     1
102
RTVSPropertyOp36
 70
     1
102
RTVSPropertyOp37
 70
     1
102
RTVSPropertyOp38
 70
     1
102
RTVSPropertyOp39
 70
     1
102
RTVSPropertyOp40
 70
     1
102
RTVSPropertyOp41
 70
     1
102
RTVSPropertyOp42
 70
     1
102
RTVSPropertyOp43
 70
     1
102
RTVSPropertyOp44
 70
     1
102
RTVSPropertyOp45
 70
     1
102
RTVSPropertyOp46
 70
     1
102
RTVSPropertyOp47
 70
     1
102
RTVSPropertyOp48
 70
     1
102
RTVSPropertyOp49
 70
     1
102
RTVSPropertyOp50
 70
     1
102
RTVSPropertyOp51
 70
     0
102
RTVSPropertyOp52
 70
     0
102
RTVSPropertyOp53
 70
     1
102
RTVSPropertyOp54
 70
     1
102
RTVSPropertyOp55
 70
     1
102
RTVSPropertyOp56
 70
     1
102
RTVSPropertyOp57
 70
     1
102
RTVSPropertyOp58
 70
     1
102
RTVSPropertyOp59
 70
     1
102
RTVSPropertyOp60
 70
     1
102
RTVSPropertyOp61
 70
     1
102
RTVSPropertyOp62
 70
     1
  0
XRECORD
  5
26DC
102
{ACAD_REACTORS
330
26DB
102
}
330
26DB
100
AcDbXrecord
280
     1
102
RTVSPost2010Prop28
280
     0
102
RTVSPost2010PropOp28
 70
     1
102
RTVSPost2010Prop29
280
     1
102
RTVSPost2010PropOp29
 70
     1
102
RTVSPost2010Prop30
280
     1
102
RTVSPost2010PropOp30
 70
     1
102
RTVSPost2010Prop31
280
     0
102
RTVSPost2010PropOp31
 70
     1
102
RTVSPost2010Prop32
280
     0
102
RTVSPost2010PropOp32
 70
     1
102
RTVSPost2010Prop33
280
     0
102
RTVSPost2010PropOp33
 70
     1
102
RTVSPost2010Prop34
280
     0
102
RTVSPost2010PropOp34
 70
     1
102
RTVSPost2010Prop35
280
     0
102
RTVSPost2010PropOp35
 70
     1
102
RTVSPost2010Prop36
280
     0
102
RTVSPost2010PropOp36
 70
     1
102
RTVSPost2010Prop37
 90
       50
102
RTVSPost2010PropOp37
 70
     1
102
RTVSPost2010Prop38
140
0.0
102
RTVSPost2010PropOp38
 70
     1
102
RTVSPost2010Prop39
140
1.0
102
RTVSPost2010PropOp39
 70
     1
102
RTVSPost2010Prop40
 90
        0
102
RTVSPost2010PropOp40
 70
     1
102
RTVSPost2010Prop41ColorIndex
 90
       18
102
RTVSPost2010Prop41ColorRGB
 90
        0
102
RTVSPost2010PropOp41
 70
     1
102
RTVSPost2010Prop42
 90
       50
102
RTVSPost2010PropOp42
 70
     1
102
RTVSPost2010Prop43
 90
        3
102
RTVSPost2010PropOp43
 70
     1
102
RTVSPost2010Prop44ColorIndex
 90
        5
102
RTVSPost2010Prop44ColorRGB
 90
      255
102
RTVSPost2010PropOp44
 70
     1
102
RTVSPost2010Prop45
280
     0
102
RTVSPost2010PropOp45
 70
     1
102
RTVSPost2010Prop46
 90
       50
102
RTVSPost2010PropOp46
 70
     1
102
RTVSPost2010Prop47
 90
       50
102
RTVSPost2010PropOp47
 70
     1
102
RTVSPost2010Prop48
 90
       50
102
RTVSPost2010PropOp48
 70
     1
102
RTVSPost2010Prop49
280
     0
102
RTVSPost2010PropOp49
 70
     1
102
RTVSPost2010Prop50
 90
       50
102
RTVSPost2010PropOp50
 70
     1
102
RTVSPost2010Prop51ColorIndex
 90
      256
102
RTVSPost2010Prop51ColorRGB
 90
-16777216
102
RTVSPost2010PropOp51
 70
     0
102
RTVSPost2010Prop52
140
1.0
102
RTVSPost2010PropOp52
 70
     0
102
RTVSPost2010Prop53
 90
        2
102
RTVSPost2010PropOp53
 70
     1
102
RTVSPost2010Prop54
  1
strokes_ogs.tif
102
RTVSPost2010PropOp54
 70
     1
102
RTVSPost2010Prop55
280
     0
102
RTVSPost2010PropOp55
 70
     1
102
RTVSPost2010Prop56
140
1.0
102
RTVSPost2010PropOp56
 70
     1
102
RTVSPost2010Prop57
140
1.0
102
RTVSPost2010PropOp57
 70
     1
102
RTVSPropertyOp0
 70
     1
102
RTVSPropertyOp1
 70
     1
102
RTVSPropertyOp2
 70
     1
102
RTVSPropertyOp3
 70
     1
102
RTVSPropertyOp4
 70
     1
102
RTVSPropertyOp5
 70
     1
102
RTVSPropertyOp6
 70
     1
102
RTVSPropertyOp7
 70
     1
102
RTVSPropertyOp8
 70
     1
102
RTVSPropertyOp9
 70
     1
102
RTVSPropertyOp10
 70
     1
102
RTVSPropertyOp11
 70
     1
102
RTVSPropertyOp12
 70
     1
102
RTVSPropertyOp13
 70
     1
102
RTVSPropertyOp14
 70
     1
102
RTVSPropertyOp15
 70
     1
102
RTVSPropertyOp16
 70
     1
102
RTVSPropertyOp17
 70
     1
102
RTVSPropertyOp18
 70
     1
102
RTVSPropertyOp19
 70
     1
102
RTVSPropertyOp20
 70
     1
102
RTVSPropertyOp21
 70
     1
102
RTVSPropertyOp22
 70
     1
102
RTVSPropertyOp23
 70
     1
102
RTVSPropertyOp24
 70
     1
102
RTVSPropertyOp25
 70
     1
102
RTVSPropertyOp26
 70
     1
102
RTVSPropertyOp27
 70
     1
102
RTVSPropertyOp28
 70
     1
102
RTVSPropertyOp29
 70
     1
102
RTVSPropertyOp30
 70
     1
102
RTVSPropertyOp31
 70
     1
102
RTVSPropertyOp32
 70
     1
102
RTVSPropertyOp33
 70
     1
102
RTVSPropertyOp34
 70
     1
102
RTVSPropertyOp35
 70
     1
102
RTVSPropertyOp36
 70
     1
102
RTVSPropertyOp37
 70
     1
102
RTVSPropertyOp38
 70
     1
102
RTVSPropertyOp39
 70
     1
102
RTVSPropertyOp40
 70
     1
102
RTVSPropertyOp41
 70
     1
102
RTVSPropertyOp42
 70
     1
102
RTVSPropertyOp43
 70
     1
102
RTVSPropertyOp44
 70
     1
102
RTVSPropertyOp45
 70
     1
102
RTVSPropertyOp46
 70
     1
102
RTVSPropertyOp47
 70
     1
102
RTVSPropertyOp48
 70
     1
102
RTVSPropertyOp49
 70
     1
102
RTVSPropertyOp50
 70
     1
102
RTVSPropertyOp51
 70
     0
102
RTVSPropertyOp52
 70
     0
102
RTVSPropertyOp53
 70
     1
102
RTVSPropertyOp54
 70
     1
102
RTVSPropertyOp55
 70
     1
102
RTVSPropertyOp56
 70
     1
102
RTVSPropertyOp57
 70
     1
102
RTVSPropertyOp58
 70
     1
102
RTVSPropertyOp59
 70
     1
102
RTVSPropertyOp60
 70
     1
102
RTVSPropertyOp61
 70
     1
102
RTVSPropertyOp62
 70
     1
  0
XRECORD
  5
26CE
102
{ACAD_REACTORS
330
26CD
102
}
330
26CD
100
AcDbXrecord
280
     1
102
RTVSPost2010Prop28
280
     0
102
RTVSPost2010PropOp28
 70
     1
102
RTVSPost2010Prop29
280
     1
102
RTVSPost2010PropOp29
 70
     1
102
RTVSPost2010Prop30
280
     1
102
RTVSPost2010PropOp30
 70
     1
102
RTVSPost2010Prop31
280
     0
102
RTVSPost2010PropOp31
 70
     1
102
RTVSPost2010Prop32
280
     0
102
RTVSPost2010PropOp32
 70
     1
102
RTVSPost2010Prop33
280
     0
102
RTVSPost2010PropOp33
 70
     1
102
RTVSPost2010Prop34
280
     0
102
RTVSPost2010PropOp34
 70
     1
102
RTVSPost2010Prop35
280
     0
102
RTVSPost2010PropOp35
 70
     1
102
RTVSPost2010Prop36
280
     0
102
RTVSPost2010PropOp36
 70
     1
102
RTVSPost2010Prop37
 90
       50
102
RTVSPost2010PropOp37
 70
     1
102
RTVSPost2010Prop38
140
0.0
102
RTVSPost2010PropOp38
 70
     1
102
RTVSPost2010Prop39
140
1.0
102
RTVSPost2010PropOp39
 70
     1
102
RTVSPost2010Prop40
 90
        0
102
RTVSPost2010PropOp40
 70
     1
102
RTVSPost2010Prop41ColorIndex
 90
       18
102
RTVSPost2010Prop41ColorRGB
 90
        0
102
RTVSPost2010PropOp41
 70
     1
102
RTVSPost2010Prop42
 90
       50
102
RTVSPost2010PropOp42
 70
     1
102
RTVSPost2010Prop43
 90
        3
102
RTVSPost2010PropOp43
 70
     1
102
RTVSPost2010Prop44ColorIndex
 90
        5
102
RTVSPost2010Prop44ColorRGB
 90
      255
102
RTVSPost2010PropOp44
 70
     1
102
RTVSPost2010Prop45
280
     0
102
RTVSPost2010PropOp45
 70
     1
102
RTVSPost2010Prop46
 90
       50
102
RTVSPost2010PropOp46
 70
     1
102
RTVSPost2010Prop47
 90
       50
102
RTVSPost2010PropOp47
 70
     1
102
RTVSPost2010Prop48
 90
       50
102
RTVSPost2010PropOp48
 70
     1
102
RTVSPost2010Prop49
280
     0
102
RTVSPost2010PropOp49
 70
     1
102
RTVSPost2010Prop50
 90
       50
102
RTVSPost2010PropOp50
 70
     1
102
RTVSPost2010Prop51ColorIndex
 90
      256
102
RTVSPost2010Prop51ColorRGB
 90
-16777216
102
RTVSPost2010PropOp51
 70
     0
102
RTVSPost2010Prop52
140
1.0
102
RTVSPost2010PropOp52
 70
     0
102
RTVSPost2010Prop53
 90
        2
102
RTVSPost2010PropOp53
 70
     1
102
RTVSPost2010Prop54
  1
strokes_ogs.tif
102
RTVSPost2010PropOp54
 70
     1
102
RTVSPost2010Prop55
280
     0
102
RTVSPost2010PropOp55
 70
     1
102
RTVSPost2010Prop56
140
1.0
102
RTVSPost2010PropOp56
 70
     1
102
RTVSPost2010Prop57
140
1.0
102
RTVSPost2010PropOp57
 70
     1
102
RTVSPropertyOp0
 70
     1
102
RTVSPropertyOp1
 70
     1
102
RTVSPropertyOp2
 70
     1
102
RTVSPropertyOp3
 70
     1
102
RTVSPropertyOp4
 70
     1
102
RTVSPropertyOp5
 70
     1
102
RTVSPropertyOp6
 70
     1
102
RTVSPropertyOp7
 70
     1
102
RTVSPropertyOp8
 70
     1
102
RTVSPropertyOp9
 70
     1
102
RTVSPropertyOp10
 70
     1
102
RTVSPropertyOp11
 70
     1
102
RTVSPropertyOp12
 70
     1
102
RTVSPropertyOp13
 70
     1
102
RTVSPropertyOp14
 70
     1
102
RTVSPropertyOp15
 70
     1
102
RTVSPropertyOp16
 70
     1
102
RTVSPropertyOp17
 70
     1
102
RTVSPropertyOp18
 70
     1
102
RTVSPropertyOp19
 70
     1
102
RTVSPropertyOp20
 70
     1
102
RTVSPropertyOp21
 70
     1
102
RTVSPropertyOp22
 70
     1
102
RTVSPropertyOp23
 70
     1
102
RTVSPropertyOp24
 70
     1
102
RTVSPropertyOp25
 70
     1
102
RTVSPropertyOp26
 70
     1
102
RTVSPropertyOp27
 70
     1
102
RTVSPropertyOp28
 70
     1
102
RTVSPropertyOp29
 70
     1
102
RTVSPropertyOp30
 70
     1
102
RTVSPropertyOp31
 70
     1
102
RTVSPropertyOp32
 70
     1
102
RTVSPropertyOp33
 70
     1
102
RTVSPropertyOp34
 70
     1
102
RTVSPropertyOp35
 70
     1
102
RTVSPropertyOp36
 70
     1
102
RTVSPropertyOp37
 70
     1
102
RTVSPropertyOp38
 70
     1
102
RTVSPropertyOp39
 70
     1
102
RTVSPropertyOp40
 70
     1
102
RTVSPropertyOp41
 70
     1
102
RTVSPropertyOp42
 70
     1
102
RTVSPropertyOp43
 70
     1
102
RTVSPropertyOp44
 70
     1
102
RTVSPropertyOp45
 70
     1
102
RTVSPropertyOp46
 70
     1
102
RTVSPropertyOp47
 70
     1
102
RTVSPropertyOp48
 70
     1
102
RTVSPropertyOp49
 70
     1
102
RTVSPropertyOp50
 70
     1
102
RTVSPropertyOp51
 70
     0
102
RTVSPropertyOp52
 70
     0
102
RTVSPropertyOp53
 70
     1
102
RTVSPropertyOp54
 70
     1
102
RTVSPropertyOp55
 70
     1
102
RTVSPropertyOp56
 70
     1
102
RTVSPropertyOp57
 70
     1
102
RTVSPropertyOp58
 70
     1
102
RTVSPropertyOp59
 70
     1
102
RTVSPropertyOp60
 70
     1
102
RTVSPropertyOp61
 70
     1
102
RTVSPropertyOp62
 70
     1
  0
XRECORD
  5
26D2
102
{ACAD_REACTORS
330
26D1
102
}
330
26D1
100
AcDbXrecord
280
     1
102
RTVSPost2010Prop28
280
     0
102
RTVSPost2010PropOp28
 70
     1
102
RTVSPost2010Prop29
280
     1
102
RTVSPost2010PropOp29
 70
     1
102
RTVSPost2010Prop30
280
     1
102
RTVSPost2010PropOp30
 70
     1
102
RTVSPost2010Prop31
280
     0
102
RTVSPost2010PropOp31
 70
     1
102
RTVSPost2010Prop32
280
     0
102
RTVSPost2010PropOp32
 70
     1
102
RTVSPost2010Prop33
280
     0
102
RTVSPost2010PropOp33
 70
     1
102
RTVSPost2010Prop34
280
     0
102
RTVSPost2010PropOp34
 70
     1
102
RTVSPost2010Prop35
280
     0
102
RTVSPost2010PropOp35
 70
     1
102
RTVSPost2010Prop36
280
     0
102
RTVSPost2010PropOp36
 70
     1
102
RTVSPost2010Prop37
 90
       50
102
RTVSPost2010PropOp37
 70
     1
102
RTVSPost2010Prop38
140
0.0
102
RTVSPost2010PropOp38
 70
     1
102
RTVSPost2010Prop39
140
1.0
102
RTVSPost2010PropOp39
 70
     1
102
RTVSPost2010Prop40
 90
        0
102
RTVSPost2010PropOp40
 70
     1
102
RTVSPost2010Prop41ColorIndex
 90
       18
102
RTVSPost2010Prop41ColorRGB
 90
        0
102
RTVSPost2010PropOp41
 70
     1
102
RTVSPost2010Prop42
 90
       50
102
RTVSPost2010PropOp42
 70
     1
102
RTVSPost2010Prop43
 90
        3
102
RTVSPost2010PropOp43
 70
     1
102
RTVSPost2010Prop44ColorIndex
 90
        5
102
RTVSPost2010Prop44ColorRGB
 90
      255
102
RTVSPost2010PropOp44
 70
     1
102
RTVSPost2010Prop45
280
     0
102
RTVSPost2010PropOp45
 70
     1
102
RTVSPost2010Prop46
 90
       50
102
RTVSPost2010PropOp46
 70
     1
102
RTVSPost2010Prop47
 90
       50
102
RTVSPost2010PropOp47
 70
     1
102
RTVSPost2010Prop48
 90
       50
102
RTVSPost2010PropOp48
 70
     1
102
RTVSPost2010Prop49
280
     0
102
RTVSPost2010PropOp49
 70
     1
102
RTVSPost2010Prop50
 90
       50
102
RTVSPost2010PropOp50
 70
     1
102
RTVSPost2010Prop51ColorIndex
 90
      256
102
RTVSPost2010Prop51ColorRGB
 90
-16777216
102
RTVSPost2010PropOp51
 70
     0
102
RTVSPost2010Prop52
140
1.0
102
RTVSPost2010PropOp52
 70
     0
102
RTVSPost2010Prop53
 90
        2
102
RTVSPost2010PropOp53
 70
     1
102
RTVSPost2010Prop54
  1
strokes_ogs.tif
102
RTVSPost2010PropOp54
 70
     1
102
RTVSPost2010Prop55
280
     0
102
RTVSPost2010PropOp55
 70
     1
102
RTVSPost2010Prop56
140
1.0
102
RTVSPost2010PropOp56
 70
     1
102
RTVSPost2010Prop57
140
1.0
102
RTVSPost2010PropOp57
 70
     1
102
RTVSPropertyOp0
 70
     1
102
RTVSPropertyOp1
 70
     1
102
RTVSPropertyOp2
 70
     1
102
RTVSPropertyOp3
 70
     1
102
RTVSPropertyOp4
 70
     1
102
RTVSPropertyOp5
 70
     1
102
RTVSPropertyOp6
 70
     1
102
RTVSPropertyOp7
 70
     1
102
RTVSPropertyOp8
 70
     1
102
RTVSPropertyOp9
 70
     1
102
RTVSPropertyOp10
 70
     1
102
RTVSPropertyOp11
 70
     1
102
RTVSPropertyOp12
 70
     1
102
RTVSPropertyOp13
 70
     1
102
RTVSPropertyOp14
 70
     1
102
RTVSPropertyOp15
 70
     1
102
RTVSPropertyOp16
 70
     1
102
RTVSPropertyOp17
 70
     1
102
RTVSPropertyOp18
 70
     1
102
RTVSPropertyOp19
 70
     1
102
RTVSPropertyOp20
 70
     1
102
RTVSPropertyOp21
 70
     1
102
RTVSPropertyOp22
 70
     1
102
RTVSPropertyOp23
 70
     1
102
RTVSPropertyOp24
 70
     1
102
RTVSPropertyOp25
 70
     1
102
RTVSPropertyOp26
 70
     1
102
RTVSPropertyOp27
 70
     1
102
RTVSPropertyOp28
 70
     1
102
RTVSPropertyOp29
 70
     1
102
RTVSPropertyOp30
 70
     1
102
RTVSPropertyOp31
 70
     1
102
RTVSPropertyOp32
 70
     1
102
RTVSPropertyOp33
 70
     1
102
RTVSPropertyOp34
 70
     1
102
RTVSPropertyOp35
 70
     1
102
RTVSPropertyOp36
 70
     1
102
RTVSPropertyOp37
 70
     1
102
RTVSPropertyOp38
 70
     1
102
RTVSPropertyOp39
 70
     1
102
RTVSPropertyOp40
 70
     1
102
RTVSPropertyOp41
 70
     1
102
RTVSPropertyOp42
 70
     1
102
RTVSPropertyOp43
 70
     1
102
RTVSPropertyOp44
 70
     1
102
RTVSPropertyOp45
 70
     1
102
RTVSPropertyOp46
 70
     1
102
RTVSPropertyOp47
 70
     1
102
RTVSPropertyOp48
 70
     1
102
RTVSPropertyOp49
 70
     1
102
RTVSPropertyOp50
 70
     1
102
RTVSPropertyOp51
 70
     0
102
RTVSPropertyOp52
 70
     0
102
RTVSPropertyOp53
 70
     1
102
RTVSPropertyOp54
 70
     1
102
RTVSPropertyOp55
 70
     1
102
RTVSPropertyOp56
 70
     1
102
RTVSPropertyOp57
 70
     1
102
RTVSPropertyOp58
 70
     1
102
RTVSPropertyOp59
 70
     1
102
RTVSPropertyOp60
 70
     1
102
RTVSPropertyOp61
 70
     1
102
RTVSPropertyOp62
 70
     1
  0
XRECORD
  5
26EC
102
{ACAD_REACTORS
330
26EB
102
}
330
26EB
100
AcDbXrecord
280
     1
102
RTVSPost2010Prop28
280
     0
102
RTVSPost2010PropOp28
 70
     1
102
RTVSPost2010Prop29
280
     1
102
RTVSPost2010PropOp29
 70
     1
102
RTVSPost2010Prop30
280
     1
102
RTVSPost2010PropOp30
 70
     1
102
RTVSPost2010Prop31
280
     0
102
RTVSPost2010PropOp31
 70
     1
102
RTVSPost2010Prop32
280
     0
102
RTVSPost2010PropOp32
 70
     1
102
RTVSPost2010Prop33
280
     0
102
RTVSPost2010PropOp33
 70
     1
102
RTVSPost2010Prop34
280
     0
102
RTVSPost2010PropOp34
 70
     1
102
RTVSPost2010Prop35
280
     0
102
RTVSPost2010PropOp35
 70
     1
102
RTVSPost2010Prop36
280
     0
102
RTVSPost2010PropOp36
 70
     1
102
RTVSPost2010Prop37
 90
       50
102
RTVSPost2010PropOp37
 70
     0
102
RTVSPost2010Prop38
140
0.0
102
RTVSPost2010PropOp38
 70
     0
102
RTVSPost2010Prop39
140
1.0
102
RTVSPost2010PropOp39
 70
     0
102
RTVSPost2010Prop40
 90
        0
102
RTVSPost2010PropOp40
 70
     0
102
RTVSPost2010Prop41ColorIndex
 90
       18
102
RTVSPost2010Prop41ColorRGB
 90
        0
102
RTVSPost2010PropOp41
 70
     0
102
RTVSPost2010Prop42
 90
       50
102
RTVSPost2010PropOp42
 70
     0
102
RTVSPost2010Prop43
 90
        3
102
RTVSPost2010PropOp43
 70
     0
102
RTVSPost2010Prop44ColorIndex
 90
        5
102
RTVSPost2010Prop44ColorRGB
 90
      255
102
RTVSPost2010PropOp44
 70
     0
102
RTVSPost2010Prop45
280
     0
102
RTVSPost2010PropOp45
 70
     1
102
RTVSPost2010Prop46
 90
       50
102
RTVSPost2010PropOp46
 70
     0
102
RTVSPost2010Prop47
 90
       50
102
RTVSPost2010PropOp47
 70
     0
102
RTVSPost2010Prop48
 90
       50
102
RTVSPost2010PropOp48
 70
     0
102
RTVSPost2010Prop49
280
     0
102
RTVSPost2010PropOp49
 70
     1
102
RTVSPost2010Prop50
 90
       50
102
RTVSPost2010PropOp50
 70
     0
102
RTVSPost2010Prop51ColorIndex
 90
      256
102
RTVSPost2010Prop51ColorRGB
 90
-16777216
102
RTVSPost2010PropOp51
 70
     0
102
RTVSPost2010Prop52
140
1.0
102
RTVSPost2010PropOp52
 70
     0
102
RTVSPost2010Prop53
 90
        2
102
RTVSPost2010PropOp53
 70
     0
102
RTVSPost2010Prop54
  1
strokes_ogs.tif
102
RTVSPost2010PropOp54
 70
     0
102
RTVSPost2010Prop55
280
     0
102
RTVSPost2010PropOp55
 70
     1
102
RTVSPost2010Prop56
140
1.0
102
RTVSPost2010PropOp56
 70
     0
102
RTVSPost2010Prop57
140
1.0
102
RTVSPost2010PropOp57
 70
     0
102
RTVSPropertyOp0
 70
     0
102
RTVSPropertyOp1
 70
     0
102
RTVSPropertyOp2
 70
     0
102
RTVSPropertyOp3
 70
     0
102
RTVSPropertyOp4
 70
     0
102
RTVSPropertyOp5
 70
     0
102
RTVSPropertyOp6
 70
     0
102
RTVSPropertyOp7
 70
     0
102
RTVSPropertyOp8
 70
     0
102
RTVSPropertyOp9
 70
     0
102
RTVSPropertyOp10
 70
     0
102
RTVSPropertyOp11
 70
     0
102
RTVSPropertyOp12
 70
     0
102
RTVSPropertyOp13
 70
     0
102
RTVSPropertyOp14
 70
     2
102
RTVSPropertyOp15
 70
     0
102
RTVSPropertyOp16
 70
     0
102
RTVSPropertyOp17
 70
     0
102
RTVSPropertyOp18
 70
     0
102
RTVSPropertyOp19
 70
     0
102
RTVSPropertyOp20
 70
     0
102
RTVSPropertyOp21
 70
     0
102
RTVSPropertyOp22
 70
     0
102
RTVSPropertyOp23
 70
     0
102
RTVSPropertyOp24
 70
     0
102
RTVSPropertyOp25
 70
     0
102
RTVSPropertyOp26
 70
     0
102
RTVSPropertyOp27
 70
     0
102
RTVSPropertyOp28
 70
     1
102
RTVSPropertyOp29
 70
     1
102
RTVSPropertyOp30
 70
     1
102
RTVSPropertyOp31
 70
     1
102
RTVSPropertyOp32
 70
     1
102
RTVSPropertyOp33
 70
     1
102
RTVSPropertyOp34
 70
     1
102
RTVSPropertyOp35
 70
     1
102
RTVSPropertyOp36
 70
     1
102
RTVSPropertyOp37
 70
     0
102
RTVSPropertyOp38
 70
     0
102
RTVSPropertyOp39
 70
     0
102
RTVSPropertyOp40
 70
     0
102
RTVSPropertyOp41
 70
     0
102
RTVSPropertyOp42
 70
     0
102
RTVSPropertyOp43
 70
     0
102
RTVSPropertyOp44
 70
     0
102
RTVSPropertyOp45
 70
     1
102
RTVSPropertyOp46
 70
     0
102
RTVSPropertyOp47
 70
     0
102
RTVSPropertyOp48
 70
     0
102
RTVSPropertyOp49
 70
     1
102
RTVSPropertyOp50
 70
     0
102
RTVSPropertyOp51
 70
     0
102
RTVSPropertyOp52
 70
     0
102
RTVSPropertyOp53
 70
     0
102
RTVSPropertyOp54
 70
     0
102
RTVSPropertyOp55
 70
     1
102
RTVSPropertyOp56
 70
     0
102
RTVSPropertyOp57
 70
     0
102
RTVSPropertyOp58
 70
     0
102
RTVSPropertyOp59
 70
     0
102
RTVSPropertyOp60
 70
     0
102
RTVSPropertyOp61
 70
     0
102
RTVSPropertyOp62
 70
     0
  0
XRECORD
  5
26DA
102
{ACAD_REACTORS
330
26D9
102
}
330
26D9
100
AcDbXrecord
280
     1
102
RTVSPost2010Prop28
280
     0
102
RTVSPost2010PropOp28
 70
     1
102
RTVSPost2010Prop29
280
     1
102
RTVSPost2010PropOp29
 70
     1
102
RTVSPost2010Prop30
280
     1
102
RTVSPost2010PropOp30
 70
     1
102
RTVSPost2010Prop31
280
     0
102
RTVSPost2010PropOp31
 70
     1
102
RTVSPost2010Prop32
280
     0
102
RTVSPost2010PropOp32
 70
     1
102
RTVSPost2010Prop33
280
     0
102
RTVSPost2010PropOp33
 70
     1
102
RTVSPost2010Prop34
280
     0
102
RTVSPost2010PropOp34
 70
     1
102
RTVSPost2010Prop35
280
     0
102
RTVSPost2010PropOp35
 70
     1
102
RTVSPost2010Prop36
280
     0
102
RTVSPost2010PropOp36
 70
     1
102
RTVSPost2010Prop37
 90
       50
102
RTVSPost2010PropOp37
 70
     1
102
RTVSPost2010Prop38
140
0.0
102
RTVSPost2010PropOp38
 70
     1
102
RTVSPost2010Prop39
140
1.0
102
RTVSPost2010PropOp39
 70
     1
102
RTVSPost2010Prop40
 90
        0
102
RTVSPost2010PropOp40
 70
     1
102
RTVSPost2010Prop41ColorIndex
 90
       18
102
RTVSPost2010Prop41ColorRGB
 90
        0
102
RTVSPost2010PropOp41
 70
     1
102
RTVSPost2010Prop42
 90
       50
102
RTVSPost2010PropOp42
 70
     1
102
RTVSPost2010Prop43
 90
        3
102
RTVSPost2010PropOp43
 70
     1
102
RTVSPost2010Prop44ColorIndex
 90
        5
102
RTVSPost2010Prop44ColorRGB
 90
      255
102
RTVSPost2010PropOp44
 70
     1
102
RTVSPost2010Prop45
280
     0
102
RTVSPost2010PropOp45
 70
     1
102
RTVSPost2010Prop46
 90
       50
102
RTVSPost2010PropOp46
 70
     1
102
RTVSPost2010Prop47
 90
       50
102
RTVSPost2010PropOp47
 70
     1
102
RTVSPost2010Prop48
 90
       50
102
RTVSPost2010PropOp48
 70
     1
102
RTVSPost2010Prop49
280
     0
102
RTVSPost2010PropOp49
 70
     1
102
RTVSPost2010Prop50
 90
       50
102
RTVSPost2010PropOp50
 70
     1
102
RTVSPost2010Prop51ColorIndex
 90
      256
102
RTVSPost2010Prop51ColorRGB
 90
-16777216
102
RTVSPost2010PropOp51
 70
     0
102
RTVSPost2010Prop52
140
1.0
102
RTVSPost2010PropOp52
 70
     0
102
RTVSPost2010Prop53
 90
        2
102
RTVSPost2010PropOp53
 70
     1
102
RTVSPost2010Prop54
  1
strokes_ogs.tif
102
RTVSPost2010PropOp54
 70
     1
102
RTVSPost2010Prop55
280
     0
102
RTVSPost2010PropOp55
 70
     1
102
RTVSPost2010Prop56
140
1.0
102
RTVSPost2010PropOp56
 70
     1
102
RTVSPost2010Prop57
140
1.0
102
RTVSPost2010PropOp57
 70
     1
102
RTVSPropertyOp0
 70
     1
102
RTVSPropertyOp1
 70
     1
102
RTVSPropertyOp2
 70
     1
102
RTVSPropertyOp3
 70
     1
102
RTVSPropertyOp4
 70
     1
102
RTVSPropertyOp5
 70
     1
102
RTVSPropertyOp6
 70
     1
102
RTVSPropertyOp7
 70
     1
102
RTVSPropertyOp8
 70
     1
102
RTVSPropertyOp9
 70
     1
102
RTVSPropertyOp10
 70
     1
102
RTVSPropertyOp11
 70
     1
102
RTVSPropertyOp12
 70
     1
102
RTVSPropertyOp13
 70
     1
102
RTVSPropertyOp14
 70
     1
102
RTVSPropertyOp15
 70
     1
102
RTVSPropertyOp16
 70
     1
102
RTVSPropertyOp17
 70
     1
102
RTVSPropertyOp18
 70
     1
102
RTVSPropertyOp19
 70
     1
102
RTVSPropertyOp20
 70
     1
102
RTVSPropertyOp21
 70
     1
102
RTVSPropertyOp22
 70
     1
102
RTVSPropertyOp23
 70
     1
102
RTVSPropertyOp24
 70
     1
102
RTVSPropertyOp25
 70
     1
102
RTVSPropertyOp26
 70
     1
102
RTVSPropertyOp27
 70
     1
102
RTVSPropertyOp28
 70
     1
102
RTVSPropertyOp29
 70
     1
102
RTVSPropertyOp30
 70
     1
102
RTVSPropertyOp31
 70
     1
102
RTVSPropertyOp32
 70
     1
102
RTVSPropertyOp33
 70
     1
102
RTVSPropertyOp34
 70
     1
102
RTVSPropertyOp35
 70
     1
102
RTVSPropertyOp36
 70
     1
102
RTVSPropertyOp37
 70
     1
102
RTVSPropertyOp38
 70
     1
102
RTVSPropertyOp39
 70
     1
102
RTVSPropertyOp40
 70
     1
102
RTVSPropertyOp41
 70
     1
102
RTVSPropertyOp42
 70
     1
102
RTVSPropertyOp43
 70
     1
102
RTVSPropertyOp44
 70
     1
102
RTVSPropertyOp45
 70
     1
102
RTVSPropertyOp46
 70
     1
102
RTVSPropertyOp47
 70
     1
102
RTVSPropertyOp48
 70
     1
102
RTVSPropertyOp49
 70
     1
102
RTVSPropertyOp50
 70
     1
102
RTVSPropertyOp51
 70
     0
102
RTVSPropertyOp52
 70
     0
102
RTVSPropertyOp53
 70
     1
102
RTVSPropertyOp54
 70
     1
102
RTVSPropertyOp55
 70
     1
102
RTVSPropertyOp56
 70
     1
102
RTVSPropertyOp57
 70
     1
102
RTVSPropertyOp58
 70
     1
102
RTVSPropertyOp59
 70
     1
102
RTVSPropertyOp60
 70
     1
102
RTVSPropertyOp61
 70
     1
102
RTVSPropertyOp62
 70
     1
  0
XRECORD
  5
26BE
102
{ACAD_REACTORS
330
26BD
102
}
330
26BD
100
AcDbXrecord
280
     1
102
RTVSPost2010Prop28
280
     0
102
RTVSPost2010PropOp28
 70
     1
102
RTVSPost2010Prop29
280
     1
102
RTVSPost2010PropOp29
 70
     1
102
RTVSPost2010Prop30
280
     1
102
RTVSPost2010PropOp30
 70
     1
102
RTVSPost2010Prop31
280
     0
102
RTVSPost2010PropOp31
 70
     1
102
RTVSPost2010Prop32
280
     0
102
RTVSPost2010PropOp32
 70
     1
102
RTVSPost2010Prop33
280
     0
102
RTVSPost2010PropOp33
 70
     1
102
RTVSPost2010Prop34
280
     0
102
RTVSPost2010PropOp34
 70
     1
102
RTVSPost2010Prop35
280
     0
102
RTVSPost2010PropOp35
 70
     1
102
RTVSPost2010Prop36
280
     0
102
RTVSPost2010PropOp36
 70
     1
102
RTVSPost2010Prop37
 90
       50
102
RTVSPost2010PropOp37
 70
     1
102
RTVSPost2010Prop38
140
0.0
102
RTVSPost2010PropOp38
 70
     1
102
RTVSPost2010Prop39
140
1.0
102
RTVSPost2010PropOp39
 70
     1
102
RTVSPost2010Prop40
 90
        0
102
RTVSPost2010PropOp40
 70
     1
102
RTVSPost2010Prop41ColorIndex
 90
       18
102
RTVSPost2010Prop41ColorRGB
 90
        0
102
RTVSPost2010PropOp41
 70
     1
102
RTVSPost2010Prop42
 90
       50
102
RTVSPost2010PropOp42
 70
     1
102
RTVSPost2010Prop43
 90
        3
102
RTVSPost2010PropOp43
 70
     1
102
RTVSPost2010Prop44ColorIndex
 90
        5
102
RTVSPost2010Prop44ColorRGB
 90
      255
102
RTVSPost2010PropOp44
 70
     1
102
RTVSPost2010Prop45
280
     0
102
RTVSPost2010PropOp45
 70
     1
102
RTVSPost2010Prop46
 90
       50
102
RTVSPost2010PropOp46
 70
     1
102
RTVSPost2010Prop47
 90
       50
102
RTVSPost2010PropOp47
 70
     1
102
RTVSPost2010Prop48
 90
       50
102
RTVSPost2010PropOp48
 70
     1
102
RTVSPost2010Prop49
280
     0
102
RTVSPost2010PropOp49
 70
     1
102
RTVSPost2010Prop50
 90
       50
102
RTVSPost2010PropOp50
 70
     1
102
RTVSPost2010Prop51ColorIndex
 90
      256
102
RTVSPost2010Prop51ColorRGB
 90
-16777216
102
RTVSPost2010PropOp51
 70
     0
102
RTVSPost2010Prop52
140
1.0
102
RTVSPost2010PropOp52
 70
     0
102
RTVSPost2010Prop53
 90
        2
102
RTVSPost2010PropOp53
 70
     1
102
RTVSPost2010Prop54
  1
strokes_ogs.tif
102
RTVSPost2010PropOp54
 70
     1
102
RTVSPost2010Prop55
280
     0
102
RTVSPost2010PropOp55
 70
     1
102
RTVSPost2010Prop56
140
1.0
102
RTVSPost2010PropOp56
 70
     1
102
RTVSPost2010Prop57
140
1.0
102
RTVSPost2010PropOp57
 70
     1
102
RTVSPropertyOp0
 70
     1
102
RTVSPropertyOp1
 70
     1
102
RTVSPropertyOp2
 70
     1
102
RTVSPropertyOp3
 70
     1
102
RTVSPropertyOp4
 70
     1
102
RTVSPropertyOp5
 70
     1
102
RTVSPropertyOp6
 70
     1
102
RTVSPropertyOp7
 70
     1
102
RTVSPropertyOp8
 70
     1
102
RTVSPropertyOp9
 70
     1
102
RTVSPropertyOp10
 70
     1
102
RTVSPropertyOp11
 70
     1
102
RTVSPropertyOp12
 70
     1
102
RTVSPropertyOp13
 70
     1
102
RTVSPropertyOp14
 70
     1
102
RTVSPropertyOp15
 70
     1
102
RTVSPropertyOp16
 70
     1
102
RTVSPropertyOp17
 70
     1
102
RTVSPropertyOp18
 70
     1
102
RTVSPropertyOp19
 70
     1
102
RTVSPropertyOp20
 70
     1
102
RTVSPropertyOp21
 70
     1
102
RTVSPropertyOp22
 70
     1
102
RTVSPropertyOp23
 70
     1
102
RTVSPropertyOp24
 70
     1
102
RTVSPropertyOp25
 70
     1
102
RTVSPropertyOp26
 70
     1
102
RTVSPropertyOp27
 70
     1
102
RTVSPropertyOp28
 70
     1
102
RTVSPropertyOp29
 70
     1
102
RTVSPropertyOp30
 70
     1
102
RTVSPropertyOp31
 70
     1
102
RTVSPropertyOp32
 70
     1
102
RTVSPropertyOp33
 70
     1
102
RTVSPropertyOp34
 70
     1
102
RTVSPropertyOp35
 70
     1
102
RTVSPropertyOp36
 70
     1
102
RTVSPropertyOp37
 70
     1
102
RTVSPropertyOp38
 70
     1
102
RTVSPropertyOp39
 70
     1
102
RTVSPropertyOp40
 70
     1
102
RTVSPropertyOp41
 70
     1
102
RTVSPropertyOp42
 70
     1
102
RTVSPropertyOp43
 70
     1
102
RTVSPropertyOp44
 70
     1
102
RTVSPropertyOp45
 70
     1
102
RTVSPropertyOp46
 70
     1
102
RTVSPropertyOp47
 70
     1
102
RTVSPropertyOp48
 70
     1
102
RTVSPropertyOp49
 70
     1
102
RTVSPropertyOp50
 70
     1
102
RTVSPropertyOp51
 70
     0
102
RTVSPropertyOp52
 70
     0
102
RTVSPropertyOp53
 70
     1
102
RTVSPropertyOp54
 70
     1
102
RTVSPropertyOp55
 70
     1
102
RTVSPropertyOp56
 70
     1
102
RTVSPropertyOp57
 70
     1
102
RTVSPropertyOp58
 70
     1
102
RTVSPropertyOp59
 70
     1
102
RTVSPropertyOp60
 70
     1
102
RTVSPropertyOp61
 70
     1
102
RTVSPropertyOp62
 70
     1
  0
XRECORD
  5
26C0
102
{ACAD_REACTORS
330
26BF
102
}
330
26BF
100
AcDbXrecord
280
     1
102
RTVSPost2010Prop28
280
     0
102
RTVSPost2010PropOp28
 70
     1
102
RTVSPost2010Prop29
280
     1
102
RTVSPost2010PropOp29
 70
     1
102
RTVSPost2010Prop30
280
     1
102
RTVSPost2010PropOp30
 70
     1
102
RTVSPost2010Prop31
280
     0
102
RTVSPost2010PropOp31
 70
     1
102
RTVSPost2010Prop32
280
     0
102
RTVSPost2010PropOp32
 70
     1
102
RTVSPost2010Prop33
280
     0
102
RTVSPost2010PropOp33
 70
     1
102
RTVSPost2010Prop34
280
     0
102
RTVSPost2010PropOp34
 70
     1
102
RTVSPost2010Prop35
280
     0
102
RTVSPost2010PropOp35
 70
     1
102
RTVSPost2010Prop36
280
     0
102
RTVSPost2010PropOp36
 70
     1
102
RTVSPost2010Prop37
 90
       50
102
RTVSPost2010PropOp37
 70
     1
102
RTVSPost2010Prop38
140
0.0
102
RTVSPost2010PropOp38
 70
     1
102
RTVSPost2010Prop39
140
1.0
102
RTVSPost2010PropOp39
 70
     1
102
RTVSPost2010Prop40
 90
        0
102
RTVSPost2010PropOp40
 70
     1
102
RTVSPost2010Prop41ColorIndex
 90
       18
102
RTVSPost2010Prop41ColorRGB
 90
        0
102
RTVSPost2010PropOp41
 70
     1
102
RTVSPost2010Prop42
 90
       50
102
RTVSPost2010PropOp42
 70
     1
102
RTVSPost2010Prop43
 90
        3
102
RTVSPost2010PropOp43
 70
     1
102
RTVSPost2010Prop44ColorIndex
 90
        5
102
RTVSPost2010Prop44ColorRGB
 90
      255
102
RTVSPost2010PropOp44
 70
     1
102
RTVSPost2010Prop45
280
     0
102
RTVSPost2010PropOp45
 70
     1
102
RTVSPost2010Prop46
 90
       50
102
RTVSPost2010PropOp46
 70
     1
102
RTVSPost2010Prop47
 90
       50
102
RTVSPost2010PropOp47
 70
     1
102
RTVSPost2010Prop48
 90
       50
102
RTVSPost2010PropOp48
 70
     1
102
RTVSPost2010Prop49
280
     0
102
RTVSPost2010PropOp49
 70
     1
102
RTVSPost2010Prop50
 90
       50
102
RTVSPost2010PropOp50
 70
     1
102
RTVSPost2010Prop51ColorIndex
 90
      256
102
RTVSPost2010Prop51ColorRGB
 90
-16777216
102
RTVSPost2010PropOp51
 70
     0
102
RTVSPost2010Prop52
140
1.0
102
RTVSPost2010PropOp52
 70
     0
102
RTVSPost2010Prop53
 90
        2
102
RTVSPost2010PropOp53
 70
     1
102
RTVSPost2010Prop54
  1
strokes_ogs.tif
102
RTVSPost2010PropOp54
 70
     1
102
RTVSPost2010Prop55
280
     0
102
RTVSPost2010PropOp55
 70
     1
102
RTVSPost2010Prop56
140
1.0
102
RTVSPost2010PropOp56
 70
     1
102
RTVSPost2010Prop57
140
1.0
102
RTVSPost2010PropOp57
 70
     1
102
RTVSPropertyOp0
 70
     1
102
RTVSPropertyOp1
 70
     1
102
RTVSPropertyOp2
 70
     1
102
RTVSPropertyOp3
 70
     1
102
RTVSPropertyOp4
 70
     1
102
RTVSPropertyOp5
 70
     1
102
RTVSPropertyOp6
 70
     1
102
RTVSPropertyOp7
 70
     1
102
RTVSPropertyOp8
 70
     1
102
RTVSPropertyOp9
 70
     1
102
RTVSPropertyOp10
 70
     1
102
RTVSPropertyOp11
 70
     1
102
RTVSPropertyOp12
 70
     1
102
RTVSPropertyOp13
 70
     1
102
RTVSPropertyOp14
 70
     1
102
RTVSPropertyOp15
 70
     1
102
RTVSPropertyOp16
 70
     1
102
RTVSPropertyOp17
 70
     1
102
RTVSPropertyOp18
 70
     1
102
RTVSPropertyOp19
 70
     1
102
RTVSPropertyOp20
 70
     1
102
RTVSPropertyOp21
 70
     1
102
RTVSPropertyOp22
 70
     1
102
RTVSPropertyOp23
 70
     1
102
RTVSPropertyOp24
 70
     1
102
RTVSPropertyOp25
 70
     1
102
RTVSPropertyOp26
 70
     1
102
RTVSPropertyOp27
 70
     1
102
RTVSPropertyOp28
 70
     1
102
RTVSPropertyOp29
 70
     1
102
RTVSPropertyOp30
 70
     1
102
RTVSPropertyOp31
 70
     1
102
RTVSPropertyOp32
 70
     1
102
RTVSPropertyOp33
 70
     1
102
RTVSPropertyOp34
 70
     1
102
RTVSPropertyOp35
 70
     1
102
RTVSPropertyOp36
 70
     1
102
RTVSPropertyOp37
 70
     1
102
RTVSPropertyOp38
 70
     1
102
RTVSPropertyOp39
 70
     1
102
RTVSPropertyOp40
 70
     1
102
RTVSPropertyOp41
 70
     1
102
RTVSPropertyOp42
 70
     1
102
RTVSPropertyOp43
 70
     1
102
RTVSPropertyOp44
 70
     1
102
RTVSPropertyOp45
 70
     1
102
RTVSPropertyOp46
 70
     1
102
RTVSPropertyOp47
 70
     1
102
RTVSPropertyOp48
 70
     1
102
RTVSPropertyOp49
 70
     1
102
RTVSPropertyOp50
 70
     1
102
RTVSPropertyOp51
 70
     0
102
RTVSPropertyOp52
 70
     0
102
RTVSPropertyOp53
 70
     1
102
RTVSPropertyOp54
 70
     1
102
RTVSPropertyOp55
 70
     1
102
RTVSPropertyOp56
 70
     1
102
RTVSPropertyOp57
 70
     1
102
RTVSPropertyOp58
 70
     1
102
RTVSPropertyOp59
 70
     1
102
RTVSPropertyOp60
 70
     1
102
RTVSPropertyOp61
 70
     1
102
RTVSPropertyOp62
 70
     1
  0
XRECORD
  5
26C2
102
{ACAD_REACTORS
330
26C1
102
}
330
26C1
100
AcDbXrecord
280
     1
102
RTVSPost2010Prop28
280
     0
102
RTVSPost2010PropOp28
 70
     1
102
RTVSPost2010Prop29
280
     1
102
RTVSPost2010PropOp29
 70
     1
102
RTVSPost2010Prop30
280
     1
102
RTVSPost2010PropOp30
 70
     1
102
RTVSPost2010Prop31
280
     0
102
RTVSPost2010PropOp31
 70
     1
102
RTVSPost2010Prop32
280
     0
102
RTVSPost2010PropOp32
 70
     1
102
RTVSPost2010Prop33
280
     0
102
RTVSPost2010PropOp33
 70
     1
102
RTVSPost2010Prop34
280
     0
102
RTVSPost2010PropOp34
 70
     1
102
RTVSPost2010Prop35
280
     0
102
RTVSPost2010PropOp35
 70
     1
102
RTVSPost2010Prop36
280
     0
102
RTVSPost2010PropOp36
 70
     1
102
RTVSPost2010Prop37
 90
       50
102
RTVSPost2010PropOp37
 70
     1
102
RTVSPost2010Prop38
140
0.0
102
RTVSPost2010PropOp38
 70
     1
102
RTVSPost2010Prop39
140
1.0
102
RTVSPost2010PropOp39
 70
     1
102
RTVSPost2010Prop40
 90
        0
102
RTVSPost2010PropOp40
 70
     1
102
RTVSPost2010Prop41ColorIndex
 90
       18
102
RTVSPost2010Prop41ColorRGB
 90
        0
102
RTVSPost2010PropOp41
 70
     1
102
RTVSPost2010Prop42
 90
       50
102
RTVSPost2010PropOp42
 70
     1
102
RTVSPost2010Prop43
 90
        3
102
RTVSPost2010PropOp43
 70
     1
102
RTVSPost2010Prop44ColorIndex
 90
        5
102
RTVSPost2010Prop44ColorRGB
 90
      255
102
RTVSPost2010PropOp44
 70
     1
102
RTVSPost2010Prop45
280
     0
102
RTVSPost2010PropOp45
 70
     1
102
RTVSPost2010Prop46
 90
       50
102
RTVSPost2010PropOp46
 70
     1
102
RTVSPost2010Prop47
 90
       50
102
RTVSPost2010PropOp47
 70
     1
102
RTVSPost2010Prop48
 90
       50
102
RTVSPost2010PropOp48
 70
     1
102
RTVSPost2010Prop49
280
     0
102
RTVSPost2010PropOp49
 70
     1
102
RTVSPost2010Prop50
 90
       50
102
RTVSPost2010PropOp50
 70
     1
102
RTVSPost2010Prop51ColorIndex
 90
      256
102
RTVSPost2010Prop51ColorRGB
 90
-16777216
102
RTVSPost2010PropOp51
 70
     0
102
RTVSPost2010Prop52
140
1.0
102
RTVSPost2010PropOp52
 70
     0
102
RTVSPost2010Prop53
 90
        2
102
RTVSPost2010PropOp53
 70
     1
102
RTVSPost2010Prop54
  1
strokes_ogs.tif
102
RTVSPost2010PropOp54
 70
     1
102
RTVSPost2010Prop55
280
     0
102
RTVSPost2010PropOp55
 70
     1
102
RTVSPost2010Prop56
140
1.0
102
RTVSPost2010PropOp56
 70
     1
102
RTVSPost2010Prop57
140
1.0
102
RTVSPost2010PropOp57
 70
     1
102
RTVSPropertyOp0
 70
     1
102
RTVSPropertyOp1
 70
     1
102
RTVSPropertyOp2
 70
     1
102
RTVSPropertyOp3
 70
     1
102
RTVSPropertyOp4
 70
     1
102
RTVSPropertyOp5
 70
     1
102
RTVSPropertyOp6
 70
     1
102
RTVSPropertyOp7
 70
     1
102
RTVSPropertyOp8
 70
     1
102
RTVSPropertyOp9
 70
     1
102
RTVSPropertyOp10
 70
     1
102
RTVSPropertyOp11
 70
     1
102
RTVSPropertyOp12
 70
     1
102
RTVSPropertyOp13
 70
     1
102
RTVSPropertyOp14
 70
     1
102
RTVSPropertyOp15
 70
     1
102
RTVSPropertyOp16
 70
     1
102
RTVSPropertyOp17
 70
     1
102
RTVSPropertyOp18
 70
     1
102
RTVSPropertyOp19
 70
     1
102
RTVSPropertyOp20
 70
     1
102
RTVSPropertyOp21
 70
     1
102
RTVSPropertyOp22
 70
     1
102
RTVSPropertyOp23
 70
     1
102
RTVSPropertyOp24
 70
     1
102
RTVSPropertyOp25
 70
     1
102
RTVSPropertyOp26
 70
     1
102
RTVSPropertyOp27
 70
     1
102
RTVSPropertyOp28
 70
     1
102
RTVSPropertyOp29
 70
     1
102
RTVSPropertyOp30
 70
     1
102
RTVSPropertyOp31
 70
     1
102
RTVSPropertyOp32
 70
     1
102
RTVSPropertyOp33
 70
     1
102
RTVSPropertyOp34
 70
     1
102
RTVSPropertyOp35
 70
     1
102
RTVSPropertyOp36
 70
     1
102
RTVSPropertyOp37
 70
     1
102
RTVSPropertyOp38
 70
     1
102
RTVSPropertyOp39
 70
     1
102
RTVSPropertyOp40
 70
     1
102
RTVSPropertyOp41
 70
     1
102
RTVSPropertyOp42
 70
     1
102
RTVSPropertyOp43
 70
     1
102
RTVSPropertyOp44
 70
     1
102
RTVSPropertyOp45
 70
     1
102
RTVSPropertyOp46
 70
     1
102
RTVSPropertyOp47
 70
     1
102
RTVSPropertyOp48
 70
     1
102
RTVSPropertyOp49
 70
     1
102
RTVSPropertyOp50
 70
     1
102
RTVSPropertyOp51
 70
     0
102
RTVSPropertyOp52
 70
     0
102
RTVSPropertyOp53
 70
     1
102
RTVSPropertyOp54
 70
     1
102
RTVSPropertyOp55
 70
     1
102
RTVSPropertyOp56
 70
     1
102
RTVSPropertyOp57
 70
     1
102
RTVSPropertyOp58
 70
     1
102
RTVSPropertyOp59
 70
     1
102
RTVSPropertyOp60
 70
     1
102
RTVSPropertyOp61
 70
     1
102
RTVSPropertyOp62
 70
     1
  0
XRECORD
  5
26C4
102
{ACAD_REACTORS
330
26C3
102
}
330
26C3
100
AcDbXrecord
280
     1
102
RTVSPost2010Prop28
280
     0
102
RTVSPost2010PropOp28
 70
     1
102
RTVSPost2010Prop29
280
     1
102
RTVSPost2010PropOp29
 70
     1
102
RTVSPost2010Prop30
280
     1
102
RTVSPost2010PropOp30
 70
     1
102
RTVSPost2010Prop31
280
     0
102
RTVSPost2010PropOp31
 70
     1
102
RTVSPost2010Prop32
280
     0
102
RTVSPost2010PropOp32
 70
     1
102
RTVSPost2010Prop33
280
     0
102
RTVSPost2010PropOp33
 70
     1
102
RTVSPost2010Prop34
280
     0
102
RTVSPost2010PropOp34
 70
     1
102
RTVSPost2010Prop35
280
     0
102
RTVSPost2010PropOp35
 70
     1
102
RTVSPost2010Prop36
280
     0
102
RTVSPost2010PropOp36
 70
     1
102
RTVSPost2010Prop37
 90
       50
102
RTVSPost2010PropOp37
 70
     1
102
RTVSPost2010Prop38
140
0.0
102
RTVSPost2010PropOp38
 70
     1
102
RTVSPost2010Prop39
140
1.0
102
RTVSPost2010PropOp39
 70
     1
102
RTVSPost2010Prop40
 90
        0
102
RTVSPost2010PropOp40
 70
     1
102
RTVSPost2010Prop41ColorIndex
 90
       18
102
RTVSPost2010Prop41ColorRGB
 90
        0
102
RTVSPost2010PropOp41
 70
     1
102
RTVSPost2010Prop42
 90
       50
102
RTVSPost2010PropOp42
 70
     1
102
RTVSPost2010Prop43
 90
        3
102
RTVSPost2010PropOp43
 70
     1
102
RTVSPost2010Prop44ColorIndex
 90
        5
102
RTVSPost2010Prop44ColorRGB
 90
      255
102
RTVSPost2010PropOp44
 70
     1
102
RTVSPost2010Prop45
280
     0
102
RTVSPost2010PropOp45
 70
     1
102
RTVSPost2010Prop46
 90
       50
102
RTVSPost2010PropOp46
 70
     1
102
RTVSPost2010Prop47
 90
       50
102
RTVSPost2010PropOp47
 70
     1
102
RTVSPost2010Prop48
 90
       50
102
RTVSPost2010PropOp48
 70
     1
102
RTVSPost2010Prop49
280
     0
102
RTVSPost2010PropOp49
 70
     1
102
RTVSPost2010Prop50
 90
       50
102
RTVSPost2010PropOp50
 70
     1
102
RTVSPost2010Prop51ColorIndex
 90
      256
102
RTVSPost2010Prop51ColorRGB
 90
-16777216
102
RTVSPost2010PropOp51
 70
     0
102
RTVSPost2010Prop52
140
1.0
102
RTVSPost2010PropOp52
 70
     0
102
RTVSPost2010Prop53
 90
        2
102
RTVSPost2010PropOp53
 70
     1
102
RTVSPost2010Prop54
  1
strokes_ogs.tif
102
RTVSPost2010PropOp54
 70
     1
102
RTVSPost2010Prop55
280
     0
102
RTVSPost2010PropOp55
 70
     1
102
RTVSPost2010Prop56
140
1.0
102
RTVSPost2010PropOp56
 70
     1
102
RTVSPost2010Prop57
140
1.0
102
RTVSPost2010PropOp57
 70
     1
102
RTVSPropertyOp0
 70
     1
102
RTVSPropertyOp1
 70
     1
102
RTVSPropertyOp2
 70
     1
102
RTVSPropertyOp3
 70
     1
102
RTVSPropertyOp4
 70
     1
102
RTVSPropertyOp5
 70
     1
102
RTVSPropertyOp6
 70
     1
102
RTVSPropertyOp7
 70
     1
102
RTVSPropertyOp8
 70
     1
102
RTVSPropertyOp9
 70
     1
102
RTVSPropertyOp10
 70
     1
102
RTVSPropertyOp11
 70
     1
102
RTVSPropertyOp12
 70
     1
102
RTVSPropertyOp13
 70
     1
102
RTVSPropertyOp14
 70
     1
102
RTVSPropertyOp15
 70
     1
102
RTVSPropertyOp16
 70
     1
102
RTVSPropertyOp17
 70
     1
102
RTVSPropertyOp18
 70
     1
102
RTVSPropertyOp19
 70
     1
102
RTVSPropertyOp20
 70
     1
102
RTVSPropertyOp21
 70
     1
102
RTVSPropertyOp22
 70
     1
102
RTVSPropertyOp23
 70
     1
102
RTVSPropertyOp24
 70
     1
102
RTVSPropertyOp25
 70
     1
102
RTVSPropertyOp26
 70
     1
102
RTVSPropertyOp27
 70
     1
102
RTVSPropertyOp28
 70
     1
102
RTVSPropertyOp29
 70
     1
102
RTVSPropertyOp30
 70
     1
102
RTVSPropertyOp31
 70
     1
102
RTVSPropertyOp32
 70
     1
102
RTVSPropertyOp33
 70
     1
102
RTVSPropertyOp34
 70
     1
102
RTVSPropertyOp35
 70
     1
102
RTVSPropertyOp36
 70
     1
102
RTVSPropertyOp37
 70
     1
102
RTVSPropertyOp38
 70
     1
102
RTVSPropertyOp39
 70
     1
102
RTVSPropertyOp40
 70
     1
102
RTVSPropertyOp41
 70
     1
102
RTVSPropertyOp42
 70
     1
102
RTVSPropertyOp43
 70
     1
102
RTVSPropertyOp44
 70
     1
102
RTVSPropertyOp45
 70
     1
102
RTVSPropertyOp46
 70
     1
102
RTVSPropertyOp47
 70
     1
102
RTVSPropertyOp48
 70
     1
102
RTVSPropertyOp49
 70
     1
102
RTVSPropertyOp50
 70
     1
102
RTVSPropertyOp51
 70
     0
102
RTVSPropertyOp52
 70
     0
102
RTVSPropertyOp53
 70
     1
102
RTVSPropertyOp54
 70
     1
102
RTVSPropertyOp55
 70
     1
102
RTVSPropertyOp56
 70
     1
102
RTVSPropertyOp57
 70
     1
102
RTVSPropertyOp58
 70
     1
102
RTVSPropertyOp59
 70
     1
102
RTVSPropertyOp60
 70
     1
102
RTVSPropertyOp61
 70
     1
102
RTVSPropertyOp62
 70
     1
  0
XRECORD
  5
26CC
102
{ACAD_REACTORS
330
26CB
102
}
330
26CB
100
AcDbXrecord
280
     1
102
RTVSPost2010Prop28
280
     0
102
RTVSPost2010PropOp28
 70
     1
102
RTVSPost2010Prop29
280
     1
102
RTVSPost2010PropOp29
 70
     1
102
RTVSPost2010Prop30
280
     1
102
RTVSPost2010PropOp30
 70
     1
102
RTVSPost2010Prop31
280
     0
102
RTVSPost2010PropOp31
 70
     1
102
RTVSPost2010Prop32
280
     0
102
RTVSPost2010PropOp32
 70
     1
102
RTVSPost2010Prop33
280
     0
102
RTVSPost2010PropOp33
 70
     1
102
RTVSPost2010Prop34
280
     0
102
RTVSPost2010PropOp34
 70
     1
102
RTVSPost2010Prop35
280
     0
102
RTVSPost2010PropOp35
 70
     1
102
RTVSPost2010Prop36
280
     0
102
RTVSPost2010PropOp36
 70
     1
102
RTVSPost2010Prop37
 90
       50
102
RTVSPost2010PropOp37
 70
     1
102
RTVSPost2010Prop38
140
0.0
102
RTVSPost2010PropOp38
 70
     1
102
RTVSPost2010Prop39
140
1.0
102
RTVSPost2010PropOp39
 70
     1
102
RTVSPost2010Prop40
 90
        0
102
RTVSPost2010PropOp40
 70
     1
102
RTVSPost2010Prop41ColorIndex
 90
       18
102
RTVSPost2010Prop41ColorRGB
 90
        0
102
RTVSPost2010PropOp41
 70
     1
102
RTVSPost2010Prop42
 90
       50
102
RTVSPost2010PropOp42
 70
     1
102
RTVSPost2010Prop43
 90
        3
102
RTVSPost2010PropOp43
 70
     1
102
RTVSPost2010Prop44ColorIndex
 90
        5
102
RTVSPost2010Prop44ColorRGB
 90
      255
102
RTVSPost2010PropOp44
 70
     1
102
RTVSPost2010Prop45
280
     0
102
RTVSPost2010PropOp45
 70
     1
102
RTVSPost2010Prop46
 90
       50
102
RTVSPost2010PropOp46
 70
     1
102
RTVSPost2010Prop47
 90
       50
102
RTVSPost2010PropOp47
 70
     1
102
RTVSPost2010Prop48
 90
       50
102
RTVSPost2010PropOp48
 70
     1
102
RTVSPost2010Prop49
280
     0
102
RTVSPost2010PropOp49
 70
     1
102
RTVSPost2010Prop50
 90
       50
102
RTVSPost2010PropOp50
 70
     1
102
RTVSPost2010Prop51ColorIndex
 90
      256
102
RTVSPost2010Prop51ColorRGB
 90
-16777216
102
RTVSPost2010PropOp51
 70
     0
102
RTVSPost2010Prop52
140
1.0
102
RTVSPost2010PropOp52
 70
     0
102
RTVSPost2010Prop53
 90
        2
102
RTVSPost2010PropOp53
 70
     1
102
RTVSPost2010Prop54
  1
strokes_ogs.tif
102
RTVSPost2010PropOp54
 70
     1
102
RTVSPost2010Prop55
280
     0
102
RTVSPost2010PropOp55
 70
     1
102
RTVSPost2010Prop56
140
1.0
102
RTVSPost2010PropOp56
 70
     1
102
RTVSPost2010Prop57
140
1.0
102
RTVSPost2010PropOp57
 70
     1
102
RTVSPropertyOp0
 70
     1
102
RTVSPropertyOp1
 70
     1
102
RTVSPropertyOp2
 70
     1
102
RTVSPropertyOp3
 70
     1
102
RTVSPropertyOp4
 70
     1
102
RTVSPropertyOp5
 70
     1
102
RTVSPropertyOp6
 70
     1
102
RTVSPropertyOp7
 70
     1
102
RTVSPropertyOp8
 70
     1
102
RTVSPropertyOp9
 70
     1
102
RTVSPropertyOp10
 70
     1
102
RTVSPropertyOp11
 70
     1
102
RTVSPropertyOp12
 70
     1
102
RTVSPropertyOp13
 70
     1
102
RTVSPropertyOp14
 70
     1
102
RTVSPropertyOp15
 70
     1
102
RTVSPropertyOp16
 70
     1
102
RTVSPropertyOp17
 70
     1
102
RTVSPropertyOp18
 70
     1
102
RTVSPropertyOp19
 70
     1
102
RTVSPropertyOp20
 70
     1
102
RTVSPropertyOp21
 70
     1
102
RTVSPropertyOp22
 70
     1
102
RTVSPropertyOp23
 70
     1
102
RTVSPropertyOp24
 70
     1
102
RTVSPropertyOp25
 70
     1
102
RTVSPropertyOp26
 70
     1
102
RTVSPropertyOp27
 70
     1
102
RTVSPropertyOp28
 70
     1
102
RTVSPropertyOp29
 70
     1
102
RTVSPropertyOp30
 70
     1
102
RTVSPropertyOp31
 70
     1
102
RTVSPropertyOp32
 70
     1
102
RTVSPropertyOp33
 70
     1
102
RTVSPropertyOp34
 70
     1
102
RTVSPropertyOp35
 70
     1
102
RTVSPropertyOp36
 70
     1
102
RTVSPropertyOp37
 70
     1
102
RTVSPropertyOp38
 70
     1
102
RTVSPropertyOp39
 70
     1
102
RTVSPropertyOp40
 70
     1
102
RTVSPropertyOp41
 70
     1
102
RTVSPropertyOp42
 70
     1
102
RTVSPropertyOp43
 70
     1
102
RTVSPropertyOp44
 70
     1
102
RTVSPropertyOp45
 70
     1
102
RTVSPropertyOp46
 70
     1
102
RTVSPropertyOp47
 70
     1
102
RTVSPropertyOp48
 70
     1
102
RTVSPropertyOp49
 70
     1
102
RTVSPropertyOp50
 70
     1
102
RTVSPropertyOp51
 70
     0
102
RTVSPropertyOp52
 70
     0
102
RTVSPropertyOp53
 70
     1
102
RTVSPropertyOp54
 70
     1
102
RTVSPropertyOp55
 70
     1
102
RTVSPropertyOp56
 70
     1
102
RTVSPropertyOp57
 70
     1
102
RTVSPropertyOp58
 70
     1
102
RTVSPropertyOp59
 70
     1
102
RTVSPropertyOp60
 70
     1
102
RTVSPropertyOp61
 70
     1
102
RTVSPropertyOp62
 70
     1
  0
XRECORD
  5
26E8
102
{ACAD_REACTORS
330
26E7
102
}
330
26E7
100
AcDbXrecord
280
     1
102
RTVSPost2010Prop28
280
     0
102
RTVSPost2010PropOp28
 70
     1
102
RTVSPost2010Prop29
280
     1
102
RTVSPost2010PropOp29
 70
     1
102
RTVSPost2010Prop30
280
     1
102
RTVSPost2010PropOp30
 70
     1
102
RTVSPost2010Prop31
280
     0
102
RTVSPost2010PropOp31
 70
     1
102
RTVSPost2010Prop32
280
     0
102
RTVSPost2010PropOp32
 70
     1
102
RTVSPost2010Prop33
280
     0
102
RTVSPost2010PropOp33
 70
     1
102
RTVSPost2010Prop34
280
     0
102
RTVSPost2010PropOp34
 70
     1
102
RTVSPost2010Prop35
280
     0
102
RTVSPost2010PropOp35
 70
     1
102
RTVSPost2010Prop36
280
     0
102
RTVSPost2010PropOp36
 70
     1
102
RTVSPost2010Prop37
 90
       50
102
RTVSPost2010PropOp37
 70
     0
102
RTVSPost2010Prop38
140
0.0
102
RTVSPost2010PropOp38
 70
     0
102
RTVSPost2010Prop39
140
1.0
102
RTVSPost2010PropOp39
 70
     0
102
RTVSPost2010Prop40
 90
        0
102
RTVSPost2010PropOp40
 70
     0
102
RTVSPost2010Prop41ColorIndex
 90
       18
102
RTVSPost2010Prop41ColorRGB
 90
        0
102
RTVSPost2010PropOp41
 70
     0
102
RTVSPost2010Prop42
 90
       50
102
RTVSPost2010PropOp42
 70
     0
102
RTVSPost2010Prop43
 90
        3
102
RTVSPost2010PropOp43
 70
     0
102
RTVSPost2010Prop44ColorIndex
 90
        5
102
RTVSPost2010Prop44ColorRGB
 90
      255
102
RTVSPost2010PropOp44
 70
     0
102
RTVSPost2010Prop45
280
     0
102
RTVSPost2010PropOp45
 70
     1
102
RTVSPost2010Prop46
 90
       50
102
RTVSPost2010PropOp46
 70
     0
102
RTVSPost2010Prop47
 90
       50
102
RTVSPost2010PropOp47
 70
     0
102
RTVSPost2010Prop48
 90
       50
102
RTVSPost2010PropOp48
 70
     0
102
RTVSPost2010Prop49
280
     0
102
RTVSPost2010PropOp49
 70
     1
102
RTVSPost2010Prop50
 90
       50
102
RTVSPost2010PropOp50
 70
     0
102
RTVSPost2010Prop51ColorIndex
 90
      256
102
RTVSPost2010Prop51ColorRGB
 90
-16777216
102
RTVSPost2010PropOp51
 70
     0
102
RTVSPost2010Prop52
140
1.0
102
RTVSPost2010PropOp52
 70
     0
102
RTVSPost2010Prop53
 90
        2
102
RTVSPost2010PropOp53
 70
     0
102
RTVSPost2010Prop54
  1
strokes_ogs.tif
102
RTVSPost2010PropOp54
 70
     0
102
RTVSPost2010Prop55
280
     0
102
RTVSPost2010PropOp55
 70
     1
102
RTVSPost2010Prop56
140
1.0
102
RTVSPost2010PropOp56
 70
     0
102
RTVSPost2010Prop57
140
1.0
102
RTVSPost2010PropOp57
 70
     0
102
RTVSPropertyOp0
 70
     0
102
RTVSPropertyOp1
 70
     0
102
RTVSPropertyOp2
 70
     0
102
RTVSPropertyOp3
 70
     0
102
RTVSPropertyOp4
 70
     0
102
RTVSPropertyOp5
 70
     0
102
RTVSPropertyOp6
 70
     0
102
RTVSPropertyOp7
 70
     0
102
RTVSPropertyOp8
 70
     0
102
RTVSPropertyOp9
 70
     0
102
RTVSPropertyOp10
 70
     0
102
RTVSPropertyOp11
 70
     0
102
RTVSPropertyOp12
 70
     0
102
RTVSPropertyOp13
 70
     0
102
RTVSPropertyOp14
 70
     2
102
RTVSPropertyOp15
 70
     0
102
RTVSPropertyOp16
 70
     0
102
RTVSPropertyOp17
 70
     0
102
RTVSPropertyOp18
 70
     0
102
RTVSPropertyOp19
 70
     0
102
RTVSPropertyOp20
 70
     0
102
RTVSPropertyOp21
 70
     0
102
RTVSPropertyOp22
 70
     0
102
RTVSPropertyOp23
 70
     0
102
RTVSPropertyOp24
 70
     0
102
RTVSPropertyOp25
 70
     0
102
RTVSPropertyOp26
 70
     0
102
RTVSPropertyOp27
 70
     0
102
RTVSPropertyOp28
 70
     1
102
RTVSPropertyOp29
 70
     1
102
RTVSPropertyOp30
 70
     1
102
RTVSPropertyOp31
 70
     1
102
RTVSPropertyOp32
 70
     1
102
RTVSPropertyOp33
 70
     1
102
RTVSPropertyOp34
 70
     1
102
RTVSPropertyOp35
 70
     1
102
RTVSPropertyOp36
 70
     1
102
RTVSPropertyOp37
 70
     0
102
RTVSPropertyOp38
 70
     0
102
RTVSPropertyOp39
 70
     0
102
RTVSPropertyOp40
 70
     0
102
RTVSPropertyOp41
 70
     0
102
RTVSPropertyOp42
 70
     0
102
RTVSPropertyOp43
 70
     0
102
RTVSPropertyOp44
 70
     0
102
RTVSPropertyOp45
 70
     1
102
RTVSPropertyOp46
 70
     0
102
RTVSPropertyOp47
 70
     0
102
RTVSPropertyOp48
 70
     0
102
RTVSPropertyOp49
 70
     1
102
RTVSPropertyOp50
 70
     0
102
RTVSPropertyOp51
 70
     0
102
RTVSPropertyOp52
 70
     0
102
RTVSPropertyOp53
 70
     0
102
RTVSPropertyOp54
 70
     0
102
RTVSPropertyOp55
 70
     1
102
RTVSPropertyOp56
 70
     0
102
RTVSPropertyOp57
 70
     0
102
RTVSPropertyOp58
 70
     0
102
RTVSPropertyOp59
 70
     0
102
RTVSPropertyOp60
 70
     0
102
RTVSPropertyOp61
 70
     0
102
RTVSPropertyOp62
 70
     0
  0
XRECORD
  5
26D8
102
{ACAD_REACTORS
330
26D7
102
}
330
26D7
100
AcDbXrecord
280
     1
102
RTVSPost2010Prop28
280
     0
102
RTVSPost2010PropOp28
 70
     1
102
RTVSPost2010Prop29
280
     1
102
RTVSPost2010PropOp29
 70
     1
102
RTVSPost2010Prop30
280
     1
102
RTVSPost2010PropOp30
 70
     1
102
RTVSPost2010Prop31
280
     0
102
RTVSPost2010PropOp31
 70
     1
102
RTVSPost2010Prop32
280
     0
102
RTVSPost2010PropOp32
 70
     1
102
RTVSPost2010Prop33
280
     0
102
RTVSPost2010PropOp33
 70
     1
102
RTVSPost2010Prop34
280
     0
102
RTVSPost2010PropOp34
 70
     1
102
RTVSPost2010Prop35
280
     0
102
RTVSPost2010PropOp35
 70
     1
102
RTVSPost2010Prop36
280
     0
102
RTVSPost2010PropOp36
 70
     1
102
RTVSPost2010Prop37
 90
       50
102
RTVSPost2010PropOp37
 70
     1
102
RTVSPost2010Prop38
140
0.0
102
RTVSPost2010PropOp38
 70
     1
102
RTVSPost2010Prop39
140
1.0
102
RTVSPost2010PropOp39
 70
     1
102
RTVSPost2010Prop40
 90
        0
102
RTVSPost2010PropOp40
 70
     1
102
RTVSPost2010Prop41ColorIndex
 90
       18
102
RTVSPost2010Prop41ColorRGB
 90
        0
102
RTVSPost2010PropOp41
 70
     1
102
RTVSPost2010Prop42
 90
       50
102
RTVSPost2010PropOp42
 70
     1
102
RTVSPost2010Prop43
 90
        3
102
RTVSPost2010PropOp43
 70
     1
102
RTVSPost2010Prop44ColorIndex
 90
        5
102
RTVSPost2010Prop44ColorRGB
 90
      255
102
RTVSPost2010PropOp44
 70
     1
102
RTVSPost2010Prop45
280
     0
102
RTVSPost2010PropOp45
 70
     1
102
RTVSPost2010Prop46
 90
       50
102
RTVSPost2010PropOp46
 70
     1
102
RTVSPost2010Prop47
 90
       50
102
RTVSPost2010PropOp47
 70
     1
102
RTVSPost2010Prop48
 90
       50
102
RTVSPost2010PropOp48
 70
     1
102
RTVSPost2010Prop49
280
     0
102
RTVSPost2010PropOp49
 70
     1
102
RTVSPost2010Prop50
 90
       50
102
RTVSPost2010PropOp50
 70
     1
102
RTVSPost2010Prop51ColorIndex
 90
      256
102
RTVSPost2010Prop51ColorRGB
 90
-16777216
102
RTVSPost2010PropOp51
 70
     0
102
RTVSPost2010Prop52
140
1.0
102
RTVSPost2010PropOp52
 70
     0
102
RTVSPost2010Prop53
 90
        2
102
RTVSPost2010PropOp53
 70
     1
102
RTVSPost2010Prop54
  1
strokes_ogs.tif
102
RTVSPost2010PropOp54
 70
     1
102
RTVSPost2010Prop55
280
     0
102
RTVSPost2010PropOp55
 70
     1
102
RTVSPost2010Prop56
140
1.0
102
RTVSPost2010PropOp56
 70
     1
102
RTVSPost2010Prop57
140
1.0
102
RTVSPost2010PropOp57
 70
     1
102
RTVSPropertyOp0
 70
     1
102
RTVSPropertyOp1
 70
     1
102
RTVSPropertyOp2
 70
     1
102
RTVSPropertyOp3
 70
     1
102
RTVSPropertyOp4
 70
     1
102
RTVSPropertyOp5
 70
     1
102
RTVSPropertyOp6
 70
     1
102
RTVSPropertyOp7
 70
     1
102
RTVSPropertyOp8
 70
     1
102
RTVSPropertyOp9
 70
     1
102
RTVSPropertyOp10
 70
     1
102
RTVSPropertyOp11
 70
     1
102
RTVSPropertyOp12
 70
     1
102
RTVSPropertyOp13
 70
     1
102
RTVSPropertyOp14
 70
     1
102
RTVSPropertyOp15
 70
     1
102
RTVSPropertyOp16
 70
     1
102
RTVSPropertyOp17
 70
     1
102
RTVSPropertyOp18
 70
     1
102
RTVSPropertyOp19
 70
     1
102
RTVSPropertyOp20
 70
     1
102
RTVSPropertyOp21
 70
     1
102
RTVSPropertyOp22
 70
     1
102
RTVSPropertyOp23
 70
     1
102
RTVSPropertyOp24
 70
     1
102
RTVSPropertyOp25
 70
     1
102
RTVSPropertyOp26
 70
     1
102
RTVSPropertyOp27
 70
     1
102
RTVSPropertyOp28
 70
     1
102
RTVSPropertyOp29
 70
     1
102
RTVSPropertyOp30
 70
     1
102
RTVSPropertyOp31
 70
     1
102
RTVSPropertyOp32
 70
     1
102
RTVSPropertyOp33
 70
     1
102
RTVSPropertyOp34
 70
     1
102
RTVSPropertyOp35
 70
     1
102
RTVSPropertyOp36
 70
     1
102
RTVSPropertyOp37
 70
     1
102
RTVSPropertyOp38
 70
     1
102
RTVSPropertyOp39
 70
     1
102
RTVSPropertyOp40
 70
     1
102
RTVSPropertyOp41
 70
     1
102
RTVSPropertyOp42
 70
     1
102
RTVSPropertyOp43
 70
     1
102
RTVSPropertyOp44
 70
     1
102
RTVSPropertyOp45
 70
     1
102
RTVSPropertyOp46
 70
     1
102
RTVSPropertyOp47
 70
     1
102
RTVSPropertyOp48
 70
     1
102
RTVSPropertyOp49
 70
     1
102
RTVSPropertyOp50
 70
     1
102
RTVSPropertyOp51
 70
     0
102
RTVSPropertyOp52
 70
     0
102
RTVSPropertyOp53
 70
     1
102
RTVSPropertyOp54
 70
     1
102
RTVSPropertyOp55
 70
     1
102
RTVSPropertyOp56
 70
     1
102
RTVSPropertyOp57
 70
     1
102
RTVSPropertyOp58
 70
     1
102
RTVSPropertyOp59
 70
     1
102
RTVSPropertyOp60
 70
     1
102
RTVSPropertyOp61
 70
     1
102
RTVSPropertyOp62
 70
     1
  0
XRECORD
  5
26EA
102
{ACAD_REACTORS
330
26E9
102
}
330
26E9
100
AcDbXrecord
280
     1
102
RTVSPost2010Prop28
280
     0
102
RTVSPost2010PropOp28
 70
     1
102
RTVSPost2010Prop29
280
     1
102
RTVSPost2010PropOp29
 70
     1
102
RTVSPost2010Prop30
280
     1
102
RTVSPost2010PropOp30
 70
     1
102
RTVSPost2010Prop31
280
     0
102
RTVSPost2010PropOp31
 70
     1
102
RTVSPost2010Prop32
280
     0
102
RTVSPost2010PropOp32
 70
     1
102
RTVSPost2010Prop33
280
     0
102
RTVSPost2010PropOp33
 70
     1
102
RTVSPost2010Prop34
280
     0
102
RTVSPost2010PropOp34
 70
     1
102
RTVSPost2010Prop35
280
     0
102
RTVSPost2010PropOp35
 70
     1
102
RTVSPost2010Prop36
280
     0
102
RTVSPost2010PropOp36
 70
     1
102
RTVSPost2010Prop37
 90
       50
102
RTVSPost2010PropOp37
 70
     0
102
RTVSPost2010Prop38
140
0.0
102
RTVSPost2010PropOp38
 70
     0
102
RTVSPost2010Prop39
140
1.0
102
RTVSPost2010PropOp39
 70
     0
102
RTVSPost2010Prop40
 90
        0
102
RTVSPost2010PropOp40
 70
     0
102
RTVSPost2010Prop41ColorIndex
 90
       18
102
RTVSPost2010Prop41ColorRGB
 90
        0
102
RTVSPost2010PropOp41
 70
     0
102
RTVSPost2010Prop42
 90
       50
102
RTVSPost2010PropOp42
 70
     0
102
RTVSPost2010Prop43
 90
        3
102
RTVSPost2010PropOp43
 70
     0
102
RTVSPost2010Prop44ColorIndex
 90
        5
102
RTVSPost2010Prop44ColorRGB
 90
      255
102
RTVSPost2010PropOp44
 70
     0
102
RTVSPost2010Prop45
280
     0
102
RTVSPost2010PropOp45
 70
     1
102
RTVSPost2010Prop46
 90
       50
102
RTVSPost2010PropOp46
 70
     0
102
RTVSPost2010Prop47
 90
       50
102
RTVSPost2010PropOp47
 70
     0
102
RTVSPost2010Prop48
 90
       50
102
RTVSPost2010PropOp48
 70
     0
102
RTVSPost2010Prop49
280
     0
102
RTVSPost2010PropOp49
 70
     1
102
RTVSPost2010Prop50
 90
       50
102
RTVSPost2010PropOp50
 70
     0
102
RTVSPost2010Prop51ColorIndex
 90
      256
102
RTVSPost2010Prop51ColorRGB
 90
-16777216
102
RTVSPost2010PropOp51
 70
     0
102
RTVSPost2010Prop52
140
1.0
102
RTVSPost2010PropOp52
 70
     0
102
RTVSPost2010Prop53
 90
        2
102
RTVSPost2010PropOp53
 70
     0
102
RTVSPost2010Prop54
  1
strokes_ogs.tif
102
RTVSPost2010PropOp54
 70
     0
102
RTVSPost2010Prop55
280
     0
102
RTVSPost2010PropOp55
 70
     1
102
RTVSPost2010Prop56
140
1.0
102
RTVSPost2010PropOp56
 70
     0
102
RTVSPost2010Prop57
140
1.0
102
RTVSPost2010PropOp57
 70
     0
102
RTVSPropertyOp0
 70
     0
102
RTVSPropertyOp1
 70
     0
102
RTVSPropertyOp2
 70
     0
102
RTVSPropertyOp3
 70
     0
102
RTVSPropertyOp4
 70
     0
102
RTVSPropertyOp5
 70
     0
102
RTVSPropertyOp6
 70
     0
102
RTVSPropertyOp7
 70
     0
102
RTVSPropertyOp8
 70
     0
102
RTVSPropertyOp9
 70
     0
102
RTVSPropertyOp10
 70
     0
102
RTVSPropertyOp11
 70
     0
102
RTVSPropertyOp12
 70
     0
102
RTVSPropertyOp13
 70
     0
102
RTVSPropertyOp14
 70
     2
102
RTVSPropertyOp15
 70
     0
102
RTVSPropertyOp16
 70
     0
102
RTVSPropertyOp17
 70
     0
102
RTVSPropertyOp18
 70
     0
102
RTVSPropertyOp19
 70
     0
102
RTVSPropertyOp20
 70
     0
102
RTVSPropertyOp21
 70
     0
102
RTVSPropertyOp22
 70
     0
102
RTVSPropertyOp23
 70
     0
102
RTVSPropertyOp24
 70
     0
102
RTVSPropertyOp25
 70
     0
102
RTVSPropertyOp26
 70
     0
102
RTVSPropertyOp27
 70
     0
102
RTVSPropertyOp28
 70
     1
102
RTVSPropertyOp29
 70
     1
102
RTVSPropertyOp30
 70
     1
102
RTVSPropertyOp31
 70
     1
102
RTVSPropertyOp32
 70
     1
102
RTVSPropertyOp33
 70
     1
102
RTVSPropertyOp34
 70
     1
102
RTVSPropertyOp35
 70
     1
102
RTVSPropertyOp36
 70
     1
102
RTVSPropertyOp37
 70
     0
102
RTVSPropertyOp38
 70
     0
102
RTVSPropertyOp39
 70
     0
102
RTVSPropertyOp40
 70
     0
102
RTVSPropertyOp41
 70
     0
102
RTVSPropertyOp42
 70
     0
102
RTVSPropertyOp43
 70
     0
102
RTVSPropertyOp44
 70
     0
102
RTVSPropertyOp45
 70
     1
102
RTVSPropertyOp46
 70
     0
102
RTVSPropertyOp47
 70
     0
102
RTVSPropertyOp48
 70
     0
102
RTVSPropertyOp49
 70
     1
102
RTVSPropertyOp50
 70
     0
102
RTVSPropertyOp51
 70
     0
102
RTVSPropertyOp52
 70
     0
102
RTVSPropertyOp53
 70
     0
102
RTVSPropertyOp54
 70
     0
102
RTVSPropertyOp55
 70
     1
102
RTVSPropertyOp56
 70
     0
102
RTVSPropertyOp57
 70
     0
102
RTVSPropertyOp58
 70
     0
102
RTVSPropertyOp59
 70
     0
102
RTVSPropertyOp60
 70
     0
102
RTVSPropertyOp61
 70
     0
102
RTVSPropertyOp62
 70
     0
  0
XRECORD
  5
26D0
102
{ACAD_REACTORS
330
26CF
102
}
330
26CF
100
AcDbXrecord
280
     1
102
RTVSPost2010Prop28
280
     0
102
RTVSPost2010PropOp28
 70
     1
102
RTVSPost2010Prop29
280
     1
102
RTVSPost2010PropOp29
 70
     1
102
RTVSPost2010Prop30
280
     1
102
RTVSPost2010PropOp30
 70
     1
102
RTVSPost2010Prop31
280
     0
102
RTVSPost2010PropOp31
 70
     1
102
RTVSPost2010Prop32
280
     0
102
RTVSPost2010PropOp32
 70
     1
102
RTVSPost2010Prop33
280
     0
102
RTVSPost2010PropOp33
 70
     1
102
RTVSPost2010Prop34
280
     0
102
RTVSPost2010PropOp34
 70
     1
102
RTVSPost2010Prop35
280
     0
102
RTVSPost2010PropOp35
 70
     1
102
RTVSPost2010Prop36
280
     0
102
RTVSPost2010PropOp36
 70
     1
102
RTVSPost2010Prop37
 90
       50
102
RTVSPost2010PropOp37
 70
     1
102
RTVSPost2010Prop38
140
0.0
102
RTVSPost2010PropOp38
 70
     1
102
RTVSPost2010Prop39
140
1.0
102
RTVSPost2010PropOp39
 70
     1
102
RTVSPost2010Prop40
 90
        0
102
RTVSPost2010PropOp40
 70
     1
102
RTVSPost2010Prop41ColorIndex
 90
       18
102
RTVSPost2010Prop41ColorRGB
 90
        0
102
RTVSPost2010PropOp41
 70
     1
102
RTVSPost2010Prop42
 90
       50
102
RTVSPost2010PropOp42
 70
     1
102
RTVSPost2010Prop43
 90
        3
102
RTVSPost2010PropOp43
 70
     1
102
RTVSPost2010Prop44ColorIndex
 90
        5
102
RTVSPost2010Prop44ColorRGB
 90
      255
102
RTVSPost2010PropOp44
 70
     1
102
RTVSPost2010Prop45
280
     0
102
RTVSPost2010PropOp45
 70
     1
102
RTVSPost2010Prop46
 90
       50
102
RTVSPost2010PropOp46
 70
     1
102
RTVSPost2010Prop47
 90
       50
102
RTVSPost2010PropOp47
 70
     1
102
RTVSPost2010Prop48
 90
       50
102
RTVSPost2010PropOp48
 70
     1
102
RTVSPost2010Prop49
280
     0
102
RTVSPost2010PropOp49
 70
     1
102
RTVSPost2010Prop50
 90
       50
102
RTVSPost2010PropOp50
 70
     1
102
RTVSPost2010Prop51ColorIndex
 90
      256
102
RTVSPost2010Prop51ColorRGB
 90
-16777216
102
RTVSPost2010PropOp51
 70
     0
102
RTVSPost2010Prop52
140
1.0
102
RTVSPost2010PropOp52
 70
     0
102
RTVSPost2010Prop53
 90
        2
102
RTVSPost2010PropOp53
 70
     1
102
RTVSPost2010Prop54
  1
strokes_ogs.tif
102
RTVSPost2010PropOp54
 70
     1
102
RTVSPost2010Prop55
280
     0
102
RTVSPost2010PropOp55
 70
     1
102
RTVSPost2010Prop56
140
1.0
102
RTVSPost2010PropOp56
 70
     1
102
RTVSPost2010Prop57
140
1.0
102
RTVSPost2010PropOp57
 70
     1
102
RTVSPropertyOp0
 70
     1
102
RTVSPropertyOp1
 70
     1
102
RTVSPropertyOp2
 70
     1
102
RTVSPropertyOp3
 70
     1
102
RTVSPropertyOp4
 70
     1
102
RTVSPropertyOp5
 70
     1
102
RTVSPropertyOp6
 70
     1
102
RTVSPropertyOp7
 70
     1
102
RTVSPropertyOp8
 70
     1
102
RTVSPropertyOp9
 70
     1
102
RTVSPropertyOp10
 70
     1
102
RTVSPropertyOp11
 70
     1
102
RTVSPropertyOp12
 70
     1
102
RTVSPropertyOp13
 70
     1
102
RTVSPropertyOp14
 70
     1
102
RTVSPropertyOp15
 70
     1
102
RTVSPropertyOp16
 70
     1
102
RTVSPropertyOp17
 70
     1
102
RTVSPropertyOp18
 70
     1
102
RTVSPropertyOp19
 70
     1
102
RTVSPropertyOp20
 70
     1
102
RTVSPropertyOp21
 70
     1
102
RTVSPropertyOp22
 70
     1
102
RTVSPropertyOp23
 70
     1
102
RTVSPropertyOp24
 70
     1
102
RTVSPropertyOp25
 70
     1
102
RTVSPropertyOp26
 70
     1
102
RTVSPropertyOp27
 70
     1
102
RTVSPropertyOp28
 70
     1
102
RTVSPropertyOp29
 70
     1
102
RTVSPropertyOp30
 70
     1
102
RTVSPropertyOp31
 70
     1
102
RTVSPropertyOp32
 70
     1
102
RTVSPropertyOp33
 70
     1
102
RTVSPropertyOp34
 70
     1
102
RTVSPropertyOp35
 70
     1
102
RTVSPropertyOp36
 70
     1
102
RTVSPropertyOp37
 70
     1
102
RTVSPropertyOp38
 70
     1
102
RTVSPropertyOp39
 70
     1
102
RTVSPropertyOp40
 70
     1
102
RTVSPropertyOp41
 70
     1
102
RTVSPropertyOp42
 70
     1
102
RTVSPropertyOp43
 70
     1
102
RTVSPropertyOp44
 70
     1
102
RTVSPropertyOp45
 70
     1
102
RTVSPropertyOp46
 70
     1
102
RTVSPropertyOp47
 70
     1
102
RTVSPropertyOp48
 70
     1
102
RTVSPropertyOp49
 70
     1
102
RTVSPropertyOp50
 70
     1
102
RTVSPropertyOp51
 70
     0
102
RTVSPropertyOp52
 70
     0
102
RTVSPropertyOp53
 70
     1
102
RTVSPropertyOp54
 70
     1
102
RTVSPropertyOp55
 70
     1
102
RTVSPropertyOp56
 70
     1
102
RTVSPropertyOp57
 70
     1
102
RTVSPropertyOp58
 70
     1
102
RTVSPropertyOp59
 70
     1
102
RTVSPropertyOp60
 70
     1
102
RTVSPropertyOp61
 70
     1
102
RTVSPropertyOp62
 70
     1
  0
XRECORD
  5
26E6
102
{ACAD_REACTORS
330
26E5
102
}
330
26E5
100
AcDbXrecord
280
     1
102
RTVSPost2010Prop28
280
     0
102
RTVSPost2010PropOp28
 70
     1
102
RTVSPost2010Prop29
280
     1
102
RTVSPost2010PropOp29
 70
     1
102
RTVSPost2010Prop30
280
     1
102
RTVSPost2010PropOp30
 70
     1
102
RTVSPost2010Prop31
280
     0
102
RTVSPost2010PropOp31
 70
     1
102
RTVSPost2010Prop32
280
     0
102
RTVSPost2010PropOp32
 70
     1
102
RTVSPost2010Prop33
280
     0
102
RTVSPost2010PropOp33
 70
     1
102
RTVSPost2010Prop34
280
     0
102
RTVSPost2010PropOp34
 70
     1
102
RTVSPost2010Prop35
280
     0
102
RTVSPost2010PropOp35
 70
     1
102
RTVSPost2010Prop36
280
     0
102
RTVSPost2010PropOp36
 70
     1
102
RTVSPost2010Prop37
 90
       50
102
RTVSPost2010PropOp37
 70
     1
102
RTVSPost2010Prop38
140
0.0
102
RTVSPost2010PropOp38
 70
     1
102
RTVSPost2010Prop39
140
1.0
102
RTVSPost2010PropOp39
 70
     1
102
RTVSPost2010Prop40
 90
        0
102
RTVSPost2010PropOp40
 70
     1
102
RTVSPost2010Prop41ColorIndex
 90
       18
102
RTVSPost2010Prop41ColorRGB
 90
        0
102
RTVSPost2010PropOp41
 70
     1
102
RTVSPost2010Prop42
 90
       50
102
RTVSPost2010PropOp42
 70
     1
102
RTVSPost2010Prop43
 90
        3
102
RTVSPost2010PropOp43
 70
     1
102
RTVSPost2010Prop44ColorIndex
 90
        5
102
RTVSPost2010Prop44ColorRGB
 90
      255
102
RTVSPost2010PropOp44
 70
     1
102
RTVSPost2010Prop45
280
     0
102
RTVSPost2010PropOp45
 70
     1
102
RTVSPost2010Prop46
 90
       50
102
RTVSPost2010PropOp46
 70
     1
102
RTVSPost2010Prop47
 90
       50
102
RTVSPost2010PropOp47
 70
     1
102
RTVSPost2010Prop48
 90
       50
102
RTVSPost2010PropOp48
 70
     1
102
RTVSPost2010Prop49
280
     0
102
RTVSPost2010PropOp49
 70
     1
102
RTVSPost2010Prop50
 90
       50
102
RTVSPost2010PropOp50
 70
     1
102
RTVSPost2010Prop51ColorIndex
 90
      256
102
RTVSPost2010Prop51ColorRGB
 90
-16777216
102
RTVSPost2010PropOp51
 70
     0
102
RTVSPost2010Prop52
140
1.0
102
RTVSPost2010PropOp52
 70
     0
102
RTVSPost2010Prop53
 90
        2
102
RTVSPost2010PropOp53
 70
     1
102
RTVSPost2010Prop54
  1
strokes_ogs.tif
102
RTVSPost2010PropOp54
 70
     1
102
RTVSPost2010Prop55
280
     0
102
RTVSPost2010PropOp55
 70
     1
102
RTVSPost2010Prop56
140
1.0
102
RTVSPost2010PropOp56
 70
     1
102
RTVSPost2010Prop57
140
1.0
102
RTVSPost2010PropOp57
 70
     1
102
RTVSPropertyOp0
 70
     1
102
RTVSPropertyOp1
 70
     1
102
RTVSPropertyOp2
 70
     1
102
RTVSPropertyOp3
 70
     1
102
RTVSPropertyOp4
 70
     1
102
RTVSPropertyOp5
 70
     1
102
RTVSPropertyOp6
 70
     1
102
RTVSPropertyOp7
 70
     1
102
RTVSPropertyOp8
 70
     1
102
RTVSPropertyOp9
 70
     1
102
RTVSPropertyOp10
 70
     1
102
RTVSPropertyOp11
 70
     1
102
RTVSPropertyOp12
 70
     1
102
RTVSPropertyOp13
 70
     1
102
RTVSPropertyOp14
 70
     1
102
RTVSPropertyOp15
 70
     1
102
RTVSPropertyOp16
 70
     1
102
RTVSPropertyOp17
 70
     1
102
RTVSPropertyOp18
 70
     1
102
RTVSPropertyOp19
 70
     1
102
RTVSPropertyOp20
 70
     1
102
RTVSPropertyOp21
 70
     1
102
RTVSPropertyOp22
 70
     1
102
RTVSPropertyOp23
 70
     1
102
RTVSPropertyOp24
 70
     1
102
RTVSPropertyOp25
 70
     1
102
RTVSPropertyOp26
 70
     1
102
RTVSPropertyOp27
 70
     1
102
RTVSPropertyOp28
 70
     1
102
RTVSPropertyOp29
 70
     1
102
RTVSPropertyOp30
 70
     1
102
RTVSPropertyOp31
 70
     1
102
RTVSPropertyOp32
 70
     1
102
RTVSPropertyOp33
 70
     1
102
RTVSPropertyOp34
 70
     1
102
RTVSPropertyOp35
 70
     1
102
RTVSPropertyOp36
 70
     1
102
RTVSPropertyOp37
 70
     1
102
RTVSPropertyOp38
 70
     1
102
RTVSPropertyOp39
 70
     1
102
RTVSPropertyOp40
 70
     1
102
RTVSPropertyOp41
 70
     1
102
RTVSPropertyOp42
 70
     1
102
RTVSPropertyOp43
 70
     1
102
RTVSPropertyOp44
 70
     1
102
RTVSPropertyOp45
 70
     1
102
RTVSPropertyOp46
 70
     1
102
RTVSPropertyOp47
 70
     1
102
RTVSPropertyOp48
 70
     1
102
RTVSPropertyOp49
 70
     1
102
RTVSPropertyOp50
 70
     1
102
RTVSPropertyOp51
 70
     0
102
RTVSPropertyOp52
 70
     0
102
RTVSPropertyOp53
 70
     1
102
RTVSPropertyOp54
 70
     1
102
RTVSPropertyOp55
 70
     1
102
RTVSPropertyOp56
 70
     1
102
RTVSPropertyOp57
 70
     1
102
RTVSPropertyOp58
 70
     1
102
RTVSPropertyOp59
 70
     1
102
RTVSPropertyOp60
 70
     1
102
RTVSPropertyOp61
 70
     1
102
RTVSPropertyOp62
 70
     1
  0
XRECORD
  5
26E4
102
{ACAD_REACTORS
330
26E3
102
}
330
26E3
100
AcDbXrecord
280
     1
102
RTVSPost2010Prop28
280
     0
102
RTVSPost2010PropOp28
 70
     1
102
RTVSPost2010Prop29
280
     1
102
RTVSPost2010PropOp29
 70
     1
102
RTVSPost2010Prop30
280
     1
102
RTVSPost2010PropOp30
 70
     1
102
RTVSPost2010Prop31
280
     0
102
RTVSPost2010PropOp31
 70
     1
102
RTVSPost2010Prop32
280
     0
102
RTVSPost2010PropOp32
 70
     1
102
RTVSPost2010Prop33
280
     0
102
RTVSPost2010PropOp33
 70
     1
102
RTVSPost2010Prop34
280
     0
102
RTVSPost2010PropOp34
 70
     1
102
RTVSPost2010Prop35
280
     0
102
RTVSPost2010PropOp35
 70
     1
102
RTVSPost2010Prop36
280
     0
102
RTVSPost2010PropOp36
 70
     1
102
RTVSPost2010Prop37
 90
       50
102
RTVSPost2010PropOp37
 70
     1
102
RTVSPost2010Prop38
140
0.0
102
RTVSPost2010PropOp38
 70
     1
102
RTVSPost2010Prop39
140
1.0
102
RTVSPost2010PropOp39
 70
     1
102
RTVSPost2010Prop40
 90
        0
102
RTVSPost2010PropOp40
 70
     1
102
RTVSPost2010Prop41ColorIndex
 90
       18
102
RTVSPost2010Prop41ColorRGB
 90
        0
102
RTVSPost2010PropOp41
 70
     1
102
RTVSPost2010Prop42
 90
       50
102
RTVSPost2010PropOp42
 70
     1
102
RTVSPost2010Prop43
 90
        3
102
RTVSPost2010PropOp43
 70
     1
102
RTVSPost2010Prop44ColorIndex
 90
        5
102
RTVSPost2010Prop44ColorRGB
 90
      255
102
RTVSPost2010PropOp44
 70
     1
102
RTVSPost2010Prop45
280
     0
102
RTVSPost2010PropOp45
 70
     1
102
RTVSPost2010Prop46
 90
       50
102
RTVSPost2010PropOp46
 70
     1
102
RTVSPost2010Prop47
 90
       50
102
RTVSPost2010PropOp47
 70
     1
102
RTVSPost2010Prop48
 90
       50
102
RTVSPost2010PropOp48
 70
     1
102
RTVSPost2010Prop49
280
     0
102
RTVSPost2010PropOp49
 70
     1
102
RTVSPost2010Prop50
 90
       50
102
RTVSPost2010PropOp50
 70
     1
102
RTVSPost2010Prop51ColorIndex
 90
      256
102
RTVSPost2010Prop51ColorRGB
 90
-16777216
102
RTVSPost2010PropOp51
 70
     0
102
RTVSPost2010Prop52
140
1.0
102
RTVSPost2010PropOp52
 70
     0
102
RTVSPost2010Prop53
 90
        2
102
RTVSPost2010PropOp53
 70
     1
102
RTVSPost2010Prop54
  1
strokes_ogs.tif
102
RTVSPost2010PropOp54
 70
     1
102
RTVSPost2010Prop55
280
     0
102
RTVSPost2010PropOp55
 70
     1
102
RTVSPost2010Prop56
140
1.0
102
RTVSPost2010PropOp56
 70
     1
102
RTVSPost2010Prop57
140
1.0
102
RTVSPost2010PropOp57
 70
     1
102
RTVSPropertyOp0
 70
     1
102
RTVSPropertyOp1
 70
     1
102
RTVSPropertyOp2
 70
     1
102
RTVSPropertyOp3
 70
     1
102
RTVSPropertyOp4
 70
     1
102
RTVSPropertyOp5
 70
     1
102
RTVSPropertyOp6
 70
     1
102
RTVSPropertyOp7
 70
     1
102
RTVSPropertyOp8
 70
     1
102
RTVSPropertyOp9
 70
     1
102
RTVSPropertyOp10
 70
     1
102
RTVSPropertyOp11
 70
     1
102
RTVSPropertyOp12
 70
     1
102
RTVSPropertyOp13
 70
     1
102
RTVSPropertyOp14
 70
     1
102
RTVSPropertyOp15
 70
     1
102
RTVSPropertyOp16
 70
     1
102
RTVSPropertyOp17
 70
     1
102
RTVSPropertyOp18
 70
     1
102
RTVSPropertyOp19
 70
     1
102
RTVSPropertyOp20
 70
     1
102
RTVSPropertyOp21
 70
     1
102
RTVSPropertyOp22
 70
     1
102
RTVSPropertyOp23
 70
     1
102
RTVSPropertyOp24
 70
     1
102
RTVSPropertyOp25
 70
     1
102
RTVSPropertyOp26
 70
     1
102
RTVSPropertyOp27
 70
     1
102
RTVSPropertyOp28
 70
     1
102
RTVSPropertyOp29
 70
     1
102
RTVSPropertyOp30
 70
     1
102
RTVSPropertyOp31
 70
     1
102
RTVSPropertyOp32
 70
     1
102
RTVSPropertyOp33
 70
     1
102
RTVSPropertyOp34
 70
     1
102
RTVSPropertyOp35
 70
     1
102
RTVSPropertyOp36
 70
     1
102
RTVSPropertyOp37
 70
     1
102
RTVSPropertyOp38
 70
     1
102
RTVSPropertyOp39
 70
     1
102
RTVSPropertyOp40
 70
     1
102
RTVSPropertyOp41
 70
     1
102
RTVSPropertyOp42
 70
     1
102
RTVSPropertyOp43
 70
     1
102
RTVSPropertyOp44
 70
     1
102
RTVSPropertyOp45
 70
     1
102
RTVSPropertyOp46
 70
     1
102
RTVSPropertyOp47
 70
     1
102
RTVSPropertyOp48
 70
     1
102
RTVSPropertyOp49
 70
     1
102
RTVSPropertyOp50
 70
     1
102
RTVSPropertyOp51
 70
     0
102
RTVSPropertyOp52
 70
     0
102
RTVSPropertyOp53
 70
     1
102
RTVSPropertyOp54
 70
     1
102
RTVSPropertyOp55
 70
     1
102
RTVSPropertyOp56
 70
     1
102
RTVSPropertyOp57
 70
     1
102
RTVSPropertyOp58
 70
     1
102
RTVSPropertyOp59
 70
     1
102
RTVSPropertyOp60
 70
     1
102
RTVSPropertyOp61
 70
     1
102
RTVSPropertyOp62
 70
     1
  0
XRECORD
  5
26DE
102
{ACAD_REACTORS
330
26DD
102
}
330
26DD
100
AcDbXrecord
280
     1
102
RTVSPost2010Prop28
280
     0
102
RTVSPost2010PropOp28
 70
     1
102
RTVSPost2010Prop29
280
     1
102
RTVSPost2010PropOp29
 70
     1
102
RTVSPost2010Prop30
280
     1
102
RTVSPost2010PropOp30
 70
     1
102
RTVSPost2010Prop31
280
     0
102
RTVSPost2010PropOp31
 70
     1
102
RTVSPost2010Prop32
280
     0
102
RTVSPost2010PropOp32
 70
     1
102
RTVSPost2010Prop33
280
     0
102
RTVSPost2010PropOp33
 70
     1
102
RTVSPost2010Prop34
280
     0
102
RTVSPost2010PropOp34
 70
     1
102
RTVSPost2010Prop35
280
     0
102
RTVSPost2010PropOp35
 70
     1
102
RTVSPost2010Prop36
280
     0
102
RTVSPost2010PropOp36
 70
     1
102
RTVSPost2010Prop37
 90
       50
102
RTVSPost2010PropOp37
 70
     1
102
RTVSPost2010Prop38
140
0.0
102
RTVSPost2010PropOp38
 70
     1
102
RTVSPost2010Prop39
140
1.0
102
RTVSPost2010PropOp39
 70
     1
102
RTVSPost2010Prop40
 90
        0
102
RTVSPost2010PropOp40
 70
     1
102
RTVSPost2010Prop41ColorIndex
 90
       18
102
RTVSPost2010Prop41ColorRGB
 90
        0
102
RTVSPost2010PropOp41
 70
     1
102
RTVSPost2010Prop42
 90
       50
102
RTVSPost2010PropOp42
 70
     1
102
RTVSPost2010Prop43
 90
        3
102
RTVSPost2010PropOp43
 70
     1
102
RTVSPost2010Prop44ColorIndex
 90
        5
102
RTVSPost2010Prop44ColorRGB
 90
      255
102
RTVSPost2010PropOp44
 70
     1
102
RTVSPost2010Prop45
280
     0
102
RTVSPost2010PropOp45
 70
     1
102
RTVSPost2010Prop46
 90
       50
102
RTVSPost2010PropOp46
 70
     1
102
RTVSPost2010Prop47
 90
       50
102
RTVSPost2010PropOp47
 70
     1
102
RTVSPost2010Prop48
 90
       50
102
RTVSPost2010PropOp48
 70
     1
102
RTVSPost2010Prop49
280
     0
102
RTVSPost2010PropOp49
 70
     1
102
RTVSPost2010Prop50
 90
       50
102
RTVSPost2010PropOp50
 70
     1
102
RTVSPost2010Prop51ColorIndex
 90
      256
102
RTVSPost2010Prop51ColorRGB
 90
-16777216
102
RTVSPost2010PropOp51
 70
     0
102
RTVSPost2010Prop52
140
1.0
102
RTVSPost2010PropOp52
 70
     0
102
RTVSPost2010Prop53
 90
        2
102
RTVSPost2010PropOp53
 70
     1
102
RTVSPost2010Prop54
  1
strokes_ogs.tif
102
RTVSPost2010PropOp54
 70
     1
102
RTVSPost2010Prop55
280
     0
102
RTVSPost2010PropOp55
 70
     1
102
RTVSPost2010Prop56
140
1.0
102
RTVSPost2010PropOp56
 70
     1
102
RTVSPost2010Prop57
140
1.0
102
RTVSPost2010PropOp57
 70
     1
102
RTVSPropertyOp0
 70
     1
102
RTVSPropertyOp1
 70
     1
102
RTVSPropertyOp2
 70
     1
102
RTVSPropertyOp3
 70
     1
102
RTVSPropertyOp4
 70
     1
102
RTVSPropertyOp5
 70
     1
102
RTVSPropertyOp6
 70
     1
102
RTVSPropertyOp7
 70
     1
102
RTVSPropertyOp8
 70
     1
102
RTVSPropertyOp9
 70
     1
102
RTVSPropertyOp10
 70
     1
102
RTVSPropertyOp11
 70
     1
102
RTVSPropertyOp12
 70
     1
102
RTVSPropertyOp13
 70
     1
102
RTVSPropertyOp14
 70
     1
102
RTVSPropertyOp15
 70
     1
102
RTVSPropertyOp16
 70
     1
102
RTVSPropertyOp17
 70
     1
102
RTVSPropertyOp18
 70
     1
102
RTVSPropertyOp19
 70
     1
102
RTVSPropertyOp20
 70
     1
102
RTVSPropertyOp21
 70
     1
102
RTVSPropertyOp22
 70
     1
102
RTVSPropertyOp23
 70
     1
102
RTVSPropertyOp24
 70
     1
102
RTVSPropertyOp25
 70
     1
102
RTVSPropertyOp26
 70
     1
102
RTVSPropertyOp27
 70
     1
102
RTVSPropertyOp28
 70
     1
102
RTVSPropertyOp29
 70
     1
102
RTVSPropertyOp30
 70
     1
102
RTVSPropertyOp31
 70
     1
102
RTVSPropertyOp32
 70
     1
102
RTVSPropertyOp33
 70
     1
102
RTVSPropertyOp34
 70
     1
102
RTVSPropertyOp35
 70
     1
102
RTVSPropertyOp36
 70
     1
102
RTVSPropertyOp37
 70
     1
102
RTVSPropertyOp38
 70
     1
102
RTVSPropertyOp39
 70
     1
102
RTVSPropertyOp40
 70
     1
102
RTVSPropertyOp41
 70
     1
102
RTVSPropertyOp42
 70
     1
102
RTVSPropertyOp43
 70
     1
102
RTVSPropertyOp44
 70
     1
102
RTVSPropertyOp45
 70
     1
102
RTVSPropertyOp46
 70
     1
102
RTVSPropertyOp47
 70
     1
102
RTVSPropertyOp48
 70
     1
102
RTVSPropertyOp49
 70
     1
102
RTVSPropertyOp50
 70
     1
102
RTVSPropertyOp51
 70
     0
102
RTVSPropertyOp52
 70
     0
102
RTVSPropertyOp53
 70
     1
102
RTVSPropertyOp54
 70
     1
102
RTVSPropertyOp55
 70
     1
102
RTVSPropertyOp56
 70
     1
102
RTVSPropertyOp57
 70
     1
102
RTVSPropertyOp58
 70
     1
102
RTVSPropertyOp59
 70
     1
102
RTVSPropertyOp60
 70
     1
102
RTVSPropertyOp61
 70
     1
102
RTVSPropertyOp62
 70
     1
  0
XRECORD
  5
26E0
102
{ACAD_REACTORS
330
26DF
102
}
330
26DF
100
AcDbXrecord
280
     1
102
RTVSPost2010Prop28
280
     0
102
RTVSPost2010PropOp28
 70
     1
102
RTVSPost2010Prop29
280
     1
102
RTVSPost2010PropOp29
 70
     1
102
RTVSPost2010Prop30
280
     1
102
RTVSPost2010PropOp30
 70
     1
102
RTVSPost2010Prop31
280
     0
102
RTVSPost2010PropOp31
 70
     1
102
RTVSPost2010Prop32
280
     0
102
RTVSPost2010PropOp32
 70
     1
102
RTVSPost2010Prop33
280
     0
102
RTVSPost2010PropOp33
 70
     1
102
RTVSPost2010Prop34
280
     0
102
RTVSPost2010PropOp34
 70
     1
102
RTVSPost2010Prop35
280
     0
102
RTVSPost2010PropOp35
 70
     1
102
RTVSPost2010Prop36
280
     0
102
RTVSPost2010PropOp36
 70
     1
102
RTVSPost2010Prop37
 90
       50
102
RTVSPost2010PropOp37
 70
     1
102
RTVSPost2010Prop38
140
0.0
102
RTVSPost2010PropOp38
 70
     1
102
RTVSPost2010Prop39
140
1.0
102
RTVSPost2010PropOp39
 70
     1
102
RTVSPost2010Prop40
 90
        0
102
RTVSPost2010PropOp40
 70
     1
102
RTVSPost2010Prop41ColorIndex
 90
       18
102
RTVSPost2010Prop41ColorRGB
 90
        0
102
RTVSPost2010PropOp41
 70
     1
102
RTVSPost2010Prop42
 90
       50
102
RTVSPost2010PropOp42
 70
     1
102
RTVSPost2010Prop43
 90
        3
102
RTVSPost2010PropOp43
 70
     1
102
RTVSPost2010Prop44ColorIndex
 90
        5
102
RTVSPost2010Prop44ColorRGB
 90
      255
102
RTVSPost2010PropOp44
 70
     1
102
RTVSPost2010Prop45
280
     0
102
RTVSPost2010PropOp45
 70
     1
102
RTVSPost2010Prop46
 90
       50
102
RTVSPost2010PropOp46
 70
     1
102
RTVSPost2010Prop47
 90
       50
102
RTVSPost2010PropOp47
 70
     1
102
RTVSPost2010Prop48
 90
       50
102
RTVSPost2010PropOp48
 70
     1
102
RTVSPost2010Prop49
280
     0
102
RTVSPost2010PropOp49
 70
     1
102
RTVSPost2010Prop50
 90
       50
102
RTVSPost2010PropOp50
 70
     1
102
RTVSPost2010Prop51ColorIndex
 90
      256
102
RTVSPost2010Prop51ColorRGB
 90
-16777216
102
RTVSPost2010PropOp51
 70
     0
102
RTVSPost2010Prop52
140
1.0
102
RTVSPost2010PropOp52
 70
     0
102
RTVSPost2010Prop53
 90
        2
102
RTVSPost2010PropOp53
 70
     1
102
RTVSPost2010Prop54
  1
strokes_ogs.tif
102
RTVSPost2010PropOp54
 70
     1
102
RTVSPost2010Prop55
280
     0
102
RTVSPost2010PropOp55
 70
     1
102
RTVSPost2010Prop56
140
1.0
102
RTVSPost2010PropOp56
 70
     1
102
RTVSPost2010Prop57
140
1.0
102
RTVSPost2010PropOp57
 70
     1
102
RTVSPropertyOp0
 70
     1
102
RTVSPropertyOp1
 70
     1
102
RTVSPropertyOp2
 70
     1
102
RTVSPropertyOp3
 70
     1
102
RTVSPropertyOp4
 70
     1
102
RTVSPropertyOp5
 70
     1
102
RTVSPropertyOp6
 70
     1
102
RTVSPropertyOp7
 70
     1
102
RTVSPropertyOp8
 70
     1
102
RTVSPropertyOp9
 70
     1
102
RTVSPropertyOp10
 70
     1
102
RTVSPropertyOp11
 70
     1
102
RTVSPropertyOp12
 70
     1
102
RTVSPropertyOp13
 70
     1
102
RTVSPropertyOp14
 70
     1
102
RTVSPropertyOp15
 70
     1
102
RTVSPropertyOp16
 70
     1
102
RTVSPropertyOp17
 70
     1
102
RTVSPropertyOp18
 70
     1
102
RTVSPropertyOp19
 70
     1
102
RTVSPropertyOp20
 70
     1
102
RTVSPropertyOp21
 70
     1
102
RTVSPropertyOp22
 70
     1
102
RTVSPropertyOp23
 70
     1
102
RTVSPropertyOp24
 70
     1
102
RTVSPropertyOp25
 70
     1
102
RTVSPropertyOp26
 70
     1
102
RTVSPropertyOp27
 70
     1
102
RTVSPropertyOp28
 70
     1
102
RTVSPropertyOp29
 70
     1
102
RTVSPropertyOp30
 70
     1
102
RTVSPropertyOp31
 70
     1
102
RTVSPropertyOp32
 70
     1
102
RTVSPropertyOp33
 70
     1
102
RTVSPropertyOp34
 70
     1
102
RTVSPropertyOp35
 70
     1
102
RTVSPropertyOp36
 70
     1
102
RTVSPropertyOp37
 70
     1
102
RTVSPropertyOp38
 70
     1
102
RTVSPropertyOp39
 70
     1
102
RTVSPropertyOp40
 70
     1
102
RTVSPropertyOp41
 70
     1
102
RTVSPropertyOp42
 70
     1
102
RTVSPropertyOp43
 70
     1
102
RTVSPropertyOp44
 70
     1
102
RTVSPropertyOp45
 70
     1
102
RTVSPropertyOp46
 70
     1
102
RTVSPropertyOp47
 70
     1
102
RTVSPropertyOp48
 70
     1
102
RTVSPropertyOp49
 70
     1
102
RTVSPropertyOp50
 70
     1
102
RTVSPropertyOp51
 70
     0
102
RTVSPropertyOp52
 70
     0
102
RTVSPropertyOp53
 70
     1
102
RTVSPropertyOp54
 70
     1
102
RTVSPropertyOp55
 70
     1
102
RTVSPropertyOp56
 70
     1
102
RTVSPropertyOp57
 70
     1
102
RTVSPropertyOp58
 70
     1
102
RTVSPropertyOp59
 70
     1
102
RTVSPropertyOp60
 70
     1
102
RTVSPropertyOp61
 70
     1
102
RTVSPropertyOp62
 70
     1
  0
XRECORD
  5
26D6
102
{ACAD_REACTORS
330
26D5
102
}
330
26D5
100
AcDbXrecord
280
     1
102
RTVSPost2010Prop28
280
     0
102
RTVSPost2010PropOp28
 70
     1
102
RTVSPost2010Prop29
280
     1
102
RTVSPost2010PropOp29
 70
     1
102
RTVSPost2010Prop30
280
     1
102
RTVSPost2010PropOp30
 70
     1
102
RTVSPost2010Prop31
280
     0
102
RTVSPost2010PropOp31
 70
     1
102
RTVSPost2010Prop32
280
     0
102
RTVSPost2010PropOp32
 70
     1
102
RTVSPost2010Prop33
280
     0
102
RTVSPost2010PropOp33
 70
     1
102
RTVSPost2010Prop34
280
     0
102
RTVSPost2010PropOp34
 70
     1
102
RTVSPost2010Prop35
280
     0
102
RTVSPost2010PropOp35
 70
     1
102
RTVSPost2010Prop36
280
     0
102
RTVSPost2010PropOp36
 70
     1
102
RTVSPost2010Prop37
 90
       50
102
RTVSPost2010PropOp37
 70
     1
102
RTVSPost2010Prop38
140
0.0
102
RTVSPost2010PropOp38
 70
     1
102
RTVSPost2010Prop39
140
1.0
102
RTVSPost2010PropOp39
 70
     1
102
RTVSPost2010Prop40
 90
        0
102
RTVSPost2010PropOp40
 70
     1
102
RTVSPost2010Prop41ColorIndex
 90
       18
102
RTVSPost2010Prop41ColorRGB
 90
        0
102
RTVSPost2010PropOp41
 70
     1
102
RTVSPost2010Prop42
 90
       50
102
RTVSPost2010PropOp42
 70
     1
102
RTVSPost2010Prop43
 90
        3
102
RTVSPost2010PropOp43
 70
     1
102
RTVSPost2010Prop44ColorIndex
 90
        5
102
RTVSPost2010Prop44ColorRGB
 90
      255
102
RTVSPost2010PropOp44
 70
     1
102
RTVSPost2010Prop45
280
     0
102
RTVSPost2010PropOp45
 70
     1
102
RTVSPost2010Prop46
 90
       50
102
RTVSPost2010PropOp46
 70
     1
102
RTVSPost2010Prop47
 90
       50
102
RTVSPost2010PropOp47
 70
     1
102
RTVSPost2010Prop48
 90
       50
102
RTVSPost2010PropOp48
 70
     1
102
RTVSPost2010Prop49
280
     0
102
RTVSPost2010PropOp49
 70
     1
102
RTVSPost2010Prop50
 90
       50
102
RTVSPost2010PropOp50
 70
     1
102
RTVSPost2010Prop51ColorIndex
 90
      256
102
RTVSPost2010Prop51ColorRGB
 90
-16777216
102
RTVSPost2010PropOp51
 70
     0
102
RTVSPost2010Prop52
140
1.0
102
RTVSPost2010PropOp52
 70
     0
102
RTVSPost2010Prop53
 90
        2
102
RTVSPost2010PropOp53
 70
     1
102
RTVSPost2010Prop54
  1
strokes_ogs.tif
102
RTVSPost2010PropOp54
 70
     1
102
RTVSPost2010Prop55
280
     0
102
RTVSPost2010PropOp55
 70
     1
102
RTVSPost2010Prop56
140
1.0
102
RTVSPost2010PropOp56
 70
     1
102
RTVSPost2010Prop57
140
1.0
102
RTVSPost2010PropOp57
 70
     1
102
RTVSPropertyOp0
 70
     1
102
RTVSPropertyOp1
 70
     1
102
RTVSPropertyOp2
 70
     1
102
RTVSPropertyOp3
 70
     1
102
RTVSPropertyOp4
 70
     1
102
RTVSPropertyOp5
 70
     1
102
RTVSPropertyOp6
 70
     1
102
RTVSPropertyOp7
 70
     1
102
RTVSPropertyOp8
 70
     1
102
RTVSPropertyOp9
 70
     1
102
RTVSPropertyOp10
 70
     1
102
RTVSPropertyOp11
 70
     1
102
RTVSPropertyOp12
 70
     1
102
RTVSPropertyOp13
 70
     1
102
RTVSPropertyOp14
 70
     1
102
RTVSPropertyOp15
 70
     1
102
RTVSPropertyOp16
 70
     1
102
RTVSPropertyOp17
 70
     1
102
RTVSPropertyOp18
 70
     1
102
RTVSPropertyOp19
 70
     1
102
RTVSPropertyOp20
 70
     1
102
RTVSPropertyOp21
 70
     1
102
RTVSPropertyOp22
 70
     1
102
RTVSPropertyOp23
 70
     1
102
RTVSPropertyOp24
 70
     1
102
RTVSPropertyOp25
 70
     1
102
RTVSPropertyOp26
 70
     1
102
RTVSPropertyOp27
 70
     1
102
RTVSPropertyOp28
 70
     1
102
RTVSPropertyOp29
 70
     1
102
RTVSPropertyOp30
 70
     1
102
RTVSPropertyOp31
 70
     1
102
RTVSPropertyOp32
 70
     1
102
RTVSPropertyOp33
 70
     1
102
RTVSPropertyOp34
 70
     1
102
RTVSPropertyOp35
 70
     1
102
RTVSPropertyOp36
 70
     1
102
RTVSPropertyOp37
 70
     1
102
RTVSPropertyOp38
 70
     1
102
RTVSPropertyOp39
 70
     1
102
RTVSPropertyOp40
 70
     1
102
RTVSPropertyOp41
 70
     1
102
RTVSPropertyOp42
 70
     1
102
RTVSPropertyOp43
 70
     1
102
RTVSPropertyOp44
 70
     1
102
RTVSPropertyOp45
 70
     1
102
RTVSPropertyOp46
 70
     1
102
RTVSPropertyOp47
 70
     1
102
RTVSPropertyOp48
 70
     1
102
RTVSPropertyOp49
 70
     1
102
RTVSPropertyOp50
 70
     1
102
RTVSPropertyOp51
 70
     0
102
RTVSPropertyOp52
 70
     0
102
RTVSPropertyOp53
 70
     1
102
RTVSPropertyOp54
 70
     1
102
RTVSPropertyOp55
 70
     1
102
RTVSPropertyOp56
 70
     1
102
RTVSPropertyOp57
 70
     1
102
RTVSPropertyOp58
 70
     1
102
RTVSPropertyOp59
 70
     1
102
RTVSPropertyOp60
 70
     1
102
RTVSPropertyOp61
 70
     1
102
RTVSPropertyOp62
 70
     1
  0
XRECORD
  5
26CA
102
{ACAD_REACTORS
330
26C9
102
}
330
26C9
100
AcDbXrecord
280
     1
102
RTVSPost2010Prop28
280
     0
102
RTVSPost2010PropOp28
 70
     1
102
RTVSPost2010Prop29
280
     1
102
RTVSPost2010PropOp29
 70
     1
102
RTVSPost2010Prop30
280
     1
102
RTVSPost2010PropOp30
 70
     1
102
RTVSPost2010Prop31
280
     0
102
RTVSPost2010PropOp31
 70
     1
102
RTVSPost2010Prop32
280
     0
102
RTVSPost2010PropOp32
 70
     1
102
RTVSPost2010Prop33
280
     0
102
RTVSPost2010PropOp33
 70
     1
102
RTVSPost2010Prop34
280
     0
102
RTVSPost2010PropOp34
 70
     1
102
RTVSPost2010Prop35
280
     0
102
RTVSPost2010PropOp35
 70
     1
102
RTVSPost2010Prop36
280
     0
102
RTVSPost2010PropOp36
 70
     1
102
RTVSPost2010Prop37
 90
       50
102
RTVSPost2010PropOp37
 70
     1
102
RTVSPost2010Prop38
140
0.0
102
RTVSPost2010PropOp38
 70
     1
102
RTVSPost2010Prop39
140
1.0
102
RTVSPost2010PropOp39
 70
     1
102
RTVSPost2010Prop40
 90
        0
102
RTVSPost2010PropOp40
 70
     1
102
RTVSPost2010Prop41ColorIndex
 90
       18
102
RTVSPost2010Prop41ColorRGB
 90
        0
102
RTVSPost2010PropOp41
 70
     1
102
RTVSPost2010Prop42
 90
       50
102
RTVSPost2010PropOp42
 70
     1
102
RTVSPost2010Prop43
 90
        3
102
RTVSPost2010PropOp43
 70
     1
102
RTVSPost2010Prop44ColorIndex
 90
        5
102
RTVSPost2010Prop44ColorRGB
 90
      255
102
RTVSPost2010PropOp44
 70
     1
102
RTVSPost2010Prop45
280
     0
102
RTVSPost2010PropOp45
 70
     1
102
RTVSPost2010Prop46
 90
       50
102
RTVSPost2010PropOp46
 70
     1
102
RTVSPost2010Prop47
 90
       50
102
RTVSPost2010PropOp47
 70
     1
102
RTVSPost2010Prop48
 90
       50
102
RTVSPost2010PropOp48
 70
     1
102
RTVSPost2010Prop49
280
     0
102
RTVSPost2010PropOp49
 70
     1
102
RTVSPost2010Prop50
 90
       50
102
RTVSPost2010PropOp50
 70
     1
102
RTVSPost2010Prop51ColorIndex
 90
      256
102
RTVSPost2010Prop51ColorRGB
 90
-16777216
102
RTVSPost2010PropOp51
 70
     0
102
RTVSPost2010Prop52
140
1.0
102
RTVSPost2010PropOp52
 70
     0
102
RTVSPost2010Prop53
 90
        2
102
RTVSPost2010PropOp53
 70
     1
102
RTVSPost2010Prop54
  1
strokes_ogs.tif
102
RTVSPost2010PropOp54
 70
     1
102
RTVSPost2010Prop55
280
     0
102
RTVSPost2010PropOp55
 70
     1
102
RTVSPost2010Prop56
140
1.0
102
RTVSPost2010PropOp56
 70
     1
102
RTVSPost2010Prop57
140
1.0
102
RTVSPost2010PropOp57
 70
     1
102
RTVSPropertyOp0
 70
     1
102
RTVSPropertyOp1
 70
     1
102
RTVSPropertyOp2
 70
     1
102
RTVSPropertyOp3
 70
     1
102
RTVSPropertyOp4
 70
     1
102
RTVSPropertyOp5
 70
     1
102
RTVSPropertyOp6
 70
     1
102
RTVSPropertyOp7
 70
     1
102
RTVSPropertyOp8
 70
     1
102
RTVSPropertyOp9
 70
     1
102
RTVSPropertyOp10
 70
     1
102
RTVSPropertyOp11
 70
     1
102
RTVSPropertyOp12
 70
     1
102
RTVSPropertyOp13
 70
     1
102
RTVSPropertyOp14
 70
     1
102
RTVSPropertyOp15
 70
     1
102
RTVSPropertyOp16
 70
     1
102
RTVSPropertyOp17
 70
     1
102
RTVSPropertyOp18
 70
     1
102
RTVSPropertyOp19
 70
     1
102
RTVSPropertyOp20
 70
     1
102
RTVSPropertyOp21
 70
     1
102
RTVSPropertyOp22
 70
     1
102
RTVSPropertyOp23
 70
     1
102
RTVSPropertyOp24
 70
     1
102
RTVSPropertyOp25
 70
     1
102
RTVSPropertyOp26
 70
     1
102
RTVSPropertyOp27
 70
     1
102
RTVSPropertyOp28
 70
     1
102
RTVSPropertyOp29
 70
     1
102
RTVSPropertyOp30
 70
     1
102
RTVSPropertyOp31
 70
     1
102
RTVSPropertyOp32
 70
     1
102
RTVSPropertyOp33
 70
     1
102
RTVSPropertyOp34
 70
     1
102
RTVSPropertyOp35
 70
     1
102
RTVSPropertyOp36
 70
     1
102
RTVSPropertyOp37
 70
     1
102
RTVSPropertyOp38
 70
     1
102
RTVSPropertyOp39
 70
     1
102
RTVSPropertyOp40
 70
     1
102
RTVSPropertyOp41
 70
     1
102
RTVSPropertyOp42
 70
     1
102
RTVSPropertyOp43
 70
     1
102
RTVSPropertyOp44
 70
     1
102
RTVSPropertyOp45
 70
     1
102
RTVSPropertyOp46
 70
     1
102
RTVSPropertyOp47
 70
     1
102
RTVSPropertyOp48
 70
     1
102
RTVSPropertyOp49
 70
     1
102
RTVSPropertyOp50
 70
     1
102
RTVSPropertyOp51
 70
     0
102
RTVSPropertyOp52
 70
     0
102
RTVSPropertyOp53
 70
     1
102
RTVSPropertyOp54
 70
     1
102
RTVSPropertyOp55
 70
     1
102
RTVSPropertyOp56
 70
     1
102
RTVSPropertyOp57
 70
     1
102
RTVSPropertyOp58
 70
     1
102
RTVSPropertyOp59
 70
     1
102
RTVSPropertyOp60
 70
     1
102
RTVSPropertyOp61
 70
     1
102
RTVSPropertyOp62
 70
     1
  0
XRECORD
  5
26E2
102
{ACAD_REACTORS
330
26E1
102
}
330
26E1
100
AcDbXrecord
280
     1
102
RTVSPost2010Prop28
280
     0
102
RTVSPost2010PropOp28
 70
     1
102
RTVSPost2010Prop29
280
     1
102
RTVSPost2010PropOp29
 70
     1
102
RTVSPost2010Prop30
280
     1
102
RTVSPost2010PropOp30
 70
     1
102
RTVSPost2010Prop31
280
     0
102
RTVSPost2010PropOp31
 70
     1
102
RTVSPost2010Prop32
280
     0
102
RTVSPost2010PropOp32
 70
     1
102
RTVSPost2010Prop33
280
     0
102
RTVSPost2010PropOp33
 70
     1
102
RTVSPost2010Prop34
280
     0
102
RTVSPost2010PropOp34
 70
     1
102
RTVSPost2010Prop35
280
     0
102
RTVSPost2010PropOp35
 70
     1
102
RTVSPost2010Prop36
280
     0
102
RTVSPost2010PropOp36
 70
     1
102
RTVSPost2010Prop37
 90
       50
102
RTVSPost2010PropOp37
 70
     1
102
RTVSPost2010Prop38
140
0.0
102
RTVSPost2010PropOp38
 70
     1
102
RTVSPost2010Prop39
140
1.0
102
RTVSPost2010PropOp39
 70
     1
102
RTVSPost2010Prop40
 90
        0
102
RTVSPost2010PropOp40
 70
     1
102
RTVSPost2010Prop41ColorIndex
 90
       18
102
RTVSPost2010Prop41ColorRGB
 90
        0
102
RTVSPost2010PropOp41
 70
     1
102
RTVSPost2010Prop42
 90
       50
102
RTVSPost2010PropOp42
 70
     1
102
RTVSPost2010Prop43
 90
        3
102
RTVSPost2010PropOp43
 70
     1
102
RTVSPost2010Prop44ColorIndex
 90
        5
102
RTVSPost2010Prop44ColorRGB
 90
      255
102
RTVSPost2010PropOp44
 70
     1
102
RTVSPost2010Prop45
280
     0
102
RTVSPost2010PropOp45
 70
     1
102
RTVSPost2010Prop46
 90
       50
102
RTVSPost2010PropOp46
 70
     1
102
RTVSPost2010Prop47
 90
       50
102
RTVSPost2010PropOp47
 70
     1
102
RTVSPost2010Prop48
 90
       50
102
RTVSPost2010PropOp48
 70
     1
102
RTVSPost2010Prop49
280
     0
102
RTVSPost2010PropOp49
 70
     1
102
RTVSPost2010Prop50
 90
       50
102
RTVSPost2010PropOp50
 70
     1
102
RTVSPost2010Prop51ColorIndex
 90
      256
102
RTVSPost2010Prop51ColorRGB
 90
-16777216
102
RTVSPost2010PropOp51
 70
     0
102
RTVSPost2010Prop52
140
1.0
102
RTVSPost2010PropOp52
 70
     0
102
RTVSPost2010Prop53
 90
        2
102
RTVSPost2010PropOp53
 70
     1
102
RTVSPost2010Prop54
  1
strokes_ogs.tif
102
RTVSPost2010PropOp54
 70
     1
102
RTVSPost2010Prop55
280
     0
102
RTVSPost2010PropOp55
 70
     1
102
RTVSPost2010Prop56
140
1.0
102
RTVSPost2010PropOp56
 70
     1
102
RTVSPost2010Prop57
140
1.0
102
RTVSPost2010PropOp57
 70
     1
102
RTVSPropertyOp0
 70
     1
102
RTVSPropertyOp1
 70
     1
102
RTVSPropertyOp2
 70
     1
102
RTVSPropertyOp3
 70
     1
102
RTVSPropertyOp4
 70
     1
102
RTVSPropertyOp5
 70
     1
102
RTVSPropertyOp6
 70
     1
102
RTVSPropertyOp7
 70
     1
102
RTVSPropertyOp8
 70
     1
102
RTVSPropertyOp9
 70
     1
102
RTVSPropertyOp10
 70
     1
102
RTVSPropertyOp11
 70
     1
102
RTVSPropertyOp12
 70
     1
102
RTVSPropertyOp13
 70
     1
102
RTVSPropertyOp14
 70
     1
102
RTVSPropertyOp15
 70
     1
102
RTVSPropertyOp16
 70
     1
102
RTVSPropertyOp17
 70
     1
102
RTVSPropertyOp18
 70
     1
102
RTVSPropertyOp19
 70
     1
102
RTVSPropertyOp20
 70
     1
102
RTVSPropertyOp21
 70
     1
102
RTVSPropertyOp22
 70
     1
102
RTVSPropertyOp23
 70
     1
102
RTVSPropertyOp24
 70
     1
102
RTVSPropertyOp25
 70
     1
102
RTVSPropertyOp26
 70
     1
102
RTVSPropertyOp27
 70
     1
102
RTVSPropertyOp28
 70
     1
102
RTVSPropertyOp29
 70
     1
102
RTVSPropertyOp30
 70
     1
102
RTVSPropertyOp31
 70
     1
102
RTVSPropertyOp32
 70
     1
102
RTVSPropertyOp33
 70
     1
102
RTVSPropertyOp34
 70
     1
102
RTVSPropertyOp35
 70
     1
102
RTVSPropertyOp36
 70
     1
102
RTVSPropertyOp37
 70
     1
102
RTVSPropertyOp38
 70
     1
102
RTVSPropertyOp39
 70
     1
102
RTVSPropertyOp40
 70
     1
102
RTVSPropertyOp41
 70
     1
102
RTVSPropertyOp42
 70
     1
102
RTVSPropertyOp43
 70
     1
102
RTVSPropertyOp44
 70
     1
102
RTVSPropertyOp45
 70
     1
102
RTVSPropertyOp46
 70
     1
102
RTVSPropertyOp47
 70
     1
102
RTVSPropertyOp48
 70
     1
102
RTVSPropertyOp49
 70
     1
102
RTVSPropertyOp50
 70
     1
102
RTVSPropertyOp51
 70
     0
102
RTVSPropertyOp52
 70
     0
102
RTVSPropertyOp53
 70
     1
102
RTVSPropertyOp54
 70
     1
102
RTVSPropertyOp55
 70
     1
102
RTVSPropertyOp56
 70
     1
102
RTVSPropertyOp57
 70
     1
102
RTVSPropertyOp58
 70
     1
102
RTVSPropertyOp59
 70
     1
102
RTVSPropertyOp60
 70
     1
102
RTVSPropertyOp61
 70
     1
102
RTVSPropertyOp62
 70
     1
  0
ENDSEC
  0
EOF
