  0
SECTION
  2
HEADER
  9
$ACADVER
  1
AC1015
  9
$ACADMAINTVER
 70
    20
  9
$DWGCODEPAGE
  3
ANSI_1252
  9
$INSBASE
 10
0.0
 20
0.0
 30
0.0
  9
$EXTMIN
 10
97.44563855645669
 20
19.75309274409466
 30
-0.0000000349181948
  9
$EXTMAX
 10
155.4680993503933
 20
40.76302101737013
 30
0.0000000814935746
  9
$LIMMIN
 10
0.0
 20
0.0
  9
$LIMMAX
 10
181.3333333333
 20
117.3333333333
  9
$ORTHOMODE
 70
     1
  9
$REGENMODE
 70
     1
  9
$FILLMODE
 70
     1
  9
$QTEXTMODE
 70
     0
  9
$MIRRTEXT
 70
     0
  9
$LTSCALE
 40
9.973333333300001
  9
$ATTMODE
 70
     1
  9
$TEXTSIZE
 40
0.2
  9
$TRACEWID
 40
0.05
  9
$TEXTSTYLE
  7
STANDARD
  9
$CLAYER
  8
0
  9
$CELTYPE
  6
BYLAYER
  9
$CECOLOR
 62
   256
  9
$CELTSCALE
 40
1.0
  9
$DISPSILH
 70
     0
  9
$DIMSCALE
 40
1.0
  9
$DIMASZ
 40
2.0
  9
$DIMEXO
 40
0.0625
  9
$DIMDLI
 40
6.890666666699999
  9
$DIMRND
 40
0.0
  9
$DIMDLE
 40
0.0
  9
$DIMEXE
 40
0.125
  9
$DIMTP
 40
0.001
  9
$DIMTM
 40
0.001
  9
$DIMTXT
 40
1.333333333299999
  9
$DIMCEN
 40
1.631999999999999
  9
$DIMTSZ
 40
0.0
  9
$DIMTOL
 70
     1
  9
$DIMLIM
 70
     0
  9
$DIMTIH
 70
     1
  9
$DIMTOH
 70
     1
  9
$DIMSE1
 70
     0
  9
$DIMSE2
 70
     0
  9
$DIMTAD
 70
     0
  9
$DIMZIN
 70
     0
  9
$DIMBLK
  1
_FILLED
  9
$DIMASO
 70
     1
  9
$DIMSHO
 70
     1
  9
$DIMPOST
  1

  9
$DIMAPOST
  1

  9
$DIMALT
 70
     1
  9
$DIMALTD
 70
     2
  9
$DIMALTF
 40
25.4
  9
$DIMLFAC
 40
1.0
  9
$DIMTOFL
 70
     0
  9
$DIMTVP
 40
0.0
  9
$DIMTIX
 70
     0
  9
$DIMSOXD
 70
     0
  9
$DIMSAH
 70
     0
  9
$DIMBLK1
  1

  9
$DIMBLK2
  1

  9
$DIMSTYLE
  2
STANDARD
  9
$DIMCLRD
 70
     0
  9
$DIMCLRE
 70
     0
  9
$DIMCLRT
 70
     0
  9
$DIMTFAC
 40
1.0
  9
$DIMGAP
 40
0.09
  9
$DIMJUST
 70
     0
  9
$DIMSD1
 70
     0
  9
$DIMSD2
 70
     0
  9
$DIMTOLJ
 70
     1
  9
$DIMTZIN
 70
     0
  9
$DIMALTZ
 70
     0
  9
$DIMALTTZ
 70
     0
  9
$DIMUPT
 70
     0
  9
$DIMDEC
 70
     4
  9
$DIMTDEC
 70
     4
  9
$DIMALTU
 70
     2
  9
$DIMALTTD
 70
     2
  9
$DIMTXSTY
  7
STANDARD
  9
$DIMAUNIT
 70
     0
  9
$DIMADEC
 70
     0
  9
$DIMALTRND
 40
0.0
  9
$DIMAZIN
 70
     0
  9
$DIMDSEP
 70
    46
  9
$DIMATFIT
 70
     3
  9
$DIMFRAC
 70
     0
  9
$DIMLDRBLK
  1

  9
$DIMLUNIT
 70
     2
  9
$DIMLWD
 70
    -2
  9
$DIMLWE
 70
    -2
  9
$DIMTMOVE
 70
     0
  9
$LUNITS
 70
     2
  9
$LUPREC
 70
     4
  9
$SKETCHINC
 40
0.1
  9
$FILLETRAD
 40
0.0
  9
$AUNITS
 70
     0
  9
$AUPREC
 70
     0
  9
$MENU
  1
.
  9
$ELEVATION
 40
0.0
  9
$PELEVATION
 40
0.0
  9
$THICKNESS
 40
0.0
  9
$LIMCHECK
 70
     0
  9
$CHAMFERA
 40
0.0
  9
$CHAMFERB
 40
0.0
  9
$CHAMFERC
 40
0.0
  9
$CHAMFERD
 40
0.0
  9
$SKPOLY
 70
     0
  9
$TDCREATE
 40
2458389.568379629
  9
$TDUCREATE
 40
2458389.735046297
  9
$TDUPDATE
 40
2458389.637372685
  9
$TDUUPDATE
 40
2458389.804039352
  9
$TDINDWG
 40
0.0013194444
  9
$TDUSRTIMER
 40
0.0013194444
  9
$USRTIMER
 70
     1
  9
$ANGBASE
 50
0.0
  9
$ANGDIR
 70
     0
  9
$PDMODE
 70
     3
  9
$PDSIZE
 40
0.03125
  9
$PLINEWID
 40
0.0
  9
$SPLFRAME
 70
     0
  9
$SPLINETYPE
 70
     6
  9
$SPLINESEGS
 70
     8
  9
$HANDSEED
  5
2736
  9
$SURFTAB1
 70
     6
  9
$SURFTAB2
 70
     6
  9
$SURFTYPE
 70
     6
  9
$SURFU
 70
     6
  9
$SURFV
 70
     6
  9
$UCSBASE
  2

  9
$UCSNAME
  2

  9
$UCSORG
 10
0.0
 20
0.0
 30
0.0
  9
$UCSXDIR
 10
1.0
 20
0.0
 30
0.0
  9
$UCSYDIR
 10
0.0
 20
1.0
 30
0.0
  9
$UCSORTHOREF
  2

  9
$UCSORTHOVIEW
 70
     0
  9
$UCSORGTOP
 10
0.0
 20
0.0
 30
0.0
  9
$UCSORGBOTTOM
 10
0.0
 20
0.0
 30
0.0
  9
$UCSORGLEFT
 10
0.0
 20
0.0
 30
0.0
  9
$UCSORGRIGHT
 10
0.0
 20
0.0
 30
0.0
  9
$UCSORGFRONT
 10
0.0
 20
0.0
 30
0.0
  9
$UCSORGBACK
 10
0.0
 20
0.0
 30
0.0
  9
$PUCSBASE
  2

  9
$PUCSNAME
  2

  9
$PUCSORG
 10
0.0
 20
0.0
 30
0.0
  9
$PUCSXDIR
 10
1.0
 20
0.0
 30
0.0
  9
$PUCSYDIR
 10
0.0
 20
1.0
 30
0.0
  9
$PUCSORTHOREF
  2

  9
$PUCSORTHOVIEW
 70
     0
  9
$PUCSORGTOP
 10
0.0
 20
0.0
 30
0.0
  9
$PUCSORGBOTTOM
 10
0.0
 20
0.0
 30
0.0
  9
$PUCSORGLEFT
 10
0.0
 20
0.0
 30
0.0
  9
$PUCSORGRIGHT
 10
0.0
 20
0.0
 30
0.0
  9
$PUCSORGFRONT
 10
0.0
 20
0.0
 30
0.0
  9
$PUCSORGBACK
 10
0.0
 20
0.0
 30
0.0
  9
$USERI1
 70
     0
  9
$USERI2
 70
     0
  9
$USERI3
 70
     0
  9
$USERI4
 70
     0
  9
$USERI5
 70
     0
  9
$USERR1
 40
0.0
  9
$USERR2
 40
0.0
  9
$USERR3
 40
0.0
  9
$USERR4
 40
0.0
  9
$USERR5
 40
0.0
  9
$WORLDVIEW
 70
     1
  9
$SHADEDGE
 70
     3
  9
$SHADEDIF
 70
    70
  9
$TILEMODE
 70
     1
  9
$MAXACTVP
 70
    64
  9
$PINSBASE
 10
0.0
 20
0.0
 30
0.0
  9
$PLIMCHECK
 70
     0
  9
$PEXTMIN
 10
1.000000000000000E+20
 20
1.000000000000000E+20
 30
1.000000000000000E+20
  9
$PEXTMAX
 10
-1.000000000000000E+20
 20
-1.000000000000000E+20
 30
-1.000000000000000E+20
  9
$PLIMMIN
 10
0.0
 20
0.0
  9
$PLIMMAX
 10
12.0
 20
9.0
  9
$UNITMODE
 70
     0
  9
$VISRETAIN
 70
     1
  9
$PLINEGEN
 70
     0
  9
$PSLTSCALE
 70
     1
  9
$TREEDEPTH
 70
  3020
  9
$CMLSTYLE
  2
Standard
  9
$CMLJUST
 70
     0
  9
$CMLSCALE
 40
1.0
  9
$PROXYGRAPHICS
 70
     1
  9
$MEASUREMENT
 70
     0
  9
$CELWEIGHT
370
    -1
  9
$ENDCAPS
280
     0
  9
$JOINSTYLE
280
     0
  9
$LWDISPLAY
290
     0
  9
$INSUNITS
 70
     1
  9
$HYPERLINKBASE
  1

  9
$STYLESHEET
  1

  9
$XEDIT
290
     1
  9
$CEPSNTYPE
380
     0
  9
$PSTYLEMODE
290
     1
  9
$FINGERPRINTGUID
  2
{B6178286-FE9E-4042-A7CD-2748ED8250BA}
  9
$VERSIONGUID
  2
{FA9E7CAB-2E6A-324C-B1F7-F00B211E6BD6}
  9
$EXTNAMES
290
     1
  9
$PSVPSCALE
 40
0.0
  9
$OLESTARTUP
290
     0
  0
ENDSEC
  0
SECTION
  2
CLASSES
  0
CLASS
  1
ACDBDICTIONARYWDFLT
  2
AcDbDictionaryWithDefault
  3
ObjectDBX Classes
 90
        0
280
     0
281
     0
  0
CLASS
  1
ACDBPLACEHOLDER
  2
AcDbPlaceHolder
  3
ObjectDBX Classes
 90
        0
280
     0
281
     0
  0
CLASS
  1
LAYOUT
  2
AcDbLayout
  3
ObjectDBX Classes
 90
        0
280
     0
281
     0
  0
CLASS
  1
MATERIAL
  2
AcDbMaterial
  3
ObjectDBX Classes
 90
     1153
280
     0
281
     0
  0
CLASS
  1
VISUALSTYLE
  2
AcDbVisualStyle
  3
ObjectDBX Classes
 90
     4095
280
     0
281
     0
  0
CLASS
  1
TABLESTYLE
  2
AcDbTableStyle
  3
ObjectDBX Classes
 90
     4095
280
     0
281
     0
  0
CLASS
  1
SCALE
  2
AcDbScale
  3
ObjectDBX Classes
 90
     1153
280
     0
281
     0
  0
CLASS
  1
MLEADERSTYLE
  2
AcDbMLeaderStyle
  3
ACDB_MLEADERSTYLE_CLASS
 90
     4095
280
     0
281
     0
  0
CLASS
  1
ACDBSECTIONVIEWSTYLE
  2
AcDbSectionViewStyle
  3
ObjectDBX Classes
 90
     1025
280
     0
281
     0
  0
CLASS
  1
ACDBDETAILVIEWSTYLE
  2
AcDbDetailViewStyle
  3
ObjectDBX Classes
 90
     1025
280
     0
281
     0
  0
CLASS
  1
CELLSTYLEMAP
  2
AcDbCellStyleMap
  3
ObjectDBX Classes
 90
     1152
280
     0
281
     0
  0
CLASS
  1
DICTIONARYVAR
  2
AcDbDictionaryVar
  3
ObjectDBX Classes
 90
        0
280
     0
281
     0
  0
ENDSEC
  0
SECTION
  2
TABLES
  0
TABLE
  2
VPORT
  5
8
102
{ACAD_XDICTIONARY
360
2591
102
}
330
0
100
AcDbSymbolTable
 70
     1
  0
VPORT
  5
1F4
330
8
100
AcDbSymbolTableRecord
100
AcDbViewportTableRecord
  2
*ACTIVE
 70
     0
 10
0.0
 20
0.0
 11
1.0
 21
1.0
 12
126.456868953425
 22
30.2580568807324
 13
0.0
 23
0.0
 14
1.0
 24
1.0
 15
0.0
 25
0.0
 16
0.0
 26
0.0
 36
1.0
 17
0.0
 27
0.0
 37
0.0
 40
29.02601750921239
 41
2.005224660397074
 42
50.0
 43
0.0
 44
0.0
 50
0.0
 51
0.0
 71
     0
 72
   100
 73
     1
 74
     1
 75
     0
 76
     0
 77
     0
 78
     0
281
     0
 65
     1
110
0.0
120
0.0
130
0.0
111
1.0
121
0.0
131
0.0
112
0.0
122
1.0
132
0.0
 79
     0
146
0.0
1001
ACAD_NAV_VCDISPLAY
1070
     3
  0
ENDTAB
  0
TABLE
  2
LTYPE
  5
5
330
0
100
AcDbSymbolTable
 70
     6
  0
LTYPE
  5
14
330
5
100
AcDbSymbolTableRecord
100
AcDbLinetypeTableRecord
  2
BYBLOCK
 70
     0
  3

 72
    65
 73
     0
 40
0.0
  0
LTYPE
  5
15
330
5
100
AcDbSymbolTableRecord
100
AcDbLinetypeTableRecord
  2
BYLAYER
 70
     0
  3

 72
    65
 73
     0
 40
0.0
  0
LTYPE
  5
16
330
5
100
AcDbSymbolTableRecord
100
AcDbLinetypeTableRecord
  2
CONTINUOUS
 70
     0
  3
Solid line
 72
    65
 73
     0
 40
0.0
  0
LTYPE
  5
1F5
330
5
100
AcDbSymbolTableRecord
100
AcDbLinetypeTableRecord
  2
CENTER
 70
     0
  3
____ _ ____ _ ____ _ ____ _ ____ _ ____ _ ____
 72
    65
 73
     4
 40
0.6
 49
0.375
 74
     0
 49
-0.075
 74
     0
 49
0.075
 74
     0
 49
-0.075
 74
     0
  0
LTYPE
  5
1F6
330
5
100
AcDbSymbolTableRecord
100
AcDbLinetypeTableRecord
  2
HIDDEN
 70
     0
  3
- - - - - - - - - - - - - - - - - - - -
 72
    65
 73
     2
 40
0.2
 49
0.1
 74
     0
 49
-0.1
 74
     0
  0
LTYPE
  5
1F7
330
5
100
AcDbSymbolTableRecord
100
AcDbLinetypeTableRecord
  2
PHANTOM
 70
     0
  3
_____ _ _ _____ _ _ _____ _ _ _____
 72
    65
 73
     6
 40
0.8
 49
0.45
 74
     0
 49
-0.05
 74
     0
 49
0.1
 74
     0
 49
-0.05
 74
     0
 49
0.1
 74
     0
 49
-0.05
 74
     0
  0
LTYPE
  5
1F8
330
5
100
AcDbSymbolTableRecord
100
AcDbLinetypeTableRecord
  2
DOT
 70
     0
  3
. . . . . . . . . . . . . . . . . . . .
 72
    65
 73
     2
 40
0.2
 49
0.1
 74
     0
 49
-0.1
 74
     0
  0
LTYPE
  5
1F9
330
5
100
AcDbSymbolTableRecord
100
AcDbLinetypeTableRecord
  2
DASHED
 70
     0
  3
- - - - - - - - - - - - - - - - - - - -
 72
    65
 73
     2
 40
0.2
 49
0.1
 74
     0
 49
-0.1
 74
     0
  0
ENDTAB
  0
TABLE
  2
LAYER
  5
2
330
0
100
AcDbSymbolTable
 70
    39
  0
LAYER
  5
10
102
{ACAD_XDICTIONARY
360
25DE
102
}
330
2
100
AcDbSymbolTableRecord
100
AcDbLayerTableRecord
  2
0
 70
     0
 62
     7
  6
CONTINUOUS
370
    -3
390
F
  0
LAYER
  5
1FA
102
{ACAD_XDICTIONARY
360
25E0
102
}
330
2
100
AcDbSymbolTableRecord
100
AcDbLayerTableRecord
  2
DEFAULT_1
 70
     0
 62
     7
  6
CENTER
370
    -3
390
F
  0
LAYER
  5
1FB
102
{ACAD_XDICTIONARY
360
25E2
102
}
330
2
100
AcDbSymbolTableRecord
100
AcDbLayerTableRecord
  2
DEFAULT_2
 70
     0
 62
     8
  6
HIDDEN
370
    -3
390
F
  0
LAYER
  5
1FC
102
{ACAD_XDICTIONARY
360
25E4
102
}
330
2
100
AcDbSymbolTableRecord
100
AcDbLayerTableRecord
  2
DEFAULT_3
 70
     0
 62
     7
  6
PHANTOM
370
    -3
390
F
  0
LAYER
  5
1FD
102
{ACAD_XDICTIONARY
360
25E6
102
}
330
2
100
AcDbSymbolTableRecord
100
AcDbLayerTableRecord
  2
0_DEFAULT
 70
     0
 62
     7
  6
CONTINUOUS
370
    -3
390
F
  0
LAYER
  5
1FE
102
{ACAD_XDICTIONARY
360
25E8
102
}
330
2
100
AcDbSymbolTableRecord
100
AcDbLayerTableRecord
  2
1_CURVES
 70
     0
 62
     7
  6
CONTINUOUS
370
    -3
390
F
  0
LAYER
  5
1FF
102
{ACAD_XDICTIONARY
360
25EA
102
}
330
2
100
AcDbSymbolTableRecord
100
AcDbLayerTableRecord
  2
1_CURVES_CHROMO_INV
 70
     0
 62
     7
  6
CONTINUOUS
370
    -3
390
F
  0
LAYER
  5
200
102
{ACAD_XDICTIONARY
360
25EC
102
}
330
2
100
AcDbSymbolTableRecord
100
AcDbLayerTableRecord
  2
1_CURVES_DOT
 70
     0
 62
     7
  6
CONTINUOUS
370
    -3
390
F
  0
LAYER
  5
201
102
{ACAD_XDICTIONARY
360
25EE
102
}
330
2
100
AcDbSymbolTableRecord
100
AcDbLayerTableRecord
  2
1_CURVES_JETS
 70
     0
 62
     7
  6
CONTINUOUS
370
    -3
390
F
  0
LAYER
  5
202
102
{ACAD_XDICTIONARY
360
25F0
102
}
330
2
100
AcDbSymbolTableRecord
100
AcDbLayerTableRecord
  2
1_CURVES_PATINS
 70
     0
 62
     7
  6
CONTINUOUS
370
    -3
390
F
  0
LAYER
  5
203
102
{ACAD_XDICTIONARY
360
25F2
102
}
330
2
100
AcDbSymbolTableRecord
100
AcDbLayerTableRecord
  2
1_CURVES_SPEC_FRONT
 70
     0
 62
     7
  6
CONTINUOUS
370
    -3
390
F
  0
LAYER
  5
204
102
{ACAD_XDICTIONARY
360
25F4
102
}
330
2
100
AcDbSymbolTableRecord
100
AcDbLayerTableRecord
  2
1_CURVES_SPEC_RIGHT
 70
     0
 62
     7
  6
CONTINUOUS
370
    -3
390
F
  0
LAYER
  5
205
102
{ACAD_XDICTIONARY
360
25F6
102
}
330
2
100
AcDbSymbolTableRecord
100
AcDbLayerTableRecord
  2
2_PLANES
 70
     0
 62
     7
  6
CONTINUOUS
370
    -3
390
F
  0
LAYER
  5
206
102
{ACAD_XDICTIONARY
360
25F8
102
}
330
2
100
AcDbSymbolTableRecord
100
AcDbLayerTableRecord
  2
2_PLANES_CHROMO_INV
 70
     0
 62
     7
  6
CONTINUOUS
370
    -3
390
F
  0
LAYER
  5
207
102
{ACAD_XDICTIONARY
360
25FA
102
}
330
2
100
AcDbSymbolTableRecord
100
AcDbLayerTableRecord
  2
2_PLANES_JETS
 70
     0
 62
     7
  6
CONTINUOUS
370
    -3
390
F
  0
LAYER
  5
208
102
{ACAD_XDICTIONARY
360
25FC
102
}
330
2
100
AcDbSymbolTableRecord
100
AcDbLayerTableRecord
  2
3_POINTS
 70
     0
 62
     7
  6
CONTINUOUS
370
    -3
390
F
  0
LAYER
  5
209
102
{ACAD_XDICTIONARY
360
25FE
102
}
330
2
100
AcDbSymbolTableRecord
100
AcDbLayerTableRecord
  2
3_POINTS_JETS
 70
     0
 62
     7
  6
CONTINUOUS
370
    -3
390
F
  0
LAYER
  5
20A
102
{ACAD_XDICTIONARY
360
2600
102
}
330
2
100
AcDbSymbolTableRecord
100
AcDbLayerTableRecord
  2
3_POINTS_SPEC
 70
     0
 62
     7
  6
CONTINUOUS
370
    -3
390
F
  0
LAYER
  5
20B
102
{ACAD_XDICTIONARY
360
2602
102
}
330
2
100
AcDbSymbolTableRecord
100
AcDbLayerTableRecord
  2
4_CSYS
 70
     0
 62
     7
  6
CONTINUOUS
370
    -3
390
F
  0
LAYER
  5
20C
102
{ACAD_XDICTIONARY
360
2604
102
}
330
2
100
AcDbSymbolTableRecord
100
AcDbLayerTableRecord
  2
5_AXIS
 70
     0
 62
     7
  6
CONTINUOUS
370
    -3
390
F
  0
LAYER
  5
20D
102
{ACAD_XDICTIONARY
360
2606
102
}
330
2
100
AcDbSymbolTableRecord
100
AcDbLayerTableRecord
  2
5_AXIS_CHROMO_INV
 70
     0
 62
     7
  6
CONTINUOUS
370
    -3
390
F
  0
LAYER
  5
20E
102
{ACAD_XDICTIONARY
360
2608
102
}
330
2
100
AcDbSymbolTableRecord
100
AcDbLayerTableRecord
  2
5_AXIS_JETS
 70
     0
 62
     7
  6
CONTINUOUS
370
    -3
390
F
  0
LAYER
  5
20F
102
{ACAD_XDICTIONARY
360
260A
102
}
330
2
100
AcDbSymbolTableRecord
100
AcDbLayerTableRecord
  2
6_SURFACES
 70
     0
 62
     7
  6
CONTINUOUS
370
    -3
390
F
  0
LAYER
  5
210
102
{ACAD_XDICTIONARY
360
260C
102
}
330
2
100
AcDbSymbolTableRecord
100
AcDbLayerTableRecord
  2
6_SURFACES_AIRE
 70
     0
 62
     7
  6
CONTINUOUS
370
    -3
390
F
  0
LAYER
  5
211
102
{ACAD_XDICTIONARY
360
260E
102
}
330
2
100
AcDbSymbolTableRecord
100
AcDbLayerTableRecord
  2
6_SURFACES_CHROMO_INV
 70
     0
 62
     7
  6
CONTINUOUS
370
    -3
390
F
  0
LAYER
  5
212
102
{ACAD_XDICTIONARY
360
2610
102
}
330
2
100
AcDbSymbolTableRecord
100
AcDbLayerTableRecord
  2
6_SURFACES_JUPE
 70
     0
 62
     7
  6
CONTINUOUS
370
    -3
390
F
  0
LAYER
  5
213
102
{ACAD_XDICTIONARY
360
2612
102
}
330
2
100
AcDbSymbolTableRecord
100
AcDbLayerTableRecord
  2
6_SURFACES_JUPE_MURAL
 70
     0
 62
     7
  6
CONTINUOUS
370
    -3
390
F
  0
LAYER
  5
214
102
{ACAD_XDICTIONARY
360
2614
102
}
330
2
100
AcDbSymbolTableRecord
100
AcDbLayerTableRecord
  2
6_SURFACES_OFFSET_FIBRE_ACRYLIQ
 70
     0
 62
     7
  6
CONTINUOUS
370
    -3
390
F
  0
LAYER
  5
215
102
{ACAD_XDICTIONARY
360
2616
102
}
330
2
100
AcDbSymbolTableRecord
100
AcDbLayerTableRecord
  2
6_SURFACES_POUR_CONDUIT
 70
     0
 62
     7
  6
CONTINUOUS
370
    -3
390
F
  0
LAYER
  5
216
102
{ACAD_XDICTIONARY
360
2618
102
}
330
2
100
AcDbSymbolTableRecord
100
AcDbLayerTableRecord
  2
6_SURFACES_POUR_HFL
 70
     0
 62
     7
  6
CONTINUOUS
370
    -3
390
F
  0
LAYER
  5
217
102
{ACAD_XDICTIONARY
360
261A
102
}
330
2
100
AcDbSymbolTableRecord
100
AcDbLayerTableRecord
  2
6_SURFACES_TOOLING
 70
     0
 62
     7
  6
CONTINUOUS
370
    -3
390
F
  0
LAYER
  5
218
102
{ACAD_XDICTIONARY
360
261C
102
}
330
2
100
AcDbSymbolTableRecord
100
AcDbLayerTableRecord
  2
6_SURFACES_TOOLING_BRIDE
 70
     0
 62
     7
  6
CONTINUOUS
370
    -3
390
F
  0
LAYER
  5
219
102
{ACAD_XDICTIONARY
360
261E
102
}
330
2
100
AcDbSymbolTableRecord
100
AcDbLayerTableRecord
  2
6_SURFACES_TOOLING_DROP-IN
 70
     0
 62
     7
  6
CONTINUOUS
370
    -3
390
F
  0
LAYER
  5
21A
102
{ACAD_XDICTIONARY
360
2620
102
}
330
2
100
AcDbSymbolTableRecord
100
AcDbLayerTableRecord
  2
6_SURFACES_TOOLING_FS
 70
     0
 62
     7
  6
CONTINUOUS
370
    -3
390
F
  0
LAYER
  5
21B
102
{ACAD_XDICTIONARY
360
2622
102
}
330
2
100
AcDbSymbolTableRecord
100
AcDbLayerTableRecord
  2
6_SURFACES_TOOLING_FS_MURAL
 70
     0
 62
     7
  6
CONTINUOUS
370
    -3
390
F
  0
LAYER
  5
21C
102
{ACAD_XDICTIONARY
360
2624
102
}
330
2
100
AcDbSymbolTableRecord
100
AcDbLayerTableRecord
  2
7_NOTES
 70
     0
 62
     7
  6
CONTINUOUS
370
    -3
390
F
  0
LAYER
  5
21D
102
{ACAD_XDICTIONARY
360
2626
102
}
330
2
100
AcDbSymbolTableRecord
100
AcDbLayerTableRecord
  2
DEGAGEMENT_SERIGRAPHIE
 70
     0
 62
     7
  6
CONTINUOUS
370
    -3
390
F
  0
LAYER
  5
21E
102
{ACAD_XDICTIONARY
360
2628
102
}
330
2
100
AcDbSymbolTableRecord
100
AcDbLayerTableRecord
  2
NONE
 70
     0
 62
     7
  6
CONTINUOUS
370
    -3
390
F
  0
LAYER
  5
21F
102
{ACAD_XDICTIONARY
360
262A
102
}
330
2
100
AcDbSymbolTableRecord
100
AcDbLayerTableRecord
  2
XSEC_DATUMS
 70
     0
 62
     7
  6
CONTINUOUS
370
    -3
390
F
  0
ENDTAB
  0
TABLE
  2
STYLE
  5
3
330
0
100
AcDbSymbolTable
 70
     2
  0
STYLE
  5
11
330
3
100
AcDbSymbolTableRecord
100
AcDbTextStyleTableRecord
  2
STANDARD
 70
     0
 40
0.0
 41
1.0
 50
0.0
 71
     0
 42
0.2
  3
trium.ttf
  4

  0
STYLE
  5
220
330
3
100
AcDbSymbolTableRecord
100
AcDbTextStyleTableRecord
  2
TEXTSTYLE_1
 70
     0
 40
0.0
 41
0.8
 50
0.0
 71
     0
 42
0.2
  3
gdt
  4

  0
ENDTAB
  0
TABLE
  2
VIEW
  5
6
330
0
100
AcDbSymbolTable
 70
     0
  0
ENDTAB
  0
TABLE
  2
UCS
  5
7
330
0
100
AcDbSymbolTable
 70
     0
  0
ENDTAB
  0
TABLE
  2
APPID
  5
9
330
0
100
AcDbSymbolTable
 70
     3
  0
APPID
  5
221
330
9
100
AcDbSymbolTableRecord
100
AcDbRegAppTableRecord
  2
ACAD
 70
     0
  0
APPID
  5
25CB
330
9
100
AcDbSymbolTableRecord
100
AcDbRegAppTableRecord
  2
ACAD_MLEADERVER
 70
     0
  0
APPID
  5
262C
330
9
100
AcDbSymbolTableRecord
100
AcDbRegAppTableRecord
  2
ACAD_NAV_VCDISPLAY
 70
     0
  0
ENDTAB
  0
TABLE
  2
DIMSTYLE
  5
A
330
0
100
AcDbSymbolTable
 70
     1
100
AcDbDimStyleTable
 71
     0
  0
DIMSTYLE
105
225
330
A
100
AcDbSymbolTableRecord
100
AcDbDimStyleTableRecord
  2
STANDARD
 70
     0
 41
2.0
 44
0.125
 47
0.001
 48
0.001
 71
     1
 78
     4
 79
     1
140
1.333333333299999
170
     1
179
     3
271
     3
272
     3
284
     4
340
11
341
224
342
224
343
224
344
224
  0
ENDTAB
  0
TABLE
  2
BLOCK_RECORD
  5
1
330
0
100
AcDbSymbolTable
 70
     1
  0
BLOCK_RECORD
  5
222
330
1
100
AcDbSymbolTableRecord
100
AcDbBlockTableRecord
  2
*Model_Space
340
253D
  0
BLOCK_RECORD
  5
223
330
1
100
AcDbSymbolTableRecord
100
AcDbBlockTableRecord
  2
*Paper_Space
340
253E
  0
BLOCK_RECORD
  5
224
330
1
100
AcDbSymbolTableRecord
100
AcDbBlockTableRecord
  2
_FILLED
340
0
  0
ENDTAB
  0
ENDSEC
  0
SECTION
  2
BLOCKS
  0
BLOCK
  5
20
330
222
100
AcDbEntity
  8
0
100
AcDbBlockBegin
  2
*Model_Space
 70
     0
 10
0.0
 20
0.0
 30
0.0
  3
*Model_Space
  1

  0
ENDBLK
  5
21
330
222
100
AcDbEntity
  8
0
100
AcDbBlockEnd
  0
BLOCK
  5
1C
330
223
100
AcDbEntity
 67
     1
  8
0
100
AcDbBlockBegin
  2
*Paper_Space
 70
     0
 10
0.0
 20
0.0
 30
0.0
  3
*Paper_Space
  1

  0
ENDBLK
  5
1D
330
223
100
AcDbEntity
 67
     1
  8
0
100
AcDbBlockEnd
  0
BLOCK
  5
226
330
224
100
AcDbEntity
  8
0
100
AcDbBlockBegin
  2
_FILLED
 70
     0
 10
0.0
 20
0.0
 30
0.0
  3
_FILLED
  1

  0
SOLID
  5
227
330
224
100
AcDbEntity
  8
0
  6
ByBlock
 62
     0
100
AcDbTrace
 10
0.0
 20
0.0
 30
0.0
 11
-1.0
 21
0.1666666667
 31
0.0
 12
-1.0
 22
-0.1666666667
 32
0.0
 13
-1.0
 23
-0.1666666667
 33
0.0
  0
ENDBLK
  5
228
330
224
100
AcDbEntity
  8
0
  6
ByBlock
 62
     0
100
AcDbBlockEnd
  0
ENDSEC
  0
SECTION
  2
ENTITIES
  0
LWPOLYLINE
  5
22D
330
222
100
AcDbEntity
  8
0
  6
Continuous
 62
     7
100
AcDbPolyline
 90
       11
 70
     0
 43
0.0
 10
155.4593788180173
 20
40.6339333023
 10
155.2824117779173
 20
38.1838159315
 10
155.0718157136173
 20
35.94153760800001
 10
154.8250661421173
 20
33.8532791747
 10
154.5432380121173
 20
31.8549183752
 10
154.2203941029173
 20
29.8830242909
 10
153.8497361345173
 20
27.8956073065
 10
153.4312920693173
 20
25.9006610977
 10
152.9674631801173
 20
23.9132518036
 10
152.4620330743173
 20
21.9481541671
 10
151.9225519136173
 20
20.0285073223
  0
LWPOLYLINE
  5
22E
330
222
100
AcDbEntity
  8
0
  6
Continuous
 62
     7
100
AcDbPolyline
 90
       10
 70
     0
 43
0.0
 10
151.9125671012173
 20
19.9990202964
 10
151.8957495397173
 20
19.9616332601
 10
151.8749514495173
 20
19.9263054789
 10
151.8504213567173
 20
19.8934590668
 10
151.8224523540173
 20
19.8634865053
 10
151.7913786047173
 20
19.8367459608
 10
151.7575714159173
 20
19.8135570469
 10
151.7214351177173
 20
19.7941971112
 10
151.6834020782173
 20
19.7788976446
 10
151.6439273978173
 20
19.7678414006
  0
LINE
  5
22F
330
222
100
AcDbEntity
  8
0
  6
Continuous
 62
     7
100
AcDbLine
 10
151.9225519136173
 20
20.0285073223
 30
0.0
 11
151.9125671012173
 21
19.9990202964
 31
0.0
  0
LINE
  5
230
330
222
100
AcDbEntity
  8
0
  6
Continuous
 62
     7
100
AcDbLine
 10
151.9225519038173
 20
20.0285072887
 30
0.0
 11
151.9224210732173
 21
20.028753201
 31
0.0
  0
LWPOLYLINE
  5
231
330
222
100
AcDbEntity
  8
0
  6
Continuous
 62
     7
100
AcDbPolyline
 90
        5
 70
     0
 43
0.0
 10
101.3327284144173
 20
19.7611644882
 10
101.2923583589173
 20
19.7678336964
 10
101.2529552440173
 20
19.7788615211
 10
101.2149881757173
 20
19.7941166687
 10
101.1789091644173
 20
19.8134175206
  0
LWPOLYLINE
  5
232
330
222
100
AcDbEntity
  8
0
  6
Continuous
 62
     7
100
AcDbPolyline
 90
        3
 70
     0
 43
0.0
 10
151.6439273978173
 20
19.7678414006
 10
151.6034833341173
 20
19.7611601853
 10
151.5626764313173
 20
19.7589333023
  0
LINE
  5
233
330
222
100
AcDbEntity
  8
0
  6
Continuous
 62
     7
100
AcDbLine
 10
101.3735746049173
 20
19.7589333023
 30
0.0
 11
101.3327284144173
 21
19.7611644882
 31
0.0
  0
LINE
  5
234
330
222
100
AcDbEntity
  8
0
  6
Continuous
 62
     7
100
AcDbLine
 10
151.5626764313173
 20
19.7589333023
 30
0.0
 11
101.3735745714173
 21
19.7589333023
 31
0.0
  0
LINE
  5
235
330
222
100
AcDbEntity
  8
5_AXIS
  6
HIDDEN
 62
     8
100
AcDbLine
 10
107.3573212284173
 20
23.1339333023
 30
0.0
 11
109.3573181877173
 21
23.1339333023
 31
0.0
  0
LINE
  5
236
330
222
100
AcDbEntity
  8
DEFAULT_2
  6
HIDDEN
 62
     8
100
AcDbLine
 10
107.0858730987173
 20
23.1339333023
 30
0.0
 11
109.6287663175173
 21
23.1339333023
 31
0.0
  0
LINE
  5
237
330
222
100
AcDbEntity
  8
0
  6
Continuous
 62
     9
100
AcDbLine
 10
126.4681255181173
 20
20.038476734
 30
0.0
 11
126.4681255181173
 21
19.7589333023
 31
0.0
  0
LINE
  5
238
330
222
100
AcDbEntity
  8
DEFAULT_2
  6
HIDDEN
 62
     8
100
AcDbLine
 10
109.8939313604173
 20
23.2437682593
 30
0.0
 11
110.2960737065173
 21
23.6459106054
 31
0.0
  0
LINE
  5
239
330
222
100
AcDbEntity
  8
0
  6
Continuous
 62
     7
100
AcDbLine
 10
97.47689772201731
 20
40.6339333023
 30
0.0
 11
155.4593788172173
 21
40.6339333023
 31
0.0
  0
LINE
  5
23A
330
222
100
AcDbEntity
  8
6_SURFACES_TOOLING_FS_MURAL
  6
Continuous
 62
     7
100
AcDbLine
 10
154.4620259122173
 20
40.7589333023
 30
0.0
 11
98.43698593831732
 21
40.7589333023
 31
0.0
  0
LINE
  5
23B
330
222
100
AcDbEntity
  8
0
  6
Continuous
 62
     7
100
AcDbLine
 10
155.3672976047173
 20
40.7589333023
 30
0.0
 11
97.5689534017173
 21
40.7589333023
 31
0.0
  0
LINE
  5
23C
330
222
100
AcDbEntity
  8
0
  6
Continuous
 62
     7
100
AcDbLine
 10
97.47518406471732
 20
40.65835285699999
 30
0.0
 11
97.4751622850173
 21
40.6583721653
 31
0.0
  0
LINE
  5
23D
330
222
100
AcDbEntity
  8
DEFAULT_2
  6
HIDDEN
 62
     8
100
AcDbLine
 10
99.8971149177173
 20
37.8504980189
 30
0.0
 11
99.91928713301732
 21
37.859010091
 31
0.0
  0
LINE
  5
23E
330
222
100
AcDbEntity
  8
DEFAULT_2
  6
HIDDEN
 62
     8
100
AcDbLine
 10
99.88591357581732
 20
37.8796715075
 30
0.0
 11
99.91508754321731
 21
37.8908716025
 31
0.0
  0
LINE
  5
23F
330
222
100
AcDbEntity
  8
DEFAULT_2
  6
HIDDEN
 62
     8
100
AcDbLine
 10
99.8635145245173
 20
37.9380198794
 30
0.0
 11
99.89268849191731
 21
37.9492199744
 31
0.0
  0
LINE
  5
240
330
222
100
AcDbEntity
  8
DEFAULT_2
  6
HIDDEN
 62
     8
100
AcDbLine
 10
99.73556735331731
 20
37.9223738085
 30
0.0
 11
99.85876564411732
 21
37.96967051420001
 31
0.0
  0
LINE
  5
241
330
222
100
AcDbEntity
  8
DEFAULT_2
  6
HIDDEN
 62
     8
100
AcDbLine
 10
99.54937466071731
 20
37.884366865
 30
0.0
 11
99.84111433471731
 21
37.9963678142
 31
0.0
  0
LINE
  5
242
330
222
100
AcDbEntity
  8
DEFAULT_2
  6
HIDDEN
 62
     8
100
AcDbLine
 10
99.5157732374173
 20
37.9718883301
 30
0.0
 11
99.8670278049173
 21
38.106737473
 31
0.0
  0
LINE
  5
243
330
222
100
AcDbEntity
  8
DEFAULT_1
  6
CENTER
 62
     7
100
AcDbLine
 10
100.8236395671173
 20
38.6748301604
 30
0.0
 11
98.45276848331732
 21
37.7646357796
 31
0.0
  0
LINE
  5
244
330
222
100
AcDbEntity
  8
DEFAULT_2
  6
HIDDEN
 62
     8
100
AcDbLine
 10
99.38137209831731
 20
38.3219759389
 30
0.0
 11
99.73262666581732
 21
38.4568250817
 31
0.0
  0
LINE
  5
245
330
222
100
AcDbEntity
  8
DEFAULT_2
  6
HIDDEN
 62
     8
100
AcDbLine
 10
99.34777295211731
 20
38.4094982781
 30
0.0
 11
99.63951262611731
 21
38.5214992274
 31
0.0
  0
LINE
  5
246
330
222
100
AcDbEntity
  8
DEFAULT_2
  6
HIDDEN
 62
     8
100
AcDbLine
 10
99.63549404771731
 20
38.5534302304
 30
0.0
 11
99.51160998641732
 21
38.5058702524
 31
0.0
  0
LINE
  5
247
330
222
100
AcDbEntity
  8
DEFAULT_2
  6
HIDDEN
 62
     8
100
AcDbLine
 10
99.61711243621731
 20
38.5798471622
 30
0.0
 11
99.64628640361731
 21
38.5910472571
 31
0.0
  0
LINE
  5
248
330
222
100
AcDbEntity
  8
DEFAULT_2
  6
HIDDEN
 62
     8
100
AcDbLine
 10
99.59471110781731
 20
38.6381946599
 30
0.0
 11
99.6238850752173
 21
38.6493947548
 31
0.0
  0
LINE
  5
249
330
222
100
AcDbEntity
  8
DEFAULT_2
  6
HIDDEN
 62
     8
100
AcDbLine
 10
99.58351090451731
 20
38.6673685856
 30
0.0
 11
99.60568311971732
 21
38.6758806578
 31
0.0
  0
LINE
  5
24A
330
222
100
AcDbEntity
  8
DEFAULT_1
  6
CENTER
 62
     7
100
AcDbLine
 10
108.3573197081173
 20
21.7621279202
 30
0.0
 11
108.3573197081173
 21
24.4983968386
 31
0.0
  0
LINE
  5
24B
330
222
100
AcDbEntity
  8
0
  6
Continuous
 62
     7
100
AcDbLine
 10
101.0136991325173
 20
20.0285072887
 30
0.0
 11
101.0138299631173
 21
20.028753201
 31
0.0
  0
LINE
  5
24C
330
222
100
AcDbEntity
  8
DEFAULT_2
  6
HIDDEN
 62
     8
100
AcDbLine
 10
106.8207080557173
 20
23.2437682593
 30
0.0
 11
106.4484517361173
 21
23.6160245789
 31
0.0
  0
LINE
  5
24D
330
222
100
AcDbEntity
  8
DEFAULT_2
  6
HIDDEN
 62
     8
100
AcDbLine
 10
102.1684076617173
 20
30.8303681054
 30
0.0
 11
102.1683415455173
 21
30.8306191235
 31
0.0
  0
LINE
  5
24E
330
222
100
AcDbEntity
  8
DEFAULT_2
  6
HIDDEN
 62
     8
100
AcDbLine
 10
101.6229786788173
 20
32.734677519
 30
0.0
 11
101.6228771399173
 21
32.73500470760001
 31
0.0
  0
LINE
  5
24F
330
222
100
AcDbEntity
  8
DEFAULT_2
  6
HIDDEN
 62
     8
100
AcDbLine
 10
101.6228771399173
 20
32.73500470760001
 30
0.0
 11
101.2533917085173
 21
33.8712633921
 31
0.0
  0
LINE
  5
250
330
222
100
AcDbEntity
  8
DEFAULT_2
  6
HIDDEN
 62
     8
100
AcDbLine
 10
101.2533917085173
 20
33.8712633921
 30
0.0
 11
101.2532597562173
 21
33.8716515665
 31
0.0
  0
LINE
  5
251
330
222
100
AcDbEntity
  8
DEFAULT_2
  6
HIDDEN
 62
     8
100
AcDbLine
 10
99.6961223747173
 20
38.63561970380001
 30
0.0
 11
99.9595486073173
 21
37.9494479906
 31
0.0
  0
LINE
  5
252
330
222
100
AcDbEntity
  8
DEFAULT_2
  6
HIDDEN
 62
     8
100
AcDbLine
 10
99.73262780431731
 20
38.4568255188
 30
0.0
 11
99.86702894341732
 21
38.1067379101
 31
0.0
  0
LINE
  5
253
330
222
100
AcDbEntity
  8
DEFAULT_2
  6
HIDDEN
 62
     8
100
AcDbLine
 10
99.66426027611731
 20
38.6314213194
 30
0.0
 11
99.93306255431733
 21
37.9312461019
 31
0.0
  0
LINE
  5
254
330
222
100
AcDbEntity
  8
DEFAULT_2
  6
HIDDEN
 62
     8
100
AcDbLine
 10
99.62388621381732
 20
38.6493951919
 30
0.0
 11
99.91508868181732
 21
37.8908720396
 31
0.0
  0
LINE
  5
255
330
222
100
AcDbEntity
  8
DEFAULT_2
  6
HIDDEN
 62
     8
100
AcDbLine
 10
99.60568447511732
 20
38.6758811781
 30
0.0
 11
99.91928713301732
 21
37.859010091
 31
0.0
  0
LINE
  5
256
330
222
100
AcDbEntity
  8
DEFAULT_2
  6
HIDDEN
 62
     8
100
AcDbLine
 10
99.8971149177173
 20
37.8504980189
 30
0.0
 11
99.5835122599173
 21
38.667369106
 31
0.0
  0
LINE
  5
257
330
222
100
AcDbEntity
  8
DEFAULT_2
  6
HIDDEN
 62
     8
100
AcDbLine
 10
100.2041716677173
 20
36.7017823747
 30
0.0
 11
99.73556735311731
 21
37.9223738085
 31
0.0
  0
LINE
  5
258
330
222
100
AcDbEntity
  8
DEFAULT_2
  6
HIDDEN
 62
     8
100
AcDbLine
 10
99.52281618721732
 20
38.4766986291
 30
0.0
 11
99.5564164720173
 21
38.3891767269
 31
0.0
  0
LINE
  5
259
330
222
100
AcDbEntity
  8
DEFAULT_2
  6
HIDDEN
 62
     8
100
AcDbLine
 10
99.4061203176173
 20
38.4318982494
 30
0.0
 11
99.43972060241732
 21
38.3443763472
 31
0.0
  0
LINE
  5
25A
330
222
100
AcDbEntity
  8
DEFAULT_2
  6
HIDDEN
 62
     8
100
AcDbLine
 10
99.34777295211731
 20
38.4094982781
 30
0.0
 11
99.54937466071731
 21
37.884366865
 31
0.0
  0
LINE
  5
25B
330
222
100
AcDbEntity
  8
0
  6
Continuous
 62
     6
100
AcDbLine
 10
97.51783733201731
 20
38.56115135559999
 30
0.0
 11
97.50473300661731
 21
38.5877540759
 31
0.0
  0
LINE
  5
25C
330
222
100
AcDbEntity
  8
0
  6
Continuous
 62
     6
100
AcDbLine
 10
97.54431298371731
 20
38.56141303
 30
0.0
 11
97.53122722291731
 21
38.5879413698
 31
0.0
  0
LINE
  5
25D
330
222
100
AcDbEntity
  8
0
  6
Continuous
 62
     7
100
AcDbLine
 10
101.1451477433173
 20
19.836534296
 30
0.0
 11
101.1141058589173
 21
19.8631917838
 31
0.0
  0
LINE
  5
25E
330
222
100
AcDbEntity
  8
0
  6
Continuous
 62
     7
100
AcDbLine
 10
101.1789091644173
 20
19.8134175206
 30
0.0
 11
101.1451477433173
 21
19.836534296
 31
0.0
  0
LINE
  5
25F
330
222
100
AcDbEntity
  8
0
  6
Continuous
 62
    40
100
AcDbLine
 10
97.51992836621731
 20
38.725122985
 30
0.0
 11
97.51698874351731
 21
38.7719500078
 31
0.0
  0
LINE
  5
260
330
222
100
AcDbEntity
  8
0
  6
Continuous
 62
    40
100
AcDbLine
 10
97.5161580864173
 20
38.7747728623
 30
0.0
 11
97.51909770901731
 21
38.7279458395
 31
0.0
  0
LINE
  5
261
330
222
100
AcDbEntity
  8
0
  6
Continuous
 62
    40
100
AcDbLine
 10
97.5185961200173
 20
38.725122985
 30
0.0
 11
97.51565649741731
 21
38.7719500078
 31
0.0
  0
LINE
  5
262
330
222
100
AcDbEntity
  8
0
  6
Continuous
 62
    40
100
AcDbLine
 10
97.51482584021729
 20
38.7747728623
 30
0.0
 11
97.51776546291731
 21
38.7279458395
 31
0.0
  0
LINE
  5
263
330
222
100
AcDbEntity
  8
0
  6
Continuous
 62
    40
100
AcDbLine
 10
97.51726387391732
 20
38.725122985
 30
0.0
 11
97.51432425121731
 21
38.7719500078
 31
0.0
  0
LINE
  5
264
330
222
100
AcDbEntity
  8
0
  6
Continuous
 62
    40
100
AcDbLine
 10
97.51349359411731
 20
38.7747728623
 30
0.0
 11
97.5164332167173
 21
38.7279458395
 31
0.0
  0
LINE
  5
265
330
222
100
AcDbEntity
  8
0
  6
Continuous
 62
     9
100
AcDbLine
 10
97.50124630181732
 20
38.6011624969
 30
0.0
 11
97.50130194991731
 21
38.6003491566
 31
0.0
  0
LINE
  5
266
330
222
100
AcDbEntity
  8
0
  6
Continuous
 62
     9
100
AcDbLine
 10
97.4790252224173
 20
38.8990640679
 30
0.0
 11
97.47896957431731
 21
38.8998774082
 31
0.0
  0
LINE
  5
267
330
222
100
AcDbEntity
  8
0
  6
Continuous
 62
     7
100
AcDbLine
 10
97.6641964138173
 20
38.0110104016
 30
0.0
 11
97.66375645031731
 21
38.0173190448
 31
0.0
  0
LINE
  5
268
330
222
100
AcDbEntity
  8
6_SURFACES
  6
Continuous
 62
     7
100
AcDbLine
 10
97.5582496094173
 20
39.5072593222
 30
0.0
 11
97.47687221831732
 21
40.6339333023
 31
0.0
  0
LINE
  5
269
330
222
100
AcDbEntity
  8
0
  6
Continuous
 62
     7
100
AcDbLine
 10
97.55484013111731
 20
38.0655292954
 30
0.0
 11
97.55294862751732
 21
38.0917015211
 31
0.0
  0
LINE
  5
26A
330
222
100
AcDbEntity
  8
0
  6
Continuous
 62
     9
100
AcDbLine
 10
97.50358794891731
 20
38.6034040256
 30
0.0
 11
97.50473305101731
 21
38.5877540286
 31
0.0
  0
LINE
  5
26B
330
222
100
AcDbEntity
  8
0
  6
Continuous
 62
    40
100
AcDbLine
 10
97.50762467491732
 20
38.6082618453
 30
0.0
 11
97.50792235591731
 21
38.6042433793
 31
0.0
  0
LINE
  5
26C
330
222
100
AcDbEntity
  8
0
  6
Continuous
 62
    40
100
AcDbLine
 10
97.50792235591731
 20
38.6042433792
 30
0.0
 11
97.5094436620173
 21
38.58364116110001
 31
0.0
  0
LINE
  5
26D
330
222
100
AcDbEntity
  8
0
  6
Continuous
 62
     9
100
AcDbLine
 10
97.4926658745173
 20
38.750298057
 30
0.0
 11
97.50358794891731
 21
38.6034040256
 31
0.0
  0
LINE
  5
26E
330
222
100
AcDbEntity
  8
0
  6
Continuous
 62
     9
100
AcDbLine
 10
97.49008797591731
 20
38.7501132824
 30
0.0
 11
97.4790252224173
 21
38.8990640679
 31
0.0
  0
LINE
  5
26F
330
222
100
AcDbEntity
  8
0
  6
Continuous
 62
     6
100
AcDbLine
 10
97.49673700651731
 20
38.6620940359
 30
0.0
 11
97.4984663002173
 21
38.6388105518
 31
0.0
  0
LINE
  5
270
330
222
100
AcDbEntity
  8
0
  6
Continuous
 62
     7
100
AcDbLine
 10
97.55294862751732
 20
38.0917015211
 30
0.0
 11
97.51792229781731
 21
38.56350379550001
 31
0.0
  0
LINE
  5
271
330
222
100
AcDbEntity
  8
0
  6
Continuous
 62
     7
100
AcDbLine
 10
97.48938557141732
 20
38.9407058455
 30
0.0
 11
97.45427898301731
 21
39.4142843677
 31
0.0
  0
LINE
  5
272
330
222
100
AcDbEntity
  8
0
  6
Continuous
 62
    40
100
AcDbLine
 10
97.4932545248173
 20
38.7078702949
 30
0.0
 11
97.48862938831731
 21
38.7703172037
 31
0.0
  0
LINE
  5
273
330
222
100
AcDbEntity
  8
0
  6
Continuous
 62
    40
100
AcDbLine
 10
97.49043499751731
 20
38.7457827324
 30
0.0
 11
97.49307301751731
 21
38.7103652754
 31
0.0
  0
LINE
  5
274
330
222
100
AcDbEntity
  8
0
  6
Continuous
 62
     9
100
AcDbLine
 10
97.49250167431732
 20
38.7190079166
 30
0.0
 11
97.49471867691731
 21
38.6892314651
 31
0.0
  0
LINE
  5
275
330
222
100
AcDbEntity
  8
0
  6
Continuous
 62
    40
100
AcDbLine
 10
97.49279308571731
 20
38.7142131879
 30
0.0
 11
97.49053312251731
 21
38.7445694248
 31
0.0
  0
LINE
  5
276
330
222
100
AcDbEntity
  8
0
  6
Continuous
 62
    40
100
AcDbLine
 10
97.49250167431732
 20
38.7190079166
 30
0.0
 11
97.49265044761731
 21
38.716173876
 31
0.0
  0
LINE
  5
277
330
222
100
AcDbEntity
  8
0
  6
Continuous
 62
    40
100
AcDbLine
 10
97.4904537273173
 20
38.7454655771
 30
0.0
 11
97.48993328331732
 21
38.7524604569
 31
0.0
  0
LINE
  5
278
330
222
100
AcDbEntity
  8
0
  6
Continuous
 62
     9
100
AcDbLine
 10
97.49471867691731
 20
38.6892314651
 30
0.0
 11
97.49612854011731
 21
38.6702751755
 31
0.0
  0
LINE
  5
279
330
222
100
AcDbEntity
  8
0
  6
Continuous
 62
     9
100
AcDbLine
 10
97.49612854011731
 20
38.6702751755
 30
0.0
 11
97.50124630181732
 21
38.6011624969
 31
0.0
  0
LINE
  5
27A
330
222
100
AcDbEntity
  8
0
  6
Continuous
 62
    40
100
AcDbLine
 10
97.48625718421731
 20
38.8021338923
 30
0.0
 11
97.49008797591731
 21
38.7501132824
 31
0.0
  0
LINE
  5
27B
330
222
100
AcDbEntity
  8
0
  6
Continuous
 62
     7
100
AcDbLine
 10
97.48994459311731
 20
38.9387488645
 30
0.0
 11
97.51792229781731
 21
38.56350379550001
 31
0.0
  0
LINE
  5
27C
330
222
100
AcDbEntity
  8
0
  6
Continuous
 62
    40
100
AcDbLine
 10
97.49250167431732
 20
38.7190079166
 30
0.0
 11
97.49283175201732
 21
38.7142131879
 31
0.0
  0
LINE
  5
27D
330
222
100
AcDbEntity
  8
0
  6
Continuous
 62
     6
100
AcDbLine
 10
97.47919160671731
 20
38.89700785570001
 30
0.0
 11
97.48984573461731
 21
38.7544674307
 31
0.0
  0
LINE
  5
27E
330
222
100
AcDbEntity
  8
0
  6
Continuous
 62
     6
100
AcDbLine
 10
97.4966592278173
 20
38.6621001061
 30
0.0
 11
97.49463086681732
 21
38.68923806780001
 31
0.0
  0
LINE
  5
27F
330
222
100
AcDbEntity
  8
0
  6
Continuous
 62
    40
100
AcDbLine
 10
97.49312560931732
 20
38.7103652754
 30
0.0
 11
97.48983336791731
 21
38.7544641795
 31
0.0
  0
LINE
  5
280
330
222
100
AcDbEntity
  8
0
  6
Continuous
 62
     7
100
AcDbLine
 10
97.51765733991732
 20
38.5615167525
 30
0.0
 11
97.5531671132173
 21
38.0879682922
 31
0.0
  0
LINE
  5
281
330
222
100
AcDbEntity
  8
0
  6
Continuous
 62
    40
100
AcDbLine
 10
97.4901835484173
 20
38.7501132824
 30
0.0
 11
97.4848128944173
 21
38.8215051249
 31
0.0
  0
LINE
  5
282
330
222
100
AcDbEntity
  8
0
  6
Continuous
 62
    40
100
AcDbLine
 10
97.48470246431731
 20
38.91550701110001
 30
0.0
 11
97.48639613691731
 21
38.8929851382
 31
0.0
  0
LINE
  5
283
330
222
100
AcDbEntity
  8
0
  6
Continuous
 62
    40
100
AcDbLine
 10
97.53721575401732
 20
38.7511075288
 30
0.0
 11
97.5372427557173
 21
38.7507518375
 31
0.0
  0
LINE
  5
284
330
222
100
AcDbEntity
  8
0
  6
Continuous
 62
     7
100
AcDbLine
 10
97.45433347281732
 20
39.4142885043
 30
0.0
 11
97.48994459311731
 21
38.9387488645
 31
0.0
  0
LINE
  5
285
330
222
100
AcDbEntity
  8
0
  6
Continuous
 62
    40
100
AcDbLine
 10
97.5285275673173
 20
38.7516070936
 30
0.0
 11
97.52855439141733
 21
38.7512545177
 31
0.0
  0
LINE
  5
286
330
222
100
AcDbEntity
  8
0
  6
Continuous
 62
    40
100
AcDbLine
 10
97.52855439141733
 20
38.7512545177
 30
0.0
 11
97.52861186391731
 21
38.7504982533
 31
0.0
  0
LINE
  5
287
330
222
100
AcDbEntity
  8
0
  6
Continuous
 62
     9
100
AcDbLine
 10
97.50123616621731
 20
38.6011643872
 30
0.0
 11
97.49008797591731
 21
38.7501132824
 31
0.0
  0
LINE
  5
288
330
222
100
AcDbEntity
  8
0
  6
Continuous
 62
    40
100
AcDbLine
 10
97.49250167431732
 20
38.7190079166
 30
0.0
 11
97.49268201831732
 21
38.716173876
 31
0.0
  0
LINE
  5
289
330
222
100
AcDbEntity
  8
0
  6
Continuous
 62
     7
100
AcDbLine
 10
97.45260596521731
 20
39.4367233646
 30
0.0
 11
97.45433347281732
 21
39.4142885043
 31
0.0
  0
LINE
  5
28A
330
222
100
AcDbEntity
  8
0
  6
Continuous
 62
     9
100
AcDbLine
 10
97.47896957431731
 20
38.8998774082
 30
0.0
 11
97.49250167431732
 21
38.7190079166
 31
0.0
  0
LINE
  5
28B
330
222
100
AcDbEntity
  8
0
  6
Continuous
 62
     9
100
AcDbLine
 10
97.48979276031731
 20
38.93745229909999
 30
0.0
 11
97.4895094312173
 21
38.9410939573
 31
0.0
  0
LINE
  5
28C
330
222
100
AcDbEntity
  8
0
  6
Continuous
 62
     9
100
AcDbLine
 10
97.4804949748173
 20
38.91284208550001
 30
0.0
 11
97.4926658745173
 21
38.750298057
 31
0.0
  0
LINE
  5
28D
330
222
100
AcDbEntity
  8
0
  6
Continuous
 62
     7
100
AcDbLine
 10
97.55266840251731
 20
39.5068562029
 30
0.0
 11
97.55342543201731
 21
39.4972005109
 31
0.0
  0
LINE
  5
28E
330
222
100
AcDbEntity
  8
0
  6
Continuous
 62
     9
100
AcDbLine
 10
97.50130194991731
 20
38.6003491566
 30
0.0
 11
97.50123616621731
 21
38.6011643872
 31
0.0
  0
LINE
  5
28F
330
222
100
AcDbEntity
  8
6_SURFACES
  6
Continuous
 62
     7
100
AcDbLine
 10
97.86443532261731
 20
35.94153760800001
 30
0.0
 11
97.66959913781731
 21
38.016015854
 31
0.0
  0
LWPOLYLINE
  5
290
330
222
100
AcDbEntity
  8
6_SURFACES
  6
Continuous
 62
     7
100
AcDbPolyline
 90
        9
 70
     0
 43
0.0
 10
101.0136991227173
 20
20.0285073223
 10
100.4742179620173
 20
21.9481541671
 10
99.96878785621731
 20
23.9132518036
 10
99.50495896701731
 20
25.9006610977
 10
99.08651490181732
 20
27.8956073065
 10
98.71585693341732
 20
29.8830242909
 10
98.39301302411731
 20
31.8549183752
 10
98.1111848942173
 20
33.8532791747
 10
97.86443532261731
 20
35.94153760800001
  0
LWPOLYLINE
  5
291
330
222
100
AcDbEntity
  8
0
  6
Continuous
 62
     7
100
AcDbPolyline
 90
        3
 70
     0
 43
0.0
 10
101.0408053421173
 20
19.9610471614
 10
101.0239502664173
 20
19.998331599
 10
101.0136991227173
 20
20.0285073223
  0
LINE
  5
292
330
222
100
AcDbEntity
  8
0
  6
Continuous
 62
     7
100
AcDbLine
 10
101.0616222293173
 20
19.925821036
 30
0.0
 11
101.0408053421173
 21
19.9610471614
 31
0.0
  0
LINE
  5
293
330
222
100
AcDbEntity
  8
0
  6
Continuous
 62
     7
100
AcDbLine
 10
101.0861530878173
 20
19.8930726133
 30
0.0
 11
101.0616222293173
 21
19.925821036
 31
0.0
  0
LINE
  5
294
330
222
100
AcDbEntity
  8
0
  6
Continuous
 62
     7
100
AcDbLine
 10
101.1141058589173
 20
19.8631917838
 30
0.0
 11
101.0861530878173
 21
19.8930726133
 31
0.0
  0
LINE
  5
295
330
222
100
AcDbEntity
  8
0
  6
Continuous
 62
     6
100
AcDbLine
 10
97.4895093882173
 20
38.941093895
 30
0.0
 11
97.48049493791732
 21
38.9128420321
 31
0.0
  0
LINE
  5
296
330
222
100
AcDbEntity
  8
0
  6
Continuous
 62
     6
100
AcDbLine
 10
97.5155065254173
 20
38.9404888012
 30
0.0
 11
97.50657972581731
 21
38.9122876984
 31
0.0
  0
ARC
  5
2365
330
222
100
AcDbEntity
  8
0
  6
Continuous
 62
     7
100
AcDbCircle
 10
151.5624271394173
 20
20.1347866599
 30
0.0
 40
0.3758533623
100
AcDbArc
 50
270.0015991633006
 51
276.3376818359994
  0
ARC
  5
2366
330
222
100
AcDbEntity
  8
DEFAULT_2
  6
HIDDEN
 62
     8
100
AcDbCircle
 10
109.6287663175173
 20
23.5089333023
 30
0.0
 40
0.375
100
AcDbArc
 50
270.0
 51
315.0000000000002
  0
ARC
  5
2367
330
222
100
AcDbEntity
  8
DEFAULT_2
  6
HIDDEN
 62
     8
100
AcDbCircle
 10
107.0858730987173
 20
23.5089333023
 30
0.0
 40
0.375
100
AcDbArc
 50
224.9999999999998
 51
270.0
  0
ARC
  5
2368
330
222
100
AcDbEntity
  8
0
  6
Continuous
 62
     7
100
AcDbCircle
 10
151.5624736537173
 20
20.1339333023
 30
0.0
 40
0.375
100
AcDbArc
 50
270.0
 51
343.7111291084002
  0
ARC
  5
2369
330
222
100
AcDbEntity
  8
DEFAULT_2
  6
HIDDEN
 62
     8
100
AcDbCircle
 10
110.3844620542173
 20
23.5575222578
 30
0.0
 40
0.125
100
AcDbArc
 50
91.37160562030066
 51
135.0000000000002
  0
ARC
  5
236A
330
222
100
AcDbEntity
  8
DEFAULT_2
  6
HIDDEN
 62
     8
100
AcDbCircle
 10
107.6606364199173
 20
53.9066889106
 30
0.0
 40
30.2818893325
100
AcDbArc
 50
264.7573201217998
 51
267.5485980537999
  0
ARC
  5
236B
330
222
100
AcDbEntity
  8
0
  6
Continuous
 62
     7
100
AcDbCircle
 10
121.9761083582173
 20
40.6082695575
 30
0.0
 40
24.5339372947
100
AcDbArc
 50
184.3440320397
 51
184.7250639548
  0
ARC
  5
236C
330
222
100
AcDbEntity
  8
0
  6
Continuous
 62
     7
100
AcDbCircle
 10
121.9671030993173
 20
40.6083780531
 30
0.0
 40
24.52496612
100
AcDbArc
 50
183.9661163374
 51
184.3434543048001
  0
ARC
  5
236D
330
222
100
AcDbEntity
  8
0
  6
Continuous
 62
     7
100
AcDbCircle
 10
155.3672975654173
 20
40.6649333023
 30
0.0
 40
0.094
100
AcDbArc
 50
355.985740299
 51
90.0
  0
ARC
  5
236E
330
222
100
AcDbEntity
  8
DEFAULT_2
  6
HIDDEN
 62
     8
100
AcDbCircle
 10
57.72782372671731
 20
19.1320395353
 30
0.0
 40
45.9545034614
100
AcDbArc
 50
14.74803189390014
 51
17.21764843360006
  0
ARC
  5
236F
330
222
100
AcDbEntity
  8
0
  6
Continuous
 62
     7
100
AcDbCircle
 10
101.3738238873173
 20
20.134786264
 30
0.0
 40
0.3758529665
100
AcDbArc
 50
263.6592777933997
 51
269.9984022952006
  0
ARC
  5
2370
330
222
100
AcDbEntity
  8
0
  6
Continuous
 62
     7
100
AcDbCircle
 10
101.3737773826173
 20
20.1339333023
 30
0.0
 40
0.375
100
AcDbArc
 50
196.2888708915998
 51
270.0
  0
ARC
  5
2371
330
222
100
AcDbEntity
  8
0
  6
Continuous
 62
     7
100
AcDbCircle
 10
101.3735746049173
 20
20.1339333023
 30
0.0
 40
0.375
100
AcDbArc
 50
196.3280132501001
 51
233.2459782561997
  0
ARC
  5
2372
330
222
100
AcDbEntity
  8
DEFAULT_2
  6
HIDDEN
 62
     8
100
AcDbCircle
 10
106.3600633884173
 20
23.5276362313
 30
0.0
 40
0.125
100
AcDbArc
 50
45.0000000011997
 51
87.54958135439926
  0
ARC
  5
2373
330
222
100
AcDbEntity
  8
DEFAULT_2
  6
HIDDEN
 62
     8
100
AcDbCircle
 10
99.63077133231731
 20
38.6105309708
 30
0.0
 40
0.07
100
AcDbArc
 50
21.00215343999975
 51
111.0021534400005
  0
ARC
  5
2374
330
222
100
AcDbEntity
  8
DEFAULT_2
  6
HIDDEN
 62
     8
100
AcDbCircle
 10
99.89419892031731
 20
37.924359778
 30
0.0
 40
0.07
100
AcDbArc
 50
291.0021534400005
 51
21.00215343999975
  0
ARC
  5
2375
330
222
100
AcDbEntity
  8
DEFAULT_2
  6
HIDDEN
 62
     8
100
AcDbCircle
 10
99.6350863087173
 20
38.6202212245
 30
0.0
 40
0.03125
100
AcDbArc
 50
291.0021534400005
 51
111.0021534400005
  0
ARC
  5
2376
330
222
100
AcDbEntity
  8
DEFAULT_2
  6
HIDDEN
 62
     8
100
AcDbCircle
 10
99.9038885869173
 20
37.920046007
 30
0.0
 40
0.03125
100
AcDbArc
 50
291.0021534400005
 51
111.0021534400005
  0
ARC
  5
2377
330
222
100
AcDbEntity
  8
DEFAULT_2
  6
HIDDEN
 62
     8
100
AcDbCircle
 10
99.87777989601731
 20
38.0787304643
 30
0.0
 40
0.03
100
AcDbArc
 50
21.00215343999975
 51
111.0021534400005
  0
ARC
  5
2378
330
222
100
AcDbEntity
  8
DEFAULT_2
  6
HIDDEN
 62
     8
100
AcDbCircle
 10
99.72187457471731
 20
38.4848320904
 30
0.0
 40
0.03
100
AcDbArc
 50
291.0021534400005
 51
21.00215343999975
  0
ARC
  5
2379
330
222
100
AcDbEntity
  8
0
  6
Continuous
 62
     9
100
AcDbCircle
 10
97.12868770591732
 20
38.8812479306
 30
0.0
 40
0.3954412394
100
AcDbArc
 50
7.778029026600019
 51
8.607743458000097
  0
ARC
  5
237A
330
222
100
AcDbEntity
  8
0
  6
Continuous
 62
     9
100
AcDbCircle
 10
97.19398418581732
 20
38.5618559592
 30
0.0
 40
0.3544408529
100
AcDbArc
 50
0.03977423140001
 51
0.912577100900012
  0
ARC
  5
237B
330
222
100
AcDbEntity
  8
0
  6
Continuous
 62
     9
100
AcDbCircle
 10
97.30160335891731
 20
38.9072519463
 30
0.0
 40
0.2205813508
100
AcDbArc
 50
8.651640297500007
 51
9.627441018699872
  0
ARC
  5
237C
330
222
100
AcDbEntity
  8
0
  6
Continuous
 62
     7
100
AcDbCircle
 10
97.71596069461731
 20
38.1976964133
 30
0.0
 40
0.188178917
100
AcDbArc
 50
224.5202790421999
 51
262.5840159003003
  0
ARC
  5
237D
330
222
100
AcDbEntity
  8
0
  6
Continuous
 62
     7
100
AcDbCircle
 10
97.6886107282173
 20
38.1969129903
 30
0.0
 40
0.1875
100
AcDbArc
 50
224.4842409285003
 51
262.5183172250995
  0
ARC
  5
237E
330
222
100
AcDbEntity
  8
0
  6
Continuous
 62
     9
100
AcDbCircle
 10
97.67013060461732
 20
38.9411958434
 30
0.0
 40
0.1539791721
100
AcDbArc
 50
178.8900818343
 51
179.0551696479
  0
ARC
  5
237F
330
222
100
AcDbEntity
  8
0
  6
Continuous
 62
     9
100
AcDbCircle
 10
97.69499506731731
 20
38.5836917845
 30
0.0
 40
0.1516730952
100
AcDbArc
 50
189.6165693058999
 51
189.8770205121
  0
ARC
  5
2380
330
222
100
AcDbEntity
  8
0
  6
Continuous
 62
     9
100
AcDbCircle
 10
97.3735752336173
 20
38.9192618766
 30
0.0
 40
0.1476147018
100
AcDbArc
 50
9.703463770999951
 51
9.896672888400008
  0
ARC
  5
2381
330
222
100
AcDbEntity
  8
0
  6
Continuous
 62
     9
100
AcDbCircle
 10
97.41010817941731
 20
38.5607593334
 30
0.0
 40
0.1383084864
100
AcDbArc
 50
358.6390339386
 51
358.8857942902001
  0
ARC
  5
2382
330
222
100
AcDbEntity
  8
0
  6
Continuous
 62
     9
100
AcDbCircle
 10
97.3910609952173
 20
38.9223158564
 30
0.0
 40
0.1298642472
100
AcDbArc
 50
9.895250720699863
 51
10.28053345150012
  0
ARC
  5
2383
330
222
100
AcDbEntity
  8
0
  6
Continuous
 62
     9
100
AcDbCircle
 10
97.66908623621731
 20
38.5791566204
 30
0.0
 40
0.1253703139
100
AcDbArc
 50
189.9672878416001
 51
190.285915519
  0
ARC
  5
2384
330
222
100
AcDbEntity
  8
0
  6
Continuous
 62
     9
100
AcDbCircle
 10
97.63996557551731
 20
38.9418336156
 30
0.0
 40
0.123807415
100
AcDbArc
 50
178.3074642052
 51
178.8590008631
  0
ARC
  5
2385
330
222
100
AcDbEntity
  8
0
  6
Continuous
 62
     9
100
AcDbCircle
 10
97.42842365921731
 20
38.5603201134
 30
0.0
 40
0.1199877415
100
AcDbArc
 50
358.305727829
 51
358.6409837327
  0
ARC
  5
2386
330
222
100
AcDbEntity
  8
0
  6
Continuous
 62
     6
100
AcDbCircle
 10
97.51312425291731
 20
38.9024309084
 30
0.0
 40
0.03425
100
AcDbArc
 50
162.3034325921
 51
184.2639976126
  0
ARC
  5
2387
330
222
100
AcDbEntity
  8
0
  6
Continuous
 62
     6
100
AcDbCircle
 10
97.5354576634173
 20
38.6028887764
 30
0.0
 40
0.03425
100
AcDbArc
 50
184.2639976126
 51
206.2245626330003
  0
ARC
  5
2388
330
222
100
AcDbEntity
  8
DEFAULT_2
  6
HIDDEN
 62
     8
100
AcDbCircle
 10
98.43698593831732
 20
40.2589333023
 30
0.0
 40
0.375
100
AcDbArc
 50
21.00032284969985
 51
90.0
  0
ARC
  5
2389
330
222
100
AcDbEntity
  8
0
  6
Continuous
 62
     7
100
AcDbCircle
 10
97.6302219695173
 20
39.3259665693
 30
0.0
 40
0.1881788746
100
AcDbArc
 50
106.1072388099994
 51
144.1709849277999
  0
ARC
  5
238A
330
222
100
AcDbEntity
  8
0
  6
Continuous
 62
     7
100
AcDbCircle
 10
97.6043807653173
 20
39.3266295047
 30
0.0
 40
0.1875
100
AcDbArc
 50
106.0096779999995
 51
144.0437542966998
  0
ARC
  5
238B
330
222
100
AcDbEntity
  8
0
  6
Continuous
 62
     7
100
AcDbCircle
 10
97.56895345061732
 20
40.6649333023
 30
0.0
 40
0.094
100
AcDbArc
 50
90.0
 51
184.0142592987001
  0
SPLINE
  5
23C3
330
222
100
AcDbEntity
  8
DEFAULT_2
  6
HIDDEN
 62
     8
100
AcDbSpline
210
0.0
220
0.0
230
1.0
 70
     8
 71
     3
 72
    15
 73
    11
 74
     0
 42
0.0000001
 43
0.0000000001
 40
0.0
 40
0.0
 40
0.0
 40
0.0
 40
0.1250287725
 40
0.2500485564
 40
0.3750650807
 40
0.5000731487
 40
0.6250702655
 40
0.7500565195000001
 40
0.8750343764
 40
1.0
 40
1.0
 40
1.0
 40
1.0
 10
153.5503781027173
 20
40.4326635416
 30
0.0
 10
153.2326285775173
 20
39.8059561568
 30
0.0
 10
152.5973300041173
 20
38.5524963678
 30
0.0
 10
151.6449854797173
 20
36.6720498693
 30
0.0
 10
150.6931487351173
 20
34.7914767316
 30
0.0
 10
149.7414375673173
 20
32.9109828216
 30
0.0
 10
148.7896704129173
 20
31.0307079085
 30
0.0
 10
147.8376999314173
 20
29.1507262371
 30
0.0
 10
146.8856944245173
 20
27.270960719
 30
0.0
 10
146.2512603464173
 20
26.0177249666
 30
0.0
 10
145.9342540704173
 20
25.3910389879
 30
0.0
  0
SPLINE
  5
23C4
330
222
100
AcDbEntity
  8
DEFAULT_2
  6
HIDDEN
 62
     8
100
AcDbSpline
210
0.0
220
0.0
230
1.0
 70
     8
 71
     3
 72
    17
 73
    13
 74
     0
 42
0.0000001
 43
0.0000000001
 40
0.0
 40
0.0
 40
0.0
 40
0.0
 40
0.0591498732
 40
0.1200675385
 40
0.2453449115
 40
0.3730556470000001
 40
0.5014863346000001
 40
0.6296738888000001
 40
0.7567066434000001
 40
0.8810124538
 40
0.9413921026999998
 40
1.0
 40
1.0
 40
1.0
 40
1.0
 10
145.9342563972173
 20
25.3910388928
 30
0.0
 10
145.9183067157173
 20
25.3603240389
 30
0.0
 10
145.8858627071173
 20
25.2980048602
 30
0.0
 10
145.8160526636173
 20
25.1725573526
 30
0.0
 10
145.7141307178173
 20
25.0190951194
 30
0.0
 10
145.5625578764173
 20
24.8538109435
 30
0.0
 10
145.3825249207173
 20
24.716946727
 30
0.0
 10
145.1806973198173
 20
24.6157836372
 30
0.0
 10
144.9664939736173
 20
24.5531407986
 30
0.0
 10
144.7849905200173
 20
24.5300989971
 30
0.0
 10
144.6427796670173
 20
24.5235027073
 30
0.0
 10
144.5731640242173
 20
24.5222467504
 30
0.0
 10
144.5388769222173
 20
24.5216640107
 30
0.0
  0
SPLINE
  5
23C5
330
222
100
AcDbEntity
  8
DEFAULT_2
  6
HIDDEN
 62
     8
100
AcDbSpline
210
0.0
220
0.0
230
1.0
 70
     8
 71
     3
 72
    50
 73
    46
 74
     0
 42
0.0000001
 43
0.0000000001
 40
0.0
 40
0.0
 40
0.0
 40
0.0
 40
0.000209015
 40
0.0006834414
 40
0.0014495855
 40
0.0025119412
 40
0.0055290559
 40
0.009733124
 40
0.0151156372
 40
0.0216649934
 40
0.0293651113
 40
0.0381985493
 40
0.0481435379
 40
0.0591765634
 40
0.0843980469
 40
0.1136209436
 40
0.1465640464
 40
0.1829104649
 40
0.2223103469
 40
0.2643844032
 40
0.3087276867
 40
0.4024961391
 40
0.5000120862
 40
0.5975275343000001
 40
0.6912946905
 40
0.7356372636000001
 40
0.7777107184000001
 40
0.8171101621
 40
0.8534563460999999
 40
0.8863994229000001
 40
0.915622444
 40
0.9408441779
 40
0.9518773256000001
 40
0.9618223540999998
 40
0.9706557633
 40
0.9783557318999999
 40
0.9849047435999999
 40
0.9902866353
 40
0.9944896262999998
 40
0.9961462320999999
 40
0.9975049928
 40
0.9985658486
 40
0.9993297593000001
 40
0.9998003427
 40
1.0
 40
1.0
 40
1.0
 40
1.0
 10
99.5187866602173
 20
38.5086254289
 30
0.0
 10
99.51882732621731
 20
38.5086410408
 30
0.0
 10
99.51896373301732
 20
38.5085229381
 30
0.0
 10
99.5191221948173
 20
38.5082990044
 30
0.0
 10
99.51938283851731
 20
38.5078780491
 30
0.0
 10
99.51985928531732
 20
38.506997377
 30
0.0
 10
99.52062451981731
 20
38.5054422236
 30
0.0
 10
99.52172579931731
 20
38.5030609207
 30
0.0
 10
99.52309496561731
 20
38.4999880386
 30
0.0
 10
99.52472450611731
 20
38.496235587
 30
0.0
 10
99.5266111357173
 20
38.4918101917
 30
0.0
 10
99.52874940801731
 20
38.4867230889
 30
0.0
 10
99.53113410801732
 20
38.4809860952
 30
0.0
 10
99.53480093401729
 20
38.472083468
 30
0.0
 10
99.53994565931731
 20
38.459444577
 30
0.0
 10
99.54674690551732
 20
38.44255019190001
 30
0.0
 10
99.55435551111731
 20
38.4234816202
 30
0.0
 10
99.56269674581731
 20
38.40242192570001
 30
0.0
 10
99.57168888481731
 20
38.3795733421
 30
0.0
 10
99.5812442423173
 20
38.3551554646
 30
0.0
 10
99.59486739281731
 20
38.3201621293
 30
0.0
 10
99.61257003221732
 20
38.27435798
 30
0.0
 10
99.6341068825173
 20
38.2181558103
 30
0.0
 10
99.65549108261733
 20
38.1618956747
 30
0.0
 10
99.67281424371732
 20
38.1159472367
 30
0.0
 10
99.68598398261732
 20
38.0807813351
 30
0.0
 10
99.69514206371732
 20
38.0562120893
 30
0.0
 10
99.70367953801732
 20
38.0331900432
 30
0.0
 10
99.71151549791731
 20
38.0119373296
 30
0.0
 10
99.71857584451731
 20
37.9926590692
 30
0.0
 10
99.72479376111731
 20
37.9755413258
 30
0.0
 10
99.7294100044173
 20
37.9626998934
 30
0.0
 10
99.73263443111731
 20
37.9536275609
 30
0.0
 10
99.73469844801732
 20
37.9477675464
 30
0.0
 10
99.7365134838173
 20
37.942556324
 30
0.0
 10
99.73807527851732
 20
37.9380064614
 30
0.0
 10
99.73938051341733
 20
37.9341288955
 30
0.0
 10
99.74042608851732
 20
37.9309335892
 30
0.0
 10
99.74112703421731
 20
37.9286970325
 30
0.0
 10
99.7415509904173
 20
37.9272550568
 30
0.0
 10
99.74177700851733
 20
37.926433089
 30
0.0
 10
99.74193703021731
 20
37.92579695100001
 30
0.0
 10
99.74203404091731
 20
37.9253103503
 30
0.0
 10
99.74206842491732
 20
37.9250458742
 30
0.0
 10
99.7420579569173
 20
37.9248655977
 30
0.0
 10
99.74201911161731
 20
37.9248506847
 30
0.0
  0
SPLINE
  5
23C6
330
222
100
AcDbEntity
  8
DEFAULT_2
  6
HIDDEN
 62
     8
100
AcDbSpline
210
0.0
220
0.0
230
1.0
 70
     8
 71
     3
 72
    14
 73
    10
 74
     0
 42
0.0000001
 43
0.0000000001
 40
0.0
 40
0.0
 40
0.0
 40
0.0
 40
0.2503626108
 40
0.3754452034
 40
0.5004618787
 40
0.6254159998
 40
0.7503177588
 40
0.8751762006999999
 40
1.0
 40
1.0
 40
1.0
 40
1.0
 10
103.4521135268173
 20
25.0350397966
 30
0.0
 10
103.3500912740173
 20
25.5198550818
 30
0.0
 10
103.2012202774173
 20
26.2477477218
 30
0.0
 10
103.0015477332173
 20
27.2177554861
 30
0.0
 10
102.8489780099173
 20
27.9440878078
 30
0.0
 10
102.6914816487173
 20
28.6690065412
 30
0.0
 10
102.5268365978173
 20
29.3920215157
 30
0.0
 10
102.3534718785173
 20
30.1127336511
 30
0.0
 10
102.2313216332173
 20
30.5915053089
 30
0.0
 10
102.1684076617173
 20
30.8303681054
 30
0.0
  0
LINE
  5
23C7
330
222
100
AcDbEntity
  8
DEFAULT_2
  6
HIDDEN
 62
     8
100
AcDbLine
 10
99.51160998641732
 20
38.5058702525
 30
0.0
 11
98.78707784101731
 21
40.393323256
 31
0.0
  0
LINE
  5
23C8
330
222
100
AcDbEntity
  8
DEFAULT_2
  6
HIDDEN
 62
     8
100
AcDbLine
 10
110.3814793512173
 20
23.6825024156
 30
0.0
 11
145.0621312263173
 21
24.5149186752
 31
0.0
  0
SPLINE
  5
23C9
330
222
100
AcDbEntity
  8
DEFAULT_2
  6
HIDDEN
 62
     8
100
AcDbSpline
210
0.0
220
0.0
230
1.0
 70
     8
 71
     3
 72
    19
 73
    15
 74
     0
 42
0.0000001
 43
0.0000000001
 40
0.0
 40
0.0
 40
0.0
 40
0.0
 40
0.0589432407
 40
0.1196875216
 40
0.181753816
 40
0.2447118384
 40
0.37204429
 40
0.5001055751
 40
0.6280796909000001
 40
0.7552236662000001
 40
0.8181051732
 40
0.8801388881000001
 40
0.9409231315999999
 40
1.0
 40
1.0
 40
1.0
 40
1.0
 10
103.4521135265173
 20
25.035039798
 30
0.0
 10
103.4606635261173
 20
24.9944097485
 30
0.0
 10
103.4781838886173
 20
24.9119380284
 30
0.0
 10
103.5091825667173
 20
24.7876655827
 30
0.0
 10
103.5490076371173
 20
24.6628845965
 30
0.0
 10
103.6162894664173
 20
24.4981698081
 30
0.0
 10
103.7303545211173
 20
24.3032135594
 30
0.0
 10
103.9135533112173
 20
24.1020532037
 30
0.0
 10
104.1349624837173
 20
23.9442090082
 30
0.0
 10
104.3415691091173
 20
23.8536904248
 30
0.0
 10
104.5126545230173
 20
23.8056163791
 30
0.0
 10
104.6410797761173
 20
23.7801206043
 30
0.0
 10
104.7681530618173
 20
23.7633044654
 30
0.0
 10
104.8522075550173
 20
23.7552869835
 30
0.0
 10
104.8936471452173
 20
23.7514805395
 30
0.0
  0
SPLINE
  5
23CA
330
222
100
AcDbEntity
  8
DEFAULT_2
  6
HIDDEN
 62
     8
100
AcDbSpline
210
0.0
220
0.0
230
1.0
 70
     8
 71
     3
 72
    15
 73
    11
 74
     0
 42
0.0000001
 43
0.0000000001
 40
0.0
 40
0.0
 40
0.0
 40
0.0
 40
0.2497246018
 40
0.3745832231
 40
0.4994606960000001
 40
0.6244297797999999
 40
0.7495776289000001
 40
0.8121880784
 40
0.8747958495
 40
1.0
 40
1.0
 40
1.0
 40
1.0
 10
101.2532597562173
 20
33.8716515665
 30
0.0
 10
101.1723899173173
 20
34.1095491959
 30
0.0
 10
101.0481327041173
 20
34.4653985008
 30
0.0
 10
100.8765839585173
 20
34.9377620694
 30
0.0
 10
100.7449635823173
 20
35.2910657737
 30
0.0
 10
100.6106339004173
 20
35.6436566819
 30
0.0
 10
100.4976699633173
 20
35.9373393693
 30
0.0
 10
100.4072241981173
 20
36.1724554073
 30
0.0
 10
100.3169298800173
 20
36.4076903304
 30
0.0
 10
100.2492989195173
 20
36.5841457146
 30
0.0
 10
100.2041780712173
 20
36.7017656822
 30
0.0
  0
SPLINE
  5
23CB
330
222
100
AcDbEntity
  8
DEFAULT_2
  6
HIDDEN
 62
     8
100
AcDbSpline
210
0.0
220
0.0
230
1.0
 70
     8
 71
     3
 72
    50
 73
    46
 74
     0
 42
0.0000001
 43
0.0000000001
 40
0.0
 40
0.0
 40
0.0
 40
0.0
 40
0.0001997323
 40
0.00067035
 40
0.0014342829
 40
0.0024951553
 40
0.0038539294
 40
0.0055105462
 40
0.0097135542
 40
0.0150954585
 40
0.0216444788
 40
0.0293444531
 40
0.0381778655
 40
0.0481228947
 40
0.0591560413
 40
0.0843777677
 40
0.113600776
 40
0.146543836
 40
0.1828899997
 40
0.2222894203
 40
0.2643628497
 40
0.3087053948
 40
0.4024724821000001
 40
0.4999878378
 40
0.5975036744
 40
0.6912720106
 40
0.7356152392000001
 40
0.7776892463
 40
0.8170890870999999
 40
0.8534354747
 40
0.8863785593000001
 40
0.9156014521999999
 40
0.9408229480999999
 40
0.9518559867
 40
0.961800992
 40
0.9706344515000001
 40
0.9783345955999999
 40
0.9848839826999999
 40
0.9902665329000001
 40
0.9944706447999999
 40
0.9974878134999999
 40
0.9985502029
 40
0.9993163884999999
 40
0.9997908734000001
 40
1.0
 40
1.0
 40
1.0
 40
1.0
 10
99.85876564421731
 20
37.9696705143
 30
0.0
 10
99.8588045041173
 20
37.9696854329
 30
0.0
 10
99.8588150726173
 20
37.969865701
 30
0.0
 10
99.8587807158173
 20
37.9701302452
 30
0.0
 10
99.8586837983173
 20
37.97061685900001
 30
0.0
 10
99.85852384791732
 20
37.9712530374
 30
0.0
 10
99.85829791911731
 20
37.9720750356
 30
0.0
 10
99.85787409391733
 20
37.9735170627
 30
0.0
 10
99.85717332051731
 20
37.975753684
 30
0.0
 10
99.85612795341731
 20
37.9789490714
 30
0.0
 10
99.85482293921732
 20
37.9828267224
 30
0.0
 10
99.8532613723173
 20
37.987376673
 30
0.0
 10
99.85144656701731
 20
37.9925879846
 30
0.0
 10
99.84938277741731
 20
37.9984480874
 30
0.0
 10
99.84615865631731
 20
38.0075205385
 30
0.0
 10
99.84154274471732
 20
38.0203621024
 30
0.0
 10
99.8353250995173
 20
38.0374799586
 30
0.0
 10
99.82826486081732
 20
38.0567582728
 30
0.0
 10
99.82042879531732
 20
38.078010962
 30
0.0
 10
99.8118909573173
 20
38.1010328882
 30
0.0
 10
99.80273221931732
 20
38.1256019045
 30
0.0
 10
99.78956115751731
 20
38.1607673297
 30
0.0
 10
99.7722355198173
 20
38.2067148533
 30
0.0
 10
99.75084720241731
 20
38.2629734383
 30
0.0
 10
99.72930533061731
 20
38.3191736872
 30
0.0
 10
99.71159802891731
 20
38.36497603260001
 30
0.0
 10
99.6979710802173
 20
38.3999678861
 30
0.0
 10
99.68841298221732
 20
38.424384691
 30
0.0
 10
99.67941820831731
 20
38.4472322407
 30
0.0
 10
99.67107448851731
 20
38.4682909586
 30
0.0
 10
99.66346358431731
 20
38.48735862650001
 30
0.0
 10
99.65666025531731
 20
38.5042521935
 30
0.0
 10
99.65151393021731
 20
38.51689045510001
 30
0.0
 10
99.64784594411732
 20
38.525792626
 30
0.0
 10
99.64546047851731
 20
38.5315293206
 30
0.0
 10
99.64332150751731
 20
38.5366161513
 30
0.0
 10
99.64143424751732
 20
38.5410413014
 30
0.0
 10
99.63980414601731
 20
38.5447935367
 30
0.0
 10
99.63843448991731
 20
38.54786622800001
 30
0.0
 10
99.63733279141731
 20
38.55024737820001
 30
0.0
 10
99.63656724721731
 20
38.5518023989
 30
0.0
 10
99.63609057881731
 20
38.5526830023
 30
0.0
 10
99.63582980821731
 20
38.5531038822
 30
0.0
 10
99.6356712312173
 20
38.5533278444
 30
0.0
 10
99.63553473541731
 20
38.5534458507
 30
0.0
 10
99.63549404771731
 20
38.5534302304
 30
0.0
  0
SPLINE
  5
23CC
330
222
100
AcDbEntity
  8
DEFAULT_2
  6
HIDDEN
 62
     8
100
AcDbSpline
210
0.0
220
0.0
230
1.0
 70
     8
 71
     3
 72
    15
 73
    11
 74
     0
 42
0.0000001
 43
0.0000000001
 40
0.0
 40
0.0
 40
0.0
 40
0.0
 40
0.1249656983
 40
0.2499436228
 40
0.3749298163000001
 40
0.4999268224000001
 40
0.6249348411
 40
0.7499514437000001
 40
0.8749712526999999
 40
1.0
 40
1.0
 40
1.0
 40
1.0
 10
145.9342527350173
 20
25.39103889030001
 30
0.0
 10
146.2512593754173
 20
26.0177251955
 30
0.0
 10
146.8856949160173
 20
27.2709611855
 30
0.0
 10
147.8377021346173
 20
29.1507264745
 30
0.0
 10
148.7896718362173
 20
31.0307080117
 30
0.0
 10
149.7414354464173
 20
32.9109834525
 30
0.0
 10
150.6931459230173
 20
34.7914773197
 30
0.0
 10
151.6449867792173
 20
36.6720488391
 30
0.0
 10
152.5973302541173
 20
38.5524964838
 30
0.0
 10
153.2326282428173
 20
39.8059566509
 30
0.0
 10
153.5503782142173
 20
40.4326636914
 30
0.0
  0
SPLINE
  5
23CD
330
222
100
AcDbEntity
  8
DEFAULT_2
  6
HIDDEN
 62
     8
100
AcDbSpline
210
0.0
220
0.0
230
1.0
 70
     8
 71
     3
 72
    15
 73
    11
 74
     0
 42
0.0000001
 43
0.0000000001
 40
0.0
 40
0.0
 40
0.0
 40
0.0
 40
0.1253968636
 40
0.2506686341
 40
0.3758139089
 40
0.5008328853
 40
0.6257374803
 40
0.7505480722
 40
0.8752896508999999
 40
1.0
 40
1.0
 40
1.0
 40
1.0
 10
153.5503717430173
 20
40.4326637703
 30
0.0
 10
153.5581865549173
 20
40.44772654259999
 30
0.0
 10
153.5758735619173
 20
40.4768164914
 30
0.0
 10
153.6080313208173
 20
40.5164085709
 30
0.0
 10
153.6452304875173
 20
40.55124630259999
 30
0.0
 10
153.6867787108173
 20
40.5806733024
 30
0.0
 10
153.7319073448173
 20
40.6041476251
 30
0.0
 10
153.7797842492173
 20
40.621232544
 30
0.0
 10
153.8295108698173
 20
40.63161235099999
 30
0.0
 10
153.8633137072173
 20
40.63393335119999
 30
0.0
 10
153.8801901415173
 20
40.63393335119999
 30
0.0
  0
LINE
  5
23CE
330
222
100
AcDbEntity
  8
0
  6
Continuous
 62
    40
100
AcDbLine
 10
97.49237166651731
 20
38.7202377756
 30
0.0
 11
97.49095669701731
 21
38.7391039351
 31
0.0
  0
LINE
  5
23CF
330
222
100
AcDbEntity
  8
0
  6
Continuous
 62
    40
100
AcDbLine
 10
97.48405268121731
 20
38.9239922268
 30
0.0
 11
97.48470246421732
 21
38.9155070118
 31
0.0
  0
LINE
  5
23D0
330
222
100
AcDbEntity
  8
0
  6
Continuous
 62
    40
100
AcDbLine
 10
97.48639613691731
 20
38.8929851382
 30
0.0
 11
97.49703415221731
 21
38.7506234891
 31
0.0
  0
LINE
  5
23D1
330
222
100
AcDbEntity
  8
0
  6
Continuous
 62
    40
100
AcDbLine
 10
97.49703415201731
 20
38.75062349170001
 30
0.0
 11
97.50762467501731
 21
38.6082618438
 31
0.0
  0
LINE
  5
23D2
330
222
100
AcDbEntity
  8
0
  6
Continuous
 62
    40
100
AcDbLine
 10
97.5094436620173
 20
38.583641161
 30
0.0
 11
97.50990490551732
 21
38.5772547502
 31
0.0
  0
SPLINE
  5
23D3
330
222
100
AcDbEntity
  8
0
  6
Continuous
 62
     7
100
AcDbSpline
210
0.0
220
0.0
230
1.0
 70
     8
 71
     3
 72
    29
 73
    25
 74
     0
 42
0.0000001
 43
0.0000000001
 40
0.0
 40
0.0
 40
0.0
 40
0.0
 40
0.1912247249
 40
0.2846039456
 40
0.375340701
 40
0.462599101
 40
0.5455748855
 40
0.6235036262
 40
0.6956676017
 40
0.7614025990000001
 40
0.8201041984999999
 40
0.8712336825999999
 40
0.8938101407999999
 40
0.9143238796999998
 40
0.9327292545999998
 40
0.9489845167
 40
0.9630549313999999
 40
0.9749105380999999
 40
0.9845300952
 40
0.9919011171999999
 40
0.9947453334999998
 40
0.9970332575
 40
0.9987756213999999
 40
1.0
 40
1.0
 40
1.0
 40
1.0
 10
97.51197362931732
 20
38.750979964
 30
0.0
 10
97.50866019161732
 20
38.7946138019
 30
0.0
 10
97.5038916491173
 20
38.8595675508
 30
0.0
 10
97.4979427509173
 20
38.94525354280001
 30
0.0
 10
97.49381327701732
 20
39.007216925
 30
0.0
 10
97.4900183321173
 20
39.0668163613
 30
0.0
 10
97.48659271721731
 20
39.1235021391
 30
0.0
 10
97.48356760031731
 20
39.176751317
 30
0.0
 10
97.48097035231729
 20
39.2260726992
 30
0.0
 10
97.47882384691731
 20
39.2710113531
 30
0.0
 10
97.47714701741731
 20
39.3111527753
 30
0.0
 10
97.47611157181731
 20
39.34143541440001
 30
0.0
 10
97.47554907491732
 20
39.3629892211
 30
0.0
 10
97.47527064581731
 20
39.3770590995
 30
0.0
 10
97.47511766511731
 20
39.3896843022
 30
0.0
 10
97.4750899948173
 20
39.4008360302
 30
0.0
 10
97.47518697821732
 20
39.4104884514
 30
0.0
 10
97.47540581431731
 20
39.4186204814
 30
0.0
 10
97.47574575381731
 20
39.4252130627
 30
0.0
 10
97.47614547371732
 20
39.4297374671
 30
0.0
 10
97.47655790241731
 20
39.4325690816
 30
0.0
 10
97.47686778601732
 20
39.434113695
 30
0.0
 10
97.4772028605173
 20
39.43526783780001
 30
0.0
 10
97.47748744951731
 20
39.4358941168
 30
0.0
 10
97.47765153141731
 20
39.4361212298
 30
0.0
  0
LINE
  5
23D4
330
222
100
AcDbEntity
  8
0
  6
Continuous
 62
     7
100
AcDbLine
 10
97.51197362931732
 20
38.750979964
 30
0.0
 11
97.51205570981731
 21
38.7498993672
 31
0.0
  0
SPLINE
  5
23D5
330
222
100
AcDbEntity
  8
0
  6
Continuous
 62
     7
100
AcDbSpline
210
0.0
220
0.0
230
1.0
 70
     8
 71
     3
 72
    29
 73
    25
 74
     0
 42
0.0000001
 43
0.0000000001
 40
0.0
 40
0.0
 40
0.0
 40
0.0
 40
0.1911022697
 40
0.2844485392
 40
0.3751680547
 40
0.4624224692000001
 40
0.5454049676000001
 40
0.6233486116
 40
0.6955332385
 40
0.7612923116000001
 40
0.8200192437999998
 40
0.8711733452
 40
0.8937612934
 40
0.9142856981999999
 40
0.9327007449999999
 40
0.9489645387999999
 40
0.9630421627
 40
0.9749035925000001
 40
0.9845273901
 40
0.9919010806999999
 40
0.9947459804999999
 40
0.997034099
 40
0.9987762564
 40
1.0
 40
1.0
 40
1.0
 40
1.0
 10
97.51205570981731
 20
38.7498993672
 30
0.0
 10
97.51537702181732
 20
38.7061861155
 30
0.0
 10
97.52048421701731
 20
38.6411328297
 30
0.0
 10
97.52756080201731
 20
38.5553598751
 30
0.0
 10
97.53285044991731
 20
38.4933435638
 30
0.0
 10
97.53811442271731
 20
38.433711425
 30
0.0
 10
97.54330381491731
 20
38.3770151918
 30
0.0
 10
97.54837016971732
 20
38.3237795137
 30
0.0
 10
97.55326607391731
 20
38.2744969527
 30
0.0
 10
97.55794515141731
 20
38.2296233754
 30
0.0
 10
97.56236324751732
 20
38.1895738793
 30
0.0
 10
97.56592374211731
 20
38.15939405530001
 30
0.0
 10
97.56863082041732
 20
38.1379391376
 30
0.0
 10
97.57048588211731
 20
38.123946947
 30
0.0
 10
97.57224640101732
 20
38.1114060396
 30
0.0
 10
97.57390786121732
 20
38.1003450442
 30
0.0
 10
97.57546569811731
 20
38.0907895484
 30
0.0
 10
97.5769139137173
 20
38.0827601162
 30
0.0
 10
97.57824889321732
 20
38.07627557510001
 30
0.0
 10
97.5793298321173
 20
38.0718507288
 30
0.0
 10
97.5801669994173
 20
38.0691062144
 30
0.0
 10
97.58070770501731
 20
38.0676222175
 30
0.0
 10
97.58121418311731
 20
38.0665292663
 30
0.0
 10
97.5815907898173
 20
38.0659517916
 30
0.0
 10
97.58178768571731
 20
38.0657516894
 30
0.0
  0
SPLINE
  5
23D6
330
222
100
AcDbEntity
  8
0
  6
Continuous
 62
     7
100
AcDbSpline
210
0.0
220
0.0
230
1.0
 70
     8
 71
     3
 72
    33
 73
    29
 74
     0
 42
0.0000001
 43
0.0000000001
 40
0.0
 40
0.0
 40
0.0
 40
0.0
 40
0.0003269532
 40
0.0006903809
 40
0.0011409298
 40
0.0017063018
 40
0.0032297376
 40
0.0053144821
 40
0.0079778013
 40
0.0112270153
 40
0.0150649485
 40
0.0194918301
 40
0.0245068379
 40
0.0301084869
 40
0.0430604073
 40
0.0583211728
 40
0.0758566645
 40
0.1175837361
 40
0.1678477949
 40
0.2261677997
 40
0.2919828585
 40
0.3646585662
 40
0.4434935697000001
 40
0.5277265564000001
 40
0.6165438257
 40
0.7090869279000001
 40
0.8044621132999999
 40
1.0
 40
1.0
 40
1.0
 40
1.0
 10
97.6916721365173
 20
38.0110926724
 30
0.0
 10
97.69175317031731
 20
38.0110821453
 30
0.0
 10
97.69193225731731
 20
38.0111009215
 30
0.0
 10
97.69217868571731
 20
38.0112575092
 30
0.0
 10
97.6924045894173
 20
38.01152165739999
 30
0.0
 10
97.69272240141731
 20
38.0120735763
 30
0.0
 10
97.6930689423173
 20
38.0130639577
 30
0.0
 10
97.69342859141731
 20
38.014589782
 30
0.0
 10
97.69375654011732
 20
38.0165629429
 30
0.0
 10
97.69405269721731
 20
38.0189820774
 30
0.0
 10
97.69431491831731
 20
38.0218481801
 30
0.0
 10
97.69454267611731
 20
38.025159536
 30
0.0
 10
97.69473536351732
 20
38.0289145495
 30
0.0
 10
97.69495551371731
 20
38.0348010168
 30
0.0
 10
97.69512466251731
 20
38.0432510414
 30
0.0
 10
97.69517907261731
 20
38.05468491820001
 30
0.0
 10
97.69505229041731
 20
38.0733102582
 30
0.0
 10
97.6944884937173
 20
38.1006792902
 30
0.0
 10
97.6932910807173
 20
38.1382275546
 30
0.0
 10
97.69153845731731
 20
38.18177988889999
 30
0.0
 10
97.68924606751731
 20
38.2309151489
 30
0.0
 10
97.68643352551732
 20
38.2851582077
 30
0.0
 10
97.68312702791732
 20
38.3439843822
 30
0.0
 10
97.67935772831732
 20
38.4068246628
 30
0.0
 10
97.6751615705173
 20
38.473071136
 30
0.0
 10
97.6705788625173
 20
38.54208312300001
 30
0.0
 10
97.66395656421732
 20
38.6376904383
 30
0.0
 10
97.65863731261731
 20
38.7102032748
 30
0.0
 10
97.65493688371732
 20
38.7589333023
 30
0.0
  0
SPLINE
  5
23D7
330
222
100
AcDbEntity
  8
0
  6
Continuous
 62
     7
100
AcDbSpline
210
0.0
220
0.0
230
1.0
 70
     8
 71
     3
 72
    32
 73
    28
 74
     0
 42
0.0000001
 43
0.0000000001
 40
0.0
 40
0.0
 40
0.0
 40
0.0
 40
0.0007174255
 40
0.0012144992
 40
0.0018328871
 40
0.0034696071
 40
0.0056689479
 40
0.0084449071
 40
0.011803546
 40
0.0157471801
 40
0.0202756745
 40
0.0310820398
 40
0.0442060338
 40
0.059619956
 40
0.0772900987
 40
0.0971752807
 40
0.1192294503
 40
0.1696301415
 40
0.228013343
 40
0.2938214518
 40
0.3664245585
 40
0.4451269107
 40
0.5291737927
 40
0.6177589688000001
 40
0.7100322882
 40
0.8051085468
 40
1.0
 40
1.0
 40
1.0
 40
1.0
 10
97.5806809598173
 20
38.0878919116
 30
0.0
 10
97.58083946051732
 20
38.0879039608
 30
0.0
 10
97.58108589851731
 20
38.0880762615
 30
0.0
 10
97.5813151222173
 20
38.0884069978
 30
0.0
 10
97.58159178851732
 20
38.0889544613
 30
0.0
 10
97.58189064121731
 20
38.0898982796
 30
0.0
 10
97.5822037594173
 20
38.09133029130001
 30
0.0
 10
97.58248747311732
 20
38.0931557997
 30
0.0
 10
97.58274323831731
 20
38.0953744321
 30
0.0
 10
97.58296886441732
 20
38.0979863051
 30
0.0
 10
97.5832454366173
 20
38.1022490537
 30
0.0
 10
97.58349239631732
 20
38.1085506586
 30
0.0
 10
97.58365373651731
 20
38.1172668924
 30
0.0
 10
97.58369015841731
 20
38.1275053357
 30
0.0
 10
97.5836009374173
 20
38.1392414202
 30
0.0
 10
97.58338542611731
 20
38.1524473128
 30
0.0
 10
97.58290746651731
 20
38.1729013914
 30
0.0
 10
97.58197155361731
 20
38.2018762535
 30
0.0
 10
97.58040767511731
 20
38.2405287808
 30
0.0
 10
97.57836804091731
 20
38.2840845013
 30
0.0
 10
97.57587128081731
 20
38.3321250954
 30
0.0
 10
97.57294011551731
 20
38.3841891662
 30
0.0
 10
97.5696021037173
 20
38.4397766276
 30
0.0
 10
97.56588882441731
 20
38.4983535095
 30
0.0
 10
97.56183571411732
 20
38.5593572173
 30
0.0
 10
97.5559814540173
 20
38.6438468193
 30
0.0
 10
97.55128056751731
 20
38.7079223629
 30
0.0
 10
97.5480108877173
 20
38.750979964
 30
0.0
  0
SPLINE
  5
23D8
330
222
100
AcDbEntity
  8
0
  6
Continuous
 62
     7
100
AcDbSpline
210
0.0
220
0.0
230
1.0
 70
     8
 71
     3
 72
    33
 73
    29
 74
     0
 42
0.0000001
 43
0.0000000001
 40
0.0
 40
0.0
 40
0.0
 40
0.0
 40
0.0003264782
 40
0.000689632
 40
0.0011401865
 40
0.0017058197
 40
0.0032304911
 40
0.0053173322
 40
0.0079834806
 40
0.0112361679
 40
0.0150782723
 40
0.0195099909
 40
0.0245304254
 40
0.0301380573
 40
0.0431037171
 40
0.0583802029
 40
0.0759332902
 40
0.1176998139
 40
0.1680069715
 40
0.2263707993
 40
0.2922270744
 40
0.3649377145
 40
0.4437974124000001
 40
0.5280406986
 40
0.6168495882000001
 40
0.7093613034999999
 40
0.8046778107999999
 40
1.0
 40
1.0
 40
1.0
 40
1.0
 10
97.57801465031731
 20
39.50675725030001
 30
0.0
 10
97.57809336641731
 20
39.5067799563
 30
0.0
 10
97.57827380761732
 20
39.5067883468
 30
0.0
 10
97.5785417862173
 20
39.5066699351
 30
0.0
 10
97.5788056979173
 20
39.5064416225
 30
0.0
 10
97.57920441961731
 20
39.5059412221
 30
0.0
 10
97.57969806081732
 20
39.505009537
 30
0.0
 10
97.5802859288173
 20
39.50354780940001
 30
0.0
 10
97.58091023871731
 20
39.5016367922
 30
0.0
 10
97.5815707037173
 20
39.49927784150001
 30
0.0
 10
97.58226531721732
 20
39.4964696449
 30
0.0
 10
97.58299330661731
 20
39.4932138333
 30
0.0
 10
97.5837538264173
 20
39.4895119297
 30
0.0
 10
97.58486484511731
 20
39.4836964202
 30
0.0
 10
97.58631409301731
 20
39.475326212
 30
0.0
 10
97.58810215751731
 20
39.4639741732
 30
0.0
 10
97.5908011721173
 20
39.4454505115
 30
0.0
 10
97.5943928725173
 20
39.41817544780001
 30
0.0
 10
97.59889984581731
 20
39.3806946527
 30
0.0
 10
97.60376637411731
 20
39.337170084
 30
0.0
 10
97.60894366211731
 20
39.2880245491
 30
0.0
 10
97.61437886081731
 20
39.23373533
 30
0.0
 10
97.6200181263173
 20
39.1748301007
 30
0.0
 10
97.62580581001731
 20
39.1118814357
 30
0.0
 10
97.63168511931731
 20
39.0455013438
 30
0.0
 10
97.63759863251731
 20
38.9763350491
 30
0.0
 10
97.64551599811731
 20
38.8805148389
 30
0.0
 10
97.65122560711731
 20
38.807806181
 30
0.0
 10
97.65493688371732
 20
38.7589333023
 30
0.0
  0
SPLINE
  5
23D9
330
222
100
AcDbEntity
  8
0
  6
Continuous
 62
     7
100
AcDbSpline
210
0.0
220
0.0
230
1.0
 70
     8
 71
     3
 72
    32
 73
    28
 74
     0
 42
0.0000001
 43
0.0000000001
 40
0.0
 40
0.0
 40
0.0
 40
0.0
 40
0.0007168423
 40
0.0012138878
 40
0.0018324145
 40
0.0034699443
 40
0.0056707549
 40
0.0084487464
 40
0.0118099012
 40
0.0157565942
 40
0.0202886886
 40
0.0311036051
 40
0.0442379765
 40
0.0596638414
 40
0.077347412
 40
0.0972471867
 40
0.1193169997
 40
0.1697508585
 40
0.2281678814
 40
0.2940078794
 40
0.3666380921
 40
0.4453597022000001
 40
0.5294147696
 40
0.6179937397
 40
0.7102430895000001
 40
0.8052743403
 40
1.0
 40
1.0
 40
1.0
 40
1.0
 10
97.47990306791731
 20
39.4140680163
 30
0.0
 10
97.48006193841732
 20
39.4140800937
 30
0.0
 10
97.48033223111731
 20
39.4139463314
 30
0.0
 10
97.4806092863173
 20
39.4136529342
 30
0.0
 10
97.4809663327173
 20
39.4131515207
 30
0.0
 10
97.48140535441731
 20
39.4122601251
 30
0.0
 10
97.48193251611731
 20
39.4108863809
 30
0.0
 10
97.48249018641731
 20
39.4091176383
 30
0.0
 10
97.4830797697173
 20
39.4069544993
 30
0.0
 10
97.48369908701731
 20
39.40439651070001
 30
0.0
 10
97.48461905341731
 20
39.4002078063
 30
0.0
 10
97.48581867601732
 20
39.3939911914
 30
0.0
 10
97.4872993832173
 20
39.38536532150001
 30
0.0
 10
97.48888701911731
 20
39.37520998530001
 30
0.0
 10
97.49057710171731
 20
39.3635495727
 30
0.0
 10
97.4923647778173
 20
39.3504116999
 30
0.0
 10
97.49499068871731
 20
39.330042088
 30
0.0
 10
97.4984538923173
 20
39.30114929070001
 30
0.0
 10
97.50276106751732
 20
39.2625610016
 30
0.0
 10
97.50733934641731
 20
39.21903978280001
 30
0.0
 10
97.51214362891731
 20
39.1710051559
 30
0.0
 10
97.51712634131731
 20
39.1189201238
 30
0.0
 10
97.52223884091732
 20
39.0632868926
 30
0.0
 10
97.52743133901731
 20
39.00464194739999
 30
0.0
 10
97.5326535411173
 20
38.9435507552
 30
0.0
 10
97.53964508461731
 20
38.8589324482
 30
0.0
 10
97.54468781891731
 20
38.7947269898
 30
0.0
 10
97.5479660260173
 20
38.7515706434
 30
0.0
  0
LINE
  5
23DA
330
222
100
AcDbEntity
  8
0
  6
Continuous
 62
     7
100
AcDbLine
 10
97.5479660260173
 20
38.7515706434
 30
0.0
 11
97.5480108877173
 21
38.750979964
 31
0.0
  0
SPLINE
  5
23DB
330
222
100
AcDbEntity
  8
0
  6
Continuous
 62
     7
100
AcDbSpline
210
0.0
220
0.0
230
1.0
 70
     8
 71
     3
 72
    29
 73
    25
 74
     0
 42
0.0000001
 43
0.0000000001
 40
0.0
 40
0.0
 40
0.0
 40
0.0
 40
0.2065974474
 40
0.3048098884
 40
0.3987288094
 40
0.4877129070000001
 40
0.5711547327000001
 40
0.6484850111
 40
0.7191765656
 40
0.7827480613
 40
0.8387675698
 40
0.8868560409
 40
0.9266909954
 40
0.9434292668999999
 40
0.9580121204000001
 40
0.9704173404
 40
0.9806300825
 40
0.9849119906
 40
0.9886439854999998
 40
0.9918279509999999
 40
0.9944681263999999
 40
0.9965729136
 40
0.9981604027999999
 40
1.0
 40
1.0
 40
1.0
 40
1.0
 10
97.50087112161731
 20
38.9120714767
 30
0.0
 10
97.49847747111729
 20
38.946639235
 30
0.0
 10
97.49506066731731
 20
38.997647932
 30
0.0
 10
97.49085488991731
 20
39.064390427
 30
0.0
 10
97.48802274221731
 20
39.1114540593
 30
0.0
 10
97.48547817121732
 20
39.1560529777
 30
0.0
 10
97.4832383548173
 20
39.19788227290001
 30
0.0
 10
97.48131822581731
 20
39.2366559736
 30
0.0
 10
97.4797303052173
 20
39.2721090349
 30
0.0
 10
97.47848473681731
 20
39.3039991184
 30
0.0
 10
97.47758817981731
 20
39.3321083792
 30
0.0
 10
97.4770457982173
 20
39.3562447569
 30
0.0
 10
97.47687635001732
 20
39.373798742
 30
0.0
 10
97.47694888921731
 20
39.38573306889999
 30
0.0
 10
97.47708952341731
 20
39.3930657923
 30
0.0
 10
97.4773184458173
 20
39.3993012982
 30
0.0
 10
97.4775931557173
 20
39.4038052853
 30
0.0
 10
97.47787102661732
 20
39.40685011
 30
0.0
 10
97.47808819341731
 20
39.408715237
 30
0.0
 10
97.47832788031731
 20
39.41030229760001
 30
0.0
 10
97.47858345601732
 20
39.4116024299
 30
0.0
 10
97.47887009511732
 20
39.4126419743
 30
0.0
 10
97.47918653381731
 20
39.4134705206
 30
0.0
 10
97.47959541831731
 20
39.4140446288
 30
0.0
 10
97.47990306791731
 20
39.4140680163
 30
0.0
  0
LINE
  5
23DC
330
222
100
AcDbEntity
  8
0
  6
Continuous
 62
     7
100
AcDbLine
 10
97.51257314011731
 20
38.750979964
 30
0.0
 11
97.51265172661732
 21
38.7499453623
 31
0.0
  0
SPLINE
  5
23DD
330
222
100
AcDbEntity
  8
0
  6
Continuous
 62
     7
100
AcDbSpline
210
0.0
220
0.0
230
1.0
 70
     8
 71
     3
 72
    29
 73
    25
 74
     0
 42
0.0000001
 43
0.0000000001
 40
0.0
 40
0.0
 40
0.0
 40
0.0
 40
0.2065973886
 40
0.3048099033
 40
0.3987289401
 40
0.4877131951
 40
0.5711551749
 40
0.6484855856000001
 40
0.7191772412999999
 40
0.7827488031000001
 40
0.8387683423
 40
0.8868568118
 40
0.9266917378
 40
0.9434299638
 40
0.9580127884999999
 40
0.9704178752
 40
0.9806305871999999
 40
0.9849124139
 40
0.9886443098
 40
0.9918282356
 40
0.9944683854
 40
0.9965731168999999
 40
0.9981604912999999
 40
1.0
 40
1.0
 40
1.0
 40
1.0
 10
97.52555093551732
 20
38.5872992712
 30
0.0
 10
97.52840833071729
 20
38.5527662896
 30
0.0
 10
97.53273873261731
 20
38.5018263168
 30
0.0
 10
97.53866677101733
 20
38.4352137624
 30
0.0
 10
97.5429789806173
 20
38.3882618989
 30
0.0
 10
97.5472030219173
 20
38.343789923
 30
0.0
 10
97.55130980101732
 20
38.3021018533
 30
0.0
 10
97.55527086431731
 20
38.26348265
 30
0.0
 10
97.55905853701731
 20
38.2281962151
 30
0.0
 10
97.56264622631732
 20
38.1964836429
 30
0.0
 10
97.56600759501731
 20
38.1685612859
 30
0.0
 10
97.56911872701731
 20
38.14461978110001
 30
0.0
 10
97.57160383261732
 20
38.12724153860001
 30
0.0
 10
97.5734789596173
 20
38.1154550722
 30
0.0
 10
97.57472603191731
 20
38.1082277367
 30
0.0
 10
97.57589459461732
 20
38.1020983764
 30
0.0
 10
97.57684674501732
 20
38.0976875987
 30
0.0
 10
97.57758153721731
 20
38.0947197224
 30
0.0
 10
97.5780780576173
 20
38.0929088428
 30
0.0
 10
97.57855481341731
 20
38.09137623170001
 30
0.0
 10
97.57900391861731
 20
38.0901296518
 30
0.0
 10
97.5794443464173
 20
38.0891453764
 30
0.0
 10
97.57988236681732
 20
38.0883741996
 30
0.0
 10
97.5803733208173
 20
38.0878685249
 30
0.0
 10
97.5806809598173
 20
38.0878919116
 30
0.0
  0
LINE
  5
23DE
330
222
100
AcDbEntity
  8
0
  6
Continuous
 62
     7
100
AcDbLine
 10
97.50600112471731
 20
38.9103411873
 30
0.0
 11
97.50593329971732
 21
38.9113196691
 31
0.0
  0
LINE
  5
23DF
330
222
100
AcDbEntity
  8
0
  6
Continuous
 62
     7
100
AcDbLine
 10
97.50593329971732
 20
38.9113196691
 30
0.0
 11
97.50585723061732
 21
38.9124178101
 31
0.0
  0
SPLINE
  5
23E0
330
222
100
AcDbEntity
  8
0
  6
Continuous
 62
     7
100
AcDbSpline
210
0.0
220
0.0
230
1.0
 70
     8
 71
     3
 72
    19
 73
    15
 74
     0
 42
0.0000001
 43
0.0000000001
 40
0.0
 40
0.0
 40
0.0
 40
0.0
 40
0.1877333581
 40
0.3642435355
 40
0.5256943032
 40
0.6685778735
 40
0.7897930458
 40
0.841435107
 40
0.8867169374999999
 40
0.9253959003
 40
0.9572681577999999
 40
0.9821721286
 40
0.9919745970999999
 40
1.0
 40
1.0
 40
1.0
 40
1.0
 10
97.50585723061732
 20
38.9124178101
 30
0.0
 10
97.50371371871731
 20
38.9433725665
 30
0.0
 10
97.49967638851732
 20
39.003440041
 30
0.0
 10
97.4942435542173
 20
39.0901579724
 30
0.0
 10
97.48969012201731
 20
39.1695026856
 30
0.0
 10
97.4861128342173
 20
39.239747688
 30
0.0
 10
97.4838927030173
 20
39.2918876947
 30
0.0
 10
97.48270932341732
 20
39.327922972
 30
0.0
 10
97.48215374351731
 20
39.350329001
 30
0.0
 10
97.48187990371732
 20
39.3694727569
 30
0.0
 10
97.4818891486173
 20
39.3852501265
 30
0.0
 10
97.48213317961731
 20
39.39625388159999
 30
0.0
 10
97.4825128944173
 20
39.4033069374
 30
0.0
 10
97.48275619841731
 20
39.4062443447
 30
0.0
 10
97.48289868411731
 20
39.4075631217
 30
0.0
  0
LINE
  5
23E1
330
222
100
AcDbEntity
  8
0
  6
Continuous
 62
     7
100
AcDbLine
 10
97.5303605134173
 20
38.5897855378
 30
0.0
 11
97.5304414973173
 21
38.5888059627
 31
0.0
  0
LINE
  5
23E2
330
222
100
AcDbEntity
  8
0
  6
Continuous
 62
     7
100
AcDbLine
 10
97.5304414973173
 20
38.5888059627
 30
0.0
 11
97.5305321727173
 21
38.5877097668
 31
0.0
  0
SPLINE
  5
23E3
330
222
100
AcDbEntity
  8
0
  6
Continuous
 62
     7
100
AcDbSpline
210
0.0
220
0.0
230
1.0
 70
     8
 71
     3
 72
    19
 73
    15
 74
     0
 42
0.0000001
 43
0.0000000001
 40
0.0
 40
0.0
 40
0.0
 40
0.0
 40
0.1877976704
 40
0.36436145
 40
0.5258501603
 40
0.6687520721000001
 40
0.7899624864
 40
0.8415927910999998
 40
0.8868563901999999
 40
0.9255104114999999
 40
0.9573509887
 40
0.9822166704
 40
0.9919976725999999
 40
1.0
 40
1.0
 40
1.0
 40
1.0
 10
97.5305321727173
 20
38.5877097668
 30
0.0
 10
97.53309201551731
 20
38.55677232260001
 30
0.0
 10
97.53818012791731
 20
38.4967580426
 30
0.0
 10
97.54591707721731
 20
38.41017911210001
 30
0.0
 10
97.55340878761732
 20
38.3310300937
 30
0.0
 10
97.5604897576173
 20
38.26103451690001
 30
0.0
 10
97.56617569041731
 20
38.2091514497
 30
0.0
 10
97.57045220521732
 20
38.1733527755
 30
0.0
 10
97.57328901561731
 20
38.151126605
 30
0.0
 10
97.57591105871732
 20
38.1321714989
 30
0.0
 10
97.57830392491731
 20
38.1165906328
 30
0.0
 10
97.5802074761173
 20
38.1057640423
 30
0.0
 10
97.58164828901731
 20
38.0988624217
 30
0.0
 10
97.58233247621731
 20
38.0960026669
 30
0.0
 10
97.58267256801731
 20
38.0947243395
 30
0.0
  0
SPLINE
  5
23E4
330
222
100
AcDbEntity
  8
0
  6
Continuous
 62
     7
100
AcDbSpline
210
0.0
220
0.0
230
1.0
 70
     8
 71
     3
 72
    35
 73
    31
 74
     0
 42
0.0000001
 43
0.0000000001
 40
0.0
 40
0.0
 40
0.0
 40
0.0
 40
0.0008151864
 40
0.0011471572
 40
0.0015130938
 40
0.0019673636
 40
0.0025396208
 40
0.0040890801
 40
0.0062183415
 40
0.0089455589
 40
0.0122776363
 40
0.0162172141
 40
0.0207649887
 40
0.0259200277
 40
0.0380422854
 40
0.052561077
 40
0.0694431426
 40
0.0886492992
 40
0.1101324362
 40
0.1338405657
 40
0.159714752
 40
0.1876913105
 40
0.2177005812
 40
0.2835140311
 40
0.3564999554999999
 40
0.4359307439000001
 40
0.5210139444
 40
0.6109004221000001
 40
0.8014544087
 40
1.0
 40
1.0
 40
1.0
 40
1.0
 10
97.58178768571731
 20
38.0657516894
 30
0.0
 10
97.58191878381731
 20
38.0656184564
 30
0.0
 10
97.58214886121731
 20
38.065437627
 30
0.0
 10
97.58250945771731
 20
38.065461027
 30
0.0
 10
97.58274094571731
 20
38.0656029188
 30
0.0
 10
97.58295168061732
 20
38.0658462116
 30
0.0
 10
97.58324843971731
 20
38.0663595014
 30
0.0
 10
97.5835708942173
 20
38.0672855566
 30
0.0
 10
97.5839050849173
 20
38.0687160512
 30
0.0
 10
97.58420914231731
 20
38.0705702762
 30
0.0
 10
97.58448321721731
 20
38.07284676270001
 30
0.0
 10
97.5847251603173
 20
38.0755464277
 30
0.0
 10
97.58493448141731
 20
38.0786676919
 30
0.0
 10
97.5851825248173
 20
38.08366607489999
 30
0.0
 10
97.58538953651729
 20
38.0909544631
 30
0.0
 10
97.5854951957173
 20
38.1009337419
 30
0.0
 10
97.58546590011732
 20
38.1125378017
 30
0.0
 10
97.58530107991731
 20
38.1257376327
 30
0.0
 10
97.58500036501731
 20
38.1405005628
 30
0.0
 10
97.58456405581732
 20
38.1567896102
 30
0.0
 10
97.5839929890173
 20
38.1745642037
 30
0.0
 10
97.58328840501732
 20
38.1937798479
 30
0.0
 10
97.58213693601732
 20
38.2221428306
 30
0.0
 10
97.58036349011732
 20
38.26080906820001
 30
0.0
 10
97.57780162871732
 20
38.3107822387
 30
0.0
 10
97.57476874241731
 20
38.365154906
 30
0.0
 10
97.5712947052173
 20
38.42338369610001
 30
0.0
 10
97.56601570111731
 20
38.5070293712
 30
0.0
 10
97.5585803204173
 20
38.6166061266
 30
0.0
 10
97.55205752751731
 20
38.7055855781
 30
0.0
 10
97.54861039841731
 20
38.750979964
 30
0.0
  0
SPLINE
  5
23E5
330
222
100
AcDbEntity
  8
0
  6
Continuous
 62
     7
100
AcDbSpline
210
0.0
220
0.0
230
1.0
 70
     8
 71
     3
 72
    35
 73
    31
 74
     0
 42
0.0000001
 43
0.0000000001
 40
0.0
 40
0.0
 40
0.0
 40
0.0
 40
0.0008138888
 40
0.0011454694
 40
0.0015114239
 40
0.0019661027
 40
0.0025390663
 40
0.0040905826
 40
0.0062225173
 40
0.0089529855
 40
0.0122888821
 40
0.0162327601
 40
0.0207852499
 40
0.0259454907
 40
0.0380794373
 40
0.0526114022
 40
0.069508016
 40
0.088729852
 40
0.1102295618
 40
0.1339549477
 40
0.1598467242
 40
0.1878409999
 40
0.2178676956
 40
0.2837139625
 40
0.356727481
 40
0.4361775192000001
 40
0.5212683393999999
 40
0.6111474181000001
 40
0.8016279062999998
 40
1.0
 40
1.0
 40
1.0
 40
1.0
 10
97.47765153141731
 20
39.4361212298
 30
0.0
 10
97.4777611596173
 20
39.4362729711
 30
0.0
 10
97.4779617787173
 20
39.4364869088
 30
0.0
 10
97.4783226309173
 20
39.4365174603
 30
0.0
 10
97.4785733797173
 20
39.4364111309
 30
0.0
 10
97.47881894731731
 20
39.4362011333
 30
0.0
 10
97.47919069391732
 20
39.43573595650001
 30
0.0
 10
97.47965043141732
 20
39.434864985
 30
0.0
 10
97.48019829641732
 20
39.43349505309999
 30
0.0
 10
97.48078051711731
 20
39.4317000423
 30
0.0
 10
97.4813970293173
 20
39.4294814311
 30
0.0
 10
97.48204584321731
 20
39.4268380186
 30
0.0
 10
97.48272623891731
 20
39.4237713077
 30
0.0
 10
97.48372943921731
 20
39.418847384
 30
0.0
 10
97.48503902811732
 20
39.4116445316
 30
0.0
 10
97.48665599411729
 20
39.4017558935
 30
0.0
 10
97.48838544251732
 20
39.39023477550001
 30
0.0
 10
97.49022240381732
 20
39.3771099882
 30
0.0
 10
97.49216154261731
 20
39.3624140282
 30
0.0
 10
97.4941975277173
 20
39.3461837917
 30
0.0
 10
97.49632503131731
 20
39.3284598109
 30
0.0
 10
97.49853850651732
 20
39.3092866159
 30
0.0
 10
97.50169499631731
 20
39.2809716736
 30
0.0
 10
97.50579597451732
 20
39.2423434793
 30
0.0
 10
97.51082835601732
 20
39.1923834137
 30
0.0
 10
97.5160597940173
 20
39.137995203
 30
0.0
 10
97.52143737441731
 20
39.0797244277
 30
0.0
 10
97.52887417511731
 20
38.9959979281
 30
0.0
 10
97.53809811831731
 20
38.8862728531
 30
0.0
 10
97.54510637071732
 20
38.79710872869999
 30
0.0
 10
97.54856232601731
 20
38.751612915
 30
0.0
  0
LINE
  5
23E6
330
222
100
AcDbEntity
  8
0
  6
Continuous
 62
     7
100
AcDbLine
 10
97.54856232601731
 20
38.751612915
 30
0.0
 11
97.54861039841731
 21
38.750979964
 31
0.0
  0
SPLINE
  5
23E7
330
222
100
AcDbEntity
  8
0
  6
Continuous
 62
    40
100
AcDbSpline
210
0.0
220
0.0
230
1.0
 70
     8
 71
     3
 72
    12
 73
     8
 74
     0
 42
0.0000001
 43
0.0000000001
 40
0.0
 40
0.0
 40
0.0
 40
0.0
 40
0.1138249509
 40
0.2719586158
 40
0.4736488813000001
 40
0.7766479667000001
 40
1.0
 40
1.0
 40
1.0
 40
1.0
 10
97.50718461671731
 20
38.8565208723
 30
0.0
 10
97.50744173491732
 20
38.8535631157
 30
0.0
 10
97.50805875811732
 20
38.8465376129
 30
0.0
 10
97.50913361551731
 20
38.8341442049
 30
0.0
 10
97.51064082921731
 20
38.8155470791
 30
0.0
 10
97.51213242731729
 20
38.79495065349999
 30
0.0
 10
97.51313584331731
 20
38.7804719289
 30
0.0
 10
97.51349359411731
 20
38.7747728623
 30
0.0
  0
SPLINE
  5
23E8
330
222
100
AcDbEntity
  8
0
  6
Continuous
 62
    40
100
AcDbSpline
210
0.0
220
0.0
230
1.0
 70
     8
 71
     3
 72
    12
 73
     8
 74
     0
 42
0.0000001
 43
0.0000000001
 40
0.0
 40
0.0
 40
0.0
 40
0.0
 40
0.183280726
 40
0.3698978289
 40
0.5702935269000001
 40
0.8291169523
 40
1.0
 40
1.0
 40
1.0
 40
1.0
 10
97.51432425121731
 20
38.7719500078
 30
0.0
 10
97.5139934449173
 20
38.7772198413
 30
0.0
 10
97.51321740801731
 20
38.7886221474
 30
0.0
 10
97.51178532561731
 20
38.8069374732
 30
0.0
 10
97.51013387831731
 20
38.82624789320001
 30
0.0
 10
97.50854381841731
 20
38.8435231579
 30
0.0
 10
97.50755444681731
 20
38.853152739
 30
0.0
 10
97.50718461671731
 20
38.8565208723
 30
0.0
  0
SPLINE
  5
23E9
330
222
100
AcDbEntity
  8
0
  6
Continuous
 62
    40
100
AcDbSpline
210
0.0
220
0.0
230
1.0
 70
     8
 71
     3
 72
    12
 73
     8
 74
     0
 42
0.0000001
 43
0.0000000001
 40
0.0
 40
0.0
 40
0.0
 40
0.0
 40
0.1138249509
 40
0.2719586158
 40
0.4736488813000001
 40
0.7766479667000001
 40
1.0
 40
1.0
 40
1.0
 40
1.0
 10
97.52357285131731
 20
38.643374975
 30
0.0
 10
97.52331573301731
 20
38.6463327316
 30
0.0
 10
97.52269870991732
 20
38.6533582344
 30
0.0
 10
97.52162385241732
 20
38.6657516424
 30
0.0
 10
97.52011663871732
 20
38.6843487682
 30
0.0
 10
97.51862504061731
 20
38.7049451937
 30
0.0
 10
97.51762162471731
 20
38.71942391840001
 30
0.0
 10
97.51726387391732
 20
38.725122985
 30
0.0
  0
SPLINE
  5
23EA
330
222
100
AcDbEntity
  8
0
  6
Continuous
 62
    40
100
AcDbSpline
210
0.0
220
0.0
230
1.0
 70
     8
 71
     3
 72
    12
 73
     8
 74
     0
 42
0.0000001
 43
0.0000000001
 40
0.0
 40
0.0
 40
0.0
 40
0.0
 40
0.183280726
 40
0.3698978289
 40
0.5702935269000001
 40
0.8291169523
 40
1.0
 40
1.0
 40
1.0
 40
1.0
 10
97.5164332167173
 20
38.7279458395
 30
0.0
 10
97.51676402301733
 20
38.722676006
 30
0.0
 10
97.51754006001732
 20
38.7112736999
 30
0.0
 10
97.51897214231732
 20
38.6929583741
 30
0.0
 10
97.52062358971732
 20
38.6736479541
 30
0.0
 10
97.52221364951731
 20
38.6563726894
 30
0.0
 10
97.52320302111732
 20
38.6467431083
 30
0.0
 10
97.52357285131731
 20
38.643374975
 30
0.0
  0
SPLINE
  5
23EB
330
222
100
AcDbEntity
  8
0
  6
Continuous
 62
    40
100
AcDbSpline
210
0.0
220
0.0
230
1.0
 70
     8
 71
     3
 72
    46
 73
    42
 74
     0
 42
0.0000001
 43
0.0000000001
 40
0.0
 40
0.0
 40
0.0
 40
0.0
 40
0.0625
 40
0.125
 40
0.140625
 40
0.15625
 40
0.1640625
 40
0.171875
 40
0.1875
 40
0.21875
 40
0.25
 40
0.28125
 40
0.3125
 40
0.328125
 40
0.3359375
 40
0.34375
 40
0.359375
 40
0.375
 40
0.4375
 40
0.46875
 40
0.484375
 40
0.5
 40
0.515625
 40
0.53125
 40
0.5625
 40
0.625
 40
0.640625
 40
0.65625
 40
0.6640625
 40
0.671875
 40
0.6875
 40
0.71875
 40
0.75
 40
0.78125
 40
0.8125
 40
0.828125
 40
0.84375
 40
0.859375
 40
0.875
 40
0.9375
 40
1.0
 40
1.0
 40
1.0
 40
1.0
 10
97.51042757411731
 20
38.92444363
 30
0.0
 10
97.51046033381731
 20
38.9244936783
 30
0.0
 10
97.51052581361731
 20
38.9245942959
 30
0.0
 10
97.51059965681731
 20
38.9247051456
 30
0.0
 10
97.51064862541731
 20
38.9247824654
 30
0.0
 10
97.51066941311732
 20
38.9248096334
 30
0.0
 10
97.51068514741731
 20
38.9248431425
 30
0.0
 10
97.51070415761731
 20
38.9248335917
 30
0.0
 10
97.51073894821731
 20
38.9247968589
 30
0.0
 10
97.51078784781732
 20
38.9247549196
 30
0.0
 10
97.51084689311731
 20
38.9246997764
 30
0.0
 10
97.5109057573173
 20
38.9246470396
 30
0.0
 10
97.51095510951731
 20
38.9245990843
 30
0.0
 10
97.51098910811732
 20
38.9245728795
 30
0.0
 10
97.51100938551731
 20
38.9245464839
 30
0.0
 10
97.51103286091732
 20
38.92447710280001
 30
0.0
 10
97.5110611136173
 20
38.9244050473
 30
0.0
 10
97.51112980461732
 20
38.9242202294
 30
0.0
 10
97.51120981161731
 20
38.924006336
 30
0.0
 10
97.5112894423173
 20
38.9237976593
 30
0.0
 10
97.51133568151731
 20
38.923668288
 30
0.0
 10
97.51136826051732
 20
38.9236001513
 30
0.0
 10
97.51140887311732
 20
38.9234215115
 30
0.0
 10
97.51146022381732
 20
38.9232218415
 30
0.0
 10
97.5115513647173
 20
38.9228547575
 30
0.0
 10
97.51164219041731
 20
38.9224925368
 30
0.0
 10
97.5117198040173
 20
38.9221842559
 30
0.0
 10
97.51175268811731
 20
38.922049833
 30
0.0
 10
97.51177771091732
 20
38.9219564093
 30
0.0
 10
97.51180743521731
 20
38.9218113052
 30
0.0
 10
97.5118616389173
 20
38.9215333305
 30
0.0
 10
97.5119379198173
 20
38.9211489719
 30
0.0
 10
97.51202999391731
 20
38.9206815054
 30
0.0
 10
97.5121217645173
 20
38.9202185868
 30
0.0
 10
97.5121988042173
 20
38.91982285840001
 30
0.0
 10
97.51225923361729
 20
38.91952791260001
 30
0.0
 10
97.51230782431731
 20
38.9192477702
 30
0.0
 10
97.51235733041731
 20
38.918951122
 30
0.0
 10
97.5124558715173
 20
38.9183663183
 30
0.0
 10
97.51260388261732
 20
38.9174855171
 30
0.0
 10
97.5127353671173
 20
38.91670404380001
 30
0.0
 10
97.51280111941731
 20
38.9163131245
 30
0.0
  0
LINE
  5
23EC
330
222
100
AcDbEntity
  8
0
  6
Continuous
 62
    40
100
AcDbLine
 10
97.5128011195173
 20
38.916313124
 30
0.0
 11
97.5139571569173
 21
38.9082531056
 31
0.0
  0
SPLINE
  5
23ED
330
222
100
AcDbEntity
  8
0
  6
Continuous
 62
    40
100
AcDbSpline
210
0.0
220
0.0
230
1.0
 70
     8
 71
     3
 72
    82
 73
    78
 74
     0
 42
0.0000001
 43
0.0000000001
 40
0.0
 40
0.0
 40
0.0
 40
0.0
 40
0.0625
 40
0.09375
 40
0.109375
 40
0.125
 40
0.140625
 40
0.1484375
 40
0.15625
 40
0.16015625
 40
0.1640625
 40
0.166015625
 40
0.1669921875
 40
0.16796875
 40
0.169921875
 40
0.171875
 40
0.1796875
 40
0.1875
 40
0.1953125
 40
0.203125
 40
0.21875
 40
0.25
 40
0.28125
 40
0.296875
 40
0.3125
 40
0.3203125
 40
0.328125
 40
0.33203125
 40
0.333984375
 40
0.3359375
 40
0.33984375
 40
0.34375
 40
0.3515625
 40
0.359375
 40
0.375
 40
0.40625
 40
0.4375
 40
0.453125
 40
0.46875
 40
0.4765625
 40
0.484375
 40
0.4921875
 40
0.49609375
 40
0.5
 40
0.50390625
 40
0.5078125
 40
0.515625
 40
0.5234375
 40
0.53125
 40
0.546875
 40
0.5625
 40
0.59375
 40
0.609375
 40
0.625
 40
0.640625
 40
0.65625
 40
0.66015625
 40
0.6640625
 40
0.666015625
 40
0.66796875
 40
0.671875
 40
0.6796875
 40
0.6875
 40
0.703125
 40
0.71875
 40
0.75
 40
0.78125
 40
0.8125
 40
0.8203125
 40
0.828125
 40
0.8359375
 40
0.84375
 40
0.859375
 40
0.875
 40
0.90625
 40
0.9375
 40
1.0
 40
1.0
 40
1.0
 40
1.0
 10
97.51395715681731
 20
38.9082531061
 30
0.0
 10
97.51420502851731
 20
38.9062096762
 30
0.0
 10
97.5145768362173
 20
38.9031445284
 30
0.0
 10
97.5150106112173
 20
38.899568533
 30
0.0
 10
97.51525848351732
 20
38.8975250924
 30
0.0
 10
97.51544438521731
 20
38.8959925529
 30
0.0
 10
97.5155993113173
 20
38.894715306
 30
0.0
 10
97.51572323441731
 20
38.89369380170001
 30
0.0
 10
97.51580072661731
 20
38.8930546938
 30
0.0
 10
97.51586262811732
 20
38.8925449367
 30
0.0
 10
97.51590152731729
 20
38.8922228494
 30
0.0
 10
97.51592833431731
 20
38.8920043809
 30
0.0
 10
97.51594431351731
 20
38.8918686011
 30
0.0
 10
97.51596278181731
 20
38.8916916138
 30
0.0
 10
97.51598501641732
 20
38.8914844645
 30
0.0
 10
97.51603907971732
 20
38.8909757137
 30
0.0
 10
97.51611988061732
 20
38.8902174566
 30
0.0
 10
97.51622778311732
 20
38.88920366420001
 30
0.0
 10
97.51633564071731
 20
38.88819061599999
 30
0.0
 10
97.51647946651731
 20
38.8868396262
 30
0.0
 10
97.51673115471731
 20
38.88447550809999
 30
0.0
 10
97.51709071031731
 20
38.88109819050001
 30
0.0
 10
97.51745027491731
 20
38.8777206795
 30
0.0
 10
97.51773790421731
 20
38.8750191396
 30
0.0
 10
97.5179177238173
 20
38.8733296018
 30
0.0
 10
97.5180614620173
 20
38.8719804351
 30
0.0
 10
97.51815156641733
 20
38.8711315847
 30
0.0
 10
97.51821410241731
 20
38.8705486552
 30
0.0
 10
97.51825067761732
 20
38.87019792610001
 30
0.0
 10
97.51829041891731
 20
38.8697807955
 30
0.0
 10
97.51833901141731
 20
38.869282118
 30
0.0
 10
97.5184173653173
 20
38.86847152820001
 30
0.0
 10
97.5185151003173
 20
38.8674626409
 30
0.0
 10
97.51867159201731
 20
38.86584599360001
 30
0.0
 10
97.51894539851733
 20
38.8630179906
 30
0.0
 10
97.51933657871731
 20
38.8589774063
 30
0.0
 10
97.51972774971731
 20
38.8549369902
 30
0.0
 10
97.52004068621729
 20
38.8517047175
 30
0.0
 10
97.52023627681731
 20
38.84968431260001
 30
0.0
 10
97.52039273651732
 20
38.8480685363
 30
0.0
 10
97.5205101165173
 20
38.8468552021
 30
0.0
 10
97.52060782131731
 20
38.8458488686
 30
0.0
 10
97.52068623601731
 20
38.8450330847
 30
0.0
 10
97.52074436131731
 20
38.844450531
 30
0.0
 10
97.52080510431731
 20
38.8437561993
 30
0.0
 10
97.52088518061732
 20
38.84286946920001
 30
0.0
 10
97.52098558971731
 20
38.8417476603
 30
0.0
 10
97.5211059463173
 20
38.8404072236
 30
0.0
 10
97.5212664686173
 20
38.838617972
 30
0.0
 10
97.5214671055173
 20
38.83638209260001
 30
0.0
 10
97.52178813351731
 20
38.8328043067
 30
0.0
 10
97.5221091595173
 20
38.8292266017
 30
0.0
 10
97.5224301845173
 20
38.8256489379
 30
0.0
 10
97.5226709584173
 20
38.8229654856
 30
0.0
 10
97.52291171241731
 20
38.8202828307
 30
0.0
 10
97.5230923336173
 20
38.81826860050001
 30
0.0
 10
97.52321266101731
 20
38.8169292629
 30
0.0
 10
97.5232629265173
 20
38.8163660232
 30
0.0
 10
97.52330283791732
 20
38.815927521
 30
0.0
 10
97.52334384991732
 20
38.8154448064
 30
0.0
 10
97.52341613241732
 20
38.8145795139
 30
0.0
 10
97.52351912621731
 20
38.8133540996
 30
0.0
 10
97.52368406541732
 20
38.8113874466
 30
0.0
 10
97.52389018851731
 20
38.8089311842
 30
0.0
 10
97.52422001321731
 20
38.8050000001
 30
0.0
 10
97.52463229011731
 20
38.8000865374
 30
0.0
 10
97.52512699941732
 20
38.79418964460001
 30
0.0
 10
97.52549810501731
 20
38.7897685667
 30
0.0
 10
97.52574539331732
 20
38.7868187591
 30
0.0
 10
97.52586924371732
 20
38.7853481694
 30
0.0
 10
97.52599229211732
 20
38.7838608079
 30
0.0
 10
97.52615254001732
 20
38.781797857
 30
0.0
 10
97.5263541566173
 20
38.7792464926
 30
0.0
 10
97.5266760130173
 20
38.7751490392
 30
0.0
 10
97.52707858361731
 20
38.7700324533
 30
0.0
 10
97.52772255621732
 20
38.7618429792
 30
0.0
 10
97.52820556721731
 20
38.7557015344
 30
0.0
 10
97.5285275675173
 20
38.751607091
 30
0.0
  0
SPLINE
  5
23EE
330
222
100
AcDbEntity
  8
0
  6
Continuous
 62
    40
100
AcDbSpline
210
0.0
220
0.0
230
1.0
 70
     8
 71
     3
 72
    78
 73
    74
 74
     0
 42
0.0000001
 43
0.0000000001
 40
0.0
 40
0.0
 40
0.0
 40
0.0
 40
0.0625
 40
0.125
 40
0.15625
 40
0.171875
 40
0.1875
 40
0.25
 40
0.28125
 40
0.296875
 40
0.3125
 40
0.3203125
 40
0.328125
 40
0.33203125
 40
0.3359375
 40
0.34375
 40
0.359375
 40
0.375
 40
0.390625
 40
0.40625
 40
0.4375
 40
0.453125
 40
0.46875
 40
0.4765625
 40
0.484375
 40
0.4921875
 40
0.49609375
 40
0.498046875
 40
0.5
 40
0.501953125
 40
0.50390625
 40
0.5078125
 40
0.515625
 40
0.5234375
 40
0.53125
 40
0.546875
 40
0.5625
 40
0.578125
 40
0.59375
 40
0.609375
 40
0.625
 40
0.640625
 40
0.6484375
 40
0.65625
 40
0.66015625
 40
0.6640625
 40
0.666015625
 40
0.66796875
 40
0.671875
 40
0.6796875
 40
0.6875
 40
0.703125
 40
0.71875
 40
0.75
 40
0.78125
 40
0.796875
 40
0.8046875
 40
0.8125
 40
0.8203125
 40
0.828125
 40
0.830078125
 40
0.83203125
 40
0.833984375
 40
0.8359375
 40
0.83984375
 40
0.84375
 40
0.8515625
 40
0.859375
 40
0.875
 40
0.890625
 40
0.90625
 40
0.9375
 40
1.0
 40
1.0
 40
1.0
 40
1.0
 10
97.52861186391731
 20
38.7504982532
 30
0.0
 10
97.52890635481731
 20
38.74648930780001
 30
0.0
 10
97.52949581701731
 20
38.7384701642
 30
0.0
 10
97.53023024301732
 20
38.72845249840001
 30
0.0
 10
97.53074875431732
 20
38.72142862270001
 30
0.0
 10
97.5310382017173
 20
38.7174328312
 30
0.0
 10
97.5314350720173
 20
38.7115364461
 30
0.0
 10
97.5319107834173
 20
38.7046241153
 30
0.0
 10
97.5323810451173
 20
38.6977262897
 30
0.0
 10
97.53265040251731
 20
38.6937825849
 30
0.0
 10
97.53281845731731
 20
38.6913195411
 30
0.0
 10
97.53295344671732
 20
38.6893453765
 30
0.0
 10
97.5330365980173
 20
38.6881199616
 30
0.0
 10
97.5331059035173
 20
38.687120311
 30
0.0
 10
97.5331650448173
 20
38.6861911849
 30
0.0
 10
97.53326381971731
 20
38.6845979809
 30
0.0
 10
97.53340739591731
 20
38.6823048419
 30
0.0
 10
97.53357862881731
 20
38.6795604198
 30
0.0
 10
97.5337501449173
 20
38.676814032
 30
0.0
 10
97.53397873381731
 20
38.673152872
 30
0.0
 10
97.53420735251731
 20
38.6694915015
 30
0.0
 10
97.5344359560173
 20
38.6658302448
 30
0.0
 10
97.5345788463173
 20
38.6635418503
 30
0.0
 10
97.53469313091731
 20
38.6617113679
 30
0.0
 10
97.53477891951732
 20
38.6603378718
 30
0.0
 10
97.5348501711173
 20
38.659195309
 30
0.0
 10
97.53490051591732
 20
38.65839155630001
 30
0.0
 10
97.5349285527173
 20
38.6579384503
 30
0.0
 10
97.53495164141732
 20
38.6575812081
 30
0.0
 10
97.53496685131731
 20
38.657290526
 30
0.0
 10
97.53498987951731
 20
38.6568797331
 30
0.0
 10
97.53502889831731
 20
38.6561716625
 30
0.0
 10
97.53508530881731
 20
38.6551544779
 30
0.0
 10
97.53515271501731
 20
38.653936277
 30
0.0
 10
97.53524268991732
 20
38.6523111635
 30
0.0
 10
97.53535512431732
 20
38.6502800619
 30
0.0
 10
97.53549006031731
 20
38.64784261510001
 30
0.0
 10
97.53562499211732
 20
38.6454052035
 30
0.0
 10
97.53575992571731
 20
38.6429677761
 30
0.0
 10
97.53589485641732
 20
38.6405303766
 30
0.0
 10
97.53602979711731
 20
38.63809288130001
 30
0.0
 10
97.53614221671732
 20
38.6360619312
 30
0.0
 10
97.53623222171732
 20
38.63443650860001
 30
0.0
 10
97.53628831701732
 20
38.6334221279
 30
0.0
 10
97.53633355461731
 20
38.6326071687
 30
0.0
 10
97.5363610037173
 20
38.6321057016
 30
0.0
 10
97.5363848513173
 20
38.6316864739
 30
0.0
 10
97.5364018051173
 20
38.631333156
 30
0.0
 10
97.5364282720173
 20
38.6307454676
 30
0.0
 10
97.53646775271731
 20
38.6298899379
 30
0.0
 10
97.53652998801731
 20
38.6285300178
 30
0.0
 10
97.53660810191732
 20
38.6268270608
 30
0.0
 10
97.53673290531731
 20
38.6241040388
 30
0.0
 10
97.53688897151731
 20
38.6206996696
 30
0.0
 10
97.5370450137173
 20
38.6172955309
 30
0.0
 10
97.5371542503173
 20
38.614912564
 30
0.0
 10
97.5372166662173
 20
38.6135509191
 30
0.0
 10
97.5372634912173
 20
38.612529554
 30
0.0
 10
97.5373102664173
 20
38.6115086893
 30
0.0
 10
97.53734548761732
 20
38.61074163820001
 30
0.0
 10
97.53736875091732
 20
38.610232452
 30
0.0
 10
97.53738077081731
 20
38.609973964
 30
0.0
 10
97.53739128121731
 20
38.6097306193
 30
0.0
 10
97.53739811251731
 20
38.6094782139
 30
0.0
 10
97.53740911081731
 20
38.6091380359
 30
0.0
 10
97.53742533381732
 20
38.60860753860001
 30
0.0
 10
97.53744608311732
 20
38.607939696
 30
0.0
 10
97.5374790190173
 20
38.60687378650001
 30
0.0
 10
97.5375202791173
 20
38.6055404943
 30
0.0
 10
97.53756975261731
 20
38.6039409311
 30
0.0
 10
97.53763573081732
 20
38.601808045
 30
0.0
 10
97.53775118621732
 20
38.5980755577
 30
0.0
 10
97.53785015021732
 20
38.5948762611
 30
0.0
 10
97.53791612571731
 20
38.5927434016
 30
0.0
  0
LINE
  5
23EF
330
222
100
AcDbEntity
  8
0
  6
Continuous
 62
    40
100
AcDbLine
 10
97.53791612571731
 20
38.5927434004
 30
0.0
 11
97.53798420111731
 21
38.58468338210001
 31
0.0
  0
SPLINE
  5
23F0
330
222
100
AcDbEntity
  8
0
  6
Continuous
 62
    40
100
AcDbSpline
210
0.0
220
0.0
230
1.0
 70
     8
 71
     3
 72
    47
 73
    43
 74
     0
 42
0.0000001
 43
0.0000000001
 40
0.0
 40
0.0
 40
0.0
 40
0.0
 40
0.0625
 40
0.125
 40
0.140625
 40
0.15625
 40
0.1640625
 40
0.171875
 40
0.1875
 40
0.21875
 40
0.25
 40
0.28125
 40
0.3125
 40
0.328125
 40
0.3359375
 40
0.34375
 40
0.359375
 40
0.375
 40
0.4375
 40
0.46875
 40
0.484375
 40
0.5
 40
0.515625
 40
0.53125
 40
0.5625
 40
0.625
 40
0.640625
 40
0.65625
 40
0.6640625
 40
0.671875
 40
0.6875
 40
0.71875
 40
0.75
 40
0.78125
 40
0.8125
 40
0.828125
 40
0.8359375
 40
0.84375
 40
0.859375
 40
0.875
 40
0.9375
 40
1.0
 40
1.0
 40
1.0
 40
1.0
 10
97.53798420111731
 20
38.58468338250001
 30
0.0
 10
97.53797807461731
 20
38.5843014154
 30
0.0
 10
97.53796586341731
 20
38.5835369764
 30
0.0
 10
97.53795193781732
 20
38.5826792541
 30
0.0
 10
97.53794292831731
 20
38.5821041266
 30
0.0
 10
97.53793876941731
 20
38.5818693802
 30
0.0
 10
97.53793638661731
 20
38.5816701782
 30
0.0
 10
97.53793055061732
 20
38.5815126837
 30
0.0
 10
97.5379187319173
 20
38.5812564588
 30
0.0
 10
97.53790269311732
 20
38.5808802169
 30
0.0
 10
97.53788306051731
 20
38.5804333964
 30
0.0
 10
97.53786362021731
 20
38.5799842267
 30
0.0
 10
97.5378471003173
 20
38.579613858
 30
0.0
 10
97.53783612361731
 20
38.57934735510001
 30
0.0
 10
97.53782894051731
 20
38.5792063055
 30
0.0
 10
97.5378183301173
 20
38.5791075503
 30
0.0
 10
97.53780623681732
 20
38.5789696716
 30
0.0
 10
97.5377762653173
 20
38.57865045309999
 30
0.0
 10
97.53774143731732
 20
38.5782763685
 30
0.0
 10
97.53770702211731
 20
38.5778970437
 30
0.0
 10
97.53768655361731
 20
38.5776904103
 30
0.0
 10
97.53767349221732
 20
38.5775065613
 30
0.0
 10
97.53765167201731
 20
38.5774331464
 30
0.0
 10
97.53762563191731
 20
38.5772967617
 30
0.0
 10
97.53757865631731
 20
38.5770758002
 30
0.0
 10
97.53753209721731
 20
38.5768496258
 30
0.0
 10
97.5374923008173
 20
38.5766542812
 30
0.0
 10
97.53747533491731
 20
38.5765778381
 30
0.0
 10
97.53746267291731
 20
38.5765049504
 30
0.0
 10
97.53744667541731
 20
38.576475035
 30
0.0
 10
97.53741712881732
 20
38.5764426644
 30
0.0
 10
97.53737573631731
 20
38.5763859029
 30
0.0
 10
97.5373256896173
 20
38.576322603
 30
0.0
 10
97.53727583831732
 20
38.57625687570001
 30
0.0
 10
97.5372339573173
 20
38.5762061829
 30
0.0
 10
97.53720526551731
 20
38.576163192
 30
0.0
 10
97.53718790031731
 20
38.576150269
 30
0.0
 10
97.53716688411731
 20
38.5761811736
 30
0.0
 10
97.5371418617173
 20
38.5762048235
 30
0.0
 10
97.53708078061732
 20
38.576273916
 30
0.0
 10
97.53698959401731
 20
38.5763723332
 30
0.0
 10
97.53690836251731
 20
38.5764619369
 30
0.0
 10
97.5368677688173
 20
38.5765064736
 30
0.0
  0
SPLINE
  5
23F1
330
222
100
AcDbEntity
  8
0
  6
Continuous
 62
    40
100
AcDbSpline
210
0.0
220
0.0
230
1.0
 70
     8
 71
     3
 72
    90
 73
    86
 74
     0
 42
0.0000001
 43
0.0000000001
 40
0.0
 40
0.0
 40
0.0
 40
0.0
 40
0.0625
 40
0.09375
 40
0.125
 40
0.140625
 40
0.15625
 40
0.1640625
 40
0.171875
 40
0.1875
 40
0.21875
 40
0.25
 40
0.28125
 40
0.296875
 40
0.3125
 40
0.3203125
 40
0.328125
 40
0.33203125
 40
0.333984375
 40
0.3359375
 40
0.33984375
 40
0.34375
 40
0.359375
 40
0.375
 40
0.390625
 40
0.40625
 40
0.421875
 40
0.4375
 40
0.453125
 40
0.46875
 40
0.4765625
 40
0.484375
 40
0.4921875
 40
0.49609375
 40
0.498046875
 40
0.5
 40
0.501953125
 40
0.50390625
 40
0.5078125
 40
0.515625
 40
0.5234375
 40
0.53125
 40
0.546875
 40
0.5625
 40
0.578125
 40
0.59375
 40
0.609375
 40
0.625
 40
0.640625
 40
0.6484375
 40
0.65625
 40
0.66015625
 40
0.6640625
 40
0.666015625
 40
0.6669921875
 40
0.66796875
 40
0.669921875
 40
0.671875
 40
0.6796875
 40
0.6875
 40
0.6953125
 40
0.703125
 40
0.71875
 40
0.75
 40
0.78125
 40
0.796875
 40
0.8046875
 40
0.8125
 40
0.8203125
 40
0.828125
 40
0.830078125
 40
0.83203125
 40
0.8330078125
 40
0.833984375
 40
0.8359375
 40
0.83984375
 40
0.84375
 40
0.8515625
 40
0.859375
 40
0.875
 40
0.890625
 40
0.90625
 40
0.9375
 40
0.96875
 40
1.0
 40
1.0
 40
1.0
 40
1.0
 10
97.5372427557173
 20
38.7507518375
 30
0.0
 10
97.53759778781731
 20
38.7459030794
 30
0.0
 10
97.5381302877173
 20
38.7386301002
 30
0.0
 10
97.53884048061731
 20
38.7289321632
 30
0.0
 10
97.53928394911731
 20
38.7228722681
 30
0.0
 10
97.53963964071731
 20
38.71802135260001
 30
0.0
 10
97.53985985691731
 20
38.7149963712
 30
0.0
 10
97.54004081921731
 20
38.7125607179
 30
0.0
 10
97.54020429711731
 20
38.710182265
 30
0.0
 10
97.5404822602173
 20
38.70604654760001
 30
0.0
 10
97.54088359701732
 20
38.7001244925
 30
0.0
 10
97.5413633842173
 20
38.6930239429
 30
0.0
 10
97.54176360151731
 20
38.6871056127
 30
0.0
 10
97.54208373661731
 20
38.6823708836
 30
0.0
 10
97.54228372051731
 20
38.67941244300001
 30
0.0
 10
97.54244395871729
 20
38.6770438706
 30
0.0
 10
97.5425435302173
 20
38.6755676801
 30
0.0
 10
97.54261438771731
 20
38.6745259936
 30
0.0
 10
97.54265306671731
 20
38.6739438137
 30
0.0
 10
97.54268492411732
 20
38.67341086
 30
0.0
 10
97.54272707761732
 20
38.6727278421
 30
0.0
 10
97.54282632691731
 20
38.6711024476
 30
0.0
 10
97.54297600681731
 20
38.6686585393
 30
0.0
 10
97.54317511931731
 20
38.6654033197
 30
0.0
 10
97.54337435521732
 20
38.6621472094
 30
0.0
 10
97.54357355811732
 20
38.658891337
 30
0.0
 10
97.54377276961731
 20
38.6556354039
 30
0.0
 10
97.54397198001731
 20
38.65237947550001
 30
0.0
 10
97.54417118581731
 20
38.6491235888
 30
0.0
 10
97.54433720701731
 20
38.6464102072
 30
0.0
 10
97.54446998711731
 20
38.6442398236
 30
0.0
 10
97.5445696729173
 20
38.6426111563
 30
0.0
 10
97.5446524240173
 20
38.6412567315
 30
0.0
 10
97.54471097861731
 20
38.6403031433
 30
0.0
 10
97.54474345641732
 20
38.6397668093
 30
0.0
 10
97.54477058081732
 20
38.639340407
 30
0.0
 10
97.54478713241731
 20
38.6390063248
 30
0.0
 10
97.54481288911732
 20
38.6385286796
 30
0.0
 10
97.54485624501732
 20
38.6377078042
 30
0.0
 10
97.5449190804173
 20
38.63652728090001
 30
0.0
 10
97.5449940983173
 20
38.63511401050001
 30
0.0
 10
97.54509425651731
 20
38.6332284771
 30
0.0
 10
97.54521940821732
 20
38.6308719629
 30
0.0
 10
97.54536961001731
 20
38.6280439731
 30
0.0
 10
97.54551980651731
 20
38.6252160303
 30
0.0
 10
97.5456700047173
 20
38.6223880719
 30
0.0
 10
97.54582020121731
 20
38.6195601292
 30
0.0
 10
97.54597040261732
 20
38.6167321393
 30
0.0
 10
97.54609555571731
 20
38.6143756253
 30
0.0
 10
97.54619571101732
 20
38.6124900914
 30
0.0
 10
97.54625823341731
 20
38.6113123675
 30
0.0
 10
97.54630842221731
 20
38.6103685054
 30
0.0
 10
97.54633940051732
 20
38.6097824316
 30
0.0
 10
97.54636186621731
 20
38.6093644842
 30
0.0
 10
97.54637348201731
 20
38.6091376977
 30
0.0
 10
97.54638049611731
 20
38.6089562621
 30
0.0
 10
97.54639083651731
 20
38.6087139665
 30
0.0
 10
97.54641435911731
 20
38.6081452151
 30
0.0
 10
97.54645018661731
 20
38.6072867294
 30
0.0
 10
97.54649764591732
 20
38.6061451445
 30
0.0
 10
97.54654518841732
 20
38.60500274039999
 30
0.0
 10
97.54660854931731
 20
38.6034798207
 30
0.0
 10
97.54671944441732
 20
38.6008145772
 30
0.0
 10
97.5468778583173
 20
38.59700716400001
 30
0.0
 10
97.5470362775173
 20
38.593199696
 30
0.0
 10
97.54714716511731
 20
38.5905345293
 30
0.0
 10
97.54721053781731
 20
38.58901148880001
 30
0.0
 10
97.5472580441173
 20
38.5878694554
 30
0.0
 10
97.54730563921732
 20
38.5867264783
 30
0.0
 10
97.5473410863173
 20
38.5858718913
 30
0.0
 10
97.54736510541732
 20
38.5852980518
 30
0.0
 10
97.5473745364173
 20
38.5850650751
 30
0.0
 10
97.54738342711732
 20
38.5848644098
 30
0.0
 10
97.54738739591731
 20
38.58471598179999
 30
0.0
 10
97.54739205451731
 20
38.5844805036
 30
0.0
 10
97.5473999027173
 20
38.5841314428
 30
0.0
 10
97.5474117931173
 20
38.5835800224
 30
0.0
 10
97.5474268844173
 20
38.5828883238
 30
0.0
 10
97.54745090291731
 20
38.58178296030001
 30
0.0
 10
97.5474809698173
 20
38.5804007913
 30
0.0
 10
97.54751703141732
 20
38.5787423874
 30
0.0
 10
97.54756512001732
 20
38.5765311127
 30
0.0
 10
97.54762522851731
 20
38.5737670431
 30
0.0
 10
97.54769735971731
 20
38.5704501494
 30
0.0
 10
97.54774544691731
 20
38.5682388889
 30
0.0
 10
97.54776949061731
 20
38.5671332584
 30
0.0
  0
LINE
  5
23F2
330
222
100
AcDbEntity
  8
0
  6
Continuous
 62
    40
100
AcDbLine
 10
97.54776949061731
 20
38.5671332554
 30
0.0
 11
97.5477374687173
 21
38.5620532897
 31
0.0
  0
LINE
  5
23F3
330
222
100
AcDbEntity
  8
0
  6
Continuous
 62
    40
100
AcDbLine
 10
97.5477374687173
 20
38.5620532897
 30
0.0
 11
97.54759485421731
 21
38.55829940360001
 31
0.0
  0
LINE
  5
23F4
330
222
100
AcDbEntity
  8
0
  6
Continuous
 62
    40
100
AcDbLine
 10
97.54759485421731
 20
38.55829940360001
 30
0.0
 11
97.54734264741731
 21
38.5558979279
 31
0.0
  0
SPLINE
  5
23F5
330
222
100
AcDbEntity
  8
0
  6
Continuous
 62
    40
100
AcDbSpline
210
0.0
220
0.0
230
1.0
 70
     8
 71
     3
 72
    27
 73
    23
 74
     0
 42
0.0000001
 43
0.0000000001
 40
0.0
 40
0.0
 40
0.0
 40
0.0
 40
0.125
 40
0.15625
 40
0.1875
 40
0.25
 40
0.3125
 40
0.34375
 40
0.375
 40
0.4375
 40
0.46875
 40
0.5
 40
0.53125
 40
0.5625
 40
0.625
 40
0.65625
 40
0.6875
 40
0.75
 40
0.8125
 40
0.84375
 40
0.875
 40
1.0
 40
1.0
 40
1.0
 40
1.0
 10
97.54734264741731
 20
38.5558979279
 30
0.0
 10
97.5473083882173
 20
38.5557486457
 30
0.0
 10
97.54726485381731
 20
38.5555711724
 30
0.0
 10
97.5472147436173
 20
38.5553308159
 30
0.0
 10
97.54717679041732
 20
38.5552290073
 30
0.0
 10
97.54712757871731
 20
38.5551245228
 30
0.0
 10
97.54707953031731
 20
38.5550049975
 30
0.0
 10
97.5470397157173
 20
38.5549272541
 30
0.0
 10
97.54699528781731
 20
38.5549095348
 30
0.0
 10
97.54695235831732
 20
38.5548722895
 30
0.0
 10
97.5469083936173
 20
38.55484860420001
 30
0.0
 10
97.54687702711731
 20
38.5548096862
 30
0.0
 10
97.54683975001732
 20
38.55484860420001
 30
0.0
 10
97.54679218821731
 20
38.5548722895
 30
0.0
 10
97.54674360201731
 20
38.5549095348
 30
0.0
 10
97.54669648301732
 20
38.5549272541
 30
0.0
 10
97.54664486121731
 20
38.5550049975
 30
0.0
 10
97.54657865991731
 20
38.5551245228
 30
0.0
 10
97.54651357961732
 20
38.5552290073
 30
0.0
 10
97.54646016431731
 20
38.5553308159
 30
0.0
 10
97.54637355001731
 20
38.5555711725
 30
0.0
 10
97.5463030619173
 20
38.5557486458
 30
0.0
 10
97.54624613051731
 20
38.555897928
 30
0.0
  0
LINE
  5
23F6
330
222
100
AcDbEntity
  8
0
  6
Continuous
 62
    40
100
AcDbLine
 10
97.54624613051731
 20
38.5558979279
 30
0.0
 11
97.5457352653173
 21
38.5578202215
 31
0.0
  0
LINE
  5
23F7
330
222
100
AcDbEntity
  8
0
  6
Continuous
 62
    40
100
AcDbLine
 10
97.51636956641732
 20
38.9442552835
 30
0.0
 11
97.51645902371731
 21
38.9452867199
 31
0.0
  0
SPLINE
  5
23F8
330
222
100
AcDbEntity
  8
0
  6
Continuous
 62
    40
100
AcDbSpline
210
0.0
220
0.0
230
1.0
 70
     8
 71
     3
 72
    37
 73
    33
 74
     0
 42
0.0000001
 43
0.0000000001
 40
0.0
 40
0.0
 40
0.0
 40
0.0
 40
0.0625
 40
0.125
 40
0.15625
 40
0.171875
 40
0.1875
 40
0.25
 40
0.28125
 40
0.3125
 40
0.328125
 40
0.34375
 40
0.375
 40
0.4375
 40
0.46875
 40
0.484375
 40
0.5
 40
0.515625
 40
0.53125
 40
0.5625
 40
0.625
 40
0.65625
 40
0.671875
 40
0.6875
 40
0.75
 40
0.78125
 40
0.8125
 40
0.828125
 40
0.84375
 40
0.875
 40
0.9375
 40
1.0
 40
1.0
 40
1.0
 40
1.0
 10
97.51645902371731
 20
38.9452867199
 30
0.0
 10
97.51647809541731
 20
38.9454243249
 30
0.0
 10
97.51651612681731
 20
38.9457004027
 30
0.0
 10
97.51656422561731
 20
38.9460411599
 30
0.0
 10
97.51659686651731
 20
38.9462876649
 30
0.0
 10
97.51661711341732
 20
38.9464161557
 30
0.0
 10
97.51665616041732
 20
38.9465416741
 30
0.0
 10
97.51669884671731
 20
38.9467099552
 30
0.0
 10
97.51674878921731
 20
38.9468946044
 30
0.0
 10
97.5167803861173
 20
38.9470042269
 30
0.0
 10
97.5168044553173
 20
38.9471077227
 30
0.0
 10
97.51683305141732
 20
38.9471526542
 30
0.0
 10
97.51688518521731
 20
38.9472042708
 30
0.0
 10
97.5169439977173
 20
38.9472731653
 30
0.0
 10
97.51699538651731
 20
38.9473344632
 30
0.0
 10
97.5170252598173
 20
38.9473627983
 30
0.0
 10
97.51704616041731
 20
38.9474038362
 30
0.0
 10
97.51707282421731
 20
38.94736907409999
 30
0.0
 10
97.51710637011731
 20
38.9473491055
 30
0.0
 10
97.51716596571732
 20
38.947302461
 30
0.0
 10
97.5172339873173
 20
38.947250235
 30
0.0
 10
97.51729284601731
 20
38.9472133967
 30
0.0
 10
97.5173276552173
 20
38.9471766176
 30
0.0
 10
97.5173863116173
 20
38.9470351863
 30
0.0
 10
97.51745268091731
 20
38.9468982862
 30
0.0
 10
97.51752916291732
 20
38.9467317381
 30
0.0
 10
97.51757774361731
 20
38.9466207549
 30
0.0
 10
97.51761457951729
 20
38.9465510285
 30
0.0
 10
97.51765890671732
 20
38.946410574
 30
0.0
 10
97.51773996531731
 20
38.9461318483
 30
0.0
 10
97.51785392851731
 20
38.9457510004
 30
0.0
 10
97.51794565821731
 20
38.9454410401
 30
0.0
 10
97.51799145321731
 20
38.9452867202
 30
0.0
  0
LINE
  5
23F9
330
222
100
AcDbEntity
  8
0
  6
Continuous
 62
    40
100
AcDbLine
 10
97.5179914533173
 20
38.9452867199
 30
0.0
 11
97.51831218051732
 21
38.943915654
 31
0.0
  0
LINE
  5
23FA
330
222
100
AcDbEntity
  8
0
  6
Continuous
 62
    40
100
AcDbLine
 10
97.51831218051732
 20
38.943915654
 30
0.0
 11
97.5190249153173
 21
38.9401617679
 31
0.0
  0
LINE
  5
23FB
330
222
100
AcDbEntity
  8
0
  6
Continuous
 62
    40
100
AcDbLine
 10
97.5190249153173
 20
38.9401617679
 30
0.0
 11
97.51982845541732
 21
38.93508180219999
 31
0.0
  0
SPLINE
  5
23FC
330
222
100
AcDbEntity
  8
0
  6
Continuous
 62
    40
100
AcDbSpline
210
0.0
220
0.0
230
1.0
 70
     8
 71
     3
 72
    92
 73
    88
 74
     0
 42
0.0000001
 43
0.0000000001
 40
0.0
 40
0.0
 40
0.0
 40
0.0
 40
0.03125
 40
0.0625
 40
0.09375
 40
0.109375
 40
0.125
 40
0.140625
 40
0.1484375
 40
0.15625
 40
0.16015625
 40
0.1640625
 40
0.166015625
 40
0.1669921875
 40
0.16796875
 40
0.169921875
 40
0.171875
 40
0.1796875
 40
0.1875
 40
0.1953125
 40
0.203125
 40
0.21875
 40
0.25
 40
0.28125
 40
0.296875
 40
0.3046875
 40
0.3125
 40
0.3203125
 40
0.328125
 40
0.330078125
 40
0.33203125
 40
0.3330078125
 40
0.333984375
 40
0.3359375
 40
0.33984375
 40
0.34375
 40
0.3515625
 40
0.359375
 40
0.375
 40
0.390625
 40
0.40625
 40
0.421875
 40
0.4375
 40
0.453125
 40
0.46875
 40
0.4765625
 40
0.484375
 40
0.4921875
 40
0.49609375
 40
0.498046875
 40
0.5
 40
0.501953125
 40
0.50390625
 40
0.5078125
 40
0.515625
 40
0.5234375
 40
0.53125
 40
0.546875
 40
0.5625
 40
0.578125
 40
0.59375
 40
0.609375
 40
0.625
 40
0.640625
 40
0.65625
 40
0.66015625
 40
0.6640625
 40
0.666015625
 40
0.66796875
 40
0.671875
 40
0.6796875
 40
0.6875
 40
0.703125
 40
0.71875
 40
0.75
 40
0.78125
 40
0.8125
 40
0.8203125
 40
0.828125
 40
0.83203125
 40
0.8359375
 40
0.84375
 40
0.859375
 40
0.875
 40
0.90625
 40
0.9375
 40
1.0
 40
1.0
 40
1.0
 40
1.0
 10
97.51982845541732
 20
38.9350818021
 30
0.0
 10
97.51997103291731
 20
38.9339870982
 30
0.0
 10
97.52025618791732
 20
38.93179769079999
 30
0.0
 10
97.52068392061731
 20
38.9285135767
 30
0.0
 10
97.52104036401732
 20
38.9257768237
 30
0.0
 10
97.52132551981731
 20
38.9235874019
 30
0.0
 10
97.52153938361731
 20
38.9219453885
 30
0.0
 10
97.5217176133173
 20
38.9205768753
 30
0.0
 10
97.52186017481731
 20
38.9194824433
 30
0.0
 10
97.52194932671731
 20
38.91879756130001
 30
0.0
 10
97.52202053131732
 20
38.9182516298
 30
0.0
 10
97.5220653010173
 20
38.9179059185
 30
0.0
 10
97.52209610511732
 20
38.9176729472
 30
0.0
 10
97.52211454401731
 20
38.9175256979
 30
0.0
 10
97.5221361342173
 20
38.917325255
 30
0.0
 10
97.5221620447173
 20
38.9170928831
 30
0.0
 10
97.52222511661731
 20
38.91652022610001
 30
0.0
 10
97.52231935211732
 20
38.915667526
 30
0.0
 10
97.52244521221731
 20
38.914527
 30
0.0
 10
97.52257101541731
 20
38.913387435
 30
0.0
 10
97.52273877291731
 20
38.9118676798
 30
0.0
 10
97.52303233911732
 20
38.90920826510001
 30
0.0
 10
97.52345172471731
 20
38.90540901260001
 30
0.0
 10
97.52387110721732
 20
38.9016098156
 30
0.0
 10
97.52416467781731
 20
38.89895032320001
 30
0.0
 10
97.52433242851731
 20
38.8974306901
 30
0.0
 10
97.5244582524173
 20
38.8962907504
 30
0.0
 10
97.52458403481732
 20
38.8951516314
 30
0.0
 10
97.52467848781732
 20
38.8942949914
 30
0.0
 10
97.52474127581731
 20
38.8937274762
 30
0.0
 10
97.5247677063173
 20
38.8934856871
 30
0.0
 10
97.5247882236173
 20
38.8933046766
 30
0.0
 10
97.52481103431732
 20
38.89307824260001
 30
0.0
 10
97.52485201871731
 20
38.89266087820001
 30
0.0
 10
97.52491001181731
 20
38.8920756549
 30
0.0
 10
97.52500311161732
 20
38.8911331438
 30
0.0
 10
97.52511937981729
 20
38.889957112
 30
0.0
 10
97.52530546851732
 20
38.8880742835
 30
0.0
 10
97.5255380589173
 20
38.885721152
 30
0.0
 10
97.5258171762173
 20
38.8828972207
 30
0.0
 10
97.52609629111731
 20
38.8800733367
 30
0.0
 10
97.52637540681732
 20
38.877249437
 30
0.0
 10
97.5266545218173
 20
38.874425553
 30
0.0
 10
97.5269336386173
 20
38.8716016218
 30
0.0
 10
97.52716623061731
 20
38.8692484901
 30
0.0
 10
97.52735231621731
 20
38.8673656619
 30
0.0
 10
97.5274918474173
 20
38.86595442260001
 30
0.0
 10
97.52760822851731
 20
38.86477558510001
 30
0.0
 10
97.52768948901731
 20
38.86395590300001
 30
0.0
 10
97.5277362457173
 20
38.8634789189
 30
0.0
 10
97.52777040561731
 20
38.8631453911
 30
0.0
 10
97.5278080350173
 20
38.86271931960001
 30
0.0
 10
97.52785699731731
 20
38.8621835045
 30
0.0
 10
97.5279432452173
 20
38.86123078820001
 30
0.0
 10
97.52806616161731
 20
38.8598776279
 30
0.0
 10
97.5282137876173
 20
38.8582504699
 30
0.0
 10
97.52841057811732
 20
38.8560821016
 30
0.0
 10
97.52865658131732
 20
38.853371238
 30
0.0
 10
97.52895177881732
 20
38.8501183734
 30
0.0
 10
97.52924697791732
 20
38.8468654671
 30
0.0
 10
97.52954217681732
 20
38.8436125559
 30
0.0
 10
97.52983737491732
 20
38.8403597057
 30
0.0
 10
97.53013257631732
 20
38.8371066167
 30
0.0
 10
97.53042776551732
 20
38.8338544219
 30
0.0
 10
97.53064919141731
 20
38.8314127723
 30
0.0
 10
97.5307967558173
 20
38.8297888989
 30
0.0
 10
97.53085831971731
 20
38.8291064921
 30
0.0
 10
97.53090738711732
 20
38.8285740802
 30
0.0
 10
97.53095712631731
 20
38.8279922485
 30
0.0
 10
97.5310444818173
 20
38.8269510814
 30
0.0
 10
97.5311691125173
 20
38.8254756799
 30
0.0
 10
97.53136861281731
 20
38.82310834320001
 30
0.0
 10
97.53161795671731
 20
38.8201514598
 30
0.0
 10
97.53201692601731
 20
38.8154191949
 30
0.0
 10
97.53251562051731
 20
38.80950409949999
 30
0.0
 10
97.53311410731731
 20
38.8024067309
 30
0.0
 10
97.53356283291731
 20
38.7970811838
 30
0.0
 10
97.53386219911732
 20
38.7935347871
 30
0.0
 10
97.53398661421732
 20
38.7920512085
 30
0.0
 10
97.5340868946173
 20
38.7908781409
 30
0.0
 10
97.53418443851732
 20
38.7896546227
 30
0.0
 10
97.53435386901731
 20
38.7874900253
 30
0.0
 10
97.53459657591731
 20
38.7844099735
 30
0.0
 10
97.5349845362173
 20
38.7794750556
 30
0.0
 10
97.53546961361731
 20
38.7733087495
 30
0.0
 10
97.53624566611732
 20
38.7634413454
 30
0.0
 10
97.5368277215173
 20
38.7560410881
 30
0.0
 10
97.53721575491731
 20
38.7511075175
 30
0.0
  0
SPLINE
  5
23FD
330
222
100
AcDbEntity
  8
0
  6
Continuous
 62
    40
100
AcDbSpline
210
0.0
220
0.0
230
1.0
 70
     8
 71
     3
 72
    12
 73
     8
 74
     0
 42
0.0000001
 43
0.0000000001
 40
0.0
 40
0.0
 40
0.0
 40
0.0
 40
0.183280726
 40
0.3698978289
 40
0.5702935269000001
 40
0.8291169523
 40
1.0
 40
1.0
 40
1.0
 40
1.0
 10
97.51698874351731
 20
38.7719500078
 30
0.0
 10
97.51665793721732
 20
38.7772198413
 30
0.0
 10
97.51588190031732
 20
38.7886221474
 30
0.0
 10
97.51444981791731
 20
38.8069374732
 30
0.0
 10
97.51279837061732
 20
38.82624789320001
 30
0.0
 10
97.5112083107173
 20
38.8435231579
 30
0.0
 10
97.51021893911731
 20
38.853152739
 30
0.0
 10
97.5098491089173
 20
38.8565208723
 30
0.0
  0
SPLINE
  5
23FE
330
222
100
AcDbEntity
  8
0
  6
Continuous
 62
    40
100
AcDbSpline
210
0.0
220
0.0
230
1.0
 70
     8
 71
     3
 72
    12
 73
     8
 74
     0
 42
0.0000001
 43
0.0000000001
 40
0.0
 40
0.0
 40
0.0
 40
0.0
 40
0.1138249509
 40
0.2719586158
 40
0.4736488813000001
 40
0.7766479667000001
 40
1.0
 40
1.0
 40
1.0
 40
1.0
 10
97.5098491089173
 20
38.8565208723
 30
0.0
 10
97.51010622721731
 20
38.8535631157
 30
0.0
 10
97.51072325041732
 20
38.8465376129
 30
0.0
 10
97.5117981078173
 20
38.8341442049
 30
0.0
 10
97.51330532151731
 20
38.8155470791
 30
0.0
 10
97.51479691961732
 20
38.79495065349999
 30
0.0
 10
97.51580033561731
 20
38.7804719289
 30
0.0
 10
97.5161580864173
 20
38.7747728623
 30
0.0
  0
SPLINE
  5
23FF
330
222
100
AcDbEntity
  8
0
  6
Continuous
 62
    40
100
AcDbSpline
210
0.0
220
0.0
230
1.0
 70
     8
 71
     3
 72
    12
 73
     8
 74
     0
 42
0.0000001
 43
0.0000000001
 40
0.0
 40
0.0
 40
0.0
 40
0.0
 40
0.1138249509
 40
0.2719586158
 40
0.4736488813000001
 40
0.7766479667000001
 40
1.0
 40
1.0
 40
1.0
 40
1.0
 10
97.52623734361732
 20
38.643374975
 30
0.0
 10
97.52598022531731
 20
38.6463327316
 30
0.0
 10
97.52536320221731
 20
38.6533582344
 30
0.0
 10
97.5242883447173
 20
38.6657516424
 30
0.0
 10
97.52278113101731
 20
38.6843487682
 30
0.0
 10
97.5212895329173
 20
38.7049451937
 30
0.0
 10
97.52028611701732
 20
38.71942391840001
 30
0.0
 10
97.51992836621731
 20
38.725122985
 30
0.0
  0
SPLINE
  5
2400
330
222
100
AcDbEntity
  8
0
  6
Continuous
 62
    40
100
AcDbSpline
210
0.0
220
0.0
230
1.0
 70
     8
 71
     3
 72
    12
 73
     8
 74
     0
 42
0.0000001
 43
0.0000000001
 40
0.0
 40
0.0
 40
0.0
 40
0.0
 40
0.183280726
 40
0.3698978289
 40
0.5702935269000001
 40
0.8291169523
 40
1.0
 40
1.0
 40
1.0
 40
1.0
 10
97.51909770901731
 20
38.7279458395
 30
0.0
 10
97.5194285153173
 20
38.722676006
 30
0.0
 10
97.52020455231731
 20
38.7112736999
 30
0.0
 10
97.52163663461731
 20
38.6929583741
 30
0.0
 10
97.52328808201731
 20
38.6736479541
 30
0.0
 10
97.52487814181732
 20
38.6563726894
 30
0.0
 10
97.52586751341731
 20
38.6467431083
 30
0.0
 10
97.52623734361732
 20
38.643374975
 30
0.0
  0
SPLINE
  5
2401
330
222
100
AcDbEntity
  8
0
  6
Continuous
 62
    40
100
AcDbSpline
210
0.0
220
0.0
230
1.0
 70
     8
 71
     3
 72
    12
 73
     8
 74
     0
 42
0.0000001
 43
0.0000000001
 40
0.0
 40
0.0
 40
0.0
 40
0.0
 40
0.1138249509
 40
0.2719586158
 40
0.4736488813000001
 40
0.7766479667000001
 40
1.0
 40
1.0
 40
1.0
 40
1.0
 10
97.5085168628173
 20
38.8565208723
 30
0.0
 10
97.50877398111731
 20
38.8535631157
 30
0.0
 10
97.50939100421732
 20
38.8465376129
 30
0.0
 10
97.51046586171732
 20
38.8341442049
 30
0.0
 10
97.5119730754173
 20
38.8155470791
 30
0.0
 10
97.5134646735173
 20
38.79495065349999
 30
0.0
 10
97.5144680894173
 20
38.7804719289
 30
0.0
 10
97.51482584021729
 20
38.7747728623
 30
0.0
  0
SPLINE
  5
2402
330
222
100
AcDbEntity
  8
0
  6
Continuous
 62
    40
100
AcDbSpline
210
0.0
220
0.0
230
1.0
 70
     8
 71
     3
 72
    12
 73
     8
 74
     0
 42
0.0000001
 43
0.0000000001
 40
0.0
 40
0.0
 40
0.0
 40
0.0
 40
0.183280726
 40
0.3698978289
 40
0.5702935269000001
 40
0.8291169523
 40
1.0
 40
1.0
 40
1.0
 40
1.0
 10
97.51565649741731
 20
38.7719500078
 30
0.0
 10
97.51532569111731
 20
38.7772198413
 30
0.0
 10
97.51454965411731
 20
38.7886221474
 30
0.0
 10
97.51311757181731
 20
38.8069374732
 30
0.0
 10
97.51146612441731
 20
38.82624789320001
 30
0.0
 10
97.5098760646173
 20
38.8435231579
 30
0.0
 10
97.50888669301732
 20
38.853152739
 30
0.0
 10
97.5085168628173
 20
38.8565208723
 30
0.0
  0
SPLINE
  5
2403
330
222
100
AcDbEntity
  8
0
  6
Continuous
 62
    40
100
AcDbSpline
210
0.0
220
0.0
230
1.0
 70
     8
 71
     3
 72
    12
 73
     8
 74
     0
 42
0.0000001
 43
0.0000000001
 40
0.0
 40
0.0
 40
0.0
 40
0.0
 40
0.1138249509
 40
0.2719586158
 40
0.4736488813000001
 40
0.7766479667000001
 40
1.0
 40
1.0
 40
1.0
 40
1.0
 10
97.52490509741731
 20
38.643374975
 30
0.0
 10
97.52464797921732
 20
38.6463327316
 30
0.0
 10
97.52403095601732
 20
38.6533582344
 30
0.0
 10
97.52295609861731
 20
38.6657516424
 30
0.0
 10
97.52144888491731
 20
38.6843487682
 30
0.0
 10
97.51995728681732
 20
38.7049451937
 30
0.0
 10
97.51895387081731
 20
38.71942391840001
 30
0.0
 10
97.5185961200173
 20
38.725122985
 30
0.0
  0
SPLINE
  5
2404
330
222
100
AcDbEntity
  8
0
  6
Continuous
 62
    40
100
AcDbSpline
210
0.0
220
0.0
230
1.0
 70
     8
 71
     3
 72
    12
 73
     8
 74
     0
 42
0.0000001
 43
0.0000000001
 40
0.0
 40
0.0
 40
0.0
 40
0.0
 40
0.183280726
 40
0.3698978289
 40
0.5702935269000001
 40
0.8291169523
 40
1.0
 40
1.0
 40
1.0
 40
1.0
 10
97.51776546291731
 20
38.7279458395
 30
0.0
 10
97.51809626921732
 20
38.722676006
 30
0.0
 10
97.5188723061173
 20
38.7112736999
 30
0.0
 10
97.52030438851733
 20
38.6929583741
 30
0.0
 10
97.5219558358173
 20
38.6736479541
 30
0.0
 10
97.5235458957173
 20
38.6563726894
 30
0.0
 10
97.52453526731731
 20
38.6467431083
 30
0.0
 10
97.52490509741731
 20
38.643374975
 30
0.0
  0
LINE
  5
2405
330
222
100
AcDbEntity
  8
0
  6
Continuous
 62
     7
100
AcDbLine
 10
155.4593532939173
 20
40.6339333023
 30
0.0
 11
155.4610669513173
 21
40.6583528563
 31
0.0
  0
LINE
  5
2406
330
222
100
AcDbEntity
  8
0
  6
Continuous
 62
     7
100
AcDbLine
 10
97.47689772201731
 20
40.6339333023
 30
0.0
 11
97.47518406471732
 21
40.65835285699999
 31
0.0
  0
LINE
  5
2407
330
222
100
AcDbEntity
  8
0
  6
Continuous
 62
     9
100
AcDbLine
 10
154.8570352975173
 20
40.6575809842
 30
0.0
 11
154.8555208888173
 21
40.63393335199999
 31
0.0
  0
LINE
  5
2408
330
222
100
AcDbEntity
  8
0
  6
Continuous
 62
     9
100
AcDbLine
 10
155.4610669513173
 20
40.6583528563
 30
0.0
 11
154.8570352975173
 21
40.6575809842
 31
0.0
  0
LINE
  5
2409
330
222
100
AcDbEntity
  8
0
  6
Continuous
 62
     9
100
AcDbLine
 10
101.2000802353173
 20
40.65362976809999
 30
0.0
 11
101.2013898421173
 21
40.6339333166
 31
0.0
  0
LINE
  5
240A
330
222
100
AcDbEntity
  8
0
  6
Continuous
 62
     9
100
AcDbLine
 10
151.7361710468173
 20
40.6536297023
 30
0.0
 11
151.7348616328173
 21
40.6339333174
 31
0.0
  0
SPLINE
  5
240B
330
222
100
AcDbEntity
  8
0
  6
Continuous
 62
     9
100
AcDbSpline
210
0.0
220
0.0
230
1.0
 70
     8
 71
     3
 72
     9
 73
     5
 74
     0
 42
0.0000001
 43
0.0000000001
 40
0.0
 40
0.0
 40
0.0
 40
0.0
 40
0.4999999879
 40
1.0
 40
1.0
 40
1.0
 40
1.0
 10
151.7361710468173
 20
40.6536297023
 30
0.0
 10
143.3134894551173
 20
40.6542055732
 30
0.0
 10
126.4681258457173
 20
40.6559843426
 30
0.0
 10
109.6227622363173
 20
40.6542056433
 30
0.0
 10
101.2000802353173
 20
40.65362976809999
 30
0.0
  0
LINE
  5
240C
330
222
100
AcDbEntity
  8
0
  6
Continuous
 62
     9
100
AcDbLine
 10
98.07921540071731
 20
40.6575812717
 30
0.0
 11
98.08072980601732
 21
40.633933405
 31
0.0
  0
LINE
  5
240D
330
222
100
AcDbEntity
  8
0
  6
Continuous
 62
     9
100
AcDbLine
 10
98.07921540071731
 20
40.6575812717
 30
0.0
 11
97.47518405841731
 21
40.6583528665
 31
0.0
  0
SPLINE
  5
240E
330
222
100
AcDbEntity
  8
0
  6
Continuous
 62
     9
100
AcDbSpline
210
0.0
220
0.0
230
1.0
 70
     8
 71
     3
 72
    18
 73
    14
 74
     0
 42
0.0000001
 43
0.0000000001
 40
0.0
 40
0.0
 40
0.0
 40
0.0
 40
0.0155906616
 40
0.0388841465
 40
0.0697366932
 40
0.1079493601
 40
0.1532688789
 40
0.2053886758
 40
0.3285469034
 40
0.4739809184000001
 40
0.6375584149
 40
0.8145917736999999
 40
1.0
 40
1.0
 40
1.0
 40
1.0
 10
154.8570366772173
 20
40.6575807212
 30
0.0
 10
154.8408223834173
 20
40.6571948865
 30
0.0
 10
154.8003749639173
 20
40.65659175869999
 30
0.0
 10
154.7278322224173
 20
40.6558556633
 30
0.0
 10
154.6317540410173
 20
40.6551834784
 30
0.0
 10
154.5127618099173
 20
40.65456918179999
 30
0.0
 10
154.3716447459173
 20
40.65402796929999
 30
0.0
 10
154.1421591988173
 20
40.65337102179999
 30
0.0
 10
153.8085245140173
 20
40.6528054665
 30
0.0
 10
153.3589406694173
 20
40.6524827935
 30
0.0
 10
152.8533106878173
 20
40.6525044311
 30
0.0
 10
152.3060958819173
 20
40.6528725465
 30
0.0
 10
151.9290500615173
 20
40.6533392514
 30
0.0
 10
151.7361710716173
 20
40.6536297247
 30
0.0
  0
SPLINE
  5
240F
330
222
100
AcDbEntity
  8
0
  6
Continuous
 62
     9
100
AcDbSpline
210
0.0
220
0.0
230
1.0
 70
     8
 71
     3
 72
    18
 73
    14
 74
     0
 42
0.0000001
 43
0.0000000001
 40
0.0
 40
0.0
 40
0.0
 40
0.0
 40
0.1854073828
 40
0.3624406807
 40
0.5260182154999999
 40
0.6714522884000001
 40
0.7946106033
 40
0.8467304698999999
 40
0.892050075
 40
0.9302628302
 40
0.9611155066
 40
0.9844092041999999
 40
1.0
 40
1.0
 40
1.0
 40
1.0
 10
101.2000802115173
 20
40.6536298681
 30
0.0
 10
101.0072019901173
 20
40.65333934509999
 30
0.0
 10
100.6301568972173
 20
40.6528726403
 30
0.0
 10
100.0829426828173
 20
40.6525044254
 30
0.0
 10
99.57731237851731
 20
40.6524828291
 30
0.0
 10
99.1277280889173
 20
40.6528056409
 30
0.0
 10
98.79409299201732
 20
40.6533713779
 30
0.0
 10
98.56460706261731
 20
40.65402849589999
 30
0.0
 10
98.42348966461731
 20
40.6545697907
 30
0.0
 10
98.30449705101731
 20
40.6551842383
 30
0.0
 10
98.2084183649173
 20
40.65585629949999
 30
0.0
 10
98.1358750929173
 20
40.6565928071
 30
0.0
 10
98.09542728021732
 20
40.6571953583
 30
0.0
 10
98.0792128368173
 20
40.6575811563
 30
0.0
  0
SPLINE
  5
2410
330
222
100
AcDbEntity
  8
0
  6
Continuous
 62
     9
100
AcDbSpline
210
0.0
220
0.0
230
1.0
 70
     8
 71
     3
 72
    15
 73
    11
 74
     0
 42
0.0000001
 43
0.0000000001
 40
0.0
 40
0.0
 40
0.0
 40
0.0
 40
0.1245089901
 40
0.2490871677
 40
0.3738176064
 40
0.4987334286
 40
0.6238460763
 40
0.7491340358
 40
0.8745369837
 40
1.0
 40
1.0
 40
1.0
 40
1.0
 10
154.7640446628173
 20
40.7589333023
 30
0.0
 10
154.7704433596173
 20
40.7589333023
 30
0.0
 10
154.7832840061173
 20
40.7575962838
 30
0.0
 10
154.8016949094173
 20
40.7516644201
 30
0.0
 10
154.8185178338173
 20
40.7420605129
 30
0.0
 10
154.8330295735173
 20
40.72919095729999
 30
0.0
 10
154.8446193571173
 20
40.71360317809999
 30
0.0
 10
154.8527964944173
 20
40.6959551266
 30
0.0
 10
154.8572189141173
 20
40.6770040677
 30
0.0
 10
154.8575364578173
 20
40.6640090488
 30
0.0
 10
154.8570359823173
 20
40.65758077609999
 30
0.0
  0
SPLINE
  5
2411
330
222
100
AcDbEntity
  8
0
  6
Continuous
 62
     9
100
AcDbSpline
210
0.0
220
0.0
230
1.0
 70
     8
 71
     3
 72
    19
 73
    15
 74
     0
 42
0.0000001
 43
0.0000000001
 40
0.0
 40
0.0
 40
0.0
 40
0.0
 40
0.0102299622
 40
0.0178115639
 40
0.0274500141
 40
0.0532680922
 40
0.087961204
 40
0.1313377679
 40
0.1830178641
 40
0.3090902875
 40
0.4608478346
 40
0.6316805241
 40
0.8140682598999999
 40
1.0
 40
1.0
 40
1.0
 40
1.0
 10
151.7271665267173
 20
40.7589333023
 30
0.0
 10
151.7275302974173
 20
40.7589333023
 30
0.0
 10
151.7281145239173
 20
40.7585003112
 30
0.0
 10
151.7286501717173
 20
40.757704488
 30
0.0
 10
151.7293438062173
 20
40.7563272824
 30
0.0
 10
151.7301244826173
 20
40.75395421289999
 30
0.0
 10
151.7309911266173
 20
40.7503602223
 30
0.0
 10
151.7318193751173
 20
40.7458197916
 30
0.0
 10
151.7329417947173
 20
40.73803585599999
 30
0.0
 10
151.7341143235173
 20
40.7263729279
 30
0.0
 10
151.7351774744173
 20
40.7104526375
 30
0.0
 10
151.7359062546173
 20
40.692508858
 30
0.0
 10
151.7362667042173
 20
40.6733391135
 30
0.0
 10
151.7362483307173
 20
40.6602408476
 30
0.0
 10
151.7361710581173
 20
40.6536296888
 30
0.0
  0
SPLINE
  5
2412
330
222
100
AcDbEntity
  8
0
  6
Continuous
 62
     9
100
AcDbSpline
210
0.0
220
0.0
230
1.0
 70
     8
 71
     3
 72
    19
 73
    15
 74
     0
 42
0.0000001
 43
0.0000000001
 40
0.0
 40
0.0
 40
0.0
 40
0.0
 40
0.0102299779
 40
0.0178115819
 40
0.0274500316
 40
0.0532681017
 40
0.0879611983
 40
0.1313377419
 40
0.1830178145
 40
0.3090901882999999
 40
0.4608476972
 40
0.631680378
 40
0.8140681535999998
 40
1.0
 40
1.0
 40
1.0
 40
1.0
 10
101.2090847623173
 20
40.7589333023
 30
0.0
 10
101.2087209917173
 20
40.7589333023
 30
0.0
 10
101.2081367651173
 20
40.7585003128
 30
0.0
 10
101.2076011167173
 20
40.757704491
 30
0.0
 10
101.2069074819173
 20
40.75632728889999
 30
0.0
 10
101.2061268051173
 20
40.75395422489999
 30
0.0
 10
101.2052601608173
 20
40.7503602426
 30
0.0
 10
101.2044319118173
 20
40.74581982219999
 30
0.0
 10
101.2033094915173
 20
40.73803590399999
 30
0.0
 10
101.2021369618173
 20
40.7263730004
 30
0.0
 10
101.2010738094173
 20
40.7104527413
 30
0.0
 10
101.2003450274173
 20
40.6925089934
 30
0.0
 10
101.1999845755173
 20
40.6733392774
 30
0.0
 10
101.2000029473173
 20
40.6602410291
 30
0.0
 10
101.2000802190173
 20
40.653629878
 30
0.0
  0
SPLINE
  5
2413
330
222
100
AcDbEntity
  8
0
  6
Continuous
 62
     9
100
AcDbSpline
210
0.0
220
0.0
230
1.0
 70
     8
 71
     3
 72
    15
 73
    11
 74
     0
 42
0.0000001
 43
0.0000000001
 40
0.0
 40
0.0
 40
0.0
 40
0.0
 40
0.1245089847
 40
0.2490871586
 40
0.3738175948
 40
0.4987334160000001
 40
0.6238460642
 40
0.7491340262000001
 40
0.8745369779999998
 40
1.0
 40
1.0
 40
1.0
 40
1.0
 10
98.17220546801731
 20
40.7589333023
 30
0.0
 10
98.16580678781731
 20
40.7589333023
 30
0.0
 10
98.15296617511732
 20
40.7575962907
 30
0.0
 10
98.13455531571731
 20
40.75166445719999
 30
0.0
 10
98.11773242301732
 20
40.7420605973
 30
0.0
 10
98.10322069761731
 20
40.72919110199999
 30
0.0
 10
98.09163090761732
 20
40.71360339059999
 30
0.0
 10
98.08345374071731
 20
40.6959554084
 30
0.0
 10
98.07903126811732
 20
40.67700441329999
 30
0.0
 10
98.07871367431731
 20
40.6640094292
 30
0.0
 10
98.07921412171731
 20
40.65758117059999
 30
0.0
  0
SPLINE
  5
2414
330
222
100
AcDbEntity
  8
0
  6
Continuous
 62
     9
100
AcDbSpline
210
0.0
220
0.0
230
1.0
 70
     8
 71
     3
 72
    23
 73
    19
 74
     0
 42
0.0000001
 43
0.0000000001
 40
0.0
 40
0.0
 40
0.0
 40
0.0
 40
0.0312414745
 40
0.0624844341
 40
0.0937281189
 40
0.124972904
 40
0.1562187051
 40
0.187465177
 40
0.2187125741
 40
0.2499610052
 40
0.312459637
 40
0.3749602542
 40
0.4374631734000001
 40
0.4999680235000001
 40
0.6249775207
 40
0.7499883355
 40
0.8749970939
 40
1.0
 40
1.0
 40
1.0
 40
1.0
 10
155.4593533143173
 20
40.6339333023
 30
0.0
 10
155.4440802646173
 20
40.4162882736
 30
0.0
 10
155.4135467893173
 20
39.980986726
 30
0.0
 10
155.3683490812173
 20
39.3279831557
 30
0.0
 10
155.3214913362173
 20
38.6750685163
 30
0.0
 10
155.2690777812173
 20
38.0225529115
 30
0.0
 10
155.2120962472173
 20
37.3704041338
 30
0.0
 10
155.1507233569173
 20
36.7186346086
 30
0.0
 10
155.0845525096173
 20
36.0673153227
 30
0.0
 10
154.9898963298173
 20
35.1995356576
 30
0.0
 10
154.8599402434173
 20
34.116079078
 30
0.0
 10
154.6856604827173
 20
32.8182315133
 30
0.0
 10
154.4926124707173
 20
31.5229931848
 30
0.0
 10
154.2103774440173
 20
29.79986636300001
 30
0.0
 10
153.8113350595173
 20
27.65375054510001
 30
0.0
 10
153.2587811626173
 20
25.0932559802
 30
0.0
 10
152.6329562469173
 20
22.54973713
 30
0.0
 10
152.1672745945173
 20
20.8666911013
 30
0.0
 10
151.9224210732173
 20
20.028753201
 30
0.0
  0
SPLINE
  5
2415
330
222
100
AcDbEntity
  8
0
  6
Continuous
 62
     9
100
AcDbSpline
210
0.0
220
0.0
230
1.0
 70
     8
 71
     3
 72
     9
 73
     5
 74
     0
 42
0.0000001
 43
0.0000000001
 40
0.0
 40
0.0
 40
0.0
 40
0.0
 40
0.4999887887
 40
1.0
 40
1.0
 40
1.0
 40
1.0
 10
97.47689772201731
 20
40.6339333023
 30
0.0
 10
97.4901731111173
 20
40.4447554692
 30
0.0
 10
97.51673117351732
 20
40.0663917623
 30
0.0
 10
97.54295540511732
 20
39.6880047547
 30
0.0
 10
97.5561877806173
 20
39.4988153826
 30
0.0
  0
SPLINE
  5
2416
330
222
100
AcDbEntity
  8
0
  6
Continuous
 62
     9
100
AcDbSpline
210
0.0
220
0.0
230
1.0
 70
     8
 71
     3
 72
    21
 73
    17
 74
     0
 42
0.0000001
 43
0.0000000001
 40
0.0
 40
0.0
 40
0.0
 40
0.0
 40
0.0312452104
 40
0.0624910007
 40
0.0937375311
 40
0.1249849832
 40
0.15623325
 40
0.1874821238
 40
0.249980906
 40
0.3124814777
 40
0.3749840854999999
 40
0.4374882052000001
 40
0.4999932570000001
 40
0.6250024608000001
 40
0.7500117884000001
 40
1.0
 40
1.0
 40
1.0
 40
1.0
 10
97.66856815341732
 20
38.0150616998
 30
0.0
 10
97.68453064361731
 20
37.8248754157
 30
0.0
 10
97.71762438351732
 20
37.4445965286
 30
0.0
 10
97.77061263311731
 20
36.8744737906
 30
0.0
 10
97.8272063274173
 20
36.304683111
 30
0.0
 10
97.88750825921731
 20
35.7352579027
 30
0.0
 10
97.9514306141173
 20
35.1662133031
 30
0.0
 10
98.04138831941731
 20
34.40801523440001
 30
0.0
 10
98.16261612881731
 20
33.4613084105
 30
0.0
 10
98.3222772895173
 20
32.3271441681
 30
0.0
 10
98.49629642811732
 20
31.1950606682
 30
0.0
 10
98.68453028541731
 20
30.0652242149
 30
0.0
 10
98.9543635012173
 20
28.5620344389
 30
0.0
 10
99.3269816858173
 20
26.6895242221
 30
0.0
 10
99.99813194781729
 20
23.7097784659
 30
0.0
 10
100.5855360579173
 20
21.4944609173
 30
0.0
 10
101.0138299631173
 20
20.028753201
 30
0.0
  0
SPLINE
  5
2417
330
222
100
AcDbEntity
  8
0
  6
Continuous
 62
     6
100
AcDbSpline
210
0.0
220
0.0
230
1.0
 70
     8
 71
     3
 72
    19
 73
    15
 74
     0
 42
0.0000001
 43
0.0000000001
 40
0.0
 40
0.0
 40
0.0
 40
0.0
 40
0.0296761403
 40
0.0502131852
 40
0.0811693082
 40
0.1122539423
 40
0.148350108
 40
0.1907479426
 40
0.2397193679
 40
0.3566806521
 40
0.4962149262
 40
0.6537180381000001
 40
0.8236750841999999
 40
1.0
 40
1.0
 40
1.0
 40
1.0
 10
97.53122722291731
 20
38.5879413698
 30
0.0
 10
97.53051224461732
 20
38.5893908224
 30
0.0
 10
97.52946520011732
 20
38.5919275187
 30
0.0
 10
97.5282090828173
 20
38.5961693123
 30
0.0
 10
97.52727957091732
 20
38.6005739644
 30
0.0
 10
97.5264107998173
 20
38.6058477369
 30
0.0
 10
97.52557244851731
 20
38.6117568043
 30
0.0
 10
97.52469494301731
 20
38.618643155
 30
0.0
 10
97.52337260041731
 20
38.6299119415
 30
0.0
 10
97.52162249171732
 20
38.6464562086
 30
0.0
 10
97.5194550542173
 20
38.6688988752
 30
0.0
 10
97.5171876702173
 20
38.69423091690001
 30
0.0
 10
97.51489937991731
 20
38.7215722414
 30
0.0
 10
97.51342419451731
 20
38.7403735227
 30
0.0
 10
97.5126970704173
 20
38.7499488394
 30
0.0
  0
LINE
  5
2418
330
222
100
AcDbEntity
  8
0
  6
Continuous
 62
     6
100
AcDbLine
 10
97.5126970704173
 20
38.7499488394
 30
0.0
 11
97.5126152324173
 21
38.7510279122
 31
0.0
  0
SPLINE
  5
2419
330
222
100
AcDbEntity
  8
0
  6
Continuous
 62
     6
100
AcDbSpline
210
0.0
220
0.0
230
1.0
 70
     8
 71
     3
 72
    16
 73
    12
 74
     0
 42
0.0000001
 43
0.0000000001
 40
0.0
 40
0.0
 40
0.0
 40
0.0
 40
0.1766940353
 40
0.3470430622
 40
0.5053529617
 40
0.6464316038
 40
0.7658965775
 40
0.8607199912
 40
0.8986998545999998
 40
0.9312353678
 40
1.0
 40
1.0
 40
1.0
 40
1.0
 10
97.5126152324173
 20
38.7510279122
 30
0.0
 10
97.51191419161731
 20
38.7602832186
 30
0.0
 10
97.51058139181731
 20
38.7784648554
 30
0.0
 10
97.50877399451731
 20
38.80494978090001
 30
0.0
 10
97.50723189431731
 20
38.8295772761
 30
0.0
 10
97.50600318901732
 20
38.8515455592
 30
0.0
 10
97.5051258841173
 20
38.870193314
 30
0.0
 10
97.50466850911731
 20
38.8834365974
 30
0.0
 10
97.50453281551731
 20
38.8921234698
 30
0.0
 10
97.50455749751731
 20
38.899433123
 30
0.0
 10
97.5048502095173
 20
38.90478630469999
 30
0.0
 10
97.50556284891731
 20
38.9083275481
 30
0.0
  0
LINE
  5
241A
330
222
100
AcDbEntity
  8
0
  6
Continuous
 62
     6
100
AcDbLine
 10
97.50556284891731
 20
38.9083275481
 30
0.0
 11
97.50657972581731
 21
38.9122876984
 31
0.0
  0
LINE
  5
241B
330
222
100
AcDbEntity
  8
0
  6
Continuous
 62
     6
100
AcDbLine
 10
97.54431298371731
 20
38.56141303
 30
0.0
 11
97.54569625391731
 21
38.55793926150001
 31
0.0
  0
LINE
  5
241C
330
222
100
AcDbEntity
  8
0
  6
Continuous
 62
     6
100
AcDbLine
 10
97.54569625391731
 20
38.55793926150001
 30
0.0
 11
97.54576821561732
 21
38.5576794734
 31
0.0
  0
LINE
  5
241D
330
222
100
AcDbEntity
  8
0
  6
Continuous
 62
     6
100
AcDbLine
 10
97.5163720557173
 20
38.9443254104
 30
0.0
 11
97.5155065254173
 21
38.9404888012
 31
0.0
  0
SPLINE
  5
241E
330
222
100
AcDbEntity
  8
0
  6
Continuous
 62
     7
100
AcDbSpline
210
0.0
220
0.0
230
1.0
 70
     8
 71
     3
 72
    52
 73
    48
 74
     0
 42
0.0000001
 43
0.0000000001
 40
0.0
 40
0.0
 40
0.0
 40
0.0
 40
0.0467706282
 40
0.0911397976
 40
0.1328007923
 40
0.1714709281
 40
0.2068815053
 40
0.2387934152
 40
0.2669842868
 40
0.2912663186
 40
0.3114713646
 40
0.3200038248
 40
0.32747046
 40
0.3338582368
 40
0.3391598019
 40
0.3433718451
 40
0.3464958064
 40
0.3485487064
 40
0.3491987628
 40
0.3496432702
 40
0.3500027053
 40
0.3504689813000001
 40
0.3511488825
 40
0.3520782752
 40
0.3532706852
 40
0.3547318024
 40
0.3564640431
 40
0.3584684467
 40
0.3632944389
 40
0.3692085778
 40
0.3762056821
 40
0.3842744493
 40
0.3934010402000001
 40
0.4035712199
 40
0.4147697709000001
 40
0.4269767954
 40
0.4543292943
 40
0.4854471078
 40
0.520113368
 40
0.5580942068
 40
0.5991256127000001
 40
0.6429292548
 40
0.6892021814
 40
0.7376292101999999
 40
0.7878718722000001
 40
0.8924269097999999
 40
1.0
 40
1.0
 40
1.0
 40
1.0
 10
97.53669088271731
 20
38.5767276885
 30
0.0
 10
97.53749550791731
 20
38.5677900103
 30
0.0
 10
97.53908732341731
 20
38.5503756998
 30
0.0
 10
97.54148464351731
 20
38.5250083561
 30
0.0
 10
97.5438179198173
 20
38.50119624860001
 30
0.0
 10
97.5460705763173
 20
38.4791035087
 30
0.0
 10
97.5482271871173
 20
38.458881417
 30
0.0
 10
97.5502720967173
 20
38.4406697207
 30
0.0
 10
97.55219076091732
 20
38.424592813
 30
0.0
 10
97.55396890931731
 20
38.4107618073
 30
0.0
 10
97.55539046161731
 20
38.4006883645
 30
0.0
 10
97.55646339701732
 20
38.3938250943
 30
0.0
 10
97.55717922041732
 20
38.3895898054
 30
0.0
 10
97.55785050341732
 20
38.3859755928
 30
0.0
 10
97.55847589801732
 20
38.3829900957
 30
0.0
 10
97.55905062981732
 20
38.3806309683
 30
0.0
 10
97.55957490881732
 20
38.3789125794
 30
0.0
 10
97.5600009216173
 20
38.3778634928
 30
0.0
 10
97.56034958711731
 20
38.3773739981
 30
0.0
 10
97.56058365101731
 20
38.3771916165
 30
0.0
 10
97.56084931301732
 20
38.3772279485
 30
0.0
 10
97.56104384101732
 20
38.3774609235
 30
0.0
 10
97.56121609371732
 20
38.3778176729
 30
0.0
 10
97.56137792031729
 20
38.3783332435
 30
0.0
 10
97.56152889561732
 20
38.3790036595
 30
0.0
 10
97.56166866311732
 20
38.37983401480001
 30
0.0
 10
97.5617966869173
 20
38.3808231327
 30
0.0
 10
97.56196152121731
 20
38.3824579456
 30
0.0
 10
97.56212574561731
 20
38.3848982484
 30
0.0
 10
97.56226519101732
 20
38.3882988177
 30
0.0
 10
97.56235455811731
 20
38.3923234254
 30
0.0
 10
97.5623936200173
 20
38.3969651421
 30
0.0
 10
97.5623817870173
 20
38.4022158019
 30
0.0
 10
97.5623188283173
 20
38.4080666196
 30
0.0
 10
97.56220459291732
 20
38.41450779
 30
0.0
 10
97.56197512761731
 20
38.42424402050001
 30
0.0
 10
97.56155266221732
 20
38.4377984045
 30
0.0
 10
97.56086505631731
 20
38.4556552829
 30
0.0
 10
97.55998291631732
 20
38.4755450746
 30
0.0
 10
97.55891164781731
 20
38.497330177
 30
0.0
 10
97.5576585411173
 20
38.5208614268
 30
0.0
 10
97.55623172581731
 20
38.5459765047
 30
0.0
 10
97.55464108511731
 20
38.5725034143
 30
0.0
 10
97.55289725591731
 20
38.6002586869
 30
0.0
 10
97.5503500559173
 20
38.6391679198
 30
0.0
 10
97.54687448791731
 20
38.6893887611
 30
0.0
 10
97.5438827684173
 20
38.7299795754
 30
0.0
 10
97.5423207663173
 20
38.75056030400001
 30
0.0
  0
LINE
  5
241F
330
222
100
AcDbEntity
  8
0
  6
Continuous
 62
     7
100
AcDbLine
 10
97.5423207663173
 20
38.75056030400001
 30
0.0
 11
97.54227740621731
 21
38.75113145610001
 31
0.0
  0
SPLINE
  5
2420
330
222
100
AcDbEntity
  8
0
  6
Continuous
 62
     7
100
AcDbSpline
210
0.0
220
0.0
230
1.0
 70
     8
 71
     3
 72
    54
 73
    50
 74
     0
 42
0.0000001
 43
0.0000000001
 40
0.0
 40
0.0
 40
0.0
 40
0.0
 40
0.0466940819
 40
0.090984042
 40
0.1325626324
 40
0.1711464398
 40
0.2064664486
 40
0.2382830254
 40
0.2663737459
 40
0.2905505396
 40
0.3011173012
 40
0.3106456737999999
 40
0.3191212566
 40
0.3265299907
 40
0.3328588996000001
 40
0.3381005943999999
 40
0.3422520721
 40
0.3453153490999999
 40
0.3464439677
 40
0.3473116457
 40
0.3479351514
 40
0.3483611446
 40
0.3487230534
 40
0.3492101495
 40
0.3499174715
 40
0.3508766815
 40
0.3520999978
 40
0.3535926457
 40
0.3553568021
 40
0.3573933699
 40
0.3622841168
 40
0.3682632052000001
 40
0.3753252096
 40
0.3834586884
 40
0.392649556
 40
0.4028833409000001
 40
0.4141446455
 40
0.4264134289000001
 40
0.4538855568
 40
0.4851164423
 40
0.5198875909
 40
0.5579633894000001
 40
0.59907813
 40
0.6429517308000001
 40
0.6892795491000001
 40
0.7377446938
 40
0.7880070586
 40
0.8925406454
 40
1.0
 40
1.0
 40
1.0
 40
1.0
 10
97.51028274001731
 20
38.9242532172
 30
0.0
 10
97.5097265528173
 20
38.9332267821
 30
0.0
 10
97.50866683841731
 20
38.9507133949
 30
0.0
 10
97.5072012466173
 20
38.9761958058
 30
0.0
 10
97.50590810631731
 20
39.00012381590001
 30
0.0
 10
97.50479587501731
 20
39.0223317897
 30
0.0
 10
97.50387223271729
 20
39.0426670059
 30
0.0
 10
97.50314267951731
 20
39.0609883023
 30
0.0
 10
97.5026121708173
 20
39.0771698524
 30
0.0
 10
97.50232522091732
 20
39.0892652542
 30
0.0
 10
97.50220820311731
 20
39.0977889258
 30
0.0
 10
97.50217605811732
 20
39.1032900991
 30
0.0
 10
97.50219508311731
 20
39.1081832699
 30
0.0
 10
97.50226485471731
 20
39.11245996570001
 30
0.0
 10
97.50238510761732
 20
39.1161124924
 30
0.0
 10
97.5025538356173
 20
39.1191357291
 30
0.0
 10
97.50277060551731
 20
39.1215242024
 30
0.0
 10
97.50300170621731
 20
39.123117028
 30
0.0
 10
97.5032296052173
 20
39.1240641165
 30
0.0
 10
97.5033957157173
 20
39.12454358530001
 30
0.0
 10
97.5035681253173
 20
39.1248677784
 30
0.0
 10
97.50378147701731
 20
39.1250671742
 30
0.0
 10
97.50405040651731
 20
39.1250421779
 30
0.0
 10
97.50427350291731
 20
39.1248252723
 30
0.0
 10
97.50450077021731
 20
39.1244801392
 30
0.0
 10
97.50474013121731
 20
39.1239751446
 30
0.0
 10
97.50499301881731
 20
39.1233144075
 30
0.0
 10
97.50525867261732
 20
39.1224931847
 30
0.0
 10
97.50553682361731
 20
39.1215125648
 30
0.0
 10
97.50594940821731
 20
39.1198905155
 30
0.0
 10
97.5064840629173
 20
39.1174630904
 30
0.0
 10
97.50714020431731
 20
39.1140730908
 30
0.0
 10
97.50784121211731
 20
39.1100565289
 30
0.0
 10
97.5085857911173
 20
39.10542032969999
 30
0.0
 10
97.5093721360173
 20
39.1001726154
 30
0.0
 10
97.5101986794173
 20
39.0943221831
 30
0.0
 10
97.51106378011732
 20
39.0878788384
 30
0.0
 10
97.5123144348173
 20
39.07813845710001
 30
0.0
 10
97.51395289301731
 20
39.0645714717
 30
0.0
 10
97.51598093191731
 20
39.0466878583
 30
0.0
 10
97.51812366681733
 20
39.0267628181
 30
0.0
 10
97.5203655297173
 20
39.00493464210001
 30
0.0
 10
97.52269106531731
 20
38.9813534018
 30
0.0
 10
97.5250836615173
 20
38.9561823376
 30
0.0
 10
97.52752697691731
 20
38.9295945585
 30
0.0
 10
97.53000368441732
 20
38.9017746477
 30
0.0
 10
97.5333720603173
 20
38.8627826059
 30
0.0
 10
97.53753099631731
 20
38.8124576108
 30
0.0
 10
97.54071070281732
 20
38.7717629848
 30
0.0
 10
97.54227740621731
 20
38.75113145610001
 30
0.0
  0
SPLINE
  5
2421
330
222
100
AcDbEntity
  8
0
  6
Continuous
 62
     7
100
AcDbSpline
210
0.0
220
0.0
230
1.0
 70
     8
 71
     3
 72
    39
 73
    35
 74
     0
 42
0.0000001
 43
0.0000000001
 40
0.0
 40
0.0
 40
0.0
 40
0.0
 40
0.0038772054
 40
0.0070578596
 40
0.0095485673
 40
0.0113655141
 40
0.0120349089
 40
0.0125607264
 40
0.0129719248
 40
0.0133270624
 40
0.0141820716
 40
0.0155726647
 40
0.017612085
 40
0.0203324563
 40
0.0237457014
 40
0.0278568638
 40
0.0326678184
 40
0.0381769581
 40
0.0512753994
 40
0.0671203656
 40
0.085675027
 40
0.1068866949
 40
0.1306920144
 40
0.1570266628
 40
0.1858162561
 40
0.2169736879
 40
0.2504108662
 40
0.3237363319
 40
0.4049387262
 40
0.4930808939000001
 40
0.5871453253
 40
0.6860278045000001
 40
0.7885917963
 40
1.0
 40
1.0
 40
1.0
 40
1.0
 10
97.56178571401731
 20
38.3819266104
 30
0.0
 10
97.5619031795173
 20
38.3814507366
 30
0.0
 10
97.56212797701731
 20
38.3805871657
 30
0.0
 10
97.56247713461732
 20
38.3794308869
 30
0.0
 10
97.5628048111173
 20
38.3785425848
 30
0.0
 10
97.5630783545173
 20
38.3779727154
 30
0.0
 10
97.56329890131731
 20
38.3776607599
 30
0.0
 10
97.5634435145173
 20
38.3775164993
 30
0.0
 10
97.5635897787173
 20
38.3774350045
 30
0.0
 10
97.56380550331732
 20
38.3774325719
 30
0.0
 10
97.5640566577173
 20
38.37769520070001
 30
0.0
 10
97.56426095721732
 20
38.37818960550001
 30
0.0
 10
97.56446666671731
 20
38.3789451219
 30
0.0
 10
97.56464738101731
 20
38.3799615596
 30
0.0
 10
97.56481252011731
 20
38.3812470286
 30
0.0
 10
97.56495654901732
 20
38.3827998383
 30
0.0
 10
97.5650803919173
 20
38.3846202281
 30
0.0
 10
97.5652256925173
 20
38.3875773427
 30
0.0
 10
97.56534164011732
 20
38.391931785
 30
0.0
 10
97.5653913887173
 20
38.3979364709
 30
0.0
 10
97.56535554161731
 20
38.404966946
 30
0.0
 10
97.56523402881732
 20
38.4130028651
 30
0.0
 10
97.56502670361731
 20
38.4220208484
 30
0.0
 10
97.56473374601732
 20
38.4319948946
 30
0.0
 10
97.56435578381731
 20
38.4428961355
 30
0.0
 10
97.5638939893173
 20
38.4546927863
 30
0.0
 10
97.5631444823173
 20
38.4721125922
 30
0.0
 10
97.5619998620173
 20
38.495847755
 30
0.0
 10
97.56035929191732
 20
38.5264823665
 30
0.0
 10
97.55843013621731
 20
38.5597267619
 30
0.0
 10
97.5562343436173
 20
38.5951942769
 30
0.0
 10
97.55379738031731
 20
38.6324733359
 30
0.0
 10
97.55022719411732
 20
38.6845443261
 30
0.0
 10
97.5473341698173
 20
38.7241314895
 30
0.0
 10
97.5453115732173
 20
38.7507811191
 30
0.0
  0
LINE
  5
2422
330
222
100
AcDbEntity
  8
0
  6
Continuous
 62
     7
100
AcDbLine
 10
97.5453115732173
 20
38.7507811191
 30
0.0
 11
97.54526772561732
 21
38.75135869440001
 31
0.0
  0
SPLINE
  5
2423
330
222
100
AcDbEntity
  8
0
  6
Continuous
 62
     7
100
AcDbSpline
210
0.0
220
0.0
230
1.0
 70
     8
 71
     3
 72
    39
 73
    35
 74
     0
 42
0.0000001
 43
0.0000000001
 40
0.0
 40
0.0
 40
0.0
 40
0.0
 40
0.0038878884
 40
0.007077807
 40
0.0095763517
 40
0.0113995935
 40
0.0120714207
 40
0.012599017
 40
0.0130110397
 40
0.0133657082
 40
0.0142173437
 40
0.0156050093
 40
0.0176427561
 40
0.02036272
 40
0.0237767415
 40
0.0278897698
 40
0.0327036903
 40
0.0382171037
 40
0.0513276531
 40
0.0671887723
 40
0.0857630531
 40
0.1069979323
 40
0.1308292304
 40
0.1571917709
 40
0.1860109456
 40
0.2171988445
 40
0.2506663879
 40
0.3240496662
 40
0.4052998317000001
 40
0.4934723547
 40
0.5875417373
 40
0.6863957579000001
 40
0.7888898732
 40
1.0
 40
1.0
 40
1.0
 40
1.0
 10
97.5056523890173
 20
39.120509774
 30
0.0
 10
97.5056965755173
 20
39.1210020738
 30
0.0
 10
97.50578830251731
 20
39.1218973035
 30
0.0
 10
97.50595888461731
 20
39.1231034808
 30
0.0
 10
97.50614888121731
 20
39.1240395195
 30
0.0
 10
97.5063335605173
 20
39.1246499492
 30
0.0
 10
97.50650483311732
 20
39.1249953362
 30
0.0
 10
97.50662627691731
 20
39.1251617792
 30
0.0
 10
97.50675873771731
 20
39.1252660769
 30
0.0
 10
97.50697221151732
 20
39.1253029908
 30
0.0
 10
97.5072619600173
 20
39.1250810233
 30
0.0
 10
97.50753922381731
 20
39.1246212887
 30
0.0
 10
97.5078580781173
 20
39.1239019617
 30
0.0
 10
97.50819157051731
 20
39.12291896860001
 30
0.0
 10
97.5085505929173
 20
39.121665756
 30
0.0
 10
97.50892925601732
 20
39.1201431565
 30
0.0
 10
97.50932856111731
 20
39.1183510615
 30
0.0
 10
97.50992180641731
 20
39.1154308789
 30
0.0
 10
97.51069813381732
 20
39.1111154736
 30
0.0
 10
97.51165939201731
 20
39.1051475607
 30
0.0
 10
97.5126915161173
 20
39.0981455195
 30
0.0
 10
97.5137912928173
 20
39.0901297177
 30
0.0
 10
97.51495502511732
 20
39.0811235718
 30
0.0
 10
97.51617892111731
 20
39.0711531967
 30
0.0
 10
97.51745917581731
 20
39.0602476199
 30
0.0
 10
97.51879210811731
 20
39.0484388717
 30
0.0
 10
97.52069310721731
 20
39.0309928304
 30
0.0
 10
97.52316042591731
 20
39.0072064543
 30
0.0
 10
97.52618235301731
 20
38.9764859777
 30
0.0
 10
97.52931309311732
 20
38.9431339715
 30
0.0
 10
97.53251548891732
 20
38.9075411129
 30
0.0
 10
97.5357520879173
 20
38.8701234581
 30
0.0
 10
97.54010477861731
 20
38.81786732670001
 30
0.0
 10
97.54323549011731
 20
38.7781206987
 30
0.0
 10
97.54526772561732
 20
38.75135869440001
 30
0.0
  0
LINE
  5
2424
330
222
100
AcDbEntity
  8
0
  6
Continuous
 62
     9
100
AcDbLine
 10
97.50627953481732
 20
38.9101934118
 30
0.0
 11
97.50657974691732
 21
38.9122873198
 31
0.0
  0
LINE
  5
2425
330
222
100
AcDbEntity
  8
0
  6
Continuous
 62
     9
100
AcDbLine
 10
97.51270926511731
 20
38.74994792360001
 30
0.0
 11
97.51262729251731
 21
38.7510287821
 31
0.0
  0
SPLINE
  5
2426
330
222
100
AcDbEntity
  8
0
  6
Continuous
 62
     9
100
AcDbSpline
210
0.0
220
0.0
230
1.0
 70
     8
 71
     3
 72
    47
 73
    43
 74
     0
 42
0.0000001
 43
0.0000000001
 40
0.0
 40
0.0
 40
0.0
 40
0.0
 40
0.097564877
 40
0.1912392939
 40
0.2774549251
 40
0.3167298405
 40
0.3529406068999999
 40
0.3857417903
 40
0.4148228934000001
 40
0.4399085868000001
 40
0.4508754570000001
 40
0.4607592167
 40
0.4695366802000001
 40
0.4771851008
 40
0.4836872874
 40
0.4890329898
 40
0.493214209
 40
0.4948670453
 40
0.4962285643000001
 40
0.4973017623
 40
0.4980948648
 40
0.4986293936
 40
0.4989784696
 40
0.4999001968
 40
0.5007407439
 40
0.5018632734000001
 40
0.5032748893
 40
0.5049781335
 40
0.5092603205
 40
0.514706487
 40
0.521308161
 40
0.5290547483
 40
0.5379287627
 40
0.5589665106
 40
0.5842300722
 40
0.6134779020000001
 40
0.6464330600000001
 40
0.6827835513
 40
0.7221826173999999
 40
0.8085951985999999
 40
0.9023921354
 40
1.0
 40
1.0
 40
1.0
 40
1.0
 10
97.51262729251731
 20
38.7510287821
 30
0.0
 10
97.51189362131732
 20
38.7607150794
 30
0.0
 10
97.51050395101731
 20
38.7797051368
 30
0.0
 10
97.50863461401731
 20
38.8072667297
 30
0.0
 10
97.50728768951731
 20
38.8290464574
 30
0.0
 10
97.50638597261731
 20
38.8451210108
 30
0.0
 10
97.5058289126173
 20
38.8558882264
 30
0.0
 10
97.50537461931731
 20
38.865644342
 30
0.0
 10
97.5050272762173
 20
38.8742963988
 30
0.0
 10
97.50482030561732
 20
38.8807782494
 30
0.0
 10
97.50471569041732
 20
38.8853507314
 30
0.0
 10
97.50466920481731
 20
38.8883003148
 30
0.0
 10
97.50465098511732
 20
38.890919814
 30
0.0
 10
97.50466104311731
 20
38.8932026835
 30
0.0
 10
97.50469897051731
 20
38.8951435735
 30
0.0
 10
97.5047643577173
 20
38.89673831280001
 30
0.0
 10
97.50484503661731
 20
38.8978488349
 30
0.0
 10
97.5049290451173
 20
38.898560611
 30
0.0
 10
97.5049942160173
 20
38.8989622009
 30
0.0
 10
97.50506355331731
 20
38.8992770388
 30
0.0
 10
97.50514305951732
 20
38.8995018601
 30
0.0
 10
97.50521911321731
 20
38.8996539794
 30
0.0
 10
97.50539849791731
 20
38.8997473828
 30
0.0
 10
97.50555963361732
 20
38.8995201499
 30
0.0
 10
97.5056758288173
 20
38.89928104
 30
0.0
 10
97.5057980102173
 20
38.8989592708
 30
0.0
 10
97.50592255561732
 20
38.8985590961
 30
0.0
 10
97.50611525541732
 20
38.8978467281
 30
0.0
 10
97.50636412111731
 20
38.8967365514
 30
0.0
 10
97.50667220821732
 20
38.8951396359
 30
0.0
 10
97.5070050365173
 20
38.8931971216
 30
0.0
 10
97.5073620212173
 20
38.8909126236
 30
0.0
 10
97.50789949661731
 20
38.8872018514
 30
0.0
 10
97.50861438991732
 20
38.8817548135
 30
0.0
 10
97.5095105940173
 20
38.8742862632
 30
0.0
 10
97.51047734771731
 20
38.8656314037
 30
0.0
 10
97.51150498901731
 20
38.8558728417
 30
0.0
 10
97.5125833182173
 20
38.845103472
 30
0.0
 10
97.51412259501732
 20
38.82903130840001
 30
0.0
 10
97.5160831914173
 20
38.8072538803
 30
0.0
 10
97.51839986801732
 20
38.77969006420001
 30
0.0
 10
97.5198949249173
 20
38.7606914832
 30
0.0
 10
97.52063261261731
 20
38.7510011985
 30
0.0
  0
LINE
  5
2427
330
222
100
AcDbEntity
  8
0
  6
Continuous
 62
     9
100
AcDbLine
 10
97.52063261261731
 20
38.7510011985
 30
0.0
 11
97.52066557211731
 21
38.75056802079999
 31
0.0
  0
LINE
  5
2428
330
222
100
AcDbEntity
  8
0
  6
Continuous
 62
     9
100
AcDbLine
 10
97.52066557211731
 20
38.75056802079999
 30
0.0
 11
97.5207126952173
 21
38.74994792360001
 31
0.0
  0
SPLINE
  5
2429
330
222
100
AcDbEntity
  8
0
  6
Continuous
 62
     9
100
AcDbSpline
210
0.0
220
0.0
230
1.0
 70
     8
 71
     3
 72
    17
 73
    13
 74
     0
 42
0.0000001
 43
0.0000000001
 40
0.0
 40
0.0
 40
0.0
 40
0.0
 40
0.0890425517
 40
0.1411779006
 40
0.1618857109
 40
0.1865635631
 40
0.2192190183
 40
0.2616434524
 40
0.3785185384
 40
0.5400664596000001
 40
0.7471222337000001
 40
1.0
 40
1.0
 40
1.0
 40
1.0
 10
97.50657975361731
 20
38.912287341
 30
0.0
 10
97.50660823691731
 20
38.9123773629
 30
0.0
 10
97.50665602261731
 20
38.9125141042
 30
0.0
 10
97.50677695631731
 20
38.9126645462
 30
0.0
 10
97.50688695991732
 20
38.9126635463
 30
0.0
 10
97.50695880541732
 20
38.9126176126
 30
0.0
 10
97.5070296742173
 20
38.9125385583
 30
0.0
 10
97.50713920881731
 20
38.9123661644
 30
0.0
 10
97.5072751415173
 20
38.9120528857
 30
0.0
 10
97.50743919341731
 20
38.9115648502
 30
0.0
 10
97.50761489731729
 20
38.910929359
 30
0.0
 10
97.5077284936173
 20
38.9104550181
 30
0.0
 10
97.5077879708173
 20
38.9101935465
 30
0.0
  0
SPLINE
  5
242A
330
222
100
AcDbEntity
  8
0
  6
Continuous
 62
     9
100
AcDbSpline
210
0.0
220
0.0
230
1.0
 70
     8
 71
     3
 72
    17
 73
    13
 74
     0
 42
0.0000001
 43
0.0000000001
 40
0.0
 40
0.0
 40
0.0
 40
0.0
 40
0.0194650675
 40
0.0463073543
 40
0.0803521923
 40
0.121342553
 40
0.2229089599
 40
0.3479732963
 40
0.4927828678
 40
0.6529871636
 40
0.8237660190999999
 40
1.0
 40
1.0
 40
1.0
 40
1.0
 10
97.5077879708173
 20
38.9101935465
 30
0.0
 10
97.50801792231731
 20
38.9091826429
 30
0.0
 10
97.50847260781732
 20
38.9067572808
 30
0.0
 10
97.5091405657173
 20
38.9025301374
 30
0.0
 10
97.5098875403173
 20
38.8971553576
 30
0.0
 10
97.51106840061732
 20
38.8878237258
 30
0.0
 10
97.5126618398173
 20
38.8736587204
 30
0.0
 10
97.5146712858173
 20
38.8539776396
 30
0.0
 10
97.5168235301173
 20
38.8311724065
 30
0.0
 10
97.5190531678173
 20
38.8059294086
 30
0.0
 10
97.52129140111732
 20
38.7790073312
 30
0.0
 10
97.52273611101731
 20
38.7605815823
 30
0.0
 10
97.52344851111731
 20
38.7512222719
 30
0.0
  0
LINE
  5
242B
330
222
100
AcDbEntity
  8
0
  6
Continuous
 62
     9
100
AcDbLine
 10
97.52344851111731
 20
38.7512222719
 30
0.0
 11
97.52353108481731
 21
38.7501361625
 31
0.0
  0
SPLINE
  5
242C
330
222
100
AcDbEntity
  8
0
  6
Continuous
 62
     9
100
AcDbSpline
210
0.0
220
0.0
230
1.0
 70
     8
 71
     3
 72
    47
 73
    43
 74
     0
 42
0.0000001
 43
0.0000000001
 40
0.0
 40
0.0
 40
0.0
 40
0.0
 40
0.0973722419
 40
0.1909755659
 40
0.2771991778
 40
0.3164997987
 40
0.3527450347
 40
0.3855866788
 40
0.4147103083000001
 40
0.4398383076
 40
0.4508251944
 40
0.4607278382000001
 40
0.4695228929
 40
0.4771874183
 40
0.4837038203000001
 40
0.4890616874
 40
0.4932529068
 40
0.4949098834
 40
0.4962749325
 40
0.4973509832
 40
0.4981461757
 40
0.4986818412
 40
0.4990306619
 40
0.4999503421
 40
0.5007908214
 40
0.5019139400000001
 40
0.5033267765999999
 40
0.5050318364000001
 40
0.5093193646000001
 40
0.5147730505000001
 40
0.5213843198000001
 40
0.5291424283000001
 40
0.5380295215
 40
0.5590973709
 40
0.5843947694000001
 40
0.6136771008
 40
0.646665159
 40
0.6830431231000001
 40
0.7224614799
 40
0.8088712655
 40
0.9025891943999999
 40
1.0
 40
1.0
 40
1.0
 40
1.0
 10
97.5207126952173
 20
38.74994792360001
 30
0.0
 10
97.52145204351732
 20
38.7402116298
 30
0.0
 10
97.52285313241731
 20
38.7211121347
 30
0.0
 10
97.52473883131731
 20
38.6933789731
 30
0.0
 10
97.52609886091732
 20
38.6714471692
 30
0.0
 10
97.52701032151732
 20
38.6552507829
 30
0.0
 10
97.52757392681731
 20
38.644396449
 30
0.0
 10
97.52803402221731
 20
38.6345587601
 30
0.0
 10
97.52838629971732
 20
38.6258322369
 30
0.0
 10
97.5285967545173
 20
38.6192934903
 30
0.0
 10
97.52870365081731
 20
38.614680137
 30
0.0
 10
97.52875151711732
 20
38.61170377150001
 30
0.0
 10
97.52877086021731
 20
38.6090602386
 30
0.0
 10
97.52876167041732
 20
38.6067562047
 30
0.0
 10
97.52872434591731
 20
38.6047971312
 30
0.0
 10
97.52865930161732
 20
38.6031872829
 30
0.0
 10
97.52857870211732
 20
38.6020661141
 30
0.0
 10
97.52849461421732
 20
38.6013473963
 30
0.0
 10
97.52842930691731
 20
38.6009418029
 30
0.0
 10
97.5283598228173
 20
38.6006237804
 30
0.0
 10
97.52828000281731
 20
38.6003965775
 30
0.0
 10
97.52820388851731
 20
38.6002429116
 30
0.0
 10
97.5280237478173
 20
38.6001477968
 30
0.0
 10
97.5278614462173
 20
38.6003769656
 30
0.0
 10
97.52774491491731
 20
38.600617639
 30
0.0
 10
97.52762203921731
 20
38.6009420522
 30
0.0
 10
97.52749684781731
 20
38.6013455192
 30
0.0
 10
97.52730304871731
 20
38.6020639515
 30
0.0
 10
97.52705274001732
 20
38.6031836553
 30
0.0
 10
97.5267427924173
 20
38.604794376
 30
0.0
 10
97.52640790061732
 20
38.6067537743
 30
0.0
 10
97.52604865671731
 20
38.6090581577
 30
0.0
 10
97.52550773301731
 20
38.6128011174
 30
0.0
 10
97.52478819731731
 20
38.6182950336
 30
0.0
 10
97.52388615821731
 20
38.6258271069
 30
0.0
 10
97.52291315481731
 20
38.6345542676
 30
0.0
 10
97.52187903101731
 20
38.6443924073
 30
0.0
 10
97.52079410251731
 20
38.6552470791
 30
0.0
 10
97.51924613671732
 20
38.67143905050001
 30
0.0
 10
97.5172755919173
 20
38.69336658530001
 30
0.0
 10
97.5149492049173
 20
38.7211004089
 30
0.0
 10
97.5134489062173
 20
38.7402077738
 30
0.0
 10
97.51270926511731
 20
38.74994792360001
 30
0.0
  0
SPLINE
  5
242D
330
222
100
AcDbEntity
  8
0
  6
Continuous
 62
     9
100
AcDbSpline
210
0.0
220
0.0
230
1.0
 70
     8
 71
     3
 72
    17
 73
    13
 74
     0
 42
0.0000001
 43
0.0000000001
 40
0.0
 40
0.0
 40
0.0
 40
0.0
 40
0.1765019594
 40
0.3475826079
 40
0.5080488745000001
 40
0.6530298557
 40
0.7781271580000001
 40
0.8795511925999999
 40
0.9203963646
 40
0.9542440545999999
 40
0.9808365564
 40
1.0
 40
1.0
 40
1.0
 40
1.0
 10
97.52353108481731
 20
38.7501361625
 30
0.0
 10
97.52424533091732
 20
38.7407304329
 30
0.0
 10
97.52560948011732
 20
38.7222046243
 30
0.0
 10
97.52747564501731
 20
38.6951170237
 30
0.0
 10
97.52909458181731
 20
38.6697012937
 30
0.0
 10
97.53041895601732
 20
38.6467295985
 30
0.0
 10
97.53140912911732
 20
38.6268999314
 30
0.0
 10
97.5319741092173
 20
38.6126215925
 30
0.0
 10
97.53221425341731
 20
38.6032123441
 30
0.0
 10
97.5322852484173
 20
38.5977994334
 30
0.0
 10
97.53226001041731
 20
38.5935453121
 30
0.0
 10
97.53217384401731
 20
38.5911001531
 30
0.0
 10
97.53209664621731
 20
38.5900789131
 30
0.0
  0
SPLINE
  5
242E
330
222
100
AcDbEntity
  8
0
  6
Continuous
 62
     9
100
AcDbSpline
210
0.0
220
0.0
230
1.0
 70
     8
 71
     3
 72
    17
 73
    13
 74
     0
 42
0.0000001
 43
0.0000000001
 40
0.0
 40
0.0
 40
0.0
 40
0.0
 40
0.2521767985999999
 40
0.458391621
 40
0.6189933490000001
 40
0.7348898246
 40
0.7768737368
 40
0.8091972018999999
 40
0.8337919924999999
 40
0.8548634251999999
 40
0.9087939119999999
 40
1.0
 40
1.0
 40
1.0
 40
1.0
 10
97.53209664621731
 20
38.5900789131
 30
0.0
 10
97.53207721911731
 20
38.5898219152
 30
0.0
 10
97.53203643631731
 20
38.5893551665
 30
0.0
 10
97.53195885911731
 20
38.5887269799
 30
0.0
 10
97.53187088891731
 20
38.5882414876
 30
0.0
 10
97.53178456431731
 20
38.5879262547
 30
0.0
 10
97.53170304461731
 20
38.5877490026
 30
0.0
 10
97.53164551611732
 20
38.5876653593
 30
0.0
 10
97.5315815425173
 20
38.5876135067
 30
0.0
 10
97.53147419131732
 20
38.5876014194
 30
0.0
 10
97.53133645191731
 20
38.5877313404
 30
0.0
 10
97.53126842211731
 20
38.5878581068
 30
0.0
 10
97.53122719771731
 20
38.5879417105
 30
0.0
  0
SPLINE
  5
242F
330
222
100
AcDbEntity
  8
0
  6
Continuous
 62
     9
100
AcDbSpline
210
0.0
220
0.0
230
1.0
 70
     8
 71
     3
 72
    16
 73
    12
 74
     0
 42
0.0000001
 43
0.0000000001
 40
0.0
 40
0.0
 40
0.0
 40
0.0
 40
0.0805728081
 40
0.1258235091
 40
0.1696722111
 40
0.2038272853
 40
0.2480912929
 40
0.3688927189
 40
0.5341490041000001
 40
0.7444512637999999
 40
1.0
 40
1.0
 40
1.0
 40
1.0
 10
97.54431294141731
 20
38.56141359929999
 30
0.0
 10
97.54436439881731
 20
38.5613092142
 30
0.0
 10
97.54443903171731
 20
38.5611521434
 30
0.0
 10
97.54467172571731
 20
38.5609759808
 30
0.0
 10
97.54483330391732
 20
38.561118511
 30
0.0
 10
97.5449096690173
 20
38.5612722984
 30
0.0
 10
97.54501240441731
 20
38.5615440837
 30
0.0
 10
97.54511514651731
 20
38.5620100571
 30
0.0
 10
97.54522137221732
 20
38.562719711
 30
0.0
 10
97.5453115452173
 20
38.56362695340001
 30
0.0
 10
97.54535784221731
 20
38.5642983316
 30
0.0
 10
97.5453794174173
 20
38.5646668147
 30
0.0
  0
SPLINE
  5
2430
330
222
100
AcDbEntity
  8
0
  6
Continuous
 62
     9
100
AcDbSpline
210
0.0
220
0.0
230
1.0
 70
     8
 71
     3
 72
    16
 73
    12
 74
     0
 42
0.0000001
 43
0.0000000001
 40
0.0
 40
0.0
 40
0.0
 40
0.0
 40
0.0207184594
 40
0.0486305142
 40
0.1252382253
 40
0.2276218068
 40
0.3527828332
 40
0.4970528638000001
 40
0.6561708704
 40
0.8255029897
 40
1.0
 40
1.0
 40
1.0
 40
1.0
 10
97.5453794174173
 20
38.5646668147
 30
0.0
 10
97.54545475331731
 20
38.5659534755
 30
0.0
 10
97.54553583781731
 20
38.5689787174
 30
0.0
 10
97.5455413813173
 20
38.5767697077
 30
0.0
 10
97.54521379741731
 20
38.5896385131
 30
0.0
 10
97.5444536406173
 20
38.6085440393
 30
0.0
 10
97.5432839435173
 20
38.63164495719999
 30
0.0
 10
97.54174111881731
 20
38.6582597918
 30
0.0
 10
97.53986545761732
 20
38.6876072986
 30
0.0
 10
97.5377116311173
 20
38.7188207766
 30
0.0
 10
97.53614016561732
 20
38.740152158
 30
0.0
 10
97.53531821711732
 20
38.7509761934
 30
0.0
  0
LINE
  5
2431
330
222
100
AcDbEntity
  8
0
  6
Continuous
 62
     9
100
AcDbLine
 10
97.54557004001732
 20
38.5576746932
 30
0.0
 11
97.54560816981729
 21
38.5574567882
 31
0.0
  0
SPLINE
  5
2432
330
222
100
AcDbEntity
  8
0
  6
Continuous
 62
     9
100
AcDbSpline
210
0.0
220
0.0
230
1.0
 70
     8
 71
     3
 72
    24
 73
    20
 74
     0
 42
0.0000001
 43
0.0000000001
 40
0.0
 40
0.0
 40
0.0
 40
0.0
 40
0.2134144253
 40
0.2981123448
 40
0.3681078545
 40
0.4234391270000001
 40
0.4642752755
 40
0.4912252029000001
 40
0.5067452502
 40
0.5133794093999999
 40
0.5216760784000001
 40
0.5327288227000001
 40
0.5470116818000001
 40
0.586009322
 40
0.6394580949000001
 40
0.7075570098
 40
0.7903564526000002
 40
0.8878490324999999
 40
1.0
 40
1.0
 40
1.0
 40
1.0
 10
97.54573075351732
 20
38.5567704532
 30
0.0
 10
97.54589289761732
 20
38.5558773484
 30
0.0
 10
97.54613239091732
 20
38.5546317389
 30
0.0
 10
97.5464809798173
 20
38.5531054696
 30
0.0
 10
97.54670862171732
 20
38.5522408946
 30
0.0
 10
97.54691686401731
 20
38.5515667694
 30
0.0
 10
97.5471180773173
 20
38.5510778855
 30
0.0
 10
97.54728242291731
 20
38.5507728996
 30
0.0
 10
97.5474705703173
 20
38.5506251707
 30
0.0
 10
97.54760228311731
 20
38.550667468
 30
0.0
 10
97.5476798088173
 20
38.5507492187
 30
0.0
 10
97.5477521054173
 20
38.5508732542
 30
0.0
 10
97.54785370811731
 20
38.551128079
 30
0.0
 10
97.54796153541731
 20
38.55157049440001
 30
0.0
 10
97.54807031691731
 20
38.5522447159
 30
0.0
 10
97.54816525131731
 20
38.55310900940001
 30
0.0
 10
97.54824633131732
 20
38.5541624413
 30
0.0
 10
97.5483127208173
 20
38.555404598
 30
0.0
 10
97.54834480381731
 20
38.5562957215
 30
0.0
 10
97.5483589445173
 20
38.5567725176
 30
0.0
  0
LINE
  5
2433
330
222
100
AcDbEntity
  8
0
  6
Continuous
 62
     9
100
AcDbLine
 10
97.54839051471732
 20
38.5580698789
 30
0.0
 11
97.54842495331731
 21
38.5621020089
 31
0.0
  0
SPLINE
  5
2434
330
222
100
AcDbEntity
  8
0
  6
Continuous
 62
     9
100
AcDbSpline
210
0.0
220
0.0
230
1.0
 70
     8
 71
     3
 72
    12
 73
     8
 74
     0
 42
0.0000001
 43
0.0000000001
 40
0.0
 40
0.0
 40
0.0
 40
0.0
 40
0.0735410048
 40
0.1664644959
 40
0.4023623402000001
 40
0.6881183893000001
 40
1.0
 40
1.0
 40
1.0
 40
1.0
 10
97.54838008151731
 20
38.5675010683
 30
0.0
 10
97.54831265231731
 20
38.5720101308
 30
0.0
 10
97.54803083341732
 20
38.5822145925
 30
0.0
 10
97.54703546711731
 20
38.6068677884
 30
0.0
 10
97.54499883031732
 20
38.6445004091
 30
0.0
 10
97.54173109541731
 20
38.6955089534
 30
0.0
 10
97.53909098521731
 20
38.73206164320001
 30
0.0
 10
97.53764287431732
 20
38.75113145610001
 30
0.0
  0
SPLINE
  5
2435
330
222
100
AcDbEntity
  8
0
  6
Continuous
 62
     9
100
AcDbSpline
210
0.0
220
0.0
230
1.0
 70
     8
 71
     3
 72
    12
 73
     8
 74
     0
 42
0.0000001
 43
0.0000000001
 40
0.0
 40
0.0
 40
0.0
 40
0.0
 40
0.3112490313
 40
0.5967895997000001
 40
0.8329050629999999
 40
0.926094855
 40
1.0
 40
1.0
 40
1.0
 40
1.0
 10
97.53764287431732
 20
38.75113145610001
 30
0.0
 10
97.5361938600173
 20
38.770213164
 30
0.0
 10
97.53328038921731
 20
38.8067904686
 30
0.0
 10
97.52880049931732
 20
38.85780431820001
 30
0.0
 10
97.52512183721732
 20
38.8954292326
 30
0.0
 10
97.52237442591731
 20
38.920067514
 30
0.0
 10
97.52110724901731
 20
38.9302632943
 30
0.0
 10
97.52049081081731
 20
38.9347652256
 30
0.0
  0
SPLINE
  5
2436
330
222
100
AcDbEntity
  8
0
  6
Continuous
 62
     9
100
AcDbSpline
210
0.0
220
0.0
230
1.0
 70
     8
 71
     3
 72
    24
 73
    20
 74
     0
 42
0.0000001
 43
0.0000000001
 40
0.0
 40
0.0
 40
0.0
 40
0.0
 40
0.2134144253
 40
0.2981123448
 40
0.3681078545
 40
0.4234391270000001
 40
0.4642752755
 40
0.4912252029000001
 40
0.5067452502
 40
0.5133794093999999
 40
0.5216760784000001
 40
0.5327288227000001
 40
0.5470116818000001
 40
0.586009322
 40
0.6394580949000001
 40
0.7075570098
 40
0.7903564526000002
 40
0.8878490324999999
 40
1.0
 40
1.0
 40
1.0
 40
1.0
 10
97.51884036681731
 20
38.94549245909999
 30
0.0
 10
97.5186782227173
 20
38.9463855639
 30
0.0
 10
97.51843872931731
 20
38.94763117340001
 30
0.0
 10
97.51809014041732
 20
38.9491574427
 30
0.0
 10
97.5178624986173
 20
38.9500220177
 30
0.0
 10
97.51765425621732
 20
38.9506961429
 30
0.0
 10
97.51745304301731
 20
38.9511850268
 30
0.0
 10
97.51728869741731
 20
38.9514900126
 30
0.0
 10
97.51710054991731
 20
38.9516377416
 30
0.0
 10
97.5169688371173
 20
38.9515954442
 30
0.0
 10
97.51689131141731
 20
38.9515136936
 30
0.0
 10
97.5168190149173
 20
38.95138965800001
 30
0.0
 10
97.5167174121173
 20
38.9511348333
 30
0.0
 10
97.5166095848173
 20
38.9506924178
 30
0.0
 10
97.51650080331732
 20
38.9500181963
 30
0.0
 10
97.5164058690173
 20
38.9491539029
 30
0.0
 10
97.51632478891732
 20
38.948100471
 30
0.0
 10
97.51625839941731
 20
38.9468583143
 30
0.0
 10
97.51622631641732
 20
38.9459671907
 30
0.0
 10
97.51621217571731
 20
38.9454903947
 30
0.0
  0
LINE
  5
2437
330
222
100
AcDbEntity
  8
0
  6
Continuous
 62
     9
100
AcDbLine
 10
97.51618270921731
 20
38.9442989772
 30
0.0
 11
97.51618032301731
 21
38.9441784992
 31
0.0
  0
SPLINE
  5
2438
330
222
100
AcDbEntity
  8
0
  6
Continuous
 62
     9
100
AcDbSpline
210
0.0
220
0.0
230
1.0
 70
     8
 71
     3
 72
    16
 73
    12
 74
     0
 42
0.0000001
 43
0.0000000001
 40
0.0
 40
0.0
 40
0.0
 40
0.0
 40
0.1739832249
 40
0.3429375622
 40
0.5018249431
 40
0.6460179749
 40
0.7712577641
 40
0.873873275
 40
0.9508587791
 40
0.9790106960999999
 40
1.0
 40
1.0
 40
1.0
 40
1.0
 10
97.53531821711732
 20
38.7509761934
 30
0.0
 10
97.53449597181731
 20
38.7618041377
 30
0.0
 10
97.53282708671731
 20
38.7831434284
 30
0.0
 10
97.53024024511731
 20
38.8143578069
 30
0.0
 10
97.52765857471731
 20
38.8437065727
 30
0.0
 10
97.52515904821731
 20
38.8703230823
 30
0.0
 10
97.52281983161731
 20
38.8934267292
 30
0.0
 10
97.5207082412173
 20
38.912335715
 30
0.0
 10
97.5190810634173
 20
38.9252018352
 30
0.0
 10
97.5178934032173
 20
38.932984022
 30
0.0
 10
97.5173533693173
 20
38.9360042974
 30
0.0
 10
97.5170835938173
 20
38.9372862613
 30
0.0
  0
SPLINE
  5
2439
330
222
100
AcDbEntity
  8
0
  6
Continuous
 62
     9
100
AcDbSpline
210
0.0
220
0.0
230
1.0
 70
     8
 71
     3
 72
    17
 73
    13
 74
     0
 42
0.0000001
 43
0.0000000001
 40
0.0
 40
0.0
 40
0.0
 40
0.0
 40
0.255667414
 40
0.4662933418
 40
0.6320523183
 40
0.7534856140999999
 40
0.8323234267
 40
0.8762136634999999
 40
0.8956956796
 40
0.9211276079000001
 40
0.9554930137999999
 40
1.0
 40
1.0
 40
1.0
 40
1.0
 10
97.5170835938173
 20
38.9372862613
 30
0.0
 10
97.51700482571731
 20
38.9376605645
 30
0.0
 10
97.51685484281731
 20
38.9383417859
 30
0.0
 10
97.5166214741173
 20
38.9392590085
 30
0.0
 10
97.51641017171731
 20
38.9399717208
 30
0.0
 10
97.5162035590173
 20
38.940485051
 30
0.0
 10
97.51604284521731
 20
38.94080244900001
 30
0.0
 10
97.51584460381732
 20
38.9409531978
 30
0.0
 10
97.51571356351732
 20
38.9408957134
 30
0.0
 10
97.51563800391732
 20
38.9408023376
 30
0.0
 10
97.51556619691731
 20
38.9406631626
 30
0.0
 10
97.51552665231731
 20
38.9405516833
 30
0.0
 10
97.51550657241731
 20
38.9404881967
 30
0.0
  0
ENDSEC
  0
SECTION
  2
OBJECTS
  0
DICTIONARY
  5
C
330
0
100
AcDbDictionary
281
     1
  3
ACAD_CIP_PREVIOUS_PRODUCT_INFO
350
25DD
  3
ACAD_COLOR
350
2573
  3
ACAD_DETAILVIEWSTYLE
350
258C
  3
ACAD_GROUP
350
D
  3
ACAD_LAYOUT
350
1A
  3
ACAD_MATERIAL
350
2541
  3
ACAD_MLEADERSTYLE
350
2588
  3
ACAD_MLINESTYLE
350
17
  3
ACAD_PLOTSETTINGS
350
19
  3
ACAD_PLOTSTYLENAME
350
E
  3
ACAD_SCALELIST
350
2576
  3
ACAD_SECTIONVIEWSTYLE
350
258A
  3
ACAD_TABLESTYLE
350
2574
  3
ACAD_VISUALSTYLE
350
255A
  3
ACDB_RECOMPOSE_DATA
350
26F8
  3
AcDbVariableDictionary
350
25D0
  3
DWGPROPS
350
26F9
  0
DICTIONARY
  5
2591
330
8
100
AcDbDictionary
280
     1
281
     1
  0
DICTIONARY
  5
25DE
330
10
100
AcDbDictionary
280
     1
281
     1
  3
ADSK_XREC_LAYER_RECONCILED
360
25DF
  0
DICTIONARY
  5
25E0
330
1FA
100
AcDbDictionary
280
     1
281
     1
  3
ADSK_XREC_LAYER_RECONCILED
360
25E1
  0
DICTIONARY
  5
25E2
330
1FB
100
AcDbDictionary
280
     1
281
     1
  3
ADSK_XREC_LAYER_RECONCILED
360
25E3
  0
DICTIONARY
  5
25E4
330
1FC
100
AcDbDictionary
280
     1
281
     1
  3
ADSK_XREC_LAYER_RECONCILED
360
25E5
  0
DICTIONARY
  5
25E6
330
1FD
100
AcDbDictionary
280
     1
281
     1
  3
ADSK_XREC_LAYER_RECONCILED
360
25E7
  0
DICTIONARY
  5
25E8
330
1FE
100
AcDbDictionary
280
     1
281
     1
  3
ADSK_XREC_LAYER_RECONCILED
360
25E9
  0
DICTIONARY
  5
25EA
330
1FF
100
AcDbDictionary
280
     1
281
     1
  3
ADSK_XREC_LAYER_RECONCILED
360
25EB
  0
DICTIONARY
  5
25EC
330
200
100
AcDbDictionary
280
     1
281
     1
  3
ADSK_XREC_LAYER_RECONCILED
360
25ED
  0
DICTIONARY
  5
25EE
330
201
100
AcDbDictionary
280
     1
281
     1
  3
ADSK_XREC_LAYER_RECONCILED
360
25EF
  0
DICTIONARY
  5
25F0
330
202
100
AcDbDictionary
280
     1
281
     1
  3
ADSK_XREC_LAYER_RECONCILED
360
25F1
  0
DICTIONARY
  5
25F2
330
203
100
AcDbDictionary
280
     1
281
     1
  3
ADSK_XREC_LAYER_RECONCILED
360
25F3
  0
DICTIONARY
  5
25F4
330
204
100
AcDbDictionary
280
     1
281
     1
  3
ADSK_XREC_LAYER_RECONCILED
360
25F5
  0
DICTIONARY
  5
25F6
330
205
100
AcDbDictionary
280
     1
281
     1
  3
ADSK_XREC_LAYER_RECONCILED
360
25F7
  0
DICTIONARY
  5
25F8
330
206
100
AcDbDictionary
280
     1
281
     1
  3
ADSK_XREC_LAYER_RECONCILED
360
25F9
  0
DICTIONARY
  5
25FA
330
207
100
AcDbDictionary
280
     1
281
     1
  3
ADSK_XREC_LAYER_RECONCILED
360
25FB
  0
DICTIONARY
  5
25FC
330
208
100
AcDbDictionary
280
     1
281
     1
  3
ADSK_XREC_LAYER_RECONCILED
360
25FD
  0
DICTIONARY
  5
25FE
330
209
100
AcDbDictionary
280
     1
281
     1
  3
ADSK_XREC_LAYER_RECONCILED
360
25FF
  0
DICTIONARY
  5
2600
330
20A
100
AcDbDictionary
280
     1
281
     1
  3
ADSK_XREC_LAYER_RECONCILED
360
2601
  0
DICTIONARY
  5
2602
330
20B
100
AcDbDictionary
280
     1
281
     1
  3
ADSK_XREC_LAYER_RECONCILED
360
2603
  0
DICTIONARY
  5
2604
330
20C
100
AcDbDictionary
280
     1
281
     1
  3
ADSK_XREC_LAYER_RECONCILED
360
2605
  0
DICTIONARY
  5
2606
330
20D
100
AcDbDictionary
280
     1
281
     1
  3
ADSK_XREC_LAYER_RECONCILED
360
2607
  0
DICTIONARY
  5
2608
330
20E
100
AcDbDictionary
280
     1
281
     1
  3
ADSK_XREC_LAYER_RECONCILED
360
2609
  0
DICTIONARY
  5
260A
330
20F
100
AcDbDictionary
280
     1
281
     1
  3
ADSK_XREC_LAYER_RECONCILED
360
260B
  0
DICTIONARY
  5
260C
330
210
100
AcDbDictionary
280
     1
281
     1
  3
ADSK_XREC_LAYER_RECONCILED
360
260D
  0
DICTIONARY
  5
260E
330
211
100
AcDbDictionary
280
     1
281
     1
  3
ADSK_XREC_LAYER_RECONCILED
360
260F
  0
DICTIONARY
  5
2610
330
212
100
AcDbDictionary
280
     1
281
     1
  3
ADSK_XREC_LAYER_RECONCILED
360
2611
  0
DICTIONARY
  5
2612
330
213
100
AcDbDictionary
280
     1
281
     1
  3
ADSK_XREC_LAYER_RECONCILED
360
2613
  0
DICTIONARY
  5
2614
330
214
100
AcDbDictionary
280
     1
281
     1
  3
ADSK_XREC_LAYER_RECONCILED
360
2615
  0
DICTIONARY
  5
2616
330
215
100
AcDbDictionary
280
     1
281
     1
  3
ADSK_XREC_LAYER_RECONCILED
360
2617
  0
DICTIONARY
  5
2618
330
216
100
AcDbDictionary
280
     1
281
     1
  3
ADSK_XREC_LAYER_RECONCILED
360
2619
  0
DICTIONARY
  5
261A
330
217
100
AcDbDictionary
280
     1
281
     1
  3
ADSK_XREC_LAYER_RECONCILED
360
261B
  0
DICTIONARY
  5
261C
330
218
100
AcDbDictionary
280
     1
281
     1
  3
ADSK_XREC_LAYER_RECONCILED
360
261D
  0
DICTIONARY
  5
261E
330
219
100
AcDbDictionary
280
     1
281
     1
  3
ADSK_XREC_LAYER_RECONCILED
360
261F
  0
DICTIONARY
  5
2620
330
21A
100
AcDbDictionary
280
     1
281
     1
  3
ADSK_XREC_LAYER_RECONCILED
360
2621
  0
DICTIONARY
  5
2622
330
21B
100
AcDbDictionary
280
     1
281
     1
  3
ADSK_XREC_LAYER_RECONCILED
360
2623
  0
DICTIONARY
  5
2624
330
21C
100
AcDbDictionary
280
     1
281
     1
  3
ADSK_XREC_LAYER_RECONCILED
360
2625
  0
DICTIONARY
  5
2626
330
21D
100
AcDbDictionary
280
     1
281
     1
  3
ADSK_XREC_LAYER_RECONCILED
360
2627
  0
DICTIONARY
  5
2628
330
21E
100
AcDbDictionary
280
     1
281
     1
  3
ADSK_XREC_LAYER_RECONCILED
360
2629
  0
DICTIONARY
  5
262A
330
21F
100
AcDbDictionary
280
     1
281
     1
  3
ADSK_XREC_LAYER_RECONCILED
360
262B
  0
XRECORD
  5
25DD
102
{ACAD_REACTORS
330
C
102
}
330
C
100
AcDbXrecord
280
     1
300
ACDLT
300
2018
300
ACDLT_F_S
  0
DICTIONARY
  5
2573
102
{ACAD_REACTORS
330
C
102
}
330
C
100
AcDbDictionary
281
     1
  0
DICTIONARY
  5
258C
102
{ACAD_REACTORS
330
C
102
}
330
C
100
AcDbDictionary
281
     1
  3
Imperial24
350
258D
  0
DICTIONARY
  5
D
102
{ACAD_REACTORS
330
C
102
}
330
C
100
AcDbDictionary
281
     1
  0
DICTIONARY
  5
1A
102
{ACAD_REACTORS
330
C
102
}
330
C
100
AcDbDictionary
281
     1
  3
Layout1
350
253E
  3
Model
350
253D
  0
DICTIONARY
  5
2541
102
{ACAD_REACTORS
330
C
102
}
330
C
100
AcDbDictionary
281
     1
  3
ByBlock
350
254A
  3
ByLayer
350
2542
  3
Global
350
2552
  0
DICTIONARY
  5
2588
102
{ACAD_REACTORS
330
C
102
}
330
C
100
AcDbDictionary
281
     1
  3
Standard
350
2589
  0
DICTIONARY
  5
17
102
{ACAD_REACTORS
330
C
102
}
330
C
100
AcDbDictionary
281
     1
  3
Standard
350
18
  0
DICTIONARY
  5
19
102
{ACAD_REACTORS
330
C
102
}
330
C
100
AcDbDictionary
281
     1
  0
ACDBDICTIONARYWDFLT
  5
E
102
{ACAD_REACTORS
330
C
102
}
330
C
100
AcDbDictionary
281
     1
  3
Normal
350
F
100
AcDbDictionaryWithDefault
340
F
  0
DICTIONARY
  5
2576
102
{ACAD_REACTORS
330
C
102
}
330
C
100
AcDbDictionary
281
     1
  3
A0
350
2577
  3
A1
350
2578
  3
A2
350
2579
  3
A3
350
257A
  3
A4
350
257B
  3
A5
350
257C
  3
A6
350
257D
  3
A7
350
257E
  3
A8
350
257F
  3
A9
350
2580
  3
B0
350
2581
  3
B1
350
2582
  3
B2
350
2583
  3
B3
350
2584
  3
B4
350
2585
  3
B5
350
2586
  3
B6
350
2587
  0
DICTIONARY
  5
258A
102
{ACAD_REACTORS
330
C
102
}
330
C
100
AcDbDictionary
281
     1
  3
Imperial24
350
258B
  0
DICTIONARY
  5
2574
102
{ACAD_REACTORS
330
C
102
}
330
C
100
AcDbDictionary
281
     1
  3
Standard
350
2575
  0
DICTIONARY
  5
255A
102
{ACAD_REACTORS
330
C
102
}
330
C
100
AcDbDictionary
281
     1
  3
2dWireframe
350
2560
  3
Basic
350
255F
  3
Brighten
350
2566
  3
ColorChange
350
256A
  3
Conceptual
350
2563
  3
Dim
350
2565
  3
EdgeColorOff
350
2572
  3
Facepattern
350
2569
  3
Flat
350
255B
  3
FlatWithEdges
350
255C
  3
Gouraud
350
255D
  3
GouraudWithEdges
350
255E
  3
Hidden
350
2562
  3
JitterOff
350
2570
  3
Linepattern
350
2568
  3
OverhangOff
350
2571
  3
Realistic
350
2564
  3
Shaded
350
256F
  3
Shaded with edges
350
256E
  3
Shades of Gray
350
256B
  3
Sketchy
350
256C
  3
Thicken
350
2567
  3
Wireframe
350
2561
  3
X-Ray
350
256D
  0
XRECORD
  5
26F8
102
{ACAD_REACTORS
330
C
102
}
330
C
100
AcDbXrecord
280
     1
 90
        1
330
2575
  0
DICTIONARY
  5
25D0
102
{ACAD_REACTORS
330
C
102
}
330
C
100
AcDbDictionary
281
     1
  3
CANNOSCALE
350
25D5
  3
CMLEADERSTYLE
350
25D2
  3
CTABLESTYLE
350
25D1
  3
CVIEWDETAILSTYLE
350
25D3
  3
CVIEWSECTIONSTYLE
350
25D4
  3
DIMASSOC
350
25D8
  3
INDEXCTL
350
25D7
  3
SORTENTS
350
25D6
  3
XCLIPFRAME
350
26F6
  0
XRECORD
  5
26F9
102
{ACAD_REACTORS
330
C
102
}
330
C
100
AcDbXrecord
280
     1
  1
DWGPROPS COOKIE
  2

  3

  4

  6

  7

  8
guillaumes
  9

300
=
301
=
302
=
303
=
304
=
305
=
306
=
307
=
308
=
309
=
 40
0.0013194444444444
 41
2458389.568379629
 42
2458389.637372685
  1

 90
        0
  0
XRECORD
  5
25DF
102
{ACAD_REACTORS
330
25DE
102
}
330
25DE
100
AcDbXrecord
280
     1
290
     1
  0
XRECORD
  5
25E1
102
{ACAD_REACTORS
330
25E0
102
}
330
25E0
100
AcDbXrecord
280
     1
290
     1
  0
XRECORD
  5
25E3
102
{ACAD_REACTORS
330
25E2
102
}
330
25E2
100
AcDbXrecord
280
     1
290
     1
  0
XRECORD
  5
25E5
102
{ACAD_REACTORS
330
25E4
102
}
330
25E4
100
AcDbXrecord
280
     1
290
     1
  0
XRECORD
  5
25E7
102
{ACAD_REACTORS
330
25E6
102
}
330
25E6
100
AcDbXrecord
280
     1
290
     1
  0
XRECORD
  5
25E9
102
{ACAD_REACTORS
330
25E8
102
}
330
25E8
100
AcDbXrecord
280
     1
290
     1
  0
XRECORD
  5
25EB
102
{ACAD_REACTORS
330
25EA
102
}
330
25EA
100
AcDbXrecord
280
     1
290
     1
  0
XRECORD
  5
25ED
102
{ACAD_REACTORS
330
25EC
102
}
330
25EC
100
AcDbXrecord
280
     1
290
     1
  0
XRECORD
  5
25EF
102
{ACAD_REACTORS
330
25EE
102
}
330
25EE
100
AcDbXrecord
280
     1
290
     1
  0
XRECORD
  5
25F1
102
{ACAD_REACTORS
330
25F0
102
}
330
25F0
100
AcDbXrecord
280
     1
290
     1
  0
XRECORD
  5
25F3
102
{ACAD_REACTORS
330
25F2
102
}
330
25F2
100
AcDbXrecord
280
     1
290
     1
  0
XRECORD
  5
25F5
102
{ACAD_REACTORS
330
25F4
102
}
330
25F4
100
AcDbXrecord
280
     1
290
     1
  0
XRECORD
  5
25F7
102
{ACAD_REACTORS
330
25F6
102
}
330
25F6
100
AcDbXrecord
280
     1
290
     1
  0
XRECORD
  5
25F9
102
{ACAD_REACTORS
330
25F8
102
}
330
25F8
100
AcDbXrecord
280
     1
290
     1
  0
XRECORD
  5
25FB
102
{ACAD_REACTORS
330
25FA
102
}
330
25FA
100
AcDbXrecord
280
     1
290
     1
  0
XRECORD
  5
25FD
102
{ACAD_REACTORS
330
25FC
102
}
330
25FC
100
AcDbXrecord
280
     1
290
     1
  0
XRECORD
  5
25FF
102
{ACAD_REACTORS
330
25FE
102
}
330
25FE
100
AcDbXrecord
280
     1
290
     1
  0
XRECORD
  5
2601
102
{ACAD_REACTORS
330
2600
102
}
330
2600
100
AcDbXrecord
280
     1
290
     1
  0
XRECORD
  5
2603
102
{ACAD_REACTORS
330
2602
102
}
330
2602
100
AcDbXrecord
280
     1
290
     1
  0
XRECORD
  5
2605
102
{ACAD_REACTORS
330
2604
102
}
330
2604
100
AcDbXrecord
280
     1
290
     1
  0
XRECORD
  5
2607
102
{ACAD_REACTORS
330
2606
102
}
330
2606
100
AcDbXrecord
280
     1
290
     1
  0
XRECORD
  5
2609
102
{ACAD_REACTORS
330
2608
102
}
330
2608
100
AcDbXrecord
280
     1
290
     1
  0
XRECORD
  5
260B
102
{ACAD_REACTORS
330
260A
102
}
330
260A
100
AcDbXrecord
280
     1
290
     1
  0
XRECORD
  5
260D
102
{ACAD_REACTORS
330
260C
102
}
330
260C
100
AcDbXrecord
280
     1
290
     1
  0
XRECORD
  5
260F
102
{ACAD_REACTORS
330
260E
102
}
330
260E
100
AcDbXrecord
280
     1
290
     1
  0
XRECORD
  5
2611
102
{ACAD_REACTORS
330
2610
102
}
330
2610
100
AcDbXrecord
280
     1
290
     1
  0
XRECORD
  5
2613
102
{ACAD_REACTORS
330
2612
102
}
330
2612
100
AcDbXrecord
280
     1
290
     1
  0
XRECORD
  5
2615
102
{ACAD_REACTORS
330
2614
102
}
330
2614
100
AcDbXrecord
280
     1
290
     1
  0
XRECORD
  5
2617
102
{ACAD_REACTORS
330
2616
102
}
330
2616
100
AcDbXrecord
280
     1
290
     1
  0
XRECORD
  5
2619
102
{ACAD_REACTORS
330
2618
102
}
330
2618
100
AcDbXrecord
280
     1
290
     1
  0
XRECORD
  5
261B
102
{ACAD_REACTORS
330
261A
102
}
330
261A
100
AcDbXrecord
280
     1
290
     1
  0
XRECORD
  5
261D
102
{ACAD_REACTORS
330
261C
102
}
330
261C
100
AcDbXrecord
280
     1
290
     1
  0
XRECORD
  5
261F
102
{ACAD_REACTORS
330
261E
102
}
330
261E
100
AcDbXrecord
280
     1
290
     1
  0
XRECORD
  5
2621
102
{ACAD_REACTORS
330
2620
102
}
330
2620
100
AcDbXrecord
280
     1
290
     1
  0
XRECORD
  5
2623
102
{ACAD_REACTORS
330
2622
102
}
330
2622
100
AcDbXrecord
280
     1
290
     1
  0
XRECORD
  5
2625
102
{ACAD_REACTORS
330
2624
102
}
330
2624
100
AcDbXrecord
280
     1
290
     1
  0
XRECORD
  5
2627
102
{ACAD_REACTORS
330
2626
102
}
330
2626
100
AcDbXrecord
280
     1
290
     1
  0
XRECORD
  5
2629
102
{ACAD_REACTORS
330
2628
102
}
330
2628
100
AcDbXrecord
280
     1
290
     1
  0
XRECORD
  5
262B
102
{ACAD_REACTORS
330
262A
102
}
330
262A
100
AcDbXrecord
280
     1
290
     1
  0
ACDBDETAILVIEWSTYLE
  5
258D
102
{ACAD_XDICTIONARY
360
2734
102
}
102
{ACAD_REACTORS
330
258C
102
}
330
258C
100
AcDbModelDocViewStyle
 70
     0
  3
Imperial24
290
     0
100
AcDbDetailViewStyle
 70
     0
 71
     0
 90
        3
 71
     1
340
11
 40
0.24
340
0
 40
0.24
300

 40
0.36
280
     3
 71
     2
340
16
 90
       25
 71
     3
340
11
 40
0.24
 90
        1
 40
0.75
 90
        1
300
%<\AcVar ViewType \f "%tc1">% %<\AcVar ViewDetailId>%\PSCALE %<\AcVar ViewScale \f "%sn">%
 71
     4
340
16
 90
       25
340
16
 90
       25
280
     0
  0
LAYOUT
  5
253E
102
{ACAD_XDICTIONARY
360
26FC
102
}
102
{ACAD_REACTORS
330
1A
102
}
330
1A
100
AcDbPlotSettings
  1

  2
none_device
  4
ANSI_B_(17.00_x_11.00_Inches)
  6

 40
0.0
 41
0.0
 42
0.0
 43
0.0
 44
431.8
 45
279.4
 46
0.0
 47
0.0
 48
0.0
 49
0.0
140
0.0
141
0.0
142
1.0
143
1.0
 70
     0
 72
     0
 73
     0
 74
     0
  7

 75
     0
147
1.0
148
0.0
149
0.0
100
AcDbLayout
  1
Layout1
 70
     1
 71
     1
 10
0.0
 20
0.0
 11
12.0
 21
9.0
 12
0.0
 22
0.0
 32
0.0
 14
1.000000000000000E+20
 24
1.000000000000000E+20
 34
1.000000000000000E+20
 15
-1.000000000000000E+20
 25
-1.000000000000000E+20
 35
-1.000000000000000E+20
146
0.0
 13
0.0
 23
0.0
 33
0.0
 16
1.0
 26
0.0
 36
0.0
 17
0.0
 27
1.0
 37
0.0
 76
     0
330
223
  0
LAYOUT
  5
253D
102
{ACAD_XDICTIONARY
360
26FA
102
}
102
{ACAD_REACTORS
330
1A
102
}
330
1A
100
AcDbPlotSettings
  1

  2
none_device
  4
ANSI_B_(17.00_x_11.00_Inches)
  6

 40
0.0
 41
0.0
 42
0.0
 43
0.0
 44
431.8
 45
279.4
 46
0.0
 47
0.0
 48
0.0
 49
0.0
140
0.0
141
0.0
142
1.0
143
1.0
 70
  1024
 72
     0
 73
     0
 74
     0
  7

 75
     0
147
1.0
148
0.0
149
0.0
100
AcDbLayout
  1
Model
 70
     0
 71
     0
 10
0.0
 20
0.0
 11
17.0
 21
11.0
 12
0.0
 22
0.0
 32
0.0
 14
0.0
 24
0.0
 34
0.0
 15
0.0
 25
0.0
 35
0.0
146
0.0
 13
0.0
 23
0.0
 33
0.0
 16
1.0
 26
0.0
 36
0.0
 17
0.0
 27
1.0
 37
0.0
 76
     0
330
222
331
1F4
  0
MATERIAL
  5
254A
102
{ACAD_XDICTIONARY
360
254B
102
}
102
{ACAD_REACTORS
330
2541
102
}
330
2541
100
AcDbMaterial
  1
ByBlock
 72
     0
 43
0.0208333333333333
 43
0.0
 43
0.0
 43
0.0
 43
0.0
 43
0.0208333333333333
 43
0.0
 43
0.0
 43
0.0
 43
0.0
 43
1.0
 43
0.0
 43
0.0
 43
0.0
 43
0.0
 43
1.0
 77
     0
 47
0.0208333333333333
 47
0.0
 47
0.0
 47
0.0
 47
0.0
 47
0.0208333333333333
 47
0.0
 47
0.0
 47
0.0
 47
0.0
 47
1.0
 47
0.0
 47
0.0
 47
0.0
 47
0.0
 47
1.0
171
     0
 49
0.0208333333333333
 49
0.0
 49
0.0
 49
0.0
 49
0.0
 49
0.0208333333333333
 49
0.0
 49
0.0
 49
0.0
 49
0.0
 49
1.0
 49
0.0
 49
0.0
 49
0.0
 49
0.0
 49
1.0
175
     0
142
0.0208333333333333
142
0.0
142
0.0
142
0.0
142
0.0
142
0.0208333333333333
142
0.0
142
0.0
142
0.0
142
0.0
142
1.0
142
0.0
142
0.0
142
0.0
142
0.0
142
1.0
179
     0
144
0.0208333333333333
144
0.0
144
0.0
144
0.0
144
0.0
144
0.0208333333333333
144
0.0
144
0.0
144
0.0
144
0.0
144
1.0
144
0.0
144
0.0
144
0.0
144
0.0
144
1.0
147
0.0208333333333333
147
0.0
147
0.0
147
0.0
147
0.0
147
0.0208333333333333
147
0.0
147
0.0
147
0.0
147
0.0
147
1.0
147
0.0
147
0.0
147
0.0
147
0.0
147
1.0
  0
MATERIAL
  5
2542
102
{ACAD_XDICTIONARY
360
2543
102
}
102
{ACAD_REACTORS
330
2541
102
}
330
2541
100
AcDbMaterial
  1
ByLayer
 72
     0
 43
0.0208333333333333
 43
0.0
 43
0.0
 43
0.0
 43
0.0
 43
0.0208333333333333
 43
0.0
 43
0.0
 43
0.0
 43
0.0
 43
1.0
 43
0.0
 43
0.0
 43
0.0
 43
0.0
 43
1.0
 77
     0
 47
0.0208333333333333
 47
0.0
 47
0.0
 47
0.0
 47
0.0
 47
0.0208333333333333
 47
0.0
 47
0.0
 47
0.0
 47
0.0
 47
1.0
 47
0.0
 47
0.0
 47
0.0
 47
0.0
 47
1.0
171
     0
 49
0.0208333333333333
 49
0.0
 49
0.0
 49
0.0
 49
0.0
 49
0.0208333333333333
 49
0.0
 49
0.0
 49
0.0
 49
0.0
 49
1.0
 49
0.0
 49
0.0
 49
0.0
 49
0.0
 49
1.0
175
     0
142
0.0208333333333333
142
0.0
142
0.0
142
0.0
142
0.0
142
0.0208333333333333
142
0.0
142
0.0
142
0.0
142
0.0
142
1.0
142
0.0
142
0.0
142
0.0
142
0.0
142
1.0
179
     0
144
0.0208333333333333
144
0.0
144
0.0
144
0.0
144
0.0
144
0.0208333333333333
144
0.0
144
0.0
144
0.0
144
0.0
144
1.0
144
0.0
144
0.0
144
0.0
144
0.0
144
1.0
147
0.0208333333333333
147
0.0
147
0.0
147
0.0
147
0.0
147
0.0208333333333333
147
0.0
147
0.0
147
0.0
147
0.0
147
1.0
147
0.0
147
0.0
147
0.0
147
0.0
147
1.0
  0
MATERIAL
  5
2552
102
{ACAD_XDICTIONARY
360
2553
102
}
102
{ACAD_REACTORS
330
2541
102
}
330
2541
100
AcDbMaterial
  1
Global
 72
     0
 43
0.0208333333333333
 43
0.0
 43
0.0
 43
0.0
 43
0.0
 43
0.0208333333333333
 43
0.0
 43
0.0
 43
0.0
 43
0.0
 43
1.0
 43
0.0
 43
0.0
 43
0.0
 43
0.0
 43
1.0
 77
     0
 47
0.0208333333333333
 47
0.0
 47
0.0
 47
0.0
 47
0.0
 47
0.0208333333333333
 47
0.0
 47
0.0
 47
0.0
 47
0.0
 47
1.0
 47
0.0
 47
0.0
 47
0.0
 47
0.0
 47
1.0
171
     0
 49
0.0208333333333333
 49
0.0
 49
0.0
 49
0.0
 49
0.0
 49
0.0208333333333333
 49
0.0
 49
0.0
 49
0.0
 49
0.0
 49
1.0
 49
0.0
 49
0.0
 49
0.0
 49
0.0
 49
1.0
175
     0
142
0.0208333333333333
142
0.0
142
0.0
142
0.0
142
0.0
142
0.0208333333333333
142
0.0
142
0.0
142
0.0
142
0.0
142
1.0
142
0.0
142
0.0
142
0.0
142
0.0
142
1.0
179
     0
144
0.0208333333333333
144
0.0
144
0.0
144
0.0
144
0.0
144
0.0208333333333333
144
0.0
144
0.0
144
0.0
144
0.0
144
1.0
144
0.0
144
0.0
144
0.0
144
0.0
144
1.0
147
0.0208333333333333
147
0.0
147
0.0
147
0.0
147
0.0
147
0.0208333333333333
147
0.0
147
0.0
147
0.0
147
0.0
147
1.0
147
0.0
147
0.0
147
0.0
147
0.0
147
1.0
  0
MLEADERSTYLE
  5
2589
102
{ACAD_REACTORS
330
2588
102
}
330
2588
100
AcDbMLeaderStyle
170
     2
171
     1
172
     0
 90
        2
 40
0.0
 41
0.0
173
     1
 91
-1056964608
340
14
 92
       -2
290
     1
 42
0.09
291
     1
 43
0.36
  3
Standard
 44
0.18
300

342
11
174
     1
178
     6
175
     1
176
     0
 93
-1056964608
 45
0.18
292
     0
297
     0
 46
0.18
 94
-1056964608
 47
1.0
 49
1.0
140
1.0
293
     1
141
0.0
294
     1
177
     0
142
1.0
295
     0
296
     0
143
0.125
1001
ACAD_MLEADERVER
1070
     2
  0
MLINESTYLE
  5
18
102
{ACAD_REACTORS
330
17
102
}
330
17
100
AcDbMlineStyle
  2
STANDARD
 70
     0
  3

 62
   256
 51
90.0
 52
90.0
 71
     2
 49
0.5
 62
   256
  6
BYLAYER
 49
-0.5
 62
   256
  6
BYLAYER
  0
ACDBPLACEHOLDER
  5
F
102
{ACAD_REACTORS
330
E
102
}
330
E
  0
SCALE
  5
2577
102
{ACAD_REACTORS
330
2576
102
}
330
2576
100
AcDbScale
 70
     0
300
1:1
140
1.0
141
1.0
290
     1
  0
SCALE
  5
2578
102
{ACAD_REACTORS
330
2576
102
}
330
2576
100
AcDbScale
 70
     0
300
1/128" = 1'-0"
140
0.0078125
141
12.0
290
     0
  0
SCALE
  5
2579
102
{ACAD_REACTORS
330
2576
102
}
330
2576
100
AcDbScale
 70
     0
300
1/64" = 1'-0"
140
0.015625
141
12.0
290
     0
  0
SCALE
  5
257A
102
{ACAD_REACTORS
330
2576
102
}
330
2576
100
AcDbScale
 70
     0
300
1/32" = 1'-0"
140
0.03125
141
12.0
290
     0
  0
SCALE
  5
257B
102
{ACAD_REACTORS
330
2576
102
}
330
2576
100
AcDbScale
 70
     0
300
1/16" = 1'-0"
140
0.0625
141
12.0
290
     0
  0
SCALE
  5
257C
102
{ACAD_REACTORS
330
2576
102
}
330
2576
100
AcDbScale
 70
     0
300
3/32" = 1'-0"
140
0.09375
141
12.0
290
     0
  0
SCALE
  5
257D
102
{ACAD_REACTORS
330
2576
102
}
330
2576
100
AcDbScale
 70
     0
300
1/8" = 1'-0"
140
0.125
141
12.0
290
     0
  0
SCALE
  5
257E
102
{ACAD_REACTORS
330
2576
102
}
330
2576
100
AcDbScale
 70
     0
300
3/16" = 1'-0"
140
0.1875
141
12.0
290
     0
  0
SCALE
  5
257F
102
{ACAD_REACTORS
330
2576
102
}
330
2576
100
AcDbScale
 70
     0
300
1/4" = 1'-0"
140
0.25
141
12.0
290
     0
  0
SCALE
  5
2580
102
{ACAD_REACTORS
330
2576
102
}
330
2576
100
AcDbScale
 70
     0
300
3/8" = 1'-0"
140
0.375
141
12.0
290
     0
  0
SCALE
  5
2581
102
{ACAD_REACTORS
330
2576
102
}
330
2576
100
AcDbScale
 70
     0
300
1/2" = 1'-0"
140
0.5
141
12.0
290
     0
  0
SCALE
  5
2582
102
{ACAD_REACTORS
330
2576
102
}
330
2576
100
AcDbScale
 70
     0
300
3/4" = 1'-0"
140
0.75
141
12.0
290
     0
  0
SCALE
  5
2583
102
{ACAD_REACTORS
330
2576
102
}
330
2576
100
AcDbScale
 70
     0
300
1" = 1'-0"
140
1.0
141
12.0
290
     0
  0
SCALE
  5
2584
102
{ACAD_REACTORS
330
2576
102
}
330
2576
100
AcDbScale
 70
     0
300
1-1/2" = 1'-0"
140
1.5
141
12.0
290
     0
  0
SCALE
  5
2585
102
{ACAD_REACTORS
330
2576
102
}
330
2576
100
AcDbScale
 70
     0
300
3" = 1'-0"
140
3.0
141
12.0
290
     0
  0
SCALE
  5
2586
102
{ACAD_REACTORS
330
2576
102
}
330
2576
100
AcDbScale
 70
     0
300
6" = 1'-0"
140
6.0
141
12.0
290
     0
  0
SCALE
  5
2587
102
{ACAD_REACTORS
330
2576
102
}
330
2576
100
AcDbScale
 70
     0
300
1'-0" = 1'-0"
140
12.0
141
12.0
290
     0
  0
ACDBSECTIONVIEWSTYLE
  5
258B
102
{ACAD_XDICTIONARY
360
2732
102
}
102
{ACAD_REACTORS
330
258A
102
}
330
258A
100
AcDbModelDocViewStyle
 70
     0
  3
Imperial24
290
     0
100
AcDbSectionViewStyle
 70
     0
 71
     0
 90
       78
 71
     1
340
11
 40
0.24
340
0
340
0
 40
0.24
300
I, O, Q, S, X, Z
 40
0.48
 90
        3
 40
0.18
 90
        1
 71
     2
340
16
 90
       25
340
16
 90
       50
 40
0.24
 40
0.0
 40
0.24
 71
     3
340
11
 40
0.24
 90
        1
 40
0.75
 90
        1
300
%<\AcVar ViewType \f "%tc1">% %<\AcVar ViewSectionStartId>%-%<\AcVar ViewSectionEndId>%\PSCALE %<\AcVar ViewScale \f "%sn">%
 71
     4
300
ANSI31
 40
1.0
 90
        0
290
     0
290
     0
 90
        6
 40
0.0
 40
1.570796326794896
 40
0.2617993877991494
 40
1.308996938995747
 40
-0.2617993877991494
 40
1.832595714594046
  0
TABLESTYLE
  5
2575
102
{ACAD_XDICTIONARY
360
258E
102
}
102
{ACAD_REACTORS
330
2574
102
}
330
2574
100
AcDbTableStyle
  3
Standard
 70
     0
 71
     0
 40
0.06
 41
0.06
280
     0
281
     0
  7
STANDARD
140
0.18
170
     2
 62
     0
 63
     7
283
     0
274
    -2
284
     1
 64
     0
275
    -2
285
     1
 65
     0
276
    -2
286
     1
 66
     0
277
    -2
287
     1
 67
     0
278
    -2
288
     1
 68
     0
279
    -2
289
     1
 69
     0
  7
STANDARD
140
0.25
170
     5
 62
     0
 63
     7
283
     0
274
    -2
284
     1
 64
     0
275
    -2
285
     1
 65
     0
276
    -2
286
     1
 66
     0
277
    -2
287
     1
 67
     0
278
    -2
288
     1
 68
     0
279
    -2
289
     1
 69
     0
  7
STANDARD
140
0.18
170
     5
 62
     0
 63
     7
283
     0
274
    -2
284
     1
 64
     0
275
    -2
285
     1
 65
     0
276
    -2
286
     1
 66
     0
277
    -2
287
     1
 67
     0
278
    -2
288
     1
 68
     0
279
    -2
289
     1
 69
     0
  0
VISUALSTYLE
  5
2560
102
{ACAD_XDICTIONARY
360
270B
102
}
102
{ACAD_REACTORS
330
255A
102
}
330
255A
100
AcDbVisualStyle
  2
2dWireframe
 70
     4
 71
     0
 72
     2
 73
     0
 90
        0
 40
-0.6
 41
-30.0
 62
     5
 63
     7
 74
     1
 91
        4
 64
     7
 65
   257
 75
     1
175
     1
 42
1.0
 92
        0
 66
   257
 43
1.0
 76
     1
 77
     6
 78
     2
 67
     7
 79
     5
170
     0
171
     0
290
     0
174
     0
 93
        1
 44
0.0
173
     0
291
     0
 45
0.0
1001
ACAD
1000
AcDbSavedByObjectVersion
1070
     0
  0
VISUALSTYLE
  5
255F
102
{ACAD_XDICTIONARY
360
2709
102
}
102
{ACAD_REACTORS
330
255A
102
}
330
255A
100
AcDbVisualStyle
  2
Basic
 70
     7
 71
     1
 72
     0
 73
     1
 90
        0
 40
-0.6
 41
-30.0
 62
     5
 63
     7
 74
     0
 91
        4
 64
     7
 65
   257
 75
     1
175
     1
 42
1.0
 92
        8
 66
     7
 43
1.0
 76
     1
 77
     6
 78
     2
 67
     7
 79
     5
170
     0
171
     0
290
     0
174
     0
 93
        1
 44
0.0
173
     0
291
     1
 45
0.0
1001
ACAD
1000
AcDbSavedByObjectVersion
1070
     0
  0
VISUALSTYLE
  5
2566
102
{ACAD_XDICTIONARY
360
2717
102
}
102
{ACAD_REACTORS
330
255A
102
}
330
255A
100
AcDbVisualStyle
  2
Brighten
 70
    12
 71
     2
 72
     2
 73
     0
 90
        0
 40
-0.6
 41
-30.0
 62
     5
 63
     7
 74
     1
 91
        4
 64
     7
 65
   257
 75
     1
175
     1
 42
1.0
 92
        8
 66
     7
 43
1.0
 76
     1
 77
     6
 78
     2
 67
     7
 79
     5
170
     0
171
     0
290
     0
174
     0
 93
        1
 44
50.0
173
     0
291
     1
 45
0.0
1001
ACAD
1000
AcDbSavedByObjectVersion
1070
     0
  0
VISUALSTYLE
  5
256A
102
{ACAD_XDICTIONARY
360
271F
102
}
102
{ACAD_REACTORS
330
255A
102
}
330
255A
100
AcDbVisualStyle
  2
ColorChange
 70
    16
 71
     2
 72
     2
 73
     3
 90
        0
 40
-0.6
 41
-30.0
 62
     5
 63
     8
 74
     1
 91
        4
 64
     7
 65
   257
 75
     1
175
     1
 42
1.0
 92
        8
 66
     8
 43
1.0
 76
     1
 77
     6
 78
     2
 67
     7
 79
     5
170
     0
171
     0
290
     0
174
     0
 93
        1
 44
0.0
173
     0
291
     1
 45
0.0
1001
ACAD
1000
AcDbSavedByObjectVersion
1070
     0
  0
VISUALSTYLE
  5
2563
102
{ACAD_XDICTIONARY
360
2711
102
}
102
{ACAD_REACTORS
330
255A
102
}
330
255A
100
AcDbVisualStyle
  2
Conceptual
 70
     9
 71
     3
 72
     2
 73
     0
 90
        0
 40
-0.6
 41
-30.0
 62
     5
 63
     7
 74
     2
 91
        2
 64
     7
 65
   257
 75
     1
175
     1
 42
179.0
 92
        8
 66
     7
 43
1.0
 76
     1
 77
     6
 78
     2
 67
     7
 79
     3
170
     0
171
     0
290
     0
174
     0
 93
        1
 44
0.0
173
     0
291
     0
 45
0.0
1001
ACAD
1000
AcDbSavedByObjectVersion
1070
     0
  0
VISUALSTYLE
  5
2565
102
{ACAD_XDICTIONARY
360
2715
102
}
102
{ACAD_REACTORS
330
255A
102
}
330
255A
100
AcDbVisualStyle
  2
Dim
 70
    11
 71
     2
 72
     2
 73
     0
 90
        0
 40
-0.6
 41
-30.0
 62
     5
 63
     7
 74
     1
 91
        4
 64
     7
 65
   257
 75
     1
175
     1
 42
1.0
 92
        8
 66
     7
 43
1.0
 76
     1
 77
     6
 78
     2
 67
     7
 79
     5
170
     0
171
     0
290
     0
174
     0
 93
        1
 44
-50.0
173
     0
291
     1
 45
0.0
1001
ACAD
1000
AcDbSavedByObjectVersion
1070
     0
  0
VISUALSTYLE
  5
2572
102
{ACAD_XDICTIONARY
360
272F
102
}
102
{ACAD_REACTORS
330
255A
102
}
330
255A
100
AcDbVisualStyle
  2
EdgeColorOff
 70
    22
 71
     2
 72
     2
 73
     0
 90
        0
 40
-0.6
 41
-30.0
 62
     5
 63
     7
 74
     1
 91
        4
 64
     7
 65
   257
 75
     1
175
     1
 42
1.0
 92
        8
 66
     7
 43
1.0
 76
     1
 77
     6
 78
     2
 67
     7
 79
     5
170
     0
171
     0
290
     0
174
     0
 93
        1
 44
0.0
173
     0
291
     1
 45
0.0
1001
ACAD
1000
AcDbSavedByObjectVersion
1070
     0
  0
VISUALSTYLE
  5
2569
102
{ACAD_XDICTIONARY
360
271D
102
}
102
{ACAD_REACTORS
330
255A
102
}
330
255A
100
AcDbVisualStyle
  2
Facepattern
 70
    15
 71
     2
 72
     2
 73
     0
 90
        0
 40
-0.6
 41
-30.0
 62
     5
 63
     7
 74
     1
 91
        4
 64
     7
 65
   257
 75
     1
175
     1
 42
1.0
 92
        8
 66
     7
 43
1.0
 76
     1
 77
     6
 78
     2
 67
     7
 79
     5
170
     0
171
     0
290
     0
174
     0
 93
        1
 44
0.0
173
     0
291
     1
 45
0.0
1001
ACAD
1000
AcDbSavedByObjectVersion
1070
     0
  0
VISUALSTYLE
  5
255B
102
{ACAD_XDICTIONARY
360
2701
102
}
102
{ACAD_REACTORS
330
255A
102
}
330
255A
100
AcDbVisualStyle
  2
Flat
 70
     0
 71
     2
 72
     1
 73
     1
 90
        2
 40
-0.6
 41
30.0
 62
     5
 63
     7
 74
     0
 91
        0
 64
     7
 65
   257
 75
     1
175
     1
 42
1.0
 92
        8
 66
     7
 43
1.0
 76
     1
 77
     6
 78
     2
 67
     7
 79
     5
170
     0
171
     0
290
     0
174
     0
 93
       13
 44
0.0
173
     0
291
     1
 45
0.0
1001
ACAD
1000
AcDbSavedByObjectVersion
1070
     0
  0
VISUALSTYLE
  5
255C
102
{ACAD_XDICTIONARY
360
2703
102
}
102
{ACAD_REACTORS
330
255A
102
}
330
255A
100
AcDbVisualStyle
  2
FlatWithEdges
 70
     1
 71
     2
 72
     1
 73
     1
 90
        2
 40
-0.6
 41
30.0
 62
     5
 63
     7
 74
     1
 91
        0
 64
     7
 65
   257
 75
     1
175
     1
 42
1.0
 92
        0
 66
   257
 43
1.0
 76
     1
 77
     6
 78
     2
 67
     7
 79
     5
170
     0
171
     0
290
     0
174
     0
 93
       13
 44
0.0
173
     0
291
     1
 45
0.0
1001
ACAD
1000
AcDbSavedByObjectVersion
1070
     0
  0
VISUALSTYLE
  5
255D
102
{ACAD_XDICTIONARY
360
2705
102
}
102
{ACAD_REACTORS
330
255A
102
}
330
255A
100
AcDbVisualStyle
  2
Gouraud
 70
     2
 71
     2
 72
     2
 73
     1
 90
        2
 40
-0.6
 41
30.0
 62
     5
 63
     7
 74
     0
 91
        0
 64
     7
 65
   257
 75
     1
175
     1
 42
1.0
 92
        0
 66
     7
 43
1.0
 76
     1
 77
     6
 78
     2
 67
     7
 79
     5
170
     0
171
     0
290
     0
174
     0
 93
       13
 44
0.0
173
     0
291
     1
 45
0.0
1001
ACAD
1000
AcDbSavedByObjectVersion
1070
     0
  0
VISUALSTYLE
  5
255E
102
{ACAD_XDICTIONARY
360
2707
102
}
102
{ACAD_REACTORS
330
255A
102
}
330
255A
100
AcDbVisualStyle
  2
GouraudWithEdges
 70
     3
 71
     2
 72
     2
 73
     1
 90
        2
 40
-0.6
 41
30.0
 62
     5
 63
     7
 74
     1
 91
        0
 64
     7
 65
   257
 75
     1
175
     1
 42
1.0
 92
        0
 66
   257
 43
1.0
 76
     1
 77
     6
 78
     2
 67
     7
 79
     5
170
     0
171
     0
290
     0
174
     0
 93
       13
 44
0.0
173
     0
291
     1
 45
0.0
1001
ACAD
1000
AcDbSavedByObjectVersion
1070
     0
  0
VISUALSTYLE
  5
2562
102
{ACAD_XDICTIONARY
360
270F
102
}
102
{ACAD_REACTORS
330
255A
102
}
330
255A
100
AcDbVisualStyle
  2
Hidden
 70
     6
 71
     1
 72
     2
 73
     2
 90
        0
 40
-0.6
 41
-30.0
 62
     5
 63
     7
 74
     2
 91
        2
 64
     7
 65
   257
 75
     2
175
     1
 42
40.0
 92
        0
 66
   257
 43
1.0
 76
     1
 77
     6
 78
     2
 67
     7
 79
     3
170
     0
171
     0
290
     0
174
     0
 93
        1
 44
0.0
173
     0
291
     0
 45
0.0
1001
ACAD
1000
AcDbSavedByObjectVersion
1070
     0
  0
VISUALSTYLE
  5
2570
102
{ACAD_XDICTIONARY
360
272B
102
}
102
{ACAD_REACTORS
330
255A
102
}
330
255A
100
AcDbVisualStyle
  2
JitterOff
 70
    20
 71
     2
 72
     2
 73
     0
 90
        0
 40
-0.6
 41
-30.0
 62
     5
 63
     7
 74
     1
 91
        4
 64
     7
 65
   257
 75
     1
175
     1
 42
1.0
 92
       10
 66
     7
 43
1.0
 76
     1
 77
     6
 78
     2
 67
     7
 79
     5
170
     0
171
     0
290
     0
174
     0
 93
        1
 44
0.0
173
     0
291
     1
 45
0.0
1001
ACAD
1000
AcDbSavedByObjectVersion
1070
     0
  0
VISUALSTYLE
  5
2568
102
{ACAD_XDICTIONARY
360
271B
102
}
102
{ACAD_REACTORS
330
255A
102
}
330
255A
100
AcDbVisualStyle
  2
Linepattern
 70
    14
 71
     2
 72
     2
 73
     0
 90
        0
 40
-0.6
 41
-30.0
 62
     5
 63
     7
 74
     1
 91
        4
 64
     7
 65
   257
 75
     7
175
     7
 42
1.0
 92
        8
 66
     7
 43
1.0
 76
     1
 77
     6
 78
     2
 67
     7
 79
     5
170
     0
171
     0
290
     0
174
     0
 93
        1
 44
0.0
173
     0
291
     1
 45
0.0
1001
ACAD
1000
AcDbSavedByObjectVersion
1070
     0
  0
VISUALSTYLE
  5
2571
102
{ACAD_XDICTIONARY
360
272D
102
}
102
{ACAD_REACTORS
330
255A
102
}
330
255A
100
AcDbVisualStyle
  2
OverhangOff
 70
    21
 71
     2
 72
     2
 73
     0
 90
        0
 40
-0.6
 41
-30.0
 62
     5
 63
     7
 74
     1
 91
        4
 64
     7
 65
   257
 75
     1
175
     1
 42
1.0
 92
        9
 66
     7
 43
1.0
 76
     1
 77
     6
 78
     2
 67
     7
 79
     5
170
     0
171
     0
290
     0
174
     0
 93
        1
 44
0.0
173
     0
291
     1
 45
0.0
1001
ACAD
1000
AcDbSavedByObjectVersion
1070
     0
  0
VISUALSTYLE
  5
2564
102
{ACAD_XDICTIONARY
360
2713
102
}
102
{ACAD_REACTORS
330
255A
102
}
330
255A
100
AcDbVisualStyle
  2
Realistic
 70
     8
 71
     2
 72
     2
 73
     0
 90
        2
 40
-0.6
 41
30.0
 62
     5
 63
     7
 74
     0
 91
        0
 64
     7
 65
   257
 75
     1
175
     1
 42
1.0
 92
        8
 66
   257
 43
1.0
 76
     1
 77
     6
 78
     2
 67
     7
 79
     3
170
     0
171
     0
290
     0
174
     0
 93
       13
 44
0.0
173
     0
291
     0
 45
0.0
1001
ACAD
1000
AcDbSavedByObjectVersion
1070
     0
  0
VISUALSTYLE
  5
256F
102
{ACAD_XDICTIONARY
360
2729
102
}
102
{ACAD_REACTORS
330
255A
102
}
330
255A
100
AcDbVisualStyle
  2
Shaded
 70
    27
 71
     2
 72
     2
 73
     1
 90
        2
 40
-0.6
 41
30.0
 62
     5
 63
     7
 74
     0
 91
        4
 64
     7
 65
   257
 75
     1
175
     1
 42
1.0
 92
        8
 66
   257
 43
1.0
 76
     1
 77
     6
 78
     2
 67
     8
 79
     3
170
     0
171
     0
290
     0
174
     0
 93
        5
 44
0.0
173
     0
291
     0
 45
0.0
1001
ACAD
1000
AcDbSavedByObjectVersion
1070
     0
  0
VISUALSTYLE
  5
256E
102
{ACAD_XDICTIONARY
360
2727
102
}
102
{ACAD_REACTORS
330
255A
102
}
330
255A
100
AcDbVisualStyle
  2
Shaded with edges
 70
    26
 71
     2
 72
     2
 73
     1
 90
        2
 40
-0.6
 41
30.0
 62
     5
 63
     7
 74
     1
 91
        2
 64
     7
 65
   257
 75
     2
175
     1
 42
1.0
 92
        8
 66
   257
 43
1.0
 76
     1
 77
     6
 78
     2
 67
     7
 79
     3
170
     0
171
     0
290
     0
174
     0
 93
        5
 44
0.0
173
     0
291
     0
 45
0.0
1001
ACAD
1000
AcDbSavedByObjectVersion
1070
     0
  0
VISUALSTYLE
  5
256B
102
{ACAD_XDICTIONARY
360
2721
102
}
102
{ACAD_REACTORS
330
255A
102
}
330
255A
100
AcDbVisualStyle
  2
Shades of Gray
 70
    23
 71
     2
 72
     2
 73
     3
 90
        0
 40
-0.6
 41
-30.0
 62
     5
 63
     7
 74
     2
 91
        2
 64
     7
 65
     7
 75
     1
175
     1
 42
40.0
 92
        8
 66
     7
 43
1.0
 76
     1
 77
     6
 78
     2
 67
     7
 79
     3
170
     0
171
     0
290
     0
174
     0
 93
        1
 44
0.0
173
     0
291
     0
 45
0.0
1001
ACAD
1000
AcDbSavedByObjectVersion
1070
     0
  0
VISUALSTYLE
  5
256C
102
{ACAD_XDICTIONARY
360
2723
102
}
102
{ACAD_REACTORS
330
255A
102
}
330
255A
100
AcDbVisualStyle
  2
Sketchy
 70
    24
 71
     1
 72
     2
 73
     2
 90
        0
 40
-0.6
 41
-30.0
 62
     5
 63
     7
 74
     2
 91
        2
 64
     7
 65
     7
 75
     1
175
     1
 42
40.0
 92
       11
 66
     7
 43
1.0
 76
     1
 77
     6
 78
     2
 67
     7
 79
     6
170
     0
171
     0
290
     0
174
     0
 93
        1
 44
0.0
173
     0
291
     0
 45
0.0
1001
ACAD
1000
AcDbSavedByObjectVersion
1070
     0
  0
VISUALSTYLE
  5
2567
102
{ACAD_XDICTIONARY
360
2719
102
}
102
{ACAD_REACTORS
330
255A
102
}
330
255A
100
AcDbVisualStyle
  2
Thicken
 70
    13
 71
     2
 72
     2
 73
     0
 90
        0
 40
-0.6
 41
-30.0
 62
     5
 63
     7
 74
     1
 91
        4
 64
     7
 65
   257
 75
     1
175
     1
 42
1.0
 92
       12
 66
     7
 43
1.0
 76
     1
 77
     6
 78
     2
 67
     7
 79
     5
170
     0
171
     0
290
     0
174
     0
 93
        1
 44
0.0
173
     0
291
     1
 45
0.0
1001
ACAD
1000
AcDbSavedByObjectVersion
1070
     0
  0
VISUALSTYLE
  5
2561
102
{ACAD_XDICTIONARY
360
270D
102
}
102
{ACAD_REACTORS
330
255A
102
}
330
255A
100
AcDbVisualStyle
  2
Wireframe
 70
     5
 71
     0
 72
     2
 73
     0
 90
        0
 40
-0.6
 41
-30.0
 62
     5
 63
     7
 74
     1
 91
        4
 64
     7
 65
   257
 75
     1
175
     1
 42
1.0
 92
        0
 66
   257
 43
1.0
 76
     1
 77
     6
 78
     2
 67
     7
 79
     3
170
     0
171
     0
290
     0
174
     0
 93
        1
 44
0.0
173
     0
291
     0
 45
0.0
1001
ACAD
1000
AcDbSavedByObjectVersion
1070
     0
  0
VISUALSTYLE
  5
256D
102
{ACAD_XDICTIONARY
360
2725
102
}
102
{ACAD_REACTORS
330
255A
102
}
330
255A
100
AcDbVisualStyle
  2
X-Ray
 70
    25
 71
     2
 72
     2
 73
     1
 90
        1
 40
0.5
 41
-30.0
 62
     5
 63
     7
 74
     1
 91
        0
 64
     7
 65
   257
 75
     1
175
     1
 42
1.0
 92
        8
 66
     7
 43
1.0
 76
     1
 77
     6
 78
     2
 67
     7
 79
     3
170
     0
171
     0
290
     0
174
     0
 93
       13
 44
0.0
173
     0
291
     0
 45
0.0
1001
ACAD
1000
AcDbSavedByObjectVersion
1070
     0
  0
DICTIONARYVAR
  5
25D5
102
{ACAD_REACTORS
330
25D0
102
}
330
25D0
100
DictionaryVariables
280
     0
  1
1:1
  0
DICTIONARYVAR
  5
25D2
102
{ACAD_REACTORS
330
25D0
102
}
330
25D0
100
DictionaryVariables
280
     0
  1
STANDARD
  0
DICTIONARYVAR
  5
25D1
102
{ACAD_REACTORS
330
25D0
102
}
330
25D0
100
DictionaryVariables
280
     0
  1
STANDARD
  0
DICTIONARYVAR
  5
25D3
102
{ACAD_REACTORS
330
25D0
102
}
330
25D0
100
DictionaryVariables
280
     0
  1
Imperial24
  0
DICTIONARYVAR
  5
25D4
102
{ACAD_REACTORS
330
25D0
102
}
330
25D0
100
DictionaryVariables
280
     0
  1
Imperial24
  0
DICTIONARYVAR
  5
25D8
102
{ACAD_REACTORS
330
25D0
102
}
330
25D0
100
DictionaryVariables
280
     0
  1
1
  0
DICTIONARYVAR
  5
25D7
102
{ACAD_REACTORS
330
25D0
102
}
330
25D0
100
DictionaryVariables
280
     0
  1
0
  0
DICTIONARYVAR
  5
25D6
102
{ACAD_REACTORS
330
25D0
102
}
330
25D0
100
DictionaryVariables
280
     0
  1
127
  0
DICTIONARYVAR
  5
26F6
102
{ACAD_REACTORS
330
25D0
102
}
330
25D0
100
DictionaryVariables
280
     0
  1
2
  0
DICTIONARY
  5
2734
330
258D
100
AcDbDictionary
280
     1
281
     1
  3
ACAD_XREC_ROUNDTRIP
360
2735
  0
DICTIONARY
  5
26FC
330
253E
100
AcDbDictionary
280
     1
281
     1
  3
ACAD_XREC_ROUNDTRIP
360
26FD
  0
DICTIONARY
  5
26FA
330
253D
100
AcDbDictionary
280
     1
281
     1
  3
ACAD_XREC_ROUNDTRIP
360
26FB
  0
DICTIONARY
  5
254B
330
254A
100
AcDbDictionary
280
     1
281
     1
  3
ACAD_XREC_ROUNDTRIP
360
26FF
  3
BUMPTILE
360
254D
  3
DIFFUSETILE
360
254C
  3
OPACITYTILE
360
2550
  3
REFLECTIONTILE
360
254F
  3
REFRACTIONTILE
360
2551
  3
SPECULARTILE
360
254E
  0
DICTIONARY
  5
2543
330
2542
100
AcDbDictionary
280
     1
281
     1
  3
ACAD_XREC_ROUNDTRIP
360
26FE
  3
BUMPTILE
360
2545
  3
DIFFUSETILE
360
2544
  3
OPACITYTILE
360
2548
  3
REFLECTIONTILE
360
2547
  3
REFRACTIONTILE
360
2549
  3
SPECULARTILE
360
2546
  0
DICTIONARY
  5
2553
330
2552
100
AcDbDictionary
280
     1
281
     1
  3
ACAD_XREC_ROUNDTRIP
360
2700
  3
BUMPTILE
360
2555
  3
DIFFUSETILE
360
2554
  3
OPACITYTILE
360
2558
  3
REFLECTIONTILE
360
2557
  3
REFRACTIONTILE
360
2559
  3
SPECULARTILE
360
2556
  0
DICTIONARY
  5
2732
330
258B
100
AcDbDictionary
280
     1
281
     1
  3
ACAD_XREC_ROUNDTRIP
360
2733
  0
DICTIONARY
  5
258E
330
2575
100
AcDbDictionary
280
     1
281
     1
  3
ACAD_ROUNDTRIP_2008_TABLESTYLE_CELLSTYLEMAP
360
26F7
  3
ACAD_XREC_ROUNDTRIP
360
2731
  0
DICTIONARY
  5
270B
330
2560
100
AcDbDictionary
280
     1
281
     1
  3
ACAD_XREC_ROUNDTRIP
360
270C
  0
DICTIONARY
  5
2709
330
255F
100
AcDbDictionary
280
     1
281
     1
  3
ACAD_XREC_ROUNDTRIP
360
270A
  0
DICTIONARY
  5
2717
330
2566
100
AcDbDictionary
280
     1
281
     1
  3
ACAD_XREC_ROUNDTRIP
360
2718
  0
DICTIONARY
  5
271F
330
256A
100
AcDbDictionary
280
     1
281
     1
  3
ACAD_XREC_ROUNDTRIP
360
2720
  0
DICTIONARY
  5
2711
330
2563
100
AcDbDictionary
280
     1
281
     1
  3
ACAD_XREC_ROUNDTRIP
360
2712
  0
DICTIONARY
  5
2715
330
2565
100
AcDbDictionary
280
     1
281
     1
  3
ACAD_XREC_ROUNDTRIP
360
2716
  0
DICTIONARY
  5
272F
330
2572
100
AcDbDictionary
280
     1
281
     1
  3
ACAD_XREC_ROUNDTRIP
360
2730
  0
DICTIONARY
  5
271D
330
2569
100
AcDbDictionary
280
     1
281
     1
  3
ACAD_XREC_ROUNDTRIP
360
271E
  0
DICTIONARY
  5
2701
330
255B
100
AcDbDictionary
280
     1
281
     1
  3
ACAD_XREC_ROUNDTRIP
360
2702
  0
DICTIONARY
  5
2703
330
255C
100
AcDbDictionary
280
     1
281
     1
  3
ACAD_XREC_ROUNDTRIP
360
2704
  0
DICTIONARY
  5
2705
330
255D
100
AcDbDictionary
280
     1
281
     1
  3
ACAD_XREC_ROUNDTRIP
360
2706
  0
DICTIONARY
  5
2707
330
255E
100
AcDbDictionary
280
     1
281
     1
  3
ACAD_XREC_ROUNDTRIP
360
2708
  0
DICTIONARY
  5
270F
330
2562
100
AcDbDictionary
280
     1
281
     1
  3
ACAD_XREC_ROUNDTRIP
360
2710
  0
DICTIONARY
  5
272B
330
2570
100
AcDbDictionary
280
     1
281
     1
  3
ACAD_XREC_ROUNDTRIP
360
272C
  0
DICTIONARY
  5
271B
330
2568
100
AcDbDictionary
280
     1
281
     1
  3
ACAD_XREC_ROUNDTRIP
360
271C
  0
DICTIONARY
  5
272D
330
2571
100
AcDbDictionary
280
     1
281
     1
  3
ACAD_XREC_ROUNDTRIP
360
272E
  0
DICTIONARY
  5
2713
330
2564
100
AcDbDictionary
280
     1
281
     1
  3
ACAD_XREC_ROUNDTRIP
360
2714
  0
DICTIONARY
  5
2729
330
256F
100
AcDbDictionary
280
     1
281
     1
  3
ACAD_XREC_ROUNDTRIP
360
272A
  0
DICTIONARY
  5
2727
330
256E
100
AcDbDictionary
280
     1
281
     1
  3
ACAD_XREC_ROUNDTRIP
360
2728
  0
DICTIONARY
  5
2721
330
256B
100
AcDbDictionary
280
     1
281
     1
  3
ACAD_XREC_ROUNDTRIP
360
2722
  0
DICTIONARY
  5
2723
330
256C
100
AcDbDictionary
280
     1
281
     1
  3
ACAD_XREC_ROUNDTRIP
360
2724
  0
DICTIONARY
  5
2719
330
2567
100
AcDbDictionary
280
     1
281
     1
  3
ACAD_XREC_ROUNDTRIP
360
271A
  0
DICTIONARY
  5
270D
330
2561
100
AcDbDictionary
280
     1
281
     1
  3
ACAD_XREC_ROUNDTRIP
360
270E
  0
DICTIONARY
  5
2725
330
256D
100
AcDbDictionary
280
     1
281
     1
  3
ACAD_XREC_ROUNDTRIP
360
2726
  0
XRECORD
  5
2735
102
{ACAD_REACTORS
330
2734
102
}
330
2734
100
AcDbXrecord
280
     1
102
DISPLAYNAME
  1
Imperial24
102
FLAGS
 90
        0
  0
XRECORD
  5
26FD
102
{ACAD_REACTORS
330
26FC
102
}
330
26FC
100
AcDbXrecord
280
     1
102
SHADEPLOT
 70
     0
102
SHADEPLOTRESLEVEL
 70
     2
102
SHADEPLOTCUSTOMDPI
 70
   300
  0
XRECORD
  5
26FB
102
{ACAD_REACTORS
330
26FA
102
}
330
26FA
100
AcDbXrecord
280
     1
102
SHADEPLOT
 70
     0
102
SHADEPLOTRESLEVEL
 70
     2
102
SHADEPLOTCUSTOMDPI
 70
   300
  0
XRECORD
  5
26FF
102
{ACAD_REACTORS
330
254B
102
}
330
254B
100
AcDbXrecord
280
     1
102
MATERIAL
148
0.0
149
0.0
149
0.0
 93
        0
 94
      127
282
     0
 72
     0
 77
     0
171
     0
175
     0
179
     0
273
     0
  0
XRECORD
  5
254D
102
{ACAD_REACTORS
330
254B
102
}
330
254B
100
AcDbXrecord
280
     1
270
     1
271
     1
  0
XRECORD
  5
254C
102
{ACAD_REACTORS
330
254B
102
}
330
254B
100
AcDbXrecord
280
     1
270
     1
271
     1
  0
XRECORD
  5
2550
102
{ACAD_REACTORS
330
254B
102
}
330
254B
100
AcDbXrecord
280
     1
270
     1
271
     1
  0
XRECORD
  5
254F
102
{ACAD_REACTORS
330
254B
102
}
330
254B
100
AcDbXrecord
280
     1
270
     1
271
     1
  0
XRECORD
  5
2551
102
{ACAD_REACTORS
330
254B
102
}
330
254B
100
AcDbXrecord
280
     1
270
     1
271
     1
  0
XRECORD
  5
254E
102
{ACAD_REACTORS
330
254B
102
}
330
254B
100
AcDbXrecord
280
     1
270
     1
271
     1
  0
XRECORD
  5
26FE
102
{ACAD_REACTORS
330
2543
102
}
330
2543
100
AcDbXrecord
280
     1
102
MATERIAL
148
0.0
149
0.0
149
0.0
 93
        0
 94
      127
282
     0
 72
     0
 77
     0
171
     0
175
     0
179
     0
273
     0
  0
XRECORD
  5
2545
102
{ACAD_REACTORS
330
2543
102
}
330
2543
100
AcDbXrecord
280
     1
270
     1
271
     1
  0
XRECORD
  5
2544
102
{ACAD_REACTORS
330
2543
102
}
330
2543
100
AcDbXrecord
280
     1
270
     1
271
     1
  0
XRECORD
  5
2548
102
{ACAD_REACTORS
330
2543
102
}
330
2543
100
AcDbXrecord
280
     1
270
     1
271
     1
  0
XRECORD
  5
2547
102
{ACAD_REACTORS
330
2543
102
}
330
2543
100
AcDbXrecord
280
     1
270
     1
271
     1
  0
XRECORD
  5
2549
102
{ACAD_REACTORS
330
2543
102
}
330
2543
100
AcDbXrecord
280
     1
270
     1
271
     1
  0
XRECORD
  5
2546
102
{ACAD_REACTORS
330
2543
102
}
330
2543
100
AcDbXrecord
280
     1
270
     1
271
     1
  0
XRECORD
  5
2700
102
{ACAD_REACTORS
330
2553
102
}
330
2553
100
AcDbXrecord
280
     1
102
MATERIAL
148
0.0
149
0.0
149
0.0
 93
        0
 94
      127
282
     0
 72
     0
 77
     0
171
     0
175
     0
179
     0
273
     0
  0
XRECORD
  5
2555
102
{ACAD_REACTORS
330
2553
102
}
330
2553
100
AcDbXrecord
280
     1
270
     1
271
     1
  0
XRECORD
  5
2554
102
{ACAD_REACTORS
330
2553
102
}
330
2553
100
AcDbXrecord
280
     1
270
     1
271
     1
  0
XRECORD
  5
2558
102
{ACAD_REACTORS
330
2553
102
}
330
2553
100
AcDbXrecord
280
     1
270
     1
271
     1
  0
XRECORD
  5
2557
102
{ACAD_REACTORS
330
2553
102
}
330
2553
100
AcDbXrecord
280
     1
270
     1
271
     1
  0
XRECORD
  5
2559
102
{ACAD_REACTORS
330
2553
102
}
330
2553
100
AcDbXrecord
280
     1
270
     1
271
     1
  0
XRECORD
  5
2556
102
{ACAD_REACTORS
330
2553
102
}
330
2553
100
AcDbXrecord
280
     1
270
     1
271
     1
  0
XRECORD
  5
2733
102
{ACAD_REACTORS
330
2732
102
}
330
2732
100
AcDbXrecord
280
     1
102
DISPLAYNAME
  1
Imperial24
102
FLAGS
 90
        0
  0
CELLSTYLEMAP
  5
26F7
102
{ACAD_REACTORS
330
258E
102
}
330
258E
100
AcDbCellStyleMap
 90
        3
300
CELLSTYLE
  1
TABLEFORMAT_BEGIN
 90
        5
170
     1
 91
        0
 92
    32768
 62
   257
 93
        1
300
CONTENTFORMAT
  1
CONTENTFORMAT_BEGIN
 90
        0
 91
        0
 92
      512
 93
        0
300

 40
0.0
140
1.0
 94
        5
 62
     0
340
11
144
0.25
309
CONTENTFORMAT_END
171
     0
 94
        0
309
TABLEFORMAT_END
  1
CELLSTYLE_BEGIN
 90
        1
 91
        1
300
_TITLE
309
CELLSTYLE_END
300
CELLSTYLE
  1
TABLEFORMAT_BEGIN
 90
        5
170
     1
 91
        0
 92
        0
 62
   257
 93
        1
300
CONTENTFORMAT
  1
CONTENTFORMAT_BEGIN
 90
        0
 91
        0
 92
      512
 93
        0
300

 40
0.0
140
1.0
 94
        5
 62
     0
340
11
144
0.18
309
CONTENTFORMAT_END
171
     0
 94
        0
309
TABLEFORMAT_END
  1
CELLSTYLE_BEGIN
 90
        2
 91
        1
300
_HEADER
309
CELLSTYLE_END
300
CELLSTYLE
  1
TABLEFORMAT_BEGIN
 90
        5
170
     1
 91
        0
 92
        0
 62
   257
 93
        1
300
CONTENTFORMAT
  1
CONTENTFORMAT_BEGIN
 90
        0
 91
        0
 92
      512
 93
        0
300

 40
0.0
140
1.0
 94
        2
 62
     0
340
11
144
0.18
309
CONTENTFORMAT_END
171
     0
 94
        0
309
TABLEFORMAT_END
  1
CELLSTYLE_BEGIN
 90
        3
 91
        2
300
_DATA
309
CELLSTYLE_END
  0
XRECORD
  5
2731
102
{ACAD_REACTORS
330
258E
102
}
330
258E
100
AcDbXrecord
280
     1
102
ACAD_ROUNDTRIP_PRE2007_TABLESTYLE
 90
      512
 91
        0
  1

 92
      512
 93
        0
  2

 94
      512
 95
        0
  3

  0
XRECORD
  5
270C
102
{ACAD_REACTORS
330
270B
102
}
330
270B
100
AcDbXrecord
280
     1
102
RTVSPost2010Prop28
280
     1
102
RTVSPost2010PropOp28
 70
     1
102
RTVSPost2010Prop29
280
     1
102
RTVSPost2010PropOp29
 70
     1
102
RTVSPost2010Prop30
280
     0
102
RTVSPost2010PropOp30
 70
     1
102
RTVSPost2010Prop31
280
     0
102
RTVSPost2010PropOp31
 70
     1
102
RTVSPost2010Prop32
280
     0
102
RTVSPost2010PropOp32
 70
     1
102
RTVSPost2010Prop33
280
     0
102
RTVSPost2010PropOp33
 70
     1
102
RTVSPost2010Prop34
280
     0
102
RTVSPost2010PropOp34
 70
     1
102
RTVSPost2010Prop35
280
     0
102
RTVSPost2010PropOp35
 70
     1
102
RTVSPost2010Prop36
280
     0
102
RTVSPost2010PropOp36
 70
     1
102
RTVSPost2010Prop37
 90
       50
102
RTVSPost2010PropOp37
 70
     1
102
RTVSPost2010Prop38
140
0.0
102
RTVSPost2010PropOp38
 70
     1
102
RTVSPost2010Prop39
140
1.0
102
RTVSPost2010PropOp39
 70
     1
102
RTVSPost2010Prop40
 90
        0
102
RTVSPost2010PropOp40
 70
     1
102
RTVSPost2010Prop41ColorIndex
 90
       18
102
RTVSPost2010Prop41ColorRGB
 90
        0
102
RTVSPost2010PropOp41
 70
     1
102
RTVSPost2010Prop42
 90
       50
102
RTVSPost2010PropOp42
 70
     1
102
RTVSPost2010Prop43
 90
        3
102
RTVSPost2010PropOp43
 70
     1
102
RTVSPost2010Prop44ColorIndex
 90
        5
102
RTVSPost2010Prop44ColorRGB
 90
      255
102
RTVSPost2010PropOp44
 70
     1
102
RTVSPost2010Prop45
280
     0
102
RTVSPost2010PropOp45
 70
     1
102
RTVSPost2010Prop46
 90
       50
102
RTVSPost2010PropOp46
 70
     1
102
RTVSPost2010Prop47
 90
       50
102
RTVSPost2010PropOp47
 70
     1
102
RTVSPost2010Prop48
 90
       50
102
RTVSPost2010PropOp48
 70
     1
102
RTVSPost2010Prop49
280
     0
102
RTVSPost2010PropOp49
 70
     1
102
RTVSPost2010Prop50
 90
       50
102
RTVSPost2010PropOp50
 70
     1
102
RTVSPost2010Prop51ColorIndex
 90
      256
102
RTVSPost2010Prop51ColorRGB
 90
-16777216
102
RTVSPost2010PropOp51
 70
     0
102
RTVSPost2010Prop52
140
1.0
102
RTVSPost2010PropOp52
 70
     0
102
RTVSPost2010Prop53
 90
        2
102
RTVSPost2010PropOp53
 70
     1
102
RTVSPost2010Prop54
  1
strokes_ogs.tif
102
RTVSPost2010PropOp54
 70
     1
102
RTVSPost2010Prop55
280
     0
102
RTVSPost2010PropOp55
 70
     1
102
RTVSPost2010Prop56
140
1.0
102
RTVSPost2010PropOp56
 70
     1
102
RTVSPost2010Prop57
140
1.0
102
RTVSPost2010PropOp57
 70
     1
102
RTVSPropertyOp0
 70
     1
102
RTVSPropertyOp1
 70
     1
102
RTVSPropertyOp2
 70
     1
102
RTVSPropertyOp3
 70
     1
102
RTVSPropertyOp4
 70
     1
102
RTVSPropertyOp5
 70
     1
102
RTVSPropertyOp6
 70
     1
102
RTVSPropertyOp7
 70
     1
102
RTVSPropertyOp8
 70
     1
102
RTVSPropertyOp9
 70
     1
102
RTVSPropertyOp10
 70
     1
102
RTVSPropertyOp11
 70
     1
102
RTVSPropertyOp12
 70
     1
102
RTVSPropertyOp13
 70
     1
102
RTVSPropertyOp14
 70
     1
102
RTVSPropertyOp15
 70
     1
102
RTVSPropertyOp16
 70
     1
102
RTVSPropertyOp17
 70
     1
102
RTVSPropertyOp18
 70
     1
102
RTVSPropertyOp19
 70
     1
102
RTVSPropertyOp20
 70
     1
102
RTVSPropertyOp21
 70
     1
102
RTVSPropertyOp22
 70
     1
102
RTVSPropertyOp23
 70
     1
102
RTVSPropertyOp24
 70
     1
102
RTVSPropertyOp25
 70
     1
102
RTVSPropertyOp26
 70
     1
102
RTVSPropertyOp27
 70
     1
102
RTVSPropertyOp28
 70
     1
102
RTVSPropertyOp29
 70
     1
102
RTVSPropertyOp30
 70
     1
102
RTVSPropertyOp31
 70
     1
102
RTVSPropertyOp32
 70
     1
102
RTVSPropertyOp33
 70
     1
102
RTVSPropertyOp34
 70
     1
102
RTVSPropertyOp35
 70
     1
102
RTVSPropertyOp36
 70
     1
102
RTVSPropertyOp37
 70
     1
102
RTVSPropertyOp38
 70
     1
102
RTVSPropertyOp39
 70
     1
102
RTVSPropertyOp40
 70
     1
102
RTVSPropertyOp41
 70
     1
102
RTVSPropertyOp42
 70
     1
102
RTVSPropertyOp43
 70
     1
102
RTVSPropertyOp44
 70
     1
102
RTVSPropertyOp45
 70
     1
102
RTVSPropertyOp46
 70
     1
102
RTVSPropertyOp47
 70
     1
102
RTVSPropertyOp48
 70
     1
102
RTVSPropertyOp49
 70
     1
102
RTVSPropertyOp50
 70
     1
102
RTVSPropertyOp51
 70
     0
102
RTVSPropertyOp52
 70
     0
102
RTVSPropertyOp53
 70
     1
102
RTVSPropertyOp54
 70
     1
102
RTVSPropertyOp55
 70
     1
102
RTVSPropertyOp56
 70
     1
102
RTVSPropertyOp57
 70
     1
102
RTVSPropertyOp58
 70
     1
102
RTVSPropertyOp59
 70
     1
102
RTVSPropertyOp60
 70
     1
102
RTVSPropertyOp61
 70
     1
102
RTVSPropertyOp62
 70
     1
  0
XRECORD
  5
270A
102
{ACAD_REACTORS
330
2709
102
}
330
2709
100
AcDbXrecord
280
     1
102
RTVSPost2010Prop28
280
     0
102
RTVSPost2010PropOp28
 70
     1
102
RTVSPost2010Prop29
280
     1
102
RTVSPost2010PropOp29
 70
     1
102
RTVSPost2010Prop30
280
     1
102
RTVSPost2010PropOp30
 70
     1
102
RTVSPost2010Prop31
280
     0
102
RTVSPost2010PropOp31
 70
     1
102
RTVSPost2010Prop32
280
     0
102
RTVSPost2010PropOp32
 70
     1
102
RTVSPost2010Prop33
280
     0
102
RTVSPost2010PropOp33
 70
     1
102
RTVSPost2010Prop34
280
     0
102
RTVSPost2010PropOp34
 70
     1
102
RTVSPost2010Prop35
280
     0
102
RTVSPost2010PropOp35
 70
     1
102
RTVSPost2010Prop36
280
     0
102
RTVSPost2010PropOp36
 70
     1
102
RTVSPost2010Prop37
 90
       50
102
RTVSPost2010PropOp37
 70
     1
102
RTVSPost2010Prop38
140
0.0
102
RTVSPost2010PropOp38
 70
     1
102
RTVSPost2010Prop39
140
1.0
102
RTVSPost2010PropOp39
 70
     1
102
RTVSPost2010Prop40
 90
        0
102
RTVSPost2010PropOp40
 70
     1
102
RTVSPost2010Prop41ColorIndex
 90
       18
102
RTVSPost2010Prop41ColorRGB
 90
        0
102
RTVSPost2010PropOp41
 70
     1
102
RTVSPost2010Prop42
 90
       50
102
RTVSPost2010PropOp42
 70
     1
102
RTVSPost2010Prop43
 90
        3
102
RTVSPost2010PropOp43
 70
     1
102
RTVSPost2010Prop44ColorIndex
 90
        5
102
RTVSPost2010Prop44ColorRGB
 90
      255
102
RTVSPost2010PropOp44
 70
     1
102
RTVSPost2010Prop45
280
     0
102
RTVSPost2010PropOp45
 70
     1
102
RTVSPost2010Prop46
 90
       50
102
RTVSPost2010PropOp46
 70
     1
102
RTVSPost2010Prop47
 90
       50
102
RTVSPost2010PropOp47
 70
     1
102
RTVSPost2010Prop48
 90
       50
102
RTVSPost2010PropOp48
 70
     1
102
RTVSPost2010Prop49
280
     0
102
RTVSPost2010PropOp49
 70
     1
102
RTVSPost2010Prop50
 90
       50
102
RTVSPost2010PropOp50
 70
     1
102
RTVSPost2010Prop51ColorIndex
 90
      256
102
RTVSPost2010Prop51ColorRGB
 90
-16777216
102
RTVSPost2010PropOp51
 70
     0
102
RTVSPost2010Prop52
140
1.0
102
RTVSPost2010PropOp52
 70
     0
102
RTVSPost2010Prop53
 90
        2
102
RTVSPost2010PropOp53
 70
     1
102
RTVSPost2010Prop54
  1
strokes_ogs.tif
102
RTVSPost2010PropOp54
 70
     1
102
RTVSPost2010Prop55
280
     0
102
RTVSPost2010PropOp55
 70
     1
102
RTVSPost2010Prop56
140
1.0
102
RTVSPost2010PropOp56
 70
     1
102
RTVSPost2010Prop57
140
1.0
102
RTVSPost2010PropOp57
 70
     1
102
RTVSPropertyOp0
 70
     1
102
RTVSPropertyOp1
 70
     1
102
RTVSPropertyOp2
 70
     1
102
RTVSPropertyOp3
 70
     1
102
RTVSPropertyOp4
 70
     1
102
RTVSPropertyOp5
 70
     1
102
RTVSPropertyOp6
 70
     1
102
RTVSPropertyOp7
 70
     1
102
RTVSPropertyOp8
 70
     1
102
RTVSPropertyOp9
 70
     1
102
RTVSPropertyOp10
 70
     1
102
RTVSPropertyOp11
 70
     1
102
RTVSPropertyOp12
 70
     1
102
RTVSPropertyOp13
 70
     1
102
RTVSPropertyOp14
 70
     1
102
RTVSPropertyOp15
 70
     1
102
RTVSPropertyOp16
 70
     1
102
RTVSPropertyOp17
 70
     1
102
RTVSPropertyOp18
 70
     1
102
RTVSPropertyOp19
 70
     1
102
RTVSPropertyOp20
 70
     1
102
RTVSPropertyOp21
 70
     1
102
RTVSPropertyOp22
 70
     1
102
RTVSPropertyOp23
 70
     1
102
RTVSPropertyOp24
 70
     1
102
RTVSPropertyOp25
 70
     1
102
RTVSPropertyOp26
 70
     1
102
RTVSPropertyOp27
 70
     1
102
RTVSPropertyOp28
 70
     1
102
RTVSPropertyOp29
 70
     1
102
RTVSPropertyOp30
 70
     1
102
RTVSPropertyOp31
 70
     1
102
RTVSPropertyOp32
 70
     1
102
RTVSPropertyOp33
 70
     1
102
RTVSPropertyOp34
 70
     1
102
RTVSPropertyOp35
 70
     1
102
RTVSPropertyOp36
 70
     1
102
RTVSPropertyOp37
 70
     1
102
RTVSPropertyOp38
 70
     1
102
RTVSPropertyOp39
 70
     1
102
RTVSPropertyOp40
 70
     1
102
RTVSPropertyOp41
 70
     1
102
RTVSPropertyOp42
 70
     1
102
RTVSPropertyOp43
 70
     1
102
RTVSPropertyOp44
 70
     1
102
RTVSPropertyOp45
 70
     1
102
RTVSPropertyOp46
 70
     1
102
RTVSPropertyOp47
 70
     1
102
RTVSPropertyOp48
 70
     1
102
RTVSPropertyOp49
 70
     1
102
RTVSPropertyOp50
 70
     1
102
RTVSPropertyOp51
 70
     0
102
RTVSPropertyOp52
 70
     0
102
RTVSPropertyOp53
 70
     1
102
RTVSPropertyOp54
 70
     1
102
RTVSPropertyOp55
 70
     1
102
RTVSPropertyOp56
 70
     1
102
RTVSPropertyOp57
 70
     1
102
RTVSPropertyOp58
 70
     1
102
RTVSPropertyOp59
 70
     1
102
RTVSPropertyOp60
 70
     1
102
RTVSPropertyOp61
 70
     1
102
RTVSPropertyOp62
 70
     1
  0
XRECORD
  5
2718
102
{ACAD_REACTORS
330
2717
102
}
330
2717
100
AcDbXrecord
280
     1
102
RTVSPost2010Prop28
280
     0
102
RTVSPost2010PropOp28
 70
     1
102
RTVSPost2010Prop29
280
     1
102
RTVSPost2010PropOp29
 70
     1
102
RTVSPost2010Prop30
280
     1
102
RTVSPost2010PropOp30
 70
     1
102
RTVSPost2010Prop31
280
     0
102
RTVSPost2010PropOp31
 70
     1
102
RTVSPost2010Prop32
280
     0
102
RTVSPost2010PropOp32
 70
     1
102
RTVSPost2010Prop33
280
     0
102
RTVSPost2010PropOp33
 70
     1
102
RTVSPost2010Prop34
280
     0
102
RTVSPost2010PropOp34
 70
     1
102
RTVSPost2010Prop35
280
     0
102
RTVSPost2010PropOp35
 70
     1
102
RTVSPost2010Prop36
280
     0
102
RTVSPost2010PropOp36
 70
     1
102
RTVSPost2010Prop37
 90
       50
102
RTVSPost2010PropOp37
 70
     1
102
RTVSPost2010Prop38
140
0.0
102
RTVSPost2010PropOp38
 70
     1
102
RTVSPost2010Prop39
140
1.0
102
RTVSPost2010PropOp39
 70
     1
102
RTVSPost2010Prop40
 90
        0
102
RTVSPost2010PropOp40
 70
     1
102
RTVSPost2010Prop41ColorIndex
 90
       18
102
RTVSPost2010Prop41ColorRGB
 90
        0
102
RTVSPost2010PropOp41
 70
     1
102
RTVSPost2010Prop42
 90
       50
102
RTVSPost2010PropOp42
 70
     1
102
RTVSPost2010Prop43
 90
        3
102
RTVSPost2010PropOp43
 70
     1
102
RTVSPost2010Prop44ColorIndex
 90
        5
102
RTVSPost2010Prop44ColorRGB
 90
      255
102
RTVSPost2010PropOp44
 70
     1
102
RTVSPost2010Prop45
280
     0
102
RTVSPost2010PropOp45
 70
     1
102
RTVSPost2010Prop46
 90
       50
102
RTVSPost2010PropOp46
 70
     1
102
RTVSPost2010Prop47
 90
       50
102
RTVSPost2010PropOp47
 70
     1
102
RTVSPost2010Prop48
 90
       50
102
RTVSPost2010PropOp48
 70
     1
102
RTVSPost2010Prop49
280
     0
102
RTVSPost2010PropOp49
 70
     1
102
RTVSPost2010Prop50
 90
       50
102
RTVSPost2010PropOp50
 70
     1
102
RTVSPost2010Prop51ColorIndex
 90
      256
102
RTVSPost2010Prop51ColorRGB
 90
-16777216
102
RTVSPost2010PropOp51
 70
     0
102
RTVSPost2010Prop52
140
1.0
102
RTVSPost2010PropOp52
 70
     0
102
RTVSPost2010Prop53
 90
        2
102
RTVSPost2010PropOp53
 70
     1
102
RTVSPost2010Prop54
  1
strokes_ogs.tif
102
RTVSPost2010PropOp54
 70
     1
102
RTVSPost2010Prop55
280
     0
102
RTVSPost2010PropOp55
 70
     1
102
RTVSPost2010Prop56
140
1.0
102
RTVSPost2010PropOp56
 70
     1
102
RTVSPost2010Prop57
140
1.0
102
RTVSPost2010PropOp57
 70
     1
102
RTVSPropertyOp0
 70
     1
102
RTVSPropertyOp1
 70
     1
102
RTVSPropertyOp2
 70
     1
102
RTVSPropertyOp3
 70
     1
102
RTVSPropertyOp4
 70
     1
102
RTVSPropertyOp5
 70
     1
102
RTVSPropertyOp6
 70
     1
102
RTVSPropertyOp7
 70
     1
102
RTVSPropertyOp8
 70
     1
102
RTVSPropertyOp9
 70
     1
102
RTVSPropertyOp10
 70
     1
102
RTVSPropertyOp11
 70
     1
102
RTVSPropertyOp12
 70
     1
102
RTVSPropertyOp13
 70
     1
102
RTVSPropertyOp14
 70
     1
102
RTVSPropertyOp15
 70
     1
102
RTVSPropertyOp16
 70
     1
102
RTVSPropertyOp17
 70
     1
102
RTVSPropertyOp18
 70
     1
102
RTVSPropertyOp19
 70
     1
102
RTVSPropertyOp20
 70
     1
102
RTVSPropertyOp21
 70
     1
102
RTVSPropertyOp22
 70
     1
102
RTVSPropertyOp23
 70
     1
102
RTVSPropertyOp24
 70
     1
102
RTVSPropertyOp25
 70
     1
102
RTVSPropertyOp26
 70
     1
102
RTVSPropertyOp27
 70
     1
102
RTVSPropertyOp28
 70
     1
102
RTVSPropertyOp29
 70
     1
102
RTVSPropertyOp30
 70
     1
102
RTVSPropertyOp31
 70
     1
102
RTVSPropertyOp32
 70
     1
102
RTVSPropertyOp33
 70
     1
102
RTVSPropertyOp34
 70
     1
102
RTVSPropertyOp35
 70
     1
102
RTVSPropertyOp36
 70
     1
102
RTVSPropertyOp37
 70
     1
102
RTVSPropertyOp38
 70
     1
102
RTVSPropertyOp39
 70
     1
102
RTVSPropertyOp40
 70
     1
102
RTVSPropertyOp41
 70
     1
102
RTVSPropertyOp42
 70
     1
102
RTVSPropertyOp43
 70
     1
102
RTVSPropertyOp44
 70
     1
102
RTVSPropertyOp45
 70
     1
102
RTVSPropertyOp46
 70
     1
102
RTVSPropertyOp47
 70
     1
102
RTVSPropertyOp48
 70
     1
102
RTVSPropertyOp49
 70
     1
102
RTVSPropertyOp50
 70
     1
102
RTVSPropertyOp51
 70
     0
102
RTVSPropertyOp52
 70
     0
102
RTVSPropertyOp53
 70
     1
102
RTVSPropertyOp54
 70
     1
102
RTVSPropertyOp55
 70
     1
102
RTVSPropertyOp56
 70
     1
102
RTVSPropertyOp57
 70
     1
102
RTVSPropertyOp58
 70
     1
102
RTVSPropertyOp59
 70
     1
102
RTVSPropertyOp60
 70
     1
102
RTVSPropertyOp61
 70
     1
102
RTVSPropertyOp62
 70
     1
  0
XRECORD
  5
2720
102
{ACAD_REACTORS
330
271F
102
}
330
271F
100
AcDbXrecord
280
     1
102
RTVSPost2010Prop28
280
     0
102
RTVSPost2010PropOp28
 70
     1
102
RTVSPost2010Prop29
280
     1
102
RTVSPost2010PropOp29
 70
     1
102
RTVSPost2010Prop30
280
     1
102
RTVSPost2010PropOp30
 70
     1
102
RTVSPost2010Prop31
280
     0
102
RTVSPost2010PropOp31
 70
     1
102
RTVSPost2010Prop32
280
     0
102
RTVSPost2010PropOp32
 70
     1
102
RTVSPost2010Prop33
280
     0
102
RTVSPost2010PropOp33
 70
     1
102
RTVSPost2010Prop34
280
     0
102
RTVSPost2010PropOp34
 70
     1
102
RTVSPost2010Prop35
280
     0
102
RTVSPost2010PropOp35
 70
     1
102
RTVSPost2010Prop36
280
     0
102
RTVSPost2010PropOp36
 70
     1
102
RTVSPost2010Prop37
 90
       50
102
RTVSPost2010PropOp37
 70
     1
102
RTVSPost2010Prop38
140
0.0
102
RTVSPost2010PropOp38
 70
     1
102
RTVSPost2010Prop39
140
1.0
102
RTVSPost2010PropOp39
 70
     1
102
RTVSPost2010Prop40
 90
        0
102
RTVSPost2010PropOp40
 70
     1
102
RTVSPost2010Prop41ColorIndex
 90
       18
102
RTVSPost2010Prop41ColorRGB
 90
        0
102
RTVSPost2010PropOp41
 70
     1
102
RTVSPost2010Prop42
 90
       50
102
RTVSPost2010PropOp42
 70
     1
102
RTVSPost2010Prop43
 90
        3
102
RTVSPost2010PropOp43
 70
     1
102
RTVSPost2010Prop44ColorIndex
 90
        5
102
RTVSPost2010Prop44ColorRGB
 90
      255
102
RTVSPost2010PropOp44
 70
     1
102
RTVSPost2010Prop45
280
     0
102
RTVSPost2010PropOp45
 70
     1
102
RTVSPost2010Prop46
 90
       50
102
RTVSPost2010PropOp46
 70
     1
102
RTVSPost2010Prop47
 90
       50
102
RTVSPost2010PropOp47
 70
     1
102
RTVSPost2010Prop48
 90
       50
102
RTVSPost2010PropOp48
 70
     1
102
RTVSPost2010Prop49
280
     0
102
RTVSPost2010PropOp49
 70
     1
102
RTVSPost2010Prop50
 90
       50
102
RTVSPost2010PropOp50
 70
     1
102
RTVSPost2010Prop51ColorIndex
 90
      256
102
RTVSPost2010Prop51ColorRGB
 90
-16777216
102
RTVSPost2010PropOp51
 70
     0
102
RTVSPost2010Prop52
140
1.0
102
RTVSPost2010PropOp52
 70
     0
102
RTVSPost2010Prop53
 90
        2
102
RTVSPost2010PropOp53
 70
     1
102
RTVSPost2010Prop54
  1
strokes_ogs.tif
102
RTVSPost2010PropOp54
 70
     1
102
RTVSPost2010Prop55
280
     0
102
RTVSPost2010PropOp55
 70
     1
102
RTVSPost2010Prop56
140
1.0
102
RTVSPost2010PropOp56
 70
     1
102
RTVSPost2010Prop57
140
1.0
102
RTVSPost2010PropOp57
 70
     1
102
RTVSPropertyOp0
 70
     1
102
RTVSPropertyOp1
 70
     1
102
RTVSPropertyOp2
 70
     1
102
RTVSPropertyOp3
 70
     1
102
RTVSPropertyOp4
 70
     1
102
RTVSPropertyOp5
 70
     1
102
RTVSPropertyOp6
 70
     1
102
RTVSPropertyOp7
 70
     1
102
RTVSPropertyOp8
 70
     1
102
RTVSPropertyOp9
 70
     1
102
RTVSPropertyOp10
 70
     1
102
RTVSPropertyOp11
 70
     1
102
RTVSPropertyOp12
 70
     1
102
RTVSPropertyOp13
 70
     1
102
RTVSPropertyOp14
 70
     1
102
RTVSPropertyOp15
 70
     1
102
RTVSPropertyOp16
 70
     1
102
RTVSPropertyOp17
 70
     1
102
RTVSPropertyOp18
 70
     1
102
RTVSPropertyOp19
 70
     1
102
RTVSPropertyOp20
 70
     1
102
RTVSPropertyOp21
 70
     1
102
RTVSPropertyOp22
 70
     1
102
RTVSPropertyOp23
 70
     1
102
RTVSPropertyOp24
 70
     1
102
RTVSPropertyOp25
 70
     1
102
RTVSPropertyOp26
 70
     1
102
RTVSPropertyOp27
 70
     1
102
RTVSPropertyOp28
 70
     1
102
RTVSPropertyOp29
 70
     1
102
RTVSPropertyOp30
 70
     1
102
RTVSPropertyOp31
 70
     1
102
RTVSPropertyOp32
 70
     1
102
RTVSPropertyOp33
 70
     1
102
RTVSPropertyOp34
 70
     1
102
RTVSPropertyOp35
 70
     1
102
RTVSPropertyOp36
 70
     1
102
RTVSPropertyOp37
 70
     1
102
RTVSPropertyOp38
 70
     1
102
RTVSPropertyOp39
 70
     1
102
RTVSPropertyOp40
 70
     1
102
RTVSPropertyOp41
 70
     1
102
RTVSPropertyOp42
 70
     1
102
RTVSPropertyOp43
 70
     1
102
RTVSPropertyOp44
 70
     1
102
RTVSPropertyOp45
 70
     1
102
RTVSPropertyOp46
 70
     1
102
RTVSPropertyOp47
 70
     1
102
RTVSPropertyOp48
 70
     1
102
RTVSPropertyOp49
 70
     1
102
RTVSPropertyOp50
 70
     1
102
RTVSPropertyOp51
 70
     0
102
RTVSPropertyOp52
 70
     0
102
RTVSPropertyOp53
 70
     1
102
RTVSPropertyOp54
 70
     1
102
RTVSPropertyOp55
 70
     1
102
RTVSPropertyOp56
 70
     1
102
RTVSPropertyOp57
 70
     1
102
RTVSPropertyOp58
 70
     1
102
RTVSPropertyOp59
 70
     1
102
RTVSPropertyOp60
 70
     1
102
RTVSPropertyOp61
 70
     1
102
RTVSPropertyOp62
 70
     1
  0
XRECORD
  5
2712
102
{ACAD_REACTORS
330
2711
102
}
330
2711
100
AcDbXrecord
280
     1
102
RTVSPost2010Prop28
280
     0
102
RTVSPost2010PropOp28
 70
     1
102
RTVSPost2010Prop29
280
     1
102
RTVSPost2010PropOp29
 70
     1
102
RTVSPost2010Prop30
280
     1
102
RTVSPost2010PropOp30
 70
     1
102
RTVSPost2010Prop31
280
     0
102
RTVSPost2010PropOp31
 70
     1
102
RTVSPost2010Prop32
280
     0
102
RTVSPost2010PropOp32
 70
     1
102
RTVSPost2010Prop33
280
     0
102
RTVSPost2010PropOp33
 70
     1
102
RTVSPost2010Prop34
280
     0
102
RTVSPost2010PropOp34
 70
     1
102
RTVSPost2010Prop35
280
     0
102
RTVSPost2010PropOp35
 70
     1
102
RTVSPost2010Prop36
280
     0
102
RTVSPost2010PropOp36
 70
     1
102
RTVSPost2010Prop37
 90
       50
102
RTVSPost2010PropOp37
 70
     1
102
RTVSPost2010Prop38
140
0.0
102
RTVSPost2010PropOp38
 70
     1
102
RTVSPost2010Prop39
140
1.0
102
RTVSPost2010PropOp39
 70
     1
102
RTVSPost2010Prop40
 90
        0
102
RTVSPost2010PropOp40
 70
     1
102
RTVSPost2010Prop41ColorIndex
 90
       18
102
RTVSPost2010Prop41ColorRGB
 90
        0
102
RTVSPost2010PropOp41
 70
     1
102
RTVSPost2010Prop42
 90
       50
102
RTVSPost2010PropOp42
 70
     1
102
RTVSPost2010Prop43
 90
        3
102
RTVSPost2010PropOp43
 70
     1
102
RTVSPost2010Prop44ColorIndex
 90
        5
102
RTVSPost2010Prop44ColorRGB
 90
      255
102
RTVSPost2010PropOp44
 70
     1
102
RTVSPost2010Prop45
280
     0
102
RTVSPost2010PropOp45
 70
     1
102
RTVSPost2010Prop46
 90
       50
102
RTVSPost2010PropOp46
 70
     1
102
RTVSPost2010Prop47
 90
       50
102
RTVSPost2010PropOp47
 70
     1
102
RTVSPost2010Prop48
 90
       50
102
RTVSPost2010PropOp48
 70
     1
102
RTVSPost2010Prop49
280
     0
102
RTVSPost2010PropOp49
 70
     1
102
RTVSPost2010Prop50
 90
       50
102
RTVSPost2010PropOp50
 70
     1
102
RTVSPost2010Prop51ColorIndex
 90
      256
102
RTVSPost2010Prop51ColorRGB
 90
-16777216
102
RTVSPost2010PropOp51
 70
     0
102
RTVSPost2010Prop52
140
1.0
102
RTVSPost2010PropOp52
 70
     0
102
RTVSPost2010Prop53
 90
        2
102
RTVSPost2010PropOp53
 70
     1
102
RTVSPost2010Prop54
  1
strokes_ogs.tif
102
RTVSPost2010PropOp54
 70
     1
102
RTVSPost2010Prop55
280
     0
102
RTVSPost2010PropOp55
 70
     1
102
RTVSPost2010Prop56
140
1.0
102
RTVSPost2010PropOp56
 70
     1
102
RTVSPost2010Prop57
140
1.0
102
RTVSPost2010PropOp57
 70
     1
102
RTVSPropertyOp0
 70
     1
102
RTVSPropertyOp1
 70
     1
102
RTVSPropertyOp2
 70
     1
102
RTVSPropertyOp3
 70
     1
102
RTVSPropertyOp4
 70
     1
102
RTVSPropertyOp5
 70
     1
102
RTVSPropertyOp6
 70
     1
102
RTVSPropertyOp7
 70
     1
102
RTVSPropertyOp8
 70
     1
102
RTVSPropertyOp9
 70
     1
102
RTVSPropertyOp10
 70
     1
102
RTVSPropertyOp11
 70
     1
102
RTVSPropertyOp12
 70
     1
102
RTVSPropertyOp13
 70
     1
102
RTVSPropertyOp14
 70
     1
102
RTVSPropertyOp15
 70
     1
102
RTVSPropertyOp16
 70
     1
102
RTVSPropertyOp17
 70
     1
102
RTVSPropertyOp18
 70
     1
102
RTVSPropertyOp19
 70
     1
102
RTVSPropertyOp20
 70
     1
102
RTVSPropertyOp21
 70
     1
102
RTVSPropertyOp22
 70
     1
102
RTVSPropertyOp23
 70
     1
102
RTVSPropertyOp24
 70
     1
102
RTVSPropertyOp25
 70
     1
102
RTVSPropertyOp26
 70
     1
102
RTVSPropertyOp27
 70
     1
102
RTVSPropertyOp28
 70
     1
102
RTVSPropertyOp29
 70
     1
102
RTVSPropertyOp30
 70
     1
102
RTVSPropertyOp31
 70
     1
102
RTVSPropertyOp32
 70
     1
102
RTVSPropertyOp33
 70
     1
102
RTVSPropertyOp34
 70
     1
102
RTVSPropertyOp35
 70
     1
102
RTVSPropertyOp36
 70
     1
102
RTVSPropertyOp37
 70
     1
102
RTVSPropertyOp38
 70
     1
102
RTVSPropertyOp39
 70
     1
102
RTVSPropertyOp40
 70
     1
102
RTVSPropertyOp41
 70
     1
102
RTVSPropertyOp42
 70
     1
102
RTVSPropertyOp43
 70
     1
102
RTVSPropertyOp44
 70
     1
102
RTVSPropertyOp45
 70
     1
102
RTVSPropertyOp46
 70
     1
102
RTVSPropertyOp47
 70
     1
102
RTVSPropertyOp48
 70
     1
102
RTVSPropertyOp49
 70
     1
102
RTVSPropertyOp50
 70
     1
102
RTVSPropertyOp51
 70
     0
102
RTVSPropertyOp52
 70
     0
102
RTVSPropertyOp53
 70
     1
102
RTVSPropertyOp54
 70
     1
102
RTVSPropertyOp55
 70
     1
102
RTVSPropertyOp56
 70
     1
102
RTVSPropertyOp57
 70
     1
102
RTVSPropertyOp58
 70
     1
102
RTVSPropertyOp59
 70
     1
102
RTVSPropertyOp60
 70
     1
102
RTVSPropertyOp61
 70
     1
102
RTVSPropertyOp62
 70
     1
  0
XRECORD
  5
2716
102
{ACAD_REACTORS
330
2715
102
}
330
2715
100
AcDbXrecord
280
     1
102
RTVSPost2010Prop28
280
     0
102
RTVSPost2010PropOp28
 70
     1
102
RTVSPost2010Prop29
280
     1
102
RTVSPost2010PropOp29
 70
     1
102
RTVSPost2010Prop30
280
     1
102
RTVSPost2010PropOp30
 70
     1
102
RTVSPost2010Prop31
280
     0
102
RTVSPost2010PropOp31
 70
     1
102
RTVSPost2010Prop32
280
     0
102
RTVSPost2010PropOp32
 70
     1
102
RTVSPost2010Prop33
280
     0
102
RTVSPost2010PropOp33
 70
     1
102
RTVSPost2010Prop34
280
     0
102
RTVSPost2010PropOp34
 70
     1
102
RTVSPost2010Prop35
280
     0
102
RTVSPost2010PropOp35
 70
     1
102
RTVSPost2010Prop36
280
     0
102
RTVSPost2010PropOp36
 70
     1
102
RTVSPost2010Prop37
 90
       50
102
RTVSPost2010PropOp37
 70
     1
102
RTVSPost2010Prop38
140
0.0
102
RTVSPost2010PropOp38
 70
     1
102
RTVSPost2010Prop39
140
1.0
102
RTVSPost2010PropOp39
 70
     1
102
RTVSPost2010Prop40
 90
        0
102
RTVSPost2010PropOp40
 70
     1
102
RTVSPost2010Prop41ColorIndex
 90
       18
102
RTVSPost2010Prop41ColorRGB
 90
        0
102
RTVSPost2010PropOp41
 70
     1
102
RTVSPost2010Prop42
 90
       50
102
RTVSPost2010PropOp42
 70
     1
102
RTVSPost2010Prop43
 90
        3
102
RTVSPost2010PropOp43
 70
     1
102
RTVSPost2010Prop44ColorIndex
 90
        5
102
RTVSPost2010Prop44ColorRGB
 90
      255
102
RTVSPost2010PropOp44
 70
     1
102
RTVSPost2010Prop45
280
     0
102
RTVSPost2010PropOp45
 70
     1
102
RTVSPost2010Prop46
 90
       50
102
RTVSPost2010PropOp46
 70
     1
102
RTVSPost2010Prop47
 90
       50
102
RTVSPost2010PropOp47
 70
     1
102
RTVSPost2010Prop48
 90
       50
102
RTVSPost2010PropOp48
 70
     1
102
RTVSPost2010Prop49
280
     0
102
RTVSPost2010PropOp49
 70
     1
102
RTVSPost2010Prop50
 90
       50
102
RTVSPost2010PropOp50
 70
     1
102
RTVSPost2010Prop51ColorIndex
 90
      256
102
RTVSPost2010Prop51ColorRGB
 90
-16777216
102
RTVSPost2010PropOp51
 70
     0
102
RTVSPost2010Prop52
140
1.0
102
RTVSPost2010PropOp52
 70
     0
102
RTVSPost2010Prop53
 90
        2
102
RTVSPost2010PropOp53
 70
     1
102
RTVSPost2010Prop54
  1
strokes_ogs.tif
102
RTVSPost2010PropOp54
 70
     1
102
RTVSPost2010Prop55
280
     0
102
RTVSPost2010PropOp55
 70
     1
102
RTVSPost2010Prop56
140
1.0
102
RTVSPost2010PropOp56
 70
     1
102
RTVSPost2010Prop57
140
1.0
102
RTVSPost2010PropOp57
 70
     1
102
RTVSPropertyOp0
 70
     1
102
RTVSPropertyOp1
 70
     1
102
RTVSPropertyOp2
 70
     1
102
RTVSPropertyOp3
 70
     1
102
RTVSPropertyOp4
 70
     1
102
RTVSPropertyOp5
 70
     1
102
RTVSPropertyOp6
 70
     1
102
RTVSPropertyOp7
 70
     1
102
RTVSPropertyOp8
 70
     1
102
RTVSPropertyOp9
 70
     1
102
RTVSPropertyOp10
 70
     1
102
RTVSPropertyOp11
 70
     1
102
RTVSPropertyOp12
 70
     1
102
RTVSPropertyOp13
 70
     1
102
RTVSPropertyOp14
 70
     1
102
RTVSPropertyOp15
 70
     1
102
RTVSPropertyOp16
 70
     1
102
RTVSPropertyOp17
 70
     1
102
RTVSPropertyOp18
 70
     1
102
RTVSPropertyOp19
 70
     1
102
RTVSPropertyOp20
 70
     1
102
RTVSPropertyOp21
 70
     1
102
RTVSPropertyOp22
 70
     1
102
RTVSPropertyOp23
 70
     1
102
RTVSPropertyOp24
 70
     1
102
RTVSPropertyOp25
 70
     1
102
RTVSPropertyOp26
 70
     1
102
RTVSPropertyOp27
 70
     1
102
RTVSPropertyOp28
 70
     1
102
RTVSPropertyOp29
 70
     1
102
RTVSPropertyOp30
 70
     1
102
RTVSPropertyOp31
 70
     1
102
RTVSPropertyOp32
 70
     1
102
RTVSPropertyOp33
 70
     1
102
RTVSPropertyOp34
 70
     1
102
RTVSPropertyOp35
 70
     1
102
RTVSPropertyOp36
 70
     1
102
RTVSPropertyOp37
 70
     1
102
RTVSPropertyOp38
 70
     1
102
RTVSPropertyOp39
 70
     1
102
RTVSPropertyOp40
 70
     1
102
RTVSPropertyOp41
 70
     1
102
RTVSPropertyOp42
 70
     1
102
RTVSPropertyOp43
 70
     1
102
RTVSPropertyOp44
 70
     1
102
RTVSPropertyOp45
 70
     1
102
RTVSPropertyOp46
 70
     1
102
RTVSPropertyOp47
 70
     1
102
RTVSPropertyOp48
 70
     1
102
RTVSPropertyOp49
 70
     1
102
RTVSPropertyOp50
 70
     1
102
RTVSPropertyOp51
 70
     0
102
RTVSPropertyOp52
 70
     0
102
RTVSPropertyOp53
 70
     1
102
RTVSPropertyOp54
 70
     1
102
RTVSPropertyOp55
 70
     1
102
RTVSPropertyOp56
 70
     1
102
RTVSPropertyOp57
 70
     1
102
RTVSPropertyOp58
 70
     1
102
RTVSPropertyOp59
 70
     1
102
RTVSPropertyOp60
 70
     1
102
RTVSPropertyOp61
 70
     1
102
RTVSPropertyOp62
 70
     1
  0
XRECORD
  5
2730
102
{ACAD_REACTORS
330
272F
102
}
330
272F
100
AcDbXrecord
280
     1
102
RTVSPost2010Prop28
280
     0
102
RTVSPost2010PropOp28
 70
     1
102
RTVSPost2010Prop29
280
     1
102
RTVSPost2010PropOp29
 70
     1
102
RTVSPost2010Prop30
280
     1
102
RTVSPost2010PropOp30
 70
     1
102
RTVSPost2010Prop31
280
     0
102
RTVSPost2010PropOp31
 70
     1
102
RTVSPost2010Prop32
280
     0
102
RTVSPost2010PropOp32
 70
     1
102
RTVSPost2010Prop33
280
     0
102
RTVSPost2010PropOp33
 70
     1
102
RTVSPost2010Prop34
280
     0
102
RTVSPost2010PropOp34
 70
     1
102
RTVSPost2010Prop35
280
     0
102
RTVSPost2010PropOp35
 70
     1
102
RTVSPost2010Prop36
280
     0
102
RTVSPost2010PropOp36
 70
     1
102
RTVSPost2010Prop37
 90
       50
102
RTVSPost2010PropOp37
 70
     0
102
RTVSPost2010Prop38
140
0.0
102
RTVSPost2010PropOp38
 70
     0
102
RTVSPost2010Prop39
140
1.0
102
RTVSPost2010PropOp39
 70
     0
102
RTVSPost2010Prop40
 90
        0
102
RTVSPost2010PropOp40
 70
     0
102
RTVSPost2010Prop41ColorIndex
 90
       18
102
RTVSPost2010Prop41ColorRGB
 90
        0
102
RTVSPost2010PropOp41
 70
     0
102
RTVSPost2010Prop42
 90
       50
102
RTVSPost2010PropOp42
 70
     0
102
RTVSPost2010Prop43
 90
        3
102
RTVSPost2010PropOp43
 70
     0
102
RTVSPost2010Prop44ColorIndex
 90
        5
102
RTVSPost2010Prop44ColorRGB
 90
      255
102
RTVSPost2010PropOp44
 70
     0
102
RTVSPost2010Prop45
280
     0
102
RTVSPost2010PropOp45
 70
     1
102
RTVSPost2010Prop46
 90
       50
102
RTVSPost2010PropOp46
 70
     0
102
RTVSPost2010Prop47
 90
       50
102
RTVSPost2010PropOp47
 70
     0
102
RTVSPost2010Prop48
 90
       50
102
RTVSPost2010PropOp48
 70
     0
102
RTVSPost2010Prop49
280
     0
102
RTVSPost2010PropOp49
 70
     1
102
RTVSPost2010Prop50
 90
       50
102
RTVSPost2010PropOp50
 70
     0
102
RTVSPost2010Prop51ColorIndex
 90
      256
102
RTVSPost2010Prop51ColorRGB
 90
-16777216
102
RTVSPost2010PropOp51
 70
     0
102
RTVSPost2010Prop52
140
1.0
102
RTVSPost2010PropOp52
 70
     0
102
RTVSPost2010Prop53
 90
        2
102
RTVSPost2010PropOp53
 70
     0
102
RTVSPost2010Prop54
  1
strokes_ogs.tif
102
RTVSPost2010PropOp54
 70
     0
102
RTVSPost2010Prop55
280
     0
102
RTVSPost2010PropOp55
 70
     1
102
RTVSPost2010Prop56
140
1.0
102
RTVSPost2010PropOp56
 70
     0
102
RTVSPost2010Prop57
140
1.0
102
RTVSPost2010PropOp57
 70
     0
102
RTVSPropertyOp0
 70
     0
102
RTVSPropertyOp1
 70
     0
102
RTVSPropertyOp2
 70
     0
102
RTVSPropertyOp3
 70
     0
102
RTVSPropertyOp4
 70
     0
102
RTVSPropertyOp5
 70
     0
102
RTVSPropertyOp6
 70
     0
102
RTVSPropertyOp7
 70
     0
102
RTVSPropertyOp8
 70
     0
102
RTVSPropertyOp9
 70
     0
102
RTVSPropertyOp10
 70
     0
102
RTVSPropertyOp11
 70
     0
102
RTVSPropertyOp12
 70
     0
102
RTVSPropertyOp13
 70
     0
102
RTVSPropertyOp14
 70
     2
102
RTVSPropertyOp15
 70
     0
102
RTVSPropertyOp16
 70
     0
102
RTVSPropertyOp17
 70
     0
102
RTVSPropertyOp18
 70
     0
102
RTVSPropertyOp19
 70
     0
102
RTVSPropertyOp20
 70
     0
102
RTVSPropertyOp21
 70
     0
102
RTVSPropertyOp22
 70
     0
102
RTVSPropertyOp23
 70
     0
102
RTVSPropertyOp24
 70
     0
102
RTVSPropertyOp25
 70
     0
102
RTVSPropertyOp26
 70
     0
102
RTVSPropertyOp27
 70
     0
102
RTVSPropertyOp28
 70
     1
102
RTVSPropertyOp29
 70
     1
102
RTVSPropertyOp30
 70
     1
102
RTVSPropertyOp31
 70
     1
102
RTVSPropertyOp32
 70
     1
102
RTVSPropertyOp33
 70
     1
102
RTVSPropertyOp34
 70
     1
102
RTVSPropertyOp35
 70
     1
102
RTVSPropertyOp36
 70
     1
102
RTVSPropertyOp37
 70
     0
102
RTVSPropertyOp38
 70
     0
102
RTVSPropertyOp39
 70
     0
102
RTVSPropertyOp40
 70
     0
102
RTVSPropertyOp41
 70
     0
102
RTVSPropertyOp42
 70
     0
102
RTVSPropertyOp43
 70
     0
102
RTVSPropertyOp44
 70
     0
102
RTVSPropertyOp45
 70
     1
102
RTVSPropertyOp46
 70
     0
102
RTVSPropertyOp47
 70
     0
102
RTVSPropertyOp48
 70
     0
102
RTVSPropertyOp49
 70
     1
102
RTVSPropertyOp50
 70
     0
102
RTVSPropertyOp51
 70
     0
102
RTVSPropertyOp52
 70
     0
102
RTVSPropertyOp53
 70
     0
102
RTVSPropertyOp54
 70
     0
102
RTVSPropertyOp55
 70
     1
102
RTVSPropertyOp56
 70
     0
102
RTVSPropertyOp57
 70
     0
102
RTVSPropertyOp58
 70
     0
102
RTVSPropertyOp59
 70
     0
102
RTVSPropertyOp60
 70
     0
102
RTVSPropertyOp61
 70
     0
102
RTVSPropertyOp62
 70
     0
  0
XRECORD
  5
271E
102
{ACAD_REACTORS
330
271D
102
}
330
271D
100
AcDbXrecord
280
     1
102
RTVSPost2010Prop28
280
     0
102
RTVSPost2010PropOp28
 70
     1
102
RTVSPost2010Prop29
280
     1
102
RTVSPost2010PropOp29
 70
     1
102
RTVSPost2010Prop30
280
     1
102
RTVSPost2010PropOp30
 70
     1
102
RTVSPost2010Prop31
280
     0
102
RTVSPost2010PropOp31
 70
     1
102
RTVSPost2010Prop32
280
     0
102
RTVSPost2010PropOp32
 70
     1
102
RTVSPost2010Prop33
280
     0
102
RTVSPost2010PropOp33
 70
     1
102
RTVSPost2010Prop34
280
     0
102
RTVSPost2010PropOp34
 70
     1
102
RTVSPost2010Prop35
280
     0
102
RTVSPost2010PropOp35
 70
     1
102
RTVSPost2010Prop36
280
     0
102
RTVSPost2010PropOp36
 70
     1
102
RTVSPost2010Prop37
 90
       50
102
RTVSPost2010PropOp37
 70
     1
102
RTVSPost2010Prop38
140
0.0
102
RTVSPost2010PropOp38
 70
     1
102
RTVSPost2010Prop39
140
1.0
102
RTVSPost2010PropOp39
 70
     1
102
RTVSPost2010Prop40
 90
        0
102
RTVSPost2010PropOp40
 70
     1
102
RTVSPost2010Prop41ColorIndex
 90
       18
102
RTVSPost2010Prop41ColorRGB
 90
        0
102
RTVSPost2010PropOp41
 70
     1
102
RTVSPost2010Prop42
 90
       50
102
RTVSPost2010PropOp42
 70
     1
102
RTVSPost2010Prop43
 90
        3
102
RTVSPost2010PropOp43
 70
     1
102
RTVSPost2010Prop44ColorIndex
 90
        5
102
RTVSPost2010Prop44ColorRGB
 90
      255
102
RTVSPost2010PropOp44
 70
     1
102
RTVSPost2010Prop45
280
     0
102
RTVSPost2010PropOp45
 70
     1
102
RTVSPost2010Prop46
 90
       50
102
RTVSPost2010PropOp46
 70
     1
102
RTVSPost2010Prop47
 90
       50
102
RTVSPost2010PropOp47
 70
     1
102
RTVSPost2010Prop48
 90
       50
102
RTVSPost2010PropOp48
 70
     1
102
RTVSPost2010Prop49
280
     0
102
RTVSPost2010PropOp49
 70
     1
102
RTVSPost2010Prop50
 90
       50
102
RTVSPost2010PropOp50
 70
     1
102
RTVSPost2010Prop51ColorIndex
 90
      256
102
RTVSPost2010Prop51ColorRGB
 90
-16777216
102
RTVSPost2010PropOp51
 70
     0
102
RTVSPost2010Prop52
140
1.0
102
RTVSPost2010PropOp52
 70
     0
102
RTVSPost2010Prop53
 90
        2
102
RTVSPost2010PropOp53
 70
     1
102
RTVSPost2010Prop54
  1
strokes_ogs.tif
102
RTVSPost2010PropOp54
 70
     1
102
RTVSPost2010Prop55
280
     0
102
RTVSPost2010PropOp55
 70
     1
102
RTVSPost2010Prop56
140
1.0
102
RTVSPost2010PropOp56
 70
     1
102
RTVSPost2010Prop57
140
1.0
102
RTVSPost2010PropOp57
 70
     1
102
RTVSPropertyOp0
 70
     1
102
RTVSPropertyOp1
 70
     1
102
RTVSPropertyOp2
 70
     1
102
RTVSPropertyOp3
 70
     1
102
RTVSPropertyOp4
 70
     1
102
RTVSPropertyOp5
 70
     1
102
RTVSPropertyOp6
 70
     1
102
RTVSPropertyOp7
 70
     1
102
RTVSPropertyOp8
 70
     1
102
RTVSPropertyOp9
 70
     1
102
RTVSPropertyOp10
 70
     1
102
RTVSPropertyOp11
 70
     1
102
RTVSPropertyOp12
 70
     1
102
RTVSPropertyOp13
 70
     1
102
RTVSPropertyOp14
 70
     1
102
RTVSPropertyOp15
 70
     1
102
RTVSPropertyOp16
 70
     1
102
RTVSPropertyOp17
 70
     1
102
RTVSPropertyOp18
 70
     1
102
RTVSPropertyOp19
 70
     1
102
RTVSPropertyOp20
 70
     1
102
RTVSPropertyOp21
 70
     1
102
RTVSPropertyOp22
 70
     1
102
RTVSPropertyOp23
 70
     1
102
RTVSPropertyOp24
 70
     1
102
RTVSPropertyOp25
 70
     1
102
RTVSPropertyOp26
 70
     1
102
RTVSPropertyOp27
 70
     1
102
RTVSPropertyOp28
 70
     1
102
RTVSPropertyOp29
 70
     1
102
RTVSPropertyOp30
 70
     1
102
RTVSPropertyOp31
 70
     1
102
RTVSPropertyOp32
 70
     1
102
RTVSPropertyOp33
 70
     1
102
RTVSPropertyOp34
 70
     1
102
RTVSPropertyOp35
 70
     1
102
RTVSPropertyOp36
 70
     1
102
RTVSPropertyOp37
 70
     1
102
RTVSPropertyOp38
 70
     1
102
RTVSPropertyOp39
 70
     1
102
RTVSPropertyOp40
 70
     1
102
RTVSPropertyOp41
 70
     1
102
RTVSPropertyOp42
 70
     1
102
RTVSPropertyOp43
 70
     1
102
RTVSPropertyOp44
 70
     1
102
RTVSPropertyOp45
 70
     1
102
RTVSPropertyOp46
 70
     1
102
RTVSPropertyOp47
 70
     1
102
RTVSPropertyOp48
 70
     1
102
RTVSPropertyOp49
 70
     1
102
RTVSPropertyOp50
 70
     1
102
RTVSPropertyOp51
 70
     0
102
RTVSPropertyOp52
 70
     0
102
RTVSPropertyOp53
 70
     1
102
RTVSPropertyOp54
 70
     1
102
RTVSPropertyOp55
 70
     1
102
RTVSPropertyOp56
 70
     1
102
RTVSPropertyOp57
 70
     1
102
RTVSPropertyOp58
 70
     1
102
RTVSPropertyOp59
 70
     1
102
RTVSPropertyOp60
 70
     1
102
RTVSPropertyOp61
 70
     1
102
RTVSPropertyOp62
 70
     1
  0
XRECORD
  5
2702
102
{ACAD_REACTORS
330
2701
102
}
330
2701
100
AcDbXrecord
280
     1
102
RTVSPost2010Prop28
280
     0
102
RTVSPost2010PropOp28
 70
     1
102
RTVSPost2010Prop29
280
     1
102
RTVSPost2010PropOp29
 70
     1
102
RTVSPost2010Prop30
280
     1
102
RTVSPost2010PropOp30
 70
     1
102
RTVSPost2010Prop31
280
     0
102
RTVSPost2010PropOp31
 70
     1
102
RTVSPost2010Prop32
280
     0
102
RTVSPost2010PropOp32
 70
     1
102
RTVSPost2010Prop33
280
     0
102
RTVSPost2010PropOp33
 70
     1
102
RTVSPost2010Prop34
280
     0
102
RTVSPost2010PropOp34
 70
     1
102
RTVSPost2010Prop35
280
     0
102
RTVSPost2010PropOp35
 70
     1
102
RTVSPost2010Prop36
280
     0
102
RTVSPost2010PropOp36
 70
     1
102
RTVSPost2010Prop37
 90
       50
102
RTVSPost2010PropOp37
 70
     1
102
RTVSPost2010Prop38
140
0.0
102
RTVSPost2010PropOp38
 70
     1
102
RTVSPost2010Prop39
140
1.0
102
RTVSPost2010PropOp39
 70
     1
102
RTVSPost2010Prop40
 90
        0
102
RTVSPost2010PropOp40
 70
     1
102
RTVSPost2010Prop41ColorIndex
 90
       18
102
RTVSPost2010Prop41ColorRGB
 90
        0
102
RTVSPost2010PropOp41
 70
     1
102
RTVSPost2010Prop42
 90
       50
102
RTVSPost2010PropOp42
 70
     1
102
RTVSPost2010Prop43
 90
        3
102
RTVSPost2010PropOp43
 70
     1
102
RTVSPost2010Prop44ColorIndex
 90
        5
102
RTVSPost2010Prop44ColorRGB
 90
      255
102
RTVSPost2010PropOp44
 70
     1
102
RTVSPost2010Prop45
280
     0
102
RTVSPost2010PropOp45
 70
     1
102
RTVSPost2010Prop46
 90
       50
102
RTVSPost2010PropOp46
 70
     1
102
RTVSPost2010Prop47
 90
       50
102
RTVSPost2010PropOp47
 70
     1
102
RTVSPost2010Prop48
 90
       50
102
RTVSPost2010PropOp48
 70
     1
102
RTVSPost2010Prop49
280
     0
102
RTVSPost2010PropOp49
 70
     1
102
RTVSPost2010Prop50
 90
       50
102
RTVSPost2010PropOp50
 70
     1
102
RTVSPost2010Prop51ColorIndex
 90
      256
102
RTVSPost2010Prop51ColorRGB
 90
-16777216
102
RTVSPost2010PropOp51
 70
     0
102
RTVSPost2010Prop52
140
1.0
102
RTVSPost2010PropOp52
 70
     0
102
RTVSPost2010Prop53
 90
        2
102
RTVSPost2010PropOp53
 70
     1
102
RTVSPost2010Prop54
  1
strokes_ogs.tif
102
RTVSPost2010PropOp54
 70
     1
102
RTVSPost2010Prop55
280
     0
102
RTVSPost2010PropOp55
 70
     1
102
RTVSPost2010Prop56
140
1.0
102
RTVSPost2010PropOp56
 70
     1
102
RTVSPost2010Prop57
140
1.0
102
RTVSPost2010PropOp57
 70
     1
102
RTVSPropertyOp0
 70
     1
102
RTVSPropertyOp1
 70
     1
102
RTVSPropertyOp2
 70
     1
102
RTVSPropertyOp3
 70
     1
102
RTVSPropertyOp4
 70
     1
102
RTVSPropertyOp5
 70
     1
102
RTVSPropertyOp6
 70
     1
102
RTVSPropertyOp7
 70
     1
102
RTVSPropertyOp8
 70
     1
102
RTVSPropertyOp9
 70
     1
102
RTVSPropertyOp10
 70
     1
102
RTVSPropertyOp11
 70
     1
102
RTVSPropertyOp12
 70
     1
102
RTVSPropertyOp13
 70
     1
102
RTVSPropertyOp14
 70
     1
102
RTVSPropertyOp15
 70
     1
102
RTVSPropertyOp16
 70
     1
102
RTVSPropertyOp17
 70
     1
102
RTVSPropertyOp18
 70
     1
102
RTVSPropertyOp19
 70
     1
102
RTVSPropertyOp20
 70
     1
102
RTVSPropertyOp21
 70
     1
102
RTVSPropertyOp22
 70
     1
102
RTVSPropertyOp23
 70
     1
102
RTVSPropertyOp24
 70
     1
102
RTVSPropertyOp25
 70
     1
102
RTVSPropertyOp26
 70
     1
102
RTVSPropertyOp27
 70
     1
102
RTVSPropertyOp28
 70
     1
102
RTVSPropertyOp29
 70
     1
102
RTVSPropertyOp30
 70
     1
102
RTVSPropertyOp31
 70
     1
102
RTVSPropertyOp32
 70
     1
102
RTVSPropertyOp33
 70
     1
102
RTVSPropertyOp34
 70
     1
102
RTVSPropertyOp35
 70
     1
102
RTVSPropertyOp36
 70
     1
102
RTVSPropertyOp37
 70
     1
102
RTVSPropertyOp38
 70
     1
102
RTVSPropertyOp39
 70
     1
102
RTVSPropertyOp40
 70
     1
102
RTVSPropertyOp41
 70
     1
102
RTVSPropertyOp42
 70
     1
102
RTVSPropertyOp43
 70
     1
102
RTVSPropertyOp44
 70
     1
102
RTVSPropertyOp45
 70
     1
102
RTVSPropertyOp46
 70
     1
102
RTVSPropertyOp47
 70
     1
102
RTVSPropertyOp48
 70
     1
102
RTVSPropertyOp49
 70
     1
102
RTVSPropertyOp50
 70
     1
102
RTVSPropertyOp51
 70
     0
102
RTVSPropertyOp52
 70
     0
102
RTVSPropertyOp53
 70
     1
102
RTVSPropertyOp54
 70
     1
102
RTVSPropertyOp55
 70
     1
102
RTVSPropertyOp56
 70
     1
102
RTVSPropertyOp57
 70
     1
102
RTVSPropertyOp58
 70
     1
102
RTVSPropertyOp59
 70
     1
102
RTVSPropertyOp60
 70
     1
102
RTVSPropertyOp61
 70
     1
102
RTVSPropertyOp62
 70
     1
  0
XRECORD
  5
2704
102
{ACAD_REACTORS
330
2703
102
}
330
2703
100
AcDbXrecord
280
     1
102
RTVSPost2010Prop28
280
     0
102
RTVSPost2010PropOp28
 70
     1
102
RTVSPost2010Prop29
280
     1
102
RTVSPost2010PropOp29
 70
     1
102
RTVSPost2010Prop30
280
     1
102
RTVSPost2010PropOp30
 70
     1
102
RTVSPost2010Prop31
280
     0
102
RTVSPost2010PropOp31
 70
     1
102
RTVSPost2010Prop32
280
     0
102
RTVSPost2010PropOp32
 70
     1
102
RTVSPost2010Prop33
280
     0
102
RTVSPost2010PropOp33
 70
     1
102
RTVSPost2010Prop34
280
     0
102
RTVSPost2010PropOp34
 70
     1
102
RTVSPost2010Prop35
280
     0
102
RTVSPost2010PropOp35
 70
     1
102
RTVSPost2010Prop36
280
     0
102
RTVSPost2010PropOp36
 70
     1
102
RTVSPost2010Prop37
 90
       50
102
RTVSPost2010PropOp37
 70
     1
102
RTVSPost2010Prop38
140
0.0
102
RTVSPost2010PropOp38
 70
     1
102
RTVSPost2010Prop39
140
1.0
102
RTVSPost2010PropOp39
 70
     1
102
RTVSPost2010Prop40
 90
        0
102
RTVSPost2010PropOp40
 70
     1
102
RTVSPost2010Prop41ColorIndex
 90
       18
102
RTVSPost2010Prop41ColorRGB
 90
        0
102
RTVSPost2010PropOp41
 70
     1
102
RTVSPost2010Prop42
 90
       50
102
RTVSPost2010PropOp42
 70
     1
102
RTVSPost2010Prop43
 90
        3
102
RTVSPost2010PropOp43
 70
     1
102
RTVSPost2010Prop44ColorIndex
 90
        5
102
RTVSPost2010Prop44ColorRGB
 90
      255
102
RTVSPost2010PropOp44
 70
     1
102
RTVSPost2010Prop45
280
     0
102
RTVSPost2010PropOp45
 70
     1
102
RTVSPost2010Prop46
 90
       50
102
RTVSPost2010PropOp46
 70
     1
102
RTVSPost2010Prop47
 90
       50
102
RTVSPost2010PropOp47
 70
     1
102
RTVSPost2010Prop48
 90
       50
102
RTVSPost2010PropOp48
 70
     1
102
RTVSPost2010Prop49
280
     0
102
RTVSPost2010PropOp49
 70
     1
102
RTVSPost2010Prop50
 90
       50
102
RTVSPost2010PropOp50
 70
     1
102
RTVSPost2010Prop51ColorIndex
 90
      256
102
RTVSPost2010Prop51ColorRGB
 90
-16777216
102
RTVSPost2010PropOp51
 70
     0
102
RTVSPost2010Prop52
140
1.0
102
RTVSPost2010PropOp52
 70
     0
102
RTVSPost2010Prop53
 90
        2
102
RTVSPost2010PropOp53
 70
     1
102
RTVSPost2010Prop54
  1
strokes_ogs.tif
102
RTVSPost2010PropOp54
 70
     1
102
RTVSPost2010Prop55
280
     0
102
RTVSPost2010PropOp55
 70
     1
102
RTVSPost2010Prop56
140
1.0
102
RTVSPost2010PropOp56
 70
     1
102
RTVSPost2010Prop57
140
1.0
102
RTVSPost2010PropOp57
 70
     1
102
RTVSPropertyOp0
 70
     1
102
RTVSPropertyOp1
 70
     1
102
RTVSPropertyOp2
 70
     1
102
RTVSPropertyOp3
 70
     1
102
RTVSPropertyOp4
 70
     1
102
RTVSPropertyOp5
 70
     1
102
RTVSPropertyOp6
 70
     1
102
RTVSPropertyOp7
 70
     1
102
RTVSPropertyOp8
 70
     1
102
RTVSPropertyOp9
 70
     1
102
RTVSPropertyOp10
 70
     1
102
RTVSPropertyOp11
 70
     1
102
RTVSPropertyOp12
 70
     1
102
RTVSPropertyOp13
 70
     1
102
RTVSPropertyOp14
 70
     1
102
RTVSPropertyOp15
 70
     1
102
RTVSPropertyOp16
 70
     1
102
RTVSPropertyOp17
 70
     1
102
RTVSPropertyOp18
 70
     1
102
RTVSPropertyOp19
 70
     1
102
RTVSPropertyOp20
 70
     1
102
RTVSPropertyOp21
 70
     1
102
RTVSPropertyOp22
 70
     1
102
RTVSPropertyOp23
 70
     1
102
RTVSPropertyOp24
 70
     1
102
RTVSPropertyOp25
 70
     1
102
RTVSPropertyOp26
 70
     1
102
RTVSPropertyOp27
 70
     1
102
RTVSPropertyOp28
 70
     1
102
RTVSPropertyOp29
 70
     1
102
RTVSPropertyOp30
 70
     1
102
RTVSPropertyOp31
 70
     1
102
RTVSPropertyOp32
 70
     1
102
RTVSPropertyOp33
 70
     1
102
RTVSPropertyOp34
 70
     1
102
RTVSPropertyOp35
 70
     1
102
RTVSPropertyOp36
 70
     1
102
RTVSPropertyOp37
 70
     1
102
RTVSPropertyOp38
 70
     1
102
RTVSPropertyOp39
 70
     1
102
RTVSPropertyOp40
 70
     1
102
RTVSPropertyOp41
 70
     1
102
RTVSPropertyOp42
 70
     1
102
RTVSPropertyOp43
 70
     1
102
RTVSPropertyOp44
 70
     1
102
RTVSPropertyOp45
 70
     1
102
RTVSPropertyOp46
 70
     1
102
RTVSPropertyOp47
 70
     1
102
RTVSPropertyOp48
 70
     1
102
RTVSPropertyOp49
 70
     1
102
RTVSPropertyOp50
 70
     1
102
RTVSPropertyOp51
 70
     0
102
RTVSPropertyOp52
 70
     0
102
RTVSPropertyOp53
 70
     1
102
RTVSPropertyOp54
 70
     1
102
RTVSPropertyOp55
 70
     1
102
RTVSPropertyOp56
 70
     1
102
RTVSPropertyOp57
 70
     1
102
RTVSPropertyOp58
 70
     1
102
RTVSPropertyOp59
 70
     1
102
RTVSPropertyOp60
 70
     1
102
RTVSPropertyOp61
 70
     1
102
RTVSPropertyOp62
 70
     1
  0
XRECORD
  5
2706
102
{ACAD_REACTORS
330
2705
102
}
330
2705
100
AcDbXrecord
280
     1
102
RTVSPost2010Prop28
280
     0
102
RTVSPost2010PropOp28
 70
     1
102
RTVSPost2010Prop29
280
     1
102
RTVSPost2010PropOp29
 70
     1
102
RTVSPost2010Prop30
280
     1
102
RTVSPost2010PropOp30
 70
     1
102
RTVSPost2010Prop31
280
     0
102
RTVSPost2010PropOp31
 70
     1
102
RTVSPost2010Prop32
280
     0
102
RTVSPost2010PropOp32
 70
     1
102
RTVSPost2010Prop33
280
     0
102
RTVSPost2010PropOp33
 70
     1
102
RTVSPost2010Prop34
280
     0
102
RTVSPost2010PropOp34
 70
     1
102
RTVSPost2010Prop35
280
     0
102
RTVSPost2010PropOp35
 70
     1
102
RTVSPost2010Prop36
280
     0
102
RTVSPost2010PropOp36
 70
     1
102
RTVSPost2010Prop37
 90
       50
102
RTVSPost2010PropOp37
 70
     1
102
RTVSPost2010Prop38
140
0.0
102
RTVSPost2010PropOp38
 70
     1
102
RTVSPost2010Prop39
140
1.0
102
RTVSPost2010PropOp39
 70
     1
102
RTVSPost2010Prop40
 90
        0
102
RTVSPost2010PropOp40
 70
     1
102
RTVSPost2010Prop41ColorIndex
 90
       18
102
RTVSPost2010Prop41ColorRGB
 90
        0
102
RTVSPost2010PropOp41
 70
     1
102
RTVSPost2010Prop42
 90
       50
102
RTVSPost2010PropOp42
 70
     1
102
RTVSPost2010Prop43
 90
        3
102
RTVSPost2010PropOp43
 70
     1
102
RTVSPost2010Prop44ColorIndex
 90
        5
102
RTVSPost2010Prop44ColorRGB
 90
      255
102
RTVSPost2010PropOp44
 70
     1
102
RTVSPost2010Prop45
280
     0
102
RTVSPost2010PropOp45
 70
     1
102
RTVSPost2010Prop46
 90
       50
102
RTVSPost2010PropOp46
 70
     1
102
RTVSPost2010Prop47
 90
       50
102
RTVSPost2010PropOp47
 70
     1
102
RTVSPost2010Prop48
 90
       50
102
RTVSPost2010PropOp48
 70
     1
102
RTVSPost2010Prop49
280
     0
102
RTVSPost2010PropOp49
 70
     1
102
RTVSPost2010Prop50
 90
       50
102
RTVSPost2010PropOp50
 70
     1
102
RTVSPost2010Prop51ColorIndex
 90
      256
102
RTVSPost2010Prop51ColorRGB
 90
-16777216
102
RTVSPost2010PropOp51
 70
     0
102
RTVSPost2010Prop52
140
1.0
102
RTVSPost2010PropOp52
 70
     0
102
RTVSPost2010Prop53
 90
        2
102
RTVSPost2010PropOp53
 70
     1
102
RTVSPost2010Prop54
  1
strokes_ogs.tif
102
RTVSPost2010PropOp54
 70
     1
102
RTVSPost2010Prop55
280
     0
102
RTVSPost2010PropOp55
 70
     1
102
RTVSPost2010Prop56
140
1.0
102
RTVSPost2010PropOp56
 70
     1
102
RTVSPost2010Prop57
140
1.0
102
RTVSPost2010PropOp57
 70
     1
102
RTVSPropertyOp0
 70
     1
102
RTVSPropertyOp1
 70
     1
102
RTVSPropertyOp2
 70
     1
102
RTVSPropertyOp3
 70
     1
102
RTVSPropertyOp4
 70
     1
102
RTVSPropertyOp5
 70
     1
102
RTVSPropertyOp6
 70
     1
102
RTVSPropertyOp7
 70
     1
102
RTVSPropertyOp8
 70
     1
102
RTVSPropertyOp9
 70
     1
102
RTVSPropertyOp10
 70
     1
102
RTVSPropertyOp11
 70
     1
102
RTVSPropertyOp12
 70
     1
102
RTVSPropertyOp13
 70
     1
102
RTVSPropertyOp14
 70
     1
102
RTVSPropertyOp15
 70
     1
102
RTVSPropertyOp16
 70
     1
102
RTVSPropertyOp17
 70
     1
102
RTVSPropertyOp18
 70
     1
102
RTVSPropertyOp19
 70
     1
102
RTVSPropertyOp20
 70
     1
102
RTVSPropertyOp21
 70
     1
102
RTVSPropertyOp22
 70
     1
102
RTVSPropertyOp23
 70
     1
102
RTVSPropertyOp24
 70
     1
102
RTVSPropertyOp25
 70
     1
102
RTVSPropertyOp26
 70
     1
102
RTVSPropertyOp27
 70
     1
102
RTVSPropertyOp28
 70
     1
102
RTVSPropertyOp29
 70
     1
102
RTVSPropertyOp30
 70
     1
102
RTVSPropertyOp31
 70
     1
102
RTVSPropertyOp32
 70
     1
102
RTVSPropertyOp33
 70
     1
102
RTVSPropertyOp34
 70
     1
102
RTVSPropertyOp35
 70
     1
102
RTVSPropertyOp36
 70
     1
102
RTVSPropertyOp37
 70
     1
102
RTVSPropertyOp38
 70
     1
102
RTVSPropertyOp39
 70
     1
102
RTVSPropertyOp40
 70
     1
102
RTVSPropertyOp41
 70
     1
102
RTVSPropertyOp42
 70
     1
102
RTVSPropertyOp43
 70
     1
102
RTVSPropertyOp44
 70
     1
102
RTVSPropertyOp45
 70
     1
102
RTVSPropertyOp46
 70
     1
102
RTVSPropertyOp47
 70
     1
102
RTVSPropertyOp48
 70
     1
102
RTVSPropertyOp49
 70
     1
102
RTVSPropertyOp50
 70
     1
102
RTVSPropertyOp51
 70
     0
102
RTVSPropertyOp52
 70
     0
102
RTVSPropertyOp53
 70
     1
102
RTVSPropertyOp54
 70
     1
102
RTVSPropertyOp55
 70
     1
102
RTVSPropertyOp56
 70
     1
102
RTVSPropertyOp57
 70
     1
102
RTVSPropertyOp58
 70
     1
102
RTVSPropertyOp59
 70
     1
102
RTVSPropertyOp60
 70
     1
102
RTVSPropertyOp61
 70
     1
102
RTVSPropertyOp62
 70
     1
  0
XRECORD
  5
2708
102
{ACAD_REACTORS
330
2707
102
}
330
2707
100
AcDbXrecord
280
     1
102
RTVSPost2010Prop28
280
     0
102
RTVSPost2010PropOp28
 70
     1
102
RTVSPost2010Prop29
280
     1
102
RTVSPost2010PropOp29
 70
     1
102
RTVSPost2010Prop30
280
     1
102
RTVSPost2010PropOp30
 70
     1
102
RTVSPost2010Prop31
280
     0
102
RTVSPost2010PropOp31
 70
     1
102
RTVSPost2010Prop32
280
     0
102
RTVSPost2010PropOp32
 70
     1
102
RTVSPost2010Prop33
280
     0
102
RTVSPost2010PropOp33
 70
     1
102
RTVSPost2010Prop34
280
     0
102
RTVSPost2010PropOp34
 70
     1
102
RTVSPost2010Prop35
280
     0
102
RTVSPost2010PropOp35
 70
     1
102
RTVSPost2010Prop36
280
     0
102
RTVSPost2010PropOp36
 70
     1
102
RTVSPost2010Prop37
 90
       50
102
RTVSPost2010PropOp37
 70
     1
102
RTVSPost2010Prop38
140
0.0
102
RTVSPost2010PropOp38
 70
     1
102
RTVSPost2010Prop39
140
1.0
102
RTVSPost2010PropOp39
 70
     1
102
RTVSPost2010Prop40
 90
        0
102
RTVSPost2010PropOp40
 70
     1
102
RTVSPost2010Prop41ColorIndex
 90
       18
102
RTVSPost2010Prop41ColorRGB
 90
        0
102
RTVSPost2010PropOp41
 70
     1
102
RTVSPost2010Prop42
 90
       50
102
RTVSPost2010PropOp42
 70
     1
102
RTVSPost2010Prop43
 90
        3
102
RTVSPost2010PropOp43
 70
     1
102
RTVSPost2010Prop44ColorIndex
 90
        5
102
RTVSPost2010Prop44ColorRGB
 90
      255
102
RTVSPost2010PropOp44
 70
     1
102
RTVSPost2010Prop45
280
     0
102
RTVSPost2010PropOp45
 70
     1
102
RTVSPost2010Prop46
 90
       50
102
RTVSPost2010PropOp46
 70
     1
102
RTVSPost2010Prop47
 90
       50
102
RTVSPost2010PropOp47
 70
     1
102
RTVSPost2010Prop48
 90
       50
102
RTVSPost2010PropOp48
 70
     1
102
RTVSPost2010Prop49
280
     0
102
RTVSPost2010PropOp49
 70
     1
102
RTVSPost2010Prop50
 90
       50
102
RTVSPost2010PropOp50
 70
     1
102
RTVSPost2010Prop51ColorIndex
 90
      256
102
RTVSPost2010Prop51ColorRGB
 90
-16777216
102
RTVSPost2010PropOp51
 70
     0
102
RTVSPost2010Prop52
140
1.0
102
RTVSPost2010PropOp52
 70
     0
102
RTVSPost2010Prop53
 90
        2
102
RTVSPost2010PropOp53
 70
     1
102
RTVSPost2010Prop54
  1
strokes_ogs.tif
102
RTVSPost2010PropOp54
 70
     1
102
RTVSPost2010Prop55
280
     0
102
RTVSPost2010PropOp55
 70
     1
102
RTVSPost2010Prop56
140
1.0
102
RTVSPost2010PropOp56
 70
     1
102
RTVSPost2010Prop57
140
1.0
102
RTVSPost2010PropOp57
 70
     1
102
RTVSPropertyOp0
 70
     1
102
RTVSPropertyOp1
 70
     1
102
RTVSPropertyOp2
 70
     1
102
RTVSPropertyOp3
 70
     1
102
RTVSPropertyOp4
 70
     1
102
RTVSPropertyOp5
 70
     1
102
RTVSPropertyOp6
 70
     1
102
RTVSPropertyOp7
 70
     1
102
RTVSPropertyOp8
 70
     1
102
RTVSPropertyOp9
 70
     1
102
RTVSPropertyOp10
 70
     1
102
RTVSPropertyOp11
 70
     1
102
RTVSPropertyOp12
 70
     1
102
RTVSPropertyOp13
 70
     1
102
RTVSPropertyOp14
 70
     1
102
RTVSPropertyOp15
 70
     1
102
RTVSPropertyOp16
 70
     1
102
RTVSPropertyOp17
 70
     1
102
RTVSPropertyOp18
 70
     1
102
RTVSPropertyOp19
 70
     1
102
RTVSPropertyOp20
 70
     1
102
RTVSPropertyOp21
 70
     1
102
RTVSPropertyOp22
 70
     1
102
RTVSPropertyOp23
 70
     1
102
RTVSPropertyOp24
 70
     1
102
RTVSPropertyOp25
 70
     1
102
RTVSPropertyOp26
 70
     1
102
RTVSPropertyOp27
 70
     1
102
RTVSPropertyOp28
 70
     1
102
RTVSPropertyOp29
 70
     1
102
RTVSPropertyOp30
 70
     1
102
RTVSPropertyOp31
 70
     1
102
RTVSPropertyOp32
 70
     1
102
RTVSPropertyOp33
 70
     1
102
RTVSPropertyOp34
 70
     1
102
RTVSPropertyOp35
 70
     1
102
RTVSPropertyOp36
 70
     1
102
RTVSPropertyOp37
 70
     1
102
RTVSPropertyOp38
 70
     1
102
RTVSPropertyOp39
 70
     1
102
RTVSPropertyOp40
 70
     1
102
RTVSPropertyOp41
 70
     1
102
RTVSPropertyOp42
 70
     1
102
RTVSPropertyOp43
 70
     1
102
RTVSPropertyOp44
 70
     1
102
RTVSPropertyOp45
 70
     1
102
RTVSPropertyOp46
 70
     1
102
RTVSPropertyOp47
 70
     1
102
RTVSPropertyOp48
 70
     1
102
RTVSPropertyOp49
 70
     1
102
RTVSPropertyOp50
 70
     1
102
RTVSPropertyOp51
 70
     0
102
RTVSPropertyOp52
 70
     0
102
RTVSPropertyOp53
 70
     1
102
RTVSPropertyOp54
 70
     1
102
RTVSPropertyOp55
 70
     1
102
RTVSPropertyOp56
 70
     1
102
RTVSPropertyOp57
 70
     1
102
RTVSPropertyOp58
 70
     1
102
RTVSPropertyOp59
 70
     1
102
RTVSPropertyOp60
 70
     1
102
RTVSPropertyOp61
 70
     1
102
RTVSPropertyOp62
 70
     1
  0
XRECORD
  5
2710
102
{ACAD_REACTORS
330
270F
102
}
330
270F
100
AcDbXrecord
280
     1
102
RTVSPost2010Prop28
280
     0
102
RTVSPost2010PropOp28
 70
     1
102
RTVSPost2010Prop29
280
     1
102
RTVSPost2010PropOp29
 70
     1
102
RTVSPost2010Prop30
280
     1
102
RTVSPost2010PropOp30
 70
     1
102
RTVSPost2010Prop31
280
     0
102
RTVSPost2010PropOp31
 70
     1
102
RTVSPost2010Prop32
280
     0
102
RTVSPost2010PropOp32
 70
     1
102
RTVSPost2010Prop33
280
     0
102
RTVSPost2010PropOp33
 70
     1
102
RTVSPost2010Prop34
280
     0
102
RTVSPost2010PropOp34
 70
     1
102
RTVSPost2010Prop35
280
     0
102
RTVSPost2010PropOp35
 70
     1
102
RTVSPost2010Prop36
280
     0
102
RTVSPost2010PropOp36
 70
     1
102
RTVSPost2010Prop37
 90
       50
102
RTVSPost2010PropOp37
 70
     1
102
RTVSPost2010Prop38
140
0.0
102
RTVSPost2010PropOp38
 70
     1
102
RTVSPost2010Prop39
140
1.0
102
RTVSPost2010PropOp39
 70
     1
102
RTVSPost2010Prop40
 90
        0
102
RTVSPost2010PropOp40
 70
     1
102
RTVSPost2010Prop41ColorIndex
 90
       18
102
RTVSPost2010Prop41ColorRGB
 90
        0
102
RTVSPost2010PropOp41
 70
     1
102
RTVSPost2010Prop42
 90
       50
102
RTVSPost2010PropOp42
 70
     1
102
RTVSPost2010Prop43
 90
        3
102
RTVSPost2010PropOp43
 70
     1
102
RTVSPost2010Prop44ColorIndex
 90
        5
102
RTVSPost2010Prop44ColorRGB
 90
      255
102
RTVSPost2010PropOp44
 70
     1
102
RTVSPost2010Prop45
280
     0
102
RTVSPost2010PropOp45
 70
     1
102
RTVSPost2010Prop46
 90
       50
102
RTVSPost2010PropOp46
 70
     1
102
RTVSPost2010Prop47
 90
       50
102
RTVSPost2010PropOp47
 70
     1
102
RTVSPost2010Prop48
 90
       50
102
RTVSPost2010PropOp48
 70
     1
102
RTVSPost2010Prop49
280
     0
102
RTVSPost2010PropOp49
 70
     1
102
RTVSPost2010Prop50
 90
       50
102
RTVSPost2010PropOp50
 70
     1
102
RTVSPost2010Prop51ColorIndex
 90
      256
102
RTVSPost2010Prop51ColorRGB
 90
-16777216
102
RTVSPost2010PropOp51
 70
     0
102
RTVSPost2010Prop52
140
1.0
102
RTVSPost2010PropOp52
 70
     0
102
RTVSPost2010Prop53
 90
        2
102
RTVSPost2010PropOp53
 70
     1
102
RTVSPost2010Prop54
  1
strokes_ogs.tif
102
RTVSPost2010PropOp54
 70
     1
102
RTVSPost2010Prop55
280
     0
102
RTVSPost2010PropOp55
 70
     1
102
RTVSPost2010Prop56
140
1.0
102
RTVSPost2010PropOp56
 70
     1
102
RTVSPost2010Prop57
140
1.0
102
RTVSPost2010PropOp57
 70
     1
102
RTVSPropertyOp0
 70
     1
102
RTVSPropertyOp1
 70
     1
102
RTVSPropertyOp2
 70
     1
102
RTVSPropertyOp3
 70
     1
102
RTVSPropertyOp4
 70
     1
102
RTVSPropertyOp5
 70
     1
102
RTVSPropertyOp6
 70
     1
102
RTVSPropertyOp7
 70
     1
102
RTVSPropertyOp8
 70
     1
102
RTVSPropertyOp9
 70
     1
102
RTVSPropertyOp10
 70
     1
102
RTVSPropertyOp11
 70
     1
102
RTVSPropertyOp12
 70
     1
102
RTVSPropertyOp13
 70
     1
102
RTVSPropertyOp14
 70
     1
102
RTVSPropertyOp15
 70
     1
102
RTVSPropertyOp16
 70
     1
102
RTVSPropertyOp17
 70
     1
102
RTVSPropertyOp18
 70
     1
102
RTVSPropertyOp19
 70
     1
102
RTVSPropertyOp20
 70
     1
102
RTVSPropertyOp21
 70
     1
102
RTVSPropertyOp22
 70
     1
102
RTVSPropertyOp23
 70
     1
102
RTVSPropertyOp24
 70
     1
102
RTVSPropertyOp25
 70
     1
102
RTVSPropertyOp26
 70
     1
102
RTVSPropertyOp27
 70
     1
102
RTVSPropertyOp28
 70
     1
102
RTVSPropertyOp29
 70
     1
102
RTVSPropertyOp30
 70
     1
102
RTVSPropertyOp31
 70
     1
102
RTVSPropertyOp32
 70
     1
102
RTVSPropertyOp33
 70
     1
102
RTVSPropertyOp34
 70
     1
102
RTVSPropertyOp35
 70
     1
102
RTVSPropertyOp36
 70
     1
102
RTVSPropertyOp37
 70
     1
102
RTVSPropertyOp38
 70
     1
102
RTVSPropertyOp39
 70
     1
102
RTVSPropertyOp40
 70
     1
102
RTVSPropertyOp41
 70
     1
102
RTVSPropertyOp42
 70
     1
102
RTVSPropertyOp43
 70
     1
102
RTVSPropertyOp44
 70
     1
102
RTVSPropertyOp45
 70
     1
102
RTVSPropertyOp46
 70
     1
102
RTVSPropertyOp47
 70
     1
102
RTVSPropertyOp48
 70
     1
102
RTVSPropertyOp49
 70
     1
102
RTVSPropertyOp50
 70
     1
102
RTVSPropertyOp51
 70
     0
102
RTVSPropertyOp52
 70
     0
102
RTVSPropertyOp53
 70
     1
102
RTVSPropertyOp54
 70
     1
102
RTVSPropertyOp55
 70
     1
102
RTVSPropertyOp56
 70
     1
102
RTVSPropertyOp57
 70
     1
102
RTVSPropertyOp58
 70
     1
102
RTVSPropertyOp59
 70
     1
102
RTVSPropertyOp60
 70
     1
102
RTVSPropertyOp61
 70
     1
102
RTVSPropertyOp62
 70
     1
  0
XRECORD
  5
272C
102
{ACAD_REACTORS
330
272B
102
}
330
272B
100
AcDbXrecord
280
     1
102
RTVSPost2010Prop28
280
     0
102
RTVSPost2010PropOp28
 70
     1
102
RTVSPost2010Prop29
280
     1
102
RTVSPost2010PropOp29
 70
     1
102
RTVSPost2010Prop30
280
     1
102
RTVSPost2010PropOp30
 70
     1
102
RTVSPost2010Prop31
280
     0
102
RTVSPost2010PropOp31
 70
     1
102
RTVSPost2010Prop32
280
     0
102
RTVSPost2010PropOp32
 70
     1
102
RTVSPost2010Prop33
280
     0
102
RTVSPost2010PropOp33
 70
     1
102
RTVSPost2010Prop34
280
     0
102
RTVSPost2010PropOp34
 70
     1
102
RTVSPost2010Prop35
280
     0
102
RTVSPost2010PropOp35
 70
     1
102
RTVSPost2010Prop36
280
     0
102
RTVSPost2010PropOp36
 70
     1
102
RTVSPost2010Prop37
 90
       50
102
RTVSPost2010PropOp37
 70
     0
102
RTVSPost2010Prop38
140
0.0
102
RTVSPost2010PropOp38
 70
     0
102
RTVSPost2010Prop39
140
1.0
102
RTVSPost2010PropOp39
 70
     0
102
RTVSPost2010Prop40
 90
        0
102
RTVSPost2010PropOp40
 70
     0
102
RTVSPost2010Prop41ColorIndex
 90
       18
102
RTVSPost2010Prop41ColorRGB
 90
        0
102
RTVSPost2010PropOp41
 70
     0
102
RTVSPost2010Prop42
 90
       50
102
RTVSPost2010PropOp42
 70
     0
102
RTVSPost2010Prop43
 90
        3
102
RTVSPost2010PropOp43
 70
     0
102
RTVSPost2010Prop44ColorIndex
 90
        5
102
RTVSPost2010Prop44ColorRGB
 90
      255
102
RTVSPost2010PropOp44
 70
     0
102
RTVSPost2010Prop45
280
     0
102
RTVSPost2010PropOp45
 70
     1
102
RTVSPost2010Prop46
 90
       50
102
RTVSPost2010PropOp46
 70
     0
102
RTVSPost2010Prop47
 90
       50
102
RTVSPost2010PropOp47
 70
     0
102
RTVSPost2010Prop48
 90
       50
102
RTVSPost2010PropOp48
 70
     0
102
RTVSPost2010Prop49
280
     0
102
RTVSPost2010PropOp49
 70
     1
102
RTVSPost2010Prop50
 90
       50
102
RTVSPost2010PropOp50
 70
     0
102
RTVSPost2010Prop51ColorIndex
 90
      256
102
RTVSPost2010Prop51ColorRGB
 90
-16777216
102
RTVSPost2010PropOp51
 70
     0
102
RTVSPost2010Prop52
140
1.0
102
RTVSPost2010PropOp52
 70
     0
102
RTVSPost2010Prop53
 90
        2
102
RTVSPost2010PropOp53
 70
     0
102
RTVSPost2010Prop54
  1
strokes_ogs.tif
102
RTVSPost2010PropOp54
 70
     0
102
RTVSPost2010Prop55
280
     0
102
RTVSPost2010PropOp55
 70
     1
102
RTVSPost2010Prop56
140
1.0
102
RTVSPost2010PropOp56
 70
     0
102
RTVSPost2010Prop57
140
1.0
102
RTVSPost2010PropOp57
 70
     0
102
RTVSPropertyOp0
 70
     0
102
RTVSPropertyOp1
 70
     0
102
RTVSPropertyOp2
 70
     0
102
RTVSPropertyOp3
 70
     0
102
RTVSPropertyOp4
 70
     0
102
RTVSPropertyOp5
 70
     0
102
RTVSPropertyOp6
 70
     0
102
RTVSPropertyOp7
 70
     0
102
RTVSPropertyOp8
 70
     0
102
RTVSPropertyOp9
 70
     0
102
RTVSPropertyOp10
 70
     0
102
RTVSPropertyOp11
 70
     0
102
RTVSPropertyOp12
 70
     0
102
RTVSPropertyOp13
 70
     0
102
RTVSPropertyOp14
 70
     2
102
RTVSPropertyOp15
 70
     0
102
RTVSPropertyOp16
 70
     0
102
RTVSPropertyOp17
 70
     0
102
RTVSPropertyOp18
 70
     0
102
RTVSPropertyOp19
 70
     0
102
RTVSPropertyOp20
 70
     0
102
RTVSPropertyOp21
 70
     0
102
RTVSPropertyOp22
 70
     0
102
RTVSPropertyOp23
 70
     0
102
RTVSPropertyOp24
 70
     0
102
RTVSPropertyOp25
 70
     0
102
RTVSPropertyOp26
 70
     0
102
RTVSPropertyOp27
 70
     0
102
RTVSPropertyOp28
 70
     1
102
RTVSPropertyOp29
 70
     1
102
RTVSPropertyOp30
 70
     1
102
RTVSPropertyOp31
 70
     1
102
RTVSPropertyOp32
 70
     1
102
RTVSPropertyOp33
 70
     1
102
RTVSPropertyOp34
 70
     1
102
RTVSPropertyOp35
 70
     1
102
RTVSPropertyOp36
 70
     1
102
RTVSPropertyOp37
 70
     0
102
RTVSPropertyOp38
 70
     0
102
RTVSPropertyOp39
 70
     0
102
RTVSPropertyOp40
 70
     0
102
RTVSPropertyOp41
 70
     0
102
RTVSPropertyOp42
 70
     0
102
RTVSPropertyOp43
 70
     0
102
RTVSPropertyOp44
 70
     0
102
RTVSPropertyOp45
 70
     1
102
RTVSPropertyOp46
 70
     0
102
RTVSPropertyOp47
 70
     0
102
RTVSPropertyOp48
 70
     0
102
RTVSPropertyOp49
 70
     1
102
RTVSPropertyOp50
 70
     0
102
RTVSPropertyOp51
 70
     0
102
RTVSPropertyOp52
 70
     0
102
RTVSPropertyOp53
 70
     0
102
RTVSPropertyOp54
 70
     0
102
RTVSPropertyOp55
 70
     1
102
RTVSPropertyOp56
 70
     0
102
RTVSPropertyOp57
 70
     0
102
RTVSPropertyOp58
 70
     0
102
RTVSPropertyOp59
 70
     0
102
RTVSPropertyOp60
 70
     0
102
RTVSPropertyOp61
 70
     0
102
RTVSPropertyOp62
 70
     0
  0
XRECORD
  5
271C
102
{ACAD_REACTORS
330
271B
102
}
330
271B
100
AcDbXrecord
280
     1
102
RTVSPost2010Prop28
280
     0
102
RTVSPost2010PropOp28
 70
     1
102
RTVSPost2010Prop29
280
     1
102
RTVSPost2010PropOp29
 70
     1
102
RTVSPost2010Prop30
280
     1
102
RTVSPost2010PropOp30
 70
     1
102
RTVSPost2010Prop31
280
     0
102
RTVSPost2010PropOp31
 70
     1
102
RTVSPost2010Prop32
280
     0
102
RTVSPost2010PropOp32
 70
     1
102
RTVSPost2010Prop33
280
     0
102
RTVSPost2010PropOp33
 70
     1
102
RTVSPost2010Prop34
280
     0
102
RTVSPost2010PropOp34
 70
     1
102
RTVSPost2010Prop35
280
     0
102
RTVSPost2010PropOp35
 70
     1
102
RTVSPost2010Prop36
280
     0
102
RTVSPost2010PropOp36
 70
     1
102
RTVSPost2010Prop37
 90
       50
102
RTVSPost2010PropOp37
 70
     1
102
RTVSPost2010Prop38
140
0.0
102
RTVSPost2010PropOp38
 70
     1
102
RTVSPost2010Prop39
140
1.0
102
RTVSPost2010PropOp39
 70
     1
102
RTVSPost2010Prop40
 90
        0
102
RTVSPost2010PropOp40
 70
     1
102
RTVSPost2010Prop41ColorIndex
 90
       18
102
RTVSPost2010Prop41ColorRGB
 90
        0
102
RTVSPost2010PropOp41
 70
     1
102
RTVSPost2010Prop42
 90
       50
102
RTVSPost2010PropOp42
 70
     1
102
RTVSPost2010Prop43
 90
        3
102
RTVSPost2010PropOp43
 70
     1
102
RTVSPost2010Prop44ColorIndex
 90
        5
102
RTVSPost2010Prop44ColorRGB
 90
      255
102
RTVSPost2010PropOp44
 70
     1
102
RTVSPost2010Prop45
280
     0
102
RTVSPost2010PropOp45
 70
     1
102
RTVSPost2010Prop46
 90
       50
102
RTVSPost2010PropOp46
 70
     1
102
RTVSPost2010Prop47
 90
       50
102
RTVSPost2010PropOp47
 70
     1
102
RTVSPost2010Prop48
 90
       50
102
RTVSPost2010PropOp48
 70
     1
102
RTVSPost2010Prop49
280
     0
102
RTVSPost2010PropOp49
 70
     1
102
RTVSPost2010Prop50
 90
       50
102
RTVSPost2010PropOp50
 70
     1
102
RTVSPost2010Prop51ColorIndex
 90
      256
102
RTVSPost2010Prop51ColorRGB
 90
-16777216
102
RTVSPost2010PropOp51
 70
     0
102
RTVSPost2010Prop52
140
1.0
102
RTVSPost2010PropOp52
 70
     0
102
RTVSPost2010Prop53
 90
        2
102
RTVSPost2010PropOp53
 70
     1
102
RTVSPost2010Prop54
  1
strokes_ogs.tif
102
RTVSPost2010PropOp54
 70
     1
102
RTVSPost2010Prop55
280
     0
102
RTVSPost2010PropOp55
 70
     1
102
RTVSPost2010Prop56
140
1.0
102
RTVSPost2010PropOp56
 70
     1
102
RTVSPost2010Prop57
140
1.0
102
RTVSPost2010PropOp57
 70
     1
102
RTVSPropertyOp0
 70
     1
102
RTVSPropertyOp1
 70
     1
102
RTVSPropertyOp2
 70
     1
102
RTVSPropertyOp3
 70
     1
102
RTVSPropertyOp4
 70
     1
102
RTVSPropertyOp5
 70
     1
102
RTVSPropertyOp6
 70
     1
102
RTVSPropertyOp7
 70
     1
102
RTVSPropertyOp8
 70
     1
102
RTVSPropertyOp9
 70
     1
102
RTVSPropertyOp10
 70
     1
102
RTVSPropertyOp11
 70
     1
102
RTVSPropertyOp12
 70
     1
102
RTVSPropertyOp13
 70
     1
102
RTVSPropertyOp14
 70
     1
102
RTVSPropertyOp15
 70
     1
102
RTVSPropertyOp16
 70
     1
102
RTVSPropertyOp17
 70
     1
102
RTVSPropertyOp18
 70
     1
102
RTVSPropertyOp19
 70
     1
102
RTVSPropertyOp20
 70
     1
102
RTVSPropertyOp21
 70
     1
102
RTVSPropertyOp22
 70
     1
102
RTVSPropertyOp23
 70
     1
102
RTVSPropertyOp24
 70
     1
102
RTVSPropertyOp25
 70
     1
102
RTVSPropertyOp26
 70
     1
102
RTVSPropertyOp27
 70
     1
102
RTVSPropertyOp28
 70
     1
102
RTVSPropertyOp29
 70
     1
102
RTVSPropertyOp30
 70
     1
102
RTVSPropertyOp31
 70
     1
102
RTVSPropertyOp32
 70
     1
102
RTVSPropertyOp33
 70
     1
102
RTVSPropertyOp34
 70
     1
102
RTVSPropertyOp35
 70
     1
102
RTVSPropertyOp36
 70
     1
102
RTVSPropertyOp37
 70
     1
102
RTVSPropertyOp38
 70
     1
102
RTVSPropertyOp39
 70
     1
102
RTVSPropertyOp40
 70
     1
102
RTVSPropertyOp41
 70
     1
102
RTVSPropertyOp42
 70
     1
102
RTVSPropertyOp43
 70
     1
102
RTVSPropertyOp44
 70
     1
102
RTVSPropertyOp45
 70
     1
102
RTVSPropertyOp46
 70
     1
102
RTVSPropertyOp47
 70
     1
102
RTVSPropertyOp48
 70
     1
102
RTVSPropertyOp49
 70
     1
102
RTVSPropertyOp50
 70
     1
102
RTVSPropertyOp51
 70
     0
102
RTVSPropertyOp52
 70
     0
102
RTVSPropertyOp53
 70
     1
102
RTVSPropertyOp54
 70
     1
102
RTVSPropertyOp55
 70
     1
102
RTVSPropertyOp56
 70
     1
102
RTVSPropertyOp57
 70
     1
102
RTVSPropertyOp58
 70
     1
102
RTVSPropertyOp59
 70
     1
102
RTVSPropertyOp60
 70
     1
102
RTVSPropertyOp61
 70
     1
102
RTVSPropertyOp62
 70
     1
  0
XRECORD
  5
272E
102
{ACAD_REACTORS
330
272D
102
}
330
272D
100
AcDbXrecord
280
     1
102
RTVSPost2010Prop28
280
     0
102
RTVSPost2010PropOp28
 70
     1
102
RTVSPost2010Prop29
280
     1
102
RTVSPost2010PropOp29
 70
     1
102
RTVSPost2010Prop30
280
     1
102
RTVSPost2010PropOp30
 70
     1
102
RTVSPost2010Prop31
280
     0
102
RTVSPost2010PropOp31
 70
     1
102
RTVSPost2010Prop32
280
     0
102
RTVSPost2010PropOp32
 70
     1
102
RTVSPost2010Prop33
280
     0
102
RTVSPost2010PropOp33
 70
     1
102
RTVSPost2010Prop34
280
     0
102
RTVSPost2010PropOp34
 70
     1
102
RTVSPost2010Prop35
280
     0
102
RTVSPost2010PropOp35
 70
     1
102
RTVSPost2010Prop36
280
     0
102
RTVSPost2010PropOp36
 70
     1
102
RTVSPost2010Prop37
 90
       50
102
RTVSPost2010PropOp37
 70
     0
102
RTVSPost2010Prop38
140
0.0
102
RTVSPost2010PropOp38
 70
     0
102
RTVSPost2010Prop39
140
1.0
102
RTVSPost2010PropOp39
 70
     0
102
RTVSPost2010Prop40
 90
        0
102
RTVSPost2010PropOp40
 70
     0
102
RTVSPost2010Prop41ColorIndex
 90
       18
102
RTVSPost2010Prop41ColorRGB
 90
        0
102
RTVSPost2010PropOp41
 70
     0
102
RTVSPost2010Prop42
 90
       50
102
RTVSPost2010PropOp42
 70
     0
102
RTVSPost2010Prop43
 90
        3
102
RTVSPost2010PropOp43
 70
     0
102
RTVSPost2010Prop44ColorIndex
 90
        5
102
RTVSPost2010Prop44ColorRGB
 90
      255
102
RTVSPost2010PropOp44
 70
     0
102
RTVSPost2010Prop45
280
     0
102
RTVSPost2010PropOp45
 70
     1
102
RTVSPost2010Prop46
 90
       50
102
RTVSPost2010PropOp46
 70
     0
102
RTVSPost2010Prop47
 90
       50
102
RTVSPost2010PropOp47
 70
     0
102
RTVSPost2010Prop48
 90
       50
102
RTVSPost2010PropOp48
 70
     0
102
RTVSPost2010Prop49
280
     0
102
RTVSPost2010PropOp49
 70
     1
102
RTVSPost2010Prop50
 90
       50
102
RTVSPost2010PropOp50
 70
     0
102
RTVSPost2010Prop51ColorIndex
 90
      256
102
RTVSPost2010Prop51ColorRGB
 90
-16777216
102
RTVSPost2010PropOp51
 70
     0
102
RTVSPost2010Prop52
140
1.0
102
RTVSPost2010PropOp52
 70
     0
102
RTVSPost2010Prop53
 90
        2
102
RTVSPost2010PropOp53
 70
     0
102
RTVSPost2010Prop54
  1
strokes_ogs.tif
102
RTVSPost2010PropOp54
 70
     0
102
RTVSPost2010Prop55
280
     0
102
RTVSPost2010PropOp55
 70
     1
102
RTVSPost2010Prop56
140
1.0
102
RTVSPost2010PropOp56
 70
     0
102
RTVSPost2010Prop57
140
1.0
102
RTVSPost2010PropOp57
 70
     0
102
RTVSPropertyOp0
 70
     0
102
RTVSPropertyOp1
 70
     0
102
RTVSPropertyOp2
 70
     0
102
RTVSPropertyOp3
 70
     0
102
RTVSPropertyOp4
 70
     0
102
RTVSPropertyOp5
 70
     0
102
RTVSPropertyOp6
 70
     0
102
RTVSPropertyOp7
 70
     0
102
RTVSPropertyOp8
 70
     0
102
RTVSPropertyOp9
 70
     0
102
RTVSPropertyOp10
 70
     0
102
RTVSPropertyOp11
 70
     0
102
RTVSPropertyOp12
 70
     0
102
RTVSPropertyOp13
 70
     0
102
RTVSPropertyOp14
 70
     2
102
RTVSPropertyOp15
 70
     0
102
RTVSPropertyOp16
 70
     0
102
RTVSPropertyOp17
 70
     0
102
RTVSPropertyOp18
 70
     0
102
RTVSPropertyOp19
 70
     0
102
RTVSPropertyOp20
 70
     0
102
RTVSPropertyOp21
 70
     0
102
RTVSPropertyOp22
 70
     0
102
RTVSPropertyOp23
 70
     0
102
RTVSPropertyOp24
 70
     0
102
RTVSPropertyOp25
 70
     0
102
RTVSPropertyOp26
 70
     0
102
RTVSPropertyOp27
 70
     0
102
RTVSPropertyOp28
 70
     1
102
RTVSPropertyOp29
 70
     1
102
RTVSPropertyOp30
 70
     1
102
RTVSPropertyOp31
 70
     1
102
RTVSPropertyOp32
 70
     1
102
RTVSPropertyOp33
 70
     1
102
RTVSPropertyOp34
 70
     1
102
RTVSPropertyOp35
 70
     1
102
RTVSPropertyOp36
 70
     1
102
RTVSPropertyOp37
 70
     0
102
RTVSPropertyOp38
 70
     0
102
RTVSPropertyOp39
 70
     0
102
RTVSPropertyOp40
 70
     0
102
RTVSPropertyOp41
 70
     0
102
RTVSPropertyOp42
 70
     0
102
RTVSPropertyOp43
 70
     0
102
RTVSPropertyOp44
 70
     0
102
RTVSPropertyOp45
 70
     1
102
RTVSPropertyOp46
 70
     0
102
RTVSPropertyOp47
 70
     0
102
RTVSPropertyOp48
 70
     0
102
RTVSPropertyOp49
 70
     1
102
RTVSPropertyOp50
 70
     0
102
RTVSPropertyOp51
 70
     0
102
RTVSPropertyOp52
 70
     0
102
RTVSPropertyOp53
 70
     0
102
RTVSPropertyOp54
 70
     0
102
RTVSPropertyOp55
 70
     1
102
RTVSPropertyOp56
 70
     0
102
RTVSPropertyOp57
 70
     0
102
RTVSPropertyOp58
 70
     0
102
RTVSPropertyOp59
 70
     0
102
RTVSPropertyOp60
 70
     0
102
RTVSPropertyOp61
 70
     0
102
RTVSPropertyOp62
 70
     0
  0
XRECORD
  5
2714
102
{ACAD_REACTORS
330
2713
102
}
330
2713
100
AcDbXrecord
280
     1
102
RTVSPost2010Prop28
280
     0
102
RTVSPost2010PropOp28
 70
     1
102
RTVSPost2010Prop29
280
     1
102
RTVSPost2010PropOp29
 70
     1
102
RTVSPost2010Prop30
280
     1
102
RTVSPost2010PropOp30
 70
     1
102
RTVSPost2010Prop31
280
     0
102
RTVSPost2010PropOp31
 70
     1
102
RTVSPost2010Prop32
280
     0
102
RTVSPost2010PropOp32
 70
     1
102
RTVSPost2010Prop33
280
     0
102
RTVSPost2010PropOp33
 70
     1
102
RTVSPost2010Prop34
280
     0
102
RTVSPost2010PropOp34
 70
     1
102
RTVSPost2010Prop35
280
     0
102
RTVSPost2010PropOp35
 70
     1
102
RTVSPost2010Prop36
280
     0
102
RTVSPost2010PropOp36
 70
     1
102
RTVSPost2010Prop37
 90
       50
102
RTVSPost2010PropOp37
 70
     1
102
RTVSPost2010Prop38
140
0.0
102
RTVSPost2010PropOp38
 70
     1
102
RTVSPost2010Prop39
140
1.0
102
RTVSPost2010PropOp39
 70
     1
102
RTVSPost2010Prop40
 90
        0
102
RTVSPost2010PropOp40
 70
     1
102
RTVSPost2010Prop41ColorIndex
 90
       18
102
RTVSPost2010Prop41ColorRGB
 90
        0
102
RTVSPost2010PropOp41
 70
     1
102
RTVSPost2010Prop42
 90
       50
102
RTVSPost2010PropOp42
 70
     1
102
RTVSPost2010Prop43
 90
        3
102
RTVSPost2010PropOp43
 70
     1
102
RTVSPost2010Prop44ColorIndex
 90
        5
102
RTVSPost2010Prop44ColorRGB
 90
      255
102
RTVSPost2010PropOp44
 70
     1
102
RTVSPost2010Prop45
280
     0
102
RTVSPost2010PropOp45
 70
     1
102
RTVSPost2010Prop46
 90
       50
102
RTVSPost2010PropOp46
 70
     1
102
RTVSPost2010Prop47
 90
       50
102
RTVSPost2010PropOp47
 70
     1
102
RTVSPost2010Prop48
 90
       50
102
RTVSPost2010PropOp48
 70
     1
102
RTVSPost2010Prop49
280
     0
102
RTVSPost2010PropOp49
 70
     1
102
RTVSPost2010Prop50
 90
       50
102
RTVSPost2010PropOp50
 70
     1
102
RTVSPost2010Prop51ColorIndex
 90
      256
102
RTVSPost2010Prop51ColorRGB
 90
-16777216
102
RTVSPost2010PropOp51
 70
     0
102
RTVSPost2010Prop52
140
1.0
102
RTVSPost2010PropOp52
 70
     0
102
RTVSPost2010Prop53
 90
        2
102
RTVSPost2010PropOp53
 70
     1
102
RTVSPost2010Prop54
  1
strokes_ogs.tif
102
RTVSPost2010PropOp54
 70
     1
102
RTVSPost2010Prop55
280
     0
102
RTVSPost2010PropOp55
 70
     1
102
RTVSPost2010Prop56
140
1.0
102
RTVSPost2010PropOp56
 70
     1
102
RTVSPost2010Prop57
140
1.0
102
RTVSPost2010PropOp57
 70
     1
102
RTVSPropertyOp0
 70
     1
102
RTVSPropertyOp1
 70
     1
102
RTVSPropertyOp2
 70
     1
102
RTVSPropertyOp3
 70
     1
102
RTVSPropertyOp4
 70
     1
102
RTVSPropertyOp5
 70
     1
102
RTVSPropertyOp6
 70
     1
102
RTVSPropertyOp7
 70
     1
102
RTVSPropertyOp8
 70
     1
102
RTVSPropertyOp9
 70
     1
102
RTVSPropertyOp10
 70
     1
102
RTVSPropertyOp11
 70
     1
102
RTVSPropertyOp12
 70
     1
102
RTVSPropertyOp13
 70
     1
102
RTVSPropertyOp14
 70
     1
102
RTVSPropertyOp15
 70
     1
102
RTVSPropertyOp16
 70
     1
102
RTVSPropertyOp17
 70
     1
102
RTVSPropertyOp18
 70
     1
102
RTVSPropertyOp19
 70
     1
102
RTVSPropertyOp20
 70
     1
102
RTVSPropertyOp21
 70
     1
102
RTVSPropertyOp22
 70
     1
102
RTVSPropertyOp23
 70
     1
102
RTVSPropertyOp24
 70
     1
102
RTVSPropertyOp25
 70
     1
102
RTVSPropertyOp26
 70
     1
102
RTVSPropertyOp27
 70
     1
102
RTVSPropertyOp28
 70
     1
102
RTVSPropertyOp29
 70
     1
102
RTVSPropertyOp30
 70
     1
102
RTVSPropertyOp31
 70
     1
102
RTVSPropertyOp32
 70
     1
102
RTVSPropertyOp33
 70
     1
102
RTVSPropertyOp34
 70
     1
102
RTVSPropertyOp35
 70
     1
102
RTVSPropertyOp36
 70
     1
102
RTVSPropertyOp37
 70
     1
102
RTVSPropertyOp38
 70
     1
102
RTVSPropertyOp39
 70
     1
102
RTVSPropertyOp40
 70
     1
102
RTVSPropertyOp41
 70
     1
102
RTVSPropertyOp42
 70
     1
102
RTVSPropertyOp43
 70
     1
102
RTVSPropertyOp44
 70
     1
102
RTVSPropertyOp45
 70
     1
102
RTVSPropertyOp46
 70
     1
102
RTVSPropertyOp47
 70
     1
102
RTVSPropertyOp48
 70
     1
102
RTVSPropertyOp49
 70
     1
102
RTVSPropertyOp50
 70
     1
102
RTVSPropertyOp51
 70
     0
102
RTVSPropertyOp52
 70
     0
102
RTVSPropertyOp53
 70
     1
102
RTVSPropertyOp54
 70
     1
102
RTVSPropertyOp55
 70
     1
102
RTVSPropertyOp56
 70
     1
102
RTVSPropertyOp57
 70
     1
102
RTVSPropertyOp58
 70
     1
102
RTVSPropertyOp59
 70
     1
102
RTVSPropertyOp60
 70
     1
102
RTVSPropertyOp61
 70
     1
102
RTVSPropertyOp62
 70
     1
  0
XRECORD
  5
272A
102
{ACAD_REACTORS
330
2729
102
}
330
2729
100
AcDbXrecord
280
     1
102
RTVSPost2010Prop28
280
     0
102
RTVSPost2010PropOp28
 70
     1
102
RTVSPost2010Prop29
280
     1
102
RTVSPost2010PropOp29
 70
     1
102
RTVSPost2010Prop30
280
     1
102
RTVSPost2010PropOp30
 70
     1
102
RTVSPost2010Prop31
280
     0
102
RTVSPost2010PropOp31
 70
     1
102
RTVSPost2010Prop32
280
     0
102
RTVSPost2010PropOp32
 70
     1
102
RTVSPost2010Prop33
280
     0
102
RTVSPost2010PropOp33
 70
     1
102
RTVSPost2010Prop34
280
     0
102
RTVSPost2010PropOp34
 70
     1
102
RTVSPost2010Prop35
280
     0
102
RTVSPost2010PropOp35
 70
     1
102
RTVSPost2010Prop36
280
     0
102
RTVSPost2010PropOp36
 70
     1
102
RTVSPost2010Prop37
 90
       50
102
RTVSPost2010PropOp37
 70
     1
102
RTVSPost2010Prop38
140
0.0
102
RTVSPost2010PropOp38
 70
     1
102
RTVSPost2010Prop39
140
1.0
102
RTVSPost2010PropOp39
 70
     1
102
RTVSPost2010Prop40
 90
        0
102
RTVSPost2010PropOp40
 70
     1
102
RTVSPost2010Prop41ColorIndex
 90
       18
102
RTVSPost2010Prop41ColorRGB
 90
        0
102
RTVSPost2010PropOp41
 70
     1
102
RTVSPost2010Prop42
 90
       50
102
RTVSPost2010PropOp42
 70
     1
102
RTVSPost2010Prop43
 90
        3
102
RTVSPost2010PropOp43
 70
     1
102
RTVSPost2010Prop44ColorIndex
 90
        5
102
RTVSPost2010Prop44ColorRGB
 90
      255
102
RTVSPost2010PropOp44
 70
     1
102
RTVSPost2010Prop45
280
     0
102
RTVSPost2010PropOp45
 70
     1
102
RTVSPost2010Prop46
 90
       50
102
RTVSPost2010PropOp46
 70
     1
102
RTVSPost2010Prop47
 90
       50
102
RTVSPost2010PropOp47
 70
     1
102
RTVSPost2010Prop48
 90
       50
102
RTVSPost2010PropOp48
 70
     1
102
RTVSPost2010Prop49
280
     0
102
RTVSPost2010PropOp49
 70
     1
102
RTVSPost2010Prop50
 90
       50
102
RTVSPost2010PropOp50
 70
     1
102
RTVSPost2010Prop51ColorIndex
 90
      256
102
RTVSPost2010Prop51ColorRGB
 90
-16777216
102
RTVSPost2010PropOp51
 70
     0
102
RTVSPost2010Prop52
140
1.0
102
RTVSPost2010PropOp52
 70
     0
102
RTVSPost2010Prop53
 90
        2
102
RTVSPost2010PropOp53
 70
     1
102
RTVSPost2010Prop54
  1
strokes_ogs.tif
102
RTVSPost2010PropOp54
 70
     1
102
RTVSPost2010Prop55
280
     0
102
RTVSPost2010PropOp55
 70
     1
102
RTVSPost2010Prop56
140
1.0
102
RTVSPost2010PropOp56
 70
     1
102
RTVSPost2010Prop57
140
1.0
102
RTVSPost2010PropOp57
 70
     1
102
RTVSPropertyOp0
 70
     1
102
RTVSPropertyOp1
 70
     1
102
RTVSPropertyOp2
 70
     1
102
RTVSPropertyOp3
 70
     1
102
RTVSPropertyOp4
 70
     1
102
RTVSPropertyOp5
 70
     1
102
RTVSPropertyOp6
 70
     1
102
RTVSPropertyOp7
 70
     1
102
RTVSPropertyOp8
 70
     1
102
RTVSPropertyOp9
 70
     1
102
RTVSPropertyOp10
 70
     1
102
RTVSPropertyOp11
 70
     1
102
RTVSPropertyOp12
 70
     1
102
RTVSPropertyOp13
 70
     1
102
RTVSPropertyOp14
 70
     1
102
RTVSPropertyOp15
 70
     1
102
RTVSPropertyOp16
 70
     1
102
RTVSPropertyOp17
 70
     1
102
RTVSPropertyOp18
 70
     1
102
RTVSPropertyOp19
 70
     1
102
RTVSPropertyOp20
 70
     1
102
RTVSPropertyOp21
 70
     1
102
RTVSPropertyOp22
 70
     1
102
RTVSPropertyOp23
 70
     1
102
RTVSPropertyOp24
 70
     1
102
RTVSPropertyOp25
 70
     1
102
RTVSPropertyOp26
 70
     1
102
RTVSPropertyOp27
 70
     1
102
RTVSPropertyOp28
 70
     1
102
RTVSPropertyOp29
 70
     1
102
RTVSPropertyOp30
 70
     1
102
RTVSPropertyOp31
 70
     1
102
RTVSPropertyOp32
 70
     1
102
RTVSPropertyOp33
 70
     1
102
RTVSPropertyOp34
 70
     1
102
RTVSPropertyOp35
 70
     1
102
RTVSPropertyOp36
 70
     1
102
RTVSPropertyOp37
 70
     1
102
RTVSPropertyOp38
 70
     1
102
RTVSPropertyOp39
 70
     1
102
RTVSPropertyOp40
 70
     1
102
RTVSPropertyOp41
 70
     1
102
RTVSPropertyOp42
 70
     1
102
RTVSPropertyOp43
 70
     1
102
RTVSPropertyOp44
 70
     1
102
RTVSPropertyOp45
 70
     1
102
RTVSPropertyOp46
 70
     1
102
RTVSPropertyOp47
 70
     1
102
RTVSPropertyOp48
 70
     1
102
RTVSPropertyOp49
 70
     1
102
RTVSPropertyOp50
 70
     1
102
RTVSPropertyOp51
 70
     0
102
RTVSPropertyOp52
 70
     0
102
RTVSPropertyOp53
 70
     1
102
RTVSPropertyOp54
 70
     1
102
RTVSPropertyOp55
 70
     1
102
RTVSPropertyOp56
 70
     1
102
RTVSPropertyOp57
 70
     1
102
RTVSPropertyOp58
 70
     1
102
RTVSPropertyOp59
 70
     1
102
RTVSPropertyOp60
 70
     1
102
RTVSPropertyOp61
 70
     1
102
RTVSPropertyOp62
 70
     1
  0
XRECORD
  5
2728
102
{ACAD_REACTORS
330
2727
102
}
330
2727
100
AcDbXrecord
280
     1
102
RTVSPost2010Prop28
280
     0
102
RTVSPost2010PropOp28
 70
     1
102
RTVSPost2010Prop29
280
     1
102
RTVSPost2010PropOp29
 70
     1
102
RTVSPost2010Prop30
280
     1
102
RTVSPost2010PropOp30
 70
     1
102
RTVSPost2010Prop31
280
     0
102
RTVSPost2010PropOp31
 70
     1
102
RTVSPost2010Prop32
280
     0
102
RTVSPost2010PropOp32
 70
     1
102
RTVSPost2010Prop33
280
     0
102
RTVSPost2010PropOp33
 70
     1
102
RTVSPost2010Prop34
280
     0
102
RTVSPost2010PropOp34
 70
     1
102
RTVSPost2010Prop35
280
     0
102
RTVSPost2010PropOp35
 70
     1
102
RTVSPost2010Prop36
280
     0
102
RTVSPost2010PropOp36
 70
     1
102
RTVSPost2010Prop37
 90
       50
102
RTVSPost2010PropOp37
 70
     1
102
RTVSPost2010Prop38
140
0.0
102
RTVSPost2010PropOp38
 70
     1
102
RTVSPost2010Prop39
140
1.0
102
RTVSPost2010PropOp39
 70
     1
102
RTVSPost2010Prop40
 90
        0
102
RTVSPost2010PropOp40
 70
     1
102
RTVSPost2010Prop41ColorIndex
 90
       18
102
RTVSPost2010Prop41ColorRGB
 90
        0
102
RTVSPost2010PropOp41
 70
     1
102
RTVSPost2010Prop42
 90
       50
102
RTVSPost2010PropOp42
 70
     1
102
RTVSPost2010Prop43
 90
        3
102
RTVSPost2010PropOp43
 70
     1
102
RTVSPost2010Prop44ColorIndex
 90
        5
102
RTVSPost2010Prop44ColorRGB
 90
      255
102
RTVSPost2010PropOp44
 70
     1
102
RTVSPost2010Prop45
280
     0
102
RTVSPost2010PropOp45
 70
     1
102
RTVSPost2010Prop46
 90
       50
102
RTVSPost2010PropOp46
 70
     1
102
RTVSPost2010Prop47
 90
       50
102
RTVSPost2010PropOp47
 70
     1
102
RTVSPost2010Prop48
 90
       50
102
RTVSPost2010PropOp48
 70
     1
102
RTVSPost2010Prop49
280
     0
102
RTVSPost2010PropOp49
 70
     1
102
RTVSPost2010Prop50
 90
       50
102
RTVSPost2010PropOp50
 70
     1
102
RTVSPost2010Prop51ColorIndex
 90
      256
102
RTVSPost2010Prop51ColorRGB
 90
-16777216
102
RTVSPost2010PropOp51
 70
     0
102
RTVSPost2010Prop52
140
1.0
102
RTVSPost2010PropOp52
 70
     0
102
RTVSPost2010Prop53
 90
        2
102
RTVSPost2010PropOp53
 70
     1
102
RTVSPost2010Prop54
  1
strokes_ogs.tif
102
RTVSPost2010PropOp54
 70
     1
102
RTVSPost2010Prop55
280
     0
102
RTVSPost2010PropOp55
 70
     1
102
RTVSPost2010Prop56
140
1.0
102
RTVSPost2010PropOp56
 70
     1
102
RTVSPost2010Prop57
140
1.0
102
RTVSPost2010PropOp57
 70
     1
102
RTVSPropertyOp0
 70
     1
102
RTVSPropertyOp1
 70
     1
102
RTVSPropertyOp2
 70
     1
102
RTVSPropertyOp3
 70
     1
102
RTVSPropertyOp4
 70
     1
102
RTVSPropertyOp5
 70
     1
102
RTVSPropertyOp6
 70
     1
102
RTVSPropertyOp7
 70
     1
102
RTVSPropertyOp8
 70
     1
102
RTVSPropertyOp9
 70
     1
102
RTVSPropertyOp10
 70
     1
102
RTVSPropertyOp11
 70
     1
102
RTVSPropertyOp12
 70
     1
102
RTVSPropertyOp13
 70
     1
102
RTVSPropertyOp14
 70
     1
102
RTVSPropertyOp15
 70
     1
102
RTVSPropertyOp16
 70
     1
102
RTVSPropertyOp17
 70
     1
102
RTVSPropertyOp18
 70
     1
102
RTVSPropertyOp19
 70
     1
102
RTVSPropertyOp20
 70
     1
102
RTVSPropertyOp21
 70
     1
102
RTVSPropertyOp22
 70
     1
102
RTVSPropertyOp23
 70
     1
102
RTVSPropertyOp24
 70
     1
102
RTVSPropertyOp25
 70
     1
102
RTVSPropertyOp26
 70
     1
102
RTVSPropertyOp27
 70
     1
102
RTVSPropertyOp28
 70
     1
102
RTVSPropertyOp29
 70
     1
102
RTVSPropertyOp30
 70
     1
102
RTVSPropertyOp31
 70
     1
102
RTVSPropertyOp32
 70
     1
102
RTVSPropertyOp33
 70
     1
102
RTVSPropertyOp34
 70
     1
102
RTVSPropertyOp35
 70
     1
102
RTVSPropertyOp36
 70
     1
102
RTVSPropertyOp37
 70
     1
102
RTVSPropertyOp38
 70
     1
102
RTVSPropertyOp39
 70
     1
102
RTVSPropertyOp40
 70
     1
102
RTVSPropertyOp41
 70
     1
102
RTVSPropertyOp42
 70
     1
102
RTVSPropertyOp43
 70
     1
102
RTVSPropertyOp44
 70
     1
102
RTVSPropertyOp45
 70
     1
102
RTVSPropertyOp46
 70
     1
102
RTVSPropertyOp47
 70
     1
102
RTVSPropertyOp48
 70
     1
102
RTVSPropertyOp49
 70
     1
102
RTVSPropertyOp50
 70
     1
102
RTVSPropertyOp51
 70
     0
102
RTVSPropertyOp52
 70
     0
102
RTVSPropertyOp53
 70
     1
102
RTVSPropertyOp54
 70
     1
102
RTVSPropertyOp55
 70
     1
102
RTVSPropertyOp56
 70
     1
102
RTVSPropertyOp57
 70
     1
102
RTVSPropertyOp58
 70
     1
102
RTVSPropertyOp59
 70
     1
102
RTVSPropertyOp60
 70
     1
102
RTVSPropertyOp61
 70
     1
102
RTVSPropertyOp62
 70
     1
  0
XRECORD
  5
2722
102
{ACAD_REACTORS
330
2721
102
}
330
2721
100
AcDbXrecord
280
     1
102
RTVSPost2010Prop28
280
     0
102
RTVSPost2010PropOp28
 70
     1
102
RTVSPost2010Prop29
280
     1
102
RTVSPost2010PropOp29
 70
     1
102
RTVSPost2010Prop30
280
     1
102
RTVSPost2010PropOp30
 70
     1
102
RTVSPost2010Prop31
280
     0
102
RTVSPost2010PropOp31
 70
     1
102
RTVSPost2010Prop32
280
     0
102
RTVSPost2010PropOp32
 70
     1
102
RTVSPost2010Prop33
280
     0
102
RTVSPost2010PropOp33
 70
     1
102
RTVSPost2010Prop34
280
     0
102
RTVSPost2010PropOp34
 70
     1
102
RTVSPost2010Prop35
280
     0
102
RTVSPost2010PropOp35
 70
     1
102
RTVSPost2010Prop36
280
     0
102
RTVSPost2010PropOp36
 70
     1
102
RTVSPost2010Prop37
 90
       50
102
RTVSPost2010PropOp37
 70
     1
102
RTVSPost2010Prop38
140
0.0
102
RTVSPost2010PropOp38
 70
     1
102
RTVSPost2010Prop39
140
1.0
102
RTVSPost2010PropOp39
 70
     1
102
RTVSPost2010Prop40
 90
        0
102
RTVSPost2010PropOp40
 70
     1
102
RTVSPost2010Prop41ColorIndex
 90
       18
102
RTVSPost2010Prop41ColorRGB
 90
        0
102
RTVSPost2010PropOp41
 70
     1
102
RTVSPost2010Prop42
 90
       50
102
RTVSPost2010PropOp42
 70
     1
102
RTVSPost2010Prop43
 90
        3
102
RTVSPost2010PropOp43
 70
     1
102
RTVSPost2010Prop44ColorIndex
 90
        5
102
RTVSPost2010Prop44ColorRGB
 90
      255
102
RTVSPost2010PropOp44
 70
     1
102
RTVSPost2010Prop45
280
     0
102
RTVSPost2010PropOp45
 70
     1
102
RTVSPost2010Prop46
 90
       50
102
RTVSPost2010PropOp46
 70
     1
102
RTVSPost2010Prop47
 90
       50
102
RTVSPost2010PropOp47
 70
     1
102
RTVSPost2010Prop48
 90
       50
102
RTVSPost2010PropOp48
 70
     1
102
RTVSPost2010Prop49
280
     0
102
RTVSPost2010PropOp49
 70
     1
102
RTVSPost2010Prop50
 90
       50
102
RTVSPost2010PropOp50
 70
     1
102
RTVSPost2010Prop51ColorIndex
 90
      256
102
RTVSPost2010Prop51ColorRGB
 90
-16777216
102
RTVSPost2010PropOp51
 70
     0
102
RTVSPost2010Prop52
140
1.0
102
RTVSPost2010PropOp52
 70
     0
102
RTVSPost2010Prop53
 90
        2
102
RTVSPost2010PropOp53
 70
     1
102
RTVSPost2010Prop54
  1
strokes_ogs.tif
102
RTVSPost2010PropOp54
 70
     1
102
RTVSPost2010Prop55
280
     0
102
RTVSPost2010PropOp55
 70
     1
102
RTVSPost2010Prop56
140
1.0
102
RTVSPost2010PropOp56
 70
     1
102
RTVSPost2010Prop57
140
1.0
102
RTVSPost2010PropOp57
 70
     1
102
RTVSPropertyOp0
 70
     1
102
RTVSPropertyOp1
 70
     1
102
RTVSPropertyOp2
 70
     1
102
RTVSPropertyOp3
 70
     1
102
RTVSPropertyOp4
 70
     1
102
RTVSPropertyOp5
 70
     1
102
RTVSPropertyOp6
 70
     1
102
RTVSPropertyOp7
 70
     1
102
RTVSPropertyOp8
 70
     1
102
RTVSPropertyOp9
 70
     1
102
RTVSPropertyOp10
 70
     1
102
RTVSPropertyOp11
 70
     1
102
RTVSPropertyOp12
 70
     1
102
RTVSPropertyOp13
 70
     1
102
RTVSPropertyOp14
 70
     1
102
RTVSPropertyOp15
 70
     1
102
RTVSPropertyOp16
 70
     1
102
RTVSPropertyOp17
 70
     1
102
RTVSPropertyOp18
 70
     1
102
RTVSPropertyOp19
 70
     1
102
RTVSPropertyOp20
 70
     1
102
RTVSPropertyOp21
 70
     1
102
RTVSPropertyOp22
 70
     1
102
RTVSPropertyOp23
 70
     1
102
RTVSPropertyOp24
 70
     1
102
RTVSPropertyOp25
 70
     1
102
RTVSPropertyOp26
 70
     1
102
RTVSPropertyOp27
 70
     1
102
RTVSPropertyOp28
 70
     1
102
RTVSPropertyOp29
 70
     1
102
RTVSPropertyOp30
 70
     1
102
RTVSPropertyOp31
 70
     1
102
RTVSPropertyOp32
 70
     1
102
RTVSPropertyOp33
 70
     1
102
RTVSPropertyOp34
 70
     1
102
RTVSPropertyOp35
 70
     1
102
RTVSPropertyOp36
 70
     1
102
RTVSPropertyOp37
 70
     1
102
RTVSPropertyOp38
 70
     1
102
RTVSPropertyOp39
 70
     1
102
RTVSPropertyOp40
 70
     1
102
RTVSPropertyOp41
 70
     1
102
RTVSPropertyOp42
 70
     1
102
RTVSPropertyOp43
 70
     1
102
RTVSPropertyOp44
 70
     1
102
RTVSPropertyOp45
 70
     1
102
RTVSPropertyOp46
 70
     1
102
RTVSPropertyOp47
 70
     1
102
RTVSPropertyOp48
 70
     1
102
RTVSPropertyOp49
 70
     1
102
RTVSPropertyOp50
 70
     1
102
RTVSPropertyOp51
 70
     0
102
RTVSPropertyOp52
 70
     0
102
RTVSPropertyOp53
 70
     1
102
RTVSPropertyOp54
 70
     1
102
RTVSPropertyOp55
 70
     1
102
RTVSPropertyOp56
 70
     1
102
RTVSPropertyOp57
 70
     1
102
RTVSPropertyOp58
 70
     1
102
RTVSPropertyOp59
 70
     1
102
RTVSPropertyOp60
 70
     1
102
RTVSPropertyOp61
 70
     1
102
RTVSPropertyOp62
 70
     1
  0
XRECORD
  5
2724
102
{ACAD_REACTORS
330
2723
102
}
330
2723
100
AcDbXrecord
280
     1
102
RTVSPost2010Prop28
280
     0
102
RTVSPost2010PropOp28
 70
     1
102
RTVSPost2010Prop29
280
     1
102
RTVSPost2010PropOp29
 70
     1
102
RTVSPost2010Prop30
280
     1
102
RTVSPost2010PropOp30
 70
     1
102
RTVSPost2010Prop31
280
     0
102
RTVSPost2010PropOp31
 70
     1
102
RTVSPost2010Prop32
280
     0
102
RTVSPost2010PropOp32
 70
     1
102
RTVSPost2010Prop33
280
     0
102
RTVSPost2010PropOp33
 70
     1
102
RTVSPost2010Prop34
280
     0
102
RTVSPost2010PropOp34
 70
     1
102
RTVSPost2010Prop35
280
     0
102
RTVSPost2010PropOp35
 70
     1
102
RTVSPost2010Prop36
280
     0
102
RTVSPost2010PropOp36
 70
     1
102
RTVSPost2010Prop37
 90
       50
102
RTVSPost2010PropOp37
 70
     1
102
RTVSPost2010Prop38
140
0.0
102
RTVSPost2010PropOp38
 70
     1
102
RTVSPost2010Prop39
140
1.0
102
RTVSPost2010PropOp39
 70
     1
102
RTVSPost2010Prop40
 90
        0
102
RTVSPost2010PropOp40
 70
     1
102
RTVSPost2010Prop41ColorIndex
 90
       18
102
RTVSPost2010Prop41ColorRGB
 90
        0
102
RTVSPost2010PropOp41
 70
     1
102
RTVSPost2010Prop42
 90
       50
102
RTVSPost2010PropOp42
 70
     1
102
RTVSPost2010Prop43
 90
        3
102
RTVSPost2010PropOp43
 70
     1
102
RTVSPost2010Prop44ColorIndex
 90
        5
102
RTVSPost2010Prop44ColorRGB
 90
      255
102
RTVSPost2010PropOp44
 70
     1
102
RTVSPost2010Prop45
280
     0
102
RTVSPost2010PropOp45
 70
     1
102
RTVSPost2010Prop46
 90
       50
102
RTVSPost2010PropOp46
 70
     1
102
RTVSPost2010Prop47
 90
       50
102
RTVSPost2010PropOp47
 70
     1
102
RTVSPost2010Prop48
 90
       50
102
RTVSPost2010PropOp48
 70
     1
102
RTVSPost2010Prop49
280
     0
102
RTVSPost2010PropOp49
 70
     1
102
RTVSPost2010Prop50
 90
       50
102
RTVSPost2010PropOp50
 70
     1
102
RTVSPost2010Prop51ColorIndex
 90
      256
102
RTVSPost2010Prop51ColorRGB
 90
-16777216
102
RTVSPost2010PropOp51
 70
     0
102
RTVSPost2010Prop52
140
1.0
102
RTVSPost2010PropOp52
 70
     0
102
RTVSPost2010Prop53
 90
        2
102
RTVSPost2010PropOp53
 70
     1
102
RTVSPost2010Prop54
  1
strokes_ogs.tif
102
RTVSPost2010PropOp54
 70
     1
102
RTVSPost2010Prop55
280
     0
102
RTVSPost2010PropOp55
 70
     1
102
RTVSPost2010Prop56
140
1.0
102
RTVSPost2010PropOp56
 70
     1
102
RTVSPost2010Prop57
140
1.0
102
RTVSPost2010PropOp57
 70
     1
102
RTVSPropertyOp0
 70
     1
102
RTVSPropertyOp1
 70
     1
102
RTVSPropertyOp2
 70
     1
102
RTVSPropertyOp3
 70
     1
102
RTVSPropertyOp4
 70
     1
102
RTVSPropertyOp5
 70
     1
102
RTVSPropertyOp6
 70
     1
102
RTVSPropertyOp7
 70
     1
102
RTVSPropertyOp8
 70
     1
102
RTVSPropertyOp9
 70
     1
102
RTVSPropertyOp10
 70
     1
102
RTVSPropertyOp11
 70
     1
102
RTVSPropertyOp12
 70
     1
102
RTVSPropertyOp13
 70
     1
102
RTVSPropertyOp14
 70
     1
102
RTVSPropertyOp15
 70
     1
102
RTVSPropertyOp16
 70
     1
102
RTVSPropertyOp17
 70
     1
102
RTVSPropertyOp18
 70
     1
102
RTVSPropertyOp19
 70
     1
102
RTVSPropertyOp20
 70
     1
102
RTVSPropertyOp21
 70
     1
102
RTVSPropertyOp22
 70
     1
102
RTVSPropertyOp23
 70
     1
102
RTVSPropertyOp24
 70
     1
102
RTVSPropertyOp25
 70
     1
102
RTVSPropertyOp26
 70
     1
102
RTVSPropertyOp27
 70
     1
102
RTVSPropertyOp28
 70
     1
102
RTVSPropertyOp29
 70
     1
102
RTVSPropertyOp30
 70
     1
102
RTVSPropertyOp31
 70
     1
102
RTVSPropertyOp32
 70
     1
102
RTVSPropertyOp33
 70
     1
102
RTVSPropertyOp34
 70
     1
102
RTVSPropertyOp35
 70
     1
102
RTVSPropertyOp36
 70
     1
102
RTVSPropertyOp37
 70
     1
102
RTVSPropertyOp38
 70
     1
102
RTVSPropertyOp39
 70
     1
102
RTVSPropertyOp40
 70
     1
102
RTVSPropertyOp41
 70
     1
102
RTVSPropertyOp42
 70
     1
102
RTVSPropertyOp43
 70
     1
102
RTVSPropertyOp44
 70
     1
102
RTVSPropertyOp45
 70
     1
102
RTVSPropertyOp46
 70
     1
102
RTVSPropertyOp47
 70
     1
102
RTVSPropertyOp48
 70
     1
102
RTVSPropertyOp49
 70
     1
102
RTVSPropertyOp50
 70
     1
102
RTVSPropertyOp51
 70
     0
102
RTVSPropertyOp52
 70
     0
102
RTVSPropertyOp53
 70
     1
102
RTVSPropertyOp54
 70
     1
102
RTVSPropertyOp55
 70
     1
102
RTVSPropertyOp56
 70
     1
102
RTVSPropertyOp57
 70
     1
102
RTVSPropertyOp58
 70
     1
102
RTVSPropertyOp59
 70
     1
102
RTVSPropertyOp60
 70
     1
102
RTVSPropertyOp61
 70
     1
102
RTVSPropertyOp62
 70
     1
  0
XRECORD
  5
271A
102
{ACAD_REACTORS
330
2719
102
}
330
2719
100
AcDbXrecord
280
     1
102
RTVSPost2010Prop28
280
     0
102
RTVSPost2010PropOp28
 70
     1
102
RTVSPost2010Prop29
280
     1
102
RTVSPost2010PropOp29
 70
     1
102
RTVSPost2010Prop30
280
     1
102
RTVSPost2010PropOp30
 70
     1
102
RTVSPost2010Prop31
280
     0
102
RTVSPost2010PropOp31
 70
     1
102
RTVSPost2010Prop32
280
     0
102
RTVSPost2010PropOp32
 70
     1
102
RTVSPost2010Prop33
280
     0
102
RTVSPost2010PropOp33
 70
     1
102
RTVSPost2010Prop34
280
     0
102
RTVSPost2010PropOp34
 70
     1
102
RTVSPost2010Prop35
280
     0
102
RTVSPost2010PropOp35
 70
     1
102
RTVSPost2010Prop36
280
     0
102
RTVSPost2010PropOp36
 70
     1
102
RTVSPost2010Prop37
 90
       50
102
RTVSPost2010PropOp37
 70
     1
102
RTVSPost2010Prop38
140
0.0
102
RTVSPost2010PropOp38
 70
     1
102
RTVSPost2010Prop39
140
1.0
102
RTVSPost2010PropOp39
 70
     1
102
RTVSPost2010Prop40
 90
        0
102
RTVSPost2010PropOp40
 70
     1
102
RTVSPost2010Prop41ColorIndex
 90
       18
102
RTVSPost2010Prop41ColorRGB
 90
        0
102
RTVSPost2010PropOp41
 70
     1
102
RTVSPost2010Prop42
 90
       50
102
RTVSPost2010PropOp42
 70
     1
102
RTVSPost2010Prop43
 90
        3
102
RTVSPost2010PropOp43
 70
     1
102
RTVSPost2010Prop44ColorIndex
 90
        5
102
RTVSPost2010Prop44ColorRGB
 90
      255
102
RTVSPost2010PropOp44
 70
     1
102
RTVSPost2010Prop45
280
     0
102
RTVSPost2010PropOp45
 70
     1
102
RTVSPost2010Prop46
 90
       50
102
RTVSPost2010PropOp46
 70
     1
102
RTVSPost2010Prop47
 90
       50
102
RTVSPost2010PropOp47
 70
     1
102
RTVSPost2010Prop48
 90
       50
102
RTVSPost2010PropOp48
 70
     1
102
RTVSPost2010Prop49
280
     0
102
RTVSPost2010PropOp49
 70
     1
102
RTVSPost2010Prop50
 90
       50
102
RTVSPost2010PropOp50
 70
     1
102
RTVSPost2010Prop51ColorIndex
 90
      256
102
RTVSPost2010Prop51ColorRGB
 90
-16777216
102
RTVSPost2010PropOp51
 70
     0
102
RTVSPost2010Prop52
140
1.0
102
RTVSPost2010PropOp52
 70
     0
102
RTVSPost2010Prop53
 90
        2
102
RTVSPost2010PropOp53
 70
     1
102
RTVSPost2010Prop54
  1
strokes_ogs.tif
102
RTVSPost2010PropOp54
 70
     1
102
RTVSPost2010Prop55
280
     0
102
RTVSPost2010PropOp55
 70
     1
102
RTVSPost2010Prop56
140
1.0
102
RTVSPost2010PropOp56
 70
     1
102
RTVSPost2010Prop57
140
1.0
102
RTVSPost2010PropOp57
 70
     1
102
RTVSPropertyOp0
 70
     1
102
RTVSPropertyOp1
 70
     1
102
RTVSPropertyOp2
 70
     1
102
RTVSPropertyOp3
 70
     1
102
RTVSPropertyOp4
 70
     1
102
RTVSPropertyOp5
 70
     1
102
RTVSPropertyOp6
 70
     1
102
RTVSPropertyOp7
 70
     1
102
RTVSPropertyOp8
 70
     1
102
RTVSPropertyOp9
 70
     1
102
RTVSPropertyOp10
 70
     1
102
RTVSPropertyOp11
 70
     1
102
RTVSPropertyOp12
 70
     1
102
RTVSPropertyOp13
 70
     1
102
RTVSPropertyOp14
 70
     1
102
RTVSPropertyOp15
 70
     1
102
RTVSPropertyOp16
 70
     1
102
RTVSPropertyOp17
 70
     1
102
RTVSPropertyOp18
 70
     1
102
RTVSPropertyOp19
 70
     1
102
RTVSPropertyOp20
 70
     1
102
RTVSPropertyOp21
 70
     1
102
RTVSPropertyOp22
 70
     1
102
RTVSPropertyOp23
 70
     1
102
RTVSPropertyOp24
 70
     1
102
RTVSPropertyOp25
 70
     1
102
RTVSPropertyOp26
 70
     1
102
RTVSPropertyOp27
 70
     1
102
RTVSPropertyOp28
 70
     1
102
RTVSPropertyOp29
 70
     1
102
RTVSPropertyOp30
 70
     1
102
RTVSPropertyOp31
 70
     1
102
RTVSPropertyOp32
 70
     1
102
RTVSPropertyOp33
 70
     1
102
RTVSPropertyOp34
 70
     1
102
RTVSPropertyOp35
 70
     1
102
RTVSPropertyOp36
 70
     1
102
RTVSPropertyOp37
 70
     1
102
RTVSPropertyOp38
 70
     1
102
RTVSPropertyOp39
 70
     1
102
RTVSPropertyOp40
 70
     1
102
RTVSPropertyOp41
 70
     1
102
RTVSPropertyOp42
 70
     1
102
RTVSPropertyOp43
 70
     1
102
RTVSPropertyOp44
 70
     1
102
RTVSPropertyOp45
 70
     1
102
RTVSPropertyOp46
 70
     1
102
RTVSPropertyOp47
 70
     1
102
RTVSPropertyOp48
 70
     1
102
RTVSPropertyOp49
 70
     1
102
RTVSPropertyOp50
 70
     1
102
RTVSPropertyOp51
 70
     0
102
RTVSPropertyOp52
 70
     0
102
RTVSPropertyOp53
 70
     1
102
RTVSPropertyOp54
 70
     1
102
RTVSPropertyOp55
 70
     1
102
RTVSPropertyOp56
 70
     1
102
RTVSPropertyOp57
 70
     1
102
RTVSPropertyOp58
 70
     1
102
RTVSPropertyOp59
 70
     1
102
RTVSPropertyOp60
 70
     1
102
RTVSPropertyOp61
 70
     1
102
RTVSPropertyOp62
 70
     1
  0
XRECORD
  5
270E
102
{ACAD_REACTORS
330
270D
102
}
330
270D
100
AcDbXrecord
280
     1
102
RTVSPost2010Prop28
280
     0
102
RTVSPost2010PropOp28
 70
     1
102
RTVSPost2010Prop29
280
     1
102
RTVSPost2010PropOp29
 70
     1
102
RTVSPost2010Prop30
280
     1
102
RTVSPost2010PropOp30
 70
     1
102
RTVSPost2010Prop31
280
     0
102
RTVSPost2010PropOp31
 70
     1
102
RTVSPost2010Prop32
280
     0
102
RTVSPost2010PropOp32
 70
     1
102
RTVSPost2010Prop33
280
     0
102
RTVSPost2010PropOp33
 70
     1
102
RTVSPost2010Prop34
280
     0
102
RTVSPost2010PropOp34
 70
     1
102
RTVSPost2010Prop35
280
     0
102
RTVSPost2010PropOp35
 70
     1
102
RTVSPost2010Prop36
280
     0
102
RTVSPost2010PropOp36
 70
     1
102
RTVSPost2010Prop37
 90
       50
102
RTVSPost2010PropOp37
 70
     1
102
RTVSPost2010Prop38
140
0.0
102
RTVSPost2010PropOp38
 70
     1
102
RTVSPost2010Prop39
140
1.0
102
RTVSPost2010PropOp39
 70
     1
102
RTVSPost2010Prop40
 90
        0
102
RTVSPost2010PropOp40
 70
     1
102
RTVSPost2010Prop41ColorIndex
 90
       18
102
RTVSPost2010Prop41ColorRGB
 90
        0
102
RTVSPost2010PropOp41
 70
     1
102
RTVSPost2010Prop42
 90
       50
102
RTVSPost2010PropOp42
 70
     1
102
RTVSPost2010Prop43
 90
        3
102
RTVSPost2010PropOp43
 70
     1
102
RTVSPost2010Prop44ColorIndex
 90
        5
102
RTVSPost2010Prop44ColorRGB
 90
      255
102
RTVSPost2010PropOp44
 70
     1
102
RTVSPost2010Prop45
280
     0
102
RTVSPost2010PropOp45
 70
     1
102
RTVSPost2010Prop46
 90
       50
102
RTVSPost2010PropOp46
 70
     1
102
RTVSPost2010Prop47
 90
       50
102
RTVSPost2010PropOp47
 70
     1
102
RTVSPost2010Prop48
 90
       50
102
RTVSPost2010PropOp48
 70
     1
102
RTVSPost2010Prop49
280
     0
102
RTVSPost2010PropOp49
 70
     1
102
RTVSPost2010Prop50
 90
       50
102
RTVSPost2010PropOp50
 70
     1
102
RTVSPost2010Prop51ColorIndex
 90
      256
102
RTVSPost2010Prop51ColorRGB
 90
-16777216
102
RTVSPost2010PropOp51
 70
     0
102
RTVSPost2010Prop52
140
1.0
102
RTVSPost2010PropOp52
 70
     0
102
RTVSPost2010Prop53
 90
        2
102
RTVSPost2010PropOp53
 70
     1
102
RTVSPost2010Prop54
  1
strokes_ogs.tif
102
RTVSPost2010PropOp54
 70
     1
102
RTVSPost2010Prop55
280
     0
102
RTVSPost2010PropOp55
 70
     1
102
RTVSPost2010Prop56
140
1.0
102
RTVSPost2010PropOp56
 70
     1
102
RTVSPost2010Prop57
140
1.0
102
RTVSPost2010PropOp57
 70
     1
102
RTVSPropertyOp0
 70
     1
102
RTVSPropertyOp1
 70
     1
102
RTVSPropertyOp2
 70
     1
102
RTVSPropertyOp3
 70
     1
102
RTVSPropertyOp4
 70
     1
102
RTVSPropertyOp5
 70
     1
102
RTVSPropertyOp6
 70
     1
102
RTVSPropertyOp7
 70
     1
102
RTVSPropertyOp8
 70
     1
102
RTVSPropertyOp9
 70
     1
102
RTVSPropertyOp10
 70
     1
102
RTVSPropertyOp11
 70
     1
102
RTVSPropertyOp12
 70
     1
102
RTVSPropertyOp13
 70
     1
102
RTVSPropertyOp14
 70
     1
102
RTVSPropertyOp15
 70
     1
102
RTVSPropertyOp16
 70
     1
102
RTVSPropertyOp17
 70
     1
102
RTVSPropertyOp18
 70
     1
102
RTVSPropertyOp19
 70
     1
102
RTVSPropertyOp20
 70
     1
102
RTVSPropertyOp21
 70
     1
102
RTVSPropertyOp22
 70
     1
102
RTVSPropertyOp23
 70
     1
102
RTVSPropertyOp24
 70
     1
102
RTVSPropertyOp25
 70
     1
102
RTVSPropertyOp26
 70
     1
102
RTVSPropertyOp27
 70
     1
102
RTVSPropertyOp28
 70
     1
102
RTVSPropertyOp29
 70
     1
102
RTVSPropertyOp30
 70
     1
102
RTVSPropertyOp31
 70
     1
102
RTVSPropertyOp32
 70
     1
102
RTVSPropertyOp33
 70
     1
102
RTVSPropertyOp34
 70
     1
102
RTVSPropertyOp35
 70
     1
102
RTVSPropertyOp36
 70
     1
102
RTVSPropertyOp37
 70
     1
102
RTVSPropertyOp38
 70
     1
102
RTVSPropertyOp39
 70
     1
102
RTVSPropertyOp40
 70
     1
102
RTVSPropertyOp41
 70
     1
102
RTVSPropertyOp42
 70
     1
102
RTVSPropertyOp43
 70
     1
102
RTVSPropertyOp44
 70
     1
102
RTVSPropertyOp45
 70
     1
102
RTVSPropertyOp46
 70
     1
102
RTVSPropertyOp47
 70
     1
102
RTVSPropertyOp48
 70
     1
102
RTVSPropertyOp49
 70
     1
102
RTVSPropertyOp50
 70
     1
102
RTVSPropertyOp51
 70
     0
102
RTVSPropertyOp52
 70
     0
102
RTVSPropertyOp53
 70
     1
102
RTVSPropertyOp54
 70
     1
102
RTVSPropertyOp55
 70
     1
102
RTVSPropertyOp56
 70
     1
102
RTVSPropertyOp57
 70
     1
102
RTVSPropertyOp58
 70
     1
102
RTVSPropertyOp59
 70
     1
102
RTVSPropertyOp60
 70
     1
102
RTVSPropertyOp61
 70
     1
102
RTVSPropertyOp62
 70
     1
  0
XRECORD
  5
2726
102
{ACAD_REACTORS
330
2725
102
}
330
2725
100
AcDbXrecord
280
     1
102
RTVSPost2010Prop28
280
     0
102
RTVSPost2010PropOp28
 70
     1
102
RTVSPost2010Prop29
280
     1
102
RTVSPost2010PropOp29
 70
     1
102
RTVSPost2010Prop30
280
     1
102
RTVSPost2010PropOp30
 70
     1
102
RTVSPost2010Prop31
280
     0
102
RTVSPost2010PropOp31
 70
     1
102
RTVSPost2010Prop32
280
     0
102
RTVSPost2010PropOp32
 70
     1
102
RTVSPost2010Prop33
280
     0
102
RTVSPost2010PropOp33
 70
     1
102
RTVSPost2010Prop34
280
     0
102
RTVSPost2010PropOp34
 70
     1
102
RTVSPost2010Prop35
280
     0
102
RTVSPost2010PropOp35
 70
     1
102
RTVSPost2010Prop36
280
     0
102
RTVSPost2010PropOp36
 70
     1
102
RTVSPost2010Prop37
 90
       50
102
RTVSPost2010PropOp37
 70
     1
102
RTVSPost2010Prop38
140
0.0
102
RTVSPost2010PropOp38
 70
     1
102
RTVSPost2010Prop39
140
1.0
102
RTVSPost2010PropOp39
 70
     1
102
RTVSPost2010Prop40
 90
        0
102
RTVSPost2010PropOp40
 70
     1
102
RTVSPost2010Prop41ColorIndex
 90
       18
102
RTVSPost2010Prop41ColorRGB
 90
        0
102
RTVSPost2010PropOp41
 70
     1
102
RTVSPost2010Prop42
 90
       50
102
RTVSPost2010PropOp42
 70
     1
102
RTVSPost2010Prop43
 90
        3
102
RTVSPost2010PropOp43
 70
     1
102
RTVSPost2010Prop44ColorIndex
 90
        5
102
RTVSPost2010Prop44ColorRGB
 90
      255
102
RTVSPost2010PropOp44
 70
     1
102
RTVSPost2010Prop45
280
     0
102
RTVSPost2010PropOp45
 70
     1
102
RTVSPost2010Prop46
 90
       50
102
RTVSPost2010PropOp46
 70
     1
102
RTVSPost2010Prop47
 90
       50
102
RTVSPost2010PropOp47
 70
     1
102
RTVSPost2010Prop48
 90
       50
102
RTVSPost2010PropOp48
 70
     1
102
RTVSPost2010Prop49
280
     0
102
RTVSPost2010PropOp49
 70
     1
102
RTVSPost2010Prop50
 90
       50
102
RTVSPost2010PropOp50
 70
     1
102
RTVSPost2010Prop51ColorIndex
 90
      256
102
RTVSPost2010Prop51ColorRGB
 90
-16777216
102
RTVSPost2010PropOp51
 70
     0
102
RTVSPost2010Prop52
140
1.0
102
RTVSPost2010PropOp52
 70
     0
102
RTVSPost2010Prop53
 90
        2
102
RTVSPost2010PropOp53
 70
     1
102
RTVSPost2010Prop54
  1
strokes_ogs.tif
102
RTVSPost2010PropOp54
 70
     1
102
RTVSPost2010Prop55
280
     0
102
RTVSPost2010PropOp55
 70
     1
102
RTVSPost2010Prop56
140
1.0
102
RTVSPost2010PropOp56
 70
     1
102
RTVSPost2010Prop57
140
1.0
102
RTVSPost2010PropOp57
 70
     1
102
RTVSPropertyOp0
 70
     1
102
RTVSPropertyOp1
 70
     1
102
RTVSPropertyOp2
 70
     1
102
RTVSPropertyOp3
 70
     1
102
RTVSPropertyOp4
 70
     1
102
RTVSPropertyOp5
 70
     1
102
RTVSPropertyOp6
 70
     1
102
RTVSPropertyOp7
 70
     1
102
RTVSPropertyOp8
 70
     1
102
RTVSPropertyOp9
 70
     1
102
RTVSPropertyOp10
 70
     1
102
RTVSPropertyOp11
 70
     1
102
RTVSPropertyOp12
 70
     1
102
RTVSPropertyOp13
 70
     1
102
RTVSPropertyOp14
 70
     1
102
RTVSPropertyOp15
 70
     1
102
RTVSPropertyOp16
 70
     1
102
RTVSPropertyOp17
 70
     1
102
RTVSPropertyOp18
 70
     1
102
RTVSPropertyOp19
 70
     1
102
RTVSPropertyOp20
 70
     1
102
RTVSPropertyOp21
 70
     1
102
RTVSPropertyOp22
 70
     1
102
RTVSPropertyOp23
 70
     1
102
RTVSPropertyOp24
 70
     1
102
RTVSPropertyOp25
 70
     1
102
RTVSPropertyOp26
 70
     1
102
RTVSPropertyOp27
 70
     1
102
RTVSPropertyOp28
 70
     1
102
RTVSPropertyOp29
 70
     1
102
RTVSPropertyOp30
 70
     1
102
RTVSPropertyOp31
 70
     1
102
RTVSPropertyOp32
 70
     1
102
RTVSPropertyOp33
 70
     1
102
RTVSPropertyOp34
 70
     1
102
RTVSPropertyOp35
 70
     1
102
RTVSPropertyOp36
 70
     1
102
RTVSPropertyOp37
 70
     1
102
RTVSPropertyOp38
 70
     1
102
RTVSPropertyOp39
 70
     1
102
RTVSPropertyOp40
 70
     1
102
RTVSPropertyOp41
 70
     1
102
RTVSPropertyOp42
 70
     1
102
RTVSPropertyOp43
 70
     1
102
RTVSPropertyOp44
 70
     1
102
RTVSPropertyOp45
 70
     1
102
RTVSPropertyOp46
 70
     1
102
RTVSPropertyOp47
 70
     1
102
RTVSPropertyOp48
 70
     1
102
RTVSPropertyOp49
 70
     1
102
RTVSPropertyOp50
 70
     1
102
RTVSPropertyOp51
 70
     0
102
RTVSPropertyOp52
 70
     0
102
RTVSPropertyOp53
 70
     1
102
RTVSPropertyOp54
 70
     1
102
RTVSPropertyOp55
 70
     1
102
RTVSPropertyOp56
 70
     1
102
RTVSPropertyOp57
 70
     1
102
RTVSPropertyOp58
 70
     1
102
RTVSPropertyOp59
 70
     1
102
RTVSPropertyOp60
 70
     1
102
RTVSPropertyOp61
 70
     1
102
RTVSPropertyOp62
 70
     1
  0
ENDSEC
  0
EOF
