  0
SECTION
  2
HEADER
  9
$ACADVER
  1
AC1015
  9
$ACADMAINTVER
 70
    20
  9
$DWGCODEPAGE
  3
ANSI_1252
  9
$INSBASE
 10
0.0
 20
0.0
 30
0.0
  9
$EXTMIN
 10
313.4596362037238
 20
24.64973988521035
 30
-0.0015258207003583
  9
$EXTMAX
 10
373.4742844999792
 20
42.68766294669354
 30
0.0000000349246037
  9
$LIMMIN
 10
0.0
 20
0.0
  9
$LIMMAX
 10
181.3333333333
 20
117.3333333333
  9
$ORTHOMODE
 70
     1
  9
$REGENMODE
 70
     1
  9
$FILLMODE
 70
     1
  9
$QTEXTMODE
 70
     0
  9
$MIRRTEXT
 70
     0
  9
$LTSCALE
 40
9.973333333300001
  9
$ATTMODE
 70
     1
  9
$TEXTSIZE
 40
0.2
  9
$TRACEWID
 40
0.05
  9
$TEXTSTYLE
  7
STANDARD
  9
$CLAYER
  8
0
  9
$CELTYPE
  6
BYLAYER
  9
$CECOLOR
 62
   256
  9
$CELTSCALE
 40
1.0
  9
$DISPSILH
 70
     0
  9
$DIMSCALE
 40
1.0
  9
$DIMASZ
 40
2.0
  9
$DIMEXO
 40
0.0625
  9
$DIMDLI
 40
6.890666666699999
  9
$DIMRND
 40
0.0
  9
$DIMDLE
 40
0.0
  9
$DIMEXE
 40
0.125
  9
$DIMTP
 40
0.001
  9
$DIMTM
 40
0.001
  9
$DIMTXT
 40
1.333333333299999
  9
$DIMCEN
 40
1.631999999999999
  9
$DIMTSZ
 40
0.0
  9
$DIMTOL
 70
     1
  9
$DIMLIM
 70
     0
  9
$DIMTIH
 70
     1
  9
$DIMTOH
 70
     1
  9
$DIMSE1
 70
     0
  9
$DIMSE2
 70
     0
  9
$DIMTAD
 70
     0
  9
$DIMZIN
 70
     0
  9
$DIMBLK
  1
_FILLED
  9
$DIMASO
 70
     1
  9
$DIMSHO
 70
     1
  9
$DIMPOST
  1

  9
$DIMAPOST
  1

  9
$DIMALT
 70
     1
  9
$DIMALTD
 70
     2
  9
$DIMALTF
 40
25.4
  9
$DIMLFAC
 40
1.0
  9
$DIMTOFL
 70
     0
  9
$DIMTVP
 40
0.0
  9
$DIMTIX
 70
     0
  9
$DIMSOXD
 70
     0
  9
$DIMSAH
 70
     0
  9
$DIMBLK1
  1

  9
$DIMBLK2
  1

  9
$DIMSTYLE
  2
STANDARD
  9
$DIMCLRD
 70
     0
  9
$DIMCLRE
 70
     0
  9
$DIMCLRT
 70
     0
  9
$DIMTFAC
 40
1.0
  9
$DIMGAP
 40
0.09
  9
$DIMJUST
 70
     0
  9
$DIMSD1
 70
     0
  9
$DIMSD2
 70
     0
  9
$DIMTOLJ
 70
     1
  9
$DIMTZIN
 70
     0
  9
$DIMALTZ
 70
     0
  9
$DIMALTTZ
 70
     0
  9
$DIMUPT
 70
     0
  9
$DIMDEC
 70
     4
  9
$DIMTDEC
 70
     4
  9
$DIMALTU
 70
     2
  9
$DIMALTTD
 70
     2
  9
$DIMTXSTY
  7
STANDARD
  9
$DIMAUNIT
 70
     0
  9
$DIMADEC
 70
     0
  9
$DIMALTRND
 40
0.0
  9
$DIMAZIN
 70
     0
  9
$DIMDSEP
 70
    46
  9
$DIMATFIT
 70
     3
  9
$DIMFRAC
 70
     0
  9
$DIMLDRBLK
  1

  9
$DIMLUNIT
 70
     2
  9
$DIMLWD
 70
    -2
  9
$DIMLWE
 70
    -2
  9
$DIMTMOVE
 70
     0
  9
$LUNITS
 70
     2
  9
$LUPREC
 70
     4
  9
$SKETCHINC
 40
0.1
  9
$FILLETRAD
 40
0.0
  9
$AUNITS
 70
     0
  9
$AUPREC
 70
     0
  9
$MENU
  1
.
  9
$ELEVATION
 40
0.0
  9
$PELEVATION
 40
0.0
  9
$THICKNESS
 40
0.0
  9
$LIMCHECK
 70
     0
  9
$CHAMFERA
 40
0.0
  9
$CHAMFERB
 40
0.0
  9
$CHAMFERC
 40
0.0
  9
$CHAMFERD
 40
0.0
  9
$SKPOLY
 70
     0
  9
$TDCREATE
 40
2458711.445405093
  9
$TDUCREATE
 40
2458711.612071759
  9
$TDUPDATE
 40
2458722.336678241
  9
$TDUUPDATE
 40
2458722.503344908
  9
$TDINDWG
 40
0.0028009259
  9
$TDUSRTIMER
 40
0.0028009259
  9
$USRTIMER
 70
     1
  9
$ANGBASE
 50
0.0
  9
$ANGDIR
 70
     0
  9
$PDMODE
 70
     3
  9
$PDSIZE
 40
0.03125
  9
$PLINEWID
 40
0.0
  9
$SPLFRAME
 70
     0
  9
$SPLINETYPE
 70
     6
  9
$SPLINESEGS
 70
     8
  9
$HANDSEED
  5
4352
  9
$SURFTAB1
 70
     6
  9
$SURFTAB2
 70
     6
  9
$SURFTYPE
 70
     6
  9
$SURFU
 70
     6
  9
$SURFV
 70
     6
  9
$UCSBASE
  2

  9
$UCSNAME
  2

  9
$UCSORG
 10
0.0
 20
0.0
 30
0.0
  9
$UCSXDIR
 10
1.0
 20
0.0
 30
0.0
  9
$UCSYDIR
 10
0.0
 20
1.0
 30
0.0
  9
$UCSORTHOREF
  2

  9
$UCSORTHOVIEW
 70
     0
  9
$UCSORGTOP
 10
0.0
 20
0.0
 30
0.0
  9
$UCSORGBOTTOM
 10
0.0
 20
0.0
 30
0.0
  9
$UCSORGLEFT
 10
0.0
 20
0.0
 30
0.0
  9
$UCSORGRIGHT
 10
0.0
 20
0.0
 30
0.0
  9
$UCSORGFRONT
 10
0.0
 20
0.0
 30
0.0
  9
$UCSORGBACK
 10
0.0
 20
0.0
 30
0.0
  9
$PUCSBASE
  2

  9
$PUCSNAME
  2

  9
$PUCSORG
 10
0.0
 20
0.0
 30
0.0
  9
$PUCSXDIR
 10
1.0
 20
0.0
 30
0.0
  9
$PUCSYDIR
 10
0.0
 20
1.0
 30
0.0
  9
$PUCSORTHOREF
  2

  9
$PUCSORTHOVIEW
 70
     0
  9
$PUCSORGTOP
 10
0.0
 20
0.0
 30
0.0
  9
$PUCSORGBOTTOM
 10
0.0
 20
0.0
 30
0.0
  9
$PUCSORGLEFT
 10
0.0
 20
0.0
 30
0.0
  9
$PUCSORGRIGHT
 10
0.0
 20
0.0
 30
0.0
  9
$PUCSORGFRONT
 10
0.0
 20
0.0
 30
0.0
  9
$PUCSORGBACK
 10
0.0
 20
0.0
 30
0.0
  9
$USERI1
 70
     0
  9
$USERI2
 70
     0
  9
$USERI3
 70
     0
  9
$USERI4
 70
     0
  9
$USERI5
 70
     0
  9
$USERR1
 40
0.0
  9
$USERR2
 40
0.0
  9
$USERR3
 40
0.0
  9
$USERR4
 40
0.0
  9
$USERR5
 40
0.0
  9
$WORLDVIEW
 70
     1
  9
$SHADEDGE
 70
     3
  9
$SHADEDIF
 70
    70
  9
$TILEMODE
 70
     1
  9
$MAXACTVP
 70
    64
  9
$PINSBASE
 10
0.0
 20
0.0
 30
0.0
  9
$PLIMCHECK
 70
     0
  9
$PEXTMIN
 10
1.000000000000000E+20
 20
1.000000000000000E+20
 30
1.000000000000000E+20
  9
$PEXTMAX
 10
-1.000000000000000E+20
 20
-1.000000000000000E+20
 30
-1.000000000000000E+20
  9
$PLIMMIN
 10
0.0
 20
0.0
  9
$PLIMMAX
 10
12.0
 20
9.0
  9
$UNITMODE
 70
     0
  9
$VISRETAIN
 70
     1
  9
$PLINEGEN
 70
     0
  9
$PSLTSCALE
 70
     1
  9
$TREEDEPTH
 70
  3020
  9
$CMLSTYLE
  2
Standard
  9
$CMLJUST
 70
     0
  9
$CMLSCALE
 40
1.0
  9
$PROXYGRAPHICS
 70
     1
  9
$MEASUREMENT
 70
     0
  9
$CELWEIGHT
370
    -1
  9
$ENDCAPS
280
     0
  9
$JOINSTYLE
280
     0
  9
$LWDISPLAY
290
     0
  9
$INSUNITS
 70
     1
  9
$HYPERLINKBASE
  1

  9
$STYLESHEET
  1

  9
$XEDIT
290
     1
  9
$CEPSNTYPE
380
     0
  9
$PSTYLEMODE
290
     1
  9
$FINGERPRINTGUID
  2
{61FC115B-6FD4-8246-9FFB-4701BE9FBB42}
  9
$VERSIONGUID
  2
{DC7A4BF7-985F-0947-845F-8F53BB0378B1}
  9
$EXTNAMES
290
     1
  9
$PSVPSCALE
 40
0.0
  9
$OLESTARTUP
290
     0
  0
ENDSEC
  0
SECTION
  2
CLASSES
  0
CLASS
  1
ACDBDICTIONARYWDFLT
  2
AcDbDictionaryWithDefault
  3
ObjectDBX Classes
 90
        0
280
     0
281
     0
  0
CLASS
  1
ACDBPLACEHOLDER
  2
AcDbPlaceHolder
  3
ObjectDBX Classes
 90
        0
280
     0
281
     0
  0
CLASS
  1
LAYOUT
  2
AcDbLayout
  3
ObjectDBX Classes
 90
        0
280
     0
281
     0
  0
CLASS
  1
MATERIAL
  2
AcDbMaterial
  3
ObjectDBX Classes
 90
     1153
280
     0
281
     0
  0
CLASS
  1
VISUALSTYLE
  2
AcDbVisualStyle
  3
ObjectDBX Classes
 90
     4095
280
     0
281
     0
  0
CLASS
  1
TABLESTYLE
  2
AcDbTableStyle
  3
ObjectDBX Classes
 90
     4095
280
     0
281
     0
  0
CLASS
  1
SCALE
  2
AcDbScale
  3
ObjectDBX Classes
 90
     1153
280
     0
281
     0
  0
CLASS
  1
MLEADERSTYLE
  2
AcDbMLeaderStyle
  3
ACDB_MLEADERSTYLE_CLASS
 90
     4095
280
     0
281
     0
  0
CLASS
  1
ACDBSECTIONVIEWSTYLE
  2
AcDbSectionViewStyle
  3
ObjectDBX Classes
 90
     1025
280
     0
281
     0
  0
CLASS
  1
ACDBDETAILVIEWSTYLE
  2
AcDbDetailViewStyle
  3
ObjectDBX Classes
 90
     1025
280
     0
281
     0
  0
CLASS
  1
CELLSTYLEMAP
  2
AcDbCellStyleMap
  3
ObjectDBX Classes
 90
     1152
280
     0
281
     0
  0
CLASS
  1
DICTIONARYVAR
  2
AcDbDictionaryVar
  3
ObjectDBX Classes
 90
        0
280
     0
281
     0
  0
ENDSEC
  0
SECTION
  2
TABLES
  0
TABLE
  2
VPORT
  5
8
102
{ACAD_XDICTIONARY
360
3F0A
102
}
330
0
100
AcDbSymbolTable
 70
     1
  0
VPORT
  5
1F4
330
8
100
AcDbSymbolTableRecord
100
AcDbViewportTableRecord
  2
*ACTIVE
 70
     0
 10
0.0
 20
0.0
 11
1.0
 21
1.0
 12
343.4669603518515
 22
33.66870141595195
 13
0.0
 23
0.0
 14
1.0
 24
1.0
 15
0.0
 25
0.0
 16
0.0
 26
0.0
 36
1.0
 17
0.0
 27
0.0
 37
0.0
 40
30.02261897238198
 41
2.005224660397074
 42
50.0
 43
0.0
 44
0.0
 50
0.0
 51
0.0
 71
     0
 72
   100
 73
     1
 74
     1
 75
     0
 76
     0
 77
     0
 78
     0
281
     0
 65
     1
110
0.0
120
0.0
130
0.0
111
1.0
121
0.0
131
0.0
112
0.0
122
1.0
132
0.0
 79
     0
146
0.0
1001
ACAD_NAV_VCDISPLAY
1070
     3
  0
ENDTAB
  0
TABLE
  2
LTYPE
  5
5
330
0
100
AcDbSymbolTable
 70
     6
  0
LTYPE
  5
14
330
5
100
AcDbSymbolTableRecord
100
AcDbLinetypeTableRecord
  2
BYBLOCK
 70
     0
  3

 72
    65
 73
     0
 40
0.0
  0
LTYPE
  5
15
330
5
100
AcDbSymbolTableRecord
100
AcDbLinetypeTableRecord
  2
BYLAYER
 70
     0
  3

 72
    65
 73
     0
 40
0.0
  0
LTYPE
  5
16
330
5
100
AcDbSymbolTableRecord
100
AcDbLinetypeTableRecord
  2
CONTINUOUS
 70
     0
  3
Solid line
 72
    65
 73
     0
 40
0.0
  0
LTYPE
  5
1F5
330
5
100
AcDbSymbolTableRecord
100
AcDbLinetypeTableRecord
  2
CENTER
 70
     0
  3
____ _ ____ _ ____ _ ____ _ ____ _ ____ _ ____
 72
    65
 73
     4
 40
0.6
 49
0.375
 74
     0
 49
-0.075
 74
     0
 49
0.075
 74
     0
 49
-0.075
 74
     0
  0
LTYPE
  5
1F6
330
5
100
AcDbSymbolTableRecord
100
AcDbLinetypeTableRecord
  2
HIDDEN
 70
     0
  3
- - - - - - - - - - - - - - - - - - - -
 72
    65
 73
     2
 40
0.2
 49
0.1
 74
     0
 49
-0.1
 74
     0
  0
LTYPE
  5
1F7
330
5
100
AcDbSymbolTableRecord
100
AcDbLinetypeTableRecord
  2
PHANTOM
 70
     0
  3
_____ _ _ _____ _ _ _____ _ _ _____
 72
    65
 73
     6
 40
0.8
 49
0.45
 74
     0
 49
-0.05
 74
     0
 49
0.1
 74
     0
 49
-0.05
 74
     0
 49
0.1
 74
     0
 49
-0.05
 74
     0
  0
LTYPE
  5
1F8
330
5
100
AcDbSymbolTableRecord
100
AcDbLinetypeTableRecord
  2
DOT
 70
     0
  3
. . . . . . . . . . . . . . . . . . . .
 72
    65
 73
     2
 40
0.2
 49
0.1
 74
     0
 49
-0.1
 74
     0
  0
LTYPE
  5
1F9
330
5
100
AcDbSymbolTableRecord
100
AcDbLinetypeTableRecord
  2
DASHED
 70
     0
  3
- - - - - - - - - - - - - - - - - - - -
 72
    65
 73
     2
 40
0.2
 49
0.1
 74
     0
 49
-0.1
 74
     0
  0
ENDTAB
  0
TABLE
  2
LAYER
  5
2
330
0
100
AcDbSymbolTable
 70
    49
  0
LAYER
  5
10
102
{ACAD_XDICTIONARY
360
3F58
102
}
330
2
100
AcDbSymbolTableRecord
100
AcDbLayerTableRecord
  2
0
 70
     0
 62
     7
  6
CONTINUOUS
370
    -3
390
F
  0
LAYER
  5
1FA
102
{ACAD_XDICTIONARY
360
3F5A
102
}
330
2
100
AcDbSymbolTableRecord
100
AcDbLayerTableRecord
  2
DEFAULT_1
 70
     0
 62
     7
  6
CENTER
370
    -3
390
F
  0
LAYER
  5
1FB
102
{ACAD_XDICTIONARY
360
3F5C
102
}
330
2
100
AcDbSymbolTableRecord
100
AcDbLayerTableRecord
  2
DEFAULT_2
 70
     0
 62
     8
  6
HIDDEN
370
    -3
390
F
  0
LAYER
  5
1FC
102
{ACAD_XDICTIONARY
360
3F5E
102
}
330
2
100
AcDbSymbolTableRecord
100
AcDbLayerTableRecord
  2
DEFAULT_3
 70
     0
 62
     7
  6
PHANTOM
370
    -3
390
F
  0
LAYER
  5
1FD
102
{ACAD_XDICTIONARY
360
3F60
102
}
330
2
100
AcDbSymbolTableRecord
100
AcDbLayerTableRecord
  2
0_DEFAULT
 70
     0
 62
     7
  6
CONTINUOUS
370
    -3
390
F
  0
LAYER
  5
1FE
102
{ACAD_XDICTIONARY
360
3F62
102
}
330
2
100
AcDbSymbolTableRecord
100
AcDbLayerTableRecord
  2
1_CURVES
 70
     0
 62
     7
  6
CONTINUOUS
370
    -3
390
F
  0
LAYER
  5
1FF
102
{ACAD_XDICTIONARY
360
3F64
102
}
330
2
100
AcDbSymbolTableRecord
100
AcDbLayerTableRecord
  2
1_CURVES-DEGAGEMENT-COIL
 70
     0
 62
     7
  6
CONTINUOUS
370
    -3
390
F
  0
LAYER
  5
200
102
{ACAD_XDICTIONARY
360
3F66
102
}
330
2
100
AcDbSymbolTableRecord
100
AcDbLayerTableRecord
  2
1_CURVES-TRAJECTOIRE-COIL
 70
     0
 62
     7
  6
CONTINUOUS
370
    -3
390
F
  0
LAYER
  5
201
102
{ACAD_XDICTIONARY
360
3F68
102
}
330
2
100
AcDbSymbolTableRecord
100
AcDbLayerTableRecord
  2
1_CURVES_CHROMO_INV
 70
     0
 62
     7
  6
CONTINUOUS
370
    -3
390
F
  0
LAYER
  5
202
102
{ACAD_XDICTIONARY
360
3F6A
102
}
330
2
100
AcDbSymbolTableRecord
100
AcDbLayerTableRecord
  2
1_CURVES_CONDUIT
 70
     0
 62
     7
  6
CONTINUOUS
370
    -3
390
F
  0
LAYER
  5
203
102
{ACAD_XDICTIONARY
360
3F6C
102
}
330
2
100
AcDbSymbolTableRecord
100
AcDbLayerTableRecord
  2
1_CURVES_IMPORT
 70
     0
 62
     7
  6
CONTINUOUS
370
    -3
390
F
  0
LAYER
  5
204
102
{ACAD_XDICTIONARY
360
3F6E
102
}
330
2
100
AcDbSymbolTableRecord
100
AcDbLayerTableRecord
  2
1_CURVES_JETS
 70
     0
 62
     7
  6
CONTINUOUS
370
    -3
390
F
  0
LAYER
  5
205
102
{ACAD_XDICTIONARY
360
3F70
102
}
330
2
100
AcDbSymbolTableRecord
100
AcDbLayerTableRecord
  2
1_CURVES_JETS-1
 70
     0
 62
     7
  6
CONTINUOUS
370
    -3
390
F
  0
LAYER
  5
206
102
{ACAD_XDICTIONARY
360
3F72
102
}
330
2
100
AcDbSymbolTableRecord
100
AcDbLayerTableRecord
  2
1_CURVES_PATINS
 70
     0
 62
     7
  6
CONTINUOUS
370
    -3
390
F
  0
LAYER
  5
207
102
{ACAD_XDICTIONARY
360
3F74
102
}
330
2
100
AcDbSymbolTableRecord
100
AcDbLayerTableRecord
  2
1_CURVES_RESURFACAGE
 70
     0
 62
     7
  6
CONTINUOUS
370
    -3
390
F
  0
LAYER
  5
208
102
{ACAD_XDICTIONARY
360
3F76
102
}
330
2
100
AcDbSymbolTableRecord
100
AcDbLayerTableRecord
  2
1_CURVES_ROBINET-INSERT
 70
     0
 62
     7
  6
CONTINUOUS
370
    -3
390
F
  0
LAYER
  5
209
102
{ACAD_XDICTIONARY
360
3F78
102
}
330
2
100
AcDbSymbolTableRecord
100
AcDbLayerTableRecord
  2
1_CURVES_SPECS_FRONT-GAUCHE
 70
     0
 62
     7
  6
CONTINUOUS
370
    -3
390
F
  0
LAYER
  5
20A
102
{ACAD_XDICTIONARY
360
3F7A
102
}
330
2
100
AcDbSymbolTableRecord
100
AcDbLayerTableRecord
  2
1_CURVES_SPECS_RIGHT-GAUCHE
 70
     0
 62
     7
  6
CONTINUOUS
370
    -3
390
F
  0
LAYER
  5
20B
102
{ACAD_XDICTIONARY
360
3F7C
102
}
330
2
100
AcDbSymbolTableRecord
100
AcDbLayerTableRecord
  2
2_PLANES
 70
     0
 62
     7
  6
CONTINUOUS
370
    -3
390
F
  0
LAYER
  5
20C
102
{ACAD_XDICTIONARY
360
3F7E
102
}
330
2
100
AcDbSymbolTableRecord
100
AcDbLayerTableRecord
  2
2_PLANES_CHROMO_INV
 70
     0
 62
     7
  6
CONTINUOUS
370
    -3
390
F
  0
LAYER
  5
20D
102
{ACAD_XDICTIONARY
360
3F80
102
}
330
2
100
AcDbSymbolTableRecord
100
AcDbLayerTableRecord
  2
2_PLANES_JETS-1
 70
     0
 62
     7
  6
CONTINUOUS
370
    -3
390
F
  0
LAYER
  5
20E
102
{ACAD_XDICTIONARY
360
3F82
102
}
330
2
100
AcDbSymbolTableRecord
100
AcDbLayerTableRecord
  2
3_POINTS
 70
     0
 62
     7
  6
CONTINUOUS
370
    -3
390
F
  0
LAYER
  5
20F
102
{ACAD_XDICTIONARY
360
3F84
102
}
330
2
100
AcDbSymbolTableRecord
100
AcDbLayerTableRecord
  2
3_POINTS_JETS-1
 70
     0
 62
     7
  6
CONTINUOUS
370
    -3
390
F
  0
LAYER
  5
210
102
{ACAD_XDICTIONARY
360
3F86
102
}
330
2
100
AcDbSymbolTableRecord
100
AcDbLayerTableRecord
  2
3_POINTS_SPEC
 70
     0
 62
     7
  6
CONTINUOUS
370
    -3
390
F
  0
LAYER
  5
211
102
{ACAD_XDICTIONARY
360
3F88
102
}
330
2
100
AcDbSymbolTableRecord
100
AcDbLayerTableRecord
  2
4_CSYS
 70
     0
 62
     7
  6
CONTINUOUS
370
    -3
390
F
  0
LAYER
  5
212
102
{ACAD_XDICTIONARY
360
3F8A
102
}
330
2
100
AcDbSymbolTableRecord
100
AcDbLayerTableRecord
  2
5_AXIS
 70
     0
 62
     7
  6
CONTINUOUS
370
    -3
390
F
  0
LAYER
  5
213
102
{ACAD_XDICTIONARY
360
3F8C
102
}
330
2
100
AcDbSymbolTableRecord
100
AcDbLayerTableRecord
  2
5_AXIS_CHROMO_INV
 70
     0
 62
     7
  6
CONTINUOUS
370
    -3
390
F
  0
LAYER
  5
214
102
{ACAD_XDICTIONARY
360
3F8E
102
}
330
2
100
AcDbSymbolTableRecord
100
AcDbLayerTableRecord
  2
5_AXIS_JETS-1
 70
     0
 62
     7
  6
CONTINUOUS
370
    -3
390
F
  0
LAYER
  5
215
102
{ACAD_XDICTIONARY
360
3F90
102
}
330
2
100
AcDbSymbolTableRecord
100
AcDbLayerTableRecord
  2
5_AXIS_JETS-2
 70
     0
 62
     7
  6
CONTINUOUS
370
    -3
390
F
  0
LAYER
  5
216
102
{ACAD_XDICTIONARY
360
3F92
102
}
330
2
100
AcDbSymbolTableRecord
100
AcDbLayerTableRecord
  2
6_AIRE_CONDUIT
 70
     0
 62
     7
  6
CONTINUOUS
370
    -3
390
F
  0
LAYER
  5
217
102
{ACAD_XDICTIONARY
360
3F94
102
}
330
2
100
AcDbSymbolTableRecord
100
AcDbLayerTableRecord
  2
6_SURFACES
 70
     0
 62
     7
  6
CONTINUOUS
370
    -3
390
F
  0
LAYER
  5
218
102
{ACAD_XDICTIONARY
360
3F96
102
}
330
2
100
AcDbSymbolTableRecord
100
AcDbLayerTableRecord
  2
6_SURFACES-TOOLING
 70
     0
 62
     7
  6
CONTINUOUS
370
    -3
390
F
  0
LAYER
  5
219
102
{ACAD_XDICTIONARY
360
3F98
102
}
330
2
100
AcDbSymbolTableRecord
100
AcDbLayerTableRecord
  2
6_SURFACES_AIRE
 70
     0
 62
     7
  6
CONTINUOUS
370
    -3
390
F
  0
LAYER
  5
21A
102
{ACAD_XDICTIONARY
360
3F9A
102
}
330
2
100
AcDbSymbolTableRecord
100
AcDbLayerTableRecord
  2
6_SURFACES_BAIN_DROIT
 70
     0
 62
     7
  6
CONTINUOUS
370
    -3
390
F
  0
LAYER
  5
21B
102
{ACAD_XDICTIONARY
360
3F9C
102
}
330
2
100
AcDbSymbolTableRecord
100
AcDbLayerTableRecord
  2
6_SURFACES_CHROMO_INV
 70
     0
 62
     7
  6
CONTINUOUS
370
    -3
390
F
  0
LAYER
  5
21C
102
{ACAD_XDICTIONARY
360
3F9E
102
}
330
2
100
AcDbSymbolTableRecord
100
AcDbLayerTableRecord
  2
6_SURFACES_OFFSET_FIBRE_ACRYLIQ
 70
     0
 62
     7
  6
CONTINUOUS
370
    -3
390
F
  0
LAYER
  5
21D
102
{ACAD_XDICTIONARY
360
3FA0
102
}
330
2
100
AcDbSymbolTableRecord
100
AcDbLayerTableRecord
  2
6_SURFACES_PATINS_SPECS
 70
     0
 62
     7
  6
CONTINUOUS
370
    -3
390
F
  0
LAYER
  5
21E
102
{ACAD_XDICTIONARY
360
3FA2
102
}
330
2
100
AcDbSymbolTableRecord
100
AcDbLayerTableRecord
  2
6_SURFACES_POUR_CONDUIT
 70
     0
 62
     7
  6
CONTINUOUS
370
    -3
390
F
  0
LAYER
  5
21F
102
{ACAD_XDICTIONARY
360
3FA4
102
}
330
2
100
AcDbSymbolTableRecord
100
AcDbLayerTableRecord
  2
6_SURFACES_POUR_HFL
 70
     0
 62
     7
  6
CONTINUOUS
370
    -3
390
F
  0
LAYER
  5
220
102
{ACAD_XDICTIONARY
360
3FA6
102
}
330
2
100
AcDbSymbolTableRecord
100
AcDbLayerTableRecord
  2
6_SURFACES_POUR_TROP_PLEIN
 70
     0
 62
     7
  6
CONTINUOUS
370
    -3
390
F
  0
LAYER
  5
221
102
{ACAD_XDICTIONARY
360
3FA8
102
}
330
2
100
AcDbSymbolTableRecord
100
AcDbLayerTableRecord
  2
6_SURFACES_TOOLING
 70
     0
 62
     7
  6
CONTINUOUS
370
    -3
390
F
  0
LAYER
  5
222
102
{ACAD_XDICTIONARY
360
3FAA
102
}
330
2
100
AcDbSymbolTableRecord
100
AcDbLayerTableRecord
  2
7_NOTES
 70
     0
 62
     7
  6
CONTINUOUS
370
    -3
390
F
  0
LAYER
  5
223
102
{ACAD_XDICTIONARY
360
3FAC
102
}
330
2
100
AcDbSymbolTableRecord
100
AcDbLayerTableRecord
  2
COMPOSANTES-ASSEMBLAGE
 70
     0
 62
     7
  6
CONTINUOUS
370
    -3
390
F
  0
LAYER
  5
224
102
{ACAD_XDICTIONARY
360
3FAE
102
}
330
2
100
AcDbSymbolTableRecord
100
AcDbLayerTableRecord
  2
COMPOSANTES-DRW
 70
     0
 62
     7
  6
CONTINUOUS
370
    -3
390
F
  0
LAYER
  5
225
102
{ACAD_XDICTIONARY
360
3FB0
102
}
330
2
100
AcDbSymbolTableRecord
100
AcDbLayerTableRecord
  2
COSMETIC
 70
     0
 62
     7
  6
CONTINUOUS
370
    -3
390
F
  0
LAYER
  5
226
102
{ACAD_XDICTIONARY
360
3FB2
102
}
330
2
100
AcDbSymbolTableRecord
100
AcDbLayerTableRecord
  2
DEGAGEMENT_SERIGRAPHIE
 70
     0
 62
     7
  6
CONTINUOUS
370
    -3
390
F
  0
LAYER
  5
227
102
{ACAD_XDICTIONARY
360
3FB4
102
}
330
2
100
AcDbSymbolTableRecord
100
AcDbLayerTableRecord
  2
DRW
 70
     0
 62
     7
  6
CONTINUOUS
370
    -3
390
F
  0
LAYER
  5
228
102
{ACAD_XDICTIONARY
360
3FB6
102
}
330
2
100
AcDbSymbolTableRecord
100
AcDbLayerTableRecord
  2
FILS-ASSEMBLAGE
 70
     0
 62
     7
  6
CONTINUOUS
370
    -3
390
F
  0
LAYER
  5
229
102
{ACAD_XDICTIONARY
360
3FB8
102
}
330
2
100
AcDbSymbolTableRecord
100
AcDbLayerTableRecord
  2
XSEC_DATUMS
 70
     0
 62
     7
  6
CONTINUOUS
370
    -3
390
F
  0
ENDTAB
  0
TABLE
  2
STYLE
  5
3
330
0
100
AcDbSymbolTable
 70
     8
  0
STYLE
  5
11
330
3
100
AcDbSymbolTableRecord
100
AcDbTextStyleTableRecord
  2
STANDARD
 70
     0
 40
0.0
 41
0.8
 50
0.0
 71
     0
 42
0.2
  3
txt
  4

  0
STYLE
  5
22A
330
3
100
AcDbSymbolTableRecord
100
AcDbTextStyleTableRecord
  2
TEXTSTYLE_1
 70
     0
 40
0.0
 41
0.8
 50
0.0
 71
     0
 42
0.2
  3
gdt
  4

  0
STYLE
  5
22B
330
3
100
AcDbSymbolTableRecord
100
AcDbTextStyleTableRecord
  2
TEXTSTYLE_2
 70
     0
 40
0.0
 41
1.0
 50
0.0
 71
     0
 42
0.2
  3
trium.ttf
  4

  0
STYLE
  5
22C
330
3
100
AcDbSymbolTableRecord
100
AcDbTextStyleTableRecord
  2
TEXTSTYLE_3
 70
     0
 40
0.0
 41
1.0
 50
0.0
 71
     0
 42
0.2
  3
trium.ttf
  4

  0
STYLE
  5
22D
330
3
100
AcDbSymbolTableRecord
100
AcDbTextStyleTableRecord
  2
TEXTSTYLE_4
 70
     0
 40
0.0
 41
1.0
 50
0.0
 71
     0
 42
0.2
  3
txt
  4

  0
STYLE
  5
22E
330
3
100
AcDbSymbolTableRecord
100
AcDbTextStyleTableRecord
  2
TEXTSTYLE_5
 70
     0
 40
0.0
 41
1.0
 50
0.0
 71
     0
 42
0.2
  3
txt
  4

  0
STYLE
  5
22F
330
3
100
AcDbSymbolTableRecord
100
AcDbTextStyleTableRecord
  2
TEXTSTYLE_6
 70
     0
 40
0.0
 41
1.0
 50
0.0
 71
     0
 42
0.2
  3
trium.ttf
  4

  0
STYLE
  5
230
330
3
100
AcDbSymbolTableRecord
100
AcDbTextStyleTableRecord
  2
TEXTSTYLE_7
 70
     0
 40
0.0
 41
0.8
 50
0.0
 71
     0
 42
0.2
  3
txt
  4

  0
ENDTAB
  0
TABLE
  2
VIEW
  5
6
330
0
100
AcDbSymbolTable
 70
     0
  0
ENDTAB
  0
TABLE
  2
UCS
  5
7
330
0
100
AcDbSymbolTable
 70
     0
  0
ENDTAB
  0
TABLE
  2
APPID
  5
9
330
0
100
AcDbSymbolTable
 70
     3
  0
APPID
  5
231
330
9
100
AcDbSymbolTableRecord
100
AcDbRegAppTableRecord
  2
ACAD
 70
     0
  0
APPID
  5
3F44
330
9
100
AcDbSymbolTableRecord
100
AcDbRegAppTableRecord
  2
ACAD_MLEADERVER
 70
     0
  0
APPID
  5
3FBA
330
9
100
AcDbSymbolTableRecord
100
AcDbRegAppTableRecord
  2
ACAD_NAV_VCDISPLAY
 70
     0
  0
ENDTAB
  0
TABLE
  2
DIMSTYLE
  5
A
330
0
100
AcDbSymbolTable
 70
     8
100
AcDbDimStyleTable
 71
     0
  0
DIMSTYLE
105
252
330
A
100
AcDbSymbolTableRecord
100
AcDbDimStyleTableRecord
  2
STANDARD
 70
     0
 41
2.0
 44
0.125
 47
0.001
 48
0.001
 71
     1
 78
     4
 79
     1
140
1.333333333299999
143
2.54
170
     1
179
     3
271
     3
272
     3
284
     4
340
11
341
234
342
234
343
234
344
234
  0
DIMSTYLE
105
253
330
A
100
AcDbSymbolTableRecord
100
AcDbDimStyleTableRecord
  2
DIMSTYLE_1
 70
     0
 41
2.0
 44
0.125
 47
0.001
 48
0.001
 78
     4
 79
     1
140
1.333333333299999
143
2.54
147
0.0625
170
     1
171
     0
179
     3
271
     3
272
     8
274
     0
284
     4
340
11
341
234
342
234
343
234
344
234
  0
DIMSTYLE
105
254
330
A
100
AcDbSymbolTableRecord
100
AcDbDimStyleTableRecord
  2
DIMSTYLE_2
 70
     0
 41
2.0
 44
0.125
 47
0.001
 48
0.001
 78
     4
 79
     1
140
1.333333333299999
143
2.54
147
0.0625
170
     1
171
     1
179
     3
271
     6
272
    64
274
     1
284
     4
340
11
341
234
342
234
343
234
344
234
  0
DIMSTYLE
105
255
330
A
100
AcDbSymbolTableRecord
100
AcDbDimStyleTableRecord
  2
DIMSTYLE_3
 70
     0
 41
2.0
 44
0.125
 47
0.001
 48
0.001
 78
     4
 79
     1
140
1.333333333299999
143
2.54
147
0.0625
170
     1
171
     0
179
     3
272
    16
274
     0
284
     4
340
11
341
234
342
234
343
234
344
234
  0
DIMSTYLE
105
256
330
A
100
AcDbSymbolTableRecord
100
AcDbDimStyleTableRecord
  2
DIMSTYLE_4
 70
     0
 41
2.0
 44
0.125
 47
1.0
 48
1.0
 78
     4
 79
     1
140
1.333333333299999
143
2.54
147
0.0625
179
     3
271
     0
272
     0
284
     4
340
11
341
234
342
234
343
234
344
234
  0
DIMSTYLE
105
257
330
A
100
AcDbSymbolTableRecord
100
AcDbDimStyleTableRecord
  2
DIMSTYLE_5
 70
     0
 41
2.0
 44
0.125
 47
0.00001
 48
0.00001
 78
     4
 79
     1
140
1.333333333299999
143
2.54
147
0.0625
170
     1
171
     0
179
     3
271
     3
272
     8
274
     0
284
     4
340
11
341
234
342
234
343
234
344
234
  0
DIMSTYLE
105
258
330
A
100
AcDbSymbolTableRecord
100
AcDbDimStyleTableRecord
  2
DIMSTYLE_6
 70
     0
 41
2.0
 44
0.125
 47
0.00001
 48
0.00001
 78
     4
 79
     1
140
1.333333333299999
143
2.54
147
0.0625
170
     1
171
     1
179
     3
271
     6
272
    64
274
     1
284
     4
340
11
341
234
342
234
343
234
344
234
  0
DIMSTYLE
105
259
330
A
100
AcDbSymbolTableRecord
100
AcDbDimStyleTableRecord
  2
DIMSTYLE_7
 70
     0
 41
2.0
 44
0.125
 47
0.5
 48
0.5
 78
     4
 79
     1
140
1.333333333299999
143
2.54
147
0.0625
179
     3
271
     0
272
     0
284
     4
340
11
341
234
342
234
343
234
344
234
  0
ENDTAB
  0
TABLE
  2
BLOCK_RECORD
  5
1
330
0
100
AcDbSymbolTable
 70
    30
  0
BLOCK_RECORD
  5
232
330
1
100
AcDbSymbolTableRecord
100
AcDbBlockTableRecord
  2
*Model_Space
340
3EB6
  0
BLOCK_RECORD
  5
233
330
1
100
AcDbSymbolTableRecord
100
AcDbBlockTableRecord
  2
*Paper_Space
340
3EB7
  0
BLOCK_RECORD
  5
234
330
1
100
AcDbSymbolTableRecord
100
AcDbBlockTableRecord
  2
_FILLED
340
0
102
{BLKREFS
331
422
331
423
331
3AA
331
3AB
331
3B7
331
3B8
331
3CB
331
3CC
331
3D7
331
3D8
331
3E3
331
3E4
331
3F1
331
3F2
331
3FD
331
3FE
331
40A
331
40B
331
416
331
417
331
351
331
352
331
35E
331
35F
331
36C
331
36D
331
378
331
379
331
385
331
386
331
391
331
392
331
39D
331
39E
102
}
  0
BLOCK_RECORD
  5
235
330
1
100
AcDbSymbolTableRecord
100
AcDbBlockTableRecord
  2
*D1
340
0
  0
BLOCK_RECORD
  5
236
330
1
100
AcDbSymbolTableRecord
100
AcDbBlockTableRecord
  2
*D2
340
0
  0
BLOCK_RECORD
  5
237
330
1
100
AcDbSymbolTableRecord
100
AcDbBlockTableRecord
  2
*D3
340
0
  0
BLOCK_RECORD
  5
238
330
1
100
AcDbSymbolTableRecord
100
AcDbBlockTableRecord
  2
*D4
340
0
  0
BLOCK_RECORD
  5
239
330
1
100
AcDbSymbolTableRecord
100
AcDbBlockTableRecord
  2
*D5
340
0
  0
BLOCK_RECORD
  5
23A
330
1
100
AcDbSymbolTableRecord
100
AcDbBlockTableRecord
  2
*D6
340
0
  0
BLOCK_RECORD
  5
23B
330
1
100
AcDbSymbolTableRecord
100
AcDbBlockTableRecord
  2
*D7
340
0
  0
BLOCK_RECORD
  5
23C
330
1
100
AcDbSymbolTableRecord
100
AcDbBlockTableRecord
  2
*D8
340
0
  0
BLOCK_RECORD
  5
23D
330
1
100
AcDbSymbolTableRecord
100
AcDbBlockTableRecord
  2
*D9
340
0
  0
BLOCK_RECORD
  5
23E
330
1
100
AcDbSymbolTableRecord
100
AcDbBlockTableRecord
  2
*D10
340
0
  0
BLOCK_RECORD
  5
23F
330
1
100
AcDbSymbolTableRecord
100
AcDbBlockTableRecord
  2
*D11
340
0
  0
BLOCK_RECORD
  5
240
330
1
100
AcDbSymbolTableRecord
100
AcDbBlockTableRecord
  2
*D12
340
0
  0
BLOCK_RECORD
  5
241
330
1
100
AcDbSymbolTableRecord
100
AcDbBlockTableRecord
  2
*D13
340
0
  0
BLOCK_RECORD
  5
242
330
1
100
AcDbSymbolTableRecord
100
AcDbBlockTableRecord
  2
*D14
340
0
  0
BLOCK_RECORD
  5
243
330
1
100
AcDbSymbolTableRecord
100
AcDbBlockTableRecord
  2
*D15
340
0
  0
BLOCK_RECORD
  5
244
330
1
100
AcDbSymbolTableRecord
100
AcDbBlockTableRecord
  2
*D16
340
0
  0
BLOCK_RECORD
  5
245
330
1
100
AcDbSymbolTableRecord
100
AcDbBlockTableRecord
  2
*D17
340
0
  0
BLOCK_RECORD
  5
246
330
1
100
AcDbSymbolTableRecord
100
AcDbBlockTableRecord
  2
*D18
340
0
  0
BLOCK_RECORD
  5
247
330
1
100
AcDbSymbolTableRecord
100
AcDbBlockTableRecord
  2
*D19
340
0
  0
BLOCK_RECORD
  5
248
330
1
100
AcDbSymbolTableRecord
100
AcDbBlockTableRecord
  2
L03-MOTEUR-CONTROLE-LED_BL9
340
0
  0
BLOCK_RECORD
  5
249
330
1
100
AcDbSymbolTableRecord
100
AcDbBlockTableRecord
  2
L03-MOTEUR-CONTROLE-LED_BL8
340
0
  0
BLOCK_RECORD
  5
24A
330
1
100
AcDbSymbolTableRecord
100
AcDbBlockTableRecord
  2
L03-MOTEUR-CONTROLE-LED_BL7
340
0
  0
BLOCK_RECORD
  5
24B
330
1
100
AcDbSymbolTableRecord
100
AcDbBlockTableRecord
  2
L03-MOTEUR-CONTROLE-LED_BL6
340
0
  0
BLOCK_RECORD
  5
24C
330
1
100
AcDbSymbolTableRecord
100
AcDbBlockTableRecord
  2
L03-MOTEUR-CONTROLE-LED_BL5
340
0
  0
BLOCK_RECORD
  5
24D
330
1
100
AcDbSymbolTableRecord
100
AcDbBlockTableRecord
  2
L03-MOTEUR-CONTROLE-LED_BL4
340
0
  0
BLOCK_RECORD
  5
24E
330
1
100
AcDbSymbolTableRecord
100
AcDbBlockTableRecord
  2
L03-MOTEUR-CONTROLE-LED_BL3
340
0
  0
BLOCK_RECORD
  5
24F
330
1
100
AcDbSymbolTableRecord
100
AcDbBlockTableRecord
  2
L03-MOTEUR-CONTROLE-LED_BL2
340
0
  0
BLOCK_RECORD
  5
250
330
1
100
AcDbSymbolTableRecord
100
AcDbBlockTableRecord
  2
L03-USAGE_INTERNE_SEULEM_BL1
340
0
  0
BLOCK_RECORD
  5
251
330
1
100
AcDbSymbolTableRecord
100
AcDbBlockTableRecord
  2
L03-NOTE_SPECS_BAINS_BL0
340
0
  0
ENDTAB
  0
ENDSEC
  0
SECTION
  2
BLOCKS
  0
BLOCK
  5
20
330
232
100
AcDbEntity
  8
0
100
AcDbBlockBegin
  2
*Model_Space
 70
     0
 10
0.0
 20
0.0
 30
0.0
  3
*Model_Space
  1

  0
ENDBLK
  5
21
330
232
100
AcDbEntity
  8
0
100
AcDbBlockEnd
  0
BLOCK
  5
1C
330
233
100
AcDbEntity
 67
     1
  8
0
100
AcDbBlockBegin
  2
*Paper_Space
 70
     0
 10
0.0
 20
0.0
 30
0.0
  3
*Paper_Space
  1

  0
ENDBLK
  5
1D
330
233
100
AcDbEntity
 67
     1
  8
0
100
AcDbBlockEnd
  0
BLOCK
  5
345
330
234
100
AcDbEntity
  8
0
100
AcDbBlockBegin
  2
_FILLED
 70
     0
 10
0.0
 20
0.0
 30
0.0
  3
_FILLED
  1

  0
SOLID
  5
346
330
234
100
AcDbEntity
  8
0
  6
ByBlock
 62
     0
100
AcDbTrace
 10
0.0
 20
0.0
 30
0.0
 11
-1.0
 21
0.1666666667
 31
0.0
 12
-1.0
 22
-0.1666666667
 32
0.0
 13
-1.0
 23
-0.1666666667
 33
0.0
  0
ENDBLK
  5
347
330
234
100
AcDbEntity
  8
0
  6
ByBlock
 62
     0
100
AcDbBlockEnd
  0
BLOCK
  5
348
330
235
100
AcDbEntity
  8
0
  6
Continuous
 62
     7
100
AcDbBlockBegin
  2
*D1
 70
     1
 10
0.0
 20
0.0
 30
0.0
  3
*D1
  1

  0
TEXT
  5
349
330
235
100
AcDbEntity
  8
0
  6
Continuous
 62
     7
100
AcDbText
 10
7.0265313424
 20
32.6489605151
 30
0.0
 40
1.333333333299999
  1
17
 41
1.200000000011249
 72
     5
 11
9.159864675699999
 21
32.6489605151
 31
0.0
100
AcDbText
  0
TEXT
  5
34A
330
235
100
AcDbEntity
  8
0
  6
Continuous
 62
     7
100
AcDbText
 10
7.0265313424
 20
30.6489605151
 30
0.0
 40
1.333333333299999
  1
[
 41
2.400000000134999
 72
     5
 11
8.093198009099999
 21
30.6489605151
 31
0.0
100
AcDbText
  0
TEXT
  5
34B
330
235
100
AcDbEntity
  8
0
  6
Continuous
 62
     7
100
AcDbText
 10
8.093198009099999
 20
30.6489605151
 30
0.0
 40
1.333333333299999
  1
43
 41
0.960000000009
 72
     5
 11
10.2265313424
 21
30.6489605151
 31
0.0
100
AcDbText
  0
TEXT
  5
34C
330
235
100
AcDbEntity
  8
0
  6
Continuous
 62
     7
100
AcDbText
 10
10.2265313424
 20
30.6489605151
 30
0.0
 40
1.333333333299999
  1
]
 41
2.400000000135003
 72
     5
 11
11.2931980091
 21
30.6489605151
 31
0.0
100
AcDbText
  0
LINE
  5
34D
330
235
100
AcDbEntity
  8
0
  6
Continuous
 62
     7
100
AcDbLine
 10
17.250625071
 20
24.6846778802
 30
0.0
 11
7.8265313424
 21
24.6846778802
 31
0.0
  0
LINE
  5
34E
330
235
100
AcDbEntity
  8
0
  6
Continuous
 62
     7
100
AcDbLine
 10
17.250625071
 20
41.6846778802
 30
0.0
 11
7.8265313424
 21
41.6846778802
 31
0.0
  0
LINE
  5
34F
330
235
100
AcDbEntity
  8
0
  6
Continuous
 62
     7
100
AcDbLine
 10
9.159864675699999
 20
24.6846778802
 30
0.0
 11
9.159864675699999
 21
29.9822938484
 31
0.0
  0
LINE
  5
350
330
235
100
AcDbEntity
  8
0
  6
Continuous
 62
     7
100
AcDbLine
 10
9.159864675699999
 20
41.6846778802
 30
0.0
 11
9.159864675699999
 21
34.6489605151
 31
0.0
  0
INSERT
  5
351
330
235
100
AcDbEntity
  8
0
  6
Continuous
 62
     7
100
AcDbBlockReference
  2
_FILLED
 10
9.159864675699999
 20
24.6846778802
 30
0.0
 41
2.0
 42
2.0
 43
2.0
 50
270.0
  0
INSERT
  5
352
330
235
100
AcDbEntity
  8
0
  6
Continuous
 62
     7
100
AcDbBlockReference
  2
_FILLED
 10
9.159864675699999
 20
41.6846778802
 30
0.0
 41
2.0
 42
2.0
 43
2.0
 50
90.0
  0
ENDBLK
  5
353
330
235
100
AcDbEntity
  8
0
  6
ByBlock
 62
     0
100
AcDbBlockEnd
  0
BLOCK
  5
354
330
236
100
AcDbEntity
  8
0
  6
Continuous
 62
     7
100
AcDbBlockBegin
  2
*D2
 70
     1
 10
0.0
 20
0.0
 30
0.0
  3
*D2
  1

  0
TEXT
  5
355
330
236
100
AcDbEntity
  8
0
  6
Continuous
 62
     7
100
AcDbText
 10
11.8265313424
 20
47.32903164319999
 30
0.0
 40
1.333333333299999
  1
1
 41
2.400000000134999
 72
     5
 11
12.8931980091
 21
47.32903164319999
 31
0.0
100
AcDbText
  0
TEXT
  5
356
330
236
100
AcDbEntity
  8
0
  6
Continuous
 62
     7
100
AcDbText
 10
11.8265313424
 20
45.32903164319999
 30
0.0
 40
1.333333333299999
  1
[
 41
2.400000000134999
 72
     5
 11
12.8931980091
 21
45.32903164319999
 31
0.0
100
AcDbText
  0
TEXT
  5
357
330
236
100
AcDbEntity
  8
0
  6
Continuous
 62
     7
100
AcDbText
 10
12.8931980091
 20
45.32903164319999
 30
0.0
 40
1.333333333299999
  1
2,5
 41
1.10769230772
 72
     5
 11
16.0931980091
 21
45.32903164319999
 31
0.0
100
AcDbText
  0
TEXT
  5
358
330
236
100
AcDbEntity
  8
0
  6
Continuous
 62
     7
100
AcDbText
 10
16.0931980091
 20
45.32903164319999
 30
0.0
 40
1.333333333299999
  1
]
 41
2.399999999909999
 72
     5
 11
17.1598646757
 21
45.32903164319999
 31
0.0
100
AcDbText
  0
LINE
  5
359
330
236
100
AcDbEntity
  8
0
  6
Continuous
 62
     7
100
AcDbLine
 10
17.1805464167
 20
41.6846778802
 30
0.0
 11
7.8265313424
 21
41.6846778802
 31
0.0
  0
LINE
  5
35A
330
236
100
AcDbEntity
  8
0
  6
Continuous
 62
     7
100
AcDbLine
 10
16.7108385942
 20
42.68467788019999
 30
0.0
 11
7.8265313424
 21
42.68467788019999
 31
0.0
  0
LINE
  5
35B
330
236
100
AcDbEntity
  8
0
  6
Continuous
 62
     7
100
AcDbLine
 10
9.159864675699999
 20
41.6846778802
 30
0.0
 11
9.159864675699999
 21
36.3513445468
 31
0.0
  0
LINE
  5
35C
330
236
100
AcDbEntity
  8
0
  6
Continuous
 62
     7
100
AcDbLine
 10
9.159864675699999
 20
42.68467788019999
 30
0.0
 11
9.159864675699999
 21
47.9956983098
 31
0.0
  0
LINE
  5
35D
330
236
100
AcDbEntity
  8
0
  6
Continuous
 62
     7
100
AcDbLine
 10
9.159864675699999
 20
47.9956983098
 30
0.0
 11
11.1598646757
 21
47.9956983098
 31
0.0
  0
INSERT
  5
35E
330
236
100
AcDbEntity
  8
0
  6
Continuous
 62
     7
100
AcDbBlockReference
  2
_FILLED
 10
9.159864675699999
 20
41.6846778802
 30
0.0
 41
2.0
 42
2.0
 43
2.0
 50
90.0
  0
INSERT
  5
35F
330
236
100
AcDbEntity
  8
0
  6
Continuous
 62
     7
100
AcDbBlockReference
  2
_FILLED
 10
9.159864675699999
 20
42.68467788019999
 30
0.0
 41
2.0
 42
2.0
 43
2.0
 50
270.0
  0
ENDBLK
  5
360
330
236
100
AcDbEntity
  8
0
  6
ByBlock
 62
     0
100
AcDbBlockEnd
  0
BLOCK
  5
361
330
237
100
AcDbEntity
  8
0
  6
Continuous
 62
     7
100
AcDbBlockBegin
  2
*D3
 70
     1
 10
0.0
 20
0.0
 30
0.0
  3
*D3
  1

  0
TEXT
  5
362
330
237
100
AcDbEntity
  8
0
  6
Continuous
 62
     7
100
AcDbText
 10
117.7534129989
 20
21.7726886342
 30
0.0
 40
1.333333333299999
  1
12-1/4
 41
0.9600000000240006
 72
     5
 11
124.1534129989
 21
21.7726886342
 31
0.0
100
AcDbText
  0
TEXT
  5
363
330
237
100
AcDbEntity
  8
0
  6
Continuous
 62
     7
100
AcDbText
 10
117.7534129989
 20
19.7726886342
 30
0.0
 40
1.333333333299999
  1
[
 41
2.400000000135003
 72
     5
 11
118.8200796656
 21
19.7726886342
 31
0.0
100
AcDbText
  0
TEXT
  5
364
330
237
100
AcDbEntity
  8
0
  6
Continuous
 62
     7
100
AcDbText
 10
118.8200796656
 20
19.7726886342
 30
0.0
 40
1.333333333299999
  1
31
 41
1.20000000001125
 72
     5
 11
120.9534129989
 21
19.7726886342
 31
0.0
100
AcDbText
  0
TEXT
  5
365
330
237
100
AcDbEntity
  8
0
  6
Continuous
 62
     7
100
AcDbText
 10
120.9534129989
 20
19.7726886342
 30
0.0
 40
1.333333333299999
  1
]
 41
2.400000000135003
 72
     5
 11
122.0200796656
 21
19.7726886342
 31
0.0
100
AcDbText
  0
LINE
  5
366
330
237
100
AcDbEntity
  8
0
  6
Continuous
 62
     7
100
AcDbLine
 10
120.6993499787
 20
38.9994863128
 30
0.0
 11
128.1534129989
 21
38.9994863128
 31
0.0
  0
LINE
  5
367
330
237
100
AcDbEntity
  8
0
  6
Continuous
 62
     7
100
AcDbLine
 10
118.9085346301
 20
26.7031335424
 30
0.0
 11
128.1534129989
 21
26.7031335424
 31
0.0
  0
LINE
  5
368
330
237
100
AcDbEntity
  8
0
  6
Continuous
 62
     7
100
AcDbLine
 10
126.8200796656
 20
38.9994863128
 30
0.0
 11
126.8200796656
 21
32.8513099276
 31
0.0
  0
LINE
  5
369
330
237
100
AcDbEntity
  8
0
  6
Continuous
 62
     7
100
AcDbLine
 10
126.8200796656
 20
26.7031335424
 30
0.0
 11
126.8200796656
 21
32.8513099276
 31
0.0
  0
LINE
  5
36A
330
237
100
AcDbEntity
  8
0
  6
Continuous
 62
     7
100
AcDbLine
 10
126.8200796656
 20
32.8513099276
 30
0.0
 11
126.8200796656
 21
22.4393553009
 31
0.0
  0
LINE
  5
36B
330
237
100
AcDbEntity
  8
0
  6
Continuous
 62
     7
100
AcDbLine
 10
126.8200796656
 20
22.4393553009
 30
0.0
 11
124.8200796656
 21
22.4393553009
 31
0.0
  0
INSERT
  5
36C
330
237
100
AcDbEntity
  8
0
  6
Continuous
 62
     7
100
AcDbBlockReference
  2
_FILLED
 10
126.8200796656
 20
38.9994863128
 30
0.0
 41
2.0
 42
2.0
 43
2.0
 50
90.0
  0
INSERT
  5
36D
330
237
100
AcDbEntity
  8
0
  6
Continuous
 62
     7
100
AcDbBlockReference
  2
_FILLED
 10
126.8200796656
 20
26.7031335424
 30
0.0
 41
2.0
 42
2.0
 43
2.0
 50
270.0
  0
ENDBLK
  5
36E
330
237
100
AcDbEntity
  8
0
  6
ByBlock
 62
     0
100
AcDbBlockEnd
  0
BLOCK
  5
36F
330
238
100
AcDbEntity
  8
0
  6
Continuous
 62
     7
100
AcDbBlockBegin
  2
*D4
 70
     1
 10
0.0
 20
0.0
 30
0.0
  3
*D4
  1

  0
TEXT
  5
370
330
238
100
AcDbEntity
  8
0
  6
Continuous
 62
     7
100
AcDbText
 10
43.10832571579999
 20
62.6398003273
 30
0.0
 40
1.333333333299999
  1
46-3/8
 41
0.847058823550588
 72
     5
 11
49.5083257158
 21
62.6398003273
 31
0.0
100
AcDbText
  0
TEXT
  5
371
330
238
100
AcDbEntity
  8
0
  6
Continuous
 62
     7
100
AcDbText
 10
43.10832571579999
 20
60.63980032729999
 30
0.0
 40
1.333333333299999
  1
[
 41
2.400000000135003
 72
     5
 11
44.1749923825
 21
60.63980032729999
 31
0.0
100
AcDbText
  0
TEXT
  5
372
330
238
100
AcDbEntity
  8
0
  6
Continuous
 62
     7
100
AcDbText
 10
44.1749923825
 20
60.63980032729999
 30
0.0
 40
1.333333333299999
  1
118
 41
1.200000000029998
 72
     5
 11
47.37499238249999
 21
60.63980032729999
 31
0.0
100
AcDbText
  0
TEXT
  5
373
330
238
100
AcDbEntity
  8
0
  6
Continuous
 62
     7
100
AcDbText
 10
47.37499238249999
 20
60.63980032729999
 30
0.0
 40
1.333333333299999
  1
]
 41
2.400000000135003
 72
     5
 11
48.4416590492
 21
60.63980032729999
 31
0.0
100
AcDbText
  0
LINE
  5
374
330
238
100
AcDbEntity
  8
0
  6
Continuous
 62
     7
100
AcDbLine
 10
23.1463993366
 20
65.54445365879999
 30
0.0
 11
23.1463993366
 21
61.9731336607
 31
0.0
  0
LINE
  5
375
330
238
100
AcDbEntity
  8
0
  6
Continuous
 62
     7
100
AcDbLine
 10
69.47025209510001
 20
65.6490690434
 30
0.0
 11
69.47025209510001
 21
61.9731336607
 31
0.0
  0
LINE
  5
376
330
238
100
AcDbEntity
  8
0
  6
Continuous
 62
     7
100
AcDbLine
 10
23.1463993366
 20
63.30646699399999
 30
0.0
 11
42.4416590492
 21
63.30646699399999
 31
0.0
  0
LINE
  5
377
330
238
100
AcDbEntity
  8
0
  6
Continuous
 62
     7
100
AcDbLine
 10
69.47025209510001
 20
63.30646699399999
 30
0.0
 11
50.1749923825
 21
63.30646699399999
 31
0.0
  0
INSERT
  5
378
330
238
100
AcDbEntity
  8
0
  6
Continuous
 62
     7
100
AcDbBlockReference
  2
_FILLED
 10
23.1463993366
 20
63.30646699399999
 30
0.0
 41
2.0
 42
2.0
 43
2.0
 50
180.0
  0
INSERT
  5
379
330
238
100
AcDbEntity
  8
0
  6
Continuous
 62
     7
100
AcDbBlockReference
  2
_FILLED
 10
69.47025209510001
 20
63.30646699399999
 30
0.0
 41
2.0
 42
2.0
 43
2.0
  0
ENDBLK
  5
37A
330
238
100
AcDbEntity
  8
0
  6
ByBlock
 62
     0
100
AcDbBlockEnd
  0
BLOCK
  5
37B
330
239
100
AcDbEntity
  8
0
  6
Continuous
 62
     7
100
AcDbBlockBegin
  2
*D5
 70
     1
 10
0.0
 20
0.0
 30
0.0
  3
*D5
  1

  0
TEXT
  5
37C
330
239
100
AcDbEntity
  8
0
  6
Continuous
 62
     7
100
AcDbText
 10
97.3930445975
 20
62.70697489239999
 30
0.0
 40
1.333333333299999
  1
3-7/8
 41
0.857142857158929
 72
     5
 11
102.7263779308
 21
62.70697489239999
 31
0.0
100
AcDbText
  0
TEXT
  5
37D
330
239
100
AcDbEntity
  8
0
  6
Continuous
 62
     7
100
AcDbText
 10
97.3930445975
 20
60.7069748924
 30
0.0
 40
1.333333333299999
  1
[
 41
2.399999999909999
 72
     5
 11
98.45971126409999
 21
60.7069748924
 31
0.0
100
AcDbText
  0
TEXT
  5
37E
330
239
100
AcDbEntity
  8
0
  6
Continuous
 62
     7
100
AcDbText
 10
98.45971126409999
 20
60.7069748924
 30
0.0
 40
1.333333333299999
  1
10
 41
1.371428571505715
 72
     5
 11
100.5930445975
 21
60.7069748924
 31
0.0
100
AcDbText
  0
TEXT
  5
37F
330
239
100
AcDbEntity
  8
0
  6
Continuous
 62
     7
100
AcDbText
 10
100.5930445975
 20
60.7069748924
 30
0.0
 40
1.333333333299999
  1
]
 41
2.399999999909999
 72
     5
 11
101.6597112641
 21
60.7069748924
 31
0.0
100
AcDbText
  0
LINE
  5
380
330
239
100
AcDbEntity
  8
0
  6
Continuous
 62
     7
100
AcDbLine
 10
78.5301950834
 20
71.4152931271
 30
0.0
 11
96.0597112641
 21
71.4152931271
 31
0.0
  0
LINE
  5
381
330
239
100
AcDbEntity
  8
0
  6
Continuous
 62
     7
100
AcDbLine
 10
78.44925930859999
 20
67.566408787
 30
0.0
 11
96.0597112641
 21
67.566408787
 31
0.0
  0
LINE
  5
382
330
239
100
AcDbEntity
  8
0
  6
Continuous
 62
     7
100
AcDbLine
 10
94.7263779308
 20
71.4152931271
 30
0.0
 11
94.7263779308
 21
76.74862646040001
 31
0.0
  0
LINE
  5
383
330
239
100
AcDbEntity
  8
0
  6
Continuous
 62
     7
100
AcDbLine
 10
94.7263779308
 20
67.566408787
 30
0.0
 11
94.7263779308
 21
63.3736415591
 31
0.0
  0
LINE
  5
384
330
239
100
AcDbEntity
  8
0
  6
Continuous
 62
     7
100
AcDbLine
 10
94.7263779308
 20
63.3736415591
 30
0.0
 11
96.72637793079999
 21
63.3736415591
 31
0.0
  0
INSERT
  5
385
330
239
100
AcDbEntity
  8
0
  6
Continuous
 62
     7
100
AcDbBlockReference
  2
_FILLED
 10
94.7263779308
 20
71.4152931271
 30
0.0
 41
2.0
 42
2.0
 43
2.0
 50
270.0
  0
INSERT
  5
386
330
239
100
AcDbEntity
  8
0
  6
Continuous
 62
     7
100
AcDbBlockReference
  2
_FILLED
 10
94.7263779308
 20
67.566408787
 30
0.0
 41
2.0
 42
2.0
 43
2.0
 50
90.0
  0
ENDBLK
  5
387
330
239
100
AcDbEntity
  8
0
  6
ByBlock
 62
     0
100
AcDbBlockEnd
  0
BLOCK
  5
388
330
23A
100
AcDbEntity
  8
0
  6
Continuous
 62
     7
100
AcDbBlockBegin
  2
*D6
 70
     1
 10
0.0
 20
0.0
 30
0.0
  3
*D6
  1

  0
TEXT
  5
389
330
23A
100
AcDbEntity
  8
0
  6
Continuous
 62
     7
100
AcDbText
 10
84.40875459029999
 20
60.2193805896
 30
0.0
 40
1.333333333299999
  1
4-3/8
 41
0.8571428571750029
 72
     5
 11
89.74208792370001
 21
60.2193805896
 31
0.0
100
AcDbText
  0
TEXT
  5
38A
330
23A
100
AcDbEntity
  8
0
  6
Continuous
 62
     7
100
AcDbText
 10
84.40875459029999
 20
58.2193805896
 30
0.0
 40
1.333333333299999
  1
[
 41
2.400000000135003
 72
     5
 11
85.47542125699999
 21
58.2193805896
 31
0.0
100
AcDbText
  0
TEXT
  5
38B
330
23A
100
AcDbEntity
  8
0
  6
Continuous
 62
     7
100
AcDbText
 10
85.47542125699999
 20
58.2193805896
 30
0.0
 40
1.333333333299999
  1
11
 41
1.600000000015011
 72
     5
 11
87.60875459030001
 21
58.2193805896
 31
0.0
100
AcDbText
  0
TEXT
  5
38C
330
23A
100
AcDbEntity
  8
0
  6
Continuous
 62
     7
100
AcDbText
 10
87.60875459030001
 20
58.2193805896
 30
0.0
 40
1.333333333299999
  1
]
 41
2.400000000135003
 72
     5
 11
88.67542125700001
 21
58.2193805896
 31
0.0
100
AcDbText
  0
LINE
  5
38D
330
23A
100
AcDbEntity
  8
0
  6
Continuous
 62
     7
100
AcDbLine
 10
77.9172917376
 20
66.6539351599
 30
0.0
 11
77.9172917376
 21
59.5527139229
 31
0.0
  0
LINE
  5
38E
330
23A
100
AcDbEntity
  8
0
  6
Continuous
 62
     7
100
AcDbLine
 10
73.5647160365
 20
66.6539351599
 30
0.0
 11
73.5647160365
 21
59.5527139229
 31
0.0
  0
LINE
  5
38F
330
23A
100
AcDbEntity
  8
0
  6
Continuous
 62
     7
100
AcDbLine
 10
77.9172917376
 20
60.8860472562
 30
0.0
 11
83.7420879237
 21
60.8860472562
 31
0.0
  0
LINE
  5
390
330
23A
100
AcDbEntity
  8
0
  6
Continuous
 62
     7
100
AcDbLine
 10
73.5647160365
 20
60.8860472562
 30
0.0
 11
68.23138270310001
 21
60.8860472562
 31
0.0
  0
INSERT
  5
391
330
23A
100
AcDbEntity
  8
0
  6
Continuous
 62
     7
100
AcDbBlockReference
  2
_FILLED
 10
77.9172917376
 20
60.8860472562
 30
0.0
 41
2.0
 42
2.0
 43
2.0
 50
180.0
  0
INSERT
  5
392
330
23A
100
AcDbEntity
  8
0
  6
Continuous
 62
     7
100
AcDbBlockReference
  2
_FILLED
 10
73.5647160365
 20
60.8860472562
 30
0.0
 41
2.0
 42
2.0
 43
2.0
  0
ENDBLK
  5
393
330
23A
100
AcDbEntity
  8
0
  6
ByBlock
 62
     0
100
AcDbBlockEnd
  0
BLOCK
  5
394
330
23B
100
AcDbEntity
  8
0
  6
Continuous
 62
     7
100
AcDbBlockBegin
  2
*D7
 70
     1
 10
0.0
 20
0.0
 30
0.0
  3
*D7
  1

  0
TEXT
  5
395
330
23B
100
AcDbEntity
  8
0
  6
Continuous
 62
     7
100
AcDbText
 10
6.746900588399999
 20
60.3742713025
 30
0.0
 40
1.333333333299999
  1
3-3/16
 41
0.9000000000224998
 72
     5
 11
13.1469005884
 21
60.3742713025
 31
0.0
100
AcDbText
  0
TEXT
  5
396
330
23B
100
AcDbEntity
  8
0
  6
Continuous
 62
     7
100
AcDbText
 10
6.746900588399999
 20
58.3742713025
 30
0.0
 40
1.333333333299999
  1
[
 41
2.399999999909999
 72
     5
 11
7.813567254999999
 21
58.3742713025
 31
0.0
100
AcDbText
  0
TEXT
  5
397
330
23B
100
AcDbEntity
  8
0
  6
Continuous
 62
     7
100
AcDbText
 10
7.813567254999999
 20
58.3742713025
 30
0.0
 40
1.333333333299999
  1
8
 41
1.2000000000675
 72
     5
 11
8.8802339217
 21
58.3742713025
 31
0.0
100
AcDbText
  0
TEXT
  5
398
330
23B
100
AcDbEntity
  8
0
  6
Continuous
 62
     7
100
AcDbText
 10
8.8802339217
 20
58.3742713025
 30
0.0
 40
1.333333333299999
  1
]
 41
2.400000000134999
 72
     5
 11
9.9469005884
 21
58.3742713025
 31
0.0
100
AcDbText
  0
LINE
  5
399
330
23B
100
AcDbEntity
  8
0
  6
Continuous
 62
     7
100
AcDbLine
 10
21.0778455432
 20
67.01866738380001
 30
0.0
 11
21.0778455432
 21
59.7076046358
 31
0.0
  0
LINE
  5
39A
330
23B
100
AcDbEntity
  8
0
  6
Continuous
 62
     7
100
AcDbLine
 10
17.9172917376
 20
66.72688160469999
 30
0.0
 11
17.9172917376
 21
59.7076046358
 31
0.0
  0
LINE
  5
39B
330
23B
100
AcDbEntity
  8
0
  6
Continuous
 62
     7
100
AcDbLine
 10
21.0778455432
 20
61.0409379692
 30
0.0
 11
26.4111788765
 21
61.0409379692
 31
0.0
  0
LINE
  5
39C
330
23B
100
AcDbEntity
  8
0
  6
Continuous
 62
     7
100
AcDbLine
 10
17.9172917376
 20
61.0409379692
 30
0.0
 11
13.813567255
 21
61.0409379692
 31
0.0
  0
INSERT
  5
39D
330
23B
100
AcDbEntity
  8
0
  6
Continuous
 62
     7
100
AcDbBlockReference
  2
_FILLED
 10
21.0778455432
 20
61.0409379692
 30
0.0
 41
2.0
 42
2.0
 43
2.0
 50
180.0
  0
INSERT
  5
39E
330
23B
100
AcDbEntity
  8
0
  6
Continuous
 62
     7
100
AcDbBlockReference
  2
_FILLED
 10
17.9172917376
 20
61.0409379692
 30
0.0
 41
2.0
 42
2.0
 43
2.0
  0
ENDBLK
  5
39F
330
23B
100
AcDbEntity
  8
0
  6
ByBlock
 62
     0
100
AcDbBlockEnd
  0
BLOCK
  5
3A0
330
23C
100
AcDbEntity
  8
0
  6
Continuous
 62
     7
100
AcDbBlockBegin
  2
*D8
 70
     1
 10
0.0
 20
0.0
 30
0.0
  3
*D8
  1

  0
TEXT
  5
3A1
330
23C
100
AcDbEntity
  8
0
  6
Continuous
 62
     7
100
AcDbText
 10
96.37166483760001
 20
102.3490387835
 30
0.0
 40
1.333333333299999
  1
2
 41
1.200000000067501
 72
     5
 11
97.43833150430001
 21
102.3490387835
 31
0.0
100
AcDbText
  0
TEXT
  5
3A2
330
23C
100
AcDbEntity
  8
0
  6
Continuous
 62
     7
100
AcDbText
 10
96.37166483760001
 20
100.3490387835
 30
0.0
 40
1.333333333299999
  1
[
 41
2.400000000135003
 72
     5
 11
97.43833150430001
 21
100.3490387835
 31
0.0
100
AcDbText
  0
TEXT
  5
3A3
330
23C
100
AcDbEntity
  8
0
  6
Continuous
 62
     7
100
AcDbText
 10
97.43833150430001
 20
100.3490387835
 30
0.0
 40
1.333333333299999
  1
5
 41
1.200000000067485
 72
     5
 11
98.50499817100001
 21
100.3490387835
 31
0.0
100
AcDbText
  0
TEXT
  5
3A4
330
23C
100
AcDbEntity
  8
0
  6
Continuous
 62
     7
100
AcDbText
 10
98.50499817100001
 20
100.3490387835
 30
0.0
 40
1.333333333299999
  1
]
 41
2.399999999909999
 72
     5
 11
99.5716648376
 21
100.3490387835
 31
0.0
100
AcDbText
  0
LINE
  5
3A5
330
23C
100
AcDbEntity
  8
0
  6
Continuous
 62
     7
100
AcDbLine
 10
78.3683235338
 20
97.56640878700002
 30
0.0
 11
95.03833150430001
 21
97.56640878700002
 31
0.0
  0
LINE
  5
3A6
330
23C
100
AcDbEntity
  8
0
  6
Continuous
 62
     7
100
AcDbLine
 10
78.5301950834
 20
95.530024447
 30
0.0
 11
95.03833150430001
 21
95.530024447
 31
0.0
  0
LINE
  5
3A7
330
23C
100
AcDbEntity
  8
0
  6
Continuous
 62
     7
100
AcDbLine
 10
93.704998171
 20
97.56640878700002
 30
0.0
 11
93.704998171
 21
103.0157054502
 31
0.0
  0
LINE
  5
3A8
330
23C
100
AcDbEntity
  8
0
  6
Continuous
 62
     7
100
AcDbLine
 10
93.704998171
 20
103.0157054502
 30
0.0
 11
95.70499817099999
 21
103.0157054502
 31
0.0
  0
LINE
  5
3A9
330
23C
100
AcDbEntity
  8
0
  6
Continuous
 62
     7
100
AcDbLine
 10
93.704998171
 20
95.530024447
 30
0.0
 11
93.704998171
 21
90.1966911136
 31
0.0
  0
INSERT
  5
3AA
330
23C
100
AcDbEntity
  8
0
  6
Continuous
 62
     7
100
AcDbBlockReference
  2
_FILLED
 10
93.704998171
 20
97.56640878700002
 30
0.0
 41
2.0
 42
2.0
 43
2.0
 50
270.0
  0
INSERT
  5
3AB
330
23C
100
AcDbEntity
  8
0
  6
Continuous
 62
     7
100
AcDbBlockReference
  2
_FILLED
 10
93.704998171
 20
95.530024447
 30
0.0
 41
2.0
 42
2.0
 43
2.0
 50
90.0
  0
ENDBLK
  5
3AC
330
23C
100
AcDbEntity
  8
0
  6
ByBlock
 62
     0
100
AcDbBlockEnd
  0
BLOCK
  5
3AD
330
23D
100
AcDbEntity
  8
0
  6
Continuous
 62
     7
100
AcDbBlockBegin
  2
*D9
 70
     1
 10
0.0
 20
0.0
 30
0.0
  3
*D9
  1

  0
TEXT
  5
3AE
330
23D
100
AcDbEntity
  8
0
  6
Continuous
 62
     7
100
AcDbText
 10
30.0083303511
 20
102.9184201397
 30
0.0
 40
1.333333333299999
  1
10-3/8
 41
0.9290322580877418
 72
     5
 11
36.4083303511
 21
102.9184201397
 31
0.0
100
AcDbText
  0
TEXT
  5
3AF
330
23D
100
AcDbEntity
  8
0
  6
Continuous
 62
     7
100
AcDbText
 10
30.0083303511
 20
100.9184201397
 30
0.0
 40
1.333333333299999
  1
[
 41
2.399999999909999
 72
     5
 11
31.0749970177
 21
100.9184201397
 31
0.0
100
AcDbText
  0
TEXT
  5
3B0
330
23D
100
AcDbEntity
  8
0
  6
Continuous
 62
     7
100
AcDbText
 10
31.0749970177
 20
100.9184201397
 30
0.0
 40
1.333333333299999
  1
26
 41
0.9600000000540013
 72
     5
 11
33.20833035110001
 21
100.9184201397
 31
0.0
100
AcDbText
  0
TEXT
  5
3B1
330
23D
100
AcDbEntity
  8
0
  6
Continuous
 62
     7
100
AcDbText
 10
33.20833035110001
 20
100.9184201397
 30
0.0
 40
1.333333333299999
  1
]
 41
2.399999999909999
 72
     5
 11
34.2749970177
 21
100.9184201397
 31
0.0
100
AcDbText
  0
LINE
  5
3B2
330
23D
100
AcDbEntity
  8
0
  6
Continuous
 62
     7
100
AcDbLine
 10
28.2618083425
 20
99.08061657020001
 30
0.0
 11
28.2618083425
 21
104.9184201397
 31
0.0
  0
LINE
  5
3B3
330
23D
100
AcDbEntity
  8
0
  6
Continuous
 62
     7
100
AcDbLine
 10
17.9172917376
 20
98.71707666430001
 30
0.0
 11
17.9172917376
 21
104.9184201397
 31
0.0
  0
LINE
  5
3B4
330
23D
100
AcDbEntity
  8
0
  6
Continuous
 62
     7
100
AcDbLine
 10
28.2618083425
 20
103.5850868063
 30
0.0
 11
23.0895500401
 21
103.5850868063
 31
0.0
  0
LINE
  5
3B5
330
23D
100
AcDbEntity
  8
0
  6
Continuous
 62
     7
100
AcDbLine
 10
23.0895500401
 20
103.5850868063
 30
0.0
 11
29.3416636844
 21
103.5850868063
 31
0.0
  0
LINE
  5
3B6
330
23D
100
AcDbEntity
  8
0
  6
Continuous
 62
     7
100
AcDbLine
 10
17.9172917376
 20
103.5850868063
 30
0.0
 11
23.0895500401
 21
103.5850868063
 31
0.0
  0
INSERT
  5
3B7
330
23D
100
AcDbEntity
  8
0
  6
Continuous
 62
     7
100
AcDbBlockReference
  2
_FILLED
 10
28.2618083425
 20
103.5850868063
 30
0.0
 41
2.0
 42
2.0
 43
2.0
  0
INSERT
  5
3B8
330
23D
100
AcDbEntity
  8
0
  6
Continuous
 62
     7
100
AcDbBlockReference
  2
_FILLED
 10
17.9172917376
 20
103.5850868063
 30
0.0
 41
2.0
 42
2.0
 43
2.0
 50
180.0
  0
ENDBLK
  5
3B9
330
23D
100
AcDbEntity
  8
0
  6
ByBlock
 62
     0
100
AcDbBlockEnd
  0
BLOCK
  5
3BA
330
23E
100
AcDbEntity
  8
0
  6
Continuous
 62
     7
100
AcDbBlockBegin
  2
*D10
 70
     1
 10
0.0
 20
0.0
 30
0.0
  3
*D10
  1

  0
TEXT
  5
3BB
330
23E
100
AcDbEntity
  8
0
  6
Continuous
 62
     7
100
AcDbText
 10
47.17316511729999
 20
30.6416362218
 30
0.0
 40
1.333333333299999
  1
1
 41
2.400000000135003
 72
     5
 11
48.23983178399999
 21
30.6416362218
 31
0.0
100
AcDbText
  0
TEXT
  5
3BC
330
23E
100
AcDbEntity
  8
0
  6
Continuous
 62
     7
100
AcDbText
 10
48.23983178399999
 20
30.6416362218
 30
0.0
 40
1.333333333299999
  1
~
 41
3.500000000131272
  7
TEXTSTYLE_1
 72
     5
 11
49.1287206729
 21
30.6416362218
 31
0.0
100
AcDbText
  0
ARC
  5
3BD
330
23E
100
AcDbEntity
  8
0
  6
Continuous
 62
     7
100
AcDbCircle
 10
-63.3374802077
 20
24.6846778802
 30
0.0
 40
115.3232396263
100
AcDbArc
 50
357.3502522846
 51
360.0
  0
ARC
  5
3BE
330
23E
100
AcDbEntity
  8
0
  6
Continuous
 62
     7
100
AcDbCircle
 10
-63.3374802077
 20
24.6846778802
 30
0.0
 40
115.3232396263
100
AcDbArc
 50
1.250810461299999
 51
3.292612337099999
  0
SOLID
  5
3BF
330
23E
100
AcDbEntity
  8
0
  6
Continuous
 62
     7
100
AcDbTrace
 10
52.3017378792
 20
22.6818626806
 30
0.0
 11
51.98575941859999
 21
24.6846778802
 31
0.0
 12
51.63509627609999
 22
22.6876434609
 32
0.0
 13
51.63509627609999
 23
22.6876434609
 33
0.0
  0
SOLID
  5
3C0
330
23E
100
AcDbEntity
  8
0
  6
Continuous
 62
     7
100
AcDbTrace
 10
51.564107109
 20
29.1909759059
 30
0.0
 11
51.958280013
 21
27.20207197840001
 31
0.0
 12
52.2304636749
 22
29.2113074463
 32
0.0
 13
52.2304636749
 23
29.2113074463
 33
0.0
  0
ENDBLK
  5
3C1
330
23E
100
AcDbEntity
  8
0
  6
ByBlock
 62
     0
100
AcDbBlockEnd
  0
BLOCK
  5
3C2
330
23F
100
AcDbEntity
  8
0
  6
Continuous
 62
     7
100
AcDbBlockBegin
  2
*D11
 70
     1
 10
0.0
 20
0.0
 30
0.0
  3
*D11
  1

  0
TEXT
  5
3C3
330
23F
100
AcDbEntity
  8
0
  6
Continuous
 62
     7
100
AcDbText
 10
87.9844966361
 20
82.8059921204
 30
0.0
 40
1.333333333299999
  1
20-1/2
 41
0.9290322580877425
 72
     5
 11
94.38449663610001
 21
82.8059921204
 31
0.0
100
AcDbText
  0
TEXT
  5
3C4
330
23F
100
AcDbEntity
  8
0
  6
Continuous
 62
     7
100
AcDbText
 10
87.9844966361
 20
80.8059921204
 30
0.0
 40
1.333333333299999
  1
[
 41
2.400000000135003
 72
     5
 11
89.0511633028
 21
80.8059921204
 31
0.0
100
AcDbText
  0
TEXT
  5
3C5
330
23F
100
AcDbEntity
  8
0
  6
Continuous
 62
     7
100
AcDbText
 10
89.0511633028
 20
80.8059921204
 30
0.0
 40
1.333333333299999
  1
52
 41
0.9600000000090007
 72
     5
 11
91.1844966361
 21
80.8059921204
 31
0.0
100
AcDbText
  0
TEXT
  5
3C6
330
23F
100
AcDbEntity
  8
0
  6
Continuous
 62
     7
100
AcDbText
 10
91.1844966361
 20
80.8059921204
 30
0.0
 40
1.333333333299999
  1
]
 41
2.400000000135003
 72
     5
 11
92.2511633028
 21
80.8059921204
 31
0.0
100
AcDbText
  0
LINE
  5
3C7
330
23F
100
AcDbEntity
  8
0
  6
Continuous
 62
     7
100
AcDbLine
 10
78.8539381827
 20
93.70331248579999
 30
0.0
 11
92.51782996950002
 21
93.70331248579999
 31
0.0
  0
LINE
  5
3C8
330
23F
100
AcDbEntity
  8
0
  6
Continuous
 62
     7
100
AcDbLine
 10
78.69206663299999
 20
73.2420050883
 30
0.0
 11
92.51782996950002
 21
73.2420050883
 31
0.0
  0
LINE
  5
3C9
330
23F
100
AcDbEntity
  8
0
  6
Continuous
 62
     7
100
AcDbLine
 10
91.1844966361
 20
93.70331248579999
 30
0.0
 11
91.1844966361
 21
84.80599212040001
 31
0.0
  0
LINE
  5
3CA
330
23F
100
AcDbEntity
  8
0
  6
Continuous
 62
     7
100
AcDbLine
 10
91.1844966361
 20
73.2420050883
 30
0.0
 11
91.1844966361
 21
80.1393254537
 31
0.0
  0
INSERT
  5
3CB
330
23F
100
AcDbEntity
  8
0
  6
Continuous
 62
     7
100
AcDbBlockReference
  2
_FILLED
 10
91.1844966361
 20
93.70331248579999
 30
0.0
 41
2.0
 42
2.0
 43
2.0
 50
90.0
  0
INSERT
  5
3CC
330
23F
100
AcDbEntity
  8
0
  6
Continuous
 62
     7
100
AcDbBlockReference
  2
_FILLED
 10
91.1844966361
 20
73.2420050883
 30
0.0
 41
2.0
 42
2.0
 43
2.0
 50
270.0
  0
ENDBLK
  5
3CD
330
23F
100
AcDbEntity
  8
0
  6
ByBlock
 62
     0
100
AcDbBlockEnd
  0
BLOCK
  5
3CE
330
240
100
AcDbEntity
  8
0
  6
Continuous
 62
     7
100
AcDbBlockBegin
  2
*D12
 70
     1
 10
0.0
 20
0.0
 30
0.0
  3
*D12
  1

  0
TEXT
  5
3CF
330
240
100
AcDbEntity
  8
0
  6
Continuous
 62
     7
100
AcDbText
 10
8.5849841267
 20
90.961890421
 30
0.0
 40
1.333333333299999
  1
14-1/8
 41
0.9600000000239997
 72
     5
 11
14.9849841267
 21
90.961890421
 31
0.0
100
AcDbText
  0
TEXT
  5
3D0
330
240
100
AcDbEntity
  8
0
  6
Continuous
 62
     7
100
AcDbText
 10
8.5849841267
 20
88.96189042100001
 30
0.0
 40
1.333333333299999
  1
[
 41
2.399999999909999
 72
     5
 11
9.651650793299999
 21
88.96189042100001
 31
0.0
100
AcDbText
  0
TEXT
  5
3D1
330
240
100
AcDbEntity
  8
0
  6
Continuous
 62
     7
100
AcDbText
 10
9.651650793299999
 20
88.96189042100001
 30
0.0
 40
1.333333333299999
  1
36
 41
0.9600000000540005
 72
     5
 11
11.7849841267
 21
88.96189042100001
 31
0.0
100
AcDbText
  0
TEXT
  5
3D2
330
240
100
AcDbEntity
  8
0
  6
Continuous
 62
     7
100
AcDbText
 10
11.7849841267
 20
88.96189042100001
 30
0.0
 40
1.333333333299999
  1
]
 41
2.399999999909995
 72
     5
 11
12.8516507933
 21
88.96189042100001
 31
0.0
100
AcDbText
  0
LINE
  5
3D3
330
240
100
AcDbEntity
  8
0
  6
Continuous
 62
     7
100
AcDbLine
 10
17.250625071
 20
97.56640878700002
 30
0.0
 11
10.4516507933
 21
97.56640878700002
 31
0.0
  0
LINE
  5
3D4
330
240
100
AcDbEntity
  8
0
  6
Continuous
 62
     7
100
AcDbLine
 10
15.3765652756
 20
83.472658787
 30
0.0
 11
10.4516507933
 21
83.472658787
 31
0.0
  0
LINE
  5
3D5
330
240
100
AcDbEntity
  8
0
  6
Continuous
 62
     7
100
AcDbLine
 10
11.7849841267
 20
97.56640878700002
 30
0.0
 11
11.7849841267
 21
92.96189042100001
 31
0.0
  0
LINE
  5
3D6
330
240
100
AcDbEntity
  8
0
  6
Continuous
 62
     7
100
AcDbLine
 10
11.7849841267
 20
83.472658787
 30
0.0
 11
11.7849841267
 21
88.2952237543
 31
0.0
  0
INSERT
  5
3D7
330
240
100
AcDbEntity
  8
0
  6
Continuous
 62
     7
100
AcDbBlockReference
  2
_FILLED
 10
11.7849841267
 20
97.56640878700002
 30
0.0
 41
2.0
 42
2.0
 43
2.0
 50
90.0
  0
INSERT
  5
3D8
330
240
100
AcDbEntity
  8
0
  6
Continuous
 62
     7
100
AcDbBlockReference
  2
_FILLED
 10
11.7849841267
 20
83.472658787
 30
0.0
 41
2.0
 42
2.0
 43
2.0
 50
270.0
  0
ENDBLK
  5
3D9
330
240
100
AcDbEntity
  8
0
  6
ByBlock
 62
     0
100
AcDbBlockEnd
  0
BLOCK
  5
3DA
330
241
100
AcDbEntity
  8
0
  6
Continuous
 62
     7
100
AcDbBlockBegin
  2
*D13
 70
     1
 10
0.0
 20
0.0
 30
0.0
  3
*D13
  1

  0
TEXT
  5
3DB
330
241
100
AcDbEntity
  8
0
  6
Continuous
 62
     7
100
AcDbText
 10
8.5682010725
 20
74.8528671204
 30
0.0
 40
1.333333333299999
  1
15-7/8
 41
0.9000000000224995
 72
     5
 11
14.9682010725
 21
74.8528671204
 31
0.0
100
AcDbText
  0
TEXT
  5
3DC
330
241
100
AcDbEntity
  8
0
  6
Continuous
 62
     7
100
AcDbText
 10
8.5682010725
 20
72.85286712040001
 30
0.0
 40
1.333333333299999
  1
[
 41
2.399999999909995
 72
     5
 11
9.634867739099998
 21
72.85286712040001
 31
0.0
100
AcDbText
  0
TEXT
  5
3DD
330
241
100
AcDbEntity
  8
0
  6
Continuous
 62
     7
100
AcDbText
 10
9.634867739099998
 20
72.85286712040001
 30
0.0
 40
1.333333333299999
  1
40
 41
1.066666666726667
 72
     5
 11
11.7682010725
 21
72.85286712040001
 31
0.0
100
AcDbText
  0
TEXT
  5
3DE
330
241
100
AcDbEntity
  8
0
  6
Continuous
 62
     7
100
AcDbText
 10
11.7682010725
 20
72.85286712040001
 30
0.0
 40
1.333333333299999
  1
]
 41
2.399999999910003
 72
     5
 11
12.8348677391
 21
72.85286712040001
 31
0.0
100
AcDbText
  0
LINE
  5
3DF
330
241
100
AcDbEntity
  8
0
  6
Continuous
 62
     7
100
AcDbLine
 10
16.4425220859
 20
83.472658787
 30
0.0
 11
10.4348677391
 21
83.472658787
 31
0.0
  0
LINE
  5
3E0
330
241
100
AcDbEntity
  8
0
  6
Continuous
 62
     7
100
AcDbLine
 10
47.250625071
 20
67.566408787
 30
0.0
 11
10.4348677391
 21
67.566408787
 31
0.0
  0
LINE
  5
3E1
330
241
100
AcDbEntity
  8
0
  6
Continuous
 62
     7
100
AcDbLine
 10
11.7682010725
 20
83.472658787
 30
0.0
 11
11.7682010725
 21
76.8528671204
 31
0.0
  0
LINE
  5
3E2
330
241
100
AcDbEntity
  8
0
  6
Continuous
 62
     7
100
AcDbLine
 10
11.7682010725
 20
67.566408787
 30
0.0
 11
11.7682010725
 21
72.18620045369999
 31
0.0
  0
INSERT
  5
3E3
330
241
100
AcDbEntity
  8
0
  6
Continuous
 62
     7
100
AcDbBlockReference
  2
_FILLED
 10
11.7682010725
 20
83.472658787
 30
0.0
 41
2.0
 42
2.0
 43
2.0
 50
90.0
  0
INSERT
  5
3E4
330
241
100
AcDbEntity
  8
0
  6
Continuous
 62
     7
100
AcDbBlockReference
  2
_FILLED
 10
11.7682010725
 20
67.566408787
 30
0.0
 41
2.0
 42
2.0
 43
2.0
 50
270.0
  0
ENDBLK
  5
3E5
330
241
100
AcDbEntity
  8
0
  6
ByBlock
 62
     0
100
AcDbBlockEnd
  0
BLOCK
  5
3E6
330
242
100
AcDbEntity
  8
0
  6
Continuous
 62
     7
100
AcDbBlockBegin
  2
*D14
 70
     1
 10
0.0
 20
0.0
 30
0.0
  3
*D14
  1

  0
TEXT
  5
3E7
330
242
100
AcDbEntity
  8
0
  6
Continuous
 62
     7
100
AcDbText
 10
133.1374966553
 20
22.0053613945
 30
0.0
 40
1.333333333299999
  1
13
 41
1.200000000011258
 72
     5
 11
135.2708299886
 21
22.0053613945
 31
0.0
100
AcDbText
  0
TEXT
  5
3E8
330
242
100
AcDbEntity
  8
0
  6
Continuous
 62
     7
100
AcDbText
 10
133.1374966553
 20
20.0053613945
 30
0.0
 40
1.333333333299999
  1
[
 41
2.399999999910031
 72
     5
 11
134.2041633219
 21
20.0053613945
 31
0.0
100
AcDbText
  0
TEXT
  5
3E9
330
242
100
AcDbEntity
  8
0
  6
Continuous
 62
     7
100
AcDbText
 10
134.2041633219
 20
20.0053613945
 30
0.0
 40
1.333333333299999
  1
33
 41
0.9600000000540015
 72
     5
 11
136.3374966553
 21
20.0053613945
 31
0.0
100
AcDbText
  0
TEXT
  5
3EA
330
242
100
AcDbEntity
  8
0
  6
Continuous
 62
     7
100
AcDbText
 10
136.3374966553
 20
20.0053613945
 30
0.0
 40
1.333333333299999
  1
]
 41
2.399999999909967
 72
     5
 11
137.4041633219
 21
20.0053613945
 31
0.0
100
AcDbText
  0
LINE
  5
3EB
330
242
100
AcDbEntity
  8
0
  6
Continuous
 62
     7
100
AcDbLine
 10
118.5213420427
 20
26.1846778802
 30
0.0
 11
131.8041633219
 21
26.1846778802
 31
0.0
  0
LINE
  5
3EC
330
242
100
AcDbEntity
  8
0
  6
Continuous
 62
     7
100
AcDbLine
 10
121.2557136151
 20
39.1846778802
 30
0.0
 11
131.8041633219
 21
39.1846778802
 31
0.0
  0
LINE
  5
3ED
330
242
100
AcDbEntity
  8
0
  6
Continuous
 62
     7
100
AcDbLine
 10
130.4708299886
 20
26.1846778802
 30
0.0
 11
130.4708299886
 21
32.6846778802
 31
0.0
  0
LINE
  5
3EE
330
242
100
AcDbEntity
  8
0
  6
Continuous
 62
     7
100
AcDbLine
 10
130.4708299886
 20
32.6846778802
 30
0.0
 11
130.4708299886
 21
22.6720280612
 31
0.0
  0
LINE
  5
3EF
330
242
100
AcDbEntity
  8
0
  6
Continuous
 62
     7
100
AcDbLine
 10
130.4708299886
 20
22.6720280612
 30
0.0
 11
132.4708299886
 21
22.6720280612
 31
0.0
  0
LINE
  5
3F0
330
242
100
AcDbEntity
  8
0
  6
Continuous
 62
     7
100
AcDbLine
 10
130.4708299886
 20
39.1846778802
 30
0.0
 11
130.4708299886
 21
32.6846778802
 31
0.0
  0
INSERT
  5
3F1
330
242
100
AcDbEntity
  8
0
  6
Continuous
 62
     7
100
AcDbBlockReference
  2
_FILLED
 10
130.4708299886
 20
26.1846778802
 30
0.0
 41
2.0
 42
2.0
 43
2.0
 50
270.0
  0
INSERT
  5
3F2
330
242
100
AcDbEntity
  8
0
  6
Continuous
 62
     7
100
AcDbBlockReference
  2
_FILLED
 10
130.4708299886
 20
39.1846778802
 30
0.0
 41
2.0
 42
2.0
 43
2.0
 50
90.0
  0
ENDBLK
  5
3F3
330
242
100
AcDbEntity
  8
0
  6
ByBlock
 62
     0
100
AcDbBlockEnd
  0
BLOCK
  5
3F4
330
243
100
AcDbEntity
  8
0
  6
Continuous
 62
     7
100
AcDbBlockBegin
  2
*D15
 70
     1
 10
0.0
 20
0.0
 30
0.0
  3
*D15
  1

  0
TEXT
  5
3F5
330
243
100
AcDbEntity
  8
0
  6
Continuous
 62
     7
100
AcDbText
 10
135.7005372317
 20
34.9040216852
 30
0.0
 40
1.333333333299999
  1
15
 41
1.200000000067501
 72
     5
 11
137.8338705651
 21
34.9040216852
 31
0.0
100
AcDbText
  0
TEXT
  5
3F6
330
243
100
AcDbEntity
  8
0
  6
Continuous
 62
     7
100
AcDbText
 10
135.7005372317
 20
32.9040216852
 30
0.0
 40
1.333333333299999
  1
[
 41
2.400000000135003
 72
     5
 11
136.7672038984
 21
32.9040216852
 31
0.0
100
AcDbText
  0
TEXT
  5
3F7
330
243
100
AcDbEntity
  8
0
  6
Continuous
 62
     7
100
AcDbText
 10
136.7672038984
 20
32.9040216852
 30
0.0
 40
1.333333333299999
  1
38
 41
0.9600000000090071
 72
     5
 11
138.9005372317
 21
32.9040216852
 31
0.0
100
AcDbText
  0
TEXT
  5
3F8
330
243
100
AcDbEntity
  8
0
  6
Continuous
 62
     7
100
AcDbText
 10
138.9005372317
 20
32.9040216852
 30
0.0
 40
1.333333333299999
  1
]
 41
2.400000000135003
 72
     5
 11
139.9672038984
 21
32.9040216852
 31
0.0
100
AcDbText
  0
LINE
  5
3F9
330
243
100
AcDbEntity
  8
0
  6
Continuous
 62
     7
100
AcDbLine
 10
122.6964066295
 20
41.6846778802
 30
0.0
 11
139.1672038984
 21
41.6846778802
 31
0.0
  0
LINE
  5
3FA
330
243
100
AcDbEntity
  8
0
  6
Continuous
 62
     7
100
AcDbLine
 10
110.8968982664
 20
26.7031335424
 30
0.0
 11
139.1672038984
 21
26.7031335424
 31
0.0
  0
LINE
  5
3FB
330
243
100
AcDbEntity
  8
0
  6
Continuous
 62
     7
100
AcDbLine
 10
137.8338705651
 20
41.6846778802
 30
0.0
 11
137.8338705651
 21
36.9040216852
 31
0.0
  0
LINE
  5
3FC
330
243
100
AcDbEntity
  8
0
  6
Continuous
 62
     7
100
AcDbLine
 10
137.8338705651
 20
26.7031335424
 30
0.0
 11
137.8338705651
 21
32.2373550185
 31
0.0
  0
INSERT
  5
3FD
330
243
100
AcDbEntity
  8
0
  6
Continuous
 62
     7
100
AcDbBlockReference
  2
_FILLED
 10
137.8338705651
 20
41.6846778802
 30
0.0
 41
2.0
 42
2.0
 43
2.0
 50
90.0
  0
INSERT
  5
3FE
330
243
100
AcDbEntity
  8
0
  6
Continuous
 62
     7
100
AcDbBlockReference
  2
_FILLED
 10
137.8338705651
 20
26.7031335424
 30
0.0
 41
2.0
 42
2.0
 43
2.0
 50
270.0
  0
ENDBLK
  5
3FF
330
243
100
AcDbEntity
  8
0
  6
ByBlock
 62
     0
100
AcDbBlockEnd
  0
BLOCK
  5
400
330
244
100
AcDbEntity
  8
0
  6
Continuous
 62
     7
100
AcDbBlockBegin
  2
*D16
 70
     1
 10
0.0
 20
0.0
 30
0.0
  3
*D16
  1

  0
TEXT
  5
401
330
244
100
AcDbEntity
  8
0
  6
Continuous
 62
     7
100
AcDbText
 10
27.0038086109
 20
49.9281955228
 30
0.0
 40
1.333333333299999
  1
5-9/16
 41
0.9000000000224995
 72
     5
 11
33.4038086109
 21
49.9281955228
 31
0.0
100
AcDbText
  0
TEXT
  5
402
330
244
100
AcDbEntity
  8
0
  6
Continuous
 62
     7
100
AcDbText
 10
27.0038086109
 20
47.9281955228
 30
0.0
 40
1.333333333299999
  1
[
 41
2.400000000135003
 72
     5
 11
28.0704752776
 21
47.9281955228
 31
0.0
100
AcDbText
  0
TEXT
  5
403
330
244
100
AcDbEntity
  8
0
  6
Continuous
 62
     7
100
AcDbText
 10
28.0704752776
 20
47.9281955228
 30
0.0
 40
1.333333333299999
  1
14
 41
1.200000000011248
 72
     5
 11
30.2038086109
 21
47.9281955228
 31
0.0
100
AcDbText
  0
TEXT
  5
404
330
244
100
AcDbEntity
  8
0
  6
Continuous
 62
     7
100
AcDbText
 10
30.2038086109
 20
47.9281955228
 30
0.0
 40
1.333333333299999
  1
]
 41
2.400000000135003
 72
     5
 11
31.2704752776
 21
47.9281955228
 31
0.0
100
AcDbText
  0
LINE
  5
405
330
244
100
AcDbEntity
  8
0
  6
Continuous
 62
     7
100
AcDbLine
 10
23.4582908539
 20
43.2681631856
 30
0.0
 11
23.4582908539
 21
51.92819552279999
 31
0.0
  0
LINE
  5
406
330
244
100
AcDbEntity
  8
0
  6
Continuous
 62
     7
100
AcDbLine
 10
17.9172917376
 20
43.21205888149999
 30
0.0
 11
17.9172917376
 21
51.92819552279999
 31
0.0
  0
LINE
  5
407
330
244
100
AcDbEntity
  8
0
  6
Continuous
 62
     7
100
AcDbLine
 10
23.4582908539
 20
50.5948621894
 30
0.0
 11
20.6877912957
 21
50.5948621894
 31
0.0
  0
LINE
  5
408
330
244
100
AcDbEntity
  8
0
  6
Continuous
 62
     7
100
AcDbLine
 10
20.6877912957
 20
50.5948621894
 30
0.0
 11
26.3371419442
 21
50.5948621894
 31
0.0
  0
LINE
  5
409
330
244
100
AcDbEntity
  8
0
  6
Continuous
 62
     7
100
AcDbLine
 10
17.9172917376
 20
50.5948621894
 30
0.0
 11
20.6877912957
 21
50.5948621894
 31
0.0
  0
INSERT
  5
40A
330
244
100
AcDbEntity
  8
0
  6
Continuous
 62
     7
100
AcDbBlockReference
  2
_FILLED
 10
23.4582908539
 20
50.5948621894
 30
0.0
 41
2.0
 42
2.0
 43
2.0
  0
INSERT
  5
40B
330
244
100
AcDbEntity
  8
0
  6
Continuous
 62
     7
100
AcDbBlockReference
  2
_FILLED
 10
17.9172917376
 20
50.5948621894
 30
0.0
 41
2.0
 42
2.0
 43
2.0
 50
180.0
  0
ENDBLK
  5
40C
330
244
100
AcDbEntity
  8
0
  6
ByBlock
 62
     0
100
AcDbBlockEnd
  0
BLOCK
  5
40D
330
245
100
AcDbEntity
  8
0
  6
Continuous
 62
     7
100
AcDbBlockBegin
  2
*D17
 70
     1
 10
0.0
 20
0.0
 30
0.0
  3
*D17
  1

  0
TEXT
  5
40E
330
245
100
AcDbEntity
  8
0
  6
Continuous
 62
     7
100
AcDbText
 10
96.23140316629999
 20
86.08204503610002
 30
0.0
 40
1.333333333299999
  1
30
 41
1.066666666726661
 72
     5
 11
98.36473649969999
 21
86.08204503610002
 31
0.0
100
AcDbText
  0
TEXT
  5
40F
330
245
100
AcDbEntity
  8
0
  6
Continuous
 62
     7
100
AcDbText
 10
96.23140316629999
 20
84.08204503609999
 30
0.0
 40
1.333333333299999
  1
[
 41
2.400000000134971
 72
     5
 11
97.29806983299999
 21
84.08204503609999
 31
0.0
100
AcDbText
  0
TEXT
  5
410
330
245
100
AcDbEntity
  8
0
  6
Continuous
 62
     7
100
AcDbText
 10
97.29806983299999
 20
84.08204503609999
 30
0.0
 40
1.333333333299999
  1
76,2
 41
1.010526315822632
 72
     5
 11
101.5647364997
 21
84.08204503609999
 31
0.0
100
AcDbText
  0
TEXT
  5
411
330
245
100
AcDbEntity
  8
0
  6
Continuous
 62
     7
100
AcDbText
 10
101.5647364997
 20
84.08204503609999
 30
0.0
 40
1.333333333299999
  1
]
 41
2.399999999909999
 72
     5
 11
102.6314031663
 21
84.08204503609999
 31
0.0
100
AcDbText
  0
LINE
  5
412
330
245
100
AcDbEntity
  8
0
  6
Continuous
 62
     7
100
AcDbLine
 10
78.5839584043
 20
97.56640878700002
 30
0.0
 11
100.7647364997
 21
97.56640878700002
 31
0.0
  0
LINE
  5
413
330
245
100
AcDbEntity
  8
0
  6
Continuous
 62
     7
100
AcDbLine
 10
78.5839584043
 20
67.566408787
 30
0.0
 11
100.7647364997
 21
67.566408787
 31
0.0
  0
LINE
  5
414
330
245
100
AcDbEntity
  8
0
  6
Continuous
 62
     7
100
AcDbLine
 10
99.4314031663
 20
97.56640878700002
 30
0.0
 11
99.4314031663
 21
88.08204503610001
 31
0.0
  0
LINE
  5
415
330
245
100
AcDbEntity
  8
0
  6
Continuous
 62
     7
100
AcDbLine
 10
99.4314031663
 20
67.566408787
 30
0.0
 11
99.4314031663
 21
83.41537836950001
 31
0.0
  0
INSERT
  5
416
330
245
100
AcDbEntity
  8
0
  6
Continuous
 62
     7
100
AcDbBlockReference
  2
_FILLED
 10
99.4314031663
 20
97.56640878700002
 30
0.0
 41
2.0
 42
2.0
 43
2.0
 50
90.0
  0
INSERT
  5
417
330
245
100
AcDbEntity
  8
0
  6
Continuous
 62
     7
100
AcDbBlockReference
  2
_FILLED
 10
99.4314031663
 20
67.566408787
 30
0.0
 41
2.0
 42
2.0
 43
2.0
 50
270.0
  0
ENDBLK
  5
418
330
245
100
AcDbEntity
  8
0
  6
ByBlock
 62
     0
100
AcDbBlockEnd
  0
BLOCK
  5
419
330
246
100
AcDbEntity
  8
0
  6
Continuous
 62
     7
100
AcDbBlockBegin
  2
*D18
 70
     1
 10
0.0
 20
0.0
 30
0.0
  3
*D18
  1

  0
TEXT
  5
41A
330
246
100
AcDbEntity
  8
0
  6
Continuous
 62
     7
100
AcDbText
 10
44.1839584043
 20
106.1767408618
 30
0.0
 40
1.333333333299999
  1
60
 41
1.066666666676667
 72
     5
 11
46.3172917376
 21
106.1767408618
 31
0.0
100
AcDbText
  0
TEXT
  5
41B
330
246
100
AcDbEntity
  8
0
  6
Continuous
 62
     7
100
AcDbText
 10
44.1839584043
 20
104.1767408618
 30
0.0
 40
1.333333333299999
  1
[
 41
2.400000000135003
 72
     5
 11
45.250625071
 21
104.1767408618
 31
0.0
100
AcDbText
  0
TEXT
  5
41C
330
246
100
AcDbEntity
  8
0
  6
Continuous
 62
     7
100
AcDbText
 10
45.250625071
 20
104.1767408618
 30
0.0
 40
1.333333333299999
  1
152,4
 41
1.043478260889131
 72
     5
 11
50.58395840430001
 21
104.1767408618
 31
0.0
100
AcDbText
  0
TEXT
  5
41D
330
246
100
AcDbEntity
  8
0
  6
Continuous
 62
     7
100
AcDbText
 10
50.58395840430001
 20
104.1767408618
 30
0.0
 40
1.333333333299999
  1
]
 41
2.400000000134987
 72
     5
 11
51.650625071
 21
104.1767408618
 31
0.0
100
AcDbText
  0
LINE
  5
41E
330
246
100
AcDbEntity
  8
0
  6
Continuous
 62
     7
100
AcDbLine
 10
17.9172917376
 20
98.23307545370001
 30
0.0
 11
17.9172917376
 21
108.1767408618
 31
0.0
  0
LINE
  5
41F
330
246
100
AcDbEntity
  8
0
  6
Continuous
 62
     7
100
AcDbLine
 10
77.9172917376
 20
98.23307545370001
 30
0.0
 11
77.9172917376
 21
108.1767408618
 31
0.0
  0
LINE
  5
420
330
246
100
AcDbEntity
  8
0
  6
Continuous
 62
     7
100
AcDbLine
 10
17.9172917376
 20
106.8434075285
 30
0.0
 11
43.5172917376
 21
106.8434075285
 31
0.0
  0
LINE
  5
421
330
246
100
AcDbEntity
  8
0
  6
Continuous
 62
     7
100
AcDbLine
 10
77.9172917376
 20
106.8434075285
 30
0.0
 11
52.3172917376
 21
106.8434075285
 31
0.0
  0
INSERT
  5
422
330
246
100
AcDbEntity
  8
0
  6
Continuous
 62
     7
100
AcDbBlockReference
  2
_FILLED
 10
17.9172917376
 20
106.8434075285
 30
0.0
 41
2.0
 42
2.0
 43
2.0
 50
180.0
  0
INSERT
  5
423
330
246
100
AcDbEntity
  8
0
  6
Continuous
 62
     7
100
AcDbBlockReference
  2
_FILLED
 10
77.9172917376
 20
106.8434075285
 30
0.0
 41
2.0
 42
2.0
 43
2.0
  0
ENDBLK
  5
424
330
246
100
AcDbEntity
  8
0
  6
ByBlock
 62
     0
100
AcDbBlockEnd
  0
BLOCK
  5
425
330
247
100
AcDbEntity
  8
0
  6
Continuous
 62
     7
100
AcDbBlockBegin
  2
*D19
 70
     1
 10
0.0
 20
0.0
 30
0.0
  3
*D19
  1

  0
TEXT
  5
426
330
247
100
AcDbEntity
  8
0
  6
Continuous
 62
     7
100
AcDbText
 10
82.08385507779999
 20
32.0510168201
 30
0.0
 40
1.333333333299999
  1
21
 41
1.200000000067501
 72
     5
 11
84.2171884112
 21
32.0510168201
 31
0.0
100
AcDbText
  0
TEXT
  5
427
330
247
100
AcDbEntity
  8
0
  6
Continuous
 62
     7
100
AcDbText
 10
84.2171884112
 20
32.0510168201
 30
0.0
 40
1.333333333299999
  1
~
 41
3.500000000131244
  7
TEXTSTYLE_1
 72
     5
 11
85.10607730009999
 21
32.0510168201
 31
0.0
100
AcDbText
  0
LINE
  5
428
330
247
100
AcDbEntity
  8
0
  6
Continuous
 62
     7
100
AcDbLine
 10
69.3509385626
 20
30.4401934246
 30
0.0
 11
68.51396062319999
 21
28.2597913471
 31
0.0
  0
LINE
  5
429
330
247
100
AcDbEntity
  8
0
  6
Continuous
 62
     7
100
AcDbLine
 10
73.66729173759999
 20
41.01801121349999
 30
0.0
 11
73.66729173759999
 21
26.9735379829
 31
0.0
  0
ARC
  5
42A
330
247
100
AcDbEntity
  8
0
  6
Continuous
 62
     7
100
AcDbCircle
 10
73.66729173759999
 20
41.6846778802
 30
0.0
 40
13.377806564
100
AcDbArc
 50
226.157877917
 51
249.0
  0
ARC
  5
42B
330
247
100
AcDbEntity
  8
0
  6
Continuous
 62
     7
100
AcDbCircle
 10
73.66729173759999
 20
41.6846778802
 30
0.0
 40
13.377806564
100
AcDbArc
 50
270.0
 51
317.9106387632
  0
SOLID
  5
42C
330
247
100
AcDbEntity
  8
0
  6
Continuous
 62
     7
100
AcDbTrace
 10
66.92233182649999
 20
29.7481921386
 30
0.0
 11
68.8731146299
 21
29.1954195226
 31
0.0
 12
67.2070571508
 22
30.3509988524
 32
0.0
 13
67.2070571508
 23
30.3509988524
 33
0.0
  0
SOLID
  5
42D
330
247
100
AcDbEntity
  8
0
  6
Continuous
 62
     7
100
AcDbTrace
 10
75.63681298449999
 20
28.7886359572
 30
0.0
 11
73.66729173759999
 21
28.3068713162
 31
0.0
 12
75.68660036819998
 22
28.1238309776
 32
0.0
 13
75.68660036819998
 23
28.1238309776
 33
0.0
  0
ENDBLK
  5
42E
330
247
100
AcDbEntity
  8
0
  6
ByBlock
 62
     0
100
AcDbBlockEnd
  0
BLOCK
  5
25A
330
248
100
AcDbEntity
  8
0
  6
Continuous
 62
     7
100
AcDbBlockBegin
  2
L03-MOTEUR-CONTROLE-LED_BL9
 70
     0
 10
108.1367596457
 20
93.01201655680001
 30
0.0
  3
L03-MOTEUR-CONTROLE-LED_BL9
  1

  0
TEXT
  5
25B
330
248
100
AcDbEntity
  8
0
  6
Continuous
 62
     7
100
AcDbText
 10
107.5737964638
 20
92.3453496307
 30
0.0
 40
1.333333852099999
  1
T
 41
1.266666666559174
  7
TEXTSTYLE_2
 72
     5
 11
108.6997228277
 21
92.3453496307
 31
0.0
100
AcDbText
  0
ELLIPSE
  5
25C
330
248
100
AcDbEntity
  8
0
  6
Continuous
 62
     7
100
AcDbEllipse
 10
108.1367596457
 20
93.01201655680001
 30
0.0
 11
-1.942887567899999
 21
0.0
 31
0.0
210
0.0
220
0.0
230
1.0
 40
0.6606458385
 41
0.0
 42
6.283185307179586
  0
ENDBLK
  5
25D
330
248
100
AcDbEntity
  8
0
  6
ByBlock
 62
     0
100
AcDbBlockEnd
  0
BLOCK
  5
25E
330
249
100
AcDbEntity
  8
0
  6
Continuous
 62
     7
100
AcDbBlockBegin
  2
L03-MOTEUR-CONTROLE-LED_BL8
 70
     0
 10
113.3316387028
 20
83.4954682819
 30
0.0
  3
L03-MOTEUR-CONTROLE-LED_BL8
  1

  0
TEXT
  5
25F
330
249
100
AcDbEntity
  8
0
  6
Continuous
 62
     7
100
AcDbText
 10
111.9983048507
 20
82.8288013559
 30
0.0
 40
1.333333852099999
  1
DC
 41
1.166666666622919
  7
TEXTSTYLE_2
 72
     5
 11
114.6649725548
 21
82.8288013559
 31
0.0
100
AcDbText
  0
ELLIPSE
  5
260
330
249
100
AcDbEntity
  8
0
  6
Continuous
 62
     7
100
AcDbEllipse
 10
113.3316387028
 20
83.4954682819
 30
0.0
 11
-1.942887567899999
 21
0.0
 31
0.0
210
0.0
220
0.0
230
1.0
 40
0.6606458385
 41
0.0
 42
6.283185307179586
  0
ENDBLK
  5
261
330
249
100
AcDbEntity
  8
0
  6
ByBlock
 62
     0
100
AcDbBlockEnd
  0
BLOCK
  5
262
330
24A
100
AcDbEntity
  8
0
  6
Continuous
 62
     7
100
AcDbBlockBegin
  2
L03-MOTEUR-CONTROLE-LED_BL7
 70
     0
 10
129.8138678403
 20
69.4127144994
 30
0.0
  3
L03-MOTEUR-CONTROLE-LED_BL7
  1

  0
TEXT
  5
263
330
24A
100
AcDbEntity
  8
0
  6
Continuous
 62
     7
100
AcDbText
 10
129.1990527863
 20
68.74604757330001
 30
0.0
 40
1.333333852099999
  1
A
 41
1.210416666619644
  7
TEXTSTYLE_2
 72
     5
 11
130.4286828943
 21
68.74604757330001
 31
0.0
100
AcDbText
  0
ELLIPSE
  5
264
330
24A
100
AcDbEntity
  8
0
  6
Continuous
 62
     7
100
AcDbEllipse
 10
129.8138678403
 20
69.4127144994
 30
0.0
 11
-1.942887567899999
 21
0.0
 31
0.0
210
0.0
220
0.0
230
1.0
 40
0.6606458385
 41
0.0
 42
6.283185307179586
  0
ENDBLK
  5
265
330
24A
100
AcDbEntity
  8
0
  6
ByBlock
 62
     0
100
AcDbBlockEnd
  0
BLOCK
  5
266
330
24B
100
AcDbEntity
  8
0
  6
Continuous
 62
     7
100
AcDbBlockBegin
  2
L03-MOTEUR-CONTROLE-LED_BL6
 70
     0
 10
119.8207348673
 20
69.4548484716
 30
0.0
  3
L03-MOTEUR-CONTROLE-LED_BL6
  1

  0
TEXT
  5
267
330
24B
100
AcDbEntity
  8
0
  6
Continuous
 62
     7
100
AcDbText
 10
119.1540679413
 20
68.7881815455
 30
0.0
 40
1.333333852099999
  1
C
 41
1.39999999989501
  7
TEXTSTYLE_2
 72
     5
 11
120.4874017933
 21
68.7881815455
 31
0.0
100
AcDbText
  0
ELLIPSE
  5
268
330
24B
100
AcDbEntity
  8
0
  6
Continuous
 62
     7
100
AcDbEllipse
 10
119.8207348673
 20
69.4548484716
 30
0.0
 11
-1.942887567899999
 21
0.0
 31
0.0
210
0.0
220
0.0
230
1.0
 40
0.6606458385
 41
0.0
 42
6.283185307179586
  0
ENDBLK
  5
269
330
24B
100
AcDbEntity
  8
0
  6
ByBlock
 62
     0
100
AcDbBlockEnd
  0
BLOCK
  5
26A
330
24C
100
AcDbEntity
  8
0
  6
Continuous
 62
     7
100
AcDbBlockBegin
  2
L03-MOTEUR-CONTROLE-LED_BL5
 70
     0
 10
75.84576059189998
 20
72.98562536670001
 30
0.0
  3
L03-MOTEUR-CONTROLE-LED_BL5
  1

  0
TEXT
  5
26B
330
24C
100
AcDbEntity
  8
0
  6
Continuous
 62
     7
100
AcDbText
 10
75.2827974099
 20
72.3189584407
 30
0.0
 40
1.333333852099999
  1
T
 41
1.266666666671676
  7
TEXTSTYLE_2
 72
     5
 11
76.4087237739
 21
72.3189584407
 31
0.0
100
AcDbText
  0
ELLIPSE
  5
26C
330
24C
100
AcDbEntity
  8
0
  6
Continuous
 62
     7
100
AcDbEllipse
 10
75.84576059189998
 20
72.98562536670001
 30
0.0
 11
-1.942887567899999
 21
0.0
 31
0.0
210
0.0
220
0.0
230
1.0
 40
0.6606458385
 41
0.0
 42
6.283185307179586
  0
ENDBLK
  5
26D
330
24C
100
AcDbEntity
  8
0
  6
ByBlock
 62
     0
100
AcDbBlockEnd
  0
BLOCK
  5
26E
330
24D
100
AcDbEntity
  8
0
  6
Continuous
 62
     7
100
AcDbBlockBegin
  2
L03-MOTEUR-CONTROLE-LED_BL4
 70
     0
 10
70.73576789
 20
83.2361911127
 30
0.0
  3
L03-MOTEUR-CONTROLE-LED_BL4
  1

  0
TEXT
  5
26F
330
24D
100
AcDbEntity
  8
0
  6
Continuous
 62
     7
100
AcDbText
 10
69.3046673341
 20
82.52064083479998
 30
0.0
 40
1.4311005559
  1
DC
 41
1.166666666666668
  7
TEXTSTYLE_2
 72
     5
 11
72.1668684459
 21
82.52064083479998
 31
0.0
100
AcDbText
  0
ELLIPSE
  5
270
330
24D
100
AcDbEntity
  8
0
  6
Continuous
 62
     7
100
AcDbEllipse
 10
70.73576789
 20
83.2361911127
 30
0.0
 11
-2.085349797599999
 21
0.0
 31
0.0
210
0.0
220
0.0
230
1.0
 40
0.6606458385
 41
0.0
 42
6.283185307179586
  0
ENDBLK
  5
271
330
24D
100
AcDbEntity
  8
0
  6
ByBlock
 62
     0
100
AcDbBlockEnd
  0
BLOCK
  5
272
330
24E
100
AcDbEntity
  8
0
  6
Continuous
 62
     7
100
AcDbBlockBegin
  2
L03-MOTEUR-CONTROLE-LED_BL3
 70
     0
 10
53.99085145499999
 20
69.36126741390001
 30
0.0
  3
L03-MOTEUR-CONTROLE-LED_BL3
  1

  0
TEXT
  5
273
330
24E
100
AcDbEntity
  8
0
  6
Continuous
 62
     7
100
AcDbText
 10
53.376036401
 20
68.6946004878
 30
0.0
 40
1.333333852099999
  1
A
 41
1.21041666661963
  7
TEXTSTYLE_2
 72
     5
 11
54.60566650899999
 21
68.6946004878
 31
0.0
100
AcDbText
  0
ELLIPSE
  5
274
330
24E
100
AcDbEntity
  8
0
  6
Continuous
 62
     7
100
AcDbEllipse
 10
53.99085145499999
 20
69.36126741390001
 30
0.0
 11
-1.942887567899999
 21
0.0
 31
0.0
210
0.0
220
0.0
230
1.0
 40
0.6606458385
 41
0.0
 42
6.283185307179586
  0
ENDBLK
  5
275
330
24E
100
AcDbEntity
  8
0
  6
ByBlock
 62
     0
100
AcDbBlockEnd
  0
BLOCK
  5
276
330
24F
100
AcDbEntity
  8
0
  6
Continuous
 62
     7
100
AcDbBlockBegin
  2
L03-MOTEUR-CONTROLE-LED_BL2
 70
     0
 10
63.9636594118
 20
69.36126741390001
 30
0.0
  3
L03-MOTEUR-CONTROLE-LED_BL2
  1

  0
TEXT
  5
277
330
24F
100
AcDbEntity
  8
0
  6
Continuous
 62
     7
100
AcDbText
 10
63.29699248579999
 20
68.6946004878
 30
0.0
 40
1.333333852099999
  1
C
 41
1.399999999895003
  7
TEXTSTYLE_2
 72
     5
 11
64.6303263378
 21
68.6946004878
 31
0.0
100
AcDbText
  0
ELLIPSE
  5
278
330
24F
100
AcDbEntity
  8
0
  6
Continuous
 62
     7
100
AcDbEllipse
 10
63.9636594118
 20
69.36126741390001
 30
0.0
 11
-1.942887567899999
 21
0.0
 31
0.0
210
0.0
220
0.0
230
1.0
 40
0.6606458385
 41
0.0
 42
6.283185307179586
  0
ENDBLK
  5
279
330
24F
100
AcDbEntity
  8
0
  6
ByBlock
 62
     0
100
AcDbBlockEnd
  0
BLOCK
  5
27A
330
250
100
AcDbEntity
  8
0
  6
Continuous
 62
     7
100
AcDbBlockBegin
  2
L03-USAGE_INTERNE_SEULEM_BL1
 70
     0
 10
122.2849676906
 20
53.1281948508
 30
0.0
  3
L03-USAGE_INTERNE_SEULEM_BL1
  1

  0
TEXT
  5
27B
330
250
100
AcDbEntity
  8
0
  6
Continuous
 62
     7
100
AcDbText
 10
115.9709073888
 20
55.37322883659999
 30
0.0
 40
1.1626666667
  1
INTERNAL USE 
 50
9.99999999979993
 41
0.8985215053487225
  7
TEXTSTYLE_3
 72
     5
 11
128.1206630095
 21
57.51555856149999
 31
0.0
100
AcDbText
  0
TEXT
  5
27C
330
250
100
AcDbEntity
  8
0
  6
Continuous
 62
     7
100
AcDbText
 10
115.2272231848
 20
53.3717076589
 30
0.0
 40
1.1626666667
  1
DOCUMENT ONLY
 50
10.00000000006678
 41
0.9764779873959485
  7
TEXTSTYLE_3
 72
     5
 11
129.3362064135
 21
55.8595020725
 31
0.0
100
AcDbText
  0
TEXT
  5
27D
330
250
100
AcDbEntity
  8
0
  6
Continuous
 62
     7
100
AcDbText
 10
121.0119507481
 20
53.1232796083
 30
0.0
 40
1.1626666667
  1
 
 50
10.0
  7
TEXTSTYLE_5
 72
     5
 11
122.1569538956
 21
53.32517455619999
 31
0.0
100
AcDbText
  0
TEXT
  5
27E
330
250
100
AcDbEntity
  8
0
  6
Continuous
 62
     7
100
AcDbText
 10
112.5673028651
 20
48.94618520199999
 30
0.0
 40
1.1626666667
  1
DOCUMENT POUR USAGE
 50
10.00000000001814
 41
0.9550156294105903
  7
TEXTSTYLE_3
 72
     5
 11
132.9271551286
 21
52.5361764793
 31
0.0
100
AcDbText
  0
TEXT
  5
27F
330
250
100
AcDbEntity
  8
0
  6
Continuous
 62
     7
100
AcDbText
 10
112.9964023111
 20
46.9294367416
 30
0.0
 40
1.1626666667
  1
A L'INTERNE SEULEMENT
 50
10.00000000005671
 41
0.9468599033535415
  7
TEXTSTYLE_3
 72
     5
 11
133.1823837263
 21
50.4887698972
 31
0.0
100
AcDbText
  0
LINE
  5
280
330
250
100
AcDbEntity
  8
0
  6
Continuous
 62
     1
100
AcDbLine
 10
136.1415194139
 20
48.78466123279999
 30
0.0
 11
136.1482783466
 21
48.7914201654
 31
0.0
  0
LINE
  5
281
330
250
100
AcDbEntity
  8
0
  6
Continuous
 62
     1
100
AcDbLine
 10
135.4089498475
 20
48.655489453
 30
0.0
 11
136.0578312926
 21
49.3043708981
 31
0.0
  0
LINE
  5
282
330
250
100
AcDbEntity
  8
0
  6
Continuous
 62
     1
100
AcDbLine
 10
134.6763802811
 20
48.5263176732
 30
0.0
 11
135.9673842387
 21
49.8173216308
 31
0.0
  0
LINE
  5
283
330
250
100
AcDbEntity
  8
0
  6
Continuous
 62
     1
100
AcDbLine
 10
133.9438107147
 20
48.3971458934
 30
0.0
 11
135.8769371846999
 21
50.3302723634
 31
0.0
  0
LINE
  5
284
330
250
100
AcDbEntity
  8
0
  6
Continuous
 62
     1
100
AcDbLine
 10
133.2112411482
 20
48.2679741136
 30
0.0
 11
135.7864901308
 21
50.8432230961
 31
0.0
  0
LINE
  5
285
330
250
100
AcDbEntity
  8
0
  6
Continuous
 62
     1
100
AcDbLine
 10
132.4786715818
 20
48.1388023338
 30
0.0
 11
134.0196753966
 21
49.6798061485
 31
0.0
  0
LINE
  5
286
330
250
100
AcDbEntity
  8
0
  6
Continuous
 62
     1
100
AcDbLine
 10
134.6170205893
 20
50.2771513413
 30
0.0
 11
135.6960430768
 21
51.3561738288
 31
0.0
  0
LINE
  5
287
330
250
100
AcDbEntity
  8
0
  6
Continuous
 62
     1
100
AcDbLine
 10
131.7461020154
 20
48.009630554
 30
0.0
 11
133.2871058302
 21
49.55063436869999
 31
0.0
  0
LINE
  5
288
330
250
100
AcDbEntity
  8
0
  6
Continuous
 62
     1
100
AcDbLine
 10
134.5265735354
 20
50.7901020739
 30
0.0
 11
135.6055960229
 21
51.8691245614
 31
0.0
  0
LINE
  5
289
330
250
100
AcDbEntity
  8
0
  6
Continuous
 62
     1
100
AcDbLine
 10
131.013532449
 20
47.8804587741
 30
0.0
 11
132.5545362638
 21
49.42146258890001
 31
0.0
  0
LINE
  5
28A
330
250
100
AcDbEntity
  8
0
  6
Continuous
 62
     1
100
AcDbLine
 10
134.4361264813999
 20
51.3030528066
 30
0.0
 11
135.515148969
 21
52.3820752941
 31
0.0
  0
LINE
  5
28B
330
250
100
AcDbEntity
  8
0
  6
Continuous
 62
     1
100
AcDbLine
 10
130.2809628826
 20
47.7512869943
 30
0.0
 11
131.8219666973
 21
49.29229080909999
 31
0.0
  0
LINE
  5
28C
330
250
100
AcDbEntity
  8
0
  6
Continuous
 62
     1
100
AcDbLine
 10
134.3456794275
 20
51.81600353930001
 30
0.0
 11
135.424701915
 21
52.8950260268
 31
0.0
  0
LINE
  5
28D
330
250
100
AcDbEntity
  8
0
  6
Continuous
 62
     1
100
AcDbLine
 10
129.5483933162
 20
47.6221152145
 30
0.0
 11
131.0893971309
 21
49.16311902930001
 31
0.0
  0
LINE
  5
28E
330
250
100
AcDbEntity
  8
0
  6
Continuous
 62
     1
100
AcDbLine
 10
134.2552323735
 20
52.32895427189999
 30
0.0
 11
135.3342548611
 21
53.4079767595
 31
0.0
  0
LINE
  5
28F
330
250
100
AcDbEntity
  8
0
  6
Continuous
 62
     1
100
AcDbLine
 10
128.8158237497
 20
47.4929434347
 30
0.0
 11
130.3568275645
 21
49.0339472495
 31
0.0
  0
LINE
  5
290
330
250
100
AcDbEntity
  8
0
  6
Continuous
 62
     1
100
AcDbLine
 10
134.1647853196
 20
52.8419050046
 30
0.0
 11
135.2438078071
 21
53.9209274921
 31
0.0
  0
LINE
  5
291
330
250
100
AcDbEntity
  8
0
  6
Continuous
 62
     1
100
AcDbLine
 10
128.0832541833
 20
47.3637716549
 30
0.0
 11
129.6242579981
 21
48.9047754697
 31
0.0
  0
LINE
  5
292
330
250
100
AcDbEntity
  8
0
  6
Continuous
 62
     1
100
AcDbLine
 10
134.0743382657
 20
53.35485573729999
 30
0.0
 11
135.1533607532
 21
54.4338782248
 31
0.0
  0
LINE
  5
293
330
250
100
AcDbEntity
  8
0
  6
Continuous
 62
     1
100
AcDbLine
 10
127.3506846169
 20
47.2345998751
 30
0.0
 11
128.8916884317
 21
48.7756036899
 31
0.0
  0
LINE
  5
294
330
250
100
AcDbEntity
  8
0
  6
Continuous
 62
     1
100
AcDbLine
 10
133.9838912117
 20
53.8678064699
 30
0.0
 11
135.0629136992
 21
54.9468289575
 31
0.0
  0
LINE
  5
295
330
250
100
AcDbEntity
  8
0
  6
Continuous
 62
     1
100
AcDbLine
 10
126.6181150505
 20
47.10542809529999
 30
0.0
 11
128.1591188653
 21
48.6464319101
 31
0.0
  0
LINE
  5
296
330
250
100
AcDbEntity
  8
0
  6
Continuous
 62
     1
100
AcDbLine
 10
133.8934441578
 20
54.3807572026
 30
0.0
 11
134.9724666453
 21
55.45977969009999
 31
0.0
  0
LINE
  5
297
330
250
100
AcDbEntity
  8
0
  6
Continuous
 62
     1
100
AcDbLine
 10
125.8855454841
 20
46.9762563155
 30
0.0
 11
127.4265492988
 21
48.51726013029999
 31
0.0
  0
LINE
  5
298
330
250
100
AcDbEntity
  8
0
  6
Continuous
 62
     1
100
AcDbLine
 10
133.5905645579
 20
54.68127538939999
 30
0.0
 11
134.8820195912999
 21
55.9727304228
 31
0.0
  0
LINE
  5
299
330
250
100
AcDbEntity
  8
0
  6
Continuous
 62
     1
100
AcDbLine
 10
125.1529759176
 20
46.84708453569999
 30
0.0
 11
126.6939797324
 21
48.3880883505
 31
0.0
  0
LINE
  5
29A
330
250
100
AcDbEntity
  8
0
  6
Continuous
 62
     1
100
AcDbLine
 10
132.8579949915
 20
54.5521036096
 30
0.0
 11
134.7915725374
 21
56.4856811555
 31
0.0
  0
LINE
  5
29B
330
250
100
AcDbEntity
  8
0
  6
Continuous
 62
     1
100
AcDbLine
 10
124.4204063512
 20
46.7179127559
 30
0.0
 11
125.961410166
 21
48.25891657069999
 31
0.0
  0
LINE
  5
29C
330
250
100
AcDbEntity
  8
0
  6
Continuous
 62
     1
100
AcDbLine
 10
132.1254254251
 20
54.42293182979999
 30
0.0
 11
133.1527677234
 21
55.450274128
 31
0.0
  0
LINE
  5
29D
330
250
100
AcDbEntity
  8
0
  6
Continuous
 62
     1
100
AcDbLine
 10
133.6221029959
 20
55.9196094006
 30
0.0
 11
134.7011254835
 21
56.99863188810001
 31
0.0
  0
LINE
  5
29E
330
250
100
AcDbEntity
  8
0
  6
Continuous
 62
     1
100
AcDbLine
 10
123.6878367848
 20
46.5887409761
 30
0.0
 11
125.2288405996
 21
48.1297447909
 31
0.0
  0
LINE
  5
29F
330
250
100
AcDbEntity
  8
0
  6
Continuous
 62
     1
100
AcDbLine
 10
131.3928558587
 20
54.29376005
 30
0.0
 11
132.4201979473
 21
55.3211021386
 31
0.0
  0
LINE
  5
2A0
330
250
100
AcDbEntity
  8
0
  6
Continuous
 62
     1
100
AcDbLine
 10
133.531655942
 20
56.4325601333
 30
0.0
 11
134.6106784295
 21
57.5115826208
 31
0.0
  0
LINE
  5
2A1
330
250
100
AcDbEntity
  8
0
  6
Continuous
 62
     1
100
AcDbLine
 10
122.9552672184
 20
46.4595691963
 30
0.0
 11
124.4962710332
 21
48.00057301109999
 31
0.0
  0
LINE
  5
2A2
330
250
100
AcDbEntity
  8
0
  6
Continuous
 62
     1
100
AcDbLine
 10
130.6602862923
 20
54.16458827020001
 30
0.0
 11
131.6876281713
 21
55.19193014919999
 31
0.0
  0
LINE
  5
2A3
330
250
100
AcDbEntity
  8
0
  6
Continuous
 62
     1
100
AcDbLine
 10
133.4412088881
 20
56.945510866
 30
0.0
 11
134.5202313756
 21
58.0245333535
 31
0.0
  0
LINE
  5
2A4
330
250
100
AcDbEntity
  8
0
  6
Continuous
 62
     1
100
AcDbLine
 10
122.222697652
 20
46.3303974165
 30
0.0
 11
123.7637014667
 21
47.8714012313
 31
0.0
  0
LINE
  5
2A5
330
250
100
AcDbEntity
  8
0
  6
Continuous
 62
     1
100
AcDbLine
 10
129.9277167259
 20
54.03541649040001
 30
0.0
 11
130.9550583953
 21
55.0627581598
 31
0.0
  0
LINE
  5
2A6
330
250
100
AcDbEntity
  8
0
  6
Continuous
 62
     1
100
AcDbLine
 10
133.3507618341
 20
57.4584615986
 30
0.0
 11
134.4297843216
 21
58.53748408609999
 31
0.0
  0
LINE
  5
2A7
330
250
100
AcDbEntity
  8
0
  6
Continuous
 62
     1
100
AcDbLine
 10
121.4901280856
 20
46.2012256367
 30
0.0
 11
123.0311319003
 21
47.7422294515
 31
0.0
  0
LINE
  5
2A8
330
250
100
AcDbEntity
  8
0
  6
Continuous
 62
     1
100
AcDbLine
 10
129.1951471594
 20
53.9062447106
 30
0.0
 11
130.2224886193
 21
54.9335861704
 31
0.0
  0
LINE
  5
2A9
330
250
100
AcDbEntity
  8
0
  6
Continuous
 62
     1
100
AcDbLine
 10
133.2603147802
 20
57.9714123313
 30
0.0
 11
134.3393372677
 21
59.05043481879999
 31
0.0
  0
LINE
  5
2AA
330
250
100
AcDbEntity
  8
0
  6
Continuous
 62
     1
100
AcDbLine
 10
120.7575585191
 20
46.0720538569
 30
0.0
 11
122.2985623339
 21
47.61305767169999
 31
0.0
  0
LINE
  5
2AB
330
250
100
AcDbEntity
  8
0
  6
Continuous
 62
     1
100
AcDbLine
 10
128.462577593
 20
53.7770729308
 30
0.0
 11
129.4899188432
 21
54.804414181
 31
0.0
  0
LINE
  5
2AC
330
250
100
AcDbEntity
  8
0
  6
Continuous
 62
     1
100
AcDbLine
 10
133.1698677262
 20
58.484363064
 30
0.0
 11
134.2488902137
 21
59.5633855515
 31
0.0
  0
LINE
  5
2AD
330
250
100
AcDbEntity
  8
0
  6
Continuous
 62
     1
100
AcDbLine
 10
120.0249889527
 20
45.9428820771
 30
0.0
 11
121.5659927675
 21
47.4838858918
 31
0.0
  0
LINE
  5
2AE
330
250
100
AcDbEntity
  8
0
  6
Continuous
 62
     1
100
AcDbLine
 10
127.7300080266
 20
53.647901151
 30
0.0
 11
128.7573490671999
 21
54.6752421916
 31
0.0
  0
LINE
  5
2AF
330
250
100
AcDbEntity
  8
0
  6
Continuous
 62
     1
100
AcDbLine
 10
133.0794206723
 20
58.9973137966
 30
0.0
 11
134.1584431598
 21
60.0763362841
 31
0.0
  0
LINE
  5
2B0
330
250
100
AcDbEntity
  8
0
  6
Continuous
 62
     1
100
AcDbLine
 10
119.2924193863
 20
45.81371029729999
 30
0.0
 11
120.8334232011
 21
47.35471411199999
 31
0.0
  0
LINE
  5
2B1
330
250
100
AcDbEntity
  8
0
  6
Continuous
 62
     1
100
AcDbLine
 10
126.9974384602
 20
53.51872937109999
 30
0.0
 11
128.0247792912
 21
54.5460702021
 31
0.0
  0
LINE
  5
2B2
330
250
100
AcDbEntity
  8
0
  6
Continuous
 62
     1
100
AcDbLine
 10
132.9889736183
 20
59.5102645293
 30
0.0
 11
134.0679961059
 21
60.5892870168
 31
0.0
  0
LINE
  5
2B3
330
250
100
AcDbEntity
  8
0
  6
Continuous
 62
     1
100
AcDbLine
 10
118.5598498199
 20
45.6845385175
 30
0.0
 11
120.1008536347
 21
47.2255423322
 31
0.0
  0
LINE
  5
2B4
330
250
100
AcDbEntity
  8
0
  6
Continuous
 62
     1
100
AcDbLine
 10
126.2648688938
 20
53.3895575913
 30
0.0
 11
127.2922095151
 21
54.4168982127
 31
0.0
  0
LINE
  5
2B5
330
250
100
AcDbEntity
  8
0
  6
Continuous
 62
     1
100
AcDbLine
 10
132.8985265644
 20
60.023215262
 30
0.0
 11
133.9775490519
 21
61.1022377495
 31
0.0
  0
LINE
  5
2B6
330
250
100
AcDbEntity
  8
0
  6
Continuous
 62
     1
100
AcDbLine
 10
117.8272802535
 20
45.5553667377
 30
0.0
 11
119.3682840682
 21
47.09637055239999
 31
0.0
  0
LINE
  5
2B7
330
250
100
AcDbEntity
  8
0
  6
Continuous
 62
     1
100
AcDbLine
 10
125.5322993274
 20
53.26038581149999
 30
0.0
 11
126.5596397391
 21
54.2877262233
 31
0.0
  0
LINE
  5
2B8
330
250
100
AcDbEntity
  8
0
  6
Continuous
 62
     1
100
AcDbLine
 10
132.723650463
 20
60.4517369472
 30
0.0
 11
133.887101998
 21
61.6151884822
 31
0.0
  0
LINE
  5
2B9
330
250
100
AcDbEntity
  8
0
  6
Continuous
 62
     1
100
AcDbLine
 10
117.094710687
 20
45.4261949578
 30
0.0
 11
118.6357145018
 21
46.9671987726
 31
0.0
  0
LINE
  5
2BA
330
250
100
AcDbEntity
  8
0
  6
Continuous
 62
     1
100
AcDbLine
 10
124.7997297609
 20
53.1312140317
 30
0.0
 11
125.8270699631
 21
54.1585542339
 31
0.0
  0
LINE
  5
2BB
330
250
100
AcDbEntity
  8
0
  6
Continuous
 62
     1
100
AcDbLine
 10
131.9910808966
 20
60.3225651674
 30
0.0
 11
133.5320847113
 21
61.8635689821
 31
0.0
  0
LINE
  5
2BC
330
250
100
AcDbEntity
  8
0
  6
Continuous
 62
     1
100
AcDbLine
 10
116.3621411206
 20
45.297023178
 30
0.0
 11
117.9031449354
 21
46.8380269928
 31
0.0
  0
LINE
  5
2BD
330
250
100
AcDbEntity
  8
0
  6
Continuous
 62
     1
100
AcDbLine
 10
124.0671601945
 20
53.00204225189999
 30
0.0
 11
125.0945001871
 21
54.0293822445
 31
0.0
  0
LINE
  5
2BE
330
250
100
AcDbEntity
  8
0
  6
Continuous
 62
     1
100
AcDbLine
 10
131.2585113301
 20
60.1933933876
 30
0.0
 11
132.7995151449
 21
61.7343972023
 31
0.0
  0
LINE
  5
2BF
330
250
100
AcDbEntity
  8
0
  6
Continuous
 62
     1
100
AcDbLine
 10
115.6295715542
 20
45.1678513982
 30
0.0
 11
117.170575369
 21
46.70885521299999
 31
0.0
  0
LINE
  5
2C0
330
250
100
AcDbEntity
  8
0
  6
Continuous
 62
     1
100
AcDbLine
 10
123.3345906281
 20
52.8728704721
 30
0.0
 11
124.361930411
 21
53.9002102551
 31
0.0
  0
LINE
  5
2C1
330
250
100
AcDbEntity
  8
0
  6
Continuous
 62
     1
100
AcDbLine
 10
130.5259417637
 20
60.0642216077
 30
0.0
 11
132.0669455785
 21
61.60522542249999
 31
0.0
  0
LINE
  5
2C2
330
250
100
AcDbEntity
  8
0
  6
Continuous
 62
     1
100
AcDbLine
 10
114.8970019878
 20
45.0386796184
 30
0.0
 11
116.4380058026
 21
46.57968343319999
 31
0.0
  0
LINE
  5
2C3
330
250
100
AcDbEntity
  8
0
  6
Continuous
 62
     1
100
AcDbLine
 10
122.6020210617
 20
52.7436986923
 30
0.0
 11
123.629360635
 21
53.7710382656
 31
0.0
  0
LINE
  5
2C4
330
250
100
AcDbEntity
  8
0
  6
Continuous
 62
     1
100
AcDbLine
 10
129.7933721973
 20
59.9350498279
 30
0.0
 11
131.3343760121
 21
61.4760536427
 31
0.0
  0
LINE
  5
2C5
330
250
100
AcDbEntity
  8
0
  6
Continuous
 62
     1
100
AcDbLine
 10
114.1644324214
 20
44.90950783859999
 30
0.0
 11
115.7054362362
 21
46.45051165339999
 31
0.0
  0
LINE
  5
2C6
330
250
100
AcDbEntity
  8
0
  6
Continuous
 62
     1
100
AcDbLine
 10
121.8694514953
 20
52.61452691249999
 30
0.0
 11
122.896790859
 21
53.6418662762
 31
0.0
  0
LINE
  5
2C7
330
250
100
AcDbEntity
  8
0
  6
Continuous
 62
     1
100
AcDbLine
 10
129.0608026309
 20
59.8058780481
 30
0.0
 11
130.6018064457
 21
61.3468818629
 31
0.0
  0
LINE
  5
2C8
330
250
100
AcDbEntity
  8
0
  6
Continuous
 62
     1
100
AcDbLine
 10
113.431862855
 20
44.7803360588
 30
0.0
 11
114.9728666697
 21
46.32133987359999
 31
0.0
  0
LINE
  5
2C9
330
250
100
AcDbEntity
  8
0
  6
Continuous
 62
     1
100
AcDbLine
 10
121.1368819288
 20
52.48535513270001
 30
0.0
 11
122.1642210829
 21
53.51269428680001
 31
0.0
  0
LINE
  5
2CA
330
250
100
AcDbEntity
  8
0
  6
Continuous
 62
     1
100
AcDbLine
 10
128.3282330645
 20
59.6767062683
 30
0.0
 11
129.8692368792
 21
61.2177100831
 31
0.0
  0
LINE
  5
2CB
330
250
100
AcDbEntity
  8
0
  6
Continuous
 62
     1
100
AcDbLine
 10
112.6992932885
 20
44.65116427899999
 30
0.0
 11
114.2402971033
 21
46.1921680938
 31
0.0
  0
LINE
  5
2CC
330
250
100
AcDbEntity
  8
0
  6
Continuous
 62
     1
100
AcDbLine
 10
120.4043123624
 20
52.35618335289999
 30
0.0
 11
121.4316513069
 21
53.38352229739999
 31
0.0
  0
LINE
  5
2CD
330
250
100
AcDbEntity
  8
0
  6
Continuous
 62
     1
100
AcDbLine
 10
127.5956634981
 20
59.5475344885
 30
0.0
 11
129.1366673128
 21
61.0885383033
 31
0.0
  0
LINE
  5
2CE
330
250
100
AcDbEntity
  8
0
  6
Continuous
 62
     1
100
AcDbLine
 10
111.9667237221
 20
44.5219924992
 30
0.0
 11
113.5077275369
 21
46.06299631399999
 31
0.0
  0
LINE
  5
2CF
330
250
100
AcDbEntity
  8
0
  6
Continuous
 62
     1
100
AcDbLine
 10
119.671742796
 20
52.22701157310001
 30
0.0
 11
120.6990815309
 21
53.254350308
 31
0.0
  0
LINE
  5
2D0
330
250
100
AcDbEntity
  8
0
  6
Continuous
 62
     1
100
AcDbLine
 10
126.8630939316
 20
59.4183627087
 30
0.0
 11
128.4040977464
 21
60.9593665235
 31
0.0
  0
LINE
  5
2D1
330
250
100
AcDbEntity
  8
0
  6
Continuous
 62
     1
100
AcDbLine
 10
111.2341541557
 20
44.39282071939999
 30
0.0
 11
112.7751579705
 21
45.9338245342
 31
0.0
  0
LINE
  5
2D2
330
250
100
AcDbEntity
  8
0
  6
Continuous
 62
     1
100
AcDbLine
 10
118.9391732296
 20
52.0978397933
 30
0.0
 11
119.9665117549
 21
53.1251783186
 31
0.0
  0
LINE
  5
2D3
330
250
100
AcDbEntity
  8
0
  6
Continuous
 62
     1
100
AcDbLine
 10
126.1305243652
 20
59.28919092890001
 30
0.0
 11
127.67152818
 21
60.8301947437
 31
0.0
  0
LINE
  5
2D4
330
250
100
AcDbEntity
  8
0
  6
Continuous
 62
     1
100
AcDbLine
 10
110.6828333832
 20
44.4448977335
 30
0.0
 11
112.0425884041
 21
45.80465275439999
 31
0.0
  0
LINE
  5
2D5
330
250
100
AcDbEntity
  8
0
  6
Continuous
 62
     1
100
AcDbLine
 10
118.2066036632
 20
51.9686680135
 30
0.0
 11
119.2339419788
 21
52.99600632909999
 31
0.0
  0
LINE
  5
2D6
330
250
100
AcDbEntity
  8
0
  6
Continuous
 62
     1
100
AcDbLine
 10
125.3979547988
 20
59.1600191491
 30
0.0
 11
126.9389586136
 21
60.7010229639
 31
0.0
  0
LINE
  5
2D7
330
250
100
AcDbEntity
  8
0
  6
Continuous
 62
     1
100
AcDbLine
 10
110.5923863292
 20
44.9578484662
 30
0.0
 11
111.6714088168
 21
46.03687095369999
 31
0.0
  0
LINE
  5
2D8
330
250
100
AcDbEntity
  8
0
  6
Continuous
 62
     1
100
AcDbLine
 10
117.4740340968
 20
51.8394962337
 30
0.0
 11
118.5013722028
 21
52.86683433970001
 31
0.0
  0
LINE
  5
2D9
330
250
100
AcDbEntity
  8
0
  6
Continuous
 62
     1
100
AcDbLine
 10
124.6653852324
 20
59.03084736930001
 30
0.0
 11
126.2063890472
 21
60.5718511841
 31
0.0
  0
LINE
  5
2DA
330
250
100
AcDbEntity
  8
0
  6
Continuous
 62
     1
100
AcDbLine
 10
110.5019392753
 20
45.4707991988
 30
0.0
 11
111.5809617628
 21
46.5498216864
 31
0.0
  0
LINE
  5
2DB
330
250
100
AcDbEntity
  8
0
  6
Continuous
 62
     1
100
AcDbLine
 10
116.7414645303
 20
51.7103244539
 30
0.0
 11
117.7688024268
 21
52.7376623503
 31
0.0
  0
LINE
  5
2DC
330
250
100
AcDbEntity
  8
0
  6
Continuous
 62
     1
100
AcDbLine
 10
123.932815666
 20
58.90167558949999
 30
0.0
 11
125.4738194807
 21
60.4426794043
 31
0.0
  0
LINE
  5
2DD
330
250
100
AcDbEntity
  8
0
  6
Continuous
 62
     1
100
AcDbLine
 10
110.4114922214
 20
45.98374993149999
 30
0.0
 11
111.4905147089
 21
47.06277241899999
 31
0.0
  0
LINE
  5
2DE
330
250
100
AcDbEntity
  8
0
  6
Continuous
 62
     1
100
AcDbLine
 10
116.0088949639
 20
51.5811526741
 30
0.0
 11
117.0362326507
 21
52.6084903609
 31
0.0
  0
LINE
  5
2DF
330
250
100
AcDbEntity
  8
0
  6
Continuous
 62
     1
100
AcDbLine
 10
123.2002460995
 20
58.7725038097
 30
0.0
 11
124.7412499143
 21
60.31350762449999
 31
0.0
  0
LINE
  5
2E0
330
250
100
AcDbEntity
  8
0
  6
Continuous
 62
     1
100
AcDbLine
 10
110.3210451674
 20
46.49670066419999
 30
0.0
 11
111.4000676549
 21
47.5757231517
 31
0.0
  0
LINE
  5
2E1
330
250
100
AcDbEntity
  8
0
  6
Continuous
 62
     1
100
AcDbLine
 10
115.2763253975
 20
51.4519808943
 30
0.0
 11
116.3036628747
 21
52.47931837149999
 31
0.0
  0
LINE
  5
2E2
330
250
100
AcDbEntity
  8
0
  6
Continuous
 62
     1
100
AcDbLine
 10
122.4676765331
 20
58.6433320299
 30
0.0
 11
124.0086803479
 21
60.1843358447
 31
0.0
  0
LINE
  5
2E3
330
250
100
AcDbEntity
  8
0
  6
Continuous
 62
     1
100
AcDbLine
 10
110.2305981135
 20
47.0096513968
 30
0.0
 11
111.309620601
 21
48.08867388439999
 31
0.0
  0
LINE
  5
2E4
330
250
100
AcDbEntity
  8
0
  6
Continuous
 62
     1
100
AcDbLine
 10
114.5437558311
 20
51.32280911449999
 30
0.0
 11
115.5710930987
 21
52.3501463821
 31
0.0
  0
LINE
  5
2E5
330
250
100
AcDbEntity
  8
0
  6
Continuous
 62
     1
100
AcDbLine
 10
121.7351069667
 20
58.5141602501
 30
0.0
 11
123.2761107815
 21
60.05516406489999
 31
0.0
  0
LINE
  5
2E6
330
250
100
AcDbEntity
  8
0
  6
Continuous
 62
     1
100
AcDbLine
 10
110.1401510595
 20
47.5226021295
 30
0.0
 11
111.219173547
 21
48.60162461699999
 31
0.0
  0
LINE
  5
2E7
330
250
100
AcDbEntity
  8
0
  6
Continuous
 62
     1
100
AcDbLine
 10
113.8111862647
 20
51.1936373347
 30
0.0
 11
114.8385233227
 21
52.2209743926
 31
0.0
  0
LINE
  5
2E8
330
250
100
AcDbEntity
  8
0
  6
Continuous
 62
     1
100
AcDbLine
 10
121.0025374003
 20
58.38498847029999
 30
0.0
 11
122.5435412151
 21
59.9259922851
 31
0.0
  0
LINE
  5
2E9
330
250
100
AcDbEntity
  8
0
  6
Continuous
 62
     1
100
AcDbLine
 10
110.0497040056
 20
48.03555286219999
 30
0.0
 11
111.1287264931
 21
49.11457534970001
 31
0.0
  0
LINE
  5
2EA
330
250
100
AcDbEntity
  8
0
  6
Continuous
 62
     1
100
AcDbLine
 10
113.0786166982
 20
51.06446555479999
 30
0.0
 11
114.1059535466
 21
52.0918024032
 31
0.0
  0
LINE
  5
2EB
330
250
100
AcDbEntity
  8
0
  6
Continuous
 62
     1
100
AcDbLine
 10
120.2699678339
 20
58.2558166905
 30
0.0
 11
121.8109716486
 21
59.79682050520001
 31
0.0
  0
LINE
  5
2EC
330
250
100
AcDbEntity
  8
0
  6
Continuous
 62
     1
100
AcDbLine
 10
109.9592569516
 20
48.5485035948
 30
0.0
 11
111.0382794392
 21
49.62752608239999
 31
0.0
  0
LINE
  5
2ED
330
250
100
AcDbEntity
  8
0
  6
Continuous
 62
     1
100
AcDbLine
 10
112.3460471318
 20
50.935293775
 30
0.0
 11
113.3733837706
 21
51.96263041379999
 31
0.0
  0
LINE
  5
2EE
330
250
100
AcDbEntity
  8
0
  6
Continuous
 62
     1
100
AcDbLine
 10
119.5373982675
 20
58.12664491069999
 30
0.0
 11
121.0784020822
 21
59.6676487254
 31
0.0
  0
LINE
  5
2EF
330
250
100
AcDbEntity
  8
0
  6
Continuous
 62
     1
100
AcDbLine
 10
109.8688098977
 20
49.0614543275
 30
0.0
 11
110.9478323852
 21
50.140476815
 31
0.0
  0
LINE
  5
2F0
330
250
100
AcDbEntity
  8
0
  6
Continuous
 62
     1
100
AcDbLine
 10
111.6134775654
 20
50.8061219952
 30
0.0
 11
112.6408139946
 21
51.83345842439999
 31
0.0
  0
LINE
  5
2F1
330
250
100
AcDbEntity
  8
0
  6
Continuous
 62
     1
100
AcDbLine
 10
118.804828701
 20
57.99747313090001
 30
0.0
 11
120.3458325158
 21
59.5384769456
 31
0.0
  0
LINE
  5
2F2
330
250
100
AcDbEntity
  8
0
  6
Continuous
 62
     1
100
AcDbLine
 10
109.7783628437
 20
49.57440506020001
 30
0.0
 11
110.8573853313
 21
50.6534275477
 31
0.0
  0
LINE
  5
2F3
330
250
100
AcDbEntity
  8
0
  6
Continuous
 62
     1
100
AcDbLine
 10
110.880907999
 20
50.6769502154
 30
0.0
 11
111.9082442185
 21
51.704286435
 31
0.0
  0
LINE
  5
2F4
330
250
100
AcDbEntity
  8
0
  6
Continuous
 62
     1
100
AcDbLine
 10
118.0722591346
 20
57.86830135109999
 30
0.0
 11
119.6132629494
 21
59.40930516579999
 31
0.0
  0
LINE
  5
2F5
330
250
100
AcDbEntity
  8
0
  6
Continuous
 62
     1
100
AcDbLine
 10
109.6879157898
 20
50.0873557929
 30
0.0
 11
111.1756744425
 21
51.5751144456
 31
0.0
  0
LINE
  5
2F6
330
250
100
AcDbEntity
  8
0
  6
Continuous
 62
     1
100
AcDbLine
 10
117.3396895682
 20
57.7391295713
 30
0.0
 11
118.880693383
 21
59.280133386
 31
0.0
  0
LINE
  5
2F7
330
250
100
AcDbEntity
  8
0
  6
Continuous
 62
     1
100
AcDbLine
 10
109.5974687359
 20
50.6003065255
 30
0.0
 11
110.6764912234
 21
51.679329013
 31
0.0
  0
LINE
  5
2F8
330
250
100
AcDbEntity
  8
0
  6
Continuous
 62
     1
100
AcDbLine
 10
116.6071200018
 20
57.6099577914
 30
0.0
 11
118.1481238166
 21
59.1509616062
 31
0.0
  0
LINE
  5
2F9
330
250
100
AcDbEntity
  8
0
  6
Continuous
 62
     1
100
AcDbLine
 10
109.5070216819
 20
51.11325725819999
 30
0.0
 11
110.5860441694
 21
52.19227974569999
 31
0.0
  0
LINE
  5
2FA
330
250
100
AcDbEntity
  8
0
  6
Continuous
 62
     1
100
AcDbLine
 10
115.8745504354
 20
57.48078601159999
 30
0.0
 11
117.4155542501
 21
59.0217898264
 31
0.0
  0
LINE
  5
2FB
330
250
100
AcDbEntity
  8
0
  6
Continuous
 62
     1
100
AcDbLine
 10
109.416574628
 20
51.62620799089999
 30
0.0
 11
110.4955971155
 21
52.70523047840001
 31
0.0
  0
LINE
  5
2FC
330
250
100
AcDbEntity
  8
0
  6
Continuous
 62
     1
100
AcDbLine
 10
115.1419808689
 20
57.3516142318
 30
0.0
 11
116.6829846837
 21
58.8926180466
 31
0.0
  0
LINE
  5
2FD
330
250
100
AcDbEntity
  8
0
  6
Continuous
 62
     1
100
AcDbLine
 10
109.326127574
 20
52.1391587235
 30
0.0
 11
110.4051500615
 21
53.218181211
 31
0.0
  0
LINE
  5
2FE
330
250
100
AcDbEntity
  8
0
  6
Continuous
 62
     1
100
AcDbLine
 10
114.4094113025
 20
57.22244245199999
 30
0.0
 11
115.9504151173
 21
58.7634462668
 31
0.0
  0
LINE
  5
2FF
330
250
100
AcDbEntity
  8
0
  6
Continuous
 62
     1
100
AcDbLine
 10
109.2356805201
 20
52.6521094562
 30
0.0
 11
110.3147030076
 21
53.7311319437
 31
0.0
  0
LINE
  5
300
330
250
100
AcDbEntity
  8
0
  6
Continuous
 62
     1
100
AcDbLine
 10
113.6768417361
 20
57.0932706722
 30
0.0
 11
115.2178455509
 21
58.634274487
 31
0.0
  0
LINE
  5
301
330
250
100
AcDbEntity
  8
0
  6
Continuous
 62
     1
100
AcDbLine
 10
109.1452334661
 20
53.1650601889
 30
0.0
 11
110.2242559537
 21
54.2440826764
 31
0.0
  0
LINE
  5
302
330
250
100
AcDbEntity
  8
0
  6
Continuous
 62
     1
100
AcDbLine
 10
112.9442721697
 20
56.96409889239999
 30
0.0
 11
114.4852759845
 21
58.5051027072
 31
0.0
  0
LINE
  5
303
330
250
100
AcDbEntity
  8
0
  6
Continuous
 62
     1
100
AcDbLine
 10
109.0547864122
 20
53.67801092149999
 30
0.0
 11
110.1338088997
 21
54.75703340909999
 31
0.0
  0
LINE
  5
304
330
250
100
AcDbEntity
  8
0
  6
Continuous
 62
     1
100
AcDbLine
 10
112.2117026033
 20
56.8349271126
 30
0.0
 11
113.7527064181
 21
58.3759309274
 31
0.0
  0
LINE
  5
305
330
250
100
AcDbEntity
  8
0
  6
Continuous
 62
     1
100
AcDbLine
 10
108.9643393583
 20
54.1909616542
 30
0.0
 11
110.0433618458
 21
55.2699841417
 31
0.0
  0
LINE
  5
306
330
250
100
AcDbEntity
  8
0
  6
Continuous
 62
     1
100
AcDbLine
 10
111.4791330369
 20
56.7057553328
 30
0.0
 11
113.0201368516
 21
58.2467591476
 31
0.0
  0
LINE
  5
307
330
250
100
AcDbEntity
  8
0
  6
Continuous
 62
     1
100
AcDbLine
 10
108.8738923043
 20
54.70391238689999
 30
0.0
 11
109.9529147918
 21
55.78293487439999
 31
0.0
  0
LINE
  5
308
330
250
100
AcDbEntity
  8
0
  6
Continuous
 62
     1
100
AcDbLine
 10
110.7465634704
 20
56.576583553
 30
0.0
 11
112.2875672852
 21
58.11758736779999
 31
0.0
  0
LINE
  5
309
330
250
100
AcDbEntity
  8
0
  6
Continuous
 62
     1
100
AcDbLine
 10
108.7834452504
 20
55.21686311949999
 30
0.0
 11
109.8624677379
 21
56.2958856071
 31
0.0
  0
LINE
  5
30A
330
250
100
AcDbEntity
  8
0
  6
Continuous
 62
     1
100
AcDbLine
 10
110.013993904
 20
56.4474117732
 30
0.0
 11
111.5549977188
 21
57.988415588
 31
0.0
  0
LINE
  5
30B
330
250
100
AcDbEntity
  8
0
  6
Continuous
 62
     1
100
AcDbLine
 10
108.6929981964
 20
55.7298138522
 30
0.0
 11
110.8224281524
 21
57.8592438082
 31
0.0
  0
LINE
  5
30C
330
250
100
AcDbEntity
  8
0
  6
Continuous
 62
     1
100
AcDbLine
 10
108.6025511425
 20
56.24276458489999
 30
0.0
 11
110.089858586
 21
57.7300720284
 31
0.0
  0
LINE
  5
30D
330
250
100
AcDbEntity
  8
0
  6
Continuous
 62
     1
100
AcDbLine
 10
108.5121040885
 20
56.7557153175
 30
0.0
 11
109.3572890195
 21
57.6009002486
 31
0.0
  0
LINE
  5
30E
330
250
100
AcDbEntity
  8
0
  6
Continuous
 62
     1
100
AcDbLine
 10
108.4216570346
 20
57.2686660502
 30
0.0
 11
108.6247194531
 21
57.4717284688
 31
0.0
  0
ENDBLK
  5
30F
330
250
100
AcDbEntity
  8
0
  6
ByBlock
 62
     0
100
AcDbBlockEnd
  0
BLOCK
  5
310
330
251
100
AcDbEntity
  8
0
  6
Continuous
 62
     7
100
AcDbBlockBegin
  2
L03-NOTE_SPECS_BAINS_BL0
 70
     0
 10
160.6664912223
 20
55.3345526721
 30
0.0
  3
L03-NOTE_SPECS_BAINS_BL0
  1

  0
TEXT
  5
311
330
251
100
AcDbEntity
  8
0
  6
Continuous
 62
     7
100
AcDbText
 10
144.4187061461
 20
63.10798606319999
 30
0.0
 40
0.5
  1
Infomations Techniques/Technical Infomations
 41
0.8282282282286502
  7
TEXTSTYLE_2
 72
     5
 11
159.0112987387
 21
63.10798606319999
 31
0.0
100
AcDbText
  0
TEXT
  5
312
330
251
100
AcDbEntity
  8
0
  6
Continuous
 62
     7
100
AcDbText
 10
144.6664912222999
 20
61.6678860054
 30
0.0
 40
0.6666666667
  1
NOMBRE DE JETS:     
 41
0.7951282050848596
  7
TEXTSTYLE_2
 72
     5
 11
154.5109356667
 21
61.6678860054
 31
0.0
100
AcDbText
  0
TEXT
  5
313
330
251
100
AcDbEntity
  8
0
  6
Continuous
 62
     7
100
AcDbText
 10
154.5109356667
 20
61.6678860054
 30
0.0
 40
0.6666666667
  1
42
 41
0.9470588235541194
  7
TEXTSTYLE_2
 72
     5
 11
155.533157889
 21
61.6678860054
 31
0.0
100
AcDbText
  0
TEXT
  5
314
330
251
100
AcDbEntity
  8
0
  6
Continuous
 62
     7
100
AcDbText
 10
144.6664912222999
 20
60.6678860054
 30
0.0
 40
0.6666666667
  1
 
 41
0.4543859649325669
  7
TEXTSTYLE_2
 72
     5
 11
144.9405652964
 21
60.6678860054
 31
0.0
100
AcDbText
  0
TEXT
  5
315
330
251
100
AcDbEntity
  8
0
  6
Continuous
 62
     7
100
AcDbText
 10
144.6664912222999
 20
59.6678860054
 30
0.0
 40
0.6666666667
  1
NIVEAU D'EAU              GALLONS(US)        LITRES        GALLONS(UK)
 41
0.7326737696243252
  7
TEXTSTYLE_2
 72
     5
 11
175.2294541853
 21
59.6678860054
 31
0.0
100
AcDbText
  0
TEXT
  5
316
330
251
100
AcDbEntity
  8
0
  6
Continuous
 62
     7
100
AcDbText
 10
144.6664912222999
 20
58.6678860054
 30
0.0
 40
0.6666666667
  1
PLEIN
 41
1.076090014011398
  7
TEXTSTYLE_2
 72
     5
 11
147.3652566544
 21
58.6678860054
 31
0.0
100
AcDbText
  0
TEXT
  5
317
330
251
100
AcDbEntity
  8
0
  6
Continuous
 62
     7
100
AcDbText
 10
144.6664912222999
 20
57.66788600539999
 30
0.0
 40
0.6666666667
  1
HAUT T.PLEIN
 41
0.9533333332923385
  7
TEXTSTYLE_2
 72
     5
 11
151.0220467779
 21
57.66788600539999
 31
0.0
100
AcDbText
  0
TEXT
  5
318
330
251
100
AcDbEntity
  8
0
  6
Continuous
 62
     7
100
AcDbText
 10
144.6664912222999
 20
56.6678860054
 30
0.0
 40
0.6666666667
  1
MILIEU T.PLEIN
 41
0.9753472221684237
  7
TEXTSTYLE_2
 72
     5
 11
151.6022936914
 21
56.6678860054
 31
0.0
100
AcDbText
  0
TEXT
  5
319
330
251
100
AcDbEntity
  8
0
  6
Continuous
 62
     7
100
AcDbText
 10
144.6664912222999
 20
55.6678860054
 30
0.0
 40
0.6666666667
  1
BAS T.PLEIN
 41
0.9452674896694068
  7
TEXTSTYLE_2
 72
     5
 11
150.3380961606
 21
55.6678860054
 31
0.0
100
AcDbText
  0
TEXT
  5
31A
330
251
100
AcDbEntity
  8
0
  6
Continuous
 62
     7
100
AcDbText
 10
144.6664912222999
 20
54.6678860054
 30
0.0
 40
0.6666666667
  1
3" EN BAS T.PLEIN
 41
0.8791712504189145
  7
TEXTSTYLE_2
 72
     5
 11
153.1232813458
 21
54.6678860054
 31
0.0
100
AcDbText
  0
TEXT
  5
31B
330
251
100
AcDbEntity
  8
0
  6
Continuous
 62
     7
100
AcDbText
 10
144.6664912222999
 20
53.6678860054
 30
0.0
 40
0.6666666667
  1
 
 41
0.4543859649325669
  7
TEXTSTYLE_2
 72
     5
 11
144.9405652964
 21
53.6678860054
 31
0.0
100
AcDbText
  0
TEXT
  5
31C
330
251
100
AcDbEntity
  8
0
  6
Continuous
 62
     7
100
AcDbText
 10
144.4663297167
 20
53.1210990806
 30
0.0
 40
0.5
  1
Legende/Legend
 41
0.8786122090482239
  7
TEXTSTYLE_2
 72
     5
 11
149.7589223093
 21
53.1210990806
 31
0.0
100
AcDbText
  0
TEXT
  5
31D
330
251
100
AcDbEntity
  8
0
  6
Continuous
 62
     7
100
AcDbText
 10
150.9951646608
 20
51.6098341029
 30
0.0
 40
0.6666666667
  1
ZONE DE ROBINETTERIE
 41
0.9557651991088162
  7
TEXTSTYLE_2
 72
     5
 11
162.2519547842
 21
51.6098341029
 31
0.0
100
AcDbText
  0
TEXT
  5
31E
330
251
100
AcDbEntity
  8
0
  6
Continuous
 62
     7
100
AcDbText
 10
145.9154400938
 20
50.1145895885
 30
0.0
 40
0.6666666667
  1
L   :  SYSTEME LED       DC   :  DOUBLE DOSSIER CHAUFFANT
 41
0.7952424242035101
  7
TEXTSTYLE_2
 72
     5
 11
173.6858104642
 21
50.1145895885
 31
0.0
100
AcDbText
  0
TEXT
  5
31F
330
251
100
AcDbEntity
  8
0
  6
Continuous
 62
     7
100
AcDbText
 10
145.9154400938
 20
48.7812562551
 30
0.0
 40
0.6666666667
  1
C   :  CONTROLE
 41
0.8195121950846347
  7
TEXTSTYLE_2
 72
     5
 11
153.3821067605
 21
48.7812562551
 31
0.0
100
AcDbText
  0
TEXT
  5
320
330
251
100
AcDbEntity
  8
0
  6
Continuous
 62
     7
100
AcDbText
 10
145.9154400938
 20
47.4479229218
 30
0.0
 40
0.6666666667
  1
T   :  MOTEUR
 41
0.7954116058934304
  7
TEXTSTYLE_2
 72
     5
 11
152.1524771308
 21
47.4479229218
 31
0.0
100
AcDbText
  0
TEXT
  5
321
330
251
100
AcDbEntity
  8
0
  6
Continuous
 62
     7
100
AcDbText
 10
157.4991879216
 20
58.6678860054
 30
0.0
 40
0.6666666667
  1
68
 41
0.9470588234614572
  7
TEXTSTYLE_2
 72
     5
 11
158.5214101438
 21
58.6678860054
 31
0.0
100
AcDbText
  0
TEXT
  5
322
330
251
100
AcDbEntity
  8
0
  6
Continuous
 62
     7
100
AcDbText
 10
157.4991879216
 20
57.66788600539999
 30
0.0
 40
0.6666666667
  1
56
 41
0.9757575756875622
  7
TEXTSTYLE_2
 72
     5
 11
158.5214101438
 21
57.66788600539999
 31
0.0
100
AcDbText
  0
TEXT
  5
323
330
251
100
AcDbEntity
  8
0
  6
Continuous
 62
     7
100
AcDbText
 10
157.4991879216
 20
56.6678860054
 30
0.0
 40
0.6666666667
  1
55
 41
0.9470588234614575
  7
TEXTSTYLE_2
 72
     5
 11
158.5214101438
 21
56.6678860054
 31
0.0
100
AcDbText
  0
TEXT
  5
324
330
251
100
AcDbEntity
  8
0
  6
Continuous
 62
     7
100
AcDbText
 10
157.4991879216
 20
55.6678860054
 30
0.0
 40
0.6666666667
  1
54
 41
0.9199999999339873
  7
TEXTSTYLE_2
 72
     5
 11
158.5214101438
 21
55.6678860054
 31
0.0
100
AcDbText
  0
TEXT
  5
325
330
251
100
AcDbEntity
  8
0
  6
Continuous
 62
     7
100
AcDbText
 10
157.4991879216
 20
54.6678860054
 30
0.0
 40
0.6666666667
  1
39
 41
0.9757575756875622
  7
TEXTSTYLE_2
 72
     5
 11
158.5214101438
 21
54.6678860054
 31
0.0
100
AcDbText
  0
TEXT
  5
326
330
251
100
AcDbEntity
  8
0
  6
Continuous
 62
     7
100
AcDbText
 10
164.4193938653
 20
58.6849654075
 30
0.0
 40
0.6666666667
  1
258
 41
0.8944444443802737
  7
TEXTSTYLE_2
 72
     5
 11
165.9527271986
 21
58.6849654075
 31
0.0
100
AcDbText
  0
TEXT
  5
327
330
251
100
AcDbEntity
  8
0
  6
Continuous
 62
     7
100
AcDbText
 10
164.4193938653
 20
57.6849654075
 30
0.0
 40
0.6666666667
  1
211
 41
1.178048780403287
  7
TEXTSTYLE_2
 72
     5
 11
165.9527271986
 21
57.6849654075
 31
0.0
100
AcDbText
  0
TEXT
  5
328
330
251
100
AcDbEntity
  8
0
  6
Continuous
 62
     7
100
AcDbText
 10
164.4193938653
 20
56.6849654075
 30
0.0
 40
0.6666666667
  1
207
 41
0.8944444443802735
  7
TEXTSTYLE_2
 72
     5
 11
165.9527271986
 21
56.6849654075
 31
0.0
100
AcDbText
  0
TEXT
  5
329
330
251
100
AcDbEntity
  8
0
  6
Continuous
 62
     7
100
AcDbText
 10
164.4193938653
 20
55.6849654075
 30
0.0
 40
0.6666666667
  1
203
 41
0.8944444443802737
  7
TEXTSTYLE_2
 72
     5
 11
165.9527271986
 21
55.6849654075
 31
0.0
100
AcDbText
  0
TEXT
  5
32A
330
251
100
AcDbEntity
  8
0
  6
Continuous
 62
     7
100
AcDbText
 10
164.4193938653
 20
54.6849654075
 30
0.0
 40
0.6666666667
  1
149
 41
0.9857142856435668
  7
TEXTSTYLE_2
 72
     5
 11
165.9527271986
 21
54.6849654075
 31
0.0
100
AcDbText
  0
TEXT
  5
32B
330
251
100
AcDbEntity
  8
0
  6
Continuous
 62
     7
100
AcDbText
 10
171.3640328028
 20
58.6678860054
 30
0.0
 40
0.6666666667
  1
57
 41
0.9470588234614575
  7
TEXTSTYLE_2
 72
     5
 11
172.386255025
 21
58.6678860054
 31
0.0
100
AcDbText
  0
TEXT
  5
32C
330
251
100
AcDbEntity
  8
0
  6
Continuous
 62
     7
100
AcDbText
 10
171.3640328028
 20
57.66788600539999
 30
0.0
 40
0.6666666667
  1
46
 41
0.9757575756875622
  7
TEXTSTYLE_2
 72
     5
 11
172.386255025
 21
57.66788600539999
 31
0.0
100
AcDbText
  0
TEXT
  5
32D
330
251
100
AcDbEntity
  8
0
  6
Continuous
 62
     7
100
AcDbText
 10
171.3640328028
 20
56.6678860054
 30
0.0
 40
0.6666666667
  1
46
 41
0.9757575756875622
  7
TEXTSTYLE_2
 72
     5
 11
172.386255025
 21
56.6678860054
 31
0.0
100
AcDbText
  0
TEXT
  5
32E
330
251
100
AcDbEntity
  8
0
  6
Continuous
 62
     7
100
AcDbText
 10
171.3640328028
 20
55.6678860054
 30
0.0
 40
0.6666666667
  1
45
 41
0.9470588234614575
  7
TEXTSTYLE_2
 72
     5
 11
172.386255025
 21
55.6678860054
 31
0.0
100
AcDbText
  0
TEXT
  5
32F
330
251
100
AcDbEntity
  8
0
  6
Continuous
 62
     7
100
AcDbText
 10
171.3640328028
 20
54.6678860054
 30
0.0
 40
0.6666666667
  1
33
 41
0.9470588234614575
  7
TEXTSTYLE_2
 72
     5
 11
172.386255025
 21
54.6678860054
 31
0.0
100
AcDbText
  0
LINE
  5
330
330
251
100
AcDbEntity
  8
0
  6
Continuous
 62
     7
100
AcDbLine
 10
143.9998245556
 20
64.0012193387
 30
0.0
 11
143.9998245556
 21
46.6678860054
 31
0.0
  0
LINE
  5
331
330
251
100
AcDbEntity
  8
0
  6
Continuous
 62
     7
100
AcDbLine
 10
143.9998245556
 20
64.0012193387
 30
0.0
 11
177.333157889
 21
64.0012193387
 31
0.0
  0
LINE
  5
332
330
251
100
AcDbEntity
  8
0
  6
Continuous
 62
     7
100
AcDbLine
 10
177.333157889
 20
64.0012193387
 30
0.0
 11
177.333157889
 21
46.6678860054
 31
0.0
  0
LINE
  5
333
330
251
100
AcDbEntity
  8
0
  6
Continuous
 62
     7
100
AcDbLine
 10
143.9998245556
 20
46.6678860054
 30
0.0
 11
177.333157889
 21
46.6678860054
 31
0.0
  0
LINE
  5
334
330
251
100
AcDbEntity
  8
0
  6
Continuous
 62
     7
100
AcDbLine
 10
145.333157889
 20
54.0012193387
 30
0.0
 11
175.9998245556
 21
54.0012193387
 31
0.0
  0
LINE
  5
335
330
251
100
AcDbEntity
  8
0
  6
Continuous
 62
     7
100
AcDbLine
 10
145.333157889
 20
61.00121933869999
 30
0.0
 11
175.9998245556
 21
61.00121933869999
 31
0.0
  0
LINE
  5
336
330
251
100
AcDbEntity
  8
0
  6
Continuous
 62
     7
100
AcDbLine
 10
144.8087311149
 20
52.3793838431
 30
0.0
 11
144.4397103726
 21
52.0103631008
 31
0.0
  0
LINE
  5
337
330
251
100
AcDbEntity
  8
0
  6
Continuous
 62
     7
100
AcDbLine
 10
145.4753977816
 20
52.3793838431
 30
0.0
 11
144.6773819911
 21
51.5813680526
 31
0.0
  0
LINE
  5
338
330
251
100
AcDbEntity
  8
0
  6
Continuous
 62
     7
100
AcDbLine
 10
146.1420644482
 20
52.3793838431
 30
0.0
 11
145.3440486578
 21
51.5813680526
 31
0.0
  0
LINE
  5
339
330
251
100
AcDbEntity
  8
0
  6
Continuous
 62
     7
100
AcDbLine
 10
146.8087311149
 20
52.3793838431
 30
0.0
 11
146.0107153245
 21
51.5813680526
 31
0.0
  0
LINE
  5
33A
330
251
100
AcDbEntity
  8
0
  6
Continuous
 62
     7
100
AcDbLine
 10
147.4753977816
 20
52.3793838431
 30
0.0
 11
146.6773819911
 21
51.5813680526
 31
0.0
  0
LINE
  5
33B
330
251
100
AcDbEntity
  8
0
  6
Continuous
 62
     7
100
AcDbLine
 10
148.1420644482
 20
52.3793838431
 30
0.0
 11
147.3440486578
 21
51.5813680526
 31
0.0
  0
LINE
  5
33C
330
251
100
AcDbEntity
  8
0
  6
Continuous
 62
     7
100
AcDbLine
 10
148.8087311149
 20
52.3793838431
 30
0.0
 11
148.0107153245
 21
51.5813680526
 31
0.0
  0
LINE
  5
33D
330
251
100
AcDbEntity
  8
0
  6
Continuous
 62
     7
100
AcDbLine
 10
149.4753977816
 20
52.3793838431
 30
0.0
 11
148.6773819911
 21
51.5813680526
 31
0.0
  0
LINE
  5
33E
330
251
100
AcDbEntity
  8
0
  6
Continuous
 62
     7
100
AcDbLine
 10
150.1420644482
 20
52.3793838431
 30
0.0
 11
149.3440486578
 21
51.5813680526
 31
0.0
  0
LINE
  5
33F
330
251
100
AcDbEntity
  8
0
  6
Continuous
 62
     7
100
AcDbLine
 10
150.5855518824
 20
52.15620461060001
 30
0.0
 11
150.0107153245
 21
51.5813680526
 31
0.0
  0
ELLIPSE
  5
340
330
251
100
AcDbEntity
  8
0
  6
Continuous
 62
     7
100
AcDbEllipse
 10
146.1452270378
 20
50.43216704569999
 30
0.0
 11
1.0473539356
 21
0.0
 31
0.0
210
0.0
220
0.0
230
1.0
 40
0.4938647983
 41
0.0
 42
6.283185307179586
  0
ELLIPSE
  5
341
330
251
100
AcDbEntity
  8
0
  6
Continuous
 62
     7
100
AcDbEllipse
 10
146.1452270378
 20
49.09883371229999
 30
0.0
 11
1.0473539356
 21
0.0
 31
0.0
210
0.0
220
0.0
230
1.0
 40
0.4938647983
 41
0.0
 42
6.283185307179586
  0
ELLIPSE
  5
342
330
251
100
AcDbEntity
  8
0
  6
Continuous
 62
     7
100
AcDbEllipse
 10
146.1452270378
 20
47.76550037899999
 30
0.0
 11
1.0473539356
 21
0.0
 31
0.0
210
0.0
220
0.0
230
1.0
 40
0.4938647983
 41
0.0
 42
6.283185307179586
  0
ELLIPSE
  5
343
330
251
100
AcDbEntity
  8
0
  6
Continuous
 62
     7
100
AcDbEllipse
 10
157.1638626189
 20
50.45168840270001
 30
0.0
 11
1.0473539356
 21
0.0
 31
0.0
210
0.0
220
0.0
230
1.0
 40
0.4938647983
 41
0.0
 42
6.283185307179586
  0
ENDBLK
  5
344
330
251
100
AcDbEntity
  8
0
  6
ByBlock
 62
     0
100
AcDbBlockEnd
  0
ENDSEC
  0
SECTION
  2
ENTITIES
  0
TEXT
  5
462
330
232
100
AcDbEntity
  8
0
  6
Continuous
 62
     7
100
AcDbText
 10
168.210790069
 20
31.1666666667
 30
0.0
 40
0.3333333333
  1
 
 41
0.454385964835003
  7
TEXTSTYLE_3
 72
     5
 11
168.347827106
 21
31.1666666667
 31
0.0
100
AcDbText
  0
LINE
  5
4001
330
232
100
AcDbEntity
  8
0
  6
Continuous
 62
     7
100
AcDbLine
 10
373.2687639431854
 20
42.68467788019999
 30
0.0
 11
373.2287724058854
 21
41.9215938911
 31
0.0
  0
LINE
  5
4002
330
232
100
AcDbEntity
  8
0
  6
Continuous
 62
     7
100
AcDbLine
 10
373.4663561638853
 20
42.68467788019999
 30
0.0
 11
373.4663561638853
 21
24.6846778802
 31
0.0
  0
LINE
  5
4003
330
232
100
AcDbEntity
  8
DEFAULT_2
  6
HIDDEN
 62
     8
100
AcDbLine
 10
367.9428372830853
 20
28.0539533086
 30
0.0
 11
367.9398103784853
 21
28.0427480297
 31
0.0
  0
LINE
  5
4004
330
232
100
AcDbEntity
  8
DEFAULT_2
  6
HIDDEN
 62
     8
100
AcDbLine
 10
367.9454639334854
 20
28.0638592367
 30
0.0
 11
367.9428372830853
 21
28.0539533086
 31
0.0
  0
LINE
  5
4005
330
232
100
AcDbEntity
  8
DEFAULT_2
  6
HIDDEN
 62
     8
100
AcDbLine
 10
367.9483869322853
 20
28.0750871685
 30
0.0
 11
367.9454639334854
 21
28.0638592367
 31
0.0
  0
LINE
  5
4006
330
232
100
AcDbEntity
  8
DEFAULT_2
  6
HIDDEN
 62
     8
100
AcDbLine
 10
367.9515690257854
 20
28.08755572
 30
0.0
 11
367.9483869322853
 21
28.0750871685
 31
0.0
  0
LINE
  5
4007
330
232
100
AcDbEntity
  8
DEFAULT_2
  6
HIDDEN
 62
     8
100
AcDbLine
 10
367.9550220398854
 20
28.1013706769
 30
0.0
 11
367.9515690257854
 21
28.08755572
 31
0.0
  0
LINE
  5
4008
330
232
100
AcDbEntity
  8
DEFAULT_2
  6
HIDDEN
 62
     8
100
AcDbLine
 10
367.9587296895854
 20
28.1165211372
 30
0.0
 11
367.9550220398854
 21
28.1013706769
 31
0.0
  0
LINE
  5
4009
330
232
100
AcDbEntity
  8
DEFAULT_2
  6
HIDDEN
 62
     8
100
AcDbLine
 10
367.9626599818853
 20
28.13291247530001
 30
0.0
 11
367.9587296895854
 21
28.1165211372
 31
0.0
  0
LINE
  5
400A
330
232
100
AcDbEntity
  8
DEFAULT_2
  6
HIDDEN
 62
     8
100
AcDbLine
 10
367.9678723298853
 20
28.1551025502
 30
0.0
 11
367.9626599818853
 21
28.13291247530001
 31
0.0
  0
LINE
  5
400B
330
232
100
AcDbEntity
  8
DEFAULT_2
  6
HIDDEN
 62
     8
100
AcDbLine
 10
367.9757365125853
 20
28.1892686171
 30
0.0
 11
367.9678723298853
 21
28.1551025502
 31
0.0
  0
LINE
  5
400C
330
232
100
AcDbEntity
  8
DEFAULT_2
  6
HIDDEN
 62
     8
100
AcDbLine
 10
367.9793246674853
 20
28.2049985189
 30
0.0
 11
367.9757365125853
 21
28.1892686171
 31
0.0
  0
LINE
  5
400D
330
232
100
AcDbEntity
  8
DEFAULT_1
  6
CENTER
 62
     7
100
AcDbLine
 10
363.1218395589854
 20
27.9056413924
 30
0.0
 11
363.1218395589854
 21
24.6548155646
 31
0.0
  0
LINE
  5
400E
330
232
100
AcDbEntity
  8
DEFAULT_2
  6
HIDDEN
 62
     8
100
AcDbLine
 10
364.5700628636853
 20
26.2579011849
 30
0.0
 11
364.9469173433853
 21
26.6347556646
 31
0.0
  0
LINE
  5
400F
330
232
100
AcDbEntity
  8
DEFAULT_2
  6
HIDDEN
 62
     8
100
AcDbLine
 10
361.6736162542853
 20
26.2579011849
 30
0.0
 11
361.2759965486853
 21
26.65552089050001
 31
0.0
  0
LINE
  5
4010
330
232
100
AcDbEntity
  8
0
  6
Continuous
 62
     7
100
AcDbLine
 10
373.4663561638853
 20
24.6846778802
 30
0.0
 11
313.4663561638853
 21
24.6846778802
 31
0.0
  0
LINE
  5
4011
330
232
100
AcDbEntity
  8
DEFAULT_2
  6
HIDDEN
 62
     8
100
AcDbLine
 10
361.8503929495854
 20
26.1846778802
 30
0.0
 11
364.3932861683854
 21
26.1846778802
 31
0.0
  0
LINE
  5
4012
330
232
100
AcDbEntity
  8
DEFAULT_2
  6
HIDDEN
 62
     8
100
AcDbLine
 10
366.6774003977853
 20
26.819677147
 30
0.0
 11
366.6059288096854
 21
26.8125404987
 31
0.0
  0
LINE
  5
4013
330
232
100
AcDbEntity
  8
DEFAULT_2
  6
HIDDEN
 62
     8
100
AcDbLine
 10
366.6774979398854
 20
26.8196876355
 30
0.0
 11
366.6774003977853
 21
26.819677147
 31
0.0
  0
LINE
  5
4014
330
232
100
AcDbEntity
  8
DEFAULT_2
  6
HIDDEN
 62
     8
100
AcDbLine
 10
323.9250688062853
 20
27.5406026793
 30
0.0
 11
323.9436568831853
 21
27.5401246339
 31
0.0
  0
LINE
  5
4015
330
232
100
AcDbEntity
  8
DEFAULT_2
  6
HIDDEN
 62
     8
100
AcDbLine
 10
323.9436568831853
 20
27.5401246339
 30
0.0
 11
323.9726126883853
 21
27.5394709165
 31
0.0
  0
LINE
  5
4016
330
232
100
AcDbEntity
  8
0
  6
Continuous
 62
     7
100
AcDbLine
 10
317.3651565765854
 20
41.6839450581
 30
0.0
 11
317.3669461795853
 21
41.6838447753
 31
0.0
  0
LINE
  5
4017
330
232
100
AcDbEntity
  8
0
  6
Continuous
 62
     7
100
AcDbLine
 10
317.3626531749853
 20
41.684074549
 30
0.0
 11
317.3651565765854
 21
41.6839450581
 31
0.0
  0
LINE
  5
4018
330
232
100
AcDbEntity
  8
0
  6
Continuous
 62
     7
100
AcDbLine
 10
317.3597766597853
 20
41.6842078102
 30
0.0
 11
317.3626531749853
 21
41.684074549
 31
0.0
  0
LINE
  5
4019
330
232
100
AcDbEntity
  8
0
  6
Continuous
 62
     7
100
AcDbLine
 10
317.3567978900853
 20
41.6843283189
 30
0.0
 11
317.3597766597853
 21
41.6842078102
 31
0.0
  0
LINE
  5
401A
330
232
100
AcDbEntity
  8
0
  6
Continuous
 62
     7
100
AcDbLine
 10
317.3538696652853
 20
41.68442944989999
 30
0.0
 11
317.3567978900853
 21
41.6843283189
 31
0.0
  0
LINE
  5
401B
330
232
100
AcDbEntity
  8
0
  6
Continuous
 62
     7
100
AcDbLine
 10
317.3511251754853
 20
41.6845086436
 30
0.0
 11
317.3538696652853
 21
41.68442944989999
 31
0.0
  0
LINE
  5
401C
330
232
100
AcDbEntity
  8
0
  6
Continuous
 62
     7
100
AcDbLine
 10
317.3485552980853
 20
41.68456912749999
 30
0.0
 11
317.3511251754853
 21
41.6845086436
 31
0.0
  0
LINE
  5
401D
330
232
100
AcDbEntity
  8
0
  6
Continuous
 62
     7
100
AcDbLine
 10
317.3461094901853
 20
41.6846144161
 30
0.0
 11
317.3485552980853
 21
41.68456912749999
 31
0.0
  0
LINE
  5
401E
330
232
100
AcDbEntity
  8
0
  6
Continuous
 62
     7
100
AcDbLine
 10
372.9791150221853
 20
41.6846778802
 30
0.0
 11
313.9535973054853
 21
41.6846778802
 31
0.0
  0
LINE
  5
401F
330
232
100
AcDbEntity
  8
0
  6
Continuous
 62
     7
100
AcDbLine
 10
373.4663561638853
 20
42.68467788019999
 30
0.0
 11
313.4663561638853
 21
42.68467788019999
 31
0.0
  0
LWPOLYLINE
  5
4020
330
232
100
AcDbEntity
  8
DEFAULT_2
  6
HIDDEN
 62
     8
100
AcDbPolyline
 90
       34
 70
     0
 43
0.0
 10
323.1157039442853
 20
27.8110638464
 10
323.0965935954853
 20
27.8250760672
 10
323.0800581488853
 20
27.8375982667
 10
323.0655041320854
 20
27.8489374236
 10
323.0525233138853
 20
27.85931075780001
 10
323.0408224070853
 20
27.8688783231
 10
323.0301803261854
 20
27.8777644373
 10
323.0204274989853
 20
27.8860667881
 10
323.0114361676854
 20
27.8938591746
 10
323.0030989547854
 20
27.9012063413
 10
322.9953286201853
 20
27.9081620137
 10
322.9880546252854
 20
27.91477014010001
 10
322.9812362001853
 20
27.9210513083
 10
322.9748300986853
 20
27.9270309496
 10
322.9687607536853
 20
27.9327677166
 10
322.9629433449853
 20
27.9383329461
 10
322.9573176198853
 20
27.94377802610001
 10
322.9518624280853
 20
27.949118571
 10
322.9465602551853
 20
27.954367514
 10
322.9413936845854
 20
27.9595384512
 10
322.9363454061854
 20
27.9646456145
 10
322.9313982254853
 20
27.9697038478
 10
322.9265390385854
 20
27.9747244672
 10
322.9217708360853
 20
27.9797024424
 10
322.9171004211853
 20
27.9846285513
 10
322.9125343353853
 20
27.9894935399
 10
322.9080789228853
 20
27.9942880701
 10
322.9037404423853
 20
27.9990026139
 10
322.8995252791853
 20
28.0036272318
 10
322.8954410250854
 20
28.008150374
 10
322.8915049395853
 20
28.0125493333
 10
322.8877392869854
 20
28.0167950687
 10
322.8841468040853
 20
28.0208800283
 10
322.8779477200853
 20
28.0280094573
  0
LINE
  5
4021
330
232
100
AcDbEntity
  8
DEFAULT_2
  6
HIDDEN
 62
     8
100
AcDbLine
 10
322.6426685218854
 20
28.4120778843
 30
0.0
 11
322.6427675051854
 21
28.4118663032
 31
0.0
  0
LWPOLYLINE
  5
4022
330
232
100
AcDbEntity
  8
DEFAULT_2
  6
HIDDEN
 62
     8
100
AcDbPolyline
 90
       14
 70
     0
 43
0.0
 10
322.7274154213853
 20
28.2430482208
 10
322.7232237147854
 20
28.2505431167
 10
322.7183126302854
 20
28.2594508067
 10
322.7128902548853
 20
28.2694458577
 10
322.7070303579854
 20
28.280436866
 10
322.7007965201853
 20
28.2923444988
 10
322.6942366721853
 20
28.3051109155
 10
322.6873965320854
 20
28.3186726592
 10
322.6803209798853
 20
28.3329551639
 10
322.6730511370853
 20
28.3478760192
 10
322.6656257804854
 20
28.3633403795
 10
322.6580805963853
 20
28.3792420026
 10
322.6504476922853
 20
28.3954658112
 10
322.6427675524853
 20
28.4118662021
  0
LINE
  5
4023
330
232
100
AcDbEntity
  8
0
  6
Continuous
 62
     7
100
AcDbLine
 10
313.7039399218854
 20
41.9215938911
 30
0.0
 11
313.6639483845854
 21
42.68467788019999
 31
0.0
  0
LINE
  5
4024
330
232
100
AcDbEntity
  8
0
  6
Continuous
 62
     7
100
AcDbLine
 10
313.4663561638853
 20
24.6846778802
 30
0.0
 11
313.4663561638853
 21
42.68467788019999
 31
0.0
  0
ARC
  5
40E2
330
232
100
AcDbEntity
  8
DEFAULT_2
  6
HIDDEN
 62
     8
100
AcDbCircle
 10
400.7561646193853
 20
64.955536842
 30
0.0
 40
86.2388698045
100
AcDbArc
 50
195.9054575013
 51
205.0713743825994
  0
ARC
  5
40E3
330
232
100
AcDbEntity
  8
DEFAULT_2
  6
HIDDEN
 62
     8
100
AcDbCircle
 10
363.7683134399853
 20
56.55256197619999
 30
0.0
 40
29.8750889282
100
AcDbArc
 50
272.5787211164006
 51
275.4503217050999
  0
ARC
  5
40E4
330
232
100
AcDbEntity
  8
DEFAULT_2
  6
HIDDEN
 62
     8
100
AcDbCircle
 10
324.0979395540853
 20
35.439976086
 30
0.0
 40
7.8947311636
100
AcDbArc
 50
268.8800282537989
 51
269.0914552465993
  0
ARC
  5
40E5
330
232
100
AcDbEntity
  8
DEFAULT_2
  6
HIDDEN
 62
     8
100
AcDbCircle
 10
324.0328166447853
 20
32.06976673280001
 30
0.0
 40
4.5238928316
100
AcDbArc
 50
268.6343274560016
 51
268.8703587376011
  0
ARC
  5
40E6
330
232
100
AcDbEntity
  8
DEFAULT_2
  6
HIDDEN
 62
     8
100
AcDbCircle
 10
324.2725294471853
 20
29.1082708746
 30
0.0
 40
1.770884410099999
100
AcDbArc
 50
206.8628342445004
 51
208.9725184018998
  0
ARC
  5
40E7
330
232
100
AcDbEntity
  8
DEFAULT_2
  6
HIDDEN
 62
     8
100
AcDbCircle
 10
323.9980004281854
 20
28.9581090306
 30
0.0
 40
1.457976093799999
100
AcDbArc
 50
209.0357773123992
 51
210.6200402583998
  0
ARC
  5
40E8
330
232
100
AcDbEntity
  8
DEFAULT_2
  6
HIDDEN
 62
     8
100
AcDbCircle
 10
323.9852030277853
 20
28.9418856907
 30
0.0
 40
1.439478839199999
100
AcDbArc
 50
208.7170876314001
 51
210.3101519979995
  0
ARC
  5
40E9
330
232
100
AcDbEntity
  8
DEFAULT_2
  6
HIDDEN
 62
     8
100
AcDbCircle
 10
317.3380742601854
 20
41.1846778802
 30
0.0
 40
0.5
100
AcDbArc
 50
15.90547716799971
 51
89.99987022469916
  0
ARC
  5
40EA
330
232
100
AcDbEntity
  8
DEFAULT_2
  6
HIDDEN
 62
     8
100
AcDbCircle
 10
370.7996465796854
 20
41.1846778802
 30
0.0
 40
0.4999999585000001
100
AcDbArc
 50
90.0
 51
170.9999973983998
  0
ARC
  5
40EB
330
232
100
AcDbEntity
  8
DEFAULT_2
  6
HIDDEN
 62
     8
100
AcDbCircle
 10
361.8503929495854
 20
26.4346778802
 30
0.0
 40
0.25
100
AcDbArc
 50
224.9999999999998
 51
270.0
  0
ARC
  5
40EC
330
232
100
AcDbEntity
  8
DEFAULT_2
  6
HIDDEN
 62
     8
100
AcDbCircle
 10
364.3932861683854
 20
26.4346778802
 30
0.0
 40
0.25
100
AcDbArc
 50
270.0
 51
315.0000000000002
  0
ARC
  5
40ED
330
232
100
AcDbEntity
  8
DEFAULT_2
  6
HIDDEN
 62
     8
100
AcDbCircle
 10
361.0992198533854
 20
26.4787441952
 30
0.0
 40
0.25
100
AcDbArc
 50
44.99999999999977
 51
88.74335052159942
  0
ARC
  5
40EE
330
232
100
AcDbEntity
  8
DEFAULT_2
  6
HIDDEN
 62
     8
100
AcDbCircle
 10
365.1236940386854
 20
26.4579789693
 30
0.0
 40
0.25
100
AcDbArc
 50
92.57715606160115
 51
135.0000000000002
  0
ARC
  5
40EF
330
232
100
AcDbEntity
  8
0
  6
Continuous
 62
     7
100
AcDbCircle
 10
313.9535973054853
 20
41.9346778802
 30
0.0
 40
0.25
100
AcDbArc
 50
183.0
 51
270.0
  0
ARC
  5
40F0
330
232
100
AcDbEntity
  8
0
  6
Continuous
 62
     7
100
AcDbCircle
 10
372.9791150221853
 20
41.9346778802
 30
0.0
 40
0.25
100
AcDbArc
 50
270.0
 51
357.0000000002
  0
SPLINE
  5
411D
330
232
100
AcDbEntity
  8
DEFAULT_2
  6
HIDDEN
 62
     8
100
AcDbSpline
210
0.0
220
0.0
230
1.0
 70
     8
 71
     3
 72
    21
 73
    17
 74
     0
 42
0.0000001
 43
0.0000000001
 40
0.0
 40
0.0
 40
0.0
 40
0.0
 40
0.0552811604
 40
0.2282852292
 40
0.3147872636
 40
0.401289298
 40
0.4877913324
 40
0.5310423496
 40
0.5742933668
 40
0.6029118267
 40
0.6315302867
 40
0.6887672066000001
 40
0.7460041265
 40
0.8032410463999999
 40
0.9177148862000001
 40
1.0
 40
1.0
 40
1.0
 40
1.0
 10
367.9793263111853
 20
28.2050039485
 30
0.0
 10
368.0336484146853
 20
28.443359618
 30
0.0
 10
368.2547994401854
 20
29.4283799039
 30
0.0
 10
368.5416505440854
 20
30.7906471438
 30
0.0
 10
368.8342340544854
 20
32.292569706
 30
0.0
 10
369.0423088475853
 20
33.4211662349
 30
0.0
 10
369.2061563219854
 20
34.3633728175
 30
0.0
 10
369.3316337822853
 20
35.1180842787
 30
0.0
 10
369.4123294012853
 20
35.6207414814
 30
0.0
 10
369.4816607885854
 20
36.0596830908
 30
0.0
 10
369.5609048998854
 20
36.559674872
 30
0.0
 10
369.6598697404854
 20
37.1846789005
 30
0.0
 10
369.7786662008854
 20
37.9346776128
 30
0.0
 10
369.9370479755854
 20
38.934678035
 30
0.0
 10
370.1127617681854
 20
40.044083603
 30
0.0
 10
370.2488781340853
 20
40.9034893796
 30
0.0
 10
370.3058023718853
 20
41.26289514159999
 30
0.0
  0
LINE
  5
411E
330
232
100
AcDbEntity
  8
DEFAULT_2
  6
HIDDEN
 62
     8
100
AcDbLine
 10
361.1047025805854
 20
26.7286840674
 30
0.0
 11
357.2575507843853
 21
26.8127212125
 31
0.0
  0
LINE
  5
411F
330
232
100
AcDbEntity
  8
DEFAULT_2
  6
HIDDEN
 62
     8
100
AcDbLine
 10
348.8419963446854
 20
26.9964671508
 30
0.0
 11
357.2575507843853
 21
26.8127212125
 31
0.0
  0
LINE
  5
4120
330
232
100
AcDbEntity
  8
DEFAULT_2
  6
HIDDEN
 62
     8
100
AcDbLine
 10
337.8604896632854
 20
27.2362398889
 30
0.0
 11
348.8419963446854
 21
26.9964671508
 31
0.0
  0
LINE
  5
4121
330
232
100
AcDbEntity
  8
DEFAULT_2
  6
HIDDEN
 62
     8
100
AcDbLine
 10
337.8604896632854
 20
27.2362398889
 30
0.0
 11
323.9802170854853
 21
27.5393048804
 31
0.0
  0
LINE
  5
4122
330
232
100
AcDbEntity
  8
DEFAULT_2
  6
HIDDEN
 62
     8
100
AcDbLine
 10
323.9802170854853
 20
27.5393048804
 30
0.0
 11
323.9726126883853
 21
27.5394709165
 31
0.0
  0
LINE
  5
4123
330
232
100
AcDbEntity
  8
DEFAULT_2
  6
HIDDEN
 62
     8
100
AcDbLine
 10
322.6467564098854
 20
28.4033410896
 30
0.0
 11
322.6518150379853
 21
28.3925427769
 31
0.0
  0
SPLINE
  5
4124
330
232
100
AcDbEntity
  8
DEFAULT_2
  6
HIDDEN
 62
     8
100
AcDbSpline
210
0.0
220
0.0
230
1.0
 70
     8
 71
     3
 72
     9
 73
     5
 74
     0
 42
0.0000001
 43
0.0000000001
 40
0.0
 40
0.0
 40
0.0
 40
0.0
 40
0.2487796778
 40
1.0
 40
1.0
 40
1.0
 40
1.0
 10
322.6518150379853
 20
28.3925427769
 30
0.0
 10
322.6551145072854
 20
28.3855089059
 30
0.0
 10
322.6684099321853
 20
28.3572512162
 30
0.0
 10
322.6819638017853
 20
28.3291119088
 30
0.0
 10
322.6924818518853
 20
28.3081415358
 30
0.0
  0
SPLINE
  5
4125
330
232
100
AcDbEntity
  8
DEFAULT_2
  6
HIDDEN
 62
     8
100
AcDbSpline
210
0.0
220
0.0
230
1.0
 70
     8
 71
     3
 72
     9
 73
     5
 74
     0
 42
0.0000001
 43
0.0000000001
 40
0.0
 40
0.0
 40
0.0
 40
0.0
 40
0.248206858
 40
1.0
 40
1.0
 40
1.0
 40
1.0
 10
322.6924818518853
 20
28.3081415358
 30
0.0
 10
322.6949059545853
 20
28.3033084786
 30
0.0
 10
322.7047436446853
 20
28.2838725559
 30
0.0
 10
322.7149048820854
 20
28.2645990986
 30
0.0
 10
322.7227759040853
 20
28.2502375968
 30
0.0
  0
SPLINE
  5
4126
330
232
100
AcDbEntity
  8
DEFAULT_2
  6
HIDDEN
 62
     8
100
AcDbSpline
210
0.0
220
0.0
230
1.0
 70
     8
 71
     3
 72
    18
 73
    14
 74
     0
 42
0.0000001
 43
0.0000000001
 40
0.0
 40
0.0
 40
0.0
 40
0.0
 40
0.11821822
 40
0.1804712977
 40
0.2446562277
 40
0.3773515644
 40
0.5123481215
 40
0.6448345981000001
 40
0.770866614
 40
0.8308322088
 40
0.8888289590999999
 40
0.9450283183999999
 40
1.0
 40
1.0
 40
1.0
 40
1.0
 10
322.7424921047854
 20
28.2154086504
 30
0.0
 10
322.7708057393854
 20
28.1670042068
 30
0.0
 10
322.8186215511854
 20
28.095618476
 30
0.0
 10
322.8928435170853
 20
28.0063063457
 30
0.0
 10
322.9777261986853
 20
27.9172791223
 30
0.0
 10
323.0978953992853
 20
27.8147908864
 30
0.0
 10
323.2575528891854
 20
27.71114320800001
 30
0.0
 10
323.4265234497854
 20
27.6305449911
 30
0.0
 10
323.5709490089853
 20
27.5844321275
 30
0.0
 10
323.6843921006853
 20
27.5611212456
 30
0.0
 10
323.7662696976853
 20
27.5496982097
 30
0.0
 10
323.8462985900853
 20
27.54334426550001
 30
0.0
 10
323.8990040656854
 20
27.5413692074
 30
0.0
 10
323.9250695572853
 20
27.5406291269
 30
0.0
  0
SPLINE
  5
4127
330
232
100
AcDbEntity
  8
DEFAULT_2
  6
HIDDEN
 62
     8
100
AcDbSpline
210
0.0
220
0.0
230
1.0
 70
     8
 71
     3
 72
    23
 73
    19
 74
     0
 42
0.0000001
 43
0.0000000001
 40
0.0
 40
0.0
 40
0.0
 40
0.0
 40
0.0571570727
 40
0.1151450652
 40
0.1745223549
 40
0.235622271
 40
0.2985896169
 40
0.3632548543
 40
0.4293274254
 40
0.4962952709000001
 40
0.5635091369
 40
0.6303255284000001
 40
0.7602617508
 40
0.8227430943999999
 40
0.8833755208999999
 40
0.9130574612
 40
0.9423335403000001
 40
1.0
 40
1.0
 40
1.0
 40
1.0
 10
367.9253570475854
 20
27.9693528306
 30
0.0
 10
367.9175425794854
 20
27.9353976638
 30
0.0
 10
367.9017287129854
 20
27.8670050944
 30
0.0
 10
367.8735119302853
 20
27.7643711085
 30
0.0
 10
367.8376374704853
 20
27.6615539246
 30
0.0
 10
367.7922197806854
 20
27.5592094749
 30
0.0
 10
367.7362064200853
 20
27.4585350383
 30
0.0
 10
367.6696858956853
 20
27.3607774898
 30
0.0
 10
367.5929928098853
 20
27.267594434
 30
0.0
 10
367.5072688554853
 20
27.18046402340001
 30
0.0
 10
367.4138179232854
 20
27.1009538022
 30
0.0
 10
367.2824809471854
 20
27.0077229626
 30
0.0
 10
367.1417806377854
 20
26.9335654073
 30
0.0
 10
366.9966662293854
 20
26.8807842855
 30
0.0
 10
366.9065801697854
 20
26.8566446204
 30
0.0
 10
366.8351783735853
 20
26.8418722616
 30
0.0
 10
366.7650687752853
 20
26.8299980017
 30
0.0
 10
366.7124430086853
 20
26.8235084231
 30
0.0
 10
366.6774934423854
 20
26.8197292271
 30
0.0
  0
LINE
  5
4128
330
232
100
AcDbEntity
  8
DEFAULT_2
  6
HIDDEN
 62
     8
100
AcDbLine
 10
322.6467899553853
 20
28.4032726904
 30
0.0
 11
322.6518753096854
 21
28.3924302707
 31
0.0
  0
SPLINE
  5
4129
330
232
100
AcDbEntity
  8
DEFAULT_2
  6
HIDDEN
 62
     8
100
AcDbSpline
210
0.0
220
0.0
230
1.0
 70
     8
 71
     3
 72
     9
 73
     5
 74
     0
 42
0.0000001
 43
0.0000000001
 40
0.0
 40
0.0
 40
0.0
 40
0.0
 40
0.7496355802
 40
1.0
 40
1.0
 40
1.0
 40
1.0
 10
322.6518753096854
 20
28.3924302707
 30
0.0
 10
322.6618333702854
 20
28.3712329958
 30
0.0
 10
322.6752386556853
 20
28.343010252
 30
0.0
 10
322.6892024299854
 20
28.3150621224
 30
0.0
 10
322.6927397208854
 20
28.3080858869
 30
0.0
  0
SPLINE
  5
412A
330
232
100
AcDbEntity
  8
DEFAULT_2
  6
HIDDEN
 62
     8
100
AcDbSpline
210
0.0
220
0.0
230
1.0
 70
     8
 71
     3
 72
    18
 73
    14
 74
     0
 42
0.0000001
 43
0.0000000001
 40
0.0
 40
0.0
 40
0.0
 40
0.0
 40
0.061783691
 40
0.1250708235
 40
0.1898762735
 40
0.2559653197
 40
0.3904462095999999
 40
0.5247355859000001
 40
0.6546767724000001
 40
0.7773265712999999
 40
0.8918520502999999
 40
0.9465052381999999
 40
1.0
 40
1.0
 40
1.0
 40
1.0
 10
322.7433187943853
 20
28.2154999222
 30
0.0
 10
322.7582063837854
 20
28.1903647114
 30
0.0
 10
322.7899589247854
 20
28.1404149621
 30
0.0
 10
322.8432975539853
 20
28.0681067368
 30
0.0
 10
322.9030159142853
 20
27.9982592499
 30
0.0
 10
322.9910709738854
 20
27.9087468495
 30
0.0
 10
323.1135955382854
 20
27.8076388699
 30
0.0
 10
323.2737893797854
 20
27.707282774
 30
0.0
 10
323.4405228900854
 20
27.6307487612
 30
0.0
 10
323.6070119102854
 20
27.5797754511
 30
0.0
 10
323.7435749976854
 20
27.5574190101
 30
0.0
 10
323.8485932662853
 20
27.5494865916
 30
0.0
 10
323.8997108766853
 20
27.5477646189
 30
0.0
 10
323.9249976866854
 20
27.54715892050001
 30
0.0
  0
LINE
  5
412B
330
232
100
AcDbEntity
  8
DEFAULT_2
  6
HIDDEN
 62
     8
100
AcDbLine
 10
323.9727572797854
 20
27.546237457
 30
0.0
 11
323.9803679712853
 21
27.5461163065
 31
0.0
  0
LINE
  5
412C
330
232
100
AcDbEntity
  8
DEFAULT_2
  6
HIDDEN
 62
     8
100
AcDbLine
 10
322.6427666717853
 20
28.4118680856
 30
0.0
 11
322.6467899546853
 21
28.4032726918
 31
0.0
  0
SPLINE
  5
412D
330
232
100
AcDbEntity
  8
DEFAULT_2
  6
HIDDEN
 62
     8
100
AcDbSpline
210
0.0
220
0.0
230
1.0
 70
     8
 71
     3
 72
    23
 73
    19
 74
     0
 42
0.0000001
 43
0.0000000001
 40
0.0
 40
0.0
 40
0.0
 40
0.0
 40
0.0603621407
 40
0.1213579903
 40
0.1838381215
 40
0.2481487509
 40
0.3142315475
 40
0.3816514822999999
 40
0.4498432591
 40
0.5180269977
 40
0.5853945434000001
 40
0.6512486007
 40
0.7149949299
 40
0.7763363527
 40
0.8351362045999998
 40
0.8916582393
 40
0.9463129581
 40
1.0
 40
1.0
 40
1.0
 40
1.0
 10
322.6467899546853
 20
28.4032726918
 30
0.0
 10
322.6611746223854
 20
28.3725620967
 30
0.0
 10
322.6903297948853
 20
28.3109174063
 30
0.0
 10
322.7392382925854
 20
28.2198659417
 30
0.0
 10
322.7960293657853
 20
28.1308166202
 30
0.0
 10
322.8618363843854
 20
28.0445590392
 30
0.0
 10
322.9366789108853
 20
27.9622241591
 30
0.0
 10
323.0196505381854
 20
27.8848605372
 30
0.0
 10
323.1095910093853
 20
27.8138102981
 30
0.0
 10
323.2047843157853
 20
27.7500328473
 30
0.0
 10
323.3035399837854
 20
27.69456233570001
 30
0.0
 10
323.4040512973854
 20
27.6479915755
 30
0.0
 10
323.5048008513853
 20
27.6108159354
 30
0.0
 10
323.6043821338853
 20
27.5828800152
 30
0.0
 10
323.7019066270854
 20
27.563901861
 30
0.0
 10
323.7968140963853
 20
27.5526194153
 30
0.0
 10
323.8893459432853
 20
27.5476557637
 30
0.0
 10
323.9502073543853
 20
27.5465908981
 30
0.0
 10
323.9803659560853
 20
27.5461163382
 30
0.0
  0
ENDSEC
  0
SECTION
  2
OBJECTS
  0
DICTIONARY
  5
C
330
0
100
AcDbDictionary
281
     1
  3
ACAD_CIP_PREVIOUS_PRODUCT_INFO
350
3F57
  3
ACAD_COLOR
350
3EEC
  3
ACAD_DETAILVIEWSTYLE
350
3F05
  3
ACAD_GROUP
350
D
  3
ACAD_LAYOUT
350
1A
  3
ACAD_MATERIAL
350
3EBA
  3
ACAD_MLEADERSTYLE
350
3F01
  3
ACAD_MLINESTYLE
350
17
  3
ACAD_PLOTSETTINGS
350
19
  3
ACAD_PLOTSTYLENAME
350
E
  3
ACAD_SCALELIST
350
3EEF
  3
ACAD_SECTIONVIEWSTYLE
350
3F03
  3
ACAD_TABLESTYLE
350
3EED
  3
ACAD_VISUALSTYLE
350
3ED3
  3
ACDB_RECOMPOSE_DATA
350
4314
  3
AcDbVariableDictionary
350
3F49
  3
DWGPROPS
350
4315
  0
DICTIONARY
  5
3F0A
330
8
100
AcDbDictionary
280
     1
281
     1
  0
DICTIONARY
  5
3F58
330
10
100
AcDbDictionary
280
     1
281
     1
  3
ADSK_XREC_LAYER_RECONCILED
360
3F59
  0
DICTIONARY
  5
3F5A
330
1FA
100
AcDbDictionary
280
     1
281
     1
  3
ADSK_XREC_LAYER_RECONCILED
360
3F5B
  0
DICTIONARY
  5
3F5C
330
1FB
100
AcDbDictionary
280
     1
281
     1
  3
ADSK_XREC_LAYER_RECONCILED
360
3F5D
  0
DICTIONARY
  5
3F5E
330
1FC
100
AcDbDictionary
280
     1
281
     1
  3
ADSK_XREC_LAYER_RECONCILED
360
3F5F
  0
DICTIONARY
  5
3F60
330
1FD
100
AcDbDictionary
280
     1
281
     1
  3
ADSK_XREC_LAYER_RECONCILED
360
3F61
  0
DICTIONARY
  5
3F62
330
1FE
100
AcDbDictionary
280
     1
281
     1
  3
ADSK_XREC_LAYER_RECONCILED
360
3F63
  0
DICTIONARY
  5
3F64
330
1FF
100
AcDbDictionary
280
     1
281
     1
  3
ADSK_XREC_LAYER_RECONCILED
360
3F65
  0
DICTIONARY
  5
3F66
330
200
100
AcDbDictionary
280
     1
281
     1
  3
ADSK_XREC_LAYER_RECONCILED
360
3F67
  0
DICTIONARY
  5
3F68
330
201
100
AcDbDictionary
280
     1
281
     1
  3
ADSK_XREC_LAYER_RECONCILED
360
3F69
  0
DICTIONARY
  5
3F6A
330
202
100
AcDbDictionary
280
     1
281
     1
  3
ADSK_XREC_LAYER_RECONCILED
360
3F6B
  0
DICTIONARY
  5
3F6C
330
203
100
AcDbDictionary
280
     1
281
     1
  3
ADSK_XREC_LAYER_RECONCILED
360
3F6D
  0
DICTIONARY
  5
3F6E
330
204
100
AcDbDictionary
280
     1
281
     1
  3
ADSK_XREC_LAYER_RECONCILED
360
3F6F
  0
DICTIONARY
  5
3F70
330
205
100
AcDbDictionary
280
     1
281
     1
  3
ADSK_XREC_LAYER_RECONCILED
360
3F71
  0
DICTIONARY
  5
3F72
330
206
100
AcDbDictionary
280
     1
281
     1
  3
ADSK_XREC_LAYER_RECONCILED
360
3F73
  0
DICTIONARY
  5
3F74
330
207
100
AcDbDictionary
280
     1
281
     1
  3
ADSK_XREC_LAYER_RECONCILED
360
3F75
  0
DICTIONARY
  5
3F76
330
208
100
AcDbDictionary
280
     1
281
     1
  3
ADSK_XREC_LAYER_RECONCILED
360
3F77
  0
DICTIONARY
  5
3F78
330
209
100
AcDbDictionary
280
     1
281
     1
  3
ADSK_XREC_LAYER_RECONCILED
360
3F79
  0
DICTIONARY
  5
3F7A
330
20A
100
AcDbDictionary
280
     1
281
     1
  3
ADSK_XREC_LAYER_RECONCILED
360
3F7B
  0
DICTIONARY
  5
3F7C
330
20B
100
AcDbDictionary
280
     1
281
     1
  3
ADSK_XREC_LAYER_RECONCILED
360
3F7D
  0
DICTIONARY
  5
3F7E
330
20C
100
AcDbDictionary
280
     1
281
     1
  3
ADSK_XREC_LAYER_RECONCILED
360
3F7F
  0
DICTIONARY
  5
3F80
330
20D
100
AcDbDictionary
280
     1
281
     1
  3
ADSK_XREC_LAYER_RECONCILED
360
3F81
  0
DICTIONARY
  5
3F82
330
20E
100
AcDbDictionary
280
     1
281
     1
  3
ADSK_XREC_LAYER_RECONCILED
360
3F83
  0
DICTIONARY
  5
3F84
330
20F
100
AcDbDictionary
280
     1
281
     1
  3
ADSK_XREC_LAYER_RECONCILED
360
3F85
  0
DICTIONARY
  5
3F86
330
210
100
AcDbDictionary
280
     1
281
     1
  3
ADSK_XREC_LAYER_RECONCILED
360
3F87
  0
DICTIONARY
  5
3F88
330
211
100
AcDbDictionary
280
     1
281
     1
  3
ADSK_XREC_LAYER_RECONCILED
360
3F89
  0
DICTIONARY
  5
3F8A
330
212
100
AcDbDictionary
280
     1
281
     1
  3
ADSK_XREC_LAYER_RECONCILED
360
3F8B
  0
DICTIONARY
  5
3F8C
330
213
100
AcDbDictionary
280
     1
281
     1
  3
ADSK_XREC_LAYER_RECONCILED
360
3F8D
  0
DICTIONARY
  5
3F8E
330
214
100
AcDbDictionary
280
     1
281
     1
  3
ADSK_XREC_LAYER_RECONCILED
360
3F8F
  0
DICTIONARY
  5
3F90
330
215
100
AcDbDictionary
280
     1
281
     1
  3
ADSK_XREC_LAYER_RECONCILED
360
3F91
  0
DICTIONARY
  5
3F92
330
216
100
AcDbDictionary
280
     1
281
     1
  3
ADSK_XREC_LAYER_RECONCILED
360
3F93
  0
DICTIONARY
  5
3F94
330
217
100
AcDbDictionary
280
     1
281
     1
  3
ADSK_XREC_LAYER_RECONCILED
360
3F95
  0
DICTIONARY
  5
3F96
330
218
100
AcDbDictionary
280
     1
281
     1
  3
ADSK_XREC_LAYER_RECONCILED
360
3F97
  0
DICTIONARY
  5
3F98
330
219
100
AcDbDictionary
280
     1
281
     1
  3
ADSK_XREC_LAYER_RECONCILED
360
3F99
  0
DICTIONARY
  5
3F9A
330
21A
100
AcDbDictionary
280
     1
281
     1
  3
ADSK_XREC_LAYER_RECONCILED
360
3F9B
  0
DICTIONARY
  5
3F9C
330
21B
100
AcDbDictionary
280
     1
281
     1
  3
ADSK_XREC_LAYER_RECONCILED
360
3F9D
  0
DICTIONARY
  5
3F9E
330
21C
100
AcDbDictionary
280
     1
281
     1
  3
ADSK_XREC_LAYER_RECONCILED
360
3F9F
  0
DICTIONARY
  5
3FA0
330
21D
100
AcDbDictionary
280
     1
281
     1
  3
ADSK_XREC_LAYER_RECONCILED
360
3FA1
  0
DICTIONARY
  5
3FA2
330
21E
100
AcDbDictionary
280
     1
281
     1
  3
ADSK_XREC_LAYER_RECONCILED
360
3FA3
  0
DICTIONARY
  5
3FA4
330
21F
100
AcDbDictionary
280
     1
281
     1
  3
ADSK_XREC_LAYER_RECONCILED
360
3FA5
  0
DICTIONARY
  5
3FA6
330
220
100
AcDbDictionary
280
     1
281
     1
  3
ADSK_XREC_LAYER_RECONCILED
360
3FA7
  0
DICTIONARY
  5
3FA8
330
221
100
AcDbDictionary
280
     1
281
     1
  3
ADSK_XREC_LAYER_RECONCILED
360
3FA9
  0
DICTIONARY
  5
3FAA
330
222
100
AcDbDictionary
280
     1
281
     1
  3
ADSK_XREC_LAYER_RECONCILED
360
3FAB
  0
DICTIONARY
  5
3FAC
330
223
100
AcDbDictionary
280
     1
281
     1
  3
ADSK_XREC_LAYER_RECONCILED
360
3FAD
  0
DICTIONARY
  5
3FAE
330
224
100
AcDbDictionary
280
     1
281
     1
  3
ADSK_XREC_LAYER_RECONCILED
360
3FAF
  0
DICTIONARY
  5
3FB0
330
225
100
AcDbDictionary
280
     1
281
     1
  3
ADSK_XREC_LAYER_RECONCILED
360
3FB1
  0
DICTIONARY
  5
3FB2
330
226
100
AcDbDictionary
280
     1
281
     1
  3
ADSK_XREC_LAYER_RECONCILED
360
3FB3
  0
DICTIONARY
  5
3FB4
330
227
100
AcDbDictionary
280
     1
281
     1
  3
ADSK_XREC_LAYER_RECONCILED
360
3FB5
  0
DICTIONARY
  5
3FB6
330
228
100
AcDbDictionary
280
     1
281
     1
  3
ADSK_XREC_LAYER_RECONCILED
360
3FB7
  0
DICTIONARY
  5
3FB8
330
229
100
AcDbDictionary
280
     1
281
     1
  3
ADSK_XREC_LAYER_RECONCILED
360
3FB9
  0
XRECORD
  5
3F57
102
{ACAD_REACTORS
330
C
102
}
330
C
100
AcDbXrecord
280
     1
300
ACDLT
300
2018
300
ACDLT_F_S
  0
DICTIONARY
  5
3EEC
102
{ACAD_REACTORS
330
C
102
}
330
C
100
AcDbDictionary
281
     1
  0
DICTIONARY
  5
3F05
102
{ACAD_REACTORS
330
C
102
}
330
C
100
AcDbDictionary
281
     1
  3
Imperial24
350
3F06
  0
DICTIONARY
  5
D
102
{ACAD_REACTORS
330
C
102
}
330
C
100
AcDbDictionary
281
     1
  0
DICTIONARY
  5
1A
102
{ACAD_REACTORS
330
C
102
}
330
C
100
AcDbDictionary
281
     1
  3
Layout1
350
3EB7
  3
Model
350
3EB6
  0
DICTIONARY
  5
3EBA
102
{ACAD_REACTORS
330
C
102
}
330
C
100
AcDbDictionary
281
     1
  3
ByBlock
350
3EC3
  3
ByLayer
350
3EBB
  3
Global
350
3ECB
  0
DICTIONARY
  5
3F01
102
{ACAD_REACTORS
330
C
102
}
330
C
100
AcDbDictionary
281
     1
  3
Standard
350
3F02
  0
DICTIONARY
  5
17
102
{ACAD_REACTORS
330
C
102
}
330
C
100
AcDbDictionary
281
     1
  3
Standard
350
18
  0
DICTIONARY
  5
19
102
{ACAD_REACTORS
330
C
102
}
330
C
100
AcDbDictionary
281
     1
  0
ACDBDICTIONARYWDFLT
  5
E
102
{ACAD_REACTORS
330
C
102
}
330
C
100
AcDbDictionary
281
     1
  3
Normal
350
F
100
AcDbDictionaryWithDefault
340
F
  0
DICTIONARY
  5
3EEF
102
{ACAD_REACTORS
330
C
102
}
330
C
100
AcDbDictionary
281
     1
  3
A0
350
3EF0
  3
A1
350
3EF1
  3
A2
350
3EF2
  3
A3
350
3EF3
  3
A4
350
3EF4
  3
A5
350
3EF5
  3
A6
350
3EF6
  3
A7
350
3EF7
  3
A8
350
3EF8
  3
A9
350
3EF9
  3
B0
350
3EFA
  3
B1
350
3EFB
  3
B2
350
3EFC
  3
B3
350
3EFD
  3
B4
350
3EFE
  3
B5
350
3EFF
  3
B6
350
3F00
  0
DICTIONARY
  5
3F03
102
{ACAD_REACTORS
330
C
102
}
330
C
100
AcDbDictionary
281
     1
  3
Imperial24
350
3F04
  0
DICTIONARY
  5
3EED
102
{ACAD_REACTORS
330
C
102
}
330
C
100
AcDbDictionary
281
     1
  3
Standard
350
3EEE
  0
DICTIONARY
  5
3ED3
102
{ACAD_REACTORS
330
C
102
}
330
C
100
AcDbDictionary
281
     1
  3
2dWireframe
350
3ED9
  3
Basic
350
3ED8
  3
Brighten
350
3EDF
  3
ColorChange
350
3EE3
  3
Conceptual
350
3EDC
  3
Dim
350
3EDE
  3
EdgeColorOff
350
3EEB
  3
Facepattern
350
3EE2
  3
Flat
350
3ED4
  3
FlatWithEdges
350
3ED5
  3
Gouraud
350
3ED6
  3
GouraudWithEdges
350
3ED7
  3
Hidden
350
3EDB
  3
JitterOff
350
3EE9
  3
Linepattern
350
3EE1
  3
OverhangOff
350
3EEA
  3
Realistic
350
3EDD
  3
Shaded
350
3EE8
  3
Shaded with edges
350
3EE7
  3
Shades of Gray
350
3EE4
  3
Sketchy
350
3EE5
  3
Thicken
350
3EE0
  3
Wireframe
350
3EDA
  3
X-Ray
350
3EE6
  0
XRECORD
  5
4314
102
{ACAD_REACTORS
330
C
102
}
330
C
100
AcDbXrecord
280
     1
 90
        1
330
3EEE
  0
DICTIONARY
  5
3F49
102
{ACAD_REACTORS
330
C
102
}
330
C
100
AcDbDictionary
281
     1
  3
CANNOSCALE
350
3F4E
  3
CMLEADERSTYLE
350
3F4B
  3
CTABLESTYLE
350
3F4A
  3
CVIEWDETAILSTYLE
350
3F4C
  3
CVIEWSECTIONSTYLE
350
3F4D
  3
DIMASSOC
350
3F51
  3
INDEXCTL
350
3F50
  3
SORTENTS
350
3F4F
  3
XCLIPFRAME
350
4312
  0
XRECORD
  5
4315
102
{ACAD_REACTORS
330
C
102
}
330
C
100
AcDbXrecord
280
     1
  1
DWGPROPS COOKIE
  2

  3

  4

  6

  7

  8
guillaumes
  9

300
=
301
=
302
=
303
=
304
=
305
=
306
=
307
=
308
=
309
=
 40
0.0028009259259259
 41
2458711.445405093
 42
2458722.336678241
  1

 90
        0
  0
XRECORD
  5
3F59
102
{ACAD_REACTORS
330
3F58
102
}
330
3F58
100
AcDbXrecord
280
     1
290
     1
  0
XRECORD
  5
3F5B
102
{ACAD_REACTORS
330
3F5A
102
}
330
3F5A
100
AcDbXrecord
280
     1
290
     1
  0
XRECORD
  5
3F5D
102
{ACAD_REACTORS
330
3F5C
102
}
330
3F5C
100
AcDbXrecord
280
     1
290
     1
  0
XRECORD
  5
3F5F
102
{ACAD_REACTORS
330
3F5E
102
}
330
3F5E
100
AcDbXrecord
280
     1
290
     1
  0
XRECORD
  5
3F61
102
{ACAD_REACTORS
330
3F60
102
}
330
3F60
100
AcDbXrecord
280
     1
290
     1
  0
XRECORD
  5
3F63
102
{ACAD_REACTORS
330
3F62
102
}
330
3F62
100
AcDbXrecord
280
     1
290
     1
  0
XRECORD
  5
3F65
102
{ACAD_REACTORS
330
3F64
102
}
330
3F64
100
AcDbXrecord
280
     1
290
     1
  0
XRECORD
  5
3F67
102
{ACAD_REACTORS
330
3F66
102
}
330
3F66
100
AcDbXrecord
280
     1
290
     1
  0
XRECORD
  5
3F69
102
{ACAD_REACTORS
330
3F68
102
}
330
3F68
100
AcDbXrecord
280
     1
290
     1
  0
XRECORD
  5
3F6B
102
{ACAD_REACTORS
330
3F6A
102
}
330
3F6A
100
AcDbXrecord
280
     1
290
     1
  0
XRECORD
  5
3F6D
102
{ACAD_REACTORS
330
3F6C
102
}
330
3F6C
100
AcDbXrecord
280
     1
290
     1
  0
XRECORD
  5
3F6F
102
{ACAD_REACTORS
330
3F6E
102
}
330
3F6E
100
AcDbXrecord
280
     1
290
     1
  0
XRECORD
  5
3F71
102
{ACAD_REACTORS
330
3F70
102
}
330
3F70
100
AcDbXrecord
280
     1
290
     1
  0
XRECORD
  5
3F73
102
{ACAD_REACTORS
330
3F72
102
}
330
3F72
100
AcDbXrecord
280
     1
290
     1
  0
XRECORD
  5
3F75
102
{ACAD_REACTORS
330
3F74
102
}
330
3F74
100
AcDbXrecord
280
     1
290
     1
  0
XRECORD
  5
3F77
102
{ACAD_REACTORS
330
3F76
102
}
330
3F76
100
AcDbXrecord
280
     1
290
     1
  0
XRECORD
  5
3F79
102
{ACAD_REACTORS
330
3F78
102
}
330
3F78
100
AcDbXrecord
280
     1
290
     1
  0
XRECORD
  5
3F7B
102
{ACAD_REACTORS
330
3F7A
102
}
330
3F7A
100
AcDbXrecord
280
     1
290
     1
  0
XRECORD
  5
3F7D
102
{ACAD_REACTORS
330
3F7C
102
}
330
3F7C
100
AcDbXrecord
280
     1
290
     1
  0
XRECORD
  5
3F7F
102
{ACAD_REACTORS
330
3F7E
102
}
330
3F7E
100
AcDbXrecord
280
     1
290
     1
  0
XRECORD
  5
3F81
102
{ACAD_REACTORS
330
3F80
102
}
330
3F80
100
AcDbXrecord
280
     1
290
     1
  0
XRECORD
  5
3F83
102
{ACAD_REACTORS
330
3F82
102
}
330
3F82
100
AcDbXrecord
280
     1
290
     1
  0
XRECORD
  5
3F85
102
{ACAD_REACTORS
330
3F84
102
}
330
3F84
100
AcDbXrecord
280
     1
290
     1
  0
XRECORD
  5
3F87
102
{ACAD_REACTORS
330
3F86
102
}
330
3F86
100
AcDbXrecord
280
     1
290
     1
  0
XRECORD
  5
3F89
102
{ACAD_REACTORS
330
3F88
102
}
330
3F88
100
AcDbXrecord
280
     1
290
     1
  0
XRECORD
  5
3F8B
102
{ACAD_REACTORS
330
3F8A
102
}
330
3F8A
100
AcDbXrecord
280
     1
290
     1
  0
XRECORD
  5
3F8D
102
{ACAD_REACTORS
330
3F8C
102
}
330
3F8C
100
AcDbXrecord
280
     1
290
     1
  0
XRECORD
  5
3F8F
102
{ACAD_REACTORS
330
3F8E
102
}
330
3F8E
100
AcDbXrecord
280
     1
290
     1
  0
XRECORD
  5
3F91
102
{ACAD_REACTORS
330
3F90
102
}
330
3F90
100
AcDbXrecord
280
     1
290
     1
  0
XRECORD
  5
3F93
102
{ACAD_REACTORS
330
3F92
102
}
330
3F92
100
AcDbXrecord
280
     1
290
     1
  0
XRECORD
  5
3F95
102
{ACAD_REACTORS
330
3F94
102
}
330
3F94
100
AcDbXrecord
280
     1
290
     1
  0
XRECORD
  5
3F97
102
{ACAD_REACTORS
330
3F96
102
}
330
3F96
100
AcDbXrecord
280
     1
290
     1
  0
XRECORD
  5
3F99
102
{ACAD_REACTORS
330
3F98
102
}
330
3F98
100
AcDbXrecord
280
     1
290
     1
  0
XRECORD
  5
3F9B
102
{ACAD_REACTORS
330
3F9A
102
}
330
3F9A
100
AcDbXrecord
280
     1
290
     1
  0
XRECORD
  5
3F9D
102
{ACAD_REACTORS
330
3F9C
102
}
330
3F9C
100
AcDbXrecord
280
     1
290
     1
  0
XRECORD
  5
3F9F
102
{ACAD_REACTORS
330
3F9E
102
}
330
3F9E
100
AcDbXrecord
280
     1
290
     1
  0
XRECORD
  5
3FA1
102
{ACAD_REACTORS
330
3FA0
102
}
330
3FA0
100
AcDbXrecord
280
     1
290
     1
  0
XRECORD
  5
3FA3
102
{ACAD_REACTORS
330
3FA2
102
}
330
3FA2
100
AcDbXrecord
280
     1
290
     1
  0
XRECORD
  5
3FA5
102
{ACAD_REACTORS
330
3FA4
102
}
330
3FA4
100
AcDbXrecord
280
     1
290
     1
  0
XRECORD
  5
3FA7
102
{ACAD_REACTORS
330
3FA6
102
}
330
3FA6
100
AcDbXrecord
280
     1
290
     1
  0
XRECORD
  5
3FA9
102
{ACAD_REACTORS
330
3FA8
102
}
330
3FA8
100
AcDbXrecord
280
     1
290
     1
  0
XRECORD
  5
3FAB
102
{ACAD_REACTORS
330
3FAA
102
}
330
3FAA
100
AcDbXrecord
280
     1
290
     1
  0
XRECORD
  5
3FAD
102
{ACAD_REACTORS
330
3FAC
102
}
330
3FAC
100
AcDbXrecord
280
     1
290
     1
  0
XRECORD
  5
3FAF
102
{ACAD_REACTORS
330
3FAE
102
}
330
3FAE
100
AcDbXrecord
280
     1
290
     1
  0
XRECORD
  5
3FB1
102
{ACAD_REACTORS
330
3FB0
102
}
330
3FB0
100
AcDbXrecord
280
     1
290
     1
  0
XRECORD
  5
3FB3
102
{ACAD_REACTORS
330
3FB2
102
}
330
3FB2
100
AcDbXrecord
280
     1
290
     1
  0
XRECORD
  5
3FB5
102
{ACAD_REACTORS
330
3FB4
102
}
330
3FB4
100
AcDbXrecord
280
     1
290
     1
  0
XRECORD
  5
3FB7
102
{ACAD_REACTORS
330
3FB6
102
}
330
3FB6
100
AcDbXrecord
280
     1
290
     1
  0
XRECORD
  5
3FB9
102
{ACAD_REACTORS
330
3FB8
102
}
330
3FB8
100
AcDbXrecord
280
     1
290
     1
  0
ACDBDETAILVIEWSTYLE
  5
3F06
102
{ACAD_XDICTIONARY
360
4350
102
}
102
{ACAD_REACTORS
330
3F05
102
}
330
3F05
100
AcDbModelDocViewStyle
 70
     0
  3
Imperial24
290
     0
100
AcDbDetailViewStyle
 70
     0
 71
     0
 90
        3
 71
     1
340
11
 40
0.24
340
0
 40
0.24
300

 40
0.36
280
     3
 71
     2
340
16
 90
       25
 71
     3
340
11
 40
0.24
 90
        1
 40
0.75
 90
        1
300
%<\AcVar ViewType \f "%tc1">% %<\AcVar ViewDetailId>%\PSCALE %<\AcVar ViewScale \f "%sn">%
 71
     4
340
16
 90
       25
340
16
 90
       25
280
     0
  0
LAYOUT
  5
3EB7
102
{ACAD_XDICTIONARY
360
4318
102
}
102
{ACAD_REACTORS
330
1A
102
}
330
1A
100
AcDbPlotSettings
  1

  2
none_device
  4
ANSI_B_(17.00_x_11.00_Inches)
  6

 40
0.0
 41
0.0
 42
0.0
 43
0.0
 44
431.8
 45
279.4
 46
0.0
 47
0.0
 48
0.0
 49
0.0
140
0.0
141
0.0
142
1.0
143
1.0
 70
     0
 72
     0
 73
     0
 74
     0
  7

 75
     0
147
1.0
148
0.0
149
0.0
100
AcDbLayout
  1
Layout1
 70
     1
 71
     1
 10
0.0
 20
0.0
 11
12.0
 21
9.0
 12
0.0
 22
0.0
 32
0.0
 14
1.000000000000000E+20
 24
1.000000000000000E+20
 34
1.000000000000000E+20
 15
-1.000000000000000E+20
 25
-1.000000000000000E+20
 35
-1.000000000000000E+20
146
0.0
 13
0.0
 23
0.0
 33
0.0
 16
1.0
 26
0.0
 36
0.0
 17
0.0
 27
1.0
 37
0.0
 76
     0
330
233
  0
LAYOUT
  5
3EB6
102
{ACAD_XDICTIONARY
360
4316
102
}
102
{ACAD_REACTORS
330
1A
102
}
330
1A
100
AcDbPlotSettings
  1

  2
none_device
  4
ANSI_B_(17.00_x_11.00_Inches)
  6

 40
0.0
 41
0.0
 42
0.0
 43
0.0
 44
431.8
 45
279.4
 46
0.0
 47
0.0
 48
0.0
 49
0.0
140
0.0
141
0.0
142
1.0
143
1.0
 70
  1024
 72
     0
 73
     0
 74
     0
  7

 75
     0
147
1.0
148
0.0
149
0.0
100
AcDbLayout
  1
Model
 70
     0
 71
     0
 10
0.0
 20
0.0
 11
17.0
 21
11.0
 12
0.0
 22
0.0
 32
0.0
 14
0.0
 24
0.0
 34
0.0
 15
0.0
 25
0.0
 35
0.0
146
0.0
 13
0.0
 23
0.0
 33
0.0
 16
1.0
 26
0.0
 36
0.0
 17
0.0
 27
1.0
 37
0.0
 76
     0
330
232
331
1F4
  0
MATERIAL
  5
3EC3
102
{ACAD_XDICTIONARY
360
3EC4
102
}
102
{ACAD_REACTORS
330
3EBA
102
}
330
3EBA
100
AcDbMaterial
  1
ByBlock
 72
     0
 43
0.0208333333333333
 43
0.0
 43
0.0
 43
0.0
 43
0.0
 43
0.0208333333333333
 43
0.0
 43
0.0
 43
0.0
 43
0.0
 43
1.0
 43
0.0
 43
0.0
 43
0.0
 43
0.0
 43
1.0
 77
     0
 47
0.0208333333333333
 47
0.0
 47
0.0
 47
0.0
 47
0.0
 47
0.0208333333333333
 47
0.0
 47
0.0
 47
0.0
 47
0.0
 47
1.0
 47
0.0
 47
0.0
 47
0.0
 47
0.0
 47
1.0
171
     0
 49
0.0208333333333333
 49
0.0
 49
0.0
 49
0.0
 49
0.0
 49
0.0208333333333333
 49
0.0
 49
0.0
 49
0.0
 49
0.0
 49
1.0
 49
0.0
 49
0.0
 49
0.0
 49
0.0
 49
1.0
175
     0
142
0.0208333333333333
142
0.0
142
0.0
142
0.0
142
0.0
142
0.0208333333333333
142
0.0
142
0.0
142
0.0
142
0.0
142
1.0
142
0.0
142
0.0
142
0.0
142
0.0
142
1.0
179
     0
144
0.0208333333333333
144
0.0
144
0.0
144
0.0
144
0.0
144
0.0208333333333333
144
0.0
144
0.0
144
0.0
144
0.0
144
1.0
144
0.0
144
0.0
144
0.0
144
0.0
144
1.0
147
0.0208333333333333
147
0.0
147
0.0
147
0.0
147
0.0
147
0.0208333333333333
147
0.0
147
0.0
147
0.0
147
0.0
147
1.0
147
0.0
147
0.0
147
0.0
147
0.0
147
1.0
  0
MATERIAL
  5
3EBB
102
{ACAD_XDICTIONARY
360
3EBC
102
}
102
{ACAD_REACTORS
330
3EBA
102
}
330
3EBA
100
AcDbMaterial
  1
ByLayer
 72
     0
 43
0.0208333333333333
 43
0.0
 43
0.0
 43
0.0
 43
0.0
 43
0.0208333333333333
 43
0.0
 43
0.0
 43
0.0
 43
0.0
 43
1.0
 43
0.0
 43
0.0
 43
0.0
 43
0.0
 43
1.0
 77
     0
 47
0.0208333333333333
 47
0.0
 47
0.0
 47
0.0
 47
0.0
 47
0.0208333333333333
 47
0.0
 47
0.0
 47
0.0
 47
0.0
 47
1.0
 47
0.0
 47
0.0
 47
0.0
 47
0.0
 47
1.0
171
     0
 49
0.0208333333333333
 49
0.0
 49
0.0
 49
0.0
 49
0.0
 49
0.0208333333333333
 49
0.0
 49
0.0
 49
0.0
 49
0.0
 49
1.0
 49
0.0
 49
0.0
 49
0.0
 49
0.0
 49
1.0
175
     0
142
0.0208333333333333
142
0.0
142
0.0
142
0.0
142
0.0
142
0.0208333333333333
142
0.0
142
0.0
142
0.0
142
0.0
142
1.0
142
0.0
142
0.0
142
0.0
142
0.0
142
1.0
179
     0
144
0.0208333333333333
144
0.0
144
0.0
144
0.0
144
0.0
144
0.0208333333333333
144
0.0
144
0.0
144
0.0
144
0.0
144
1.0
144
0.0
144
0.0
144
0.0
144
0.0
144
1.0
147
0.0208333333333333
147
0.0
147
0.0
147
0.0
147
0.0
147
0.0208333333333333
147
0.0
147
0.0
147
0.0
147
0.0
147
1.0
147
0.0
147
0.0
147
0.0
147
0.0
147
1.0
  0
MATERIAL
  5
3ECB
102
{ACAD_XDICTIONARY
360
3ECC
102
}
102
{ACAD_REACTORS
330
3EBA
102
}
330
3EBA
100
AcDbMaterial
  1
Global
 72
     0
 43
0.0208333333333333
 43
0.0
 43
0.0
 43
0.0
 43
0.0
 43
0.0208333333333333
 43
0.0
 43
0.0
 43
0.0
 43
0.0
 43
1.0
 43
0.0
 43
0.0
 43
0.0
 43
0.0
 43
1.0
 77
     0
 47
0.0208333333333333
 47
0.0
 47
0.0
 47
0.0
 47
0.0
 47
0.0208333333333333
 47
0.0
 47
0.0
 47
0.0
 47
0.0
 47
1.0
 47
0.0
 47
0.0
 47
0.0
 47
0.0
 47
1.0
171
     0
 49
0.0208333333333333
 49
0.0
 49
0.0
 49
0.0
 49
0.0
 49
0.0208333333333333
 49
0.0
 49
0.0
 49
0.0
 49
0.0
 49
1.0
 49
0.0
 49
0.0
 49
0.0
 49
0.0
 49
1.0
175
     0
142
0.0208333333333333
142
0.0
142
0.0
142
0.0
142
0.0
142
0.0208333333333333
142
0.0
142
0.0
142
0.0
142
0.0
142
1.0
142
0.0
142
0.0
142
0.0
142
0.0
142
1.0
179
     0
144
0.0208333333333333
144
0.0
144
0.0
144
0.0
144
0.0
144
0.0208333333333333
144
0.0
144
0.0
144
0.0
144
0.0
144
1.0
144
0.0
144
0.0
144
0.0
144
0.0
144
1.0
147
0.0208333333333333
147
0.0
147
0.0
147
0.0
147
0.0
147
0.0208333333333333
147
0.0
147
0.0
147
0.0
147
0.0
147
1.0
147
0.0
147
0.0
147
0.0
147
0.0
147
1.0
  0
MLEADERSTYLE
  5
3F02
102
{ACAD_REACTORS
330
3F01
102
}
330
3F01
100
AcDbMLeaderStyle
170
     2
171
     1
172
     0
 90
        2
 40
0.0
 41
0.0
173
     1
 91
-1056964608
340
14
 92
       -2
290
     1
 42
0.09
291
     1
 43
0.36
  3
Standard
 44
0.18
300

342
11
174
     1
178
     6
175
     1
176
     0
 93
-1056964608
 45
0.18
292
     0
297
     0
 46
0.18
 94
-1056964608
 47
1.0
 49
1.0
140
1.0
293
     1
141
0.0
294
     1
177
     0
142
1.0
295
     0
296
     0
143
0.125
1001
ACAD_MLEADERVER
1070
     2
  0
MLINESTYLE
  5
18
102
{ACAD_REACTORS
330
17
102
}
330
17
100
AcDbMlineStyle
  2
STANDARD
 70
     0
  3

 62
   256
 51
90.0
 52
90.0
 71
     2
 49
0.5
 62
   256
  6
BYLAYER
 49
-0.5
 62
   256
  6
BYLAYER
  0
ACDBPLACEHOLDER
  5
F
102
{ACAD_REACTORS
330
E
102
}
330
E
  0
SCALE
  5
3EF0
102
{ACAD_REACTORS
330
3EEF
102
}
330
3EEF
100
AcDbScale
 70
     0
300
1:1
140
1.0
141
1.0
290
     1
  0
SCALE
  5
3EF1
102
{ACAD_REACTORS
330
3EEF
102
}
330
3EEF
100
AcDbScale
 70
     0
300
1/128" = 1'-0"
140
0.0078125
141
12.0
290
     0
  0
SCALE
  5
3EF2
102
{ACAD_REACTORS
330
3EEF
102
}
330
3EEF
100
AcDbScale
 70
     0
300
1/64" = 1'-0"
140
0.015625
141
12.0
290
     0
  0
SCALE
  5
3EF3
102
{ACAD_REACTORS
330
3EEF
102
}
330
3EEF
100
AcDbScale
 70
     0
300
1/32" = 1'-0"
140
0.03125
141
12.0
290
     0
  0
SCALE
  5
3EF4
102
{ACAD_REACTORS
330
3EEF
102
}
330
3EEF
100
AcDbScale
 70
     0
300
1/16" = 1'-0"
140
0.0625
141
12.0
290
     0
  0
SCALE
  5
3EF5
102
{ACAD_REACTORS
330
3EEF
102
}
330
3EEF
100
AcDbScale
 70
     0
300
3/32" = 1'-0"
140
0.09375
141
12.0
290
     0
  0
SCALE
  5
3EF6
102
{ACAD_REACTORS
330
3EEF
102
}
330
3EEF
100
AcDbScale
 70
     0
300
1/8" = 1'-0"
140
0.125
141
12.0
290
     0
  0
SCALE
  5
3EF7
102
{ACAD_REACTORS
330
3EEF
102
}
330
3EEF
100
AcDbScale
 70
     0
300
3/16" = 1'-0"
140
0.1875
141
12.0
290
     0
  0
SCALE
  5
3EF8
102
{ACAD_REACTORS
330
3EEF
102
}
330
3EEF
100
AcDbScale
 70
     0
300
1/4" = 1'-0"
140
0.25
141
12.0
290
     0
  0
SCALE
  5
3EF9
102
{ACAD_REACTORS
330
3EEF
102
}
330
3EEF
100
AcDbScale
 70
     0
300
3/8" = 1'-0"
140
0.375
141
12.0
290
     0
  0
SCALE
  5
3EFA
102
{ACAD_REACTORS
330
3EEF
102
}
330
3EEF
100
AcDbScale
 70
     0
300
1/2" = 1'-0"
140
0.5
141
12.0
290
     0
  0
SCALE
  5
3EFB
102
{ACAD_REACTORS
330
3EEF
102
}
330
3EEF
100
AcDbScale
 70
     0
300
3/4" = 1'-0"
140
0.75
141
12.0
290
     0
  0
SCALE
  5
3EFC
102
{ACAD_REACTORS
330
3EEF
102
}
330
3EEF
100
AcDbScale
 70
     0
300
1" = 1'-0"
140
1.0
141
12.0
290
     0
  0
SCALE
  5
3EFD
102
{ACAD_REACTORS
330
3EEF
102
}
330
3EEF
100
AcDbScale
 70
     0
300
1-1/2" = 1'-0"
140
1.5
141
12.0
290
     0
  0
SCALE
  5
3EFE
102
{ACAD_REACTORS
330
3EEF
102
}
330
3EEF
100
AcDbScale
 70
     0
300
3" = 1'-0"
140
3.0
141
12.0
290
     0
  0
SCALE
  5
3EFF
102
{ACAD_REACTORS
330
3EEF
102
}
330
3EEF
100
AcDbScale
 70
     0
300
6" = 1'-0"
140
6.0
141
12.0
290
     0
  0
SCALE
  5
3F00
102
{ACAD_REACTORS
330
3EEF
102
}
330
3EEF
100
AcDbScale
 70
     0
300
1'-0" = 1'-0"
140
12.0
141
12.0
290
     0
  0
ACDBSECTIONVIEWSTYLE
  5
3F04
102
{ACAD_XDICTIONARY
360
434E
102
}
102
{ACAD_REACTORS
330
3F03
102
}
330
3F03
100
AcDbModelDocViewStyle
 70
     0
  3
Imperial24
290
     0
100
AcDbSectionViewStyle
 70
     0
 71
     0
 90
       78
 71
     1
340
11
 40
0.24
340
0
340
0
 40
0.24
300
I, O, Q, S, X, Z
 40
0.48
 90
        3
 40
0.18
 90
        1
 71
     2
340
16
 90
       25
340
16
 90
       50
 40
0.24
 40
0.0
 40
0.24
 71
     3
340
11
 40
0.24
 90
        1
 40
0.75
 90
        1
300
%<\AcVar ViewType \f "%tc1">% %<\AcVar ViewSectionStartId>%-%<\AcVar ViewSectionEndId>%\PSCALE %<\AcVar ViewScale \f "%sn">%
 71
     4
300
ANSI31
 40
1.0
 90
        0
290
     0
290
     0
 90
        6
 40
0.0
 40
1.570796326794896
 40
0.2617993877991494
 40
1.308996938995747
 40
-0.2617993877991494
 40
1.832595714594046
  0
TABLESTYLE
  5
3EEE
102
{ACAD_XDICTIONARY
360
3F07
102
}
102
{ACAD_REACTORS
330
3EED
102
}
330
3EED
100
AcDbTableStyle
  3
Standard
 70
     0
 71
     0
 40
0.06
 41
0.06
280
     0
281
     0
  7
STANDARD
140
0.18
170
     2
 62
     0
 63
     7
283
     0
274
    -2
284
     1
 64
     0
275
    -2
285
     1
 65
     0
276
    -2
286
     1
 66
     0
277
    -2
287
     1
 67
     0
278
    -2
288
     1
 68
     0
279
    -2
289
     1
 69
     0
  7
STANDARD
140
0.25
170
     5
 62
     0
 63
     7
283
     0
274
    -2
284
     1
 64
     0
275
    -2
285
     1
 65
     0
276
    -2
286
     1
 66
     0
277
    -2
287
     1
 67
     0
278
    -2
288
     1
 68
     0
279
    -2
289
     1
 69
     0
  7
STANDARD
140
0.18
170
     5
 62
     0
 63
     7
283
     0
274
    -2
284
     1
 64
     0
275
    -2
285
     1
 65
     0
276
    -2
286
     1
 66
     0
277
    -2
287
     1
 67
     0
278
    -2
288
     1
 68
     0
279
    -2
289
     1
 69
     0
  0
VISUALSTYLE
  5
3ED9
102
{ACAD_XDICTIONARY
360
4327
102
}
102
{ACAD_REACTORS
330
3ED3
102
}
330
3ED3
100
AcDbVisualStyle
  2
2dWireframe
 70
     4
 71
     0
 72
     2
 73
     0
 90
        0
 40
-0.6
 41
-30.0
 62
     5
 63
     7
 74
     1
 91
        4
 64
     7
 65
   257
 75
     1
175
     1
 42
1.0
 92
        0
 66
   257
 43
1.0
 76
     1
 77
     6
 78
     2
 67
     7
 79
     5
170
     0
171
     0
290
     0
174
     0
 93
        1
 44
0.0
173
     0
291
     0
 45
0.0
1001
ACAD
1000
AcDbSavedByObjectVersion
1070
     0
  0
VISUALSTYLE
  5
3ED8
102
{ACAD_XDICTIONARY
360
4325
102
}
102
{ACAD_REACTORS
330
3ED3
102
}
330
3ED3
100
AcDbVisualStyle
  2
Basic
 70
     7
 71
     1
 72
     0
 73
     1
 90
        0
 40
-0.6
 41
-30.0
 62
     5
 63
     7
 74
     0
 91
        4
 64
     7
 65
   257
 75
     1
175
     1
 42
1.0
 92
        8
 66
     7
 43
1.0
 76
     1
 77
     6
 78
     2
 67
     7
 79
     5
170
     0
171
     0
290
     0
174
     0
 93
        1
 44
0.0
173
     0
291
     1
 45
0.0
1001
ACAD
1000
AcDbSavedByObjectVersion
1070
     0
  0
VISUALSTYLE
  5
3EDF
102
{ACAD_XDICTIONARY
360
4333
102
}
102
{ACAD_REACTORS
330
3ED3
102
}
330
3ED3
100
AcDbVisualStyle
  2
Brighten
 70
    12
 71
     2
 72
     2
 73
     0
 90
        0
 40
-0.6
 41
-30.0
 62
     5
 63
     7
 74
     1
 91
        4
 64
     7
 65
   257
 75
     1
175
     1
 42
1.0
 92
        8
 66
     7
 43
1.0
 76
     1
 77
     6
 78
     2
 67
     7
 79
     5
170
     0
171
     0
290
     0
174
     0
 93
        1
 44
50.0
173
     0
291
     1
 45
0.0
1001
ACAD
1000
AcDbSavedByObjectVersion
1070
     0
  0
VISUALSTYLE
  5
3EE3
102
{ACAD_XDICTIONARY
360
433B
102
}
102
{ACAD_REACTORS
330
3ED3
102
}
330
3ED3
100
AcDbVisualStyle
  2
ColorChange
 70
    16
 71
     2
 72
     2
 73
     3
 90
        0
 40
-0.6
 41
-30.0
 62
     5
 63
     8
 74
     1
 91
        4
 64
     7
 65
   257
 75
     1
175
     1
 42
1.0
 92
        8
 66
     8
 43
1.0
 76
     1
 77
     6
 78
     2
 67
     7
 79
     5
170
     0
171
     0
290
     0
174
     0
 93
        1
 44
0.0
173
     0
291
     1
 45
0.0
1001
ACAD
1000
AcDbSavedByObjectVersion
1070
     0
  0
VISUALSTYLE
  5
3EDC
102
{ACAD_XDICTIONARY
360
432D
102
}
102
{ACAD_REACTORS
330
3ED3
102
}
330
3ED3
100
AcDbVisualStyle
  2
Conceptual
 70
     9
 71
     3
 72
     2
 73
     0
 90
        0
 40
-0.6
 41
-30.0
 62
     5
 63
     7
 74
     2
 91
        2
 64
     7
 65
   257
 75
     1
175
     1
 42
179.0
 92
        8
 66
     7
 43
1.0
 76
     1
 77
     6
 78
     2
 67
     7
 79
     3
170
     0
171
     0
290
     0
174
     0
 93
        1
 44
0.0
173
     0
291
     0
 45
0.0
1001
ACAD
1000
AcDbSavedByObjectVersion
1070
     0
  0
VISUALSTYLE
  5
3EDE
102
{ACAD_XDICTIONARY
360
4331
102
}
102
{ACAD_REACTORS
330
3ED3
102
}
330
3ED3
100
AcDbVisualStyle
  2
Dim
 70
    11
 71
     2
 72
     2
 73
     0
 90
        0
 40
-0.6
 41
-30.0
 62
     5
 63
     7
 74
     1
 91
        4
 64
     7
 65
   257
 75
     1
175
     1
 42
1.0
 92
        8
 66
     7
 43
1.0
 76
     1
 77
     6
 78
     2
 67
     7
 79
     5
170
     0
171
     0
290
     0
174
     0
 93
        1
 44
-50.0
173
     0
291
     1
 45
0.0
1001
ACAD
1000
AcDbSavedByObjectVersion
1070
     0
  0
VISUALSTYLE
  5
3EEB
102
{ACAD_XDICTIONARY
360
434B
102
}
102
{ACAD_REACTORS
330
3ED3
102
}
330
3ED3
100
AcDbVisualStyle
  2
EdgeColorOff
 70
    22
 71
     2
 72
     2
 73
     0
 90
        0
 40
-0.6
 41
-30.0
 62
     5
 63
     7
 74
     1
 91
        4
 64
     7
 65
   257
 75
     1
175
     1
 42
1.0
 92
        8
 66
     7
 43
1.0
 76
     1
 77
     6
 78
     2
 67
     7
 79
     5
170
     0
171
     0
290
     0
174
     0
 93
        1
 44
0.0
173
     0
291
     1
 45
0.0
1001
ACAD
1000
AcDbSavedByObjectVersion
1070
     0
  0
VISUALSTYLE
  5
3EE2
102
{ACAD_XDICTIONARY
360
4339
102
}
102
{ACAD_REACTORS
330
3ED3
102
}
330
3ED3
100
AcDbVisualStyle
  2
Facepattern
 70
    15
 71
     2
 72
     2
 73
     0
 90
        0
 40
-0.6
 41
-30.0
 62
     5
 63
     7
 74
     1
 91
        4
 64
     7
 65
   257
 75
     1
175
     1
 42
1.0
 92
        8
 66
     7
 43
1.0
 76
     1
 77
     6
 78
     2
 67
     7
 79
     5
170
     0
171
     0
290
     0
174
     0
 93
        1
 44
0.0
173
     0
291
     1
 45
0.0
1001
ACAD
1000
AcDbSavedByObjectVersion
1070
     0
  0
VISUALSTYLE
  5
3ED4
102
{ACAD_XDICTIONARY
360
431D
102
}
102
{ACAD_REACTORS
330
3ED3
102
}
330
3ED3
100
AcDbVisualStyle
  2
Flat
 70
     0
 71
     2
 72
     1
 73
     1
 90
        2
 40
-0.6
 41
30.0
 62
     5
 63
     7
 74
     0
 91
        0
 64
     7
 65
   257
 75
     1
175
     1
 42
1.0
 92
        8
 66
     7
 43
1.0
 76
     1
 77
     6
 78
     2
 67
     7
 79
     5
170
     0
171
     0
290
     0
174
     0
 93
       13
 44
0.0
173
     0
291
     1
 45
0.0
1001
ACAD
1000
AcDbSavedByObjectVersion
1070
     0
  0
VISUALSTYLE
  5
3ED5
102
{ACAD_XDICTIONARY
360
431F
102
}
102
{ACAD_REACTORS
330
3ED3
102
}
330
3ED3
100
AcDbVisualStyle
  2
FlatWithEdges
 70
     1
 71
     2
 72
     1
 73
     1
 90
        2
 40
-0.6
 41
30.0
 62
     5
 63
     7
 74
     1
 91
        0
 64
     7
 65
   257
 75
     1
175
     1
 42
1.0
 92
        0
 66
   257
 43
1.0
 76
     1
 77
     6
 78
     2
 67
     7
 79
     5
170
     0
171
     0
290
     0
174
     0
 93
       13
 44
0.0
173
     0
291
     1
 45
0.0
1001
ACAD
1000
AcDbSavedByObjectVersion
1070
     0
  0
VISUALSTYLE
  5
3ED6
102
{ACAD_XDICTIONARY
360
4321
102
}
102
{ACAD_REACTORS
330
3ED3
102
}
330
3ED3
100
AcDbVisualStyle
  2
Gouraud
 70
     2
 71
     2
 72
     2
 73
     1
 90
        2
 40
-0.6
 41
30.0
 62
     5
 63
     7
 74
     0
 91
        0
 64
     7
 65
   257
 75
     1
175
     1
 42
1.0
 92
        0
 66
     7
 43
1.0
 76
     1
 77
     6
 78
     2
 67
     7
 79
     5
170
     0
171
     0
290
     0
174
     0
 93
       13
 44
0.0
173
     0
291
     1
 45
0.0
1001
ACAD
1000
AcDbSavedByObjectVersion
1070
     0
  0
VISUALSTYLE
  5
3ED7
102
{ACAD_XDICTIONARY
360
4323
102
}
102
{ACAD_REACTORS
330
3ED3
102
}
330
3ED3
100
AcDbVisualStyle
  2
GouraudWithEdges
 70
     3
 71
     2
 72
     2
 73
     1
 90
        2
 40
-0.6
 41
30.0
 62
     5
 63
     7
 74
     1
 91
        0
 64
     7
 65
   257
 75
     1
175
     1
 42
1.0
 92
        0
 66
   257
 43
1.0
 76
     1
 77
     6
 78
     2
 67
     7
 79
     5
170
     0
171
     0
290
     0
174
     0
 93
       13
 44
0.0
173
     0
291
     1
 45
0.0
1001
ACAD
1000
AcDbSavedByObjectVersion
1070
     0
  0
VISUALSTYLE
  5
3EDB
102
{ACAD_XDICTIONARY
360
432B
102
}
102
{ACAD_REACTORS
330
3ED3
102
}
330
3ED3
100
AcDbVisualStyle
  2
Hidden
 70
     6
 71
     1
 72
     2
 73
     2
 90
        0
 40
-0.6
 41
-30.0
 62
     5
 63
     7
 74
     2
 91
        2
 64
     7
 65
   257
 75
     2
175
     1
 42
40.0
 92
        0
 66
   257
 43
1.0
 76
     1
 77
     6
 78
     2
 67
     7
 79
     3
170
     0
171
     0
290
     0
174
     0
 93
        1
 44
0.0
173
     0
291
     0
 45
0.0
1001
ACAD
1000
AcDbSavedByObjectVersion
1070
     0
  0
VISUALSTYLE
  5
3EE9
102
{ACAD_XDICTIONARY
360
4347
102
}
102
{ACAD_REACTORS
330
3ED3
102
}
330
3ED3
100
AcDbVisualStyle
  2
JitterOff
 70
    20
 71
     2
 72
     2
 73
     0
 90
        0
 40
-0.6
 41
-30.0
 62
     5
 63
     7
 74
     1
 91
        4
 64
     7
 65
   257
 75
     1
175
     1
 42
1.0
 92
       10
 66
     7
 43
1.0
 76
     1
 77
     6
 78
     2
 67
     7
 79
     5
170
     0
171
     0
290
     0
174
     0
 93
        1
 44
0.0
173
     0
291
     1
 45
0.0
1001
ACAD
1000
AcDbSavedByObjectVersion
1070
     0
  0
VISUALSTYLE
  5
3EE1
102
{ACAD_XDICTIONARY
360
4337
102
}
102
{ACAD_REACTORS
330
3ED3
102
}
330
3ED3
100
AcDbVisualStyle
  2
Linepattern
 70
    14
 71
     2
 72
     2
 73
     0
 90
        0
 40
-0.6
 41
-30.0
 62
     5
 63
     7
 74
     1
 91
        4
 64
     7
 65
   257
 75
     7
175
     7
 42
1.0
 92
        8
 66
     7
 43
1.0
 76
     1
 77
     6
 78
     2
 67
     7
 79
     5
170
     0
171
     0
290
     0
174
     0
 93
        1
 44
0.0
173
     0
291
     1
 45
0.0
1001
ACAD
1000
AcDbSavedByObjectVersion
1070
     0
  0
VISUALSTYLE
  5
3EEA
102
{ACAD_XDICTIONARY
360
4349
102
}
102
{ACAD_REACTORS
330
3ED3
102
}
330
3ED3
100
AcDbVisualStyle
  2
OverhangOff
 70
    21
 71
     2
 72
     2
 73
     0
 90
        0
 40
-0.6
 41
-30.0
 62
     5
 63
     7
 74
     1
 91
        4
 64
     7
 65
   257
 75
     1
175
     1
 42
1.0
 92
        9
 66
     7
 43
1.0
 76
     1
 77
     6
 78
     2
 67
     7
 79
     5
170
     0
171
     0
290
     0
174
     0
 93
        1
 44
0.0
173
     0
291
     1
 45
0.0
1001
ACAD
1000
AcDbSavedByObjectVersion
1070
     0
  0
VISUALSTYLE
  5
3EDD
102
{ACAD_XDICTIONARY
360
432F
102
}
102
{ACAD_REACTORS
330
3ED3
102
}
330
3ED3
100
AcDbVisualStyle
  2
Realistic
 70
     8
 71
     2
 72
     2
 73
     0
 90
        2
 40
-0.6
 41
30.0
 62
     5
 63
     7
 74
     0
 91
        0
 64
     7
 65
   257
 75
     1
175
     1
 42
1.0
 92
        8
 66
   257
 43
1.0
 76
     1
 77
     6
 78
     2
 67
     7
 79
     3
170
     0
171
     0
290
     0
174
     0
 93
       13
 44
0.0
173
     0
291
     0
 45
0.0
1001
ACAD
1000
AcDbSavedByObjectVersion
1070
     0
  0
VISUALSTYLE
  5
3EE8
102
{ACAD_XDICTIONARY
360
4345
102
}
102
{ACAD_REACTORS
330
3ED3
102
}
330
3ED3
100
AcDbVisualStyle
  2
Shaded
 70
    27
 71
     2
 72
     2
 73
     1
 90
        2
 40
-0.6
 41
30.0
 62
     5
 63
     7
 74
     0
 91
        4
 64
     7
 65
   257
 75
     1
175
     1
 42
1.0
 92
        8
 66
   257
 43
1.0
 76
     1
 77
     6
 78
     2
 67
     8
 79
     3
170
     0
171
     0
290
     0
174
     0
 93
        5
 44
0.0
173
     0
291
     0
 45
0.0
1001
ACAD
1000
AcDbSavedByObjectVersion
1070
     0
  0
VISUALSTYLE
  5
3EE7
102
{ACAD_XDICTIONARY
360
4343
102
}
102
{ACAD_REACTORS
330
3ED3
102
}
330
3ED3
100
AcDbVisualStyle
  2
Shaded with edges
 70
    26
 71
     2
 72
     2
 73
     1
 90
        2
 40
-0.6
 41
30.0
 62
     5
 63
     7
 74
     1
 91
        2
 64
     7
 65
   257
 75
     2
175
     1
 42
1.0
 92
        8
 66
   257
 43
1.0
 76
     1
 77
     6
 78
     2
 67
     7
 79
     3
170
     0
171
     0
290
     0
174
     0
 93
        5
 44
0.0
173
     0
291
     0
 45
0.0
1001
ACAD
1000
AcDbSavedByObjectVersion
1070
     0
  0
VISUALSTYLE
  5
3EE4
102
{ACAD_XDICTIONARY
360
433D
102
}
102
{ACAD_REACTORS
330
3ED3
102
}
330
3ED3
100
AcDbVisualStyle
  2
Shades of Gray
 70
    23
 71
     2
 72
     2
 73
     3
 90
        0
 40
-0.6
 41
-30.0
 62
     5
 63
     7
 74
     2
 91
        2
 64
     7
 65
     7
 75
     1
175
     1
 42
40.0
 92
        8
 66
     7
 43
1.0
 76
     1
 77
     6
 78
     2
 67
     7
 79
     3
170
     0
171
     0
290
     0
174
     0
 93
        1
 44
0.0
173
     0
291
     0
 45
0.0
1001
ACAD
1000
AcDbSavedByObjectVersion
1070
     0
  0
VISUALSTYLE
  5
3EE5
102
{ACAD_XDICTIONARY
360
433F
102
}
102
{ACAD_REACTORS
330
3ED3
102
}
330
3ED3
100
AcDbVisualStyle
  2
Sketchy
 70
    24
 71
     1
 72
     2
 73
     2
 90
        0
 40
-0.6
 41
-30.0
 62
     5
 63
     7
 74
     2
 91
        2
 64
     7
 65
     7
 75
     1
175
     1
 42
40.0
 92
       11
 66
     7
 43
1.0
 76
     1
 77
     6
 78
     2
 67
     7
 79
     6
170
     0
171
     0
290
     0
174
     0
 93
        1
 44
0.0
173
     0
291
     0
 45
0.0
1001
ACAD
1000
AcDbSavedByObjectVersion
1070
     0
  0
VISUALSTYLE
  5
3EE0
102
{ACAD_XDICTIONARY
360
4335
102
}
102
{ACAD_REACTORS
330
3ED3
102
}
330
3ED3
100
AcDbVisualStyle
  2
Thicken
 70
    13
 71
     2
 72
     2
 73
     0
 90
        0
 40
-0.6
 41
-30.0
 62
     5
 63
     7
 74
     1
 91
        4
 64
     7
 65
   257
 75
     1
175
     1
 42
1.0
 92
       12
 66
     7
 43
1.0
 76
     1
 77
     6
 78
     2
 67
     7
 79
     5
170
     0
171
     0
290
     0
174
     0
 93
        1
 44
0.0
173
     0
291
     1
 45
0.0
1001
ACAD
1000
AcDbSavedByObjectVersion
1070
     0
  0
VISUALSTYLE
  5
3EDA
102
{ACAD_XDICTIONARY
360
4329
102
}
102
{ACAD_REACTORS
330
3ED3
102
}
330
3ED3
100
AcDbVisualStyle
  2
Wireframe
 70
     5
 71
     0
 72
     2
 73
     0
 90
        0
 40
-0.6
 41
-30.0
 62
     5
 63
     7
 74
     1
 91
        4
 64
     7
 65
   257
 75
     1
175
     1
 42
1.0
 92
        0
 66
   257
 43
1.0
 76
     1
 77
     6
 78
     2
 67
     7
 79
     3
170
     0
171
     0
290
     0
174
     0
 93
        1
 44
0.0
173
     0
291
     0
 45
0.0
1001
ACAD
1000
AcDbSavedByObjectVersion
1070
     0
  0
VISUALSTYLE
  5
3EE6
102
{ACAD_XDICTIONARY
360
4341
102
}
102
{ACAD_REACTORS
330
3ED3
102
}
330
3ED3
100
AcDbVisualStyle
  2
X-Ray
 70
    25
 71
     2
 72
     2
 73
     1
 90
        1
 40
0.5
 41
-30.0
 62
     5
 63
     7
 74
     1
 91
        0
 64
     7
 65
   257
 75
     1
175
     1
 42
1.0
 92
        8
 66
     7
 43
1.0
 76
     1
 77
     6
 78
     2
 67
     7
 79
     3
170
     0
171
     0
290
     0
174
     0
 93
       13
 44
0.0
173
     0
291
     0
 45
0.0
1001
ACAD
1000
AcDbSavedByObjectVersion
1070
     0
  0
DICTIONARYVAR
  5
3F4E
102
{ACAD_REACTORS
330
3F49
102
}
330
3F49
100
DictionaryVariables
280
     0
  1
1:1
  0
DICTIONARYVAR
  5
3F4B
102
{ACAD_REACTORS
330
3F49
102
}
330
3F49
100
DictionaryVariables
280
     0
  1
STANDARD
  0
DICTIONARYVAR
  5
3F4A
102
{ACAD_REACTORS
330
3F49
102
}
330
3F49
100
DictionaryVariables
280
     0
  1
STANDARD
  0
DICTIONARYVAR
  5
3F4C
102
{ACAD_REACTORS
330
3F49
102
}
330
3F49
100
DictionaryVariables
280
     0
  1
Imperial24
  0
DICTIONARYVAR
  5
3F4D
102
{ACAD_REACTORS
330
3F49
102
}
330
3F49
100
DictionaryVariables
280
     0
  1
Imperial24
  0
DICTIONARYVAR
  5
3F51
102
{ACAD_REACTORS
330
3F49
102
}
330
3F49
100
DictionaryVariables
280
     0
  1
1
  0
DICTIONARYVAR
  5
3F50
102
{ACAD_REACTORS
330
3F49
102
}
330
3F49
100
DictionaryVariables
280
     0
  1
0
  0
DICTIONARYVAR
  5
3F4F
102
{ACAD_REACTORS
330
3F49
102
}
330
3F49
100
DictionaryVariables
280
     0
  1
127
  0
DICTIONARYVAR
  5
4312
102
{ACAD_REACTORS
330
3F49
102
}
330
3F49
100
DictionaryVariables
280
     0
  1
2
  0
DICTIONARY
  5
4350
330
3F06
100
AcDbDictionary
280
     1
281
     1
  3
ACAD_XREC_ROUNDTRIP
360
4351
  0
DICTIONARY
  5
4318
330
3EB7
100
AcDbDictionary
280
     1
281
     1
  3
ACAD_XREC_ROUNDTRIP
360
4319
  0
DICTIONARY
  5
4316
330
3EB6
100
AcDbDictionary
280
     1
281
     1
  3
ACAD_XREC_ROUNDTRIP
360
4317
  0
DICTIONARY
  5
3EC4
330
3EC3
100
AcDbDictionary
280
     1
281
     1
  3
ACAD_XREC_ROUNDTRIP
360
431B
  3
BUMPTILE
360
3EC6
  3
DIFFUSETILE
360
3EC5
  3
OPACITYTILE
360
3EC9
  3
REFLECTIONTILE
360
3EC8
  3
REFRACTIONTILE
360
3ECA
  3
SPECULARTILE
360
3EC7
  0
DICTIONARY
  5
3EBC
330
3EBB
100
AcDbDictionary
280
     1
281
     1
  3
ACAD_XREC_ROUNDTRIP
360
431A
  3
BUMPTILE
360
3EBE
  3
DIFFUSETILE
360
3EBD
  3
OPACITYTILE
360
3EC1
  3
REFLECTIONTILE
360
3EC0
  3
REFRACTIONTILE
360
3EC2
  3
SPECULARTILE
360
3EBF
  0
DICTIONARY
  5
3ECC
330
3ECB
100
AcDbDictionary
280
     1
281
     1
  3
ACAD_XREC_ROUNDTRIP
360
431C
  3
BUMPTILE
360
3ECE
  3
DIFFUSETILE
360
3ECD
  3
OPACITYTILE
360
3ED1
  3
REFLECTIONTILE
360
3ED0
  3
REFRACTIONTILE
360
3ED2
  3
SPECULARTILE
360
3ECF
  0
DICTIONARY
  5
434E
330
3F04
100
AcDbDictionary
280
     1
281
     1
  3
ACAD_XREC_ROUNDTRIP
360
434F
  0
DICTIONARY
  5
3F07
330
3EEE
100
AcDbDictionary
280
     1
281
     1
  3
ACAD_ROUNDTRIP_2008_TABLESTYLE_CELLSTYLEMAP
360
4313
  3
ACAD_XREC_ROUNDTRIP
360
434D
  0
DICTIONARY
  5
4327
330
3ED9
100
AcDbDictionary
280
     1
281
     1
  3
ACAD_XREC_ROUNDTRIP
360
4328
  0
DICTIONARY
  5
4325
330
3ED8
100
AcDbDictionary
280
     1
281
     1
  3
ACAD_XREC_ROUNDTRIP
360
4326
  0
DICTIONARY
  5
4333
330
3EDF
100
AcDbDictionary
280
     1
281
     1
  3
ACAD_XREC_ROUNDTRIP
360
4334
  0
DICTIONARY
  5
433B
330
3EE3
100
AcDbDictionary
280
     1
281
     1
  3
ACAD_XREC_ROUNDTRIP
360
433C
  0
DICTIONARY
  5
432D
330
3EDC
100
AcDbDictionary
280
     1
281
     1
  3
ACAD_XREC_ROUNDTRIP
360
432E
  0
DICTIONARY
  5
4331
330
3EDE
100
AcDbDictionary
280
     1
281
     1
  3
ACAD_XREC_ROUNDTRIP
360
4332
  0
DICTIONARY
  5
434B
330
3EEB
100
AcDbDictionary
280
     1
281
     1
  3
ACAD_XREC_ROUNDTRIP
360
434C
  0
DICTIONARY
  5
4339
330
3EE2
100
AcDbDictionary
280
     1
281
     1
  3
ACAD_XREC_ROUNDTRIP
360
433A
  0
DICTIONARY
  5
431D
330
3ED4
100
AcDbDictionary
280
     1
281
     1
  3
ACAD_XREC_ROUNDTRIP
360
431E
  0
DICTIONARY
  5
431F
330
3ED5
100
AcDbDictionary
280
     1
281
     1
  3
ACAD_XREC_ROUNDTRIP
360
4320
  0
DICTIONARY
  5
4321
330
3ED6
100
AcDbDictionary
280
     1
281
     1
  3
ACAD_XREC_ROUNDTRIP
360
4322
  0
DICTIONARY
  5
4323
330
3ED7
100
AcDbDictionary
280
     1
281
     1
  3
ACAD_XREC_ROUNDTRIP
360
4324
  0
DICTIONARY
  5
432B
330
3EDB
100
AcDbDictionary
280
     1
281
     1
  3
ACAD_XREC_ROUNDTRIP
360
432C
  0
DICTIONARY
  5
4347
330
3EE9
100
AcDbDictionary
280
     1
281
     1
  3
ACAD_XREC_ROUNDTRIP
360
4348
  0
DICTIONARY
  5
4337
330
3EE1
100
AcDbDictionary
280
     1
281
     1
  3
ACAD_XREC_ROUNDTRIP
360
4338
  0
DICTIONARY
  5
4349
330
3EEA
100
AcDbDictionary
280
     1
281
     1
  3
ACAD_XREC_ROUNDTRIP
360
434A
  0
DICTIONARY
  5
432F
330
3EDD
100
AcDbDictionary
280
     1
281
     1
  3
ACAD_XREC_ROUNDTRIP
360
4330
  0
DICTIONARY
  5
4345
330
3EE8
100
AcDbDictionary
280
     1
281
     1
  3
ACAD_XREC_ROUNDTRIP
360
4346
  0
DICTIONARY
  5
4343
330
3EE7
100
AcDbDictionary
280
     1
281
     1
  3
ACAD_XREC_ROUNDTRIP
360
4344
  0
DICTIONARY
  5
433D
330
3EE4
100
AcDbDictionary
280
     1
281
     1
  3
ACAD_XREC_ROUNDTRIP
360
433E
  0
DICTIONARY
  5
433F
330
3EE5
100
AcDbDictionary
280
     1
281
     1
  3
ACAD_XREC_ROUNDTRIP
360
4340
  0
DICTIONARY
  5
4335
330
3EE0
100
AcDbDictionary
280
     1
281
     1
  3
ACAD_XREC_ROUNDTRIP
360
4336
  0
DICTIONARY
  5
4329
330
3EDA
100
AcDbDictionary
280
     1
281
     1
  3
ACAD_XREC_ROUNDTRIP
360
432A
  0
DICTIONARY
  5
4341
330
3EE6
100
AcDbDictionary
280
     1
281
     1
  3
ACAD_XREC_ROUNDTRIP
360
4342
  0
XRECORD
  5
4351
102
{ACAD_REACTORS
330
4350
102
}
330
4350
100
AcDbXrecord
280
     1
102
DISPLAYNAME
  1
Imperial24
102
FLAGS
 90
        0
  0
XRECORD
  5
4319
102
{ACAD_REACTORS
330
4318
102
}
330
4318
100
AcDbXrecord
280
     1
102
SHADEPLOT
 70
     0
102
SHADEPLOTRESLEVEL
 70
     2
102
SHADEPLOTCUSTOMDPI
 70
   300
  0
XRECORD
  5
4317
102
{ACAD_REACTORS
330
4316
102
}
330
4316
100
AcDbXrecord
280
     1
102
SHADEPLOT
 70
     0
102
SHADEPLOTRESLEVEL
 70
     2
102
SHADEPLOTCUSTOMDPI
 70
   300
  0
XRECORD
  5
431B
102
{ACAD_REACTORS
330
3EC4
102
}
330
3EC4
100
AcDbXrecord
280
     1
102
MATERIAL
148
0.0
149
0.0
149
0.0
 93
        0
 94
      127
282
     0
 72
     0
 77
     0
171
     0
175
     0
179
     0
273
     0
  0
XRECORD
  5
3EC6
102
{ACAD_REACTORS
330
3EC4
102
}
330
3EC4
100
AcDbXrecord
280
     1
270
     1
271
     1
  0
XRECORD
  5
3EC5
102
{ACAD_REACTORS
330
3EC4
102
}
330
3EC4
100
AcDbXrecord
280
     1
270
     1
271
     1
  0
XRECORD
  5
3EC9
102
{ACAD_REACTORS
330
3EC4
102
}
330
3EC4
100
AcDbXrecord
280
     1
270
     1
271
     1
  0
XRECORD
  5
3EC8
102
{ACAD_REACTORS
330
3EC4
102
}
330
3EC4
100
AcDbXrecord
280
     1
270
     1
271
     1
  0
XRECORD
  5
3ECA
102
{ACAD_REACTORS
330
3EC4
102
}
330
3EC4
100
AcDbXrecord
280
     1
270
     1
271
     1
  0
XRECORD
  5
3EC7
102
{ACAD_REACTORS
330
3EC4
102
}
330
3EC4
100
AcDbXrecord
280
     1
270
     1
271
     1
  0
XRECORD
  5
431A
102
{ACAD_REACTORS
330
3EBC
102
}
330
3EBC
100
AcDbXrecord
280
     1
102
MATERIAL
148
0.0
149
0.0
149
0.0
 93
        0
 94
      127
282
     0
 72
     0
 77
     0
171
     0
175
     0
179
     0
273
     0
  0
XRECORD
  5
3EBE
102
{ACAD_REACTORS
330
3EBC
102
}
330
3EBC
100
AcDbXrecord
280
     1
270
     1
271
     1
  0
XRECORD
  5
3EBD
102
{ACAD_REACTORS
330
3EBC
102
}
330
3EBC
100
AcDbXrecord
280
     1
270
     1
271
     1
  0
XRECORD
  5
3EC1
102
{ACAD_REACTORS
330
3EBC
102
}
330
3EBC
100
AcDbXrecord
280
     1
270
     1
271
     1
  0
XRECORD
  5
3EC0
102
{ACAD_REACTORS
330
3EBC
102
}
330
3EBC
100
AcDbXrecord
280
     1
270
     1
271
     1
  0
XRECORD
  5
3EC2
102
{ACAD_REACTORS
330
3EBC
102
}
330
3EBC
100
AcDbXrecord
280
     1
270
     1
271
     1
  0
XRECORD
  5
3EBF
102
{ACAD_REACTORS
330
3EBC
102
}
330
3EBC
100
AcDbXrecord
280
     1
270
     1
271
     1
  0
XRECORD
  5
431C
102
{ACAD_REACTORS
330
3ECC
102
}
330
3ECC
100
AcDbXrecord
280
     1
102
MATERIAL
148
0.0
149
0.0
149
0.0
 93
        0
 94
      127
282
     0
 72
     0
 77
     0
171
     0
175
     0
179
     0
273
     0
  0
XRECORD
  5
3ECE
102
{ACAD_REACTORS
330
3ECC
102
}
330
3ECC
100
AcDbXrecord
280
     1
270
     1
271
     1
  0
XRECORD
  5
3ECD
102
{ACAD_REACTORS
330
3ECC
102
}
330
3ECC
100
AcDbXrecord
280
     1
270
     1
271
     1
  0
XRECORD
  5
3ED1
102
{ACAD_REACTORS
330
3ECC
102
}
330
3ECC
100
AcDbXrecord
280
     1
270
     1
271
     1
  0
XRECORD
  5
3ED0
102
{ACAD_REACTORS
330
3ECC
102
}
330
3ECC
100
AcDbXrecord
280
     1
270
     1
271
     1
  0
XRECORD
  5
3ED2
102
{ACAD_REACTORS
330
3ECC
102
}
330
3ECC
100
AcDbXrecord
280
     1
270
     1
271
     1
  0
XRECORD
  5
3ECF
102
{ACAD_REACTORS
330
3ECC
102
}
330
3ECC
100
AcDbXrecord
280
     1
270
     1
271
     1
  0
XRECORD
  5
434F
102
{ACAD_REACTORS
330
434E
102
}
330
434E
100
AcDbXrecord
280
     1
102
DISPLAYNAME
  1
Imperial24
102
FLAGS
 90
        0
  0
CELLSTYLEMAP
  5
4313
102
{ACAD_REACTORS
330
3F07
102
}
330
3F07
100
AcDbCellStyleMap
 90
        3
300
CELLSTYLE
  1
TABLEFORMAT_BEGIN
 90
        5
170
     1
 91
        0
 92
    32768
 62
   257
 93
        1
300
CONTENTFORMAT
  1
CONTENTFORMAT_BEGIN
 90
        0
 91
        0
 92
      512
 93
        0
300

 40
0.0
140
1.0
 94
        5
 62
     0
340
11
144
0.25
309
CONTENTFORMAT_END
171
     0
 94
        0
309
TABLEFORMAT_END
  1
CELLSTYLE_BEGIN
 90
        1
 91
        1
300
_TITLE
309
CELLSTYLE_END
300
CELLSTYLE
  1
TABLEFORMAT_BEGIN
 90
        5
170
     1
 91
        0
 92
        0
 62
   257
 93
        1
300
CONTENTFORMAT
  1
CONTENTFORMAT_BEGIN
 90
        0
 91
        0
 92
      512
 93
        0
300

 40
0.0
140
1.0
 94
        5
 62
     0
340
11
144
0.18
309
CONTENTFORMAT_END
171
     0
 94
        0
309
TABLEFORMAT_END
  1
CELLSTYLE_BEGIN
 90
        2
 91
        1
300
_HEADER
309
CELLSTYLE_END
300
CELLSTYLE
  1
TABLEFORMAT_BEGIN
 90
        5
170
     1
 91
        0
 92
        0
 62
   257
 93
        1
300
CONTENTFORMAT
  1
CONTENTFORMAT_BEGIN
 90
        0
 91
        0
 92
      512
 93
        0
300

 40
0.0
140
1.0
 94
        2
 62
     0
340
11
144
0.18
309
CONTENTFORMAT_END
171
     0
 94
        0
309
TABLEFORMAT_END
  1
CELLSTYLE_BEGIN
 90
        3
 91
        2
300
_DATA
309
CELLSTYLE_END
  0
XRECORD
  5
434D
102
{ACAD_REACTORS
330
3F07
102
}
330
3F07
100
AcDbXrecord
280
     1
102
ACAD_ROUNDTRIP_PRE2007_TABLESTYLE
 90
      512
 91
        0
  1

 92
      512
 93
        0
  2

 94
      512
 95
        0
  3

  0
XRECORD
  5
4328
102
{ACAD_REACTORS
330
4327
102
}
330
4327
100
AcDbXrecord
280
     1
102
RTVSPost2010Prop28
280
     1
102
RTVSPost2010PropOp28
 70
     1
102
RTVSPost2010Prop29
280
     1
102
RTVSPost2010PropOp29
 70
     1
102
RTVSPost2010Prop30
280
     0
102
RTVSPost2010PropOp30
 70
     1
102
RTVSPost2010Prop31
280
     0
102
RTVSPost2010PropOp31
 70
     1
102
RTVSPost2010Prop32
280
     0
102
RTVSPost2010PropOp32
 70
     1
102
RTVSPost2010Prop33
280
     0
102
RTVSPost2010PropOp33
 70
     1
102
RTVSPost2010Prop34
280
     0
102
RTVSPost2010PropOp34
 70
     1
102
RTVSPost2010Prop35
280
     0
102
RTVSPost2010PropOp35
 70
     1
102
RTVSPost2010Prop36
280
     0
102
RTVSPost2010PropOp36
 70
     1
102
RTVSPost2010Prop37
 90
       50
102
RTVSPost2010PropOp37
 70
     1
102
RTVSPost2010Prop38
140
0.0
102
RTVSPost2010PropOp38
 70
     1
102
RTVSPost2010Prop39
140
1.0
102
RTVSPost2010PropOp39
 70
     1
102
RTVSPost2010Prop40
 90
        0
102
RTVSPost2010PropOp40
 70
     1
102
RTVSPost2010Prop41ColorIndex
 90
       18
102
RTVSPost2010Prop41ColorRGB
 90
        0
102
RTVSPost2010PropOp41
 70
     1
102
RTVSPost2010Prop42
 90
       50
102
RTVSPost2010PropOp42
 70
     1
102
RTVSPost2010Prop43
 90
        3
102
RTVSPost2010PropOp43
 70
     1
102
RTVSPost2010Prop44ColorIndex
 90
        5
102
RTVSPost2010Prop44ColorRGB
 90
      255
102
RTVSPost2010PropOp44
 70
     1
102
RTVSPost2010Prop45
280
     0
102
RTVSPost2010PropOp45
 70
     1
102
RTVSPost2010Prop46
 90
       50
102
RTVSPost2010PropOp46
 70
     1
102
RTVSPost2010Prop47
 90
       50
102
RTVSPost2010PropOp47
 70
     1
102
RTVSPost2010Prop48
 90
       50
102
RTVSPost2010PropOp48
 70
     1
102
RTVSPost2010Prop49
280
     0
102
RTVSPost2010PropOp49
 70
     1
102
RTVSPost2010Prop50
 90
       50
102
RTVSPost2010PropOp50
 70
     1
102
RTVSPost2010Prop51ColorIndex
 90
      256
102
RTVSPost2010Prop51ColorRGB
 90
-16777216
102
RTVSPost2010PropOp51
 70
     0
102
RTVSPost2010Prop52
140
1.0
102
RTVSPost2010PropOp52
 70
     0
102
RTVSPost2010Prop53
 90
        2
102
RTVSPost2010PropOp53
 70
     1
102
RTVSPost2010Prop54
  1
strokes_ogs.tif
102
RTVSPost2010PropOp54
 70
     1
102
RTVSPost2010Prop55
280
     0
102
RTVSPost2010PropOp55
 70
     1
102
RTVSPost2010Prop56
140
1.0
102
RTVSPost2010PropOp56
 70
     1
102
RTVSPost2010Prop57
140
1.0
102
RTVSPost2010PropOp57
 70
     1
102
RTVSPropertyOp0
 70
     1
102
RTVSPropertyOp1
 70
     1
102
RTVSPropertyOp2
 70
     1
102
RTVSPropertyOp3
 70
     1
102
RTVSPropertyOp4
 70
     1
102
RTVSPropertyOp5
 70
     1
102
RTVSPropertyOp6
 70
     1
102
RTVSPropertyOp7
 70
     1
102
RTVSPropertyOp8
 70
     1
102
RTVSPropertyOp9
 70
     1
102
RTVSPropertyOp10
 70
     1
102
RTVSPropertyOp11
 70
     1
102
RTVSPropertyOp12
 70
     1
102
RTVSPropertyOp13
 70
     1
102
RTVSPropertyOp14
 70
     1
102
RTVSPropertyOp15
 70
     1
102
RTVSPropertyOp16
 70
     1
102
RTVSPropertyOp17
 70
     1
102
RTVSPropertyOp18
 70
     1
102
RTVSPropertyOp19
 70
     1
102
RTVSPropertyOp20
 70
     1
102
RTVSPropertyOp21
 70
     1
102
RTVSPropertyOp22
 70
     1
102
RTVSPropertyOp23
 70
     1
102
RTVSPropertyOp24
 70
     1
102
RTVSPropertyOp25
 70
     1
102
RTVSPropertyOp26
 70
     1
102
RTVSPropertyOp27
 70
     1
102
RTVSPropertyOp28
 70
     1
102
RTVSPropertyOp29
 70
     1
102
RTVSPropertyOp30
 70
     1
102
RTVSPropertyOp31
 70
     1
102
RTVSPropertyOp32
 70
     1
102
RTVSPropertyOp33
 70
     1
102
RTVSPropertyOp34
 70
     1
102
RTVSPropertyOp35
 70
     1
102
RTVSPropertyOp36
 70
     1
102
RTVSPropertyOp37
 70
     1
102
RTVSPropertyOp38
 70
     1
102
RTVSPropertyOp39
 70
     1
102
RTVSPropertyOp40
 70
     1
102
RTVSPropertyOp41
 70
     1
102
RTVSPropertyOp42
 70
     1
102
RTVSPropertyOp43
 70
     1
102
RTVSPropertyOp44
 70
     1
102
RTVSPropertyOp45
 70
     1
102
RTVSPropertyOp46
 70
     1
102
RTVSPropertyOp47
 70
     1
102
RTVSPropertyOp48
 70
     1
102
RTVSPropertyOp49
 70
     1
102
RTVSPropertyOp50
 70
     1
102
RTVSPropertyOp51
 70
     0
102
RTVSPropertyOp52
 70
     0
102
RTVSPropertyOp53
 70
     1
102
RTVSPropertyOp54
 70
     1
102
RTVSPropertyOp55
 70
     1
102
RTVSPropertyOp56
 70
     1
102
RTVSPropertyOp57
 70
     1
102
RTVSPropertyOp58
 70
     1
102
RTVSPropertyOp59
 70
     1
102
RTVSPropertyOp60
 70
     1
102
RTVSPropertyOp61
 70
     1
102
RTVSPropertyOp62
 70
     1
  0
XRECORD
  5
4326
102
{ACAD_REACTORS
330
4325
102
}
330
4325
100
AcDbXrecord
280
     1
102
RTVSPost2010Prop28
280
     0
102
RTVSPost2010PropOp28
 70
     1
102
RTVSPost2010Prop29
280
     1
102
RTVSPost2010PropOp29
 70
     1
102
RTVSPost2010Prop30
280
     1
102
RTVSPost2010PropOp30
 70
     1
102
RTVSPost2010Prop31
280
     0
102
RTVSPost2010PropOp31
 70
     1
102
RTVSPost2010Prop32
280
     0
102
RTVSPost2010PropOp32
 70
     1
102
RTVSPost2010Prop33
280
     0
102
RTVSPost2010PropOp33
 70
     1
102
RTVSPost2010Prop34
280
     0
102
RTVSPost2010PropOp34
 70
     1
102
RTVSPost2010Prop35
280
     0
102
RTVSPost2010PropOp35
 70
     1
102
RTVSPost2010Prop36
280
     0
102
RTVSPost2010PropOp36
 70
     1
102
RTVSPost2010Prop37
 90
       50
102
RTVSPost2010PropOp37
 70
     1
102
RTVSPost2010Prop38
140
0.0
102
RTVSPost2010PropOp38
 70
     1
102
RTVSPost2010Prop39
140
1.0
102
RTVSPost2010PropOp39
 70
     1
102
RTVSPost2010Prop40
 90
        0
102
RTVSPost2010PropOp40
 70
     1
102
RTVSPost2010Prop41ColorIndex
 90
       18
102
RTVSPost2010Prop41ColorRGB
 90
        0
102
RTVSPost2010PropOp41
 70
     1
102
RTVSPost2010Prop42
 90
       50
102
RTVSPost2010PropOp42
 70
     1
102
RTVSPost2010Prop43
 90
        3
102
RTVSPost2010PropOp43
 70
     1
102
RTVSPost2010Prop44ColorIndex
 90
        5
102
RTVSPost2010Prop44ColorRGB
 90
      255
102
RTVSPost2010PropOp44
 70
     1
102
RTVSPost2010Prop45
280
     0
102
RTVSPost2010PropOp45
 70
     1
102
RTVSPost2010Prop46
 90
       50
102
RTVSPost2010PropOp46
 70
     1
102
RTVSPost2010Prop47
 90
       50
102
RTVSPost2010PropOp47
 70
     1
102
RTVSPost2010Prop48
 90
       50
102
RTVSPost2010PropOp48
 70
     1
102
RTVSPost2010Prop49
280
     0
102
RTVSPost2010PropOp49
 70
     1
102
RTVSPost2010Prop50
 90
       50
102
RTVSPost2010PropOp50
 70
     1
102
RTVSPost2010Prop51ColorIndex
 90
      256
102
RTVSPost2010Prop51ColorRGB
 90
-16777216
102
RTVSPost2010PropOp51
 70
     0
102
RTVSPost2010Prop52
140
1.0
102
RTVSPost2010PropOp52
 70
     0
102
RTVSPost2010Prop53
 90
        2
102
RTVSPost2010PropOp53
 70
     1
102
RTVSPost2010Prop54
  1
strokes_ogs.tif
102
RTVSPost2010PropOp54
 70
     1
102
RTVSPost2010Prop55
280
     0
102
RTVSPost2010PropOp55
 70
     1
102
RTVSPost2010Prop56
140
1.0
102
RTVSPost2010PropOp56
 70
     1
102
RTVSPost2010Prop57
140
1.0
102
RTVSPost2010PropOp57
 70
     1
102
RTVSPropertyOp0
 70
     1
102
RTVSPropertyOp1
 70
     1
102
RTVSPropertyOp2
 70
     1
102
RTVSPropertyOp3
 70
     1
102
RTVSPropertyOp4
 70
     1
102
RTVSPropertyOp5
 70
     1
102
RTVSPropertyOp6
 70
     1
102
RTVSPropertyOp7
 70
     1
102
RTVSPropertyOp8
 70
     1
102
RTVSPropertyOp9
 70
     1
102
RTVSPropertyOp10
 70
     1
102
RTVSPropertyOp11
 70
     1
102
RTVSPropertyOp12
 70
     1
102
RTVSPropertyOp13
 70
     1
102
RTVSPropertyOp14
 70
     1
102
RTVSPropertyOp15
 70
     1
102
RTVSPropertyOp16
 70
     1
102
RTVSPropertyOp17
 70
     1
102
RTVSPropertyOp18
 70
     1
102
RTVSPropertyOp19
 70
     1
102
RTVSPropertyOp20
 70
     1
102
RTVSPropertyOp21
 70
     1
102
RTVSPropertyOp22
 70
     1
102
RTVSPropertyOp23
 70
     1
102
RTVSPropertyOp24
 70
     1
102
RTVSPropertyOp25
 70
     1
102
RTVSPropertyOp26
 70
     1
102
RTVSPropertyOp27
 70
     1
102
RTVSPropertyOp28
 70
     1
102
RTVSPropertyOp29
 70
     1
102
RTVSPropertyOp30
 70
     1
102
RTVSPropertyOp31
 70
     1
102
RTVSPropertyOp32
 70
     1
102
RTVSPropertyOp33
 70
     1
102
RTVSPropertyOp34
 70
     1
102
RTVSPropertyOp35
 70
     1
102
RTVSPropertyOp36
 70
     1
102
RTVSPropertyOp37
 70
     1
102
RTVSPropertyOp38
 70
     1
102
RTVSPropertyOp39
 70
     1
102
RTVSPropertyOp40
 70
     1
102
RTVSPropertyOp41
 70
     1
102
RTVSPropertyOp42
 70
     1
102
RTVSPropertyOp43
 70
     1
102
RTVSPropertyOp44
 70
     1
102
RTVSPropertyOp45
 70
     1
102
RTVSPropertyOp46
 70
     1
102
RTVSPropertyOp47
 70
     1
102
RTVSPropertyOp48
 70
     1
102
RTVSPropertyOp49
 70
     1
102
RTVSPropertyOp50
 70
     1
102
RTVSPropertyOp51
 70
     0
102
RTVSPropertyOp52
 70
     0
102
RTVSPropertyOp53
 70
     1
102
RTVSPropertyOp54
 70
     1
102
RTVSPropertyOp55
 70
     1
102
RTVSPropertyOp56
 70
     1
102
RTVSPropertyOp57
 70
     1
102
RTVSPropertyOp58
 70
     1
102
RTVSPropertyOp59
 70
     1
102
RTVSPropertyOp60
 70
     1
102
RTVSPropertyOp61
 70
     1
102
RTVSPropertyOp62
 70
     1
  0
XRECORD
  5
4334
102
{ACAD_REACTORS
330
4333
102
}
330
4333
100
AcDbXrecord
280
     1
102
RTVSPost2010Prop28
280
     0
102
RTVSPost2010PropOp28
 70
     1
102
RTVSPost2010Prop29
280
     1
102
RTVSPost2010PropOp29
 70
     1
102
RTVSPost2010Prop30
280
     1
102
RTVSPost2010PropOp30
 70
     1
102
RTVSPost2010Prop31
280
     0
102
RTVSPost2010PropOp31
 70
     1
102
RTVSPost2010Prop32
280
     0
102
RTVSPost2010PropOp32
 70
     1
102
RTVSPost2010Prop33
280
     0
102
RTVSPost2010PropOp33
 70
     1
102
RTVSPost2010Prop34
280
     0
102
RTVSPost2010PropOp34
 70
     1
102
RTVSPost2010Prop35
280
     0
102
RTVSPost2010PropOp35
 70
     1
102
RTVSPost2010Prop36
280
     0
102
RTVSPost2010PropOp36
 70
     1
102
RTVSPost2010Prop37
 90
       50
102
RTVSPost2010PropOp37
 70
     1
102
RTVSPost2010Prop38
140
0.0
102
RTVSPost2010PropOp38
 70
     1
102
RTVSPost2010Prop39
140
1.0
102
RTVSPost2010PropOp39
 70
     1
102
RTVSPost2010Prop40
 90
        0
102
RTVSPost2010PropOp40
 70
     1
102
RTVSPost2010Prop41ColorIndex
 90
       18
102
RTVSPost2010Prop41ColorRGB
 90
        0
102
RTVSPost2010PropOp41
 70
     1
102
RTVSPost2010Prop42
 90
       50
102
RTVSPost2010PropOp42
 70
     1
102
RTVSPost2010Prop43
 90
        3
102
RTVSPost2010PropOp43
 70
     1
102
RTVSPost2010Prop44ColorIndex
 90
        5
102
RTVSPost2010Prop44ColorRGB
 90
      255
102
RTVSPost2010PropOp44
 70
     1
102
RTVSPost2010Prop45
280
     0
102
RTVSPost2010PropOp45
 70
     1
102
RTVSPost2010Prop46
 90
       50
102
RTVSPost2010PropOp46
 70
     1
102
RTVSPost2010Prop47
 90
       50
102
RTVSPost2010PropOp47
 70
     1
102
RTVSPost2010Prop48
 90
       50
102
RTVSPost2010PropOp48
 70
     1
102
RTVSPost2010Prop49
280
     0
102
RTVSPost2010PropOp49
 70
     1
102
RTVSPost2010Prop50
 90
       50
102
RTVSPost2010PropOp50
 70
     1
102
RTVSPost2010Prop51ColorIndex
 90
      256
102
RTVSPost2010Prop51ColorRGB
 90
-16777216
102
RTVSPost2010PropOp51
 70
     0
102
RTVSPost2010Prop52
140
1.0
102
RTVSPost2010PropOp52
 70
     0
102
RTVSPost2010Prop53
 90
        2
102
RTVSPost2010PropOp53
 70
     1
102
RTVSPost2010Prop54
  1
strokes_ogs.tif
102
RTVSPost2010PropOp54
 70
     1
102
RTVSPost2010Prop55
280
     0
102
RTVSPost2010PropOp55
 70
     1
102
RTVSPost2010Prop56
140
1.0
102
RTVSPost2010PropOp56
 70
     1
102
RTVSPost2010Prop57
140
1.0
102
RTVSPost2010PropOp57
 70
     1
102
RTVSPropertyOp0
 70
     1
102
RTVSPropertyOp1
 70
     1
102
RTVSPropertyOp2
 70
     1
102
RTVSPropertyOp3
 70
     1
102
RTVSPropertyOp4
 70
     1
102
RTVSPropertyOp5
 70
     1
102
RTVSPropertyOp6
 70
     1
102
RTVSPropertyOp7
 70
     1
102
RTVSPropertyOp8
 70
     1
102
RTVSPropertyOp9
 70
     1
102
RTVSPropertyOp10
 70
     1
102
RTVSPropertyOp11
 70
     1
102
RTVSPropertyOp12
 70
     1
102
RTVSPropertyOp13
 70
     1
102
RTVSPropertyOp14
 70
     1
102
RTVSPropertyOp15
 70
     1
102
RTVSPropertyOp16
 70
     1
102
RTVSPropertyOp17
 70
     1
102
RTVSPropertyOp18
 70
     1
102
RTVSPropertyOp19
 70
     1
102
RTVSPropertyOp20
 70
     1
102
RTVSPropertyOp21
 70
     1
102
RTVSPropertyOp22
 70
     1
102
RTVSPropertyOp23
 70
     1
102
RTVSPropertyOp24
 70
     1
102
RTVSPropertyOp25
 70
     1
102
RTVSPropertyOp26
 70
     1
102
RTVSPropertyOp27
 70
     1
102
RTVSPropertyOp28
 70
     1
102
RTVSPropertyOp29
 70
     1
102
RTVSPropertyOp30
 70
     1
102
RTVSPropertyOp31
 70
     1
102
RTVSPropertyOp32
 70
     1
102
RTVSPropertyOp33
 70
     1
102
RTVSPropertyOp34
 70
     1
102
RTVSPropertyOp35
 70
     1
102
RTVSPropertyOp36
 70
     1
102
RTVSPropertyOp37
 70
     1
102
RTVSPropertyOp38
 70
     1
102
RTVSPropertyOp39
 70
     1
102
RTVSPropertyOp40
 70
     1
102
RTVSPropertyOp41
 70
     1
102
RTVSPropertyOp42
 70
     1
102
RTVSPropertyOp43
 70
     1
102
RTVSPropertyOp44
 70
     1
102
RTVSPropertyOp45
 70
     1
102
RTVSPropertyOp46
 70
     1
102
RTVSPropertyOp47
 70
     1
102
RTVSPropertyOp48
 70
     1
102
RTVSPropertyOp49
 70
     1
102
RTVSPropertyOp50
 70
     1
102
RTVSPropertyOp51
 70
     0
102
RTVSPropertyOp52
 70
     0
102
RTVSPropertyOp53
 70
     1
102
RTVSPropertyOp54
 70
     1
102
RTVSPropertyOp55
 70
     1
102
RTVSPropertyOp56
 70
     1
102
RTVSPropertyOp57
 70
     1
102
RTVSPropertyOp58
 70
     1
102
RTVSPropertyOp59
 70
     1
102
RTVSPropertyOp60
 70
     1
102
RTVSPropertyOp61
 70
     1
102
RTVSPropertyOp62
 70
     1
  0
XRECORD
  5
433C
102
{ACAD_REACTORS
330
433B
102
}
330
433B
100
AcDbXrecord
280
     1
102
RTVSPost2010Prop28
280
     0
102
RTVSPost2010PropOp28
 70
     1
102
RTVSPost2010Prop29
280
     1
102
RTVSPost2010PropOp29
 70
     1
102
RTVSPost2010Prop30
280
     1
102
RTVSPost2010PropOp30
 70
     1
102
RTVSPost2010Prop31
280
     0
102
RTVSPost2010PropOp31
 70
     1
102
RTVSPost2010Prop32
280
     0
102
RTVSPost2010PropOp32
 70
     1
102
RTVSPost2010Prop33
280
     0
102
RTVSPost2010PropOp33
 70
     1
102
RTVSPost2010Prop34
280
     0
102
RTVSPost2010PropOp34
 70
     1
102
RTVSPost2010Prop35
280
     0
102
RTVSPost2010PropOp35
 70
     1
102
RTVSPost2010Prop36
280
     0
102
RTVSPost2010PropOp36
 70
     1
102
RTVSPost2010Prop37
 90
       50
102
RTVSPost2010PropOp37
 70
     1
102
RTVSPost2010Prop38
140
0.0
102
RTVSPost2010PropOp38
 70
     1
102
RTVSPost2010Prop39
140
1.0
102
RTVSPost2010PropOp39
 70
     1
102
RTVSPost2010Prop40
 90
        0
102
RTVSPost2010PropOp40
 70
     1
102
RTVSPost2010Prop41ColorIndex
 90
       18
102
RTVSPost2010Prop41ColorRGB
 90
        0
102
RTVSPost2010PropOp41
 70
     1
102
RTVSPost2010Prop42
 90
       50
102
RTVSPost2010PropOp42
 70
     1
102
RTVSPost2010Prop43
 90
        3
102
RTVSPost2010PropOp43
 70
     1
102
RTVSPost2010Prop44ColorIndex
 90
        5
102
RTVSPost2010Prop44ColorRGB
 90
      255
102
RTVSPost2010PropOp44
 70
     1
102
RTVSPost2010Prop45
280
     0
102
RTVSPost2010PropOp45
 70
     1
102
RTVSPost2010Prop46
 90
       50
102
RTVSPost2010PropOp46
 70
     1
102
RTVSPost2010Prop47
 90
       50
102
RTVSPost2010PropOp47
 70
     1
102
RTVSPost2010Prop48
 90
       50
102
RTVSPost2010PropOp48
 70
     1
102
RTVSPost2010Prop49
280
     0
102
RTVSPost2010PropOp49
 70
     1
102
RTVSPost2010Prop50
 90
       50
102
RTVSPost2010PropOp50
 70
     1
102
RTVSPost2010Prop51ColorIndex
 90
      256
102
RTVSPost2010Prop51ColorRGB
 90
-16777216
102
RTVSPost2010PropOp51
 70
     0
102
RTVSPost2010Prop52
140
1.0
102
RTVSPost2010PropOp52
 70
     0
102
RTVSPost2010Prop53
 90
        2
102
RTVSPost2010PropOp53
 70
     1
102
RTVSPost2010Prop54
  1
strokes_ogs.tif
102
RTVSPost2010PropOp54
 70
     1
102
RTVSPost2010Prop55
280
     0
102
RTVSPost2010PropOp55
 70
     1
102
RTVSPost2010Prop56
140
1.0
102
RTVSPost2010PropOp56
 70
     1
102
RTVSPost2010Prop57
140
1.0
102
RTVSPost2010PropOp57
 70
     1
102
RTVSPropertyOp0
 70
     1
102
RTVSPropertyOp1
 70
     1
102
RTVSPropertyOp2
 70
     1
102
RTVSPropertyOp3
 70
     1
102
RTVSPropertyOp4
 70
     1
102
RTVSPropertyOp5
 70
     1
102
RTVSPropertyOp6
 70
     1
102
RTVSPropertyOp7
 70
     1
102
RTVSPropertyOp8
 70
     1
102
RTVSPropertyOp9
 70
     1
102
RTVSPropertyOp10
 70
     1
102
RTVSPropertyOp11
 70
     1
102
RTVSPropertyOp12
 70
     1
102
RTVSPropertyOp13
 70
     1
102
RTVSPropertyOp14
 70
     1
102
RTVSPropertyOp15
 70
     1
102
RTVSPropertyOp16
 70
     1
102
RTVSPropertyOp17
 70
     1
102
RTVSPropertyOp18
 70
     1
102
RTVSPropertyOp19
 70
     1
102
RTVSPropertyOp20
 70
     1
102
RTVSPropertyOp21
 70
     1
102
RTVSPropertyOp22
 70
     1
102
RTVSPropertyOp23
 70
     1
102
RTVSPropertyOp24
 70
     1
102
RTVSPropertyOp25
 70
     1
102
RTVSPropertyOp26
 70
     1
102
RTVSPropertyOp27
 70
     1
102
RTVSPropertyOp28
 70
     1
102
RTVSPropertyOp29
 70
     1
102
RTVSPropertyOp30
 70
     1
102
RTVSPropertyOp31
 70
     1
102
RTVSPropertyOp32
 70
     1
102
RTVSPropertyOp33
 70
     1
102
RTVSPropertyOp34
 70
     1
102
RTVSPropertyOp35
 70
     1
102
RTVSPropertyOp36
 70
     1
102
RTVSPropertyOp37
 70
     1
102
RTVSPropertyOp38
 70
     1
102
RTVSPropertyOp39
 70
     1
102
RTVSPropertyOp40
 70
     1
102
RTVSPropertyOp41
 70
     1
102
RTVSPropertyOp42
 70
     1
102
RTVSPropertyOp43
 70
     1
102
RTVSPropertyOp44
 70
     1
102
RTVSPropertyOp45
 70
     1
102
RTVSPropertyOp46
 70
     1
102
RTVSPropertyOp47
 70
     1
102
RTVSPropertyOp48
 70
     1
102
RTVSPropertyOp49
 70
     1
102
RTVSPropertyOp50
 70
     1
102
RTVSPropertyOp51
 70
     0
102
RTVSPropertyOp52
 70
     0
102
RTVSPropertyOp53
 70
     1
102
RTVSPropertyOp54
 70
     1
102
RTVSPropertyOp55
 70
     1
102
RTVSPropertyOp56
 70
     1
102
RTVSPropertyOp57
 70
     1
102
RTVSPropertyOp58
 70
     1
102
RTVSPropertyOp59
 70
     1
102
RTVSPropertyOp60
 70
     1
102
RTVSPropertyOp61
 70
     1
102
RTVSPropertyOp62
 70
     1
  0
XRECORD
  5
432E
102
{ACAD_REACTORS
330
432D
102
}
330
432D
100
AcDbXrecord
280
     1
102
RTVSPost2010Prop28
280
     0
102
RTVSPost2010PropOp28
 70
     1
102
RTVSPost2010Prop29
280
     1
102
RTVSPost2010PropOp29
 70
     1
102
RTVSPost2010Prop30
280
     1
102
RTVSPost2010PropOp30
 70
     1
102
RTVSPost2010Prop31
280
     0
102
RTVSPost2010PropOp31
 70
     1
102
RTVSPost2010Prop32
280
     0
102
RTVSPost2010PropOp32
 70
     1
102
RTVSPost2010Prop33
280
     0
102
RTVSPost2010PropOp33
 70
     1
102
RTVSPost2010Prop34
280
     0
102
RTVSPost2010PropOp34
 70
     1
102
RTVSPost2010Prop35
280
     0
102
RTVSPost2010PropOp35
 70
     1
102
RTVSPost2010Prop36
280
     0
102
RTVSPost2010PropOp36
 70
     1
102
RTVSPost2010Prop37
 90
       50
102
RTVSPost2010PropOp37
 70
     1
102
RTVSPost2010Prop38
140
0.0
102
RTVSPost2010PropOp38
 70
     1
102
RTVSPost2010Prop39
140
1.0
102
RTVSPost2010PropOp39
 70
     1
102
RTVSPost2010Prop40
 90
        0
102
RTVSPost2010PropOp40
 70
     1
102
RTVSPost2010Prop41ColorIndex
 90
       18
102
RTVSPost2010Prop41ColorRGB
 90
        0
102
RTVSPost2010PropOp41
 70
     1
102
RTVSPost2010Prop42
 90
       50
102
RTVSPost2010PropOp42
 70
     1
102
RTVSPost2010Prop43
 90
        3
102
RTVSPost2010PropOp43
 70
     1
102
RTVSPost2010Prop44ColorIndex
 90
        5
102
RTVSPost2010Prop44ColorRGB
 90
      255
102
RTVSPost2010PropOp44
 70
     1
102
RTVSPost2010Prop45
280
     0
102
RTVSPost2010PropOp45
 70
     1
102
RTVSPost2010Prop46
 90
       50
102
RTVSPost2010PropOp46
 70
     1
102
RTVSPost2010Prop47
 90
       50
102
RTVSPost2010PropOp47
 70
     1
102
RTVSPost2010Prop48
 90
       50
102
RTVSPost2010PropOp48
 70
     1
102
RTVSPost2010Prop49
280
     0
102
RTVSPost2010PropOp49
 70
     1
102
RTVSPost2010Prop50
 90
       50
102
RTVSPost2010PropOp50
 70
     1
102
RTVSPost2010Prop51ColorIndex
 90
      256
102
RTVSPost2010Prop51ColorRGB
 90
-16777216
102
RTVSPost2010PropOp51
 70
     0
102
RTVSPost2010Prop52
140
1.0
102
RTVSPost2010PropOp52
 70
     0
102
RTVSPost2010Prop53
 90
        2
102
RTVSPost2010PropOp53
 70
     1
102
RTVSPost2010Prop54
  1
strokes_ogs.tif
102
RTVSPost2010PropOp54
 70
     1
102
RTVSPost2010Prop55
280
     0
102
RTVSPost2010PropOp55
 70
     1
102
RTVSPost2010Prop56
140
1.0
102
RTVSPost2010PropOp56
 70
     1
102
RTVSPost2010Prop57
140
1.0
102
RTVSPost2010PropOp57
 70
     1
102
RTVSPropertyOp0
 70
     1
102
RTVSPropertyOp1
 70
     1
102
RTVSPropertyOp2
 70
     1
102
RTVSPropertyOp3
 70
     1
102
RTVSPropertyOp4
 70
     1
102
RTVSPropertyOp5
 70
     1
102
RTVSPropertyOp6
 70
     1
102
RTVSPropertyOp7
 70
     1
102
RTVSPropertyOp8
 70
     1
102
RTVSPropertyOp9
 70
     1
102
RTVSPropertyOp10
 70
     1
102
RTVSPropertyOp11
 70
     1
102
RTVSPropertyOp12
 70
     1
102
RTVSPropertyOp13
 70
     1
102
RTVSPropertyOp14
 70
     1
102
RTVSPropertyOp15
 70
     1
102
RTVSPropertyOp16
 70
     1
102
RTVSPropertyOp17
 70
     1
102
RTVSPropertyOp18
 70
     1
102
RTVSPropertyOp19
 70
     1
102
RTVSPropertyOp20
 70
     1
102
RTVSPropertyOp21
 70
     1
102
RTVSPropertyOp22
 70
     1
102
RTVSPropertyOp23
 70
     1
102
RTVSPropertyOp24
 70
     1
102
RTVSPropertyOp25
 70
     1
102
RTVSPropertyOp26
 70
     1
102
RTVSPropertyOp27
 70
     1
102
RTVSPropertyOp28
 70
     1
102
RTVSPropertyOp29
 70
     1
102
RTVSPropertyOp30
 70
     1
102
RTVSPropertyOp31
 70
     1
102
RTVSPropertyOp32
 70
     1
102
RTVSPropertyOp33
 70
     1
102
RTVSPropertyOp34
 70
     1
102
RTVSPropertyOp35
 70
     1
102
RTVSPropertyOp36
 70
     1
102
RTVSPropertyOp37
 70
     1
102
RTVSPropertyOp38
 70
     1
102
RTVSPropertyOp39
 70
     1
102
RTVSPropertyOp40
 70
     1
102
RTVSPropertyOp41
 70
     1
102
RTVSPropertyOp42
 70
     1
102
RTVSPropertyOp43
 70
     1
102
RTVSPropertyOp44
 70
     1
102
RTVSPropertyOp45
 70
     1
102
RTVSPropertyOp46
 70
     1
102
RTVSPropertyOp47
 70
     1
102
RTVSPropertyOp48
 70
     1
102
RTVSPropertyOp49
 70
     1
102
RTVSPropertyOp50
 70
     1
102
RTVSPropertyOp51
 70
     0
102
RTVSPropertyOp52
 70
     0
102
RTVSPropertyOp53
 70
     1
102
RTVSPropertyOp54
 70
     1
102
RTVSPropertyOp55
 70
     1
102
RTVSPropertyOp56
 70
     1
102
RTVSPropertyOp57
 70
     1
102
RTVSPropertyOp58
 70
     1
102
RTVSPropertyOp59
 70
     1
102
RTVSPropertyOp60
 70
     1
102
RTVSPropertyOp61
 70
     1
102
RTVSPropertyOp62
 70
     1
  0
XRECORD
  5
4332
102
{ACAD_REACTORS
330
4331
102
}
330
4331
100
AcDbXrecord
280
     1
102
RTVSPost2010Prop28
280
     0
102
RTVSPost2010PropOp28
 70
     1
102
RTVSPost2010Prop29
280
     1
102
RTVSPost2010PropOp29
 70
     1
102
RTVSPost2010Prop30
280
     1
102
RTVSPost2010PropOp30
 70
     1
102
RTVSPost2010Prop31
280
     0
102
RTVSPost2010PropOp31
 70
     1
102
RTVSPost2010Prop32
280
     0
102
RTVSPost2010PropOp32
 70
     1
102
RTVSPost2010Prop33
280
     0
102
RTVSPost2010PropOp33
 70
     1
102
RTVSPost2010Prop34
280
     0
102
RTVSPost2010PropOp34
 70
     1
102
RTVSPost2010Prop35
280
     0
102
RTVSPost2010PropOp35
 70
     1
102
RTVSPost2010Prop36
280
     0
102
RTVSPost2010PropOp36
 70
     1
102
RTVSPost2010Prop37
 90
       50
102
RTVSPost2010PropOp37
 70
     1
102
RTVSPost2010Prop38
140
0.0
102
RTVSPost2010PropOp38
 70
     1
102
RTVSPost2010Prop39
140
1.0
102
RTVSPost2010PropOp39
 70
     1
102
RTVSPost2010Prop40
 90
        0
102
RTVSPost2010PropOp40
 70
     1
102
RTVSPost2010Prop41ColorIndex
 90
       18
102
RTVSPost2010Prop41ColorRGB
 90
        0
102
RTVSPost2010PropOp41
 70
     1
102
RTVSPost2010Prop42
 90
       50
102
RTVSPost2010PropOp42
 70
     1
102
RTVSPost2010Prop43
 90
        3
102
RTVSPost2010PropOp43
 70
     1
102
RTVSPost2010Prop44ColorIndex
 90
        5
102
RTVSPost2010Prop44ColorRGB
 90
      255
102
RTVSPost2010PropOp44
 70
     1
102
RTVSPost2010Prop45
280
     0
102
RTVSPost2010PropOp45
 70
     1
102
RTVSPost2010Prop46
 90
       50
102
RTVSPost2010PropOp46
 70
     1
102
RTVSPost2010Prop47
 90
       50
102
RTVSPost2010PropOp47
 70
     1
102
RTVSPost2010Prop48
 90
       50
102
RTVSPost2010PropOp48
 70
     1
102
RTVSPost2010Prop49
280
     0
102
RTVSPost2010PropOp49
 70
     1
102
RTVSPost2010Prop50
 90
       50
102
RTVSPost2010PropOp50
 70
     1
102
RTVSPost2010Prop51ColorIndex
 90
      256
102
RTVSPost2010Prop51ColorRGB
 90
-16777216
102
RTVSPost2010PropOp51
 70
     0
102
RTVSPost2010Prop52
140
1.0
102
RTVSPost2010PropOp52
 70
     0
102
RTVSPost2010Prop53
 90
        2
102
RTVSPost2010PropOp53
 70
     1
102
RTVSPost2010Prop54
  1
strokes_ogs.tif
102
RTVSPost2010PropOp54
 70
     1
102
RTVSPost2010Prop55
280
     0
102
RTVSPost2010PropOp55
 70
     1
102
RTVSPost2010Prop56
140
1.0
102
RTVSPost2010PropOp56
 70
     1
102
RTVSPost2010Prop57
140
1.0
102
RTVSPost2010PropOp57
 70
     1
102
RTVSPropertyOp0
 70
     1
102
RTVSPropertyOp1
 70
     1
102
RTVSPropertyOp2
 70
     1
102
RTVSPropertyOp3
 70
     1
102
RTVSPropertyOp4
 70
     1
102
RTVSPropertyOp5
 70
     1
102
RTVSPropertyOp6
 70
     1
102
RTVSPropertyOp7
 70
     1
102
RTVSPropertyOp8
 70
     1
102
RTVSPropertyOp9
 70
     1
102
RTVSPropertyOp10
 70
     1
102
RTVSPropertyOp11
 70
     1
102
RTVSPropertyOp12
 70
     1
102
RTVSPropertyOp13
 70
     1
102
RTVSPropertyOp14
 70
     1
102
RTVSPropertyOp15
 70
     1
102
RTVSPropertyOp16
 70
     1
102
RTVSPropertyOp17
 70
     1
102
RTVSPropertyOp18
 70
     1
102
RTVSPropertyOp19
 70
     1
102
RTVSPropertyOp20
 70
     1
102
RTVSPropertyOp21
 70
     1
102
RTVSPropertyOp22
 70
     1
102
RTVSPropertyOp23
 70
     1
102
RTVSPropertyOp24
 70
     1
102
RTVSPropertyOp25
 70
     1
102
RTVSPropertyOp26
 70
     1
102
RTVSPropertyOp27
 70
     1
102
RTVSPropertyOp28
 70
     1
102
RTVSPropertyOp29
 70
     1
102
RTVSPropertyOp30
 70
     1
102
RTVSPropertyOp31
 70
     1
102
RTVSPropertyOp32
 70
     1
102
RTVSPropertyOp33
 70
     1
102
RTVSPropertyOp34
 70
     1
102
RTVSPropertyOp35
 70
     1
102
RTVSPropertyOp36
 70
     1
102
RTVSPropertyOp37
 70
     1
102
RTVSPropertyOp38
 70
     1
102
RTVSPropertyOp39
 70
     1
102
RTVSPropertyOp40
 70
     1
102
RTVSPropertyOp41
 70
     1
102
RTVSPropertyOp42
 70
     1
102
RTVSPropertyOp43
 70
     1
102
RTVSPropertyOp44
 70
     1
102
RTVSPropertyOp45
 70
     1
102
RTVSPropertyOp46
 70
     1
102
RTVSPropertyOp47
 70
     1
102
RTVSPropertyOp48
 70
     1
102
RTVSPropertyOp49
 70
     1
102
RTVSPropertyOp50
 70
     1
102
RTVSPropertyOp51
 70
     0
102
RTVSPropertyOp52
 70
     0
102
RTVSPropertyOp53
 70
     1
102
RTVSPropertyOp54
 70
     1
102
RTVSPropertyOp55
 70
     1
102
RTVSPropertyOp56
 70
     1
102
RTVSPropertyOp57
 70
     1
102
RTVSPropertyOp58
 70
     1
102
RTVSPropertyOp59
 70
     1
102
RTVSPropertyOp60
 70
     1
102
RTVSPropertyOp61
 70
     1
102
RTVSPropertyOp62
 70
     1
  0
XRECORD
  5
434C
102
{ACAD_REACTORS
330
434B
102
}
330
434B
100
AcDbXrecord
280
     1
102
RTVSPost2010Prop28
280
     0
102
RTVSPost2010PropOp28
 70
     1
102
RTVSPost2010Prop29
280
     1
102
RTVSPost2010PropOp29
 70
     1
102
RTVSPost2010Prop30
280
     1
102
RTVSPost2010PropOp30
 70
     1
102
RTVSPost2010Prop31
280
     0
102
RTVSPost2010PropOp31
 70
     1
102
RTVSPost2010Prop32
280
     0
102
RTVSPost2010PropOp32
 70
     1
102
RTVSPost2010Prop33
280
     0
102
RTVSPost2010PropOp33
 70
     1
102
RTVSPost2010Prop34
280
     0
102
RTVSPost2010PropOp34
 70
     1
102
RTVSPost2010Prop35
280
     0
102
RTVSPost2010PropOp35
 70
     1
102
RTVSPost2010Prop36
280
     0
102
RTVSPost2010PropOp36
 70
     1
102
RTVSPost2010Prop37
 90
       50
102
RTVSPost2010PropOp37
 70
     0
102
RTVSPost2010Prop38
140
0.0
102
RTVSPost2010PropOp38
 70
     0
102
RTVSPost2010Prop39
140
1.0
102
RTVSPost2010PropOp39
 70
     0
102
RTVSPost2010Prop40
 90
        0
102
RTVSPost2010PropOp40
 70
     0
102
RTVSPost2010Prop41ColorIndex
 90
       18
102
RTVSPost2010Prop41ColorRGB
 90
        0
102
RTVSPost2010PropOp41
 70
     0
102
RTVSPost2010Prop42
 90
       50
102
RTVSPost2010PropOp42
 70
     0
102
RTVSPost2010Prop43
 90
        3
102
RTVSPost2010PropOp43
 70
     0
102
RTVSPost2010Prop44ColorIndex
 90
        5
102
RTVSPost2010Prop44ColorRGB
 90
      255
102
RTVSPost2010PropOp44
 70
     0
102
RTVSPost2010Prop45
280
     0
102
RTVSPost2010PropOp45
 70
     1
102
RTVSPost2010Prop46
 90
       50
102
RTVSPost2010PropOp46
 70
     0
102
RTVSPost2010Prop47
 90
       50
102
RTVSPost2010PropOp47
 70
     0
102
RTVSPost2010Prop48
 90
       50
102
RTVSPost2010PropOp48
 70
     0
102
RTVSPost2010Prop49
280
     0
102
RTVSPost2010PropOp49
 70
     1
102
RTVSPost2010Prop50
 90
       50
102
RTVSPost2010PropOp50
 70
     0
102
RTVSPost2010Prop51ColorIndex
 90
      256
102
RTVSPost2010Prop51ColorRGB
 90
-16777216
102
RTVSPost2010PropOp51
 70
     0
102
RTVSPost2010Prop52
140
1.0
102
RTVSPost2010PropOp52
 70
     0
102
RTVSPost2010Prop53
 90
        2
102
RTVSPost2010PropOp53
 70
     0
102
RTVSPost2010Prop54
  1
strokes_ogs.tif
102
RTVSPost2010PropOp54
 70
     0
102
RTVSPost2010Prop55
280
     0
102
RTVSPost2010PropOp55
 70
     1
102
RTVSPost2010Prop56
140
1.0
102
RTVSPost2010PropOp56
 70
     0
102
RTVSPost2010Prop57
140
1.0
102
RTVSPost2010PropOp57
 70
     0
102
RTVSPropertyOp0
 70
     0
102
RTVSPropertyOp1
 70
     0
102
RTVSPropertyOp2
 70
     0
102
RTVSPropertyOp3
 70
     0
102
RTVSPropertyOp4
 70
     0
102
RTVSPropertyOp5
 70
     0
102
RTVSPropertyOp6
 70
     0
102
RTVSPropertyOp7
 70
     0
102
RTVSPropertyOp8
 70
     0
102
RTVSPropertyOp9
 70
     0
102
RTVSPropertyOp10
 70
     0
102
RTVSPropertyOp11
 70
     0
102
RTVSPropertyOp12
 70
     0
102
RTVSPropertyOp13
 70
     0
102
RTVSPropertyOp14
 70
     2
102
RTVSPropertyOp15
 70
     0
102
RTVSPropertyOp16
 70
     0
102
RTVSPropertyOp17
 70
     0
102
RTVSPropertyOp18
 70
     0
102
RTVSPropertyOp19
 70
     0
102
RTVSPropertyOp20
 70
     0
102
RTVSPropertyOp21
 70
     0
102
RTVSPropertyOp22
 70
     0
102
RTVSPropertyOp23
 70
     0
102
RTVSPropertyOp24
 70
     0
102
RTVSPropertyOp25
 70
     0
102
RTVSPropertyOp26
 70
     0
102
RTVSPropertyOp27
 70
     0
102
RTVSPropertyOp28
 70
     1
102
RTVSPropertyOp29
 70
     1
102
RTVSPropertyOp30
 70
     1
102
RTVSPropertyOp31
 70
     1
102
RTVSPropertyOp32
 70
     1
102
RTVSPropertyOp33
 70
     1
102
RTVSPropertyOp34
 70
     1
102
RTVSPropertyOp35
 70
     1
102
RTVSPropertyOp36
 70
     1
102
RTVSPropertyOp37
 70
     0
102
RTVSPropertyOp38
 70
     0
102
RTVSPropertyOp39
 70
     0
102
RTVSPropertyOp40
 70
     0
102
RTVSPropertyOp41
 70
     0
102
RTVSPropertyOp42
 70
     0
102
RTVSPropertyOp43
 70
     0
102
RTVSPropertyOp44
 70
     0
102
RTVSPropertyOp45
 70
     1
102
RTVSPropertyOp46
 70
     0
102
RTVSPropertyOp47
 70
     0
102
RTVSPropertyOp48
 70
     0
102
RTVSPropertyOp49
 70
     1
102
RTVSPropertyOp50
 70
     0
102
RTVSPropertyOp51
 70
     0
102
RTVSPropertyOp52
 70
     0
102
RTVSPropertyOp53
 70
     0
102
RTVSPropertyOp54
 70
     0
102
RTVSPropertyOp55
 70
     1
102
RTVSPropertyOp56
 70
     0
102
RTVSPropertyOp57
 70
     0
102
RTVSPropertyOp58
 70
     0
102
RTVSPropertyOp59
 70
     0
102
RTVSPropertyOp60
 70
     0
102
RTVSPropertyOp61
 70
     0
102
RTVSPropertyOp62
 70
     0
  0
XRECORD
  5
433A
102
{ACAD_REACTORS
330
4339
102
}
330
4339
100
AcDbXrecord
280
     1
102
RTVSPost2010Prop28
280
     0
102
RTVSPost2010PropOp28
 70
     1
102
RTVSPost2010Prop29
280
     1
102
RTVSPost2010PropOp29
 70
     1
102
RTVSPost2010Prop30
280
     1
102
RTVSPost2010PropOp30
 70
     1
102
RTVSPost2010Prop31
280
     0
102
RTVSPost2010PropOp31
 70
     1
102
RTVSPost2010Prop32
280
     0
102
RTVSPost2010PropOp32
 70
     1
102
RTVSPost2010Prop33
280
     0
102
RTVSPost2010PropOp33
 70
     1
102
RTVSPost2010Prop34
280
     0
102
RTVSPost2010PropOp34
 70
     1
102
RTVSPost2010Prop35
280
     0
102
RTVSPost2010PropOp35
 70
     1
102
RTVSPost2010Prop36
280
     0
102
RTVSPost2010PropOp36
 70
     1
102
RTVSPost2010Prop37
 90
       50
102
RTVSPost2010PropOp37
 70
     1
102
RTVSPost2010Prop38
140
0.0
102
RTVSPost2010PropOp38
 70
     1
102
RTVSPost2010Prop39
140
1.0
102
RTVSPost2010PropOp39
 70
     1
102
RTVSPost2010Prop40
 90
        0
102
RTVSPost2010PropOp40
 70
     1
102
RTVSPost2010Prop41ColorIndex
 90
       18
102
RTVSPost2010Prop41ColorRGB
 90
        0
102
RTVSPost2010PropOp41
 70
     1
102
RTVSPost2010Prop42
 90
       50
102
RTVSPost2010PropOp42
 70
     1
102
RTVSPost2010Prop43
 90
        3
102
RTVSPost2010PropOp43
 70
     1
102
RTVSPost2010Prop44ColorIndex
 90
        5
102
RTVSPost2010Prop44ColorRGB
 90
      255
102
RTVSPost2010PropOp44
 70
     1
102
RTVSPost2010Prop45
280
     0
102
RTVSPost2010PropOp45
 70
     1
102
RTVSPost2010Prop46
 90
       50
102
RTVSPost2010PropOp46
 70
     1
102
RTVSPost2010Prop47
 90
       50
102
RTVSPost2010PropOp47
 70
     1
102
RTVSPost2010Prop48
 90
       50
102
RTVSPost2010PropOp48
 70
     1
102
RTVSPost2010Prop49
280
     0
102
RTVSPost2010PropOp49
 70
     1
102
RTVSPost2010Prop50
 90
       50
102
RTVSPost2010PropOp50
 70
     1
102
RTVSPost2010Prop51ColorIndex
 90
      256
102
RTVSPost2010Prop51ColorRGB
 90
-16777216
102
RTVSPost2010PropOp51
 70
     0
102
RTVSPost2010Prop52
140
1.0
102
RTVSPost2010PropOp52
 70
     0
102
RTVSPost2010Prop53
 90
        2
102
RTVSPost2010PropOp53
 70
     1
102
RTVSPost2010Prop54
  1
strokes_ogs.tif
102
RTVSPost2010PropOp54
 70
     1
102
RTVSPost2010Prop55
280
     0
102
RTVSPost2010PropOp55
 70
     1
102
RTVSPost2010Prop56
140
1.0
102
RTVSPost2010PropOp56
 70
     1
102
RTVSPost2010Prop57
140
1.0
102
RTVSPost2010PropOp57
 70
     1
102
RTVSPropertyOp0
 70
     1
102
RTVSPropertyOp1
 70
     1
102
RTVSPropertyOp2
 70
     1
102
RTVSPropertyOp3
 70
     1
102
RTVSPropertyOp4
 70
     1
102
RTVSPropertyOp5
 70
     1
102
RTVSPropertyOp6
 70
     1
102
RTVSPropertyOp7
 70
     1
102
RTVSPropertyOp8
 70
     1
102
RTVSPropertyOp9
 70
     1
102
RTVSPropertyOp10
 70
     1
102
RTVSPropertyOp11
 70
     1
102
RTVSPropertyOp12
 70
     1
102
RTVSPropertyOp13
 70
     1
102
RTVSPropertyOp14
 70
     1
102
RTVSPropertyOp15
 70
     1
102
RTVSPropertyOp16
 70
     1
102
RTVSPropertyOp17
 70
     1
102
RTVSPropertyOp18
 70
     1
102
RTVSPropertyOp19
 70
     1
102
RTVSPropertyOp20
 70
     1
102
RTVSPropertyOp21
 70
     1
102
RTVSPropertyOp22
 70
     1
102
RTVSPropertyOp23
 70
     1
102
RTVSPropertyOp24
 70
     1
102
RTVSPropertyOp25
 70
     1
102
RTVSPropertyOp26
 70
     1
102
RTVSPropertyOp27
 70
     1
102
RTVSPropertyOp28
 70
     1
102
RTVSPropertyOp29
 70
     1
102
RTVSPropertyOp30
 70
     1
102
RTVSPropertyOp31
 70
     1
102
RTVSPropertyOp32
 70
     1
102
RTVSPropertyOp33
 70
     1
102
RTVSPropertyOp34
 70
     1
102
RTVSPropertyOp35
 70
     1
102
RTVSPropertyOp36
 70
     1
102
RTVSPropertyOp37
 70
     1
102
RTVSPropertyOp38
 70
     1
102
RTVSPropertyOp39
 70
     1
102
RTVSPropertyOp40
 70
     1
102
RTVSPropertyOp41
 70
     1
102
RTVSPropertyOp42
 70
     1
102
RTVSPropertyOp43
 70
     1
102
RTVSPropertyOp44
 70
     1
102
RTVSPropertyOp45
 70
     1
102
RTVSPropertyOp46
 70
     1
102
RTVSPropertyOp47
 70
     1
102
RTVSPropertyOp48
 70
     1
102
RTVSPropertyOp49
 70
     1
102
RTVSPropertyOp50
 70
     1
102
RTVSPropertyOp51
 70
     0
102
RTVSPropertyOp52
 70
     0
102
RTVSPropertyOp53
 70
     1
102
RTVSPropertyOp54
 70
     1
102
RTVSPropertyOp55
 70
     1
102
RTVSPropertyOp56
 70
     1
102
RTVSPropertyOp57
 70
     1
102
RTVSPropertyOp58
 70
     1
102
RTVSPropertyOp59
 70
     1
102
RTVSPropertyOp60
 70
     1
102
RTVSPropertyOp61
 70
     1
102
RTVSPropertyOp62
 70
     1
  0
XRECORD
  5
431E
102
{ACAD_REACTORS
330
431D
102
}
330
431D
100
AcDbXrecord
280
     1
102
RTVSPost2010Prop28
280
     0
102
RTVSPost2010PropOp28
 70
     1
102
RTVSPost2010Prop29
280
     1
102
RTVSPost2010PropOp29
 70
     1
102
RTVSPost2010Prop30
280
     1
102
RTVSPost2010PropOp30
 70
     1
102
RTVSPost2010Prop31
280
     0
102
RTVSPost2010PropOp31
 70
     1
102
RTVSPost2010Prop32
280
     0
102
RTVSPost2010PropOp32
 70
     1
102
RTVSPost2010Prop33
280
     0
102
RTVSPost2010PropOp33
 70
     1
102
RTVSPost2010Prop34
280
     0
102
RTVSPost2010PropOp34
 70
     1
102
RTVSPost2010Prop35
280
     0
102
RTVSPost2010PropOp35
 70
     1
102
RTVSPost2010Prop36
280
     0
102
RTVSPost2010PropOp36
 70
     1
102
RTVSPost2010Prop37
 90
       50
102
RTVSPost2010PropOp37
 70
     1
102
RTVSPost2010Prop38
140
0.0
102
RTVSPost2010PropOp38
 70
     1
102
RTVSPost2010Prop39
140
1.0
102
RTVSPost2010PropOp39
 70
     1
102
RTVSPost2010Prop40
 90
        0
102
RTVSPost2010PropOp40
 70
     1
102
RTVSPost2010Prop41ColorIndex
 90
       18
102
RTVSPost2010Prop41ColorRGB
 90
        0
102
RTVSPost2010PropOp41
 70
     1
102
RTVSPost2010Prop42
 90
       50
102
RTVSPost2010PropOp42
 70
     1
102
RTVSPost2010Prop43
 90
        3
102
RTVSPost2010PropOp43
 70
     1
102
RTVSPost2010Prop44ColorIndex
 90
        5
102
RTVSPost2010Prop44ColorRGB
 90
      255
102
RTVSPost2010PropOp44
 70
     1
102
RTVSPost2010Prop45
280
     0
102
RTVSPost2010PropOp45
 70
     1
102
RTVSPost2010Prop46
 90
       50
102
RTVSPost2010PropOp46
 70
     1
102
RTVSPost2010Prop47
 90
       50
102
RTVSPost2010PropOp47
 70
     1
102
RTVSPost2010Prop48
 90
       50
102
RTVSPost2010PropOp48
 70
     1
102
RTVSPost2010Prop49
280
     0
102
RTVSPost2010PropOp49
 70
     1
102
RTVSPost2010Prop50
 90
       50
102
RTVSPost2010PropOp50
 70
     1
102
RTVSPost2010Prop51ColorIndex
 90
      256
102
RTVSPost2010Prop51ColorRGB
 90
-16777216
102
RTVSPost2010PropOp51
 70
     0
102
RTVSPost2010Prop52
140
1.0
102
RTVSPost2010PropOp52
 70
     0
102
RTVSPost2010Prop53
 90
        2
102
RTVSPost2010PropOp53
 70
     1
102
RTVSPost2010Prop54
  1
strokes_ogs.tif
102
RTVSPost2010PropOp54
 70
     1
102
RTVSPost2010Prop55
280
     0
102
RTVSPost2010PropOp55
 70
     1
102
RTVSPost2010Prop56
140
1.0
102
RTVSPost2010PropOp56
 70
     1
102
RTVSPost2010Prop57
140
1.0
102
RTVSPost2010PropOp57
 70
     1
102
RTVSPropertyOp0
 70
     1
102
RTVSPropertyOp1
 70
     1
102
RTVSPropertyOp2
 70
     1
102
RTVSPropertyOp3
 70
     1
102
RTVSPropertyOp4
 70
     1
102
RTVSPropertyOp5
 70
     1
102
RTVSPropertyOp6
 70
     1
102
RTVSPropertyOp7
 70
     1
102
RTVSPropertyOp8
 70
     1
102
RTVSPropertyOp9
 70
     1
102
RTVSPropertyOp10
 70
     1
102
RTVSPropertyOp11
 70
     1
102
RTVSPropertyOp12
 70
     1
102
RTVSPropertyOp13
 70
     1
102
RTVSPropertyOp14
 70
     1
102
RTVSPropertyOp15
 70
     1
102
RTVSPropertyOp16
 70
     1
102
RTVSPropertyOp17
 70
     1
102
RTVSPropertyOp18
 70
     1
102
RTVSPropertyOp19
 70
     1
102
RTVSPropertyOp20
 70
     1
102
RTVSPropertyOp21
 70
     1
102
RTVSPropertyOp22
 70
     1
102
RTVSPropertyOp23
 70
     1
102
RTVSPropertyOp24
 70
     1
102
RTVSPropertyOp25
 70
     1
102
RTVSPropertyOp26
 70
     1
102
RTVSPropertyOp27
 70
     1
102
RTVSPropertyOp28
 70
     1
102
RTVSPropertyOp29
 70
     1
102
RTVSPropertyOp30
 70
     1
102
RTVSPropertyOp31
 70
     1
102
RTVSPropertyOp32
 70
     1
102
RTVSPropertyOp33
 70
     1
102
RTVSPropertyOp34
 70
     1
102
RTVSPropertyOp35
 70
     1
102
RTVSPropertyOp36
 70
     1
102
RTVSPropertyOp37
 70
     1
102
RTVSPropertyOp38
 70
     1
102
RTVSPropertyOp39
 70
     1
102
RTVSPropertyOp40
 70
     1
102
RTVSPropertyOp41
 70
     1
102
RTVSPropertyOp42
 70
     1
102
RTVSPropertyOp43
 70
     1
102
RTVSPropertyOp44
 70
     1
102
RTVSPropertyOp45
 70
     1
102
RTVSPropertyOp46
 70
     1
102
RTVSPropertyOp47
 70
     1
102
RTVSPropertyOp48
 70
     1
102
RTVSPropertyOp49
 70
     1
102
RTVSPropertyOp50
 70
     1
102
RTVSPropertyOp51
 70
     0
102
RTVSPropertyOp52
 70
     0
102
RTVSPropertyOp53
 70
     1
102
RTVSPropertyOp54
 70
     1
102
RTVSPropertyOp55
 70
     1
102
RTVSPropertyOp56
 70
     1
102
RTVSPropertyOp57
 70
     1
102
RTVSPropertyOp58
 70
     1
102
RTVSPropertyOp59
 70
     1
102
RTVSPropertyOp60
 70
     1
102
RTVSPropertyOp61
 70
     1
102
RTVSPropertyOp62
 70
     1
  0
XRECORD
  5
4320
102
{ACAD_REACTORS
330
431F
102
}
330
431F
100
AcDbXrecord
280
     1
102
RTVSPost2010Prop28
280
     0
102
RTVSPost2010PropOp28
 70
     1
102
RTVSPost2010Prop29
280
     1
102
RTVSPost2010PropOp29
 70
     1
102
RTVSPost2010Prop30
280
     1
102
RTVSPost2010PropOp30
 70
     1
102
RTVSPost2010Prop31
280
     0
102
RTVSPost2010PropOp31
 70
     1
102
RTVSPost2010Prop32
280
     0
102
RTVSPost2010PropOp32
 70
     1
102
RTVSPost2010Prop33
280
     0
102
RTVSPost2010PropOp33
 70
     1
102
RTVSPost2010Prop34
280
     0
102
RTVSPost2010PropOp34
 70
     1
102
RTVSPost2010Prop35
280
     0
102
RTVSPost2010PropOp35
 70
     1
102
RTVSPost2010Prop36
280
     0
102
RTVSPost2010PropOp36
 70
     1
102
RTVSPost2010Prop37
 90
       50
102
RTVSPost2010PropOp37
 70
     1
102
RTVSPost2010Prop38
140
0.0
102
RTVSPost2010PropOp38
 70
     1
102
RTVSPost2010Prop39
140
1.0
102
RTVSPost2010PropOp39
 70
     1
102
RTVSPost2010Prop40
 90
        0
102
RTVSPost2010PropOp40
 70
     1
102
RTVSPost2010Prop41ColorIndex
 90
       18
102
RTVSPost2010Prop41ColorRGB
 90
        0
102
RTVSPost2010PropOp41
 70
     1
102
RTVSPost2010Prop42
 90
       50
102
RTVSPost2010PropOp42
 70
     1
102
RTVSPost2010Prop43
 90
        3
102
RTVSPost2010PropOp43
 70
     1
102
RTVSPost2010Prop44ColorIndex
 90
        5
102
RTVSPost2010Prop44ColorRGB
 90
      255
102
RTVSPost2010PropOp44
 70
     1
102
RTVSPost2010Prop45
280
     0
102
RTVSPost2010PropOp45
 70
     1
102
RTVSPost2010Prop46
 90
       50
102
RTVSPost2010PropOp46
 70
     1
102
RTVSPost2010Prop47
 90
       50
102
RTVSPost2010PropOp47
 70
     1
102
RTVSPost2010Prop48
 90
       50
102
RTVSPost2010PropOp48
 70
     1
102
RTVSPost2010Prop49
280
     0
102
RTVSPost2010PropOp49
 70
     1
102
RTVSPost2010Prop50
 90
       50
102
RTVSPost2010PropOp50
 70
     1
102
RTVSPost2010Prop51ColorIndex
 90
      256
102
RTVSPost2010Prop51ColorRGB
 90
-16777216
102
RTVSPost2010PropOp51
 70
     0
102
RTVSPost2010Prop52
140
1.0
102
RTVSPost2010PropOp52
 70
     0
102
RTVSPost2010Prop53
 90
        2
102
RTVSPost2010PropOp53
 70
     1
102
RTVSPost2010Prop54
  1
strokes_ogs.tif
102
RTVSPost2010PropOp54
 70
     1
102
RTVSPost2010Prop55
280
     0
102
RTVSPost2010PropOp55
 70
     1
102
RTVSPost2010Prop56
140
1.0
102
RTVSPost2010PropOp56
 70
     1
102
RTVSPost2010Prop57
140
1.0
102
RTVSPost2010PropOp57
 70
     1
102
RTVSPropertyOp0
 70
     1
102
RTVSPropertyOp1
 70
     1
102
RTVSPropertyOp2
 70
     1
102
RTVSPropertyOp3
 70
     1
102
RTVSPropertyOp4
 70
     1
102
RTVSPropertyOp5
 70
     1
102
RTVSPropertyOp6
 70
     1
102
RTVSPropertyOp7
 70
     1
102
RTVSPropertyOp8
 70
     1
102
RTVSPropertyOp9
 70
     1
102
RTVSPropertyOp10
 70
     1
102
RTVSPropertyOp11
 70
     1
102
RTVSPropertyOp12
 70
     1
102
RTVSPropertyOp13
 70
     1
102
RTVSPropertyOp14
 70
     1
102
RTVSPropertyOp15
 70
     1
102
RTVSPropertyOp16
 70
     1
102
RTVSPropertyOp17
 70
     1
102
RTVSPropertyOp18
 70
     1
102
RTVSPropertyOp19
 70
     1
102
RTVSPropertyOp20
 70
     1
102
RTVSPropertyOp21
 70
     1
102
RTVSPropertyOp22
 70
     1
102
RTVSPropertyOp23
 70
     1
102
RTVSPropertyOp24
 70
     1
102
RTVSPropertyOp25
 70
     1
102
RTVSPropertyOp26
 70
     1
102
RTVSPropertyOp27
 70
     1
102
RTVSPropertyOp28
 70
     1
102
RTVSPropertyOp29
 70
     1
102
RTVSPropertyOp30
 70
     1
102
RTVSPropertyOp31
 70
     1
102
RTVSPropertyOp32
 70
     1
102
RTVSPropertyOp33
 70
     1
102
RTVSPropertyOp34
 70
     1
102
RTVSPropertyOp35
 70
     1
102
RTVSPropertyOp36
 70
     1
102
RTVSPropertyOp37
 70
     1
102
RTVSPropertyOp38
 70
     1
102
RTVSPropertyOp39
 70
     1
102
RTVSPropertyOp40
 70
     1
102
RTVSPropertyOp41
 70
     1
102
RTVSPropertyOp42
 70
     1
102
RTVSPropertyOp43
 70
     1
102
RTVSPropertyOp44
 70
     1
102
RTVSPropertyOp45
 70
     1
102
RTVSPropertyOp46
 70
     1
102
RTVSPropertyOp47
 70
     1
102
RTVSPropertyOp48
 70
     1
102
RTVSPropertyOp49
 70
     1
102
RTVSPropertyOp50
 70
     1
102
RTVSPropertyOp51
 70
     0
102
RTVSPropertyOp52
 70
     0
102
RTVSPropertyOp53
 70
     1
102
RTVSPropertyOp54
 70
     1
102
RTVSPropertyOp55
 70
     1
102
RTVSPropertyOp56
 70
     1
102
RTVSPropertyOp57
 70
     1
102
RTVSPropertyOp58
 70
     1
102
RTVSPropertyOp59
 70
     1
102
RTVSPropertyOp60
 70
     1
102
RTVSPropertyOp61
 70
     1
102
RTVSPropertyOp62
 70
     1
  0
XRECORD
  5
4322
102
{ACAD_REACTORS
330
4321
102
}
330
4321
100
AcDbXrecord
280
     1
102
RTVSPost2010Prop28
280
     0
102
RTVSPost2010PropOp28
 70
     1
102
RTVSPost2010Prop29
280
     1
102
RTVSPost2010PropOp29
 70
     1
102
RTVSPost2010Prop30
280
     1
102
RTVSPost2010PropOp30
 70
     1
102
RTVSPost2010Prop31
280
     0
102
RTVSPost2010PropOp31
 70
     1
102
RTVSPost2010Prop32
280
     0
102
RTVSPost2010PropOp32
 70
     1
102
RTVSPost2010Prop33
280
     0
102
RTVSPost2010PropOp33
 70
     1
102
RTVSPost2010Prop34
280
     0
102
RTVSPost2010PropOp34
 70
     1
102
RTVSPost2010Prop35
280
     0
102
RTVSPost2010PropOp35
 70
     1
102
RTVSPost2010Prop36
280
     0
102
RTVSPost2010PropOp36
 70
     1
102
RTVSPost2010Prop37
 90
       50
102
RTVSPost2010PropOp37
 70
     1
102
RTVSPost2010Prop38
140
0.0
102
RTVSPost2010PropOp38
 70
     1
102
RTVSPost2010Prop39
140
1.0
102
RTVSPost2010PropOp39
 70
     1
102
RTVSPost2010Prop40
 90
        0
102
RTVSPost2010PropOp40
 70
     1
102
RTVSPost2010Prop41ColorIndex
 90
       18
102
RTVSPost2010Prop41ColorRGB
 90
        0
102
RTVSPost2010PropOp41
 70
     1
102
RTVSPost2010Prop42
 90
       50
102
RTVSPost2010PropOp42
 70
     1
102
RTVSPost2010Prop43
 90
        3
102
RTVSPost2010PropOp43
 70
     1
102
RTVSPost2010Prop44ColorIndex
 90
        5
102
RTVSPost2010Prop44ColorRGB
 90
      255
102
RTVSPost2010PropOp44
 70
     1
102
RTVSPost2010Prop45
280
     0
102
RTVSPost2010PropOp45
 70
     1
102
RTVSPost2010Prop46
 90
       50
102
RTVSPost2010PropOp46
 70
     1
102
RTVSPost2010Prop47
 90
       50
102
RTVSPost2010PropOp47
 70
     1
102
RTVSPost2010Prop48
 90
       50
102
RTVSPost2010PropOp48
 70
     1
102
RTVSPost2010Prop49
280
     0
102
RTVSPost2010PropOp49
 70
     1
102
RTVSPost2010Prop50
 90
       50
102
RTVSPost2010PropOp50
 70
     1
102
RTVSPost2010Prop51ColorIndex
 90
      256
102
RTVSPost2010Prop51ColorRGB
 90
-16777216
102
RTVSPost2010PropOp51
 70
     0
102
RTVSPost2010Prop52
140
1.0
102
RTVSPost2010PropOp52
 70
     0
102
RTVSPost2010Prop53
 90
        2
102
RTVSPost2010PropOp53
 70
     1
102
RTVSPost2010Prop54
  1
strokes_ogs.tif
102
RTVSPost2010PropOp54
 70
     1
102
RTVSPost2010Prop55
280
     0
102
RTVSPost2010PropOp55
 70
     1
102
RTVSPost2010Prop56
140
1.0
102
RTVSPost2010PropOp56
 70
     1
102
RTVSPost2010Prop57
140
1.0
102
RTVSPost2010PropOp57
 70
     1
102
RTVSPropertyOp0
 70
     1
102
RTVSPropertyOp1
 70
     1
102
RTVSPropertyOp2
 70
     1
102
RTVSPropertyOp3
 70
     1
102
RTVSPropertyOp4
 70
     1
102
RTVSPropertyOp5
 70
     1
102
RTVSPropertyOp6
 70
     1
102
RTVSPropertyOp7
 70
     1
102
RTVSPropertyOp8
 70
     1
102
RTVSPropertyOp9
 70
     1
102
RTVSPropertyOp10
 70
     1
102
RTVSPropertyOp11
 70
     1
102
RTVSPropertyOp12
 70
     1
102
RTVSPropertyOp13
 70
     1
102
RTVSPropertyOp14
 70
     1
102
RTVSPropertyOp15
 70
     1
102
RTVSPropertyOp16
 70
     1
102
RTVSPropertyOp17
 70
     1
102
RTVSPropertyOp18
 70
     1
102
RTVSPropertyOp19
 70
     1
102
RTVSPropertyOp20
 70
     1
102
RTVSPropertyOp21
 70
     1
102
RTVSPropertyOp22
 70
     1
102
RTVSPropertyOp23
 70
     1
102
RTVSPropertyOp24
 70
     1
102
RTVSPropertyOp25
 70
     1
102
RTVSPropertyOp26
 70
     1
102
RTVSPropertyOp27
 70
     1
102
RTVSPropertyOp28
 70
     1
102
RTVSPropertyOp29
 70
     1
102
RTVSPropertyOp30
 70
     1
102
RTVSPropertyOp31
 70
     1
102
RTVSPropertyOp32
 70
     1
102
RTVSPropertyOp33
 70
     1
102
RTVSPropertyOp34
 70
     1
102
RTVSPropertyOp35
 70
     1
102
RTVSPropertyOp36
 70
     1
102
RTVSPropertyOp37
 70
     1
102
RTVSPropertyOp38
 70
     1
102
RTVSPropertyOp39
 70
     1
102
RTVSPropertyOp40
 70
     1
102
RTVSPropertyOp41
 70
     1
102
RTVSPropertyOp42
 70
     1
102
RTVSPropertyOp43
 70
     1
102
RTVSPropertyOp44
 70
     1
102
RTVSPropertyOp45
 70
     1
102
RTVSPropertyOp46
 70
     1
102
RTVSPropertyOp47
 70
     1
102
RTVSPropertyOp48
 70
     1
102
RTVSPropertyOp49
 70
     1
102
RTVSPropertyOp50
 70
     1
102
RTVSPropertyOp51
 70
     0
102
RTVSPropertyOp52
 70
     0
102
RTVSPropertyOp53
 70
     1
102
RTVSPropertyOp54
 70
     1
102
RTVSPropertyOp55
 70
     1
102
RTVSPropertyOp56
 70
     1
102
RTVSPropertyOp57
 70
     1
102
RTVSPropertyOp58
 70
     1
102
RTVSPropertyOp59
 70
     1
102
RTVSPropertyOp60
 70
     1
102
RTVSPropertyOp61
 70
     1
102
RTVSPropertyOp62
 70
     1
  0
XRECORD
  5
4324
102
{ACAD_REACTORS
330
4323
102
}
330
4323
100
AcDbXrecord
280
     1
102
RTVSPost2010Prop28
280
     0
102
RTVSPost2010PropOp28
 70
     1
102
RTVSPost2010Prop29
280
     1
102
RTVSPost2010PropOp29
 70
     1
102
RTVSPost2010Prop30
280
     1
102
RTVSPost2010PropOp30
 70
     1
102
RTVSPost2010Prop31
280
     0
102
RTVSPost2010PropOp31
 70
     1
102
RTVSPost2010Prop32
280
     0
102
RTVSPost2010PropOp32
 70
     1
102
RTVSPost2010Prop33
280
     0
102
RTVSPost2010PropOp33
 70
     1
102
RTVSPost2010Prop34
280
     0
102
RTVSPost2010PropOp34
 70
     1
102
RTVSPost2010Prop35
280
     0
102
RTVSPost2010PropOp35
 70
     1
102
RTVSPost2010Prop36
280
     0
102
RTVSPost2010PropOp36
 70
     1
102
RTVSPost2010Prop37
 90
       50
102
RTVSPost2010PropOp37
 70
     1
102
RTVSPost2010Prop38
140
0.0
102
RTVSPost2010PropOp38
 70
     1
102
RTVSPost2010Prop39
140
1.0
102
RTVSPost2010PropOp39
 70
     1
102
RTVSPost2010Prop40
 90
        0
102
RTVSPost2010PropOp40
 70
     1
102
RTVSPost2010Prop41ColorIndex
 90
       18
102
RTVSPost2010Prop41ColorRGB
 90
        0
102
RTVSPost2010PropOp41
 70
     1
102
RTVSPost2010Prop42
 90
       50
102
RTVSPost2010PropOp42
 70
     1
102
RTVSPost2010Prop43
 90
        3
102
RTVSPost2010PropOp43
 70
     1
102
RTVSPost2010Prop44ColorIndex
 90
        5
102
RTVSPost2010Prop44ColorRGB
 90
      255
102
RTVSPost2010PropOp44
 70
     1
102
RTVSPost2010Prop45
280
     0
102
RTVSPost2010PropOp45
 70
     1
102
RTVSPost2010Prop46
 90
       50
102
RTVSPost2010PropOp46
 70
     1
102
RTVSPost2010Prop47
 90
       50
102
RTVSPost2010PropOp47
 70
     1
102
RTVSPost2010Prop48
 90
       50
102
RTVSPost2010PropOp48
 70
     1
102
RTVSPost2010Prop49
280
     0
102
RTVSPost2010PropOp49
 70
     1
102
RTVSPost2010Prop50
 90
       50
102
RTVSPost2010PropOp50
 70
     1
102
RTVSPost2010Prop51ColorIndex
 90
      256
102
RTVSPost2010Prop51ColorRGB
 90
-16777216
102
RTVSPost2010PropOp51
 70
     0
102
RTVSPost2010Prop52
140
1.0
102
RTVSPost2010PropOp52
 70
     0
102
RTVSPost2010Prop53
 90
        2
102
RTVSPost2010PropOp53
 70
     1
102
RTVSPost2010Prop54
  1
strokes_ogs.tif
102
RTVSPost2010PropOp54
 70
     1
102
RTVSPost2010Prop55
280
     0
102
RTVSPost2010PropOp55
 70
     1
102
RTVSPost2010Prop56
140
1.0
102
RTVSPost2010PropOp56
 70
     1
102
RTVSPost2010Prop57
140
1.0
102
RTVSPost2010PropOp57
 70
     1
102
RTVSPropertyOp0
 70
     1
102
RTVSPropertyOp1
 70
     1
102
RTVSPropertyOp2
 70
     1
102
RTVSPropertyOp3
 70
     1
102
RTVSPropertyOp4
 70
     1
102
RTVSPropertyOp5
 70
     1
102
RTVSPropertyOp6
 70
     1
102
RTVSPropertyOp7
 70
     1
102
RTVSPropertyOp8
 70
     1
102
RTVSPropertyOp9
 70
     1
102
RTVSPropertyOp10
 70
     1
102
RTVSPropertyOp11
 70
     1
102
RTVSPropertyOp12
 70
     1
102
RTVSPropertyOp13
 70
     1
102
RTVSPropertyOp14
 70
     1
102
RTVSPropertyOp15
 70
     1
102
RTVSPropertyOp16
 70
     1
102
RTVSPropertyOp17
 70
     1
102
RTVSPropertyOp18
 70
     1
102
RTVSPropertyOp19
 70
     1
102
RTVSPropertyOp20
 70
     1
102
RTVSPropertyOp21
 70
     1
102
RTVSPropertyOp22
 70
     1
102
RTVSPropertyOp23
 70
     1
102
RTVSPropertyOp24
 70
     1
102
RTVSPropertyOp25
 70
     1
102
RTVSPropertyOp26
 70
     1
102
RTVSPropertyOp27
 70
     1
102
RTVSPropertyOp28
 70
     1
102
RTVSPropertyOp29
 70
     1
102
RTVSPropertyOp30
 70
     1
102
RTVSPropertyOp31
 70
     1
102
RTVSPropertyOp32
 70
     1
102
RTVSPropertyOp33
 70
     1
102
RTVSPropertyOp34
 70
     1
102
RTVSPropertyOp35
 70
     1
102
RTVSPropertyOp36
 70
     1
102
RTVSPropertyOp37
 70
     1
102
RTVSPropertyOp38
 70
     1
102
RTVSPropertyOp39
 70
     1
102
RTVSPropertyOp40
 70
     1
102
RTVSPropertyOp41
 70
     1
102
RTVSPropertyOp42
 70
     1
102
RTVSPropertyOp43
 70
     1
102
RTVSPropertyOp44
 70
     1
102
RTVSPropertyOp45
 70
     1
102
RTVSPropertyOp46
 70
     1
102
RTVSPropertyOp47
 70
     1
102
RTVSPropertyOp48
 70
     1
102
RTVSPropertyOp49
 70
     1
102
RTVSPropertyOp50
 70
     1
102
RTVSPropertyOp51
 70
     0
102
RTVSPropertyOp52
 70
     0
102
RTVSPropertyOp53
 70
     1
102
RTVSPropertyOp54
 70
     1
102
RTVSPropertyOp55
 70
     1
102
RTVSPropertyOp56
 70
     1
102
RTVSPropertyOp57
 70
     1
102
RTVSPropertyOp58
 70
     1
102
RTVSPropertyOp59
 70
     1
102
RTVSPropertyOp60
 70
     1
102
RTVSPropertyOp61
 70
     1
102
RTVSPropertyOp62
 70
     1
  0
XRECORD
  5
432C
102
{ACAD_REACTORS
330
432B
102
}
330
432B
100
AcDbXrecord
280
     1
102
RTVSPost2010Prop28
280
     0
102
RTVSPost2010PropOp28
 70
     1
102
RTVSPost2010Prop29
280
     1
102
RTVSPost2010PropOp29
 70
     1
102
RTVSPost2010Prop30
280
     1
102
RTVSPost2010PropOp30
 70
     1
102
RTVSPost2010Prop31
280
     0
102
RTVSPost2010PropOp31
 70
     1
102
RTVSPost2010Prop32
280
     0
102
RTVSPost2010PropOp32
 70
     1
102
RTVSPost2010Prop33
280
     0
102
RTVSPost2010PropOp33
 70
     1
102
RTVSPost2010Prop34
280
     0
102
RTVSPost2010PropOp34
 70
     1
102
RTVSPost2010Prop35
280
     0
102
RTVSPost2010PropOp35
 70
     1
102
RTVSPost2010Prop36
280
     0
102
RTVSPost2010PropOp36
 70
     1
102
RTVSPost2010Prop37
 90
       50
102
RTVSPost2010PropOp37
 70
     1
102
RTVSPost2010Prop38
140
0.0
102
RTVSPost2010PropOp38
 70
     1
102
RTVSPost2010Prop39
140
1.0
102
RTVSPost2010PropOp39
 70
     1
102
RTVSPost2010Prop40
 90
        0
102
RTVSPost2010PropOp40
 70
     1
102
RTVSPost2010Prop41ColorIndex
 90
       18
102
RTVSPost2010Prop41ColorRGB
 90
        0
102
RTVSPost2010PropOp41
 70
     1
102
RTVSPost2010Prop42
 90
       50
102
RTVSPost2010PropOp42
 70
     1
102
RTVSPost2010Prop43
 90
        3
102
RTVSPost2010PropOp43
 70
     1
102
RTVSPost2010Prop44ColorIndex
 90
        5
102
RTVSPost2010Prop44ColorRGB
 90
      255
102
RTVSPost2010PropOp44
 70
     1
102
RTVSPost2010Prop45
280
     0
102
RTVSPost2010PropOp45
 70
     1
102
RTVSPost2010Prop46
 90
       50
102
RTVSPost2010PropOp46
 70
     1
102
RTVSPost2010Prop47
 90
       50
102
RTVSPost2010PropOp47
 70
     1
102
RTVSPost2010Prop48
 90
       50
102
RTVSPost2010PropOp48
 70
     1
102
RTVSPost2010Prop49
280
     0
102
RTVSPost2010PropOp49
 70
     1
102
RTVSPost2010Prop50
 90
       50
102
RTVSPost2010PropOp50
 70
     1
102
RTVSPost2010Prop51ColorIndex
 90
      256
102
RTVSPost2010Prop51ColorRGB
 90
-16777216
102
RTVSPost2010PropOp51
 70
     0
102
RTVSPost2010Prop52
140
1.0
102
RTVSPost2010PropOp52
 70
     0
102
RTVSPost2010Prop53
 90
        2
102
RTVSPost2010PropOp53
 70
     1
102
RTVSPost2010Prop54
  1
strokes_ogs.tif
102
RTVSPost2010PropOp54
 70
     1
102
RTVSPost2010Prop55
280
     0
102
RTVSPost2010PropOp55
 70
     1
102
RTVSPost2010Prop56
140
1.0
102
RTVSPost2010PropOp56
 70
     1
102
RTVSPost2010Prop57
140
1.0
102
RTVSPost2010PropOp57
 70
     1
102
RTVSPropertyOp0
 70
     1
102
RTVSPropertyOp1
 70
     1
102
RTVSPropertyOp2
 70
     1
102
RTVSPropertyOp3
 70
     1
102
RTVSPropertyOp4
 70
     1
102
RTVSPropertyOp5
 70
     1
102
RTVSPropertyOp6
 70
     1
102
RTVSPropertyOp7
 70
     1
102
RTVSPropertyOp8
 70
     1
102
RTVSPropertyOp9
 70
     1
102
RTVSPropertyOp10
 70
     1
102
RTVSPropertyOp11
 70
     1
102
RTVSPropertyOp12
 70
     1
102
RTVSPropertyOp13
 70
     1
102
RTVSPropertyOp14
 70
     1
102
RTVSPropertyOp15
 70
     1
102
RTVSPropertyOp16
 70
     1
102
RTVSPropertyOp17
 70
     1
102
RTVSPropertyOp18
 70
     1
102
RTVSPropertyOp19
 70
     1
102
RTVSPropertyOp20
 70
     1
102
RTVSPropertyOp21
 70
     1
102
RTVSPropertyOp22
 70
     1
102
RTVSPropertyOp23
 70
     1
102
RTVSPropertyOp24
 70
     1
102
RTVSPropertyOp25
 70
     1
102
RTVSPropertyOp26
 70
     1
102
RTVSPropertyOp27
 70
     1
102
RTVSPropertyOp28
 70
     1
102
RTVSPropertyOp29
 70
     1
102
RTVSPropertyOp30
 70
     1
102
RTVSPropertyOp31
 70
     1
102
RTVSPropertyOp32
 70
     1
102
RTVSPropertyOp33
 70
     1
102
RTVSPropertyOp34
 70
     1
102
RTVSPropertyOp35
 70
     1
102
RTVSPropertyOp36
 70
     1
102
RTVSPropertyOp37
 70
     1
102
RTVSPropertyOp38
 70
     1
102
RTVSPropertyOp39
 70
     1
102
RTVSPropertyOp40
 70
     1
102
RTVSPropertyOp41
 70
     1
102
RTVSPropertyOp42
 70
     1
102
RTVSPropertyOp43
 70
     1
102
RTVSPropertyOp44
 70
     1
102
RTVSPropertyOp45
 70
     1
102
RTVSPropertyOp46
 70
     1
102
RTVSPropertyOp47
 70
     1
102
RTVSPropertyOp48
 70
     1
102
RTVSPropertyOp49
 70
     1
102
RTVSPropertyOp50
 70
     1
102
RTVSPropertyOp51
 70
     0
102
RTVSPropertyOp52
 70
     0
102
RTVSPropertyOp53
 70
     1
102
RTVSPropertyOp54
 70
     1
102
RTVSPropertyOp55
 70
     1
102
RTVSPropertyOp56
 70
     1
102
RTVSPropertyOp57
 70
     1
102
RTVSPropertyOp58
 70
     1
102
RTVSPropertyOp59
 70
     1
102
RTVSPropertyOp60
 70
     1
102
RTVSPropertyOp61
 70
     1
102
RTVSPropertyOp62
 70
     1
  0
XRECORD
  5
4348
102
{ACAD_REACTORS
330
4347
102
}
330
4347
100
AcDbXrecord
280
     1
102
RTVSPost2010Prop28
280
     0
102
RTVSPost2010PropOp28
 70
     1
102
RTVSPost2010Prop29
280
     1
102
RTVSPost2010PropOp29
 70
     1
102
RTVSPost2010Prop30
280
     1
102
RTVSPost2010PropOp30
 70
     1
102
RTVSPost2010Prop31
280
     0
102
RTVSPost2010PropOp31
 70
     1
102
RTVSPost2010Prop32
280
     0
102
RTVSPost2010PropOp32
 70
     1
102
RTVSPost2010Prop33
280
     0
102
RTVSPost2010PropOp33
 70
     1
102
RTVSPost2010Prop34
280
     0
102
RTVSPost2010PropOp34
 70
     1
102
RTVSPost2010Prop35
280
     0
102
RTVSPost2010PropOp35
 70
     1
102
RTVSPost2010Prop36
280
     0
102
RTVSPost2010PropOp36
 70
     1
102
RTVSPost2010Prop37
 90
       50
102
RTVSPost2010PropOp37
 70
     0
102
RTVSPost2010Prop38
140
0.0
102
RTVSPost2010PropOp38
 70
     0
102
RTVSPost2010Prop39
140
1.0
102
RTVSPost2010PropOp39
 70
     0
102
RTVSPost2010Prop40
 90
        0
102
RTVSPost2010PropOp40
 70
     0
102
RTVSPost2010Prop41ColorIndex
 90
       18
102
RTVSPost2010Prop41ColorRGB
 90
        0
102
RTVSPost2010PropOp41
 70
     0
102
RTVSPost2010Prop42
 90
       50
102
RTVSPost2010PropOp42
 70
     0
102
RTVSPost2010Prop43
 90
        3
102
RTVSPost2010PropOp43
 70
     0
102
RTVSPost2010Prop44ColorIndex
 90
        5
102
RTVSPost2010Prop44ColorRGB
 90
      255
102
RTVSPost2010PropOp44
 70
     0
102
RTVSPost2010Prop45
280
     0
102
RTVSPost2010PropOp45
 70
     1
102
RTVSPost2010Prop46
 90
       50
102
RTVSPost2010PropOp46
 70
     0
102
RTVSPost2010Prop47
 90
       50
102
RTVSPost2010PropOp47
 70
     0
102
RTVSPost2010Prop48
 90
       50
102
RTVSPost2010PropOp48
 70
     0
102
RTVSPost2010Prop49
280
     0
102
RTVSPost2010PropOp49
 70
     1
102
RTVSPost2010Prop50
 90
       50
102
RTVSPost2010PropOp50
 70
     0
102
RTVSPost2010Prop51ColorIndex
 90
      256
102
RTVSPost2010Prop51ColorRGB
 90
-16777216
102
RTVSPost2010PropOp51
 70
     0
102
RTVSPost2010Prop52
140
1.0
102
RTVSPost2010PropOp52
 70
     0
102
RTVSPost2010Prop53
 90
        2
102
RTVSPost2010PropOp53
 70
     0
102
RTVSPost2010Prop54
  1
strokes_ogs.tif
102
RTVSPost2010PropOp54
 70
     0
102
RTVSPost2010Prop55
280
     0
102
RTVSPost2010PropOp55
 70
     1
102
RTVSPost2010Prop56
140
1.0
102
RTVSPost2010PropOp56
 70
     0
102
RTVSPost2010Prop57
140
1.0
102
RTVSPost2010PropOp57
 70
     0
102
RTVSPropertyOp0
 70
     0
102
RTVSPropertyOp1
 70
     0
102
RTVSPropertyOp2
 70
     0
102
RTVSPropertyOp3
 70
     0
102
RTVSPropertyOp4
 70
     0
102
RTVSPropertyOp5
 70
     0
102
RTVSPropertyOp6
 70
     0
102
RTVSPropertyOp7
 70
     0
102
RTVSPropertyOp8
 70
     0
102
RTVSPropertyOp9
 70
     0
102
RTVSPropertyOp10
 70
     0
102
RTVSPropertyOp11
 70
     0
102
RTVSPropertyOp12
 70
     0
102
RTVSPropertyOp13
 70
     0
102
RTVSPropertyOp14
 70
     2
102
RTVSPropertyOp15
 70
     0
102
RTVSPropertyOp16
 70
     0
102
RTVSPropertyOp17
 70
     0
102
RTVSPropertyOp18
 70
     0
102
RTVSPropertyOp19
 70
     0
102
RTVSPropertyOp20
 70
     0
102
RTVSPropertyOp21
 70
     0
102
RTVSPropertyOp22
 70
     0
102
RTVSPropertyOp23
 70
     0
102
RTVSPropertyOp24
 70
     0
102
RTVSPropertyOp25
 70
     0
102
RTVSPropertyOp26
 70
     0
102
RTVSPropertyOp27
 70
     0
102
RTVSPropertyOp28
 70
     1
102
RTVSPropertyOp29
 70
     1
102
RTVSPropertyOp30
 70
     1
102
RTVSPropertyOp31
 70
     1
102
RTVSPropertyOp32
 70
     1
102
RTVSPropertyOp33
 70
     1
102
RTVSPropertyOp34
 70
     1
102
RTVSPropertyOp35
 70
     1
102
RTVSPropertyOp36
 70
     1
102
RTVSPropertyOp37
 70
     0
102
RTVSPropertyOp38
 70
     0
102
RTVSPropertyOp39
 70
     0
102
RTVSPropertyOp40
 70
     0
102
RTVSPropertyOp41
 70
     0
102
RTVSPropertyOp42
 70
     0
102
RTVSPropertyOp43
 70
     0
102
RTVSPropertyOp44
 70
     0
102
RTVSPropertyOp45
 70
     1
102
RTVSPropertyOp46
 70
     0
102
RTVSPropertyOp47
 70
     0
102
RTVSPropertyOp48
 70
     0
102
RTVSPropertyOp49
 70
     1
102
RTVSPropertyOp50
 70
     0
102
RTVSPropertyOp51
 70
     0
102
RTVSPropertyOp52
 70
     0
102
RTVSPropertyOp53
 70
     0
102
RTVSPropertyOp54
 70
     0
102
RTVSPropertyOp55
 70
     1
102
RTVSPropertyOp56
 70
     0
102
RTVSPropertyOp57
 70
     0
102
RTVSPropertyOp58
 70
     0
102
RTVSPropertyOp59
 70
     0
102
RTVSPropertyOp60
 70
     0
102
RTVSPropertyOp61
 70
     0
102
RTVSPropertyOp62
 70
     0
  0
XRECORD
  5
4338
102
{ACAD_REACTORS
330
4337
102
}
330
4337
100
AcDbXrecord
280
     1
102
RTVSPost2010Prop28
280
     0
102
RTVSPost2010PropOp28
 70
     1
102
RTVSPost2010Prop29
280
     1
102
RTVSPost2010PropOp29
 70
     1
102
RTVSPost2010Prop30
280
     1
102
RTVSPost2010PropOp30
 70
     1
102
RTVSPost2010Prop31
280
     0
102
RTVSPost2010PropOp31
 70
     1
102
RTVSPost2010Prop32
280
     0
102
RTVSPost2010PropOp32
 70
     1
102
RTVSPost2010Prop33
280
     0
102
RTVSPost2010PropOp33
 70
     1
102
RTVSPost2010Prop34
280
     0
102
RTVSPost2010PropOp34
 70
     1
102
RTVSPost2010Prop35
280
     0
102
RTVSPost2010PropOp35
 70
     1
102
RTVSPost2010Prop36
280
     0
102
RTVSPost2010PropOp36
 70
     1
102
RTVSPost2010Prop37
 90
       50
102
RTVSPost2010PropOp37
 70
     1
102
RTVSPost2010Prop38
140
0.0
102
RTVSPost2010PropOp38
 70
     1
102
RTVSPost2010Prop39
140
1.0
102
RTVSPost2010PropOp39
 70
     1
102
RTVSPost2010Prop40
 90
        0
102
RTVSPost2010PropOp40
 70
     1
102
RTVSPost2010Prop41ColorIndex
 90
       18
102
RTVSPost2010Prop41ColorRGB
 90
        0
102
RTVSPost2010PropOp41
 70
     1
102
RTVSPost2010Prop42
 90
       50
102
RTVSPost2010PropOp42
 70
     1
102
RTVSPost2010Prop43
 90
        3
102
RTVSPost2010PropOp43
 70
     1
102
RTVSPost2010Prop44ColorIndex
 90
        5
102
RTVSPost2010Prop44ColorRGB
 90
      255
102
RTVSPost2010PropOp44
 70
     1
102
RTVSPost2010Prop45
280
     0
102
RTVSPost2010PropOp45
 70
     1
102
RTVSPost2010Prop46
 90
       50
102
RTVSPost2010PropOp46
 70
     1
102
RTVSPost2010Prop47
 90
       50
102
RTVSPost2010PropOp47
 70
     1
102
RTVSPost2010Prop48
 90
       50
102
RTVSPost2010PropOp48
 70
     1
102
RTVSPost2010Prop49
280
     0
102
RTVSPost2010PropOp49
 70
     1
102
RTVSPost2010Prop50
 90
       50
102
RTVSPost2010PropOp50
 70
     1
102
RTVSPost2010Prop51ColorIndex
 90
      256
102
RTVSPost2010Prop51ColorRGB
 90
-16777216
102
RTVSPost2010PropOp51
 70
     0
102
RTVSPost2010Prop52
140
1.0
102
RTVSPost2010PropOp52
 70
     0
102
RTVSPost2010Prop53
 90
        2
102
RTVSPost2010PropOp53
 70
     1
102
RTVSPost2010Prop54
  1
strokes_ogs.tif
102
RTVSPost2010PropOp54
 70
     1
102
RTVSPost2010Prop55
280
     0
102
RTVSPost2010PropOp55
 70
     1
102
RTVSPost2010Prop56
140
1.0
102
RTVSPost2010PropOp56
 70
     1
102
RTVSPost2010Prop57
140
1.0
102
RTVSPost2010PropOp57
 70
     1
102
RTVSPropertyOp0
 70
     1
102
RTVSPropertyOp1
 70
     1
102
RTVSPropertyOp2
 70
     1
102
RTVSPropertyOp3
 70
     1
102
RTVSPropertyOp4
 70
     1
102
RTVSPropertyOp5
 70
     1
102
RTVSPropertyOp6
 70
     1
102
RTVSPropertyOp7
 70
     1
102
RTVSPropertyOp8
 70
     1
102
RTVSPropertyOp9
 70
     1
102
RTVSPropertyOp10
 70
     1
102
RTVSPropertyOp11
 70
     1
102
RTVSPropertyOp12
 70
     1
102
RTVSPropertyOp13
 70
     1
102
RTVSPropertyOp14
 70
     1
102
RTVSPropertyOp15
 70
     1
102
RTVSPropertyOp16
 70
     1
102
RTVSPropertyOp17
 70
     1
102
RTVSPropertyOp18
 70
     1
102
RTVSPropertyOp19
 70
     1
102
RTVSPropertyOp20
 70
     1
102
RTVSPropertyOp21
 70
     1
102
RTVSPropertyOp22
 70
     1
102
RTVSPropertyOp23
 70
     1
102
RTVSPropertyOp24
 70
     1
102
RTVSPropertyOp25
 70
     1
102
RTVSPropertyOp26
 70
     1
102
RTVSPropertyOp27
 70
     1
102
RTVSPropertyOp28
 70
     1
102
RTVSPropertyOp29
 70
     1
102
RTVSPropertyOp30
 70
     1
102
RTVSPropertyOp31
 70
     1
102
RTVSPropertyOp32
 70
     1
102
RTVSPropertyOp33
 70
     1
102
RTVSPropertyOp34
 70
     1
102
RTVSPropertyOp35
 70
     1
102
RTVSPropertyOp36
 70
     1
102
RTVSPropertyOp37
 70
     1
102
RTVSPropertyOp38
 70
     1
102
RTVSPropertyOp39
 70
     1
102
RTVSPropertyOp40
 70
     1
102
RTVSPropertyOp41
 70
     1
102
RTVSPropertyOp42
 70
     1
102
RTVSPropertyOp43
 70
     1
102
RTVSPropertyOp44
 70
     1
102
RTVSPropertyOp45
 70
     1
102
RTVSPropertyOp46
 70
     1
102
RTVSPropertyOp47
 70
     1
102
RTVSPropertyOp48
 70
     1
102
RTVSPropertyOp49
 70
     1
102
RTVSPropertyOp50
 70
     1
102
RTVSPropertyOp51
 70
     0
102
RTVSPropertyOp52
 70
     0
102
RTVSPropertyOp53
 70
     1
102
RTVSPropertyOp54
 70
     1
102
RTVSPropertyOp55
 70
     1
102
RTVSPropertyOp56
 70
     1
102
RTVSPropertyOp57
 70
     1
102
RTVSPropertyOp58
 70
     1
102
RTVSPropertyOp59
 70
     1
102
RTVSPropertyOp60
 70
     1
102
RTVSPropertyOp61
 70
     1
102
RTVSPropertyOp62
 70
     1
  0
XRECORD
  5
434A
102
{ACAD_REACTORS
330
4349
102
}
330
4349
100
AcDbXrecord
280
     1
102
RTVSPost2010Prop28
280
     0
102
RTVSPost2010PropOp28
 70
     1
102
RTVSPost2010Prop29
280
     1
102
RTVSPost2010PropOp29
 70
     1
102
RTVSPost2010Prop30
280
     1
102
RTVSPost2010PropOp30
 70
     1
102
RTVSPost2010Prop31
280
     0
102
RTVSPost2010PropOp31
 70
     1
102
RTVSPost2010Prop32
280
     0
102
RTVSPost2010PropOp32
 70
     1
102
RTVSPost2010Prop33
280
     0
102
RTVSPost2010PropOp33
 70
     1
102
RTVSPost2010Prop34
280
     0
102
RTVSPost2010PropOp34
 70
     1
102
RTVSPost2010Prop35
280
     0
102
RTVSPost2010PropOp35
 70
     1
102
RTVSPost2010Prop36
280
     0
102
RTVSPost2010PropOp36
 70
     1
102
RTVSPost2010Prop37
 90
       50
102
RTVSPost2010PropOp37
 70
     0
102
RTVSPost2010Prop38
140
0.0
102
RTVSPost2010PropOp38
 70
     0
102
RTVSPost2010Prop39
140
1.0
102
RTVSPost2010PropOp39
 70
     0
102
RTVSPost2010Prop40
 90
        0
102
RTVSPost2010PropOp40
 70
     0
102
RTVSPost2010Prop41ColorIndex
 90
       18
102
RTVSPost2010Prop41ColorRGB
 90
        0
102
RTVSPost2010PropOp41
 70
     0
102
RTVSPost2010Prop42
 90
       50
102
RTVSPost2010PropOp42
 70
     0
102
RTVSPost2010Prop43
 90
        3
102
RTVSPost2010PropOp43
 70
     0
102
RTVSPost2010Prop44ColorIndex
 90
        5
102
RTVSPost2010Prop44ColorRGB
 90
      255
102
RTVSPost2010PropOp44
 70
     0
102
RTVSPost2010Prop45
280
     0
102
RTVSPost2010PropOp45
 70
     1
102
RTVSPost2010Prop46
 90
       50
102
RTVSPost2010PropOp46
 70
     0
102
RTVSPost2010Prop47
 90
       50
102
RTVSPost2010PropOp47
 70
     0
102
RTVSPost2010Prop48
 90
       50
102
RTVSPost2010PropOp48
 70
     0
102
RTVSPost2010Prop49
280
     0
102
RTVSPost2010PropOp49
 70
     1
102
RTVSPost2010Prop50
 90
       50
102
RTVSPost2010PropOp50
 70
     0
102
RTVSPost2010Prop51ColorIndex
 90
      256
102
RTVSPost2010Prop51ColorRGB
 90
-16777216
102
RTVSPost2010PropOp51
 70
     0
102
RTVSPost2010Prop52
140
1.0
102
RTVSPost2010PropOp52
 70
     0
102
RTVSPost2010Prop53
 90
        2
102
RTVSPost2010PropOp53
 70
     0
102
RTVSPost2010Prop54
  1
strokes_ogs.tif
102
RTVSPost2010PropOp54
 70
     0
102
RTVSPost2010Prop55
280
     0
102
RTVSPost2010PropOp55
 70
     1
102
RTVSPost2010Prop56
140
1.0
102
RTVSPost2010PropOp56
 70
     0
102
RTVSPost2010Prop57
140
1.0
102
RTVSPost2010PropOp57
 70
     0
102
RTVSPropertyOp0
 70
     0
102
RTVSPropertyOp1
 70
     0
102
RTVSPropertyOp2
 70
     0
102
RTVSPropertyOp3
 70
     0
102
RTVSPropertyOp4
 70
     0
102
RTVSPropertyOp5
 70
     0
102
RTVSPropertyOp6
 70
     0
102
RTVSPropertyOp7
 70
     0
102
RTVSPropertyOp8
 70
     0
102
RTVSPropertyOp9
 70
     0
102
RTVSPropertyOp10
 70
     0
102
RTVSPropertyOp11
 70
     0
102
RTVSPropertyOp12
 70
     0
102
RTVSPropertyOp13
 70
     0
102
RTVSPropertyOp14
 70
     2
102
RTVSPropertyOp15
 70
     0
102
RTVSPropertyOp16
 70
     0
102
RTVSPropertyOp17
 70
     0
102
RTVSPropertyOp18
 70
     0
102
RTVSPropertyOp19
 70
     0
102
RTVSPropertyOp20
 70
     0
102
RTVSPropertyOp21
 70
     0
102
RTVSPropertyOp22
 70
     0
102
RTVSPropertyOp23
 70
     0
102
RTVSPropertyOp24
 70
     0
102
RTVSPropertyOp25
 70
     0
102
RTVSPropertyOp26
 70
     0
102
RTVSPropertyOp27
 70
     0
102
RTVSPropertyOp28
 70
     1
102
RTVSPropertyOp29
 70
     1
102
RTVSPropertyOp30
 70
     1
102
RTVSPropertyOp31
 70
     1
102
RTVSPropertyOp32
 70
     1
102
RTVSPropertyOp33
 70
     1
102
RTVSPropertyOp34
 70
     1
102
RTVSPropertyOp35
 70
     1
102
RTVSPropertyOp36
 70
     1
102
RTVSPropertyOp37
 70
     0
102
RTVSPropertyOp38
 70
     0
102
RTVSPropertyOp39
 70
     0
102
RTVSPropertyOp40
 70
     0
102
RTVSPropertyOp41
 70
     0
102
RTVSPropertyOp42
 70
     0
102
RTVSPropertyOp43
 70
     0
102
RTVSPropertyOp44
 70
     0
102
RTVSPropertyOp45
 70
     1
102
RTVSPropertyOp46
 70
     0
102
RTVSPropertyOp47
 70
     0
102
RTVSPropertyOp48
 70
     0
102
RTVSPropertyOp49
 70
     1
102
RTVSPropertyOp50
 70
     0
102
RTVSPropertyOp51
 70
     0
102
RTVSPropertyOp52
 70
     0
102
RTVSPropertyOp53
 70
     0
102
RTVSPropertyOp54
 70
     0
102
RTVSPropertyOp55
 70
     1
102
RTVSPropertyOp56
 70
     0
102
RTVSPropertyOp57
 70
     0
102
RTVSPropertyOp58
 70
     0
102
RTVSPropertyOp59
 70
     0
102
RTVSPropertyOp60
 70
     0
102
RTVSPropertyOp61
 70
     0
102
RTVSPropertyOp62
 70
     0
  0
XRECORD
  5
4330
102
{ACAD_REACTORS
330
432F
102
}
330
432F
100
AcDbXrecord
280
     1
102
RTVSPost2010Prop28
280
     0
102
RTVSPost2010PropOp28
 70
     1
102
RTVSPost2010Prop29
280
     1
102
RTVSPost2010PropOp29
 70
     1
102
RTVSPost2010Prop30
280
     1
102
RTVSPost2010PropOp30
 70
     1
102
RTVSPost2010Prop31
280
     0
102
RTVSPost2010PropOp31
 70
     1
102
RTVSPost2010Prop32
280
     0
102
RTVSPost2010PropOp32
 70
     1
102
RTVSPost2010Prop33
280
     0
102
RTVSPost2010PropOp33
 70
     1
102
RTVSPost2010Prop34
280
     0
102
RTVSPost2010PropOp34
 70
     1
102
RTVSPost2010Prop35
280
     0
102
RTVSPost2010PropOp35
 70
     1
102
RTVSPost2010Prop36
280
     0
102
RTVSPost2010PropOp36
 70
     1
102
RTVSPost2010Prop37
 90
       50
102
RTVSPost2010PropOp37
 70
     1
102
RTVSPost2010Prop38
140
0.0
102
RTVSPost2010PropOp38
 70
     1
102
RTVSPost2010Prop39
140
1.0
102
RTVSPost2010PropOp39
 70
     1
102
RTVSPost2010Prop40
 90
        0
102
RTVSPost2010PropOp40
 70
     1
102
RTVSPost2010Prop41ColorIndex
 90
       18
102
RTVSPost2010Prop41ColorRGB
 90
        0
102
RTVSPost2010PropOp41
 70
     1
102
RTVSPost2010Prop42
 90
       50
102
RTVSPost2010PropOp42
 70
     1
102
RTVSPost2010Prop43
 90
        3
102
RTVSPost2010PropOp43
 70
     1
102
RTVSPost2010Prop44ColorIndex
 90
        5
102
RTVSPost2010Prop44ColorRGB
 90
      255
102
RTVSPost2010PropOp44
 70
     1
102
RTVSPost2010Prop45
280
     0
102
RTVSPost2010PropOp45
 70
     1
102
RTVSPost2010Prop46
 90
       50
102
RTVSPost2010PropOp46
 70
     1
102
RTVSPost2010Prop47
 90
       50
102
RTVSPost2010PropOp47
 70
     1
102
RTVSPost2010Prop48
 90
       50
102
RTVSPost2010PropOp48
 70
     1
102
RTVSPost2010Prop49
280
     0
102
RTVSPost2010PropOp49
 70
     1
102
RTVSPost2010Prop50
 90
       50
102
RTVSPost2010PropOp50
 70
     1
102
RTVSPost2010Prop51ColorIndex
 90
      256
102
RTVSPost2010Prop51ColorRGB
 90
-16777216
102
RTVSPost2010PropOp51
 70
     0
102
RTVSPost2010Prop52
140
1.0
102
RTVSPost2010PropOp52
 70
     0
102
RTVSPost2010Prop53
 90
        2
102
RTVSPost2010PropOp53
 70
     1
102
RTVSPost2010Prop54
  1
strokes_ogs.tif
102
RTVSPost2010PropOp54
 70
     1
102
RTVSPost2010Prop55
280
     0
102
RTVSPost2010PropOp55
 70
     1
102
RTVSPost2010Prop56
140
1.0
102
RTVSPost2010PropOp56
 70
     1
102
RTVSPost2010Prop57
140
1.0
102
RTVSPost2010PropOp57
 70
     1
102
RTVSPropertyOp0
 70
     1
102
RTVSPropertyOp1
 70
     1
102
RTVSPropertyOp2
 70
     1
102
RTVSPropertyOp3
 70
     1
102
RTVSPropertyOp4
 70
     1
102
RTVSPropertyOp5
 70
     1
102
RTVSPropertyOp6
 70
     1
102
RTVSPropertyOp7
 70
     1
102
RTVSPropertyOp8
 70
     1
102
RTVSPropertyOp9
 70
     1
102
RTVSPropertyOp10
 70
     1
102
RTVSPropertyOp11
 70
     1
102
RTVSPropertyOp12
 70
     1
102
RTVSPropertyOp13
 70
     1
102
RTVSPropertyOp14
 70
     1
102
RTVSPropertyOp15
 70
     1
102
RTVSPropertyOp16
 70
     1
102
RTVSPropertyOp17
 70
     1
102
RTVSPropertyOp18
 70
     1
102
RTVSPropertyOp19
 70
     1
102
RTVSPropertyOp20
 70
     1
102
RTVSPropertyOp21
 70
     1
102
RTVSPropertyOp22
 70
     1
102
RTVSPropertyOp23
 70
     1
102
RTVSPropertyOp24
 70
     1
102
RTVSPropertyOp25
 70
     1
102
RTVSPropertyOp26
 70
     1
102
RTVSPropertyOp27
 70
     1
102
RTVSPropertyOp28
 70
     1
102
RTVSPropertyOp29
 70
     1
102
RTVSPropertyOp30
 70
     1
102
RTVSPropertyOp31
 70
     1
102
RTVSPropertyOp32
 70
     1
102
RTVSPropertyOp33
 70
     1
102
RTVSPropertyOp34
 70
     1
102
RTVSPropertyOp35
 70
     1
102
RTVSPropertyOp36
 70
     1
102
RTVSPropertyOp37
 70
     1
102
RTVSPropertyOp38
 70
     1
102
RTVSPropertyOp39
 70
     1
102
RTVSPropertyOp40
 70
     1
102
RTVSPropertyOp41
 70
     1
102
RTVSPropertyOp42
 70
     1
102
RTVSPropertyOp43
 70
     1
102
RTVSPropertyOp44
 70
     1
102
RTVSPropertyOp45
 70
     1
102
RTVSPropertyOp46
 70
     1
102
RTVSPropertyOp47
 70
     1
102
RTVSPropertyOp48
 70
     1
102
RTVSPropertyOp49
 70
     1
102
RTVSPropertyOp50
 70
     1
102
RTVSPropertyOp51
 70
     0
102
RTVSPropertyOp52
 70
     0
102
RTVSPropertyOp53
 70
     1
102
RTVSPropertyOp54
 70
     1
102
RTVSPropertyOp55
 70
     1
102
RTVSPropertyOp56
 70
     1
102
RTVSPropertyOp57
 70
     1
102
RTVSPropertyOp58
 70
     1
102
RTVSPropertyOp59
 70
     1
102
RTVSPropertyOp60
 70
     1
102
RTVSPropertyOp61
 70
     1
102
RTVSPropertyOp62
 70
     1
  0
XRECORD
  5
4346
102
{ACAD_REACTORS
330
4345
102
}
330
4345
100
AcDbXrecord
280
     1
102
RTVSPost2010Prop28
280
     0
102
RTVSPost2010PropOp28
 70
     1
102
RTVSPost2010Prop29
280
     1
102
RTVSPost2010PropOp29
 70
     1
102
RTVSPost2010Prop30
280
     1
102
RTVSPost2010PropOp30
 70
     1
102
RTVSPost2010Prop31
280
     0
102
RTVSPost2010PropOp31
 70
     1
102
RTVSPost2010Prop32
280
     0
102
RTVSPost2010PropOp32
 70
     1
102
RTVSPost2010Prop33
280
     0
102
RTVSPost2010PropOp33
 70
     1
102
RTVSPost2010Prop34
280
     0
102
RTVSPost2010PropOp34
 70
     1
102
RTVSPost2010Prop35
280
     0
102
RTVSPost2010PropOp35
 70
     1
102
RTVSPost2010Prop36
280
     0
102
RTVSPost2010PropOp36
 70
     1
102
RTVSPost2010Prop37
 90
       50
102
RTVSPost2010PropOp37
 70
     1
102
RTVSPost2010Prop38
140
0.0
102
RTVSPost2010PropOp38
 70
     1
102
RTVSPost2010Prop39
140
1.0
102
RTVSPost2010PropOp39
 70
     1
102
RTVSPost2010Prop40
 90
        0
102
RTVSPost2010PropOp40
 70
     1
102
RTVSPost2010Prop41ColorIndex
 90
       18
102
RTVSPost2010Prop41ColorRGB
 90
        0
102
RTVSPost2010PropOp41
 70
     1
102
RTVSPost2010Prop42
 90
       50
102
RTVSPost2010PropOp42
 70
     1
102
RTVSPost2010Prop43
 90
        3
102
RTVSPost2010PropOp43
 70
     1
102
RTVSPost2010Prop44ColorIndex
 90
        5
102
RTVSPost2010Prop44ColorRGB
 90
      255
102
RTVSPost2010PropOp44
 70
     1
102
RTVSPost2010Prop45
280
     0
102
RTVSPost2010PropOp45
 70
     1
102
RTVSPost2010Prop46
 90
       50
102
RTVSPost2010PropOp46
 70
     1
102
RTVSPost2010Prop47
 90
       50
102
RTVSPost2010PropOp47
 70
     1
102
RTVSPost2010Prop48
 90
       50
102
RTVSPost2010PropOp48
 70
     1
102
RTVSPost2010Prop49
280
     0
102
RTVSPost2010PropOp49
 70
     1
102
RTVSPost2010Prop50
 90
       50
102
RTVSPost2010PropOp50
 70
     1
102
RTVSPost2010Prop51ColorIndex
 90
      256
102
RTVSPost2010Prop51ColorRGB
 90
-16777216
102
RTVSPost2010PropOp51
 70
     0
102
RTVSPost2010Prop52
140
1.0
102
RTVSPost2010PropOp52
 70
     0
102
RTVSPost2010Prop53
 90
        2
102
RTVSPost2010PropOp53
 70
     1
102
RTVSPost2010Prop54
  1
strokes_ogs.tif
102
RTVSPost2010PropOp54
 70
     1
102
RTVSPost2010Prop55
280
     0
102
RTVSPost2010PropOp55
 70
     1
102
RTVSPost2010Prop56
140
1.0
102
RTVSPost2010PropOp56
 70
     1
102
RTVSPost2010Prop57
140
1.0
102
RTVSPost2010PropOp57
 70
     1
102
RTVSPropertyOp0
 70
     1
102
RTVSPropertyOp1
 70
     1
102
RTVSPropertyOp2
 70
     1
102
RTVSPropertyOp3
 70
     1
102
RTVSPropertyOp4
 70
     1
102
RTVSPropertyOp5
 70
     1
102
RTVSPropertyOp6
 70
     1
102
RTVSPropertyOp7
 70
     1
102
RTVSPropertyOp8
 70
     1
102
RTVSPropertyOp9
 70
     1
102
RTVSPropertyOp10
 70
     1
102
RTVSPropertyOp11
 70
     1
102
RTVSPropertyOp12
 70
     1
102
RTVSPropertyOp13
 70
     1
102
RTVSPropertyOp14
 70
     1
102
RTVSPropertyOp15
 70
     1
102
RTVSPropertyOp16
 70
     1
102
RTVSPropertyOp17
 70
     1
102
RTVSPropertyOp18
 70
     1
102
RTVSPropertyOp19
 70
     1
102
RTVSPropertyOp20
 70
     1
102
RTVSPropertyOp21
 70
     1
102
RTVSPropertyOp22
 70
     1
102
RTVSPropertyOp23
 70
     1
102
RTVSPropertyOp24
 70
     1
102
RTVSPropertyOp25
 70
     1
102
RTVSPropertyOp26
 70
     1
102
RTVSPropertyOp27
 70
     1
102
RTVSPropertyOp28
 70
     1
102
RTVSPropertyOp29
 70
     1
102
RTVSPropertyOp30
 70
     1
102
RTVSPropertyOp31
 70
     1
102
RTVSPropertyOp32
 70
     1
102
RTVSPropertyOp33
 70
     1
102
RTVSPropertyOp34
 70
     1
102
RTVSPropertyOp35
 70
     1
102
RTVSPropertyOp36
 70
     1
102
RTVSPropertyOp37
 70
     1
102
RTVSPropertyOp38
 70
     1
102
RTVSPropertyOp39
 70
     1
102
RTVSPropertyOp40
 70
     1
102
RTVSPropertyOp41
 70
     1
102
RTVSPropertyOp42
 70
     1
102
RTVSPropertyOp43
 70
     1
102
RTVSPropertyOp44
 70
     1
102
RTVSPropertyOp45
 70
     1
102
RTVSPropertyOp46
 70
     1
102
RTVSPropertyOp47
 70
     1
102
RTVSPropertyOp48
 70
     1
102
RTVSPropertyOp49
 70
     1
102
RTVSPropertyOp50
 70
     1
102
RTVSPropertyOp51
 70
     0
102
RTVSPropertyOp52
 70
     0
102
RTVSPropertyOp53
 70
     1
102
RTVSPropertyOp54
 70
     1
102
RTVSPropertyOp55
 70
     1
102
RTVSPropertyOp56
 70
     1
102
RTVSPropertyOp57
 70
     1
102
RTVSPropertyOp58
 70
     1
102
RTVSPropertyOp59
 70
     1
102
RTVSPropertyOp60
 70
     1
102
RTVSPropertyOp61
 70
     1
102
RTVSPropertyOp62
 70
     1
  0
XRECORD
  5
4344
102
{ACAD_REACTORS
330
4343
102
}
330
4343
100
AcDbXrecord
280
     1
102
RTVSPost2010Prop28
280
     0
102
RTVSPost2010PropOp28
 70
     1
102
RTVSPost2010Prop29
280
     1
102
RTVSPost2010PropOp29
 70
     1
102
RTVSPost2010Prop30
280
     1
102
RTVSPost2010PropOp30
 70
     1
102
RTVSPost2010Prop31
280
     0
102
RTVSPost2010PropOp31
 70
     1
102
RTVSPost2010Prop32
280
     0
102
RTVSPost2010PropOp32
 70
     1
102
RTVSPost2010Prop33
280
     0
102
RTVSPost2010PropOp33
 70
     1
102
RTVSPost2010Prop34
280
     0
102
RTVSPost2010PropOp34
 70
     1
102
RTVSPost2010Prop35
280
     0
102
RTVSPost2010PropOp35
 70
     1
102
RTVSPost2010Prop36
280
     0
102
RTVSPost2010PropOp36
 70
     1
102
RTVSPost2010Prop37
 90
       50
102
RTVSPost2010PropOp37
 70
     1
102
RTVSPost2010Prop38
140
0.0
102
RTVSPost2010PropOp38
 70
     1
102
RTVSPost2010Prop39
140
1.0
102
RTVSPost2010PropOp39
 70
     1
102
RTVSPost2010Prop40
 90
        0
102
RTVSPost2010PropOp40
 70
     1
102
RTVSPost2010Prop41ColorIndex
 90
       18
102
RTVSPost2010Prop41ColorRGB
 90
        0
102
RTVSPost2010PropOp41
 70
     1
102
RTVSPost2010Prop42
 90
       50
102
RTVSPost2010PropOp42
 70
     1
102
RTVSPost2010Prop43
 90
        3
102
RTVSPost2010PropOp43
 70
     1
102
RTVSPost2010Prop44ColorIndex
 90
        5
102
RTVSPost2010Prop44ColorRGB
 90
      255
102
RTVSPost2010PropOp44
 70
     1
102
RTVSPost2010Prop45
280
     0
102
RTVSPost2010PropOp45
 70
     1
102
RTVSPost2010Prop46
 90
       50
102
RTVSPost2010PropOp46
 70
     1
102
RTVSPost2010Prop47
 90
       50
102
RTVSPost2010PropOp47
 70
     1
102
RTVSPost2010Prop48
 90
       50
102
RTVSPost2010PropOp48
 70
     1
102
RTVSPost2010Prop49
280
     0
102
RTVSPost2010PropOp49
 70
     1
102
RTVSPost2010Prop50
 90
       50
102
RTVSPost2010PropOp50
 70
     1
102
RTVSPost2010Prop51ColorIndex
 90
      256
102
RTVSPost2010Prop51ColorRGB
 90
-16777216
102
RTVSPost2010PropOp51
 70
     0
102
RTVSPost2010Prop52
140
1.0
102
RTVSPost2010PropOp52
 70
     0
102
RTVSPost2010Prop53
 90
        2
102
RTVSPost2010PropOp53
 70
     1
102
RTVSPost2010Prop54
  1
strokes_ogs.tif
102
RTVSPost2010PropOp54
 70
     1
102
RTVSPost2010Prop55
280
     0
102
RTVSPost2010PropOp55
 70
     1
102
RTVSPost2010Prop56
140
1.0
102
RTVSPost2010PropOp56
 70
     1
102
RTVSPost2010Prop57
140
1.0
102
RTVSPost2010PropOp57
 70
     1
102
RTVSPropertyOp0
 70
     1
102
RTVSPropertyOp1
 70
     1
102
RTVSPropertyOp2
 70
     1
102
RTVSPropertyOp3
 70
     1
102
RTVSPropertyOp4
 70
     1
102
RTVSPropertyOp5
 70
     1
102
RTVSPropertyOp6
 70
     1
102
RTVSPropertyOp7
 70
     1
102
RTVSPropertyOp8
 70
     1
102
RTVSPropertyOp9
 70
     1
102
RTVSPropertyOp10
 70
     1
102
RTVSPropertyOp11
 70
     1
102
RTVSPropertyOp12
 70
     1
102
RTVSPropertyOp13
 70
     1
102
RTVSPropertyOp14
 70
     1
102
RTVSPropertyOp15
 70
     1
102
RTVSPropertyOp16
 70
     1
102
RTVSPropertyOp17
 70
     1
102
RTVSPropertyOp18
 70
     1
102
RTVSPropertyOp19
 70
     1
102
RTVSPropertyOp20
 70
     1
102
RTVSPropertyOp21
 70
     1
102
RTVSPropertyOp22
 70
     1
102
RTVSPropertyOp23
 70
     1
102
RTVSPropertyOp24
 70
     1
102
RTVSPropertyOp25
 70
     1
102
RTVSPropertyOp26
 70
     1
102
RTVSPropertyOp27
 70
     1
102
RTVSPropertyOp28
 70
     1
102
RTVSPropertyOp29
 70
     1
102
RTVSPropertyOp30
 70
     1
102
RTVSPropertyOp31
 70
     1
102
RTVSPropertyOp32
 70
     1
102
RTVSPropertyOp33
 70
     1
102
RTVSPropertyOp34
 70
     1
102
RTVSPropertyOp35
 70
     1
102
RTVSPropertyOp36
 70
     1
102
RTVSPropertyOp37
 70
     1
102
RTVSPropertyOp38
 70
     1
102
RTVSPropertyOp39
 70
     1
102
RTVSPropertyOp40
 70
     1
102
RTVSPropertyOp41
 70
     1
102
RTVSPropertyOp42
 70
     1
102
RTVSPropertyOp43
 70
     1
102
RTVSPropertyOp44
 70
     1
102
RTVSPropertyOp45
 70
     1
102
RTVSPropertyOp46
 70
     1
102
RTVSPropertyOp47
 70
     1
102
RTVSPropertyOp48
 70
     1
102
RTVSPropertyOp49
 70
     1
102
RTVSPropertyOp50
 70
     1
102
RTVSPropertyOp51
 70
     0
102
RTVSPropertyOp52
 70
     0
102
RTVSPropertyOp53
 70
     1
102
RTVSPropertyOp54
 70
     1
102
RTVSPropertyOp55
 70
     1
102
RTVSPropertyOp56
 70
     1
102
RTVSPropertyOp57
 70
     1
102
RTVSPropertyOp58
 70
     1
102
RTVSPropertyOp59
 70
     1
102
RTVSPropertyOp60
 70
     1
102
RTVSPropertyOp61
 70
     1
102
RTVSPropertyOp62
 70
     1
  0
XRECORD
  5
433E
102
{ACAD_REACTORS
330
433D
102
}
330
433D
100
AcDbXrecord
280
     1
102
RTVSPost2010Prop28
280
     0
102
RTVSPost2010PropOp28
 70
     1
102
RTVSPost2010Prop29
280
     1
102
RTVSPost2010PropOp29
 70
     1
102
RTVSPost2010Prop30
280
     1
102
RTVSPost2010PropOp30
 70
     1
102
RTVSPost2010Prop31
280
     0
102
RTVSPost2010PropOp31
 70
     1
102
RTVSPost2010Prop32
280
     0
102
RTVSPost2010PropOp32
 70
     1
102
RTVSPost2010Prop33
280
     0
102
RTVSPost2010PropOp33
 70
     1
102
RTVSPost2010Prop34
280
     0
102
RTVSPost2010PropOp34
 70
     1
102
RTVSPost2010Prop35
280
     0
102
RTVSPost2010PropOp35
 70
     1
102
RTVSPost2010Prop36
280
     0
102
RTVSPost2010PropOp36
 70
     1
102
RTVSPost2010Prop37
 90
       50
102
RTVSPost2010PropOp37
 70
     1
102
RTVSPost2010Prop38
140
0.0
102
RTVSPost2010PropOp38
 70
     1
102
RTVSPost2010Prop39
140
1.0
102
RTVSPost2010PropOp39
 70
     1
102
RTVSPost2010Prop40
 90
        0
102
RTVSPost2010PropOp40
 70
     1
102
RTVSPost2010Prop41ColorIndex
 90
       18
102
RTVSPost2010Prop41ColorRGB
 90
        0
102
RTVSPost2010PropOp41
 70
     1
102
RTVSPost2010Prop42
 90
       50
102
RTVSPost2010PropOp42
 70
     1
102
RTVSPost2010Prop43
 90
        3
102
RTVSPost2010PropOp43
 70
     1
102
RTVSPost2010Prop44ColorIndex
 90
        5
102
RTVSPost2010Prop44ColorRGB
 90
      255
102
RTVSPost2010PropOp44
 70
     1
102
RTVSPost2010Prop45
280
     0
102
RTVSPost2010PropOp45
 70
     1
102
RTVSPost2010Prop46
 90
       50
102
RTVSPost2010PropOp46
 70
     1
102
RTVSPost2010Prop47
 90
       50
102
RTVSPost2010PropOp47
 70
     1
102
RTVSPost2010Prop48
 90
       50
102
RTVSPost2010PropOp48
 70
     1
102
RTVSPost2010Prop49
280
     0
102
RTVSPost2010PropOp49
 70
     1
102
RTVSPost2010Prop50
 90
       50
102
RTVSPost2010PropOp50
 70
     1
102
RTVSPost2010Prop51ColorIndex
 90
      256
102
RTVSPost2010Prop51ColorRGB
 90
-16777216
102
RTVSPost2010PropOp51
 70
     0
102
RTVSPost2010Prop52
140
1.0
102
RTVSPost2010PropOp52
 70
     0
102
RTVSPost2010Prop53
 90
        2
102
RTVSPost2010PropOp53
 70
     1
102
RTVSPost2010Prop54
  1
strokes_ogs.tif
102
RTVSPost2010PropOp54
 70
     1
102
RTVSPost2010Prop55
280
     0
102
RTVSPost2010PropOp55
 70
     1
102
RTVSPost2010Prop56
140
1.0
102
RTVSPost2010PropOp56
 70
     1
102
RTVSPost2010Prop57
140
1.0
102
RTVSPost2010PropOp57
 70
     1
102
RTVSPropertyOp0
 70
     1
102
RTVSPropertyOp1
 70
     1
102
RTVSPropertyOp2
 70
     1
102
RTVSPropertyOp3
 70
     1
102
RTVSPropertyOp4
 70
     1
102
RTVSPropertyOp5
 70
     1
102
RTVSPropertyOp6
 70
     1
102
RTVSPropertyOp7
 70
     1
102
RTVSPropertyOp8
 70
     1
102
RTVSPropertyOp9
 70
     1
102
RTVSPropertyOp10
 70
     1
102
RTVSPropertyOp11
 70
     1
102
RTVSPropertyOp12
 70
     1
102
RTVSPropertyOp13
 70
     1
102
RTVSPropertyOp14
 70
     1
102
RTVSPropertyOp15
 70
     1
102
RTVSPropertyOp16
 70
     1
102
RTVSPropertyOp17
 70
     1
102
RTVSPropertyOp18
 70
     1
102
RTVSPropertyOp19
 70
     1
102
RTVSPropertyOp20
 70
     1
102
RTVSPropertyOp21
 70
     1
102
RTVSPropertyOp22
 70
     1
102
RTVSPropertyOp23
 70
     1
102
RTVSPropertyOp24
 70
     1
102
RTVSPropertyOp25
 70
     1
102
RTVSPropertyOp26
 70
     1
102
RTVSPropertyOp27
 70
     1
102
RTVSPropertyOp28
 70
     1
102
RTVSPropertyOp29
 70
     1
102
RTVSPropertyOp30
 70
     1
102
RTVSPropertyOp31
 70
     1
102
RTVSPropertyOp32
 70
     1
102
RTVSPropertyOp33
 70
     1
102
RTVSPropertyOp34
 70
     1
102
RTVSPropertyOp35
 70
     1
102
RTVSPropertyOp36
 70
     1
102
RTVSPropertyOp37
 70
     1
102
RTVSPropertyOp38
 70
     1
102
RTVSPropertyOp39
 70
     1
102
RTVSPropertyOp40
 70
     1
102
RTVSPropertyOp41
 70
     1
102
RTVSPropertyOp42
 70
     1
102
RTVSPropertyOp43
 70
     1
102
RTVSPropertyOp44
 70
     1
102
RTVSPropertyOp45
 70
     1
102
RTVSPropertyOp46
 70
     1
102
RTVSPropertyOp47
 70
     1
102
RTVSPropertyOp48
 70
     1
102
RTVSPropertyOp49
 70
     1
102
RTVSPropertyOp50
 70
     1
102
RTVSPropertyOp51
 70
     0
102
RTVSPropertyOp52
 70
     0
102
RTVSPropertyOp53
 70
     1
102
RTVSPropertyOp54
 70
     1
102
RTVSPropertyOp55
 70
     1
102
RTVSPropertyOp56
 70
     1
102
RTVSPropertyOp57
 70
     1
102
RTVSPropertyOp58
 70
     1
102
RTVSPropertyOp59
 70
     1
102
RTVSPropertyOp60
 70
     1
102
RTVSPropertyOp61
 70
     1
102
RTVSPropertyOp62
 70
     1
  0
XRECORD
  5
4340
102
{ACAD_REACTORS
330
433F
102
}
330
433F
100
AcDbXrecord
280
     1
102
RTVSPost2010Prop28
280
     0
102
RTVSPost2010PropOp28
 70
     1
102
RTVSPost2010Prop29
280
     1
102
RTVSPost2010PropOp29
 70
     1
102
RTVSPost2010Prop30
280
     1
102
RTVSPost2010PropOp30
 70
     1
102
RTVSPost2010Prop31
280
     0
102
RTVSPost2010PropOp31
 70
     1
102
RTVSPost2010Prop32
280
     0
102
RTVSPost2010PropOp32
 70
     1
102
RTVSPost2010Prop33
280
     0
102
RTVSPost2010PropOp33
 70
     1
102
RTVSPost2010Prop34
280
     0
102
RTVSPost2010PropOp34
 70
     1
102
RTVSPost2010Prop35
280
     0
102
RTVSPost2010PropOp35
 70
     1
102
RTVSPost2010Prop36
280
     0
102
RTVSPost2010PropOp36
 70
     1
102
RTVSPost2010Prop37
 90
       50
102
RTVSPost2010PropOp37
 70
     1
102
RTVSPost2010Prop38
140
0.0
102
RTVSPost2010PropOp38
 70
     1
102
RTVSPost2010Prop39
140
1.0
102
RTVSPost2010PropOp39
 70
     1
102
RTVSPost2010Prop40
 90
        0
102
RTVSPost2010PropOp40
 70
     1
102
RTVSPost2010Prop41ColorIndex
 90
       18
102
RTVSPost2010Prop41ColorRGB
 90
        0
102
RTVSPost2010PropOp41
 70
     1
102
RTVSPost2010Prop42
 90
       50
102
RTVSPost2010PropOp42
 70
     1
102
RTVSPost2010Prop43
 90
        3
102
RTVSPost2010PropOp43
 70
     1
102
RTVSPost2010Prop44ColorIndex
 90
        5
102
RTVSPost2010Prop44ColorRGB
 90
      255
102
RTVSPost2010PropOp44
 70
     1
102
RTVSPost2010Prop45
280
     0
102
RTVSPost2010PropOp45
 70
     1
102
RTVSPost2010Prop46
 90
       50
102
RTVSPost2010PropOp46
 70
     1
102
RTVSPost2010Prop47
 90
       50
102
RTVSPost2010PropOp47
 70
     1
102
RTVSPost2010Prop48
 90
       50
102
RTVSPost2010PropOp48
 70
     1
102
RTVSPost2010Prop49
280
     0
102
RTVSPost2010PropOp49
 70
     1
102
RTVSPost2010Prop50
 90
       50
102
RTVSPost2010PropOp50
 70
     1
102
RTVSPost2010Prop51ColorIndex
 90
      256
102
RTVSPost2010Prop51ColorRGB
 90
-16777216
102
RTVSPost2010PropOp51
 70
     0
102
RTVSPost2010Prop52
140
1.0
102
RTVSPost2010PropOp52
 70
     0
102
RTVSPost2010Prop53
 90
        2
102
RTVSPost2010PropOp53
 70
     1
102
RTVSPost2010Prop54
  1
strokes_ogs.tif
102
RTVSPost2010PropOp54
 70
     1
102
RTVSPost2010Prop55
280
     0
102
RTVSPost2010PropOp55
 70
     1
102
RTVSPost2010Prop56
140
1.0
102
RTVSPost2010PropOp56
 70
     1
102
RTVSPost2010Prop57
140
1.0
102
RTVSPost2010PropOp57
 70
     1
102
RTVSPropertyOp0
 70
     1
102
RTVSPropertyOp1
 70
     1
102
RTVSPropertyOp2
 70
     1
102
RTVSPropertyOp3
 70
     1
102
RTVSPropertyOp4
 70
     1
102
RTVSPropertyOp5
 70
     1
102
RTVSPropertyOp6
 70
     1
102
RTVSPropertyOp7
 70
     1
102
RTVSPropertyOp8
 70
     1
102
RTVSPropertyOp9
 70
     1
102
RTVSPropertyOp10
 70
     1
102
RTVSPropertyOp11
 70
     1
102
RTVSPropertyOp12
 70
     1
102
RTVSPropertyOp13
 70
     1
102
RTVSPropertyOp14
 70
     1
102
RTVSPropertyOp15
 70
     1
102
RTVSPropertyOp16
 70
     1
102
RTVSPropertyOp17
 70
     1
102
RTVSPropertyOp18
 70
     1
102
RTVSPropertyOp19
 70
     1
102
RTVSPropertyOp20
 70
     1
102
RTVSPropertyOp21
 70
     1
102
RTVSPropertyOp22
 70
     1
102
RTVSPropertyOp23
 70
     1
102
RTVSPropertyOp24
 70
     1
102
RTVSPropertyOp25
 70
     1
102
RTVSPropertyOp26
 70
     1
102
RTVSPropertyOp27
 70
     1
102
RTVSPropertyOp28
 70
     1
102
RTVSPropertyOp29
 70
     1
102
RTVSPropertyOp30
 70
     1
102
RTVSPropertyOp31
 70
     1
102
RTVSPropertyOp32
 70
     1
102
RTVSPropertyOp33
 70
     1
102
RTVSPropertyOp34
 70
     1
102
RTVSPropertyOp35
 70
     1
102
RTVSPropertyOp36
 70
     1
102
RTVSPropertyOp37
 70
     1
102
RTVSPropertyOp38
 70
     1
102
RTVSPropertyOp39
 70
     1
102
RTVSPropertyOp40
 70
     1
102
RTVSPropertyOp41
 70
     1
102
RTVSPropertyOp42
 70
     1
102
RTVSPropertyOp43
 70
     1
102
RTVSPropertyOp44
 70
     1
102
RTVSPropertyOp45
 70
     1
102
RTVSPropertyOp46
 70
     1
102
RTVSPropertyOp47
 70
     1
102
RTVSPropertyOp48
 70
     1
102
RTVSPropertyOp49
 70
     1
102
RTVSPropertyOp50
 70
     1
102
RTVSPropertyOp51
 70
     0
102
RTVSPropertyOp52
 70
     0
102
RTVSPropertyOp53
 70
     1
102
RTVSPropertyOp54
 70
     1
102
RTVSPropertyOp55
 70
     1
102
RTVSPropertyOp56
 70
     1
102
RTVSPropertyOp57
 70
     1
102
RTVSPropertyOp58
 70
     1
102
RTVSPropertyOp59
 70
     1
102
RTVSPropertyOp60
 70
     1
102
RTVSPropertyOp61
 70
     1
102
RTVSPropertyOp62
 70
     1
  0
XRECORD
  5
4336
102
{ACAD_REACTORS
330
4335
102
}
330
4335
100
AcDbXrecord
280
     1
102
RTVSPost2010Prop28
280
     0
102
RTVSPost2010PropOp28
 70
     1
102
RTVSPost2010Prop29
280
     1
102
RTVSPost2010PropOp29
 70
     1
102
RTVSPost2010Prop30
280
     1
102
RTVSPost2010PropOp30
 70
     1
102
RTVSPost2010Prop31
280
     0
102
RTVSPost2010PropOp31
 70
     1
102
RTVSPost2010Prop32
280
     0
102
RTVSPost2010PropOp32
 70
     1
102
RTVSPost2010Prop33
280
     0
102
RTVSPost2010PropOp33
 70
     1
102
RTVSPost2010Prop34
280
     0
102
RTVSPost2010PropOp34
 70
     1
102
RTVSPost2010Prop35
280
     0
102
RTVSPost2010PropOp35
 70
     1
102
RTVSPost2010Prop36
280
     0
102
RTVSPost2010PropOp36
 70
     1
102
RTVSPost2010Prop37
 90
       50
102
RTVSPost2010PropOp37
 70
     1
102
RTVSPost2010Prop38
140
0.0
102
RTVSPost2010PropOp38
 70
     1
102
RTVSPost2010Prop39
140
1.0
102
RTVSPost2010PropOp39
 70
     1
102
RTVSPost2010Prop40
 90
        0
102
RTVSPost2010PropOp40
 70
     1
102
RTVSPost2010Prop41ColorIndex
 90
       18
102
RTVSPost2010Prop41ColorRGB
 90
        0
102
RTVSPost2010PropOp41
 70
     1
102
RTVSPost2010Prop42
 90
       50
102
RTVSPost2010PropOp42
 70
     1
102
RTVSPost2010Prop43
 90
        3
102
RTVSPost2010PropOp43
 70
     1
102
RTVSPost2010Prop44ColorIndex
 90
        5
102
RTVSPost2010Prop44ColorRGB
 90
      255
102
RTVSPost2010PropOp44
 70
     1
102
RTVSPost2010Prop45
280
     0
102
RTVSPost2010PropOp45
 70
     1
102
RTVSPost2010Prop46
 90
       50
102
RTVSPost2010PropOp46
 70
     1
102
RTVSPost2010Prop47
 90
       50
102
RTVSPost2010PropOp47
 70
     1
102
RTVSPost2010Prop48
 90
       50
102
RTVSPost2010PropOp48
 70
     1
102
RTVSPost2010Prop49
280
     0
102
RTVSPost2010PropOp49
 70
     1
102
RTVSPost2010Prop50
 90
       50
102
RTVSPost2010PropOp50
 70
     1
102
RTVSPost2010Prop51ColorIndex
 90
      256
102
RTVSPost2010Prop51ColorRGB
 90
-16777216
102
RTVSPost2010PropOp51
 70
     0
102
RTVSPost2010Prop52
140
1.0
102
RTVSPost2010PropOp52
 70
     0
102
RTVSPost2010Prop53
 90
        2
102
RTVSPost2010PropOp53
 70
     1
102
RTVSPost2010Prop54
  1
strokes_ogs.tif
102
RTVSPost2010PropOp54
 70
     1
102
RTVSPost2010Prop55
280
     0
102
RTVSPost2010PropOp55
 70
     1
102
RTVSPost2010Prop56
140
1.0
102
RTVSPost2010PropOp56
 70
     1
102
RTVSPost2010Prop57
140
1.0
102
RTVSPost2010PropOp57
 70
     1
102
RTVSPropertyOp0
 70
     1
102
RTVSPropertyOp1
 70
     1
102
RTVSPropertyOp2
 70
     1
102
RTVSPropertyOp3
 70
     1
102
RTVSPropertyOp4
 70
     1
102
RTVSPropertyOp5
 70
     1
102
RTVSPropertyOp6
 70
     1
102
RTVSPropertyOp7
 70
     1
102
RTVSPropertyOp8
 70
     1
102
RTVSPropertyOp9
 70
     1
102
RTVSPropertyOp10
 70
     1
102
RTVSPropertyOp11
 70
     1
102
RTVSPropertyOp12
 70
     1
102
RTVSPropertyOp13
 70
     1
102
RTVSPropertyOp14
 70
     1
102
RTVSPropertyOp15
 70
     1
102
RTVSPropertyOp16
 70
     1
102
RTVSPropertyOp17
 70
     1
102
RTVSPropertyOp18
 70
     1
102
RTVSPropertyOp19
 70
     1
102
RTVSPropertyOp20
 70
     1
102
RTVSPropertyOp21
 70
     1
102
RTVSPropertyOp22
 70
     1
102
RTVSPropertyOp23
 70
     1
102
RTVSPropertyOp24
 70
     1
102
RTVSPropertyOp25
 70
     1
102
RTVSPropertyOp26
 70
     1
102
RTVSPropertyOp27
 70
     1
102
RTVSPropertyOp28
 70
     1
102
RTVSPropertyOp29
 70
     1
102
RTVSPropertyOp30
 70
     1
102
RTVSPropertyOp31
 70
     1
102
RTVSPropertyOp32
 70
     1
102
RTVSPropertyOp33
 70
     1
102
RTVSPropertyOp34
 70
     1
102
RTVSPropertyOp35
 70
     1
102
RTVSPropertyOp36
 70
     1
102
RTVSPropertyOp37
 70
     1
102
RTVSPropertyOp38
 70
     1
102
RTVSPropertyOp39
 70
     1
102
RTVSPropertyOp40
 70
     1
102
RTVSPropertyOp41
 70
     1
102
RTVSPropertyOp42
 70
     1
102
RTVSPropertyOp43
 70
     1
102
RTVSPropertyOp44
 70
     1
102
RTVSPropertyOp45
 70
     1
102
RTVSPropertyOp46
 70
     1
102
RTVSPropertyOp47
 70
     1
102
RTVSPropertyOp48
 70
     1
102
RTVSPropertyOp49
 70
     1
102
RTVSPropertyOp50
 70
     1
102
RTVSPropertyOp51
 70
     0
102
RTVSPropertyOp52
 70
     0
102
RTVSPropertyOp53
 70
     1
102
RTVSPropertyOp54
 70
     1
102
RTVSPropertyOp55
 70
     1
102
RTVSPropertyOp56
 70
     1
102
RTVSPropertyOp57
 70
     1
102
RTVSPropertyOp58
 70
     1
102
RTVSPropertyOp59
 70
     1
102
RTVSPropertyOp60
 70
     1
102
RTVSPropertyOp61
 70
     1
102
RTVSPropertyOp62
 70
     1
  0
XRECORD
  5
432A
102
{ACAD_REACTORS
330
4329
102
}
330
4329
100
AcDbXrecord
280
     1
102
RTVSPost2010Prop28
280
     0
102
RTVSPost2010PropOp28
 70
     1
102
RTVSPost2010Prop29
280
     1
102
RTVSPost2010PropOp29
 70
     1
102
RTVSPost2010Prop30
280
     1
102
RTVSPost2010PropOp30
 70
     1
102
RTVSPost2010Prop31
280
     0
102
RTVSPost2010PropOp31
 70
     1
102
RTVSPost2010Prop32
280
     0
102
RTVSPost2010PropOp32
 70
     1
102
RTVSPost2010Prop33
280
     0
102
RTVSPost2010PropOp33
 70
     1
102
RTVSPost2010Prop34
280
     0
102
RTVSPost2010PropOp34
 70
     1
102
RTVSPost2010Prop35
280
     0
102
RTVSPost2010PropOp35
 70
     1
102
RTVSPost2010Prop36
280
     0
102
RTVSPost2010PropOp36
 70
     1
102
RTVSPost2010Prop37
 90
       50
102
RTVSPost2010PropOp37
 70
     1
102
RTVSPost2010Prop38
140
0.0
102
RTVSPost2010PropOp38
 70
     1
102
RTVSPost2010Prop39
140
1.0
102
RTVSPost2010PropOp39
 70
     1
102
RTVSPost2010Prop40
 90
        0
102
RTVSPost2010PropOp40
 70
     1
102
RTVSPost2010Prop41ColorIndex
 90
       18
102
RTVSPost2010Prop41ColorRGB
 90
        0
102
RTVSPost2010PropOp41
 70
     1
102
RTVSPost2010Prop42
 90
       50
102
RTVSPost2010PropOp42
 70
     1
102
RTVSPost2010Prop43
 90
        3
102
RTVSPost2010PropOp43
 70
     1
102
RTVSPost2010Prop44ColorIndex
 90
        5
102
RTVSPost2010Prop44ColorRGB
 90
      255
102
RTVSPost2010PropOp44
 70
     1
102
RTVSPost2010Prop45
280
     0
102
RTVSPost2010PropOp45
 70
     1
102
RTVSPost2010Prop46
 90
       50
102
RTVSPost2010PropOp46
 70
     1
102
RTVSPost2010Prop47
 90
       50
102
RTVSPost2010PropOp47
 70
     1
102
RTVSPost2010Prop48
 90
       50
102
RTVSPost2010PropOp48
 70
     1
102
RTVSPost2010Prop49
280
     0
102
RTVSPost2010PropOp49
 70
     1
102
RTVSPost2010Prop50
 90
       50
102
RTVSPost2010PropOp50
 70
     1
102
RTVSPost2010Prop51ColorIndex
 90
      256
102
RTVSPost2010Prop51ColorRGB
 90
-16777216
102
RTVSPost2010PropOp51
 70
     0
102
RTVSPost2010Prop52
140
1.0
102
RTVSPost2010PropOp52
 70
     0
102
RTVSPost2010Prop53
 90
        2
102
RTVSPost2010PropOp53
 70
     1
102
RTVSPost2010Prop54
  1
strokes_ogs.tif
102
RTVSPost2010PropOp54
 70
     1
102
RTVSPost2010Prop55
280
     0
102
RTVSPost2010PropOp55
 70
     1
102
RTVSPost2010Prop56
140
1.0
102
RTVSPost2010PropOp56
 70
     1
102
RTVSPost2010Prop57
140
1.0
102
RTVSPost2010PropOp57
 70
     1
102
RTVSPropertyOp0
 70
     1
102
RTVSPropertyOp1
 70
     1
102
RTVSPropertyOp2
 70
     1
102
RTVSPropertyOp3
 70
     1
102
RTVSPropertyOp4
 70
     1
102
RTVSPropertyOp5
 70
     1
102
RTVSPropertyOp6
 70
     1
102
RTVSPropertyOp7
 70
     1
102
RTVSPropertyOp8
 70
     1
102
RTVSPropertyOp9
 70
     1
102
RTVSPropertyOp10
 70
     1
102
RTVSPropertyOp11
 70
     1
102
RTVSPropertyOp12
 70
     1
102
RTVSPropertyOp13
 70
     1
102
RTVSPropertyOp14
 70
     1
102
RTVSPropertyOp15
 70
     1
102
RTVSPropertyOp16
 70
     1
102
RTVSPropertyOp17
 70
     1
102
RTVSPropertyOp18
 70
     1
102
RTVSPropertyOp19
 70
     1
102
RTVSPropertyOp20
 70
     1
102
RTVSPropertyOp21
 70
     1
102
RTVSPropertyOp22
 70
     1
102
RTVSPropertyOp23
 70
     1
102
RTVSPropertyOp24
 70
     1
102
RTVSPropertyOp25
 70
     1
102
RTVSPropertyOp26
 70
     1
102
RTVSPropertyOp27
 70
     1
102
RTVSPropertyOp28
 70
     1
102
RTVSPropertyOp29
 70
     1
102
RTVSPropertyOp30
 70
     1
102
RTVSPropertyOp31
 70
     1
102
RTVSPropertyOp32
 70
     1
102
RTVSPropertyOp33
 70
     1
102
RTVSPropertyOp34
 70
     1
102
RTVSPropertyOp35
 70
     1
102
RTVSPropertyOp36
 70
     1
102
RTVSPropertyOp37
 70
     1
102
RTVSPropertyOp38
 70
     1
102
RTVSPropertyOp39
 70
     1
102
RTVSPropertyOp40
 70
     1
102
RTVSPropertyOp41
 70
     1
102
RTVSPropertyOp42
 70
     1
102
RTVSPropertyOp43
 70
     1
102
RTVSPropertyOp44
 70
     1
102
RTVSPropertyOp45
 70
     1
102
RTVSPropertyOp46
 70
     1
102
RTVSPropertyOp47
 70
     1
102
RTVSPropertyOp48
 70
     1
102
RTVSPropertyOp49
 70
     1
102
RTVSPropertyOp50
 70
     1
102
RTVSPropertyOp51
 70
     0
102
RTVSPropertyOp52
 70
     0
102
RTVSPropertyOp53
 70
     1
102
RTVSPropertyOp54
 70
     1
102
RTVSPropertyOp55
 70
     1
102
RTVSPropertyOp56
 70
     1
102
RTVSPropertyOp57
 70
     1
102
RTVSPropertyOp58
 70
     1
102
RTVSPropertyOp59
 70
     1
102
RTVSPropertyOp60
 70
     1
102
RTVSPropertyOp61
 70
     1
102
RTVSPropertyOp62
 70
     1
  0
XRECORD
  5
4342
102
{ACAD_REACTORS
330
4341
102
}
330
4341
100
AcDbXrecord
280
     1
102
RTVSPost2010Prop28
280
     0
102
RTVSPost2010PropOp28
 70
     1
102
RTVSPost2010Prop29
280
     1
102
RTVSPost2010PropOp29
 70
     1
102
RTVSPost2010Prop30
280
     1
102
RTVSPost2010PropOp30
 70
     1
102
RTVSPost2010Prop31
280
     0
102
RTVSPost2010PropOp31
 70
     1
102
RTVSPost2010Prop32
280
     0
102
RTVSPost2010PropOp32
 70
     1
102
RTVSPost2010Prop33
280
     0
102
RTVSPost2010PropOp33
 70
     1
102
RTVSPost2010Prop34
280
     0
102
RTVSPost2010PropOp34
 70
     1
102
RTVSPost2010Prop35
280
     0
102
RTVSPost2010PropOp35
 70
     1
102
RTVSPost2010Prop36
280
     0
102
RTVSPost2010PropOp36
 70
     1
102
RTVSPost2010Prop37
 90
       50
102
RTVSPost2010PropOp37
 70
     1
102
RTVSPost2010Prop38
140
0.0
102
RTVSPost2010PropOp38
 70
     1
102
RTVSPost2010Prop39
140
1.0
102
RTVSPost2010PropOp39
 70
     1
102
RTVSPost2010Prop40
 90
        0
102
RTVSPost2010PropOp40
 70
     1
102
RTVSPost2010Prop41ColorIndex
 90
       18
102
RTVSPost2010Prop41ColorRGB
 90
        0
102
RTVSPost2010PropOp41
 70
     1
102
RTVSPost2010Prop42
 90
       50
102
RTVSPost2010PropOp42
 70
     1
102
RTVSPost2010Prop43
 90
        3
102
RTVSPost2010PropOp43
 70
     1
102
RTVSPost2010Prop44ColorIndex
 90
        5
102
RTVSPost2010Prop44ColorRGB
 90
      255
102
RTVSPost2010PropOp44
 70
     1
102
RTVSPost2010Prop45
280
     0
102
RTVSPost2010PropOp45
 70
     1
102
RTVSPost2010Prop46
 90
       50
102
RTVSPost2010PropOp46
 70
     1
102
RTVSPost2010Prop47
 90
       50
102
RTVSPost2010PropOp47
 70
     1
102
RTVSPost2010Prop48
 90
       50
102
RTVSPost2010PropOp48
 70
     1
102
RTVSPost2010Prop49
280
     0
102
RTVSPost2010PropOp49
 70
     1
102
RTVSPost2010Prop50
 90
       50
102
RTVSPost2010PropOp50
 70
     1
102
RTVSPost2010Prop51ColorIndex
 90
      256
102
RTVSPost2010Prop51ColorRGB
 90
-16777216
102
RTVSPost2010PropOp51
 70
     0
102
RTVSPost2010Prop52
140
1.0
102
RTVSPost2010PropOp52
 70
     0
102
RTVSPost2010Prop53
 90
        2
102
RTVSPost2010PropOp53
 70
     1
102
RTVSPost2010Prop54
  1
strokes_ogs.tif
102
RTVSPost2010PropOp54
 70
     1
102
RTVSPost2010Prop55
280
     0
102
RTVSPost2010PropOp55
 70
     1
102
RTVSPost2010Prop56
140
1.0
102
RTVSPost2010PropOp56
 70
     1
102
RTVSPost2010Prop57
140
1.0
102
RTVSPost2010PropOp57
 70
     1
102
RTVSPropertyOp0
 70
     1
102
RTVSPropertyOp1
 70
     1
102
RTVSPropertyOp2
 70
     1
102
RTVSPropertyOp3
 70
     1
102
RTVSPropertyOp4
 70
     1
102
RTVSPropertyOp5
 70
     1
102
RTVSPropertyOp6
 70
     1
102
RTVSPropertyOp7
 70
     1
102
RTVSPropertyOp8
 70
     1
102
RTVSPropertyOp9
 70
     1
102
RTVSPropertyOp10
 70
     1
102
RTVSPropertyOp11
 70
     1
102
RTVSPropertyOp12
 70
     1
102
RTVSPropertyOp13
 70
     1
102
RTVSPropertyOp14
 70
     1
102
RTVSPropertyOp15
 70
     1
102
RTVSPropertyOp16
 70
     1
102
RTVSPropertyOp17
 70
     1
102
RTVSPropertyOp18
 70
     1
102
RTVSPropertyOp19
 70
     1
102
RTVSPropertyOp20
 70
     1
102
RTVSPropertyOp21
 70
     1
102
RTVSPropertyOp22
 70
     1
102
RTVSPropertyOp23
 70
     1
102
RTVSPropertyOp24
 70
     1
102
RTVSPropertyOp25
 70
     1
102
RTVSPropertyOp26
 70
     1
102
RTVSPropertyOp27
 70
     1
102
RTVSPropertyOp28
 70
     1
102
RTVSPropertyOp29
 70
     1
102
RTVSPropertyOp30
 70
     1
102
RTVSPropertyOp31
 70
     1
102
RTVSPropertyOp32
 70
     1
102
RTVSPropertyOp33
 70
     1
102
RTVSPropertyOp34
 70
     1
102
RTVSPropertyOp35
 70
     1
102
RTVSPropertyOp36
 70
     1
102
RTVSPropertyOp37
 70
     1
102
RTVSPropertyOp38
 70
     1
102
RTVSPropertyOp39
 70
     1
102
RTVSPropertyOp40
 70
     1
102
RTVSPropertyOp41
 70
     1
102
RTVSPropertyOp42
 70
     1
102
RTVSPropertyOp43
 70
     1
102
RTVSPropertyOp44
 70
     1
102
RTVSPropertyOp45
 70
     1
102
RTVSPropertyOp46
 70
     1
102
RTVSPropertyOp47
 70
     1
102
RTVSPropertyOp48
 70
     1
102
RTVSPropertyOp49
 70
     1
102
RTVSPropertyOp50
 70
     1
102
RTVSPropertyOp51
 70
     0
102
RTVSPropertyOp52
 70
     0
102
RTVSPropertyOp53
 70
     1
102
RTVSPropertyOp54
 70
     1
102
RTVSPropertyOp55
 70
     1
102
RTVSPropertyOp56
 70
     1
102
RTVSPropertyOp57
 70
     1
102
RTVSPropertyOp58
 70
     1
102
RTVSPropertyOp59
 70
     1
102
RTVSPropertyOp60
 70
     1
102
RTVSPropertyOp61
 70
     1
102
RTVSPropertyOp62
 70
     1
  0
ENDSEC
  0
EOF
