  0
SECTION
  2
HEADER
  9
$ACADVER
  1
AC1014
  9
$ACADMAINTVER
 70
     9
  9
$DWGCODEPAGE
  3
ANSI_1252
  9
$INSBASE
 10
-81.56527983378714
 20
34.73869848653773
 30
0.0
  9
$EXTMIN
 10
-99.56734452811019
 20
32.27033834672752
 30
0.0
  9
$EXTMAX
 10
-63.56408615361379
 20
57.43771588391539
 30
0.0000000000000152
  9
$LIMMIN
 10
0.0
 20
0.0
  9
$LIMMAX
 10
17.0
 20
11.0
  9
$ORTHOMODE
 70
     1
  9
$REGENMODE
 70
     1
  9
$FILLMODE
 70
     1
  9
$QTEXTMODE
 70
     0
  9
$MIRRTEXT
 70
     1
  9
$DRAGMODE
 70
     2
  9
$LTSCALE
 40
12.0
  9
$OSMODE
 70
    55
  9
$ATTMODE
 70
     1
  9
$TEXTSIZE
 40
0.2
  9
$TRACEWID
 40
0.05
  9
$TEXTSTYLE
  7
STANDARD
  9
$CLAYER
  8
0
  9
$CELTYPE
  6
BYLAYER
  9
$CECOLOR
 62
   256
  9
$CELTSCALE
 40
1.0
  9
$DELOBJ
 70
     1
  9
$DISPSILH
 70
     0
  9
$DIMSCALE
 40
16.0
  9
$DIMASZ
 40
0.1875
  9
$DIMEXO
 40
0.10625
  9
$DIMDLI
 40
0.646
  9
$DIMRND
 40
0.0
  9
$DIMDLE
 40
0.0
  9
$DIMEXE
 40
0.306
  9
$DIMTP
 40
0.0
  9
$DIMTM
 40
0.0
  9
$DIMTXT
 40
0.125
  9
$DIMCEN
 40
0.153
  9
$DIMTSZ
 40
0.0
  9
$DIMTOL
 70
     0
  9
$DIMLIM
 70
     0
  9
$DIMTIH
 70
     1
  9
$DIMTOH
 70
     1
  9
$DIMSE1
 70
     0
  9
$DIMSE2
 70
     0
  9
$DIMTAD
 70
     0
  9
$DIMZIN
 70
     0
  9
$DIMBLK
  1
_FILLED
  9
$DIMASO
 70
     1
  9
$DIMSHO
 70
     1
  9
$DIMPOST
  1

  9
$DIMAPOST
  1

  9
$DIMALT
 70
     0
  9
$DIMALTD
 70
     2
  9
$DIMALTF
 40
25.4
  9
$DIMLFAC
 40
1.0
  9
$DIMTOFL
 70
     0
  9
$DIMTVP
 40
0.0
  9
$DIMTIX
 70
     0
  9
$DIMSOXD
 70
     0
  9
$DIMSAH
 70
     1
  9
$DIMBLK1
  1
_FILLED
  9
$DIMBLK2
  1
_FILLED
  9
$DIMSTYLE
  2
STANDARD
  9
$DIMCLRD
 70
     0
  9
$DIMCLRE
 70
     0
  9
$DIMCLRT
 70
     0
  9
$DIMTFAC
 40
1.0
  9
$DIMGAP
 40
0.09
  9
$DIMJUST
 70
     0
  9
$DIMSD1
 70
     0
  9
$DIMSD2
 70
     0
  9
$DIMTOLJ
 70
     1
  9
$DIMTZIN
 70
     0
  9
$DIMALTZ
 70
     0
  9
$DIMALTTZ
 70
     0
  9
$DIMFIT
 70
     3
  9
$DIMUPT
 70
     0
  9
$DIMUNIT
 70
     2
  9
$DIMDEC
 70
     4
  9
$DIMTDEC
 70
     4
  9
$DIMALTU
 70
     2
  9
$DIMALTTD
 70
     2
  9
$DIMTXSTY
  7
STANDARD
  9
$DIMAUNIT
 70
     0
  9
$LUNITS
 70
     2
  9
$LUPREC
 70
     4
  9
$SKETCHINC
 40
0.1
  9
$FILLETRAD
 40
0.0
  9
$AUNITS
 70
     0
  9
$AUPREC
 70
     0
  9
$MENU
  1
acad
  9
$ELEVATION
 40
0.0
  9
$PELEVATION
 40
0.0
  9
$THICKNESS
 40
0.0
  9
$LIMCHECK
 70
     0
  9
$BLIPMODE
 70
     0
  9
$CHAMFERA
 40
0.0
  9
$CHAMFERB
 40
0.0
  9
$CHAMFERC
 40
0.0
  9
$CHAMFERD
 40
0.0
  9
$SKPOLY
 70
     0
  9
$TDCREATE
 40
2453683.493156655
  9
$TDUPDATE
 40
2453689.475585544
  9
$TDINDWG
 40
0.0128620255
  9
$TDUSRTIMER
 40
0.0128620255
  9
$USRTIMER
 70
     1
  9
$ANGBASE
 50
0.0
  9
$ANGDIR
 70
     0
  9
$PDMODE
 70
     3
  9
$PDSIZE
 40
0.3125
  9
$PLINEWID
 40
0.0
  9
$COORDS
 70
     1
  9
$SPLFRAME
 70
     0
  9
$SPLINETYPE
 70
     6
  9
$SPLINESEGS
 70
     8
  9
$ATTDIA
 70
     0
  9
$ATTREQ
 70
     1
  9
$HANDLING
 70
 22529
  9
$HANDSEED
  5
101
  9
$SURFTAB1
 70
     6
  9
$SURFTAB2
 70
     6
  9
$SURFTYPE
 70
     6
  9
$SURFU
 70
     6
  9
$SURFV
 70
     6
  9
$UCSNAME
  2

  9
$UCSORG
 10
0.0
 20
0.0
 30
0.0
  9
$UCSXDIR
 10
1.0
 20
0.0
 30
0.0
  9
$UCSYDIR
 10
0.0
 20
1.0
 30
0.0
  9
$PUCSNAME
  2

  9
$PUCSORG
 10
0.0
 20
0.0
 30
0.0
  9
$PUCSXDIR
 10
1.0
 20
0.0
 30
0.0
  9
$PUCSYDIR
 10
0.0
 20
1.0
 30
0.0
  9
$USERI1
 70
     0
  9
$USERI2
 70
     0
  9
$USERI3
 70
     0
  9
$USERI4
 70
     0
  9
$USERI5
 70
     0
  9
$USERR1
 40
0.0
  9
$USERR2
 40
0.0
  9
$USERR3
 40
0.0
  9
$USERR4
 40
0.0
  9
$USERR5
 40
0.0
  9
$WORLDVIEW
 70
     1
  9
$SHADEDGE
 70
     3
  9
$SHADEDIF
 70
    70
  9
$TILEMODE
 70
     1
  9
$MAXACTVP
 70
    16
  9
$PINSBASE
 10
0.0
 20
0.0
 30
0.0
  9
$PLIMCHECK
 70
     0
  9
$PEXTMIN
 10
1.000000000000000E+20
 20
1.000000000000000E+20
 30
1.000000000000000E+20
  9
$PEXTMAX
 10
-1.000000000000000E+20
 20
-1.000000000000000E+20
 30
-1.000000000000000E+20
  9
$PLIMMIN
 10
0.0
 20
0.0
  9
$PLIMMAX
 10
12.0
 20
9.0
  9
$UNITMODE
 70
     0
  9
$VISRETAIN
 70
     0
  9
$PLINEGEN
 70
     1
  9
$PSLTSCALE
 70
     0
  9
$TREEDEPTH
 70
  3020
  9
$PICKSTYLE
 70
     1
  9
$CMLSTYLE
  2
STANDARD
  9
$CMLJUST
 70
     0
  9
$CMLSCALE
 40
1.0
  9
$PROXYGRAPHICS
 70
     0
  9
$MEASUREMENT
 70
     0
  0
ENDSEC
  0
SECTION
  2
CLASSES
  0
CLASS
  1
ACDBDICTIONARYWDFLT
  2
AcDbDictionaryWithDefault
  3
AutoCAD 2000
 90
        0
280
     1
281
     0
  0
CLASS
  1
ACDBPLACEHOLDER
  2
AcDbPlaceHolder
  3
AutoCAD 2000
 90
        0
280
     1
281
     0
  0
CLASS
  1
LAYOUT
  2
AcDbLayout
  3
AutoCAD 2000
 90
        0
280
     1
281
     0
  0
CLASS
  1
LWPOLYLINE
  2
AcDbPolyline
  3
AutoCAD 2000
 90
        0
280
     0
281
     1
  0
CLASS
  1
IMAGE
  2
AcDbRasterImage
  3
ISM
 90
      127
280
     1
281
     1
  0
CLASS
  1
OLE2FRAME
  2
AcDbOle2Frame
  3
AutoCAD 2000
 90
        0
280
     0
281
     1
  0
CLASS
  1
HATCH
  2
AcDbHatch
  3
AutoCAD 2000
 90
        0
280
     0
281
     1
  0
CLASS
  1
DICTIONARYVAR
  2
AcDbDictionaryVar
  3
AutoCAD 2000
 90
        0
280
     0
281
     0
  0
CLASS
  1
RASTERVARIABLES
  2
AcDbRasterVariables
  3
ISM
 90
        0
280
     1
281
     0
  0
CLASS
  1
IMAGEDEF
  2
AcDbRasterImageDef
  3
ISM
 90
        0
280
     1
281
     0
  0
CLASS
  1
IMAGEDEF_REACTOR
  2
AcDbRasterImageDefReactor
  3
ISM
 90
        1
280
     1
281
     0
  0
CLASS
  1
IDBUFFER
  2
AcDbIdBuffer
  3
AutoCAD 2000
 90
        0
280
     0
281
     0
  0
CLASS
  1
SPATIAL_FILTER
  2
AcDbSpatialFilter
  3
AutoCAD 2000
 90
        0
280
     0
281
     0
  0
CLASS
  1
XRECORD
  2
AcDbXrecord
  3
AutoCAD 2000
 90
        0
280
     0
281
     0
  0
CLASS
  1
SORTENTSTABLE
  2
AcDbSortentsTable
  3
AutoCAD 2000
 90
        0
280
     0
281
     0
  0
CLASS
  1
LAYER_INDEX
  2
AcDbLayerIndex
  3
AutoCAD 2000
 90
        0
280
     0
281
     0
  0
CLASS
  1
SPATIAL_INDEX
  2
AcDbSpatialIndex
  3
AutoCAD 2000
 90
        0
280
     0
281
     0
  0
CLASS
  1
OBJECT_PTR
  2
CAseDLPNTableRecord
  3
ASE-LPNTableRecord
 90
        1
280
     0
281
     0
  0
CLASS
  1
PLOTSETTINGS
  2
AcDbPlotSettings
  3
AutoCAD 2000
 90
        0
280
     1
281
     0
  0
CLASS
  1
VBA_PROJECT
  2
AcDbVbaProject
  3
acadvba
 90
        0
280
     1
281
     0
  0
CLASS
  1
WIPEOUT
  2
AcDbWipeout
  3
WipeOut|AutoCAD Express Tool|expresstools@autodesk.com
 90
      127
280
     1
281
     1
  0
CLASS
  1
WIPEOUTVARIABLES
  2
AcDbWipeoutVariables
  3
WipeOut|AutoCAD Express Tool|expresstools@autodesk.com
 90
        0
280
     1
281
     0
  0
CLASS
  1
RTEXT
  2
RText
  3
RText|AutoCAD Express Tool|expresstools@autodesk.com
 90
        0
280
     1
281
     1
  0
CLASS
  1
ARCALIGNEDTEXT
  2
AcDbArcAlignedText
  3
ATEXT|AutoCAD Express Tool|expresstools@autodesk.com
 90
        0
280
     1
281
     1
  0
CLASS
  1
LONG_TRANSACTION
  2
AcDbLongTransaction
  3
AutoCAD 2000
 90
        0
280
     1
281
     0
  0
CLASS
  1
LWPOLYLINE
  2
AcDbPolyline
  3
AutoCAD 2000
 90
        0
280
     0
281
     1
  0
CLASS
  1
HATCH
  2
AcDbHatch
  3
AutoCAD 2000
 90
        0
280
     0
281
     1
  0
CLASS
  1
XRECORD
  2
AcDbXrecord
  3
AutoCAD 2000
 90
        0
280
     0
281
     0
  0
CLASS
  1
LONG_TRANSACTION
  2
AcDbLongTransaction
  3
AutoCAD 2000
 90
        0
280
     0
281
     0
  0
CLASS
  1
LWPOLYLINE
  2
AcDbPolyline
  3
AutoCAD 2000
 90
        0
280
     0
281
     1
  0
CLASS
  1
HATCH
  2
AcDbHatch
  3
AutoCAD 2000
 90
        0
280
     0
281
     1
  0
CLASS
  1
XRECORD
  2
AcDbXrecord
  3
AutoCAD 2000
 90
        0
280
     0
281
     0
  0
ENDSEC
  0
SECTION
  2
TABLES
  0
TABLE
  2
VPORT
  5
1A
330
0
100
AcDbSymbolTable
 70
     3
  0
VPORT
  5
DD
330
1A
100
AcDbSymbolTableRecord
100
AcDbViewportTableRecord
  2
*ACTIVE
 70
     0
 10
0.0
 20
0.0
 11
1.0
 21
1.0
 12
-81.56571581336484
 22
44.85402691676166
 13
0.0
 23
0.0
 14
1.0
 24
1.0
 15
0.0
 25
0.0
 16
0.0
 26
0.0
 36
1.0
 17
0.0
 27
0.0
 37
0.0
 40
30.54210538187786
 41
1.786792452830188
 42
50.0
 43
0.0
 44
0.0
 50
0.0
 51
0.0
 71
     0
 72
   100
 73
     1
 74
     1
 75
     0
 76
     0
 77
     0
 78
     0
  0
ENDTAB
  0
TABLE
  2
LTYPE
  5
11
330
0
100
AcDbSymbolTable
 70
     3
  0
LTYPE
  5
12
330
11
100
AcDbSymbolTableRecord
100
AcDbLinetypeTableRecord
  2
BYBLOCK
 70
     0
  3

 72
    65
 73
     0
 40
0.0
  0
LTYPE
  5
15
330
11
100
AcDbSymbolTableRecord
100
AcDbLinetypeTableRecord
  2
BYLAYER
 70
     0
  3

 72
    65
 73
     0
 40
0.0
  0
LTYPE
  5
7
330
11
100
AcDbSymbolTableRecord
100
AcDbLinetypeTableRecord
  2
CONTINUOUS
 70
     0
  3
Solid line
 72
    65
 73
     0
 40
0.0
  0
LTYPE
  5
32
330
11
100
AcDbSymbolTableRecord
100
AcDbLinetypeTableRecord
  2
CENTER
 70
     0
  3
____ _ ____ _ ____ _ ____ _ ____ _ ____ _ ____
 72
    65
 73
     4
 40
0.6
 49
0.375
 74
     0
 49
-0.075
 74
     0
 49
0.075
 74
     0
 49
-0.075
 74
     0
  0
LTYPE
  5
78
330
11
100
AcDbSymbolTableRecord
100
AcDbLinetypeTableRecord
  2
HIDDEN
 70
     0
  3
- - - - - - - - - - - - - - - - - - - -
 72
    65
 73
     2
 40
0.2
 49
0.1
 74
     0
 49
-0.1
 74
     0
  0
ENDTAB
  0
TABLE
  2
LAYER
  5
E
330
0
100
AcDbSymbolTable
 70
     1
  0
LAYER
  5
6
330
E
100
AcDbSymbolTableRecord
100
AcDbLayerTableRecord
  2
0
 70
     0
 62
     7
  6
CONTINUOUS
  0
ENDTAB
  0
TABLE
  2
STYLE
  5
F
330
0
100
AcDbSymbolTable
 70
     1
  0
STYLE
  5
10
330
F
100
AcDbSymbolTableRecord
100
AcDbTextStyleTableRecord
  2
STANDARD
 70
     0
 40
0.0
 41
0.8
 50
0.0
 71
     0
 42
0.2
  3
txt
  4

  0
ENDTAB
  0
TABLE
  2
VIEW
  5
18
330
0
100
AcDbSymbolTable
 70
     0
  0
ENDTAB
  0
TABLE
  2
UCS
  5
19
330
0
100
AcDbSymbolTable
 70
     0
  0
ENDTAB
  0
TABLE
  2
APPID
  5
1C
330
0
100
AcDbSymbolTable
 70
     1
  0
APPID
  5
1D
330
1C
100
AcDbSymbolTableRecord
100
AcDbRegAppTableRecord
  2
ACAD
 70
     0
  0
ENDTAB
  0
TABLE
  2
DIMSTYLE
  5
1E
330
0
100
AcDbSymbolTable
 70
     1
  0
DIMSTYLE
105
26
330
1E
100
AcDbSymbolTableRecord
100
AcDbDimStyleTableRecord
  2
STANDARD
 70
     0
  3

  4

  5
_FILLED
  6
_FILLED
  7
_FILLED
 40
1.0
 41
0.1875
 42
0.10625
 43
0.646
 44
0.306
 45
0.0
 46
0.0
 47
0.0
 48
0.0
140
0.125
141
0.153
142
0.0
143
25.4
144
1.0
145
0.0
146
1.0
147
0.09
 71
     0
 72
     0
 73
     1
 74
     1
 75
     0
 76
     0
 77
     0
 78
     0
170
     0
171
     2
172
     0
173
     0
174
     0
175
     0
176
     0
177
     0
178
     0
270
     2
271
     4
272
     4
273
     2
274
     2
340
10
275
     0
280
     0
281
     0
282
     0
283
     1
284
     0
285
     0
286
     0
287
     3
288
     0
  0
ENDTAB
  0
TABLE
  2
BLOCK_RECORD
  5
1
330
0
100
AcDbSymbolTable
 70
     1
  0
BLOCK_RECORD
  5
2
102
{ACAD_XDICTIONARY
360
3
102
}
330
1
100
AcDbSymbolTableRecord
100
AcDbBlockTableRecord
  2
*MODEL_SPACE
  0
BLOCK_RECORD
  5
9
102
{ACAD_XDICTIONARY
360
A
102
}
330
1
100
AcDbSymbolTableRecord
100
AcDbBlockTableRecord
  2
*PAPER_SPACE
  0
BLOCK_RECORD
  5
29
330
1
100
AcDbSymbolTableRecord
100
AcDbBlockTableRecord
  2
_FILLED
  0
ENDTAB
  0
ENDSEC
  0
SECTION
  2
BLOCKS
  0
BLOCK
  5
5
330
2
100
AcDbEntity
  8
0
100
AcDbBlockBegin
  2
*MODEL_SPACE
 70
     0
 10
0.0
 20
0.0
 30
0.0
  3
*MODEL_SPACE
  1

  0
ENDBLK
  5
8
330
2
100
AcDbEntity
  8
0
100
AcDbBlockEnd
  0
BLOCK
  5
C
330
9
100
AcDbEntity
 67
     1
  8
0
100
AcDbBlockBegin
  2
*PAPER_SPACE
 70
     0
 10
0.0
 20
0.0
 30
0.0
  3
*PAPER_SPACE
  1

  0
ENDBLK
  5
D
330
9
100
AcDbEntity
 67
     1
  8
0
100
AcDbBlockEnd
  0
BLOCK
  5
2B
330
29
100
AcDbEntity
  8
0
100
AcDbBlockBegin
  2
_FILLED
 70
     0
 10
0.0
 20
0.0
 30
0.0
  3
_FILLED
  1

  0
SOLID
  5
2A
330
29
100
AcDbEntity
  8
0
  6
BYBLOCK
 62
     0
100
AcDbTrace
 10
0.0
 20
0.0
 30
0.0
 11
-1.0
 21
0.1666666667
 31
0.0
 12
-1.0
 22
-0.1666666667
 32
0.0
 13
-1.0
 23
-0.1666666667
 33
0.0
  0
ENDBLK
  5
2C
330
29
100
AcDbEntity
  8
0
  6
BYBLOCK
 62
     0
100
AcDbBlockEnd
  0
ENDSEC
  0
SECTION
  2
ENTITIES
  0
LINE
  5
2D
330
2
100
AcDbEntity
  8
0
  6
CONTINUOUS
100
AcDbLine
 10
-63.66543771698712
 20
54.17885977293773
 30
0.0
 11
-99.46512195058714
 21
54.17885977453773
 31
0.0
  0
LINE
  5
2E
330
2
100
AcDbEntity
  8
0
  6
CONTINUOUS
100
AcDbLine
 10
-98.73216658258712
 20
54.86369848653773
 30
0.0
 11
-64.39839308658713
 21
54.86369848653773
 31
0.0
  0
LINE
  5
2F
330
2
100
AcDbEntity
  8
0
  6
CONTINUOUS
100
AcDbLine
 10
-99.56527983378714
 20
53.36369848653774
 30
0.0
 11
-63.56527983378715
 21
53.36369848653774
 31
0.0
  0
LWPOLYLINE
  5
30
330
2
100
AcDbEntity
  8
0
  6
CONTINUOUS
100
AcDbPolyline
 90
        5
 70
     0
 43
0.0
 10
-72.18036251058714
 20
36.57784996813773
 10
-71.89655999698715
 20
36.71203592173773
 10
-71.50811483538714
 20
36.95509682413773
 10
-71.07017228018714
 20
37.34911992013773
 10
-70.65892474738714
 20
37.93636194893773
  0
LINE
  5
31
330
2
100
AcDbEntity
  8
0
  6
CENTER
 62
     1
100
AcDbLine
 10
-81.56527983378714
 20
32.27240860211081
 30
0.0
 11
-81.56527983378714
 21
57.43229935291629
 31
0.0
  0
LWPOLYLINE
  5
33
330
2
100
AcDbEntity
  8
0
  6
CONTINUOUS
100
AcDbPolyline
 90
        7
 70
     0
 43
0.0
 10
-96.08308369146122
 20
53.36369848653774
 10
-95.78602041778713
 20
51.28262884333773
 10
-95.26680634578713
 20
48.30598117933774
 10
-94.67522126098714
 20
45.45177177773773
 10
-94.01323984818715
 20
43.07724064653773
 10
-93.29776960178714
 20
40.47541750093773
 10
-92.65967091538712
 20
38.39394337613773
  0
LINE
  5
34
330
2
100
AcDbEntity
  8
0
  6
CONTINUOUS
100
AcDbLine
 10
-89.09001391058714
 20
36.18314518893773
 30
0.0
 11
-88.24466992178713
 21
35.99094535373773
 31
0.0
  0
LWPOLYLINE
  5
35
330
2
100
AcDbEntity
  8
0
  6
CONTINUOUS
100
AcDbPolyline
 90
        3
 70
     0
 43
0.0
 10
-90.87188311058714
 20
36.55502330573773
 10
-90.56455418578712
 20
36.44706024813773
 10
-90.21815364978712
 20
36.35144401293773
  0
LINE
  5
36
330
2
100
AcDbEntity
  8
0
  6
CONTINUOUS
100
AcDbLine
 10
-90.21815364978712
 20
36.35144401293773
 30
0.0
 11
-89.87940537778715
 21
36.27637405773773
 31
0.0
  0
LWPOLYLINE
  5
37
330
2
100
AcDbEntity
  8
0
  6
CONTINUOUS
100
AcDbPolyline
 90
        6
 70
     0
 43
0.0
 10
-89.88270969298714
 20
36.27704011533773
 10
-89.78837145298715
 20
36.25934647853773
 10
-89.59824724978714
 20
36.23090613773773
 10
-89.41904120818714
 20
36.21067026733773
 10
-89.22903222898714
 20
36.19366674093773
 10
-89.08676703538715
 20
36.18291147533773
  0
LINE
  5
38
330
2
100
AcDbEntity
  8
0
  6
CONTINUOUS
100
AcDbLine
 10
-91.15834824978714
 20
36.68246210893773
 30
0.0
 11
-90.86895133618714
 21
36.55386495853773
 31
0.0
  0
LWPOLYLINE
  5
39
330
2
100
AcDbEntity
  8
0
  6
CONTINUOUS
100
AcDbPolyline
 90
        5
 70
     0
 43
0.0
 10
-92.65971003218714
 20
38.39403332973773
 10
-92.44578918898714
 20
37.89769968813773
 10
-92.00197896978712
 20
37.29606276493773
 10
-91.54820104178714
 20
36.91172808493773
 10
-91.15834824978714
 20
36.68246210893773
  0
ARC
  5
3A
330
2
100
AcDbEntity
  8
0
  6
CONTINUOUS
100
AcDbCircle
 10
-80.24205652978713
 20
35.86369848653773
 30
0.0
 40
0.34375
100
AcDbArc
 50
270.0
 51
315.0
  0
LINE
  5
3B
330
2
100
AcDbEntity
  8
0
  6
CONTINUOUS
100
AcDbLine
 10
-80.58648912178714
 20
35.87531805453773
 30
0.0
 11
-77.34604222098713
 21
35.92144469133773
 31
0.0
  0
LINE
  5
3C
330
2
100
AcDbEntity
  8
0
  6
CONTINUOUS
100
AcDbLine
 10
-86.07627945298714
 20
35.92707146733773
 30
0.0
 11
-84.33911006258714
 21
35.89589007373774
 31
0.0
  0
LINE
  5
3D
330
2
100
AcDbEntity
  8
0
  6
CONTINUOUS
100
AcDbLine
 10
-84.69075203058713
 20
35.90140373293774
 30
0.0
 11
-82.89766401138715
 21
35.87851276973774
 31
0.0
  0
LINE
  5
3E
330
2
100
AcDbEntity
  8
0
  6
CONTINUOUS
100
AcDbLine
 10
-86.31527983378715
 20
34.73869848653773
 30
0.0
 11
-86.81527983378714
 21
34.73869848653773
 31
0.0
  0
LINE
  5
3F
330
2
100
AcDbEntity
  8
0
  6
CONTINUOUS
100
AcDbLine
 10
-87.11142268498713
 20
35.95198988653773
 30
0.0
 11
-85.80511801938712
 21
35.92087295693773
 31
0.0
  0
LINE
  5
40
330
2
100
AcDbEntity
  8
0
  6
CONTINUOUS
100
AcDbLine
 10
-87.98885015058713
 20
35.95369733613773
 30
0.0
 11
-87.86968640338713
 21
35.88243959853773
 31
0.0
  0
LINE
  5
41
330
2
100
AcDbEntity
  8
0
  6
CONTINUOUS
100
AcDbLine
 10
-88.07015636818713
 20
35.98494643533773
 30
0.0
 11
-87.98885015058713
 21
35.95369733613773
 31
0.0
  0
LWPOLYLINE
  5
42
330
2
100
AcDbEntity
  8
0
  6
CONTINUOUS
100
AcDbPolyline
 90
        4
 70
     0
 43
0.0
 10
-87.86968640338713
 20
35.88243959853773
 10
-87.75564006738713
 20
35.77919653613774
 10
-87.66030374738713
 20
35.64632864973773
 10
-87.59312014258714
 20
35.63247195053773
  0
LINE
  5
43
330
2
100
AcDbEntity
  8
0
  6
CONTINUOUS
100
AcDbLine
 10
-87.59312014258714
 20
35.63247195053773
 30
0.0
 11
-87.56461494898713
 21
35.45706109613773
 31
0.0
  0
ARC
  5
44
330
2
100
AcDbEntity
  8
0
  6
CONTINUOUS
100
AcDbCircle
 10
-86.81527983378714
 20
35.48869848653773
 30
0.0
 40
0.75
100
AcDbArc
 50
182.4172682108
 51
270.0
  0
LINE
  5
45
330
2
100
AcDbEntity
  8
0
  6
CONTINUOUS
100
AcDbLine
 10
-88.24466992178713
 20
35.99094535373773
 30
0.0
 11
-87.11142268498713
 21
35.95198988653773
 31
0.0
  0
LWPOLYLINE
  5
46
330
2
100
AcDbEntity
  8
0
  6
CONTINUOUS
100
AcDbPolyline
 90
        3
 70
     0
 43
0.0
 10
-88.29584792498712
 20
35.99543923693773
 10
-87.57420551858714
 20
35.96737678413773
 10
-86.82135328018715
 20
35.94494512493774
  0
ARC
  5
47
330
2
100
AcDbEntity
  8
0
  6
CONTINUOUS
100
AcDbCircle
 10
-86.31527983378715
 20
35.48869848653773
 30
0.0
 40
0.75
100
AcDbArc
 50
270.0
 51
355.2592939293
  0
LINE
  5
48
330
2
100
AcDbEntity
  8
0
  6
CONTINUOUS
100
AcDbLine
 10
-85.56784620818715
 20
35.42671313453773
 30
0.0
 11
-85.54833859698716
 21
35.54531394573773
 31
0.0
  0
LWPOLYLINE
  5
49
330
2
100
AcDbEntity
  8
0
  6
CONTINUOUS
100
AcDbPolyline
 90
        6
 70
     0
 43
0.0
 10
-85.54833859698716
 20
35.54531394573773
 10
-85.49249864658714
 20
35.55085957133774
 10
-85.40730468658713
 20
35.68487515373773
 10
-85.29973173618714
 20
35.79464335213773
 10
-85.17658741618715
 20
35.87765069773773
 10
-85.10342987538715
 20
35.90891518253773
  0
ARC
  5
4A
330
2
100
AcDbEntity
  8
0
  6
CONTINUOUS
100
AcDbCircle
 10
-81.81527983378714
 20
35.48869848653773
 30
0.0
 40
0.75
100
AcDbArc
 50
183.3399052697999
 51
270.0
  0
LWPOLYLINE
  5
4B
330
2
100
AcDbEntity
  8
0
  6
CONTINUOUS
100
AcDbPolyline
 90
        3
 70
     0
 43
0.0
 10
-81.60131943538713
 20
35.87130431853774
 10
-82.05723473778713
 20
35.86435522733774
 10
-82.49051872658714
 20
35.87405019053774
  0
LINE
  5
4C
330
2
100
AcDbEntity
  8
0
  6
CONTINUOUS
100
AcDbLine
 10
-82.87503463378712
 20
35.51994848653773
 30
0.0
 11
-80.24205652978713
 21
35.51994848653773
 31
0.0
  0
LINE
  5
4D
330
2
100
AcDbEntity
  8
0
  6
CONTINUOUS
100
AcDbLine
 10
-82.88873907858715
 20
35.51994848653773
 30
0.0
 11
-82.87503463378712
 21
35.51994848653773
 31
0.0
  0
LINE
  5
4E
330
2
100
AcDbEntity
  8
0
  6
CONTINUOUS
100
AcDbLine
 10
-82.57510279218712
 20
35.51994848653773
 30
0.0
 11
-82.56400581938715
 21
35.44500400813773
 31
0.0
  0
ARC
  5
4F
330
2
100
AcDbEntity
  8
0
  6
CONTINUOUS
100
AcDbCircle
 10
-82.88850313938713
 20
35.86369848653773
 30
0.0
 40
0.34375
100
AcDbArc
 50
225.0
 51
270.0
  0
LINE
  5
50
330
2
100
AcDbEntity
  8
0
  6
CONTINUOUS
100
AcDbLine
 10
-83.54523691378714
 20
35.87984103373773
 30
0.0
 11
-83.54580857458714
 21
35.87923907053773
 31
0.0
  0
LINE
  5
51
330
2
100
AcDbEntity
  8
0
  6
CONTINUOUS
100
AcDbLine
 10
-83.54618159378714
 20
35.87926231693773
 30
0.0
 11
-83.54627319058712
 21
35.87926885933773
 31
0.0
  0
LINE
  5
52
330
2
100
AcDbEntity
  8
0
  6
CONTINUOUS
100
AcDbLine
 10
-83.70534444498714
 20
35.88824973293773
 30
0.0
 11
-83.54580846418713
 21
35.87924071213773
 31
0.0
  0
LINE
  5
53
330
2
100
AcDbEntity
  8
0
  6
CONTINUOUS
100
AcDbLine
 10
-83.54571519058714
 20
35.87923370733774
 30
0.0
 11
-83.54412171218715
 21
35.87915479053773
 31
0.0
  0
LWPOLYLINE
  5
54
330
2
100
AcDbEntity
  8
0
  6
CONTINUOUS
100
AcDbPolyline
 90
        4
 70
     0
 43
0.0
 10
-83.43616552178714
 20
35.88098512173774
 10
-83.48463354258715
 20
35.88084136653773
 10
-83.52287199858713
 20
35.88043699693773
 10
-83.54523691378714
 20
35.87984103373773
  0
LWPOLYLINE
  5
55
330
2
100
AcDbEntity
  8
0
  6
CONTINUOUS
100
AcDbPolyline
 90
        5
 70
     0
 43
0.0
 10
-83.54625418258715
 20
35.87926669293773
 10
-83.54546420818712
 20
35.87917664813773
 10
-83.54211986098713
 20
35.87851494093773
 10
-83.53095704338713
 20
35.87302744173773
 10
-83.52798771858713
 20
35.87041323533773
  0
LINE
  5
56
330
2
100
AcDbEntity
  8
0
  6
CONTINUOUS
100
AcDbLine
 10
-83.13157109458714
 20
35.62063053133773
 30
0.0
 11
-83.52799160978713
 21
35.87041707693773
 31
0.0
  0
LWPOLYLINE
  5
57
330
2
100
AcDbEntity
  8
0
  6
CONTINUOUS
100
AcDbPolyline
 90
        3
 70
     0
 43
0.0
 10
-82.49401097298713
 20
35.87441695373773
 10
-83.32495131698712
 20
35.88053906893773
 10
-83.43616552178714
 20
35.88098512173774
  0
LINE
  5
58
330
2
100
AcDbEntity
  8
0
  6
CONTINUOUS
100
AcDbLine
 10
-80.56655733138715
 20
35.44500409133773
 30
0.0
 11
-80.55228690578713
 21
35.51994848653773
 31
0.0
  0
LINE
  5
59
330
2
100
AcDbEntity
  8
0
  6
CONTINUOUS
100
AcDbLine
 10
-81.81527983378714
 20
34.73869848653773
 30
0.0
 11
-81.31527983378715
 21
34.73869848653773
 31
0.0
  0
LWPOLYLINE
  5
5A
330
2
100
AcDbEntity
  8
0
  6
CONTINUOUS
100
AcDbPolyline
 90
        3
 70
     0
 43
0.0
 10
-81.56527983378714
 20
35.86369848653773
 10
-81.58322799218714
 20
35.86368823853773
 10
-81.60131943538713
 20
35.87130431853774
  0
ARC
  5
5B
330
2
100
AcDbEntity
  8
0
  6
CONTINUOUS
100
AcDbCircle
 10
-81.31527983378715
 20
35.48869848653773
 30
0.0
 40
0.75
100
AcDbArc
 50
270.0
 51
356.6600762658
  0
LINE
  5
5C
330
2
100
AcDbEntity
  8
0
  6
CONTINUOUS
100
AcDbLine
 10
-81.56527960658712
 20
35.87274630573773
 30
0.0
 11
-80.58649877298714
 21
35.87532444493774
 31
0.0
  0
LINE
  5
5D
330
2
100
AcDbEntity
  8
0
  6
CONTINUOUS
100
AcDbLine
 10
-81.60131943538713
 20
35.87130431853774
 30
0.0
 11
-80.58648912178714
 21
35.87531805453773
 31
0.0
  0
LWPOLYLINE
  5
5E
330
2
100
AcDbEntity
  8
0
  6
CONTINUOUS
100
AcDbPolyline
 90
        4
 70
     0
 43
0.0
 10
-73.19146980498715
 20
36.28133648173773
 10
-72.85455892338714
 20
36.35786908973773
 10
-72.50144635858714
 20
36.45897469613773
 10
-72.17713420978714
 20
36.57920872493773
  0
ARC
  5
5F
330
2
100
AcDbEntity
  8
0
  6
CONTINUOUS
100
AcDbCircle
 10
-76.31527983378714
 20
35.48869848653773
 30
0.0
 40
0.75
100
AcDbArc
 50
270.0
 51
357.5827249942999
  0
LINE
  5
60
330
2
100
AcDbEntity
  8
0
  6
CONTINUOUS
100
AcDbLine
 10
-76.28901767698713
 20
35.94652899533773
 30
0.0
 11
-74.87303060178715
 21
35.99205491373774
 31
0.0
  0
LWPOLYLINE
  5
61
330
2
100
AcDbEntity
  8
0
  6
CONTINUOUS
100
AcDbPolyline
 90
        6
 70
     0
 43
0.0
 10
-78.02711366418714
 20
35.90926356653774
 10
-77.98292512818713
 20
35.89241827213774
 10
-77.86027475858714
 20
35.81785593933773
 10
-77.74570171538712
 20
35.71175032333774
 10
-77.65131035058712
 20
35.57635592813773
 10
-77.58729038098713
 20
35.56463061613773
  0
LINE
  5
62
330
2
100
AcDbEntity
  8
0
  6
CONTINUOUS
100
AcDbLine
 10
-79.99898857298714
 20
35.62063053133773
 30
0.0
 11
-79.60256455378715
 21
35.87042058253773
 31
0.0
  0
LINE
  5
63
330
2
100
AcDbEntity
  8
0
  6
CONTINUOUS
100
AcDbLine
 10
-79.67934081138714
 20
35.88477452173774
 30
0.0
 11
-79.86297822098714
 21
35.87992089133773
 31
0.0
  0
LINE
  5
64
330
2
100
AcDbEntity
  8
0
  6
CONTINUOUS
100
AcDbLine
 10
-79.45556265938714
 20
35.89070313613774
 30
0.0
 11
-79.47526800818713
 21
35.89016826893773
 31
0.0
  0
LINE
  5
65
330
2
100
AcDbEntity
  8
0
  6
CONTINUOUS
100
AcDbLine
 10
-79.58474124498713
 20
35.87924098733774
 30
0.0
 11
-79.43088518578713
 21
35.88792955693773
 31
0.0
  0
LWPOLYLINE
  5
66
330
2
100
AcDbEntity
  8
0
  6
CONTINUOUS
100
AcDbPolyline
 90
        3
 70
     0
 43
0.0
 10
-79.31852451378714
 20
35.89380988173774
 10
-79.24175140178713
 20
35.89743176333773
 10
-79.23605169938713
 20
35.89767682573773
  0
LWPOLYLINE
  5
67
330
2
100
AcDbEntity
  8
0
  6
CONTINUOUS
100
AcDbPolyline
 90
        5
 70
     0
 43
0.0
 10
-79.60256872498715
 20
35.87041688973773
 10
-79.60013304018713
 20
35.87260890093773
 10
-79.58872928178712
 20
35.87844112653773
 10
-79.58495577138714
 20
35.87919816173773
 10
-79.58429309298714
 20
35.87927166573773
  0
ARC
  5
68
330
2
100
AcDbEntity
  8
0
  6
CONTINUOUS
100
AcDbCircle
 10
-76.81527983378714
 20
35.48869848653773
 30
0.0
 40
0.75
100
AcDbArc
 50
184.7407028692
 51
270.0
  0
LINE
  5
69
330
2
100
AcDbEntity
  8
0
  6
CONTINUOUS
100
AcDbLine
 10
-77.58729038098713
 20
35.56463061613773
 30
0.0
 11
-77.56271386578714
 21
35.42671341613773
 31
0.0
  0
LINE
  5
6A
330
2
100
AcDbEntity
  8
0
  6
CONTINUOUS
100
AcDbLine
 10
-76.81527983378714
 20
34.73869848653773
 30
0.0
 11
-76.31527983378714
 21
34.73869848653773
 31
0.0
  0
LINE
  5
6B
330
2
100
AcDbEntity
  8
0
  6
CONTINUOUS
100
AcDbLine
 10
-77.73599743538714
 20
35.91432595373774
 30
0.0
 11
-76.01552976658715
 21
35.95311026893773
 31
0.0
  0
LWPOLYLINE
  5
6C
330
2
100
AcDbEntity
  8
0
  6
CONTINUOUS
100
AcDbPolyline
 90
        6
 70
     0
 43
0.0
 10
-74.03288171698713
 20
36.18293616813772
 10
-73.88539810578715
 20
36.19372684973773
 10
-73.68527469138715
 20
36.21108772973773
 10
-73.49830797618714
 20
36.23167106093773
 10
-73.30090493618712
 20
36.26074570093773
 10
-73.18733914418714
 20
36.28218663213773
  0
LINE
  5
6D
330
2
100
AcDbEntity
  8
0
  6
CONTINUOUS
100
AcDbLine
 10
-75.56594625458714
 20
35.45706595693773
 30
0.0
 11
-75.53100354578714
 21
35.65367452653773
 31
0.0
  0
LINE
  5
6E
330
2
100
AcDbEntity
  8
0
  6
CONTINUOUS
100
AcDbLine
 10
-75.54186461778712
 20
35.96875931053773
 30
0.0
 11
-74.82242539698714
 21
35.99643873133773
 31
0.0
  0
LINE
  5
6F
330
2
100
AcDbEntity
  8
0
  6
CONTINUOUS
100
AcDbLine
 10
-74.95479411538713
 20
36.01307389293773
 30
0.0
 11
-74.94668253778712
 21
36.01426413133774
 31
0.0
  0
LWPOLYLINE
  5
70
330
2
100
AcDbEntity
  8
0
  6
CONTINUOUS
100
AcDbPolyline
 90
        3
 70
     0
 43
0.0
 10
-75.53100354578714
 20
35.65367452653773
 10
-75.45393955538713
 20
35.67390654093773
 10
-75.34800128818713
 20
35.80762610413774
  0
LWPOLYLINE
  5
71
330
2
100
AcDbEntity
  8
0
  6
CONTINUOUS
100
AcDbPolyline
 90
        4
 70
     0
 43
0.0
 10
-75.34800128818713
 20
35.80762610413774
 10
-75.22639987538713
 20
35.90624259853774
 10
-75.10393662898713
 20
35.97042609613773
 10
-75.05168316978714
 20
35.98761835693773
  0
LINE
  5
72
330
2
100
AcDbEntity
  8
0
  6
CONTINUOUS
100
AcDbLine
 10
-74.87303060178715
 20
35.99205491373774
 30
0.0
 11
-74.03020342258713
 21
36.18312269293773
 31
0.0
  0
ARC
  5
73
330
2
100
AcDbEntity
  8
0
  6
CONTINUOUS
100
AcDbCircle
 10
-98.73563772018712
 20
54.61369848653774
 30
0.0
 40
0.25
100
AcDbArc
 50
90.0
 51
160.5197046108
  0
LINE
  5
74
330
2
100
AcDbEntity
  8
0
  6
CONTINUOUS
100
AcDbLine
 10
-99.46512995378714
 20
54.17885598893773
 30
0.0
 11
-99.56527983378714
 21
53.36369848653774
 31
0.0
  0
ARC
  5
75
330
2
100
AcDbEntity
  8
0
  6
CONTINUOUS
100
AcDbCircle
 10
-99.44238593298715
 20
54.86369848653773
 30
0.0
 40
0.5
100
AcDbArc
 50
287.4894479637999
 51
340.5196142592
  0
LWPOLYLINE
  5
76
330
2
100
AcDbEntity
  8
0
  6
CONTINUOUS
100
AcDbPolyline
 90
       15
 70
     0
 43
0.0
 10
-99.29212088978713
 20
54.38681243373773
 10
-99.29500840178713
 20
54.38588329453773
 10
-99.31232798738713
 20
54.37947615053773
 10
-99.32970236658713
 20
54.37151851053773
 10
-99.34698558578714
 20
54.36191258413773
 10
-99.36400164818714
 20
54.35057489133773
 10
-99.38052393298713
 20
54.33746218413773
 10
-99.39630679858716
 20
54.32256715853773
 10
-99.41109879698714
 20
54.30591652493774
 10
-99.42464756498715
 20
54.28757288013773
 10
-99.43670518898713
 20
54.26763576653772
 10
-99.44703388338716
 20
54.24624179373773
 10
-99.45541183378715
 20
54.22356376813773
 10
-99.46163899378715
 20
54.19980879373773
 10
-99.46512252978713
 20
54.17885507533773
  0
ARC
  5
77
330
2
100
AcDbEntity
  8
0
  6
HIDDEN
 62
     8
 48
0.125
100
AcDbCircle
 10
-96.91297471866121
 20
54.61369848653774
 30
0.0
 40
0.25
100
AcDbArc
 50
19.4712446744
 51
90.00007211960001
  0
ARC
  5
79
330
2
100
AcDbEntity
  8
0
  6
HIDDEN
 62
     8
 48
0.125
100
AcDbCircle
 10
-96.20586825146123
 20
54.86369848653773
 30
0.0
 40
0.5
100
AcDbArc
 50
199.4712206344999
 51
252.5070146648999
  0
ARC
  5
7A
330
2
100
AcDbEntity
  8
0
  6
HIDDEN
 62
     8
 48
0.125
100
AcDbCircle
 10
-96.43131878906123
 20
54.14838464653773
 30
0.0
 40
0.2500000416
100
AcDbArc
 50
6.999537691200006
 51
72.50499770410002
  0
LINE
  5
7B
330
2
100
AcDbEntity
  8
0
  6
HIDDEN
 62
     8
 48
0.125
100
AcDbLine
 10
-96.08308369146122
 20
53.36369848653774
 30
0.0
 11
-96.18317355386123
 21
54.17885101773773
 31
0.0
  0
LWPOLYLINE
  5
7C
330
2
100
AcDbEntity
  8
0
  6
CONTINUOUS
100
AcDbPolyline
 90
        7
 70
     0
 43
0.0
 10
-82.86605963858713
 20
51.19081210733773
 10
-82.78946912338714
 20
50.94630158733774
 10
-82.66599282418713
 20
50.72122019213773
 10
-82.50057194098713
 20
50.52458557293773
 10
-82.29942916178714
 20
50.36381011373773
 10
-82.07001126258715
 20
50.24447832653773
 10
-81.82084217778713
 20
50.17075794733774
  0
LWPOLYLINE
  5
7D
330
2
100
AcDbEntity
  8
0
  6
CONTINUOUS
100
AcDbPolyline
 90
        6
 70
     0
 43
0.0
 10
-82.83384553298715
 20
51.14939252333773
 10
-82.70290964658713
 20
50.83576026893773
 10
-82.49480955538714
 20
50.56621992653774
 10
-82.22289595218715
 20
50.35981849133773
 10
-81.90510319858715
 20
50.23001158733773
 10
-81.56527983378714
 20
50.18730726893773
  0
LWPOLYLINE
  5
7E
330
2
100
AcDbEntity
  8
0
  6
CONTINUOUS
100
AcDbPolyline
 90
        7
 70
     0
 43
0.0
 10
-81.56311203218715
 20
52.73346600333773
 10
-81.82130484498713
 20
52.70885783853773
 10
-82.07000642578714
 20
52.63620363213773
 10
-82.29953120498715
 20
52.51843785773773
 10
-82.50096191218714
 20
52.35943395373773
 10
-82.66674427378715
 20
52.16479333133773
 10
-82.79022058578712
 20
51.94148807053773
  0
LINE
  5
7F
330
2
100
AcDbEntity
  8
0
  6
CONTINUOUS
100
AcDbLine
 10
-82.81339001458713
 20
51.88328935053773
 30
0.0
 11
-82.86636600498713
 21
51.69805059533773
 31
0.0
  0
LINE
  5
80
330
2
100
AcDbEntity
  8
0
  6
CONTINUOUS
100
AcDbLine
 10
-82.79022058578712
 20
51.94148807053773
 30
0.0
 11
-82.81339001458713
 21
51.88328935053773
 31
0.0
  0
LINE
  5
81
330
2
100
AcDbEntity
  8
0
  6
CONTINUOUS
100
AcDbLine
 10
-82.87317931698714
 20
51.44696160653773
 30
0.0
 11
-82.83384553298715
 21
51.14939252333773
 31
0.0
  0
LINE
  5
82
330
2
100
AcDbEntity
  8
0
  6
CONTINUOUS
100
AcDbLine
 10
-82.89161812338713
 20
51.44452429613773
 30
0.0
 11
-82.86605963858713
 21
51.19081210733773
 31
0.0
  0
LINE
  5
83
330
2
100
AcDbEntity
  8
0
  6
CONTINUOUS
100
AcDbLine
 10
-82.86636600498713
 20
51.69805059533773
 30
0.0
 11
-82.89161812338713
 21
51.44452429613773
 31
0.0
  0
LINE
  5
84
330
2
100
AcDbEntity
  8
0
  6
CONTINUOUS
100
AcDbLine
 10
-80.25692063058713
 20
51.70128208493773
 30
0.0
 11
-80.33334878418713
 21
51.94340271213773
 31
0.0
  0
LINE
  5
85
330
2
100
AcDbEntity
  8
0
  6
CONTINUOUS
100
AcDbLine
 10
-80.33334878418713
 20
51.94340271213773
 30
0.0
 11
-80.36691010418712
 21
52.01511888973773
 31
0.0
  0
LINE
  5
86
330
2
100
AcDbEntity
  8
0
  6
CONTINUOUS
100
AcDbLine
 10
-80.36691010418712
 20
52.01511888973773
 30
0.0
 11
-80.45646560018713
 21
52.16539915853773
 31
0.0
  0
LINE
  5
87
330
2
100
AcDbEntity
  8
0
  6
CONTINUOUS
100
AcDbLine
 10
-80.29737102578712
 20
51.15341380813774
 30
0.0
 11
-80.25277983378714
 21
51.48791259373773
 31
0.0
  0
LINE
  5
88
330
2
100
AcDbEntity
  8
0
  6
CONTINUOUS
100
AcDbLine
 10
-80.25677268818714
 20
51.19505706733773
 30
0.0
 11
-80.23143020978713
 21
51.44877833933773
 31
0.0
  0
LINE
  5
89
330
2
100
AcDbEntity
  8
0
  6
CONTINUOUS
100
AcDbLine
 10
-80.23143020978713
 20
51.44877833933773
 30
0.0
 11
-80.25692063058713
 21
51.70128208493773
 31
0.0
  0
LINE
  5
8A
330
2
100
AcDbEntity
  8
0
  6
CONTINUOUS
100
AcDbLine
 10
-81.82084217778713
 20
50.17075794733774
 30
0.0
 11
-81.56111316178714
 21
50.14674296013772
 31
0.0
  0
LINE
  5
8B
330
2
100
AcDbEntity
  8
0
  6
CONTINUOUS
100
AcDbLine
 10
-81.56111316178714
 20
50.14674296013772
 30
0.0
 11
-81.30261621938714
 21
50.17170533453773
 31
0.0
  0
LINE
  5
8C
330
2
100
AcDbEntity
  8
0
  6
CONTINUOUS
100
AcDbLine
 10
-81.56527983378714
 20
50.18730726893773
 30
0.0
 11
-81.22741248178712
 21
50.23142018573773
 31
0.0
  0
LWPOLYLINE
  5
8D
330
2
100
AcDbEntity
  8
0
  6
CONTINUOUS
100
AcDbPolyline
 90
        5
 70
     0
 43
0.0
 10
-81.22741248178712
 20
50.23142018573773
 10
-80.91159878738713
 20
50.36108228013773
 10
-80.63916146738714
 20
50.56809844973773
 10
-80.42924471538714
 20
50.83883789613773
 10
-80.29737102578712
 20
51.15341380813774
  0
LWPOLYLINE
  5
8E
330
2
100
AcDbEntity
  8
0
  6
CONTINUOUS
100
AcDbPolyline
 90
        7
 70
     0
 43
0.0
 10
-81.30261621938714
 20
50.17170533453773
 10
-81.05378120498713
 20
50.24582497613773
 10
-80.82420199218715
 20
50.36583517933773
 10
-80.62269257138714
 20
50.52748659373773
 10
-80.45674935218713
 20
50.72476858733773
 10
-80.33307584338714
 20
50.95025753933773
 10
-80.25677268818714
 20
51.19505706733773
  0
LWPOLYLINE
  5
8F
330
2
100
AcDbEntity
  8
0
  6
CONTINUOUS
100
AcDbPolyline
 90
        6
 70
     0
 43
0.0
 10
-80.45646560018713
 20
52.16539915853773
 10
-80.62133652018713
 20
52.35883042253774
 10
-80.82193372338712
 20
52.51706057133773
 10
-81.05119076818713
 20
52.63500589933773
 10
-81.30116117618715
 20
52.70850738573773
 10
-81.56311203218715
 20
52.73346600333773
  0
LWPOLYLINE
  5
90
330
2
100
AcDbEntity
  8
0
  6
CONTINUOUS
100
AcDbPolyline
 90
       11
 70
     0
 43
0.0
 10
-70.47172737938715
 20
38.38206876333773
 10
-70.16821098418714
 20
39.34695457773773
 10
-69.74676401778714
 20
40.76603292493773
 10
-69.33405037618715
 20
42.25597720653772
 10
-68.93596695378713
 20
43.79870251853772
 10
-68.54874023858712
 20
45.03933516813773
 10
-68.17395772338713
 20
46.73475349773773
 10
-67.81506108658715
 20
48.51639774253773
 10
-67.47812384658712
 20
50.38589397293772
 10
-67.17078684658713
 20
52.34330373133773
 10
-67.03501216627516
 20
53.36369848653774
  0
LINE
  5
91
330
2
100
AcDbEntity
  8
0
  6
CONTINUOUS
100
AcDbLine
 10
-70.65892474738714
 20
37.93636194893773
 30
0.0
 11
-70.47149703698713
 21
38.38258896813773
 31
0.0
  0
ARC
  5
92
330
2
100
AcDbEntity
  8
0
  6
HIDDEN
 62
     8
 48
0.125
100
AcDbCircle
 10
-66.68677706867517
 20
54.14838464653773
 30
0.0
 40
0.2500000416
100
AcDbArc
 50
107.4950022958999
 51
173.0004623087999
  0
LINE
  5
93
330
2
100
AcDbEntity
  8
0
  6
HIDDEN
 62
     8
 48
0.125
100
AcDbLine
 10
-67.03501216627516
 20
53.36369848653774
 30
0.0
 11
-66.93492230387517
 21
54.17885101773773
 31
0.0
  0
ARC
  5
94
330
2
100
AcDbEntity
  8
0
  6
HIDDEN
 62
     8
 48
0.125
100
AcDbCircle
 10
-66.20512113907517
 20
54.61369848653774
 30
0.0
 40
0.25
100
AcDbArc
 50
89.9999278804
 51
160.5287553256
  0
ARC
  5
95
330
2
100
AcDbEntity
  8
0
  6
HIDDEN
 62
     8
 48
0.125
100
AcDbCircle
 10
-66.91222760627517
 20
54.86369848653773
 30
0.0
 40
0.5
100
AcDbArc
 50
287.4929853350999
 51
340.5287793654999
  0
ARC
  5
96
330
2
100
AcDbEntity
  8
0
  6
CONTINUOUS
100
AcDbCircle
 10
-64.39492194898713
 20
54.61369848653774
 30
0.0
 40
0.25
100
AcDbArc
 50
19.48029538919999
 51
90.0
  0
LINE
  5
97
330
2
100
AcDbEntity
  8
0
  6
CONTINUOUS
100
AcDbLine
 10
-63.56527983378715
 20
53.36369848653774
 30
0.0
 11
-63.66542971378715
 21
54.17885598893773
 31
0.0
  0
ARC
  5
98
330
2
100
AcDbEntity
  8
0
  6
CONTINUOUS
100
AcDbCircle
 10
-63.68817373618714
 20
54.86369848653773
 30
0.0
 40
0.5
100
AcDbArc
 50
199.4803857408
 51
252.5105520353
  0
LWPOLYLINE
  5
99
330
2
100
AcDbEntity
  8
0
  6
CONTINUOUS
100
AcDbPolyline
 90
       12
 70
     0
 43
0.0
 10
-63.66543713938714
 20
54.17885507533773
 10
-63.66653747058714
 20
54.18676504973773
 10
-63.67339652978714
 20
54.21776695693773
 10
-63.68388137778715
 20
54.24707342413773
 10
-63.69758053138713
 20
54.27425798733773
 10
-63.71403297778712
 20
54.29898285133774
 10
-63.73274628978714
 20
54.32100275053773
 10
-63.75321426418714
 20
54.34016508173773
 10
-63.77493338898713
 20
54.35640664653774
 10
-63.79741508338714
 20
54.36974623693773
 10
-63.82013206898713
 20
54.38025101613773
 10
-63.83843877938713
 20
54.38681243373773
  0
ENDSEC
  0
SECTION
  2
OBJECTS
  0
DICTIONARY
  5
24
330
0
100
AcDbDictionary
  3
ACAD_GROUP
350
20
  3
ACAD_LAYOUT
350
9D
  3
ACAD_MLINESTYLE
350
21
  3
ACAD_PLOTSETTINGS
350
9E
  3
ACAD_PLOTSTYLENAME
350
9B
  3
ACDBHEADERROUNDTRIPXREC
350
DE
  3
ACDBVARIABLEDICTIONARY
350
DB
  0
DICTIONARY
  5
3
330
2
100
AcDbDictionary
280
     1
  3
ACAD_LAYOUTSELFREF
360
FF
  0
DICTIONARY
  5
A
330
9
100
AcDbDictionary
280
     1
  3
ACAD_LAYOUTSELFREF
360
100
  0
DICTIONARY
  5
20
102
{ACAD_REACTORS
330
24
102
}
330
24
100
AcDbDictionary
  0
DICTIONARY
  5
9D
102
{ACAD_REACTORS
330
24
102
}
330
24
100
AcDbDictionary
  0
DICTIONARY
  5
21
102
{ACAD_REACTORS
330
24
102
}
330
24
100
AcDbDictionary
  3
STANDARD
350
25
  0
DICTIONARY
  5
9E
102
{ACAD_REACTORS
330
24
102
}
330
24
100
AcDbDictionary
  0
ACDBDICTIONARYWDFLT
  5
9B
102
{ACAD_REACTORS
330
24
102
}
330
24
100
AcDbDictionary
281
     1
  3
Normal
350
9C
100
AcDbDictionaryWithDefault
340
9C
  0
DICTIONARY
  5
DE
102
{ACAD_REACTORS
330
24
102
}
330
24
100
AcDbDictionary
  3
CEPSNTYPE
350
E8
  3
DIMSTYLEDATA
350
EC
  3
FINGERPRINTGUID
350
E9
  3
HYPERLINKBASE
350
E1
  3
INSUNITS
350
E7
  3
LAYOUTDICT
350
E3
  3
LWETCUNION
350
E6
  3
PLOTSETDICT
350
E4
  3
PLOTSTYLNAMDICT
350
E5
  3
PSVPSCALE
350
EB
  3
PUCSBASE
350
EF
  3
PUCSORGBACK
350
F5
  3
PUCSORGBOTTOM
350
F1
  3
PUCSORGFRONT
350
F4
  3
PUCSORGLEFT
350
F2
  3
PUCSORGRIGHT
350
F3
  3
PUCSORGTOP
350
F0
  3
PUCSORTHOREF
350
ED
  3
PUCSORTHOVIEW
350
EE
  3
STYLESHEET
350
E2
  3
TSTACKALIGN
350
DF
  3
TSTACKSIZE
350
E0
  3
UCSBASE
350
F8
  3
UCSORGBACK
350
FE
  3
UCSORGBOTTOM
350
FA
  3
UCSORGFRONT
350
FD
  3
UCSORGLEFT
350
FB
  3
UCSORGRIGHT
350
FC
  3
UCSORGTOP
350
F9
  3
UCSORTHOREF
350
F6
  3
UCSORTHOVIEW
350
F7
  3
VERSIONGUID
350
EA
  0
DICTIONARY
  5
DB
102
{ACAD_REACTORS
330
24
102
}
330
24
100
AcDbDictionary
  3
DIMASSOC
350
DC
  0
XRECORD
  5
FF
102
{ACAD_REACTORS
330
3
102
}
330
3
100
AcDbXrecord
340
2
  0
XRECORD
  5
100
102
{ACAD_REACTORS
330
A
102
}
330
A
100
AcDbXrecord
340
9
  0
MLINESTYLE
  5
25
102
{ACAD_REACTORS
330
21
102
}
330
21
100
AcDbMlineStyle
  2
STANDARD
 70
     0
  3

 62
   256
 51
90.0
 52
90.0
 71
     2
 49
0.5
 62
   256
  6
BYLAYER
 49
-0.5
 62
   256
  6
BYLAYER
  0
ACDBPLACEHOLDER
  5
9C
102
{ACAD_REACTORS
330
9B
102
}
330
9B
100
AcDbPlaceHolder
280
     0
  0
XRECORD
  5
E8
102
{ACAD_REACTORS
330
DE
102
}
330
DE
100
AcDbXrecord
 90
        0
  0
XRECORD
  5
EC
102
{ACAD_REACTORS
330
DE
102
}
330
DE
100
AcDbXrecord
1000
DSTYLE
1002
{
1070
   341
340
29
1070
   342
340
29
1070
   343
340
29
1070
   344
340
29
1002
}
  0
XRECORD
  5
E9
102
{ACAD_REACTORS
330
DE
102
}
330
DE
100
AcDbXrecord
  1
{B987A3F8-ED01-43AF-9A00-FFA3807441CC}
  0
XRECORD
  5
E1
102
{ACAD_REACTORS
330
DE
102
}
330
DE
100
AcDbXrecord
  1

  0
XRECORD
  5
E7
102
{ACAD_REACTORS
330
DE
102
}
330
DE
100
AcDbXrecord
 90
        0
  0
XRECORD
  5
E3
102
{ACAD_REACTORS
330
DE
102
}
330
DE
100
AcDbXrecord
340
9D
  0
XRECORD
  5
E6
102
{ACAD_REACTORS
330
DE
102
}
330
DE
100
AcDbXrecord
 90
    14877
  0
XRECORD
  5
E4
102
{ACAD_REACTORS
330
DE
102
}
330
DE
100
AcDbXrecord
340
9E
  0
XRECORD
  5
E5
102
{ACAD_REACTORS
330
DE
102
}
330
DE
100
AcDbXrecord
340
9B
  0
XRECORD
  5
EB
102
{ACAD_REACTORS
330
DE
102
}
330
DE
100
AcDbXrecord
 40
0.0
  0
XRECORD
  5
EF
102
{ACAD_REACTORS
330
DE
102
}
330
DE
100
AcDbXrecord
340
0
  0
XRECORD
  5
F5
102
{ACAD_REACTORS
330
DE
102
}
330
DE
100
AcDbXrecord
 10
0.0
 20
0.0
 30
0.0
  0
XRECORD
  5
F1
102
{ACAD_REACTORS
330
DE
102
}
330
DE
100
AcDbXrecord
 10
0.0
 20
0.0
 30
0.0
  0
XRECORD
  5
F4
102
{ACAD_REACTORS
330
DE
102
}
330
DE
100
AcDbXrecord
 10
0.0
 20
0.0
 30
0.0
  0
XRECORD
  5
F2
102
{ACAD_REACTORS
330
DE
102
}
330
DE
100
AcDbXrecord
 10
0.0
 20
0.0
 30
0.0
  0
XRECORD
  5
F3
102
{ACAD_REACTORS
330
DE
102
}
330
DE
100
AcDbXrecord
 10
0.0
 20
0.0
 30
0.0
  0
XRECORD
  5
F0
102
{ACAD_REACTORS
330
DE
102
}
330
DE
100
AcDbXrecord
 10
0.0
 20
0.0
 30
0.0
  0
XRECORD
  5
ED
102
{ACAD_REACTORS
330
DE
102
}
330
DE
100
AcDbXrecord
340
0
  0
XRECORD
  5
EE
102
{ACAD_REACTORS
330
DE
102
}
330
DE
100
AcDbXrecord
 70
     0
  0
XRECORD
  5
E2
102
{ACAD_REACTORS
330
DE
102
}
330
DE
100
AcDbXrecord
  1

  0
XRECORD
  5
DF
102
{ACAD_REACTORS
330
DE
102
}
330
DE
100
AcDbXrecord
 90
        1
  0
XRECORD
  5
E0
102
{ACAD_REACTORS
330
DE
102
}
330
DE
100
AcDbXrecord
 90
       70
  0
XRECORD
  5
F8
102
{ACAD_REACTORS
330
DE
102
}
330
DE
100
AcDbXrecord
340
0
  0
XRECORD
  5
FE
102
{ACAD_REACTORS
330
DE
102
}
330
DE
100
AcDbXrecord
 10
0.0
 20
0.0
 30
0.0
  0
XRECORD
  5
FA
102
{ACAD_REACTORS
330
DE
102
}
330
DE
100
AcDbXrecord
 10
0.0
 20
0.0
 30
0.0
  0
XRECORD
  5
FD
102
{ACAD_REACTORS
330
DE
102
}
330
DE
100
AcDbXrecord
 10
0.0
 20
0.0
 30
0.0
  0
XRECORD
  5
FB
102
{ACAD_REACTORS
330
DE
102
}
330
DE
100
AcDbXrecord
 10
0.0
 20
0.0
 30
0.0
  0
XRECORD
  5
FC
102
{ACAD_REACTORS
330
DE
102
}
330
DE
100
AcDbXrecord
 10
0.0
 20
0.0
 30
0.0
  0
XRECORD
  5
F9
102
{ACAD_REACTORS
330
DE
102
}
330
DE
100
AcDbXrecord
 10
0.0
 20
0.0
 30
0.0
  0
XRECORD
  5
F6
102
{ACAD_REACTORS
330
DE
102
}
330
DE
100
AcDbXrecord
340
0
  0
XRECORD
  5
F7
102
{ACAD_REACTORS
330
DE
102
}
330
DE
100
AcDbXrecord
 70
     0
  0
XRECORD
  5
EA
102
{ACAD_REACTORS
330
DE
102
}
330
DE
100
AcDbXrecord
  1
{0157A041-C0A5-449A-9997-0634BFB617B0}
  0
DICTIONARYVAR
  5
DC
102
{ACAD_REACTORS
330
DB
102
}
330
DB
100
DictionaryVariables
280
     0
  1
1
  0
ENDSEC
  0
EOF
