  0
SECTION
  2
HEADER
  9
$ACADVER
  1
AC1018
  9
$ACADMAINTVER
 70
   104
  9
$DWGCODEPAGE
  3
ANSI_1252
  9
$LASTSAVEDBY
  1
daniele
  9
$INSBASE
 10
0.0
 20
0.0
 30
0.0
  9
$EXTMIN
 10
15.6944598227
 20
65.2366739792
 30
0.0
  9
$EXTMAX
 10
79.67985462449999
 20
101.2220647596
 30
0.0
  9
$LIMMIN
 10
0.0
 20
0.0
  9
$LIMMAX
 10
181.3333333333
 20
117.3333333333
  9
$ORTHOMODE
 70
     0
  9
$REGENMODE
 70
     1
  9
$FILLMODE
 70
     1
  9
$QTEXTMODE
 70
     0
  9
$MIRRTEXT
 70
     0
  9
$LTSCALE
 40
9.973333333300001
  9
$ATTMODE
 70
     1
  9
$TEXTSIZE
 40
0.2
  9
$TRACEWID
 40
0.05
  9
$TEXTSTYLE
  7
STANDARD
  9
$CLAYER
  8
0
  9
$CELTYPE
  6
BYLAYER
  9
$CECOLOR
 62
   256
  9
$CELTSCALE
 40
1.0
  9
$DISPSILH
 70
     0
  9
$DIMSCALE
 40
1.0
  9
$DIMASZ
 40
2.0
  9
$DIMEXO
 40
0.0625
  9
$DIMDLI
 40
6.890666666699999
  9
$DIMRND
 40
0.0
  9
$DIMDLE
 40
0.0
  9
$DIMEXE
 40
0.125
  9
$DIMTP
 40
0.00001
  9
$DIMTM
 40
0.00001
  9
$DIMTXT
 40
1.333333333299999
  9
$DIMCEN
 40
1.631999999999999
  9
$DIMTSZ
 40
0.0
  9
$DIMTOL
 70
     1
  9
$DIMLIM
 70
     0
  9
$DIMTIH
 70
     1
  9
$DIMTOH
 70
     1
  9
$DIMSE1
 70
     0
  9
$DIMSE2
 70
     0
  9
$DIMTAD
 70
     0
  9
$DIMZIN
 70
     0
  9
$DIMBLK
  1
_FILLED
  9
$DIMASO
 70
     1
  9
$DIMSHO
 70
     1
  9
$DIMPOST
  1

  9
$DIMAPOST
  1

  9
$DIMALT
 70
     0
  9
$DIMALTD
 70
     2
  9
$DIMALTF
 40
25.4
  9
$DIMLFAC
 40
1.0
  9
$DIMTOFL
 70
     0
  9
$DIMTVP
 40
0.0
  9
$DIMTIX
 70
     0
  9
$DIMSOXD
 70
     0
  9
$DIMSAH
 70
     0
  9
$DIMBLK1
  1

  9
$DIMBLK2
  1

  9
$DIMSTYLE
  2
STANDARD
  9
$DIMCLRD
 70
     0
  9
$DIMCLRE
 70
     0
  9
$DIMCLRT
 70
     0
  9
$DIMTFAC
 40
1.0
  9
$DIMGAP
 40
0.09
  9
$DIMJUST
 70
     0
  9
$DIMSD1
 70
     0
  9
$DIMSD2
 70
     0
  9
$DIMTOLJ
 70
     1
  9
$DIMTZIN
 70
     0
  9
$DIMALTZ
 70
     0
  9
$DIMALTTZ
 70
     0
  9
$DIMUPT
 70
     0
  9
$DIMDEC
 70
     4
  9
$DIMTDEC
 70
     4
  9
$DIMALTU
 70
     2
  9
$DIMALTTD
 70
     2
  9
$DIMTXSTY
  7
STANDARD
  9
$DIMAUNIT
 70
     0
  9
$DIMADEC
 70
     0
  9
$DIMALTRND
 40
0.0
  9
$DIMAZIN
 70
     0
  9
$DIMDSEP
 70
    46
  9
$DIMATFIT
 70
     3
  9
$DIMFRAC
 70
     0
  9
$DIMLDRBLK
  1

  9
$DIMLUNIT
 70
     2
  9
$DIMLWD
 70
    -2
  9
$DIMLWE
 70
    -2
  9
$DIMTMOVE
 70
     0
  9
$LUNITS
 70
     2
  9
$LUPREC
 70
     4
  9
$SKETCHINC
 40
0.1
  9
$FILLETRAD
 40
0.0
  9
$AUNITS
 70
     0
  9
$AUPREC
 70
     0
  9
$MENU
  1
.
  9
$ELEVATION
 40
0.0
  9
$PELEVATION
 40
0.0
  9
$THICKNESS
 40
0.0
  9
$LIMCHECK
 70
     0
  9
$CHAMFERA
 40
0.0
  9
$CHAMFERB
 40
0.0
  9
$CHAMFERC
 40
0.0
  9
$CHAMFERD
 40
0.0
  9
$SKPOLY
 70
     0
  9
$TDCREATE
 40
2456966.643547442
  9
$TDUCREATE
 40
2456966.810214109
  9
$TDUPDATE
 40
2457220.484724826
  9
$TDUUPDATE
 40
2457220.651391493
  9
$TDINDWG
 40
0.0024145023
  9
$TDUSRTIMER
 40
0.0024145023
  9
$USRTIMER
 70
     1
  9
$ANGBASE
 50
0.0
  9
$ANGDIR
 70
     0
  9
$PDMODE
 70
     3
  9
$PDSIZE
 40
0.03125
  9
$PLINEWID
 40
0.0
  9
$SPLFRAME
 70
     0
  9
$SPLINETYPE
 70
     6
  9
$SPLINESEGS
 70
     8
  9
$HANDSEED
  5
17C3
  9
$SURFTAB1
 70
     6
  9
$SURFTAB2
 70
     6
  9
$SURFTYPE
 70
     6
  9
$SURFU
 70
     6
  9
$SURFV
 70
     6
  9
$UCSBASE
  2

  9
$UCSNAME
  2

  9
$UCSORG
 10
0.0
 20
0.0
 30
0.0
  9
$UCSXDIR
 10
1.0
 20
0.0
 30
0.0
  9
$UCSYDIR
 10
0.0
 20
1.0
 30
0.0
  9
$UCSORTHOREF
  2

  9
$UCSORTHOVIEW
 70
     0
  9
$UCSORGTOP
 10
0.0
 20
0.0
 30
0.0
  9
$UCSORGBOTTOM
 10
0.0
 20
0.0
 30
0.0
  9
$UCSORGLEFT
 10
0.0
 20
0.0
 30
0.0
  9
$UCSORGRIGHT
 10
0.0
 20
0.0
 30
0.0
  9
$UCSORGFRONT
 10
0.0
 20
0.0
 30
0.0
  9
$UCSORGBACK
 10
0.0
 20
0.0
 30
0.0
  9
$PUCSBASE
  2

  9
$PUCSNAME
  2

  9
$PUCSORG
 10
0.0
 20
0.0
 30
0.0
  9
$PUCSXDIR
 10
1.0
 20
0.0
 30
0.0
  9
$PUCSYDIR
 10
0.0
 20
1.0
 30
0.0
  9
$PUCSORTHOREF
  2

  9
$PUCSORTHOVIEW
 70
     0
  9
$PUCSORGTOP
 10
0.0
 20
0.0
 30
0.0
  9
$PUCSORGBOTTOM
 10
0.0
 20
0.0
 30
0.0
  9
$PUCSORGLEFT
 10
0.0
 20
0.0
 30
0.0
  9
$PUCSORGRIGHT
 10
0.0
 20
0.0
 30
0.0
  9
$PUCSORGFRONT
 10
0.0
 20
0.0
 30
0.0
  9
$PUCSORGBACK
 10
0.0
 20
0.0
 30
0.0
  9
$USERI1
 70
     0
  9
$USERI2
 70
     0
  9
$USERI3
 70
     0
  9
$USERI4
 70
     0
  9
$USERI5
 70
     0
  9
$USERR1
 40
0.0
  9
$USERR2
 40
0.0
  9
$USERR3
 40
0.0
  9
$USERR4
 40
0.0
  9
$USERR5
 40
0.0
  9
$WORLDVIEW
 70
     1
  9
$SHADEDGE
 70
     3
  9
$SHADEDIF
 70
    70
  9
$TILEMODE
 70
     1
  9
$MAXACTVP
 70
    64
  9
$PINSBASE
 10
0.0
 20
0.0
 30
0.0
  9
$PLIMCHECK
 70
     0
  9
$PEXTMIN
 10
1.000000000000000E+20
 20
1.000000000000000E+20
 30
1.000000000000000E+20
  9
$PEXTMAX
 10
-1.000000000000000E+20
 20
-1.000000000000000E+20
 30
-1.000000000000000E+20
  9
$PLIMMIN
 10
0.0
 20
0.0
  9
$PLIMMAX
 10
12.0
 20
9.0
  9
$UNITMODE
 70
     0
  9
$VISRETAIN
 70
     1
  9
$PLINEGEN
 70
     0
  9
$PSLTSCALE
 70
     1
  9
$TREEDEPTH
 70
  3020
  9
$CMLSTYLE
  2
Standard
  9
$CMLJUST
 70
     0
  9
$CMLSCALE
 40
1.0
  9
$PROXYGRAPHICS
 70
     1
  9
$MEASUREMENT
 70
     0
  9
$CELWEIGHT
370
    -1
  9
$ENDCAPS
280
     0
  9
$JOINSTYLE
280
     0
  9
$LWDISPLAY
290
     0
  9
$INSUNITS
 70
     1
  9
$HYPERLINKBASE
  1

  9
$STYLESHEET
  1

  9
$XEDIT
290
     1
  9
$CEPSNTYPE
380
     0
  9
$PSTYLEMODE
290
     1
  9
$FINGERPRINTGUID
  2
{CD2402B5-CB15-4A5A-A92B-168B67E80593}
  9
$VERSIONGUID
  2
{7000560B-0771-4725-8074-5B56F053F7E4}
  9
$EXTNAMES
290
     1
  9
$PSVPSCALE
 40
0.0
  9
$OLESTARTUP
290
     0
  9
$SORTENTS
280
   127
  9
$INDEXCTL
280
     0
  9
$HIDETEXT
280
     0
  9
$XCLIPFRAME
290
     0
  9
$HALOGAP
280
     0
  9
$OBSCOLOR
 70
   257
  9
$OBSLTYPE
280
     0
  9
$INTERSECTIONDISPLAY
280
     0
  9
$INTERSECTIONCOLOR
 70
   257
  9
$DIMASSOC
280
     1
  9
$PROJECTNAME
  1

  0
ENDSEC
  0
SECTION
  2
CLASSES
  0
CLASS
  1
ACDBDICTIONARYWDFLT
  2
AcDbDictionaryWithDefault
  3
ObjectDBX Classes
 90
        0
 91
        1
280
     0
281
     0
  0
CLASS
  1
MATERIAL
  2
AcDbMaterial
  3
ObjectDBX Classes
 90
     1153
 91
        3
280
     0
281
     0
  0
CLASS
  1
VISUALSTYLE
  2
AcDbVisualStyle
  3
ObjectDBX Classes
 90
     4095
 91
       26
280
     0
281
     0
  0
CLASS
  1
TABLESTYLE
  2
AcDbTableStyle
  3
ObjectDBX Classes
 90
     4095
 91
        1
280
     0
281
     0
  0
CLASS
  1
SCALE
  2
AcDbScale
  3
ObjectDBX Classes
 90
     1153
 91
       33
280
     0
281
     0
  0
CLASS
  1
MLEADERSTYLE
  2
AcDbMLeaderStyle
  3
ACDB_MLEADERSTYLE_CLASS
 90
     4095
 91
        1
280
     0
281
     0
  0
CLASS
  1
CELLSTYLEMAP
  2
AcDbCellStyleMap
  3
ObjectDBX Classes
 90
     1152
 91
        3
280
     0
281
     0
  0
CLASS
  1
DICTIONARYVAR
  2
AcDbDictionaryVar
  3
ObjectDBX Classes
 90
        0
 91
       19
280
     0
281
     0
  0
CLASS
  1
ACDBSECTIONVIEWSTYLE
  2
AcDbSectionViewStyle
  3
ObjectDBX Classes
 90
     1025
 91
        1
280
     0
281
     0
  0
CLASS
  1
ACDBDETAILVIEWSTYLE
  2
AcDbDetailViewStyle
  3
ObjectDBX Classes
 90
     1025
 91
        1
280
     0
281
     0
  0
ENDSEC
  0
SECTION
  2
TABLES
  0
TABLE
  2
VPORT
  5
8
102
{ACAD_XDICTIONARY
360
16B1
102
}
330
0
100
AcDbSymbolTable
 70
     1
  0
VPORT
  5
1F4
330
8
100
AcDbSymbolTableRecord
100
AcDbViewportTableRecord
  2
*ACTIVE
 70
     0
 10
0.0
 20
0.0
 11
1.0
 21
1.0
 12
58.66872484831243
 22
83.00338351413836
 13
0.0
 23
0.0
 14
1.0
 24
1.0
 15
0.0
 25
0.0
 16
0.0
 26
0.0
 36
1.0
 17
0.0
 27
0.0
 37
0.0
 40
48.55059760975554
 41
2.246690734055354
 42
50.0
 43
0.0
 44
0.0
 50
0.0
 51
0.0
 71
     0
 72
   100
 73
     1
 74
     1
 75
     0
 76
     0
 77
     0
 78
     0
281
     0
 65
     1
110
0.0
120
0.0
130
0.0
111
1.0
121
0.0
131
0.0
112
0.0
122
1.0
132
0.0
 79
     0
146
0.0
1001
ACAD_NAV_VCDISPLAY
1070
     3
  0
ENDTAB
  0
TABLE
  2
LTYPE
  5
5
330
0
100
AcDbSymbolTable
 70
     6
  0
LTYPE
  5
14
330
5
100
AcDbSymbolTableRecord
100
AcDbLinetypeTableRecord
  2
BYBLOCK
 70
     0
  3

 72
    65
 73
     0
 40
0.0
  0
LTYPE
  5
15
330
5
100
AcDbSymbolTableRecord
100
AcDbLinetypeTableRecord
  2
BYLAYER
 70
     0
  3

 72
    65
 73
     0
 40
0.0
  0
LTYPE
  5
16
330
5
100
AcDbSymbolTableRecord
100
AcDbLinetypeTableRecord
  2
CONTINUOUS
 70
     0
  3
Solid line
 72
    65
 73
     0
 40
0.0
  0
LTYPE
  5
1F5
330
5
100
AcDbSymbolTableRecord
100
AcDbLinetypeTableRecord
  2
CENTER
 70
     0
  3
____ _ ____ _ ____ _ ____ _ ____ _ ____ _ ____
 72
    65
 73
     4
 40
0.6
 49
0.375
 74
     0
 49
-0.075
 74
     0
 49
0.075
 74
     0
 49
-0.075
 74
     0
  0
LTYPE
  5
1F6
330
5
100
AcDbSymbolTableRecord
100
AcDbLinetypeTableRecord
  2
HIDDEN
 70
     0
  3
- - - - - - - - - - - - - - - - - - - -
 72
    65
 73
     2
 40
0.2
 49
0.1
 74
     0
 49
-0.1
 74
     0
  0
LTYPE
  5
1F7
330
5
100
AcDbSymbolTableRecord
100
AcDbLinetypeTableRecord
  2
PHANTOM
 70
     0
  3
_____ _ _ _____ _ _ _____ _ _ _____
 72
    65
 73
     6
 40
0.8
 49
0.45
 74
     0
 49
-0.05
 74
     0
 49
0.1
 74
     0
 49
-0.05
 74
     0
 49
0.1
 74
     0
 49
-0.05
 74
     0
  0
LTYPE
  5
1F8
330
5
100
AcDbSymbolTableRecord
100
AcDbLinetypeTableRecord
  2
DOT
 70
     0
  3
. . . . . . . . . . . . . . . . . . . .
 72
    65
 73
     2
 40
0.2
 49
0.1
 74
     0
 49
-0.1
 74
     0
  0
LTYPE
  5
1F9
330
5
100
AcDbSymbolTableRecord
100
AcDbLinetypeTableRecord
  2
DASHED
 70
     0
  3
- - - - - - - - - - - - - - - - - - - -
 72
    65
 73
     2
 40
0.2
 49
0.1
 74
     0
 49
-0.1
 74
     0
  0
ENDTAB
  0
TABLE
  2
LAYER
  5
2
330
0
100
AcDbSymbolTable
 70
    23
  0
LAYER
  5
10
102
{ACAD_XDICTIONARY
360
16F1
102
}
330
2
100
AcDbSymbolTableRecord
100
AcDbLayerTableRecord
  2
0
 70
     0
 62
     7
  6
CONTINUOUS
370
    -3
390
F
  0
LAYER
  5
1FA
102
{ACAD_XDICTIONARY
360
16F3
102
}
330
2
100
AcDbSymbolTableRecord
100
AcDbLayerTableRecord
  2
DEFAULT_1
 70
     0
 62
     7
  6
CENTER
370
    -3
390
F
  0
LAYER
  5
1FB
102
{ACAD_XDICTIONARY
360
16F5
102
}
330
2
100
AcDbSymbolTableRecord
100
AcDbLayerTableRecord
  2
DEFAULT_2
 70
     0
 62
     7
  6
HIDDEN
370
    -3
390
F
  0
LAYER
  5
1FC
102
{ACAD_XDICTIONARY
360
16F7
102
}
330
2
100
AcDbSymbolTableRecord
100
AcDbLayerTableRecord
  2
DEFAULT_3
 70
     0
 62
     7
  6
PHANTOM
370
    -3
390
F
  0
LAYER
  5
1FD
102
{ACAD_XDICTIONARY
360
16F9
102
}
330
2
100
AcDbSymbolTableRecord
100
AcDbLayerTableRecord
  2
1_CURVES
 70
     0
 62
     7
  6
CONTINUOUS
370
    -3
390
F
  0
LAYER
  5
1FE
102
{ACAD_XDICTIONARY
360
16FB
102
}
330
2
100
AcDbSymbolTableRecord
100
AcDbLayerTableRecord
  2
1_CURVES_JETS
 70
     0
 62
     7
  6
CONTINUOUS
370
    -3
390
F
  0
LAYER
  5
1FF
102
{ACAD_XDICTIONARY
360
16FD
102
}
330
2
100
AcDbSymbolTableRecord
100
AcDbLayerTableRecord
  2
1_CURVES_SPEC_FRONT
 70
     0
 62
     7
  6
CONTINUOUS
370
    -3
390
F
  0
LAYER
  5
200
102
{ACAD_XDICTIONARY
360
16FF
102
}
330
2
100
AcDbSymbolTableRecord
100
AcDbLayerTableRecord
  2
1_CURVES_SPEC_RIGHT
 70
     0
 62
     7
  6
CONTINUOUS
370
    -3
390
F
  0
LAYER
  5
201
102
{ACAD_XDICTIONARY
360
1701
102
}
330
2
100
AcDbSymbolTableRecord
100
AcDbLayerTableRecord
  2
1_CURVES_ZONE-ROBINETTERIE
 70
     0
 62
     7
  6
CONTINUOUS
370
    -3
390
F
  0
LAYER
  5
202
102
{ACAD_XDICTIONARY
360
1703
102
}
330
2
100
AcDbSymbolTableRecord
100
AcDbLayerTableRecord
  2
2_PLANES
 70
     0
 62
     7
  6
CONTINUOUS
370
    -3
390
F
  0
LAYER
  5
203
102
{ACAD_XDICTIONARY
360
1705
102
}
330
2
100
AcDbSymbolTableRecord
100
AcDbLayerTableRecord
  2
2_PLANES_JETS
 70
     0
 62
     7
  6
CONTINUOUS
370
    -3
390
F
  0
LAYER
  5
204
102
{ACAD_XDICTIONARY
360
1707
102
}
330
2
100
AcDbSymbolTableRecord
100
AcDbLayerTableRecord
  2
3_POINTS
 70
     0
 62
     7
  6
CONTINUOUS
370
    -3
390
F
  0
LAYER
  5
205
102
{ACAD_XDICTIONARY
360
1709
102
}
330
2
100
AcDbSymbolTableRecord
100
AcDbLayerTableRecord
  2
3_POINTS_JETS
 70
     0
 62
     7
  6
CONTINUOUS
370
    -3
390
F
  0
LAYER
  5
206
102
{ACAD_XDICTIONARY
360
170B
102
}
330
2
100
AcDbSymbolTableRecord
100
AcDbLayerTableRecord
  2
4_CSYS
 70
     0
 62
     7
  6
CONTINUOUS
370
    -3
390
F
  0
LAYER
  5
207
102
{ACAD_XDICTIONARY
360
170D
102
}
330
2
100
AcDbSymbolTableRecord
100
AcDbLayerTableRecord
  2
5_AXIS
 70
     0
 62
     7
  6
CONTINUOUS
370
    -3
390
F
  0
LAYER
  5
208
102
{ACAD_XDICTIONARY
360
170F
102
}
330
2
100
AcDbSymbolTableRecord
100
AcDbLayerTableRecord
  2
5_AXIS_JETS
 70
     0
 62
     7
  6
CONTINUOUS
370
    -3
390
F
  0
LAYER
  5
209
102
{ACAD_XDICTIONARY
360
1711
102
}
330
2
100
AcDbSymbolTableRecord
100
AcDbLayerTableRecord
  2
6_SURFACES
 70
     0
 62
     7
  6
CONTINUOUS
370
    -3
390
F
  0
LAYER
  5
20A
102
{ACAD_XDICTIONARY
360
1713
102
}
330
2
100
AcDbSymbolTableRecord
100
AcDbLayerTableRecord
  2
6_SURFACES_DROP_IN
 70
     0
 62
     7
  6
CONTINUOUS
370
    -3
390
F
  0
LAYER
  5
20B
102
{ACAD_XDICTIONARY
360
1715
102
}
330
2
100
AcDbSymbolTableRecord
100
AcDbLayerTableRecord
  2
6_SURFACES_FS
 70
     0
 62
     7
  6
CONTINUOUS
370
    -3
390
F
  0
LAYER
  5
20C
102
{ACAD_XDICTIONARY
360
1717
102
}
330
2
100
AcDbSymbolTableRecord
100
AcDbLayerTableRecord
  2
6_SURFACES_OFFSET_FIBRE_ACRYLIQ
 70
     0
 62
     7
  6
CONTINUOUS
370
    -3
390
F
  0
LAYER
  5
20D
102
{ACAD_XDICTIONARY
360
1719
102
}
330
2
100
AcDbSymbolTableRecord
100
AcDbLayerTableRecord
  2
6_SURFACES_TOOLING
 70
     0
 62
     7
  6
CONTINUOUS
370
    -3
390
F
  0
LAYER
  5
20E
102
{ACAD_XDICTIONARY
360
171B
102
}
330
2
100
AcDbSymbolTableRecord
100
AcDbLayerTableRecord
  2
7_NOTES
 70
     0
 62
     7
  6
CONTINUOUS
370
    -3
390
F
  0
LAYER
  5
20F
102
{ACAD_XDICTIONARY
360
171D
102
}
330
2
100
AcDbSymbolTableRecord
100
AcDbLayerTableRecord
  2
XSEC_DATUMS
 70
     0
 62
     7
  6
CONTINUOUS
370
    -3
390
F
  0
ENDTAB
  0
TABLE
  2
STYLE
  5
3
330
0
100
AcDbSymbolTable
 70
     8
  0
STYLE
  5
11
330
3
100
AcDbSymbolTableRecord
100
AcDbTextStyleTableRecord
  2
STANDARD
 70
     0
 40
0.0
 41
0.8
 50
0.0
 71
     0
 42
0.2
  3
txt
  4

  0
STYLE
  5
210
330
3
100
AcDbSymbolTableRecord
100
AcDbTextStyleTableRecord
  2
TEXTSTYLE_1
 70
     0
 40
0.0
 41
0.8
 50
0.0
 71
     0
 42
0.2
  3
gdt
  4

  0
STYLE
  5
211
330
3
100
AcDbSymbolTableRecord
100
AcDbTextStyleTableRecord
  2
TEXTSTYLE_2
 70
     0
 40
0.0
 41
1.0
 50
0.0
 71
     0
 42
0.2
  3
trium.ttf
  4

  0
STYLE
  5
212
330
3
100
AcDbSymbolTableRecord
100
AcDbTextStyleTableRecord
  2
TEXTSTYLE_3
 70
     0
 40
0.0
 41
1.0
 50
0.0
 71
     0
 42
0.2
  3
trium.ttf
  4

  0
STYLE
  5
213
330
3
100
AcDbSymbolTableRecord
100
AcDbTextStyleTableRecord
  2
TEXTSTYLE_4
 70
     0
 40
0.0
 41
1.0
 50
0.0
 71
     0
 42
0.2
  3
txt_____.ttf
  4

1001
ACAD
1000
txt
1071
        2
  0
STYLE
  5
214
330
3
100
AcDbSymbolTableRecord
100
AcDbTextStyleTableRecord
  2
TEXTSTYLE_5
 70
     0
 40
0.0
 41
1.0
 50
0.0
 71
     0
 42
0.2
  3
txt
  4

  0
STYLE
  5
215
330
3
100
AcDbSymbolTableRecord
100
AcDbTextStyleTableRecord
  2
TEXTSTYLE_6
 70
     0
 40
0.0
 41
1.0
 50
0.0
 71
     0
 42
0.2
  3
trium.ttf
  4

  0
STYLE
  5
216
330
3
100
AcDbSymbolTableRecord
100
AcDbTextStyleTableRecord
  2
TEXTSTYLE_7
 70
     0
 40
0.0
 41
0.8
 50
0.0
 71
     0
 42
0.2
  3
txt
  4

1001
ACAD
1000
Txt
1071
        2
  0
ENDTAB
  0
TABLE
  2
VIEW
  5
6
330
0
100
AcDbSymbolTable
 70
     0
  0
ENDTAB
  0
TABLE
  2
UCS
  5
7
330
0
100
AcDbSymbolTable
 70
     0
  0
ENDTAB
  0
TABLE
  2
APPID
  5
9
330
0
100
AcDbSymbolTable
 70
     3
  0
APPID
  5
217
330
9
100
AcDbSymbolTableRecord
100
AcDbRegAppTableRecord
  2
ACAD
 70
     0
  0
APPID
  5
16E1
330
9
100
AcDbSymbolTableRecord
100
AcDbRegAppTableRecord
  2
ACAD_MLEADERVER
 70
     0
  0
APPID
  5
173D
330
9
100
AcDbSymbolTableRecord
100
AcDbRegAppTableRecord
  2
ACAD_NAV_VCDISPLAY
 70
     0
  0
ENDTAB
  0
TABLE
  2
DIMSTYLE
  5
A
330
0
100
AcDbSymbolTable
 70
     4
100
AcDbDimStyleTable
 71
     0
  0
DIMSTYLE
105
234
330
A
100
AcDbSymbolTableRecord
100
AcDbDimStyleTableRecord
  2
STANDARD
 70
     0
 41
2.0
 44
0.125
 47
0.00001
 48
0.00001
 71
     1
 78
     4
140
1.333333333299999
271
     5
272
     5
284
     4
340
11
341
21A
342
21A
343
21A
344
21A
  0
DIMSTYLE
105
235
330
A
100
AcDbSymbolTableRecord
100
AcDbDimStyleTableRecord
  2
DIMSTYLE_1
 70
     0
 41
2.0
 44
0.125
 47
0.00001
 48
0.00001
 78
     4
140
1.333333333299999
147
0.0625
271
     3
272
     3
284
     4
340
11
341
21A
342
21A
343
21A
344
21A
  0
DIMSTYLE
105
236
330
A
100
AcDbSymbolTableRecord
100
AcDbDimStyleTableRecord
  2
DIMSTYLE_2
 70
     0
 41
2.0
 44
0.125
 47
0.00001
 48
0.00001
 78
     4
140
1.333333333299999
147
0.0625
271
     6
272
     6
284
     4
340
11
341
21A
342
21A
343
21A
344
21A
  0
DIMSTYLE
105
237
330
A
100
AcDbSymbolTableRecord
100
AcDbDimStyleTableRecord
  2
DIMSTYLE_3
 70
     0
 41
2.0
 44
0.125
 47
0.5
 48
0.5
 78
     4
140
1.333333333299999
271
     0
272
     0
284
     4
340
11
341
21A
342
21A
343
21A
344
21A
  0
ENDTAB
  0
TABLE
  2
BLOCK_RECORD
  5
1
330
0
100
AcDbSymbolTable
 70
     8
  0
BLOCK_RECORD
  5
218
330
1
100
AcDbSymbolTableRecord
100
AcDbBlockTableRecord
  2
*Model_Space
340
1656
  0
BLOCK_RECORD
  5
219
330
1
100
AcDbSymbolTableRecord
100
AcDbBlockTableRecord
  2
*Paper_Space
340
1657
  0
BLOCK_RECORD
  5
21A
330
1
100
AcDbSymbolTableRecord
100
AcDbBlockTableRecord
  2
_FILLED
340
0
  0
BLOCK_RECORD
  5
22D
330
1
100
AcDbSymbolTableRecord
100
AcDbBlockTableRecord
  2
SYMBOL_3_BL6
340
0
  0
BLOCK_RECORD
  5
22E
330
1
100
AcDbSymbolTableRecord
100
AcDbBlockTableRecord
  2
SYMBOL_10_BL5
340
0
  0
BLOCK_RECORD
  5
22F
330
1
100
AcDbSymbolTableRecord
100
AcDbBlockTableRecord
  2
SYMBOL_9_BL4
340
0
  0
BLOCK_RECORD
  5
230
330
1
100
AcDbSymbolTableRecord
100
AcDbBlockTableRecord
  2
SYMBOL_7_BL3
340
0
  0
BLOCK_RECORD
  5
231
330
1
100
AcDbSymbolTableRecord
100
AcDbBlockTableRecord
  2
SYMBOL_6_BL2
340
0
  0
BLOCK_RECORD
  5
232
330
1
100
AcDbSymbolTableRecord
100
AcDbBlockTableRecord
  2
SYMBOL_5_BL1
340
0
  0
BLOCK_RECORD
  5
233
330
1
100
AcDbSymbolTableRecord
100
AcDbBlockTableRecord
  2
SYMBOL_0_BL0
340
0
  0
ENDTAB
  0
ENDSEC
  0
SECTION
  2
BLOCKS
  0
BLOCK
  5
20
330
218
100
AcDbEntity
  8
0
100
AcDbBlockBegin
  2
*Model_Space
 70
     0
 10
0.0
 20
0.0
 30
0.0
  3
*Model_Space
  1

  0
ENDBLK
  5
21
330
218
100
AcDbEntity
  8
0
100
AcDbBlockEnd
  0
BLOCK
  5
1C
330
219
100
AcDbEntity
 67
     1
  8
0
100
AcDbBlockBegin
  2
*Paper_Space
 70
     0
 10
0.0
 20
0.0
 30
0.0
  3
*Paper_Space
  1

  0
ENDBLK
  5
1D
330
219
100
AcDbEntity
 67
     1
  8
0
100
AcDbBlockEnd
  0
BLOCK
  5
31B
330
21A
100
AcDbEntity
  8
0
100
AcDbBlockBegin
  2
_FILLED
 70
     0
 10
0.0
 20
0.0
 30
0.0
  3
_FILLED
  1

  0
SOLID
  5
31C
330
21A
100
AcDbEntity
  8
0
  6
ByBlock
 62
     0
100
AcDbTrace
 10
0.0
 20
0.0
 30
0.0
 11
-1.0
 21
0.1666666667
 31
0.0
 12
-1.0
 22
-0.1666666667
 32
0.0
 13
-1.0
 23
-0.1666666667
 33
0.0
  0
ENDBLK
  5
31D
330
21A
100
AcDbEntity
  8
0
  6
ByBlock
 62
     0
100
AcDbBlockEnd
  0
BLOCK
  5
238
330
22D
100
AcDbEntity
  8
0
  6
Continuous
 62
     7
100
AcDbBlockBegin
  2
SYMBOL_3_BL6
 70
     0
 10
118.6600548611
 20
51.54058345260001
 30
0.0
  3
SYMBOL_3_BL6
  1

  0
TEXT
  5
239
330
22D
100
AcDbEntity
  8
0
  6
Continuous
 62
     7
100
AcDbText
 10
112.3459945593
 20
53.7856174384
 30
0.0
 40
1.1626666667
  1
INTERNAL USE 
 50
10.0
  7
TEXTSTYLE_3
100
AcDbText
  0
TEXT
  5
23A
330
22D
100
AcDbEntity
  8
0
  6
Continuous
 62
     7
100
AcDbText
 10
111.6023103553
 20
51.78409626069999
 30
0.0
 40
1.1626666667
  1
DOCUMENT ONLY
 50
10.0
  7
TEXTSTYLE_3
100
AcDbText
  0
TEXT
  5
23B
330
22D
100
AcDbEntity
  8
0
  6
Continuous
 62
     7
100
AcDbText
 10
117.3870379186
 20
51.5356682102
 30
0.0
 40
1.1626666667
  1
 
 50
10.0
  7
TEXTSTYLE_5
100
AcDbText
  0
TEXT
  5
23C
330
22D
100
AcDbEntity
  8
0
  6
Continuous
 62
     7
100
AcDbText
 10
108.9423900355
 20
47.3585738039
 30
0.0
 40
1.1626666667
  1
DOCUMENT POUR USAGE
 50
10.0
  7
TEXTSTYLE_3
100
AcDbText
  0
TEXT
  5
23D
330
22D
100
AcDbEntity
  8
0
  6
Continuous
 62
     7
100
AcDbText
 10
109.3714894816
 20
45.34182534350001
 30
0.0
 40
1.1626666667
  1
A L'INTERNE SEULEMENT
 50
10.0
  7
TEXTSTYLE_3
100
AcDbText
  0
LINE
  5
23E
330
22D
100
AcDbEntity
  8
0
  6
Continuous
 62
     7
100
AcDbLine
 10
132.5166065844
 20
47.1970498346
 30
0.0
 11
132.523365517
 21
47.2038087673
 31
0.0
  0
LINE
  5
23F
330
22D
100
AcDbEntity
  8
0
  6
Continuous
 62
     7
100
AcDbLine
 10
131.784037018
 20
47.0678780548
 30
0.0
 11
132.4329184631
 21
47.7167594999
 31
0.0
  0
LINE
  5
240
330
22D
100
AcDbEntity
  8
0
  6
Continuous
 62
     7
100
AcDbLine
 10
131.0514674516
 20
46.93870627499999
 30
0.0
 11
132.3424714092
 21
48.2297102326
 31
0.0
  0
LINE
  5
241
330
22D
100
AcDbEntity
  8
0
  6
Continuous
 62
     7
100
AcDbLine
 10
130.3188978851
 20
46.8095344952
 30
0.0
 11
132.2520243552
 21
48.7426609653
 31
0.0
  0
LINE
  5
242
330
22D
100
AcDbEntity
  8
0
  6
Continuous
 62
     7
100
AcDbLine
 10
129.5863283187
 20
46.6803627154
 30
0.0
 11
132.1615773013
 21
49.2556116979
 31
0.0
  0
LINE
  5
243
330
22D
100
AcDbEntity
  8
0
  6
Continuous
 62
     7
100
AcDbLine
 10
128.8537587523
 20
46.5511909356
 30
0.0
 11
130.3947625671
 21
48.09219475039999
 31
0.0
  0
LINE
  5
244
330
22D
100
AcDbEntity
  8
0
  6
Continuous
 62
     7
100
AcDbLine
 10
130.9921077598
 20
48.6895399431
 30
0.0
 11
132.0711302473
 21
49.76856243060001
 31
0.0
  0
LINE
  5
245
330
22D
100
AcDbEntity
  8
0
  6
Continuous
 62
     7
100
AcDbLine
 10
128.1211891859
 20
46.4220191558
 30
0.0
 11
129.6621930007
 21
47.9630229706
 31
0.0
  0
LINE
  5
246
330
22D
100
AcDbEntity
  8
0
  6
Continuous
 62
     7
100
AcDbLine
 10
130.9016607059
 20
49.2024906758
 30
0.0
 11
131.9806831934
 21
50.28151316329999
 31
0.0
  0
LINE
  5
247
330
22D
100
AcDbEntity
  8
0
  6
Continuous
 62
     7
100
AcDbLine
 10
127.3886196195
 20
46.292847376
 30
0.0
 11
128.9296234342
 21
47.8338511908
 31
0.0
  0
LINE
  5
248
330
22D
100
AcDbEntity
  8
0
  6
Continuous
 62
     7
100
AcDbLine
 10
130.8112136519
 20
49.7154414084
 30
0.0
 11
131.8902361394
 21
50.7944638959
 31
0.0
  0
LINE
  5
249
330
22D
100
AcDbEntity
  8
0
  6
Continuous
 62
     7
100
AcDbLine
 10
126.6560500531
 20
46.1636755962
 30
0.0
 11
128.1970538678
 21
47.70467941089999
 31
0.0
  0
LINE
  5
24A
330
22D
100
AcDbEntity
  8
0
  6
Continuous
 62
     7
100
AcDbLine
 10
130.720766598
 20
50.2283921411
 30
0.0
 11
131.7997890855
 21
51.30741462859999
 31
0.0
  0
LINE
  5
24B
330
22D
100
AcDbEntity
  8
0
  6
Continuous
 62
     7
100
AcDbLine
 10
125.9234804866
 20
46.0345038164
 30
0.0
 11
127.4644843014
 21
47.57550763109999
 31
0.0
  0
LINE
  5
24C
330
22D
100
AcDbEntity
  8
0
  6
Continuous
 62
     7
100
AcDbLine
 10
130.630319544
 20
50.7413428738
 30
0.0
 11
131.7093420316
 21
51.8203653613
 31
0.0
  0
LINE
  5
24D
330
22D
100
AcDbEntity
  8
0
  6
Continuous
 62
     7
100
AcDbLine
 10
125.1909109202
 20
45.9053320366
 30
0.0
 11
126.731914735
 21
47.44633585129999
 31
0.0
  0
LINE
  5
24E
330
22D
100
AcDbEntity
  8
0
  6
Continuous
 62
     7
100
AcDbLine
 10
130.5398724901
 20
51.2542936064
 30
0.0
 11
131.6188949776
 21
52.333316094
 31
0.0
  0
LINE
  5
24F
330
22D
100
AcDbEntity
  8
0
  6
Continuous
 62
     7
100
AcDbLine
 10
124.4583413538
 20
45.7761602568
 30
0.0
 11
125.9993451686
 21
47.31716407149999
 31
0.0
  0
LINE
  5
250
330
22D
100
AcDbEntity
  8
0
  6
Continuous
 62
     7
100
AcDbLine
 10
130.4494254361
 20
51.76724433909999
 30
0.0
 11
131.5284479237
 21
52.8462668266
 31
0.0
  0
LINE
  5
251
330
22D
100
AcDbEntity
  8
0
  6
Continuous
 62
     7
100
AcDbLine
 10
123.7257717874
 20
45.64698847699999
 30
0.0
 11
125.2667756022
 21
47.1879922917
 31
0.0
  0
LINE
  5
252
330
22D
100
AcDbEntity
  8
0
  6
Continuous
 62
     7
100
AcDbLine
 10
130.3589783822
 20
52.2801950718
 30
0.0
 11
131.4380008697
 21
53.35921755930001
 31
0.0
  0
LINE
  5
253
330
22D
100
AcDbEntity
  8
0
  6
Continuous
 62
     7
100
AcDbLine
 10
122.993202221
 20
45.5178166971
 30
0.0
 11
124.5342060357
 21
47.05882051189999
 31
0.0
  0
LINE
  5
254
330
22D
100
AcDbEntity
  8
0
  6
Continuous
 62
     7
100
AcDbLine
 10
130.2685313283
 20
52.7931458044
 30
0.0
 11
131.3475538158
 21
53.87216829199999
 31
0.0
  0
LINE
  5
255
330
22D
100
AcDbEntity
  8
0
  6
Continuous
 62
     7
100
AcDbLine
 10
122.2606326545
 20
45.3886449173
 30
0.0
 11
123.8016364693
 21
46.9296487321
 31
0.0
  0
LINE
  5
256
330
22D
100
AcDbEntity
  8
0
  6
Continuous
 62
     7
100
AcDbLine
 10
129.9656517284
 20
53.09366399119999
 30
0.0
 11
131.2571067618
 21
54.3851190246
 31
0.0
  0
LINE
  5
257
330
22D
100
AcDbEntity
  8
0
  6
Continuous
 62
     7
100
AcDbLine
 10
121.5280630881
 20
45.2594731375
 30
0.0
 11
123.0690669029
 21
46.80047695229999
 31
0.0
  0
LINE
  5
258
330
22D
100
AcDbEntity
  8
0
  6
Continuous
 62
     7
100
AcDbLine
 10
129.233082162
 20
52.96449221140001
 30
0.0
 11
131.1666597079
 21
54.89806975729999
 31
0.0
  0
LINE
  5
259
330
22D
100
AcDbEntity
  8
0
  6
Continuous
 62
     7
100
AcDbLine
 10
120.7954935217
 20
45.13030135770001
 30
0.0
 11
122.3364973365
 21
46.6713051725
 31
0.0
  0
LINE
  5
25A
330
22D
100
AcDbEntity
  8
0
  6
Continuous
 62
     7
100
AcDbLine
 10
128.5005125956
 20
52.8353204316
 30
0.0
 11
129.5278548939
 21
53.86266272989999
 31
0.0
  0
LINE
  5
25B
330
22D
100
AcDbEntity
  8
0
  6
Continuous
 62
     7
100
AcDbLine
 10
129.9971901664
 20
54.3319980024
 30
0.0
 11
131.0762126539
 21
55.41102049
 31
0.0
  0
LINE
  5
25C
330
22D
100
AcDbEntity
  8
0
  6
Continuous
 62
     7
100
AcDbLine
 10
120.0629239553
 20
45.0011295779
 30
0.0
 11
121.6039277701
 21
46.5421333927
 31
0.0
  0
LINE
  5
25D
330
22D
100
AcDbEntity
  8
0
  6
Continuous
 62
     7
100
AcDbLine
 10
127.7679430292
 20
52.7061486518
 30
0.0
 11
128.7952851178
 21
53.7334907405
 31
0.0
  0
LINE
  5
25E
330
22D
100
AcDbEntity
  8
0
  6
Continuous
 62
     7
100
AcDbLine
 10
129.9067431125
 20
54.8449487351
 30
0.0
 11
130.9857656
 21
55.9239712226
 31
0.0
  0
LINE
  5
25F
330
22D
100
AcDbEntity
  8
0
  6
Continuous
 62
     7
100
AcDbLine
 10
119.3303543889
 20
44.8719577981
 30
0.0
 11
120.8713582037
 21
46.41296161289999
 31
0.0
  0
LINE
  5
260
330
22D
100
AcDbEntity
  8
0
  6
Continuous
 62
     7
100
AcDbLine
 10
127.0353734628
 20
52.576976872
 30
0.0
 11
128.0627153418
 21
53.604318751
 31
0.0
  0
LINE
  5
261
330
22D
100
AcDbEntity
  8
0
  6
Continuous
 62
     7
100
AcDbLine
 10
129.8162960585
 20
55.35789946779999
 30
0.0
 11
130.8953185461
 21
56.4369219553
 31
0.0
  0
LINE
  5
262
330
22D
100
AcDbEntity
  8
0
  6
Continuous
 62
     7
100
AcDbLine
 10
118.5977848225
 20
44.7427860183
 30
0.0
 11
120.1387886372
 21
46.2837898331
 31
0.0
  0
LINE
  5
263
330
22D
100
AcDbEntity
  8
0
  6
Continuous
 62
     7
100
AcDbLine
 10
126.3028038963
 20
52.44780509219999
 30
0.0
 11
127.3301455658
 21
53.4751467616
 31
0.0
  0
LINE
  5
264
330
22D
100
AcDbEntity
  8
0
  6
Continuous
 62
     7
100
AcDbLine
 10
129.7258490046
 20
55.8708502005
 30
0.0
 11
130.8048714921
 21
56.949872688
 31
0.0
  0
LINE
  5
265
330
22D
100
AcDbEntity
  8
0
  6
Continuous
 62
     7
100
AcDbLine
 10
117.865215256
 20
44.6136142385
 30
0.0
 11
119.4062190708
 21
46.15461805329999
 31
0.0
  0
LINE
  5
266
330
22D
100
AcDbEntity
  8
0
  6
Continuous
 62
     7
100
AcDbLine
 10
125.5702343299
 20
52.31863331239999
 30
0.0
 11
126.5975757897
 21
53.3459747722
 31
0.0
  0
LINE
  5
267
330
22D
100
AcDbEntity
  8
0
  6
Continuous
 62
     7
100
AcDbLine
 10
129.6354019507
 20
56.38380093310001
 30
0.0
 11
130.7144244382
 21
57.4628234206
 31
0.0
  0
LINE
  5
268
330
22D
100
AcDbEntity
  8
0
  6
Continuous
 62
     7
100
AcDbLine
 10
117.1326456896
 20
44.4844424587
 30
0.0
 11
118.6736495044
 21
46.0254462735
 31
0.0
  0
LINE
  5
269
330
22D
100
AcDbEntity
  8
0
  6
Continuous
 62
     7
100
AcDbLine
 10
124.8376647635
 20
52.1894615326
 30
0.0
 11
125.8650060137
 21
53.21680278279999
 31
0.0
  0
LINE
  5
26A
330
22D
100
AcDbEntity
  8
0
  6
Continuous
 62
     7
100
AcDbLine
 10
129.5449548967
 20
56.89675166579999
 30
0.0
 11
130.6239773842
 21
57.9757741533
 31
0.0
  0
LINE
  5
26B
330
22D
100
AcDbEntity
  8
0
  6
Continuous
 62
     7
100
AcDbLine
 10
116.4000761232
 20
44.3552706789
 30
0.0
 11
117.941079938
 21
45.8962744937
 31
0.0
  0
LINE
  5
26C
330
22D
100
AcDbEntity
  8
0
  6
Continuous
 62
     7
100
AcDbLine
 10
124.1050951971
 20
52.06028975279999
 30
0.0
 11
125.1324362377
 21
53.0876307934
 31
0.0
  0
LINE
  5
26D
330
22D
100
AcDbEntity
  8
0
  6
Continuous
 62
     7
100
AcDbLine
 10
129.4545078428
 20
57.4097023985
 30
0.0
 11
130.5335303303
 21
58.48872488600001
 31
0.0
  0
LINE
  5
26E
330
22D
100
AcDbEntity
  8
0
  6
Continuous
 62
     7
100
AcDbLine
 10
115.6675065568
 20
44.2260988991
 30
0.0
 11
117.2085103716
 21
45.7671027139
 31
0.0
  0
LINE
  5
26F
330
22D
100
AcDbEntity
  8
0
  6
Continuous
 62
     7
100
AcDbLine
 10
123.3725256307
 20
51.931117973
 30
0.0
 11
124.3998664617
 21
52.95845880399999
 31
0.0
  0
LINE
  5
270
330
22D
100
AcDbEntity
  8
0
  6
Continuous
 62
     7
100
AcDbLine
 10
129.3640607888
 20
57.9226531311
 30
0.0
 11
130.4430832763
 21
59.0016756186
 31
0.0
  0
LINE
  5
271
330
22D
100
AcDbEntity
  8
0
  6
Continuous
 62
     7
100
AcDbLine
 10
114.9349369904
 20
44.0969271193
 30
0.0
 11
116.4759408051
 21
45.6379309341
 31
0.0
  0
LINE
  5
272
330
22D
100
AcDbEntity
  8
0
  6
Continuous
 62
     7
100
AcDbLine
 10
122.6399560643
 20
51.80194619319999
 30
0.0
 11
123.6672966856
 21
52.8292868145
 31
0.0
  0
LINE
  5
273
330
22D
100
AcDbEntity
  8
0
  6
Continuous
 62
     7
100
AcDbLine
 10
129.2736137349
 20
58.4356038638
 30
0.0
 11
130.3526362224
 21
59.5146263513
 31
0.0
  0
LINE
  5
274
330
22D
100
AcDbEntity
  8
0
  6
Continuous
 62
     7
100
AcDbLine
 10
114.2023674239
 20
43.96775533949999
 30
0.0
 11
115.7433712387
 21
45.5087591543
 31
0.0
  0
LINE
  5
275
330
22D
100
AcDbEntity
  8
0
  6
Continuous
 62
     7
100
AcDbLine
 10
121.9073864978
 20
51.6727744134
 30
0.0
 11
122.9347269096
 21
52.7001148251
 31
0.0
  0
LINE
  5
276
330
22D
100
AcDbEntity
  8
0
  6
Continuous
 62
     7
100
AcDbLine
 10
129.0987376335
 20
58.86412554899999
 30
0.0
 11
130.2621891685
 21
60.02757708399999
 31
0.0
  0
LINE
  5
277
330
22D
100
AcDbEntity
  8
0
  6
Continuous
 62
     7
100
AcDbLine
 10
113.4697978575
 20
43.83858355970001
 30
0.0
 11
115.0108016723
 21
45.3795873745
 31
0.0
  0
LINE
  5
278
330
22D
100
AcDbEntity
  8
0
  6
Continuous
 62
     7
100
AcDbLine
 10
121.1748169314
 20
51.5436026336
 30
0.0
 11
122.2021571336
 21
52.57094283569999
 31
0.0
  0
LINE
  5
279
330
22D
100
AcDbEntity
  8
0
  6
Continuous
 62
     7
100
AcDbLine
 10
128.366168067
 20
58.73495376920001
 30
0.0
 11
129.9071718818
 21
60.275957584
 31
0.0
  0
LINE
  5
27A
330
22D
100
AcDbEntity
  8
0
  6
Continuous
 62
     7
100
AcDbLine
 10
112.7372282911
 20
43.70941177989999
 30
0.0
 11
114.2782321059
 21
45.25041559459999
 31
0.0
  0
LINE
  5
27B
330
22D
100
AcDbEntity
  8
0
  6
Continuous
 62
     7
100
AcDbLine
 10
120.442247365
 20
51.4144308538
 30
0.0
 11
121.4695873575
 21
52.4417708463
 31
0.0
  0
LINE
  5
27C
330
22D
100
AcDbEntity
  8
0
  6
Continuous
 62
     7
100
AcDbLine
 10
127.6335985006
 20
58.60578198939999
 30
0.0
 11
129.1746023154
 21
60.1467858042
 31
0.0
  0
LINE
  5
27D
330
22D
100
AcDbEntity
  8
0
  6
Continuous
 62
     7
100
AcDbLine
 10
112.0046587247
 20
43.5802400001
 30
0.0
 11
113.5456625395
 21
45.12124381479999
 31
0.0
  0
LINE
  5
27E
330
22D
100
AcDbEntity
  8
0
  6
Continuous
 62
     7
100
AcDbLine
 10
119.7096777986
 20
51.285259074
 30
0.0
 11
120.7370175815
 21
52.3125988569
 31
0.0
  0
LINE
  5
27F
330
22D
100
AcDbEntity
  8
0
  6
Continuous
 62
     7
100
AcDbLine
 10
126.9010289342
 20
58.4766102096
 30
0.0
 11
128.442032749
 21
60.01761402439999
 31
0.0
  0
LINE
  5
280
330
22D
100
AcDbEntity
  8
0
  6
Continuous
 62
     7
100
AcDbLine
 10
111.2720891583
 20
43.45106822029999
 30
0.0
 11
112.8130929731
 21
44.992072035
 31
0.0
  0
LINE
  5
281
330
22D
100
AcDbEntity
  8
0
  6
Continuous
 62
     7
100
AcDbLine
 10
118.9771082322
 20
51.15608729409999
 30
0.0
 11
120.0044478055
 21
52.1834268675
 31
0.0
  0
LINE
  5
282
330
22D
100
AcDbEntity
  8
0
  6
Continuous
 62
     7
100
AcDbLine
 10
126.1684593678
 20
58.3474384298
 30
0.0
 11
127.7094631826
 21
59.8884422445
 31
0.0
  0
LINE
  5
283
330
22D
100
AcDbEntity
  8
0
  6
Continuous
 62
     7
100
AcDbLine
 10
110.5395195919
 20
43.3218964405
 30
0.0
 11
112.0805234066
 21
44.8629002552
 31
0.0
  0
LINE
  5
284
330
22D
100
AcDbEntity
  8
0
  6
Continuous
 62
     7
100
AcDbLine
 10
118.2445386657
 20
51.0269155143
 30
0.0
 11
119.2718780295
 21
52.0542548781
 31
0.0
  0
LINE
  5
285
330
22D
100
AcDbEntity
  8
0
  6
Continuous
 62
     7
100
AcDbLine
 10
125.4358898014
 20
58.21826664999999
 30
0.0
 11
126.9768936161
 21
59.7592704647
 31
0.0
  0
LINE
  5
286
330
22D
100
AcDbEntity
  8
0
  6
Continuous
 62
     7
100
AcDbLine
 10
109.8069500254
 20
43.19272466060001
 30
0.0
 11
111.3479538402
 21
44.7337284754
 31
0.0
  0
LINE
  5
287
330
22D
100
AcDbEntity
  8
0
  6
Continuous
 62
     7
100
AcDbLine
 10
117.5119690993
 20
50.8977437345
 30
0.0
 11
118.5393082534
 21
51.9250828886
 31
0.0
  0
LINE
  5
288
330
22D
100
AcDbEntity
  8
0
  6
Continuous
 62
     7
100
AcDbLine
 10
124.703320235
 20
58.08909487020001
 30
0.0
 11
126.2443240497
 21
59.6300986849
 31
0.0
  0
LINE
  5
289
330
22D
100
AcDbEntity
  8
0
  6
Continuous
 62
     7
100
AcDbLine
 10
109.074380459
 20
43.06355288079999
 30
0.0
 11
110.6153842738
 21
44.6045566956
 31
0.0
  0
LINE
  5
28A
330
22D
100
AcDbEntity
  8
0
  6
Continuous
 62
     7
100
AcDbLine
 10
116.7793995329
 20
50.7685719547
 30
0.0
 11
117.8067384774
 21
51.7959108992
 31
0.0
  0
LINE
  5
28B
330
22D
100
AcDbEntity
  8
0
  6
Continuous
 62
     7
100
AcDbLine
 10
123.9707506685
 20
57.95992309039999
 30
0.0
 11
125.5117544833
 21
59.5009269051
 31
0.0
  0
LINE
  5
28C
330
22D
100
AcDbEntity
  8
0
  6
Continuous
 62
     7
100
AcDbLine
 10
108.3418108926
 20
42.934381101
 30
0.0
 11
109.8828147074
 21
44.4753849158
 31
0.0
  0
LINE
  5
28D
330
22D
100
AcDbEntity
  8
0
  6
Continuous
 62
     7
100
AcDbLine
 10
116.0468299665
 20
50.6394001749
 30
0.0
 11
117.0741687014
 21
51.6667389098
 31
0.0
  0
LINE
  5
28E
330
22D
100
AcDbEntity
  8
0
  6
Continuous
 62
     7
100
AcDbLine
 10
123.2381811021
 20
57.8307513105
 30
0.0
 11
124.7791849169
 21
59.3717551253
 31
0.0
  0
LINE
  5
28F
330
22D
100
AcDbEntity
  8
0
  6
Continuous
 62
     7
100
AcDbLine
 10
107.6092413262
 20
42.80520932119999
 30
0.0
 11
109.150245141
 21
44.346213136
 31
0.0
  0
LINE
  5
290
330
22D
100
AcDbEntity
  8
0
  6
Continuous
 62
     7
100
AcDbLine
 10
115.3142604001
 20
50.5102283951
 30
0.0
 11
116.3415989253
 21
51.53756692039999
 31
0.0
  0
LINE
  5
291
330
22D
100
AcDbEntity
  8
0
  6
Continuous
 62
     7
100
AcDbLine
 10
122.5056115357
 20
57.7015795307
 30
0.0
 11
124.0466153505
 21
59.2425833455
 31
0.0
  0
LINE
  5
292
330
22D
100
AcDbEntity
  8
0
  6
Continuous
 62
     7
100
AcDbLine
 10
107.0579205537
 20
42.8572863353
 30
0.0
 11
108.4176755745
 21
44.21704135619999
 31
0.0
  0
LINE
  5
293
330
22D
100
AcDbEntity
  8
0
  6
Continuous
 62
     7
100
AcDbLine
 10
114.5816908337
 20
50.3810566153
 30
0.0
 11
115.6090291493
 21
51.408394931
 31
0.0
  0
LINE
  5
294
330
22D
100
AcDbEntity
  8
0
  6
Continuous
 62
     7
100
AcDbLine
 10
121.7730419693
 20
57.5724077509
 30
0.0
 11
123.3140457841
 21
59.11341156569999
 31
0.0
  0
LINE
  5
295
330
22D
100
AcDbEntity
  8
0
  6
Continuous
 62
     7
100
AcDbLine
 10
106.9674734997
 20
43.370237068
 30
0.0
 11
108.0464959872
 21
44.4492595555
 31
0.0
  0
LINE
  5
296
330
22D
100
AcDbEntity
  8
0
  6
Continuous
 62
     7
100
AcDbLine
 10
113.8491212672
 20
50.2518848355
 30
0.0
 11
114.8764593733
 21
51.2792229416
 31
0.0
  0
LINE
  5
297
330
22D
100
AcDbEntity
  8
0
  6
Continuous
 62
     7
100
AcDbLine
 10
121.0404724029
 20
57.4432359711
 30
0.0
 11
122.5814762176
 21
58.9842397859
 31
0.0
  0
LINE
  5
298
330
22D
100
AcDbEntity
  8
0
  6
Continuous
 62
     7
100
AcDbLine
 10
106.8770264458
 20
43.8831878007
 30
0.0
 11
107.9560489333
 21
44.96221028819999
 31
0.0
  0
LINE
  5
299
330
22D
100
AcDbEntity
  8
0
  6
Continuous
 62
     7
100
AcDbLine
 10
113.1165517008
 20
50.12271305569999
 30
0.0
 11
114.1438895973
 21
51.1500509521
 31
0.0
  0
LINE
  5
29A
330
22D
100
AcDbEntity
  8
0
  6
Continuous
 62
     7
100
AcDbLine
 10
120.3079028364
 20
57.31406419129999
 30
0.0
 11
121.8489066512
 21
58.85506800609999
 31
0.0
  0
LINE
  5
29B
330
22D
100
AcDbEntity
  8
0
  6
Continuous
 62
     7
100
AcDbLine
 10
106.7865793918
 20
44.3961385333
 30
0.0
 11
107.8656018794
 21
45.4751610208
 31
0.0
  0
LINE
  5
29C
330
22D
100
AcDbEntity
  8
0
  6
Continuous
 62
     7
100
AcDbLine
 10
112.3839821344
 20
49.9935412759
 30
0.0
 11
113.4113198212
 21
51.0208789627
 31
0.0
  0
LINE
  5
29D
330
22D
100
AcDbEntity
  8
0
  6
Continuous
 62
     7
100
AcDbLine
 10
119.57533327
 20
57.18489241149999
 30
0.0
 11
121.1163370848
 21
58.7258962263
 31
0.0
  0
LINE
  5
29E
330
22D
100
AcDbEntity
  8
0
  6
Continuous
 62
     7
100
AcDbLine
 10
106.6961323379
 20
44.909089266
 30
0.0
 11
107.7751548254
 21
45.9881117535
 31
0.0
  0
LINE
  5
29F
330
22D
100
AcDbEntity
  8
0
  6
Continuous
 62
     7
100
AcDbLine
 10
111.651412568
 20
49.86436949609999
 30
0.0
 11
112.6787500452
 21
50.8917069733
 31
0.0
  0
LINE
  5
2A0
330
22D
100
AcDbEntity
  8
0
  6
Continuous
 62
     7
100
AcDbLine
 10
118.8427637036
 20
57.05572063169999
 30
0.0
 11
120.3837675184
 21
58.5967244465
 31
0.0
  0
LINE
  5
2A1
330
22D
100
AcDbEntity
  8
0
  6
Continuous
 62
     7
100
AcDbLine
 10
106.6056852839
 20
45.42203999869999
 30
0.0
 11
107.6847077715
 21
46.5010624862
 31
0.0
  0
LINE
  5
2A2
330
22D
100
AcDbEntity
  8
0
  6
Continuous
 62
     7
100
AcDbLine
 10
110.9188430016
 20
49.7351977163
 30
0.0
 11
111.9461802692
 21
50.7625349839
 31
0.0
  0
LINE
  5
2A3
330
22D
100
AcDbEntity
  8
0
  6
Continuous
 62
     7
100
AcDbLine
 10
118.1101941372
 20
56.92654885189999
 30
0.0
 11
119.651197952
 21
58.4675526667
 31
0.0
  0
LINE
  5
2A4
330
22D
100
AcDbEntity
  8
0
  6
Continuous
 62
     7
100
AcDbLine
 10
106.51523823
 20
45.9349907313
 30
0.0
 11
107.5942607175
 21
47.0140132189
 31
0.0
  0
LINE
  5
2A5
330
22D
100
AcDbEntity
  8
0
  6
Continuous
 62
     7
100
AcDbLine
 10
110.1862734351
 20
49.6060259365
 30
0.0
 11
111.2136104931
 21
50.6333629945
 31
0.0
  0
LINE
  5
2A6
330
22D
100
AcDbEntity
  8
0
  6
Continuous
 62
     7
100
AcDbLine
 10
117.3776245708
 20
56.7973770721
 30
0.0
 11
118.9186283856
 21
58.3383808869
 31
0.0
  0
LINE
  5
2A7
330
22D
100
AcDbEntity
  8
0
  6
Continuous
 62
     7
100
AcDbLine
 10
106.4247911761
 20
46.44794146399999
 30
0.0
 11
107.5038136636
 21
47.52696395149999
 31
0.0
  0
LINE
  5
2A8
330
22D
100
AcDbEntity
  8
0
  6
Continuous
 62
     7
100
AcDbLine
 10
109.4537038687
 20
49.4768541567
 30
0.0
 11
110.4810407171
 21
50.5041910051
 31
0.0
  0
LINE
  5
2A9
330
22D
100
AcDbEntity
  8
0
  6
Continuous
 62
     7
100
AcDbLine
 10
116.6450550044
 20
56.66820529229999
 30
0.0
 11
118.1860588191
 21
58.2092091071
 31
0.0
  0
LINE
  5
2AA
330
22D
100
AcDbEntity
  8
0
  6
Continuous
 62
     7
100
AcDbLine
 10
106.3343441221
 20
46.9608921967
 30
0.0
 11
107.4133666096
 21
48.0399146842
 31
0.0
  0
LINE
  5
2AB
330
22D
100
AcDbEntity
  8
0
  6
Continuous
 62
     7
100
AcDbLine
 10
108.7211343023
 20
49.3476823769
 30
0.0
 11
109.7484709411
 21
50.3750190156
 31
0.0
  0
LINE
  5
2AC
330
22D
100
AcDbEntity
  8
0
  6
Continuous
 62
     7
100
AcDbLine
 10
115.9124854379
 20
56.5390335125
 30
0.0
 11
117.4534892527
 21
58.0800373273
 31
0.0
  0
LINE
  5
2AD
330
22D
100
AcDbEntity
  8
0
  6
Continuous
 62
     7
100
AcDbLine
 10
106.2438970682
 20
47.4738429293
 30
0.0
 11
107.3229195557
 21
48.55286541689999
 31
0.0
  0
LINE
  5
2AE
330
22D
100
AcDbEntity
  8
0
  6
Continuous
 62
     7
100
AcDbLine
 10
107.9885647359
 20
49.2185105971
 30
0.0
 11
109.0159011651
 21
50.2458470262
 31
0.0
  0
LINE
  5
2AF
330
22D
100
AcDbEntity
  8
0
  6
Continuous
 62
     7
100
AcDbLine
 10
115.1799158715
 20
56.4098617327
 30
0.0
 11
116.7209196863
 21
57.9508655475
 31
0.0
  0
LINE
  5
2B0
330
22D
100
AcDbEntity
  8
0
  6
Continuous
 62
     7
100
AcDbLine
 10
106.1534500142
 20
47.986793662
 30
0.0
 11
107.2324725017
 21
49.0658161495
 31
0.0
  0
LINE
  5
2B1
330
22D
100
AcDbEntity
  8
0
  6
Continuous
 62
     7
100
AcDbLine
 10
107.2559951695
 20
49.0893388173
 30
0.0
 11
108.283331389
 21
50.1166750368
 31
0.0
  0
LINE
  5
2B2
330
22D
100
AcDbEntity
  8
0
  6
Continuous
 62
     7
100
AcDbLine
 10
114.4473463051
 20
56.2806899529
 30
0.0
 11
115.9883501199
 21
57.8216937677
 31
0.0
  0
LINE
  5
2B3
330
22D
100
AcDbEntity
  8
0
  6
Continuous
 62
     7
100
AcDbLine
 10
106.0630029603
 20
48.4997443947
 30
0.0
 11
107.550761613
 21
49.98750304739999
 31
0.0
  0
LINE
  5
2B4
330
22D
100
AcDbEntity
  8
0
  6
Continuous
 62
     7
100
AcDbLine
 10
113.7147767387
 20
56.1515181731
 30
0.0
 11
115.2557805535
 21
57.6925219879
 31
0.0
  0
LINE
  5
2B5
330
22D
100
AcDbEntity
  8
0
  6
Continuous
 62
     7
100
AcDbLine
 10
105.9725559063
 20
49.0126951274
 30
0.0
 11
107.0515783939
 21
50.0917176149
 31
0.0
  0
LINE
  5
2B6
330
22D
100
AcDbEntity
  8
0
  6
Continuous
 62
     7
100
AcDbLine
 10
112.9822071723
 20
56.02234639329999
 30
0.0
 11
114.523210987
 21
57.5633502081
 31
0.0
  0
LINE
  5
2B7
330
22D
100
AcDbEntity
  8
0
  6
Continuous
 62
     7
100
AcDbLine
 10
105.8821088524
 20
49.52564586
 30
0.0
 11
106.9611313399
 21
50.6046683475
 31
0.0
  0
LINE
  5
2B8
330
22D
100
AcDbEntity
  8
0
  6
Continuous
 62
     7
100
AcDbLine
 10
112.2496376058
 20
55.8931746135
 30
0.0
 11
113.7906414206
 21
57.4341784282
 31
0.0
  0
LINE
  5
2B9
330
22D
100
AcDbEntity
  8
0
  6
Continuous
 62
     7
100
AcDbLine
 10
105.7916617985
 20
50.0385965927
 30
0.0
 11
106.870684286
 21
51.1176190802
 31
0.0
  0
LINE
  5
2BA
330
22D
100
AcDbEntity
  8
0
  6
Continuous
 62
     7
100
AcDbLine
 10
111.5170680394
 20
55.76400283369999
 30
0.0
 11
113.0580718542
 21
57.3050066484
 31
0.0
  0
LINE
  5
2BB
330
22D
100
AcDbEntity
  8
0
  6
Continuous
 62
     7
100
AcDbLine
 10
105.7012147445
 20
50.5515473254
 30
0.0
 11
106.780237232
 21
51.6305698129
 31
0.0
  0
LINE
  5
2BC
330
22D
100
AcDbEntity
  8
0
  6
Continuous
 62
     7
100
AcDbLine
 10
110.784498473
 20
55.6348310539
 30
0.0
 11
112.3255022878
 21
57.1758348686
 31
0.0
  0
LINE
  5
2BD
330
22D
100
AcDbEntity
  8
0
  6
Continuous
 62
     7
100
AcDbLine
 10
105.6107676906
 20
51.064498058
 30
0.0
 11
106.6897901781
 21
52.1435205455
 31
0.0
  0
LINE
  5
2BE
330
22D
100
AcDbEntity
  8
0
  6
Continuous
 62
     7
100
AcDbLine
 10
110.0519289066
 20
55.5056592741
 30
0.0
 11
111.5929327214
 21
57.0466630888
 31
0.0
  0
LINE
  5
2BF
330
22D
100
AcDbEntity
  8
0
  6
Continuous
 62
     7
100
AcDbLine
 10
105.5203206366
 20
51.5774487907
 30
0.0
 11
106.5993431241
 21
52.65647127819999
 31
0.0
  0
LINE
  5
2C0
330
22D
100
AcDbEntity
  8
0
  6
Continuous
 62
     7
100
AcDbLine
 10
109.3193593402
 20
55.3764874942
 30
0.0
 11
110.860363155
 21
56.91749130899999
 31
0.0
  0
LINE
  5
2C1
330
22D
100
AcDbEntity
  8
0
  6
Continuous
 62
     7
100
AcDbLine
 10
105.4298735827
 20
52.0903995234
 30
0.0
 11
106.5088960702
 21
53.1694220109
 31
0.0
  0
LINE
  5
2C2
330
22D
100
AcDbEntity
  8
0
  6
Continuous
 62
     7
100
AcDbLine
 10
108.5867897738
 20
55.2473157144
 30
0.0
 11
110.1277935885
 21
56.7883195292
 31
0.0
  0
LINE
  5
2C3
330
22D
100
AcDbEntity
  8
0
  6
Continuous
 62
     7
100
AcDbLine
 10
105.3394265287
 20
52.603350256
 30
0.0
 11
106.4184490163
 21
53.68237274350001
 31
0.0
  0
LINE
  5
2C4
330
22D
100
AcDbEntity
  8
0
  6
Continuous
 62
     7
100
AcDbLine
 10
107.8542202073
 20
55.11814393459999
 30
0.0
 11
109.3952240221
 21
56.6591477494
 31
0.0
  0
LINE
  5
2C5
330
22D
100
AcDbEntity
  8
0
  6
Continuous
 62
     7
100
AcDbLine
 10
105.2489794748
 20
53.1163009887
 30
0.0
 11
106.3280019623
 21
54.1953234762
 31
0.0
  0
LINE
  5
2C6
330
22D
100
AcDbEntity
  8
0
  6
Continuous
 62
     7
100
AcDbLine
 10
107.1216506409
 20
54.98897215479999
 30
0.0
 11
108.6626544557
 21
56.5299759696
 31
0.0
  0
LINE
  5
2C7
330
22D
100
AcDbEntity
  8
0
  6
Continuous
 62
     7
100
AcDbLine
 10
105.1585324209
 20
53.6292517214
 30
0.0
 11
106.2375549084
 21
54.7082742089
 31
0.0
  0
LINE
  5
2C8
330
22D
100
AcDbEntity
  8
0
  6
Continuous
 62
     7
100
AcDbLine
 10
106.3890810745
 20
54.859800375
 30
0.0
 11
107.9300848893
 21
56.4008041898
 31
0.0
  0
LINE
  5
2C9
330
22D
100
AcDbEntity
  8
0
  6
Continuous
 62
     7
100
AcDbLine
 10
105.0680853669
 20
54.142202454
 30
0.0
 11
107.1975153229
 21
56.27163241
 31
0.0
  0
LINE
  5
2CA
330
22D
100
AcDbEntity
  8
0
  6
Continuous
 62
     7
100
AcDbLine
 10
104.9776383129999
 20
54.6551531867
 30
0.0
 11
106.4649457564
 21
56.14246063020001
 31
0.0
  0
LINE
  5
2CB
330
22D
100
AcDbEntity
  8
0
  6
Continuous
 62
     7
100
AcDbLine
 10
104.887191259
 20
55.1681039194
 30
0.0
 11
105.73237619
 21
56.0132888504
 31
0.0
  0
LINE
  5
2CC
330
22D
100
AcDbEntity
  8
0
  6
Continuous
 62
     7
100
AcDbLine
 10
104.7967442051
 20
55.681054652
 30
0.0
 11
104.9998066236
 21
55.8841170706
 31
0.0
  0
ENDBLK
  5
2CD
330
22D
100
AcDbEntity
  8
0
  6
ByBlock
 62
     0
100
AcDbBlockEnd
  0
BLOCK
  5
2CE
330
22E
100
AcDbEntity
  8
0
  6
Continuous
 62
     7
100
AcDbBlockBegin
  2
SYMBOL_10_BL5
 70
     0
 10
20.50273063
 20
95.08976937339999
 30
0.0
  3
SYMBOL_10_BL5
  1

  0
TEXT
  5
2CF
330
22E
100
AcDbEntity
  8
0
  6
Continuous
 62
     7
100
AcDbText
 10
20.4602802142
 20
94.1838773803
 30
0.0
 40
1.333333852099999
  1
A
 50
40.0
  7
TEXTSTYLE_2
100
AcDbText
  0
ELLIPSE
  5
2D0
330
22E
100
AcDbEntity
  8
0
  6
Continuous
 62
     7
100
AcDbEllipse
 10
20.50273063
 20
95.08976937339999
 30
0.0
 11
-1.488338224999999
 21
-1.248864055699999
 31
0.0
210
0.0
220
0.0
230
1.0
 40
0.6606458385
 41
0.0
 42
6.283185307179586
  0
ENDBLK
  5
2D1
330
22E
100
AcDbEntity
  8
0
  6
ByBlock
 62
     0
100
AcDbBlockEnd
  0
BLOCK
  5
2D2
330
22F
100
AcDbEntity
  8
0
  6
Continuous
 62
     7
100
AcDbBlockBegin
  2
SYMBOL_9_BL4
 70
     0
 10
20.6540595965
 20
71.3912212609
 30
0.0
  3
SYMBOL_9_BL4
  1

  0
TEXT
  5
2D3
330
22F
100
AcDbEntity
  8
0
  6
Continuous
 62
     7
100
AcDbText
 10
19.7148378626
 20
71.3090500066
 30
0.0
 40
1.333333852099999
  1
C
 50
320.0
  7
TEXTSTYLE_2
100
AcDbText
  0
ELLIPSE
  5
2D4
330
22F
100
AcDbEntity
  8
0
  6
Continuous
 62
     7
100
AcDbEllipse
 10
20.6540595965
 20
71.3912212609
 30
0.0
 11
-1.488338224999999
 21
1.248864055699999
 31
0.0
210
0.0
220
0.0
230
1.0
 40
0.6606458385
 41
0.0
 42
6.283185307179586
  0
ENDBLK
  5
2D5
330
22F
100
AcDbEntity
  8
0
  6
ByBlock
 62
     0
100
AcDbBlockEnd
  0
BLOCK
  5
2D6
330
230
100
AcDbEntity
  8
0
  6
Continuous
 62
     7
100
AcDbBlockBegin
  2
SYMBOL_7_BL3
 70
     0
 10
47.6709077965
 20
70.1166851575
 30
0.0
  3
SYMBOL_7_BL3
  1

  0
TEXT
  5
2D7
330
230
100
AcDbEntity
  8
0
  6
Continuous
 62
     7
100
AcDbText
 10
47.14251252919999
 20
69.4500182315
 30
0.0
 40
1.333333852099999
  1
L
  7
TEXTSTYLE_2
100
AcDbText
  0
ELLIPSE
  5
2D8
330
230
100
AcDbEntity
  8
0
  6
Continuous
 62
     7
100
AcDbEllipse
 10
47.6709077965
 20
70.1166851575
 30
0.0
 11
-1.942887567899999
 21
0.0
 31
0.0
210
0.0
220
0.0
230
1.0
 40
0.6606458385
 41
0.0
 42
6.283185307179586
  0
ENDBLK
  5
2D9
330
230
100
AcDbEntity
  8
0
  6
ByBlock
 62
     0
100
AcDbBlockEnd
  0
BLOCK
  5
2DA
330
231
100
AcDbEntity
  8
0
  6
Continuous
 62
     7
100
AcDbBlockBegin
  2
SYMBOL_6_BL2
 70
     0
 10
60.05171729789999
 20
94.9480618201
 30
0.0
  3
SYMBOL_6_BL2
  1

  0
TEXT
  5
2DB
330
231
100
AcDbEntity
  8
0
  6
Continuous
 62
     7
100
AcDbText
 10
59.3730612453
 20
94.3980658621
 30
0.0
 40
1.333333852099999
  1
L
 50
348.0
  7
TEXTSTYLE_2
100
AcDbText
  0
TEXT
  5
2DC
330
231
100
AcDbEntity
  8
0
  6
Continuous
 62
     7
100
AcDbText
 10
55.77157237369999
 20
95.17627404690001
 30
0.0
 40
1.333333852099999
  1
4
 50
348.0
  7
TEXTSTYLE_2
100
AcDbText
  0
TEXT
  5
2DD
330
231
100
AcDbEntity
  8
0
  6
Continuous
 62
     7
100
AcDbText
 10
63.0547619234
 20
93.6281843182
 30
0.0
 40
1.333333852099999
  1
5
 50
348.0
  7
TEXTSTYLE_2
100
AcDbText
  0
ELLIPSE
  5
2DE
330
231
100
AcDbEntity
  8
0
  6
Continuous
 62
     7
100
AcDbEllipse
 10
60.028517656
 20
94.94030496290001
 30
0.0
 11
-1.900430813
 21
0.4039490393
 31
0.0
210
0.0
220
0.0
230
1.0
 40
0.6606458385
 41
0.0
 42
6.283185307179586
  0
ENDBLK
  5
2DF
330
231
100
AcDbEntity
  8
0
  6
ByBlock
 62
     0
100
AcDbBlockEnd
  0
BLOCK
  5
2E0
330
232
100
AcDbEntity
  8
0
  6
Continuous
 62
     7
100
AcDbBlockBegin
  2
SYMBOL_5_BL1
 70
     0
 10
35.5345870286
 20
95.2955776193
 30
0.0
  3
SYMBOL_5_BL1
  1

  0
TEXT
  5
2E1
330
232
100
AcDbEntity
  8
0
  6
Continuous
 62
     7
100
AcDbText
 10
35.1383073841
 20
94.51709702549999
 30
0.0
 40
1.333333852099999
  1
L
 50
12.0
  7
TEXTSTYLE_2
100
AcDbText
  0
TEXT
  5
2E2
330
232
100
AcDbEntity
  8
0
  6
Continuous
 62
     7
100
AcDbText
 10
31.53165780010001
 20
93.76316808410001
 30
0.0
 40
1.333333852099999
  1
5
 50
12.0
  7
TEXTSTYLE_2
100
AcDbText
  0
TEXT
  5
2E3
330
232
100
AcDbEntity
  8
0
  6
Continuous
 62
     7
100
AcDbText
 10
38.8148473497
 20
95.31125781280001
 30
0.0
 40
1.333333852099999
  1
4
 50
12.0
  7
TEXTSTYLE_2
100
AcDbText
  0
ELLIPSE
  5
2E4
330
232
100
AcDbEntity
  8
0
  6
Continuous
 62
     7
100
AcDbEllipse
 10
35.5165480992
 20
95.27905523319999
 30
0.0
 11
-1.900430813
 21
-0.4039490393
 31
0.0
210
0.0
220
0.0
230
1.0
 40
0.6606458385
 41
0.0
 42
6.283185307179586
  0
ENDBLK
  5
2E5
330
232
100
AcDbEntity
  8
0
  6
ByBlock
 62
     0
100
AcDbBlockEnd
  0
BLOCK
  5
2E6
330
233
100
AcDbEntity
  8
0
  6
Continuous
 62
     7
100
AcDbBlockBegin
  2
SYMBOL_0_BL0
 70
     0
 10
160.6670776806
 20
55.3333130337
 30
0.0
  3
SYMBOL_0_BL0
  1

  0
TEXT
  5
2E7
330
233
100
AcDbEntity
  8
0
  6
Continuous
 62
     7
100
AcDbText
 10
144.4192926044
 20
63.10674642479999
 30
0.0
 40
0.5
  1
Infomations Techniques/Technical Infomations
  7
TEXTSTYLE_2
100
AcDbText
  0
TEXT
  5
2E8
330
233
100
AcDbEntity
  8
0
  6
Continuous
 62
     7
100
AcDbText
 10
144.6670776806
 20
61.666646367
 30
0.0
 40
0.6666666667
  1
NOMBRE DE JETS:     
  7
TEXTSTYLE_2
100
AcDbText
  0
TEXT
  5
2E9
330
233
100
AcDbEntity
  8
0
  6
Continuous
 62
     7
100
AcDbText
 10
154.511522125
 20
61.666646367
 30
0.0
 40
0.6666666667
  1
38
  7
TEXTSTYLE_2
100
AcDbText
  0
TEXT
  5
2EA
330
233
100
AcDbEntity
  8
0
  6
Continuous
 62
     7
100
AcDbText
 10
144.6670776806
 20
60.666646367
 30
0.0
 40
0.6666666667
  1
 
  7
TEXTSTYLE_2
100
AcDbText
  0
TEXT
  5
2EB
330
233
100
AcDbEntity
  8
0
  6
Continuous
 62
     7
100
AcDbText
 10
144.6670776806
 20
59.666646367
 30
0.0
 40
0.6666666667
  1
NIVEAU D'EAU              GALLONS(US)        LITRES        GALLONS(UK)
  7
TEXTSTYLE_2
100
AcDbText
  0
TEXT
  5
2EC
330
233
100
AcDbEntity
  8
0
  6
Continuous
 62
     7
100
AcDbText
 10
144.6670776806
 20
58.666646367
 30
0.0
 40
0.6666666667
  1
PLEIN
  7
TEXTSTYLE_2
100
AcDbText
  0
TEXT
  5
2ED
330
233
100
AcDbEntity
  8
0
  6
Continuous
 62
     7
100
AcDbText
 10
144.6670776806
 20
57.66664636699999
 30
0.0
 40
0.6666666667
  1
HAUT T.PLEIN
  7
TEXTSTYLE_2
100
AcDbText
  0
TEXT
  5
2EE
330
233
100
AcDbEntity
  8
0
  6
Continuous
 62
     7
100
AcDbText
 10
144.6670776806
 20
56.666646367
 30
0.0
 40
0.6666666667
  1
MILIEU T.PLEIN
  7
TEXTSTYLE_2
100
AcDbText
  0
TEXT
  5
2EF
330
233
100
AcDbEntity
  8
0
  6
Continuous
 62
     7
100
AcDbText
 10
144.6670776806
 20
55.666646367
 30
0.0
 40
0.6666666667
  1
BAS T.PLEIN
  7
TEXTSTYLE_2
100
AcDbText
  0
TEXT
  5
2F0
330
233
100
AcDbEntity
  8
0
  6
Continuous
 62
     7
100
AcDbText
 10
144.6670776806
 20
54.666646367
 30
0.0
 40
0.6666666667
  1
3" EN BAS T.PLEIN
  7
TEXTSTYLE_2
100
AcDbText
  0
TEXT
  5
2F1
330
233
100
AcDbEntity
  8
0
  6
Continuous
 62
     7
100
AcDbText
 10
144.6670776806
 20
53.666646367
 30
0.0
 40
0.6666666667
  1
 
  7
TEXTSTYLE_2
100
AcDbText
  0
TEXT
  5
2F2
330
233
100
AcDbEntity
  8
0
  6
Continuous
 62
     7
100
AcDbText
 10
144.466916175
 20
53.1198594422
 30
0.0
 40
0.5
  1
Legende/Legend
  7
TEXTSTYLE_2
100
AcDbText
  0
TEXT
  5
2F3
330
233
100
AcDbEntity
  8
0
  6
Continuous
 62
     7
100
AcDbText
 10
150.9957511191
 20
51.6085944645
 30
0.0
 40
0.6666666667
  1
ZONE DE ROBINETTERIE
  7
TEXTSTYLE_2
100
AcDbText
  0
TEXT
  5
2F4
330
233
100
AcDbEntity
  8
0
  6
Continuous
 62
     7
100
AcDbText
 10
145.9160265521
 20
50.1133499501
 30
0.0
 40
0.6666666667
  1
L   :  SYSTEME LED       DC   :  DOUBLE DOSSIER CHAUFFANT
  7
TEXTSTYLE_2
100
AcDbText
  0
TEXT
  5
2F5
330
233
100
AcDbEntity
  8
0
  6
Continuous
 62
     7
100
AcDbText
 10
145.9160265521
 20
48.7800166168
 30
0.0
 40
0.6666666667
  1
C   :  CONTROLE
  7
TEXTSTYLE_2
100
AcDbText
  0
TEXT
  5
2F6
330
233
100
AcDbEntity
  8
0
  6
Continuous
 62
     7
100
AcDbText
 10
145.9160265521
 20
47.4466832834
 30
0.0
 40
0.6666666667
  1
T   :  MOTEUR
  7
TEXTSTYLE_2
100
AcDbText
  0
TEXT
  5
2F7
330
233
100
AcDbEntity
  8
0
  6
Continuous
 62
     7
100
AcDbText
 10
157.2442188243
 20
58.666646367
 30
0.0
 40
0.6666666667
  1
102
  7
TEXTSTYLE_2
100
AcDbText
  0
TEXT
  5
2F8
330
233
100
AcDbEntity
  8
0
  6
Continuous
 62
     7
100
AcDbText
 10
157.4997743799
 20
57.66664636699999
 30
0.0
 40
0.6666666667
  1
79
  7
TEXTSTYLE_2
100
AcDbText
  0
TEXT
  5
2F9
330
233
100
AcDbEntity
  8
0
  6
Continuous
 62
     7
100
AcDbText
 10
157.4997743799
 20
56.666646367
 30
0.0
 40
0.6666666667
  1
78
  7
TEXTSTYLE_2
100
AcDbText
  0
TEXT
  5
2FA
330
233
100
AcDbEntity
  8
0
  6
Continuous
 62
     7
100
AcDbText
 10
157.4997743799
 20
55.666646367
 30
0.0
 40
0.6666666667
  1
76
  7
TEXTSTYLE_2
100
AcDbText
  0
TEXT
  5
2FB
330
233
100
AcDbEntity
  8
0
  6
Continuous
 62
     7
100
AcDbText
 10
157.4997743799
 20
54.666646367
 30
0.0
 40
0.6666666667
  1
59
  7
TEXTSTYLE_2
100
AcDbText
  0
TEXT
  5
2FC
330
233
100
AcDbEntity
  8
0
  6
Continuous
 62
     7
100
AcDbText
 10
164.4199803236
 20
58.6837257691
 30
0.0
 40
0.6666666667
  1
385
  7
TEXTSTYLE_2
100
AcDbText
  0
TEXT
  5
2FD
330
233
100
AcDbEntity
  8
0
  6
Continuous
 62
     7
100
AcDbText
 10
164.4199803236
 20
57.6837257691
 30
0.0
 40
0.6666666667
  1
299
  7
TEXTSTYLE_2
100
AcDbText
  0
TEXT
  5
2FE
330
233
100
AcDbEntity
  8
0
  6
Continuous
 62
     7
100
AcDbText
 10
164.4199803236
 20
56.6837257691
 30
0.0
 40
0.6666666667
  1
294
  7
TEXTSTYLE_2
100
AcDbText
  0
TEXT
  5
2FF
330
233
100
AcDbEntity
  8
0
  6
Continuous
 62
     7
100
AcDbText
 10
164.4199803236
 20
55.6837257691
 30
0.0
 40
0.6666666667
  1
290
  7
TEXTSTYLE_2
100
AcDbText
  0
TEXT
  5
300
330
233
100
AcDbEntity
  8
0
  6
Continuous
 62
     7
100
AcDbText
 10
164.4199803236
 20
54.6837257691
 30
0.0
 40
0.6666666667
  1
223
  7
TEXTSTYLE_2
100
AcDbText
  0
TEXT
  5
301
330
233
100
AcDbEntity
  8
0
  6
Continuous
 62
     7
100
AcDbText
 10
171.3646192611
 20
58.666646367
 30
0.0
 40
0.6666666667
  1
85
  7
TEXTSTYLE_2
100
AcDbText
  0
TEXT
  5
302
330
233
100
AcDbEntity
  8
0
  6
Continuous
 62
     7
100
AcDbText
 10
171.3646192611
 20
57.66664636699999
 30
0.0
 40
0.6666666667
  1
66
  7
TEXTSTYLE_2
100
AcDbText
  0
TEXT
  5
303
330
233
100
AcDbEntity
  8
0
  6
Continuous
 62
     7
100
AcDbText
 10
171.3646192611
 20
56.666646367
 30
0.0
 40
0.6666666667
  1
65
  7
TEXTSTYLE_2
100
AcDbText
  0
TEXT
  5
304
330
233
100
AcDbEntity
  8
0
  6
Continuous
 62
     7
100
AcDbText
 10
171.3646192611
 20
55.666646367
 30
0.0
 40
0.6666666667
  1
64
  7
TEXTSTYLE_2
100
AcDbText
  0
TEXT
  5
305
330
233
100
AcDbEntity
  8
0
  6
Continuous
 62
     7
100
AcDbText
 10
171.3646192611
 20
54.666646367
 30
0.0
 40
0.6666666667
  1
49
  7
TEXTSTYLE_2
100
AcDbText
  0
LINE
  5
306
330
233
100
AcDbEntity
  8
0
  6
Continuous
 62
     7
100
AcDbLine
 10
144.0004110139
 20
63.9999797003
 30
0.0
 11
144.0004110139
 21
46.666646367
 31
0.0
  0
LINE
  5
307
330
233
100
AcDbEntity
  8
0
  6
Continuous
 62
     7
100
AcDbLine
 10
144.0004110139
 20
63.9999797003
 30
0.0
 11
177.3337443473
 21
63.9999797003
 31
0.0
  0
LINE
  5
308
330
233
100
AcDbEntity
  8
0
  6
Continuous
 62
     7
100
AcDbLine
 10
177.3337443473
 20
63.9999797003
 30
0.0
 11
177.3337443473
 21
46.666646367
 31
0.0
  0
LINE
  5
309
330
233
100
AcDbEntity
  8
0
  6
Continuous
 62
     7
100
AcDbLine
 10
144.0004110139
 20
46.666646367
 30
0.0
 11
177.3337443473
 21
46.666646367
 31
0.0
  0
LINE
  5
30A
330
233
100
AcDbEntity
  8
0
  6
Continuous
 62
     7
100
AcDbLine
 10
145.3337443472999
 20
53.9999797003
 30
0.0
 11
176.0004110139
 21
53.9999797003
 31
0.0
  0
LINE
  5
30B
330
233
100
AcDbEntity
  8
0
  6
Continuous
 62
     7
100
AcDbLine
 10
145.3337443472999
 20
60.99997970029999
 30
0.0
 11
176.0004110139
 21
60.99997970029999
 31
0.0
  0
LINE
  5
30C
330
233
100
AcDbEntity
  8
0
  6
Continuous
 62
     7
100
AcDbLine
 10
144.8093175732
 20
52.3781442047
 30
0.0
 11
144.4402968309
 21
52.00912346239999
 31
0.0
  0
LINE
  5
30D
330
233
100
AcDbEntity
  8
0
  6
Continuous
 62
     7
100
AcDbLine
 10
145.4759842399
 20
52.3781442047
 30
0.0
 11
144.6779684494
 21
51.5801284143
 31
0.0
  0
LINE
  5
30E
330
233
100
AcDbEntity
  8
0
  6
Continuous
 62
     7
100
AcDbLine
 10
146.1426509065
 20
52.3781442047
 30
0.0
 11
145.3446351161
 21
51.5801284143
 31
0.0
  0
LINE
  5
30F
330
233
100
AcDbEntity
  8
0
  6
Continuous
 62
     7
100
AcDbLine
 10
146.8093175732
 20
52.3781442047
 30
0.0
 11
146.0113017828
 21
51.5801284143
 31
0.0
  0
LINE
  5
310
330
233
100
AcDbEntity
  8
0
  6
Continuous
 62
     7
100
AcDbLine
 10
147.4759842399
 20
52.3781442047
 30
0.0
 11
146.6779684494
 21
51.5801284143
 31
0.0
  0
LINE
  5
311
330
233
100
AcDbEntity
  8
0
  6
Continuous
 62
     7
100
AcDbLine
 10
148.1426509065
 20
52.3781442047
 30
0.0
 11
147.3446351161
 21
51.5801284143
 31
0.0
  0
LINE
  5
312
330
233
100
AcDbEntity
  8
0
  6
Continuous
 62
     7
100
AcDbLine
 10
148.8093175732
 20
52.3781442047
 30
0.0
 11
148.0113017828
 21
51.5801284143
 31
0.0
  0
LINE
  5
313
330
233
100
AcDbEntity
  8
0
  6
Continuous
 62
     7
100
AcDbLine
 10
149.4759842399
 20
52.3781442047
 30
0.0
 11
148.6779684494
 21
51.5801284143
 31
0.0
  0
LINE
  5
314
330
233
100
AcDbEntity
  8
0
  6
Continuous
 62
     7
100
AcDbLine
 10
150.1426509065
 20
52.3781442047
 30
0.0
 11
149.3446351161
 21
51.5801284143
 31
0.0
  0
LINE
  5
315
330
233
100
AcDbEntity
  8
0
  6
Continuous
 62
     7
100
AcDbLine
 10
150.5861383406999
 20
52.15496497220001
 30
0.0
 11
150.0113017828
 21
51.5801284143
 31
0.0
  0
ELLIPSE
  5
316
330
233
100
AcDbEntity
  8
0
  6
Continuous
 62
     7
100
AcDbEllipse
 10
146.1458134961
 20
50.43092740729999
 30
0.0
 11
1.0473539356
 21
0.0
 31
0.0
210
0.0
220
0.0
230
1.0
 40
0.4938647983
 41
0.0
 42
6.283185307179586
  0
ELLIPSE
  5
317
330
233
100
AcDbEntity
  8
0
  6
Continuous
 62
     7
100
AcDbEllipse
 10
146.1458134961
 20
49.09759407399999
 30
0.0
 11
1.0473539356
 21
0.0
 31
0.0
210
0.0
220
0.0
230
1.0
 40
0.4938647983
 41
0.0
 42
6.283185307179586
  0
ELLIPSE
  5
318
330
233
100
AcDbEntity
  8
0
  6
Continuous
 62
     7
100
AcDbEllipse
 10
146.1458134961
 20
47.7642607406
 30
0.0
 11
1.0473539356
 21
0.0
 31
0.0
210
0.0
220
0.0
230
1.0
 40
0.4938647983
 41
0.0
 42
6.283185307179586
  0
ELLIPSE
  5
319
330
233
100
AcDbEntity
  8
0
  6
Continuous
 62
     7
100
AcDbEllipse
 10
157.1644490772
 20
50.45044876439999
 30
0.0
 11
1.0473539356
 21
0.0
 31
0.0
210
0.0
220
0.0
230
1.0
 40
0.4938647983
 41
0.0
 42
6.283185307179586
  0
ENDBLK
  5
31A
330
233
100
AcDbEntity
  8
0
  6
ByBlock
 62
     0
100
AcDbBlockEnd
  0
ENDSEC
  0
SECTION
  2
ENTITIES
  0
LWPOLYLINE
  5
1541
330
218
100
AcDbEntity
  8
0
  6
Continuous
 62
     7
100
AcDbPolyline
 90
        9
 70
     0
 43
0.0
 10
17.1326534897
 20
97.8970908872
 10
16.7979122972
 20
96.09106539089999
 10
16.5054241965
 20
94.2657686091
 10
16.257683439
 20
92.43409303339999
 10
16.0548463827
 20
90.59712003899999
 10
15.8970486879
 20
88.75595568260001
 10
15.7843528385
 20
86.9117084766
 10
15.7168069108
 20
85.0654655962
 10
15.6944598227
 20
83.2293693673
  0
LINE
  5
1542
330
218
100
AcDbEntity
  8
0
  6
Continuous
 62
     7
100
AcDbLine
 10
17.1376668635
 20
97.8946760442
 30
0.0
 11
17.1379402139
 21
97.8957705997
 31
0.0
  0
LWPOLYLINE
  5
1543
330
218
100
AcDbEntity
  8
0
  6
Continuous
 62
     7
100
AcDbPolyline
 90
       13
 70
     0
 43
0.0
 10
17.2111307935
 20
68.5771821406
 10
17.2212147636
 20
68.5368961737
 10
17.2348202641
 20
68.4988790413
 10
17.2520887345
 20
68.4622833641
 10
17.2728246605
 20
68.4275515775
 10
17.2968498861
 20
68.3949823913
 10
17.323948487
 20
68.36487686099999
 10
17.3538709954
 20
68.3375201326
 10
17.386375738
 20
68.3131477963
 10
17.4210361885
 20
68.2920728941
 10
17.4584690762
 20
68.2740646836
 10
17.4987373753
 20
68.25945422609999
 10
17.5410702775
 20
68.24884644099999
  0
LINE
  5
1544
330
218
100
AcDbEntity
  8
0
  6
Continuous
 62
     7
100
AcDbLine
 10
17.1379402133
 20
68.5629681587
 30
0.0
 11
17.1376668635
 21
68.56406269449999
 31
0.0
  0
LWPOLYLINE
  5
1545
330
218
100
AcDbEntity
  8
0
  6
Continuous
 62
     7
100
AcDbPolyline
 90
       13
 70
     0
 43
0.0
 10
17.1326534981
 20
68.5616478526
 10
17.1415420788
 20
68.5243610026
 10
17.1577153627
 20
68.4761773969
 10
17.1787352143
 20
68.42990117540001
 10
17.2043950182
 20
68.3860004408
 10
17.2344353621
 20
68.3449344081
 10
17.2685544061
 20
68.3071294421
 10
17.3064080778
 20
68.2729808345
 10
17.3476079991
 20
68.2428518284
 10
17.3917286565
 20
68.2170643939
 10
17.4383091493
 20
68.19589597699999
 10
17.4868762969
 20
68.17957033439999
 10
17.5256562534
 20
68.1703454355
  0
LWPOLYLINE
  5
1546
330
218
100
AcDbEntity
  8
0
  6
Continuous
 62
     7
100
AcDbPolyline
 90
      102
 70
     0
 43
0.0
 10
16.9619331375
 20
83.22936936939999
 10
16.9776080511
 20
82.55533240410001
 10
17.0245630989
 20
81.88279794039999
 10
17.1026898981
 20
81.2132055828
 10
17.2118380805
 20
80.5481182279
 10
17.3517840804
 20
79.88891425209999
 10
17.5222049468
 20
79.23687221539999
 10
17.7227001526
 20
78.5935207408
 10
17.9529248042
 20
77.9601320145
 10
18.2124507844
 20
77.3378855804
 10
18.5006800257
 20
76.72817061079999
 10
18.8168812461
 20
76.1325773083
 10
19.1605024911
 20
75.552226446
 10
19.5310482249
 20
74.98794812299999
 10
19.9274628412
 20
74.4413853515
 10
20.3483439121
 20
73.91444450649998
 10
20.7938161225
 20
73.4069839655
 10
21.2636932424
 20
72.91939215460001
 10
21.7482299203
 20
72.4609289868
 10
22.2251337811
 20
72.0483820914
 10
22.6759700289
 20
71.689939029
 10
23.092179054
 20
71.38377282250001
 10
23.4711153514
 20
71.12410999649999
 10
23.814951524
 20
70.9032346911
 10
24.1285605123
 20
70.71335373300001
 10
24.4164517943
 20
70.54832725289999
 10
24.681301465
 20
70.40405166079999
 10
24.9246583011
 20
70.27764499939999
 10
25.1481117654
 20
70.16662420279999
 10
25.3534250796
 20
70.0687646808
 10
25.5420876718
 20
69.98226160379999
 10
25.7149166153
 20
69.90583402029999
 10
25.8723756077
 20
69.83850508430001
 10
26.0149626605
 20
69.7793993583
 10
26.1431785006
 20
69.7277431392
 10
26.2575314069
 20
69.6828522506
 10
26.3590024244
 20
69.6439462656
 10
26.4499599196
 20
69.6098110195
 10
26.5338193709
 20
69.57895771539999
 10
26.6143248399
 20
69.54989525239999
 10
26.694486669
 20
69.5214979109
 10
26.7756349268
 20
69.4932974462
 10
26.8559077931
 20
69.4659226541
 10
26.9305010721
 20
69.4409279781
 10
26.9966205632
 20
69.41911362039999
 10
27.0546446713
 20
69.40022789689999
 10
27.1060127311
 20
69.3837228818
 10
27.152258107
 20
69.3690492337
 10
27.1950813759
 20
69.3556280085
 10
27.2362275373
 20
69.3428915164
 10
27.276996651
 20
69.3304330169
 10
27.3178039944
 20
69.3181300258
 10
27.3586084487
 20
69.30598874960001
 10
27.3996218727
 20
69.29393057199999
 10
27.441733328
 20
69.281683102
 10
27.4866883398
 20
69.26873709849999
 10
27.5365667487
 20
69.254501527
 10
27.5927563476
 20
69.23858861959999
 10
27.6552006588
 20
69.2210160767
 10
27.7229320673
 20
69.2020728012
 10
27.7942862192
 20
69.1822380494
 10
27.8673928438
 20
69.16203442930001
 10
27.9414682744
 20
69.1416746786
 10
28.0168187725
 20
69.121080313
 10
28.0939967558
 20
69.10011379630001
 10
28.1732983853
 20
69.0787112794
 10
28.2541165856
 20
69.05704857519999
 10
28.33522491530001
 20
69.0354394794
 10
28.4156934505
 20
69.014104984
 10
28.4958142048
 20
68.9929403549
 10
28.5779226985
 20
68.97131683659999
 10
28.6657801607
 20
68.9482590409
 10
28.7633015611
 20
68.9227710234
 10
28.8729742957
 20
68.89425356869999
 10
28.9952757447
 20
68.8626533818
 10
29.1304545334
 20
68.8279963563
 10
29.2795641205
 20
68.79010638539999
 10
29.4441846855
 20
68.74867619319999
 10
29.6259693809
 20
68.703399382
 10
29.8270024929
 20
68.6538881351
 10
30.0500981362
 20
68.599626614
 10
30.2982180452
 20
68.5401244088
 10
30.5735610747
 20
68.4751382102
 10
30.8774916231
 20
68.40468314279999
 10
31.2111987136
 20
68.3288711233
 10
31.5763158267
 20
68.2477699935
 10
31.976149136
 20
68.16116127589999
 10
32.4154943296
 20
68.06863757020001
 10
32.8995644206
 20
67.9698840273
 10
33.4340296169
 20
67.8647122349
 10
34.0252130752
 20
67.7530765677
 10
34.6806379715
 20
67.63504828229999
 10
35.40941967030001
 20
67.51085822420001
 10
36.2224278085
 20
67.38102586149999
 10
37.13270951510001
 20
67.2464945752
 10
38.1563766265
 20
67.1087931231
 10
39.31319611340001
 20
66.9703804741
 10
40.6287396445
 20
66.83501136290001
 10
42.1343486076
 20
66.70867992659999
 10
43.86453591479999
 20
66.60097243199999
 10
45.7498089052
 20
66.528986526
 10
47.6871572254
 20
66.5041274293
  0
LWPOLYLINE
  5
1547
330
218
100
AcDbEntity
  8
0
  6
Continuous
 62
     7
100
AcDbPolyline
 90
        9
 70
     0
 43
0.0
 10
15.7744598227
 20
83.22936936939999
 10
15.7974425384
 20
81.36832920419999
 10
15.8626897807
 20
79.5831763664
 10
15.9701800712
 20
77.80006247930001
 10
16.1199833252
 20
76.0186506272
 10
16.3114561957
 20
74.245539577
 10
16.5547997745
 20
72.40806834060001
 10
16.8552449861
 20
70.5063321383
 10
17.2111307935
 20
68.5771821406
  0
LWPOLYLINE
  5
1548
330
218
100
AcDbEntity
  8
0
  6
Continuous
 62
     7
100
AcDbPolyline
 90
        9
 70
     0
 43
0.0
 10
15.6944598227
 20
83.2293693673
 10
15.7167825126
 20
81.39427502350001
 10
15.7843036799
 20
79.5480374432
 10
15.8969748316
 20
77.7037889241
 10
16.0547482667
 20
75.8626212815
 10
16.2575604164
 20
74.02564679050001
 10
16.5052768337
 20
72.19396772659999
 10
16.7977416627
 20
70.3686609121
 10
17.1326534981
 20
68.5616478526
  0
LWPOLYLINE
  5
1549
330
218
100
AcDbEntity
  8
0
  6
Continuous
 62
     7
100
AcDbPolyline
 90
        9
 70
     0
 43
0.0
 10
17.2111307849
 20
97.8815565977
 10
16.87203068869999
 20
96.05013836379999
 10
16.5892162274
 20
94.28551520879999
 10
16.3482786123
 20
92.51501044200001
 10
16.14922244829999
 20
90.7383089087
 10
15.9926822572
 20
88.96195038610001
 10
15.8745379587
 20
87.1125889832
 10
15.7999553408
 20
85.18951277339999
 10
15.7744598227
 20
83.22936936939999
  0
LINE
  5
154A
330
218
100
AcDbEntity
  8
0
  6
Continuous
 62
     7
100
AcDbLine
 10
17.5410702775
 20
68.24884644099999
 30
0.0
 11
17.5256562534
 21
68.1703454355
 31
0.0
  0
LINE
  5
154B
330
218
100
AcDbEntity
  8
0
  6
Continuous
 62
     7
100
AcDbLine
 10
17.5410702453
 20
98.2098922966
 30
0.0
 11
17.5256562201
 21
98.2883933019
 31
0.0
  0
LWPOLYLINE
  5
154C
330
218
100
AcDbEntity
  8
0
  6
Continuous
 62
     7
100
AcDbPolyline
 90
      110
 70
     0
 43
0.0
 10
23.7139909465
 20
83.22936936939999
 10
23.7226921988
 20
82.8034380233
 10
23.7487253075
 20
82.38644267149998
 10
23.7876194731
 20
82.01230124650001
 10
23.8351601368
 20
81.6796503099
 10
23.8885542803
 20
81.3818972348
 10
23.9453100175
 20
81.11570410569999
 10
24.0037267882
 20
80.87701678189999
 10
24.0625687347
 20
80.66243432520002
 10
24.1204528001
 20
80.47053416089999
 10
24.17819932
 20
80.2941070958
 10
24.2397445704
 20
80.1195262569
 10
24.3068634981
 20
79.94222596570001
 10
24.3780545688
 20
79.7666296508
 10
24.4525951523
 20
79.5943407604
 10
24.5312865397
 20
79.4233501545
 10
24.6155925916
 20
79.2508348848
 10
24.7045414821
 20
79.079205819
 10
24.7958509083
 20
78.91269751979999
 10
24.8930211174
 20
78.74493950359999
 10
25.00387947090001
 20
78.56397811259999
 10
25.1340597331
 20
78.3638662618
 10
25.2868376516
 20
78.143779569
 10
25.466421733
 20
77.90252588209999
 10
25.6795512606
 20
77.63709015109999
 10
25.933788368
 20
77.34553778750001
 10
26.2377771214
 20
77.0268590402
 10
26.5945965663
 20
76.68716143399999
 10
26.9766171173
 20
76.3575785014
 10
27.3434804699
 20
76.0689792114
 10
27.6777351634
 20
75.8264235366
 10
27.9804563902
 20
75.62148462649999
 10
28.2565281858
 20
75.44558782930001
 10
28.5083947509
 20
75.2934927527
 10
28.7375043253
 20
75.16156694520001
 10
28.9475514518
 20
75.0456440562
 10
29.14189913
 20
74.9424172332
 10
29.3206688285
 20
74.85071791580001
 10
29.4836808633
 20
74.76970228919999
 10
29.6326711442
 20
74.69774215699999
 10
29.7701371636
 20
74.63305566629999
 10
29.8984576747
 20
74.5741059388
 10
30.018616693
 20
74.5201241411
 10
30.1295748203
 20
74.4712949684
 10
30.2301544958
 20
74.4278583112
 10
30.3204887875
 20
74.38950085180001
 10
30.4014540367
 20
74.35563800299999
 10
30.4740815463
 20
74.32566987779999
 10
30.5395736765
 20
74.29897067749999
 10
30.5993060906
 20
74.27488495129999
 10
30.6547269237
 20
74.25276188859999
 10
30.7073468613
 20
74.2319546609
 10
30.7586399516
 20
74.211855871
 10
30.809627748
 20
74.1920549721
 10
30.8606287433
 20
74.17242802369999
 10
30.9116103458
 20
74.1529889688
 10
30.962550366
 20
74.1337428082
 10
31.0134672354
 20
74.11467927390001
 10
31.0644806991
 20
74.0957410015
 10
31.1156161344
 20
74.07690758130001
 10
31.1669176909
 20
74.0581669387
 10
31.2191432993
 20
74.0392495799
 10
31.2733158334
 20
74.01982850350001
 10
31.3299226446
 20
73.99977757000001
 10
31.3887981476
 20
73.9791713374
 10
31.4490211982
 20
73.9583364709
 10
31.5095172448
 20
73.93761080739999
 10
31.569697173
 20
73.91718309609998
 10
31.6297382277
 20
73.8969874373
 10
31.6906601361
 20
73.87667719879999
 10
31.7538399495
 20
73.855800798
 10
31.8200990508
 20
73.8341095082
 10
31.8892593646
 20
73.81169139399999
 10
31.9601192113
 20
73.7889646943
 10
32.0311630006
 20
73.76641903069999
 10
32.1019162975
 20
73.7441939656
 10
32.1733141088
 20
73.72198304120001
 10
32.2473008322
 20
73.69919376510001
 10
32.3265837858
 20
73.67502779770001
 10
32.4141065473
 20
73.64865389790001
 10
32.5124368812
 20
73.61940056
 10
32.622594136
 20
73.5871025007
 10
32.7441629981
 20
73.5520309291
 10
32.87737308580001
 20
73.5142763054
 10
33.0246501249
 20
73.4733375311
 10
33.1888011341
 20
73.4286768165
 10
33.3690057515
 20
73.38079556310001
 10
33.56377586380001
 20
73.3303590583
 10
33.775826256
 20
73.2769572682
 10
34.00946680630001
 20
73.2198851798
 10
34.2665641483
 20
73.1591567783
 10
34.5469615044
 20
73.0953200207
 10
34.8543834637
 20
73.02810073260001
 10
35.1935845832
 20
72.95716617689999
 10
35.5660677873
 20
72.88301792449999
 10
35.9765242316
 20
72.80564952689999
 10
36.43022006440001
 20
72.72518140859999
 10
36.9317081571
 20
72.64210922689999
 10
37.4879780921
 20
72.55679747100001
 10
38.105761092
 20
72.4700007113
 10
38.7939123989
 20
72.38258779590001
 10
39.5628863868
 20
72.2957356238
 10
40.4243472228
 20
72.211080604
 10
41.3941537051
 20
72.13060986810001
 10
42.4951910329
 20
72.05677393329999
 10
43.69861522369999
 20
71.99554673119999
 10
44.84676993959999
 20
71.9543770675
 10
45.88292423729999
 20
71.93040338109999
 10
46.8213229977
 20
71.9185367272
 10
47.68715722359999
 20
71.91514536369999
  0
LWPOLYLINE
  5
154D
330
218
100
AcDbEntity
  8
0
  6
Continuous
 62
     7
100
AcDbPolyline
 90
       13
 70
     0
 43
0.0
 10
77.8332442002
 20
68.24884644259999
 10
77.87382105409999
 20
68.25892054399999
 10
77.91213270490001
 20
68.27252043129999
 10
77.94900993039999
 20
68.2897845768
 10
77.98395995699999
 20
68.3104892555
 10
78.01669993109999
 20
68.3344541112
 10
78.0469260625
 20
68.36145034319999
 10
78.0743642166
 20
68.3912264341
 10
78.09877909899999
 20
68.42352684409999
 10
78.11988665770001
 20
68.45795540560001
 10
78.1379550331
 20
68.4952079733
 10
78.15258493279999
 20
68.5352157473
 10
78.1631836632
 20
68.577182142
  0
LINE
  5
154E
330
218
100
AcDbEntity
  8
0
  6
Continuous
 62
     7
100
AcDbLine
 10
77.8476983626
 20
68.1742206977
 30
0.0
 11
77.84386470189999
 21
68.1732711392
 31
0.0
  0
LWPOLYLINE
  5
154F
330
218
100
AcDbEntity
  8
0
  6
Continuous
 62
     7
100
AcDbPolyline
 90
       13
 70
     0
 43
0.0
 10
77.84865822499999
 20
68.1703454373
 10
77.88643842350001
 20
68.1792912672
 10
77.9350311858
 20
68.1955132259
 10
77.981646951
 20
68.21657952390001
 10
78.02581356479999
 20
68.2422679525
 10
78.06707143619999
 20
68.27230337669999
 10
78.104995845
 20
68.30636704220001
 10
78.1391979431
 20
68.3440989006
 10
78.16933074800001
 20
68.38510452939999
 10
78.1950893544
 20
68.4289573229
 10
78.2162120493
 20
68.47519747709999
 10
78.23249034149999
 20
68.5233563884
 10
78.2416609584
 20
68.5616478527
  0
LWPOLYLINE
  5
1550
330
218
100
AcDbEntity
  8
0
  6
Continuous
 62
     7
100
AcDbPolyline
 90
       12
 70
     0
 43
0.0
 10
17.5410702775
 20
68.24884644099999
 10
20.2806151212
 20
67.736230917
 10
22.965897866
 20
67.2825501554
 10
25.6589021548
 20
66.87561637049999
 10
28.3582329335
 20
66.51563328189999
 10
31.0630003933
 20
66.20271155640001
 10
33.7725655493
 20
65.9369344582
 10
36.4871059135
 20
65.7183015782
 10
39.2024198167
 20
65.5470841298
 10
41.9817237743
 20
65.420841756
 10
44.82137000429999
 20
65.3429567554
 10
47.68715722359999
 20
65.3166739792
  0
LWPOLYLINE
  5
1551
330
218
100
AcDbEntity
  8
0
  6
Continuous
 62
     7
100
AcDbPolyline
 90
       12
 70
     0
 43
0.0
 10
17.5256562534
 20
68.1703454355
 10
20.2280019815
 20
67.66434020040001
 10
22.9508984062
 20
67.20393259739999
 10
25.6816297864
 20
66.79158274809999
 10
28.4192779274
 20
66.4274307437
 10
31.1629182848
 20
66.11161454890001
 10
33.911627679
 20
65.84426570009999
 10
36.6644694907
 20
65.6254709509
 10
39.420494991
 20
65.45527591789999
 10
42.1787529741
 20
65.33372143760001
 10
44.9382986088
 20
65.2608435666
 10
47.68715722249999
 20
65.2366739792
  0
LINE
  5
1552
330
218
100
AcDbEntity
  8
0
  6
Continuous
 62
     7
100
AcDbLine
 10
17.5304497453
 20
68.1732711392
 30
0.0
 11
17.5266161004
 21
68.17422068199999
 31
0.0
  0
LWPOLYLINE
  5
1553
330
218
100
AcDbEntity
  8
0
  6
Continuous
 62
     7
100
AcDbPolyline
 90
       12
 70
     0
 43
0.0
 10
47.68715722359999
 20
65.3166739792
 10
50.4726229779
 20
65.34150423479999
 10
53.1939355713
 20
65.4137138057
 10
55.91414180040001
 20
65.5332926105
 10
58.6317761403
 20
65.7001745469
 10
61.3459216959
 20
65.9142987433
 10
64.0559171325
 20
66.1756257723
 10
66.7619413564
 20
66.4841995022
 10
69.4598896402
 20
66.83949008589999
 10
72.2122493402
 20
67.2512877896
 10
75.01474342609999
 20
67.7222045242
 10
77.8332442002
 20
68.24884644259999
  0
LWPOLYLINE
  5
1554
330
218
100
AcDbEntity
  8
0
  6
Continuous
 62
     7
100
AcDbPolyline
 90
       12
 70
     0
 43
0.0
 10
47.68715722249999
 20
65.2366739792
 10
50.43502276339999
 20
65.260826103
 10
53.19456902329999
 20
65.33368647409999
 10
55.9528271903
 20
65.455223431
 10
58.7088520649
 20
65.62540080699999
 10
61.4616926657
 20
65.8441780164
 10
64.2104014118
 20
66.1115087525
 10
66.9540420612
 20
66.4273074246
 10
69.6916913831
 20
66.79144169770001
 10
72.4224255175
 20
67.2037740807
 10
75.14532757149999
 20
67.6641647288
 10
77.84865822499999
 20
68.1703454373
  0
LWPOLYLINE
  5
1555
330
218
100
AcDbEntity
  8
0
  6
Continuous
 62
     7
100
AcDbPolyline
 90
       84
 70
     0
 43
0.0
 10
47.6871572254
 20
66.5041274293
 10
49.5905081092
 20
66.52816318479999
 10
51.3263734283
 20
66.5920491694
 10
52.8663486184
 20
66.6823521159
 10
54.23187260249999
 20
66.78899479
 10
55.4498308122
 20
66.90529140969999
 10
56.5406086595
 20
67.0264870831
 10
57.5212354181
 20
67.149269061
 10
58.4058101159
 20
67.2713192244
 10
59.2060444618
 20
67.3910139387
 10
59.931675309
 20
67.5072145992
 10
60.5913760839
 20
67.6192183054
 10
61.19314207520001
 20
67.72669677509999
 10
61.74318970249999
 20
67.82939278349999
 10
62.2448572406
 20
67.9267837405
 10
62.70052940020001
 20
68.01834147760001
 10
63.1153856042
 20
68.10427180020001
 10
63.498386091
 20
68.18578991359999
 10
63.8601083916
 20
68.2647135105
 10
64.2097565002
 20
68.3427951518
 10
64.54961400880001
 20
68.420385183
 10
64.87501164930001
 20
68.4962453508
 10
65.17886984749999
 20
68.56847759989999
 10
65.4536471041
 20
68.6349602712
 10
65.6968633134
 20
68.69473200770001
 10
65.9120536512
 20
68.74834266939998
 10
66.1049804955
 20
68.7969858581
 10
66.2802748444
 20
68.8416568353
 10
66.4402274566
 20
68.88281145989999
 10
66.58577422989999
 20
68.9205896742
 10
66.7176493254
 20
68.9550952847
 10
66.8366802257
 20
68.986468785
 10
66.94430450369999
 20
69.0150248054
 10
67.04297304069999
 20
69.04136065600001
 10
67.1357054992
 20
69.06624370649999
 10
67.2254018609
 20
69.0904293834
 10
67.31410334109999
 20
69.11445646939999
 10
67.4027331501
 20
69.1385693589
 10
67.4913370381
 20
69.162776686
 10
67.5800425015
 20
69.1871332994
 10
67.670713749
 20
69.2122368502
 10
67.76681492760001
 20
69.23917486409999
 10
67.8722099323
 20
69.2692381473
 10
67.9908534315
 20
69.30390786450001
 10
68.126752754
 20
69.34495152859999
 10
68.2813252364
 20
69.3935396358
 10
68.44835246969999
 20
69.4482891458
 10
68.6191342922
 20
69.50662742750001
 10
68.7915533592
 20
69.56789365129999
 10
68.96690842169999
 20
69.6326664212
 10
69.14401267609999
 20
69.7006675656
 10
69.320183879
 20
69.7709494411
 10
69.4938379441
 20
69.8428552469
 10
69.66691974319999
 20
69.91716025619999
 10
69.84635024239999
 20
69.997013741
 10
70.04170473310001
 20
70.08727935420001
 10
70.26136816090001
 20
70.1930017593
 10
70.50856703939999
 20
70.3174537149
 10
70.78260548340001
 20
70.46239304869999
 10
71.0851141497
 20
70.631203075
 10
71.4217974205
 20
70.83041301699999
 10
71.7989089791
 20
71.06843086239999
 10
72.21946166329999
 20
71.3535352377
 10
72.67988566220001
 20
71.69121612169999
 10
73.1706781023
 20
72.08324529859999
 10
73.67145761829999
 20
72.5211016688
 10
74.1578005638
 20
72.9875373908
 10
74.61881891819999
 20
73.47243899109999
 10
75.0552498615
 20
73.9758613699
 10
75.4688538221
 20
74.49977546609999
 10
75.8583994241
 20
75.0428164785
 10
76.2223946214
 20
75.60291163409999
 10
76.5600358681
 20
76.17878840270001
 10
76.87073586859999
 20
76.7694546364
 10
77.1539722178
 20
77.3738061084
 10
77.4091779165
 20
77.99062929989999
 10
77.6357112778
 20
78.61850884679999
 10
77.83304318669999
 20
79.2559732836
 10
78.00088068019999
 20
79.901861031
 10
78.13893088589999
 20
80.55514698899999
 10
78.24678963850001
 20
81.2143469397
 10
78.32452535659999
 20
81.88133368669999
 10
78.3715082793
 20
82.55414345140001
 10
78.3872216784
 20
83.22936936939999
  0
LWPOLYLINE
  5
1556
330
218
100
AcDbEntity
  8
0
  6
Continuous
 62
     7
100
AcDbPolyline
 90
       80
 70
     0
 43
0.0
 10
47.68715722359999
 20
71.91514536369999
 10
48.5439807229
 20
71.9192208636
 10
49.515472875
 20
71.93437443669999
 10
50.6170413789
 20
71.9664576335
 10
51.71818482489999
 20
72.0159249746
 10
52.7052255158
 20
72.07646321289999
 10
53.5877864569
 20
72.1447427673
 10
54.38322545770001
 20
72.2186728334
 10
55.1012435454
 20
72.29626988439999
 10
55.7519356745
 20
72.3761220097
 10
56.3424826691
 20
72.45696419339999
 10
56.8791270405
 20
72.53777549520001
 10
57.3675002617
 20
72.6177578056
 10
57.8123960086
 20
72.69626213569999
 10
58.21824324619999
 20
72.77282282459999
 10
58.5887151439
 20
72.84703898710001
 10
58.92719267770001
 20
72.91862768899999
 10
59.2370568128
 20
72.98747151579999
 10
59.52077066880001
 20
73.0533983042
 10
59.78063566359999
 20
73.116308941
 10
60.0191127092
 20
73.17624757539999
 10
60.2383782643
 20
73.2332867355
 10
60.44015565439999
 20
73.2874637835
 10
60.6255785659
 20
73.3387197996
 10
60.7952695581
 20
73.3868972809
 10
60.95033064959999
 20
73.43201355899999
 10
61.0933521692
 20
73.4745764459
 10
61.22835295659999
 20
73.51560935720001
 10
61.3589256209
 20
73.55610705060001
 10
61.48519821569999
 20
73.5960468903
 10
61.60476920539999
 20
73.63458585859999
 10
61.7170615059
 20
73.6714290189
 10
61.82438853029999
 20
73.7072437913
 10
61.92939830149999
 20
73.74286503819999
 10
62.03352225189999
 20
73.77876449289999
 10
62.13776158289999
 20
73.8152930791
 10
62.2431216617
 20
73.85282618689998
 10
62.3493345318
 20
73.8912973552
 10
62.45438310459999
 20
73.9299821724
 10
62.5561801451
 20
73.96808412109999
 10
62.6538952786
 20
74.0052372935
 10
62.7480594116
 20
74.04164616430001
 10
62.8400481638
 20
74.0778737175
 10
62.9316494634
 20
74.11463948409999
 10
63.023828768
 20
74.1523788292
 10
63.1159064026
 20
74.1908034259
 10
63.20849379569999
 20
74.2301286348
 10
63.3054424678
 20
74.2720543866
 10
63.41153704749999
 20
74.31882465280001
 10
63.5300497911
 20
74.37220802
 10
63.66211685859999
 20
74.4331634048
 10
63.8075451721
 20
74.5021309872
 10
63.96596404050001
 20
74.5795326076
 10
64.1386255912
 20
74.666697991
 10
64.32885818409999
 20
74.7662726005
 10
64.5397383912
 20
74.8812123083
 10
64.7725532108
 20
75.0140007224
 10
65.02977979579999
 20
75.1683939047
 10
65.3165888412
 20
75.3508210256
 10
65.6371683979
 20
75.5688364809
 10
65.9929402652
 20
75.8303159767
 10
66.36943587350001
 20
76.13261300020001
 10
66.7378726429
 20
76.45825163649999
 10
67.0822300481
 20
76.7944369868
 10
67.4005200837
 20
77.13815589220001
 10
67.6942708888
 20
77.4896950634
 10
67.96524871789999
 20
77.8502481852
 10
68.2145924796
 20
78.2206642215
 10
68.44263347399999
 20
78.6009019363
 10
68.649967511
 20
78.9918271321
 10
68.8371552313
 20
79.39472600249999
 10
69.0044722321
 20
79.81074620779999
 10
69.1515066413
 20
80.2399020492
 10
69.2781680936
 20
80.6837826593
 10
69.3845004099
 20
81.14558260089999
 10
69.46819715050001
 20
81.6166336677
 10
69.52628205979999
 20
82.066504383
 10
69.56223926629999
 20
82.4846548995
 10
69.5809178824
 20
82.8715643906
 10
69.5863866218
 20
83.22936936939999
  0
LINE
  5
1557
330
218
100
AcDbEntity
  8
0
  6
Continuous
 62
     7
100
AcDbLine
 10
17.2111307935
 20
68.5771821406
 30
0.0
 11
17.1326534981
 21
68.5616478526
 31
0.0
  0
LINE
  5
1558
330
218
100
AcDbEntity
  8
0
  6
Continuous
 62
     7
100
AcDbLine
 10
78.1631836632
 20
68.577182142
 30
0.0
 11
78.2416609584
 21
68.5616478527
 31
0.0
  0
LWPOLYLINE
  5
1559
330
218
100
AcDbEntity
  8
0
  6
Continuous
 62
     7
100
AcDbPolyline
 90
       31
 70
     0
 43
0.0
 10
45.68715722359999
 20
98.71661188030001
 10
45.68731226869999
 20
98.71957709629999
 10
45.6885519705
 20
98.72549912309999
 10
45.69102786
 20
98.7313959581
 10
45.69473291909999
 20
98.737250886
 10
45.69965664529999
 20
98.74304731040002
 10
45.7057850818
 20
98.7487688006
 10
45.7131008569
 20
98.75439913860001
 10
45.7215832333
 20
98.75992236450002
 10
45.7312081666
 20
98.76532282219999
 10
45.7419483741
 20
98.7705852034
 10
45.7537734114
 20
98.7756945913
 10
45.76664975909999
 20
98.78063650290002
 10
45.7805409179
 20
98.78539692970001
 10
45.7954075118
 20
98.7899623778
 10
45.8112073997
 20
98.794319906
 10
45.8278957952
 20
98.79845716230001
 10
45.8454253932
 20
98.80236241929999
 10
45.8637465042
 20
98.80602460700002
 10
45.882807195
 20
98.8094333447
 10
45.9025534359
 20
98.8125789699
 10
45.92292925419999
 20
98.81545256590001
 10
45.94387689229999
 20
98.8180459872
 10
45.96533697189999
 20
98.82035188260001
 10
45.9872486621
 20
98.82236371559999
 10
46.0095498517
 20
98.82407578360002
 10
46.0321773257
 20
98.8254832335
 10
46.05506694409999
 20
98.8265820756
 10
46.0781538236
 20
98.8273691954
 10
46.1013725221
 20
98.82784236139999
 10
46.12465722359999
 20
98.82800023260001
  0
LWPOLYLINE
  5
155A
330
218
100
AcDbEntity
  8
0
  6
Continuous
 62
     7
100
AcDbPolyline
 90
       31
 70
     0
 43
0.0
 10
45.68715722359999
 20
98.73957922129999
 10
45.68775680209999
 20
98.74540883729999
 10
45.68955389430001
 20
98.75122247459998
 10
45.6925435746
 20
98.75700419860001
 10
45.69671764819999
 20
98.76273816200001
 10
45.7020646746
 20
98.76840864830001
 10
45.7085699977
 20
98.77400011520002
 10
45.71621578699999
 20
98.7794972368
 10
45.7249810859
 20
98.7848849458
 10
45.7348418692
 20
98.79014847509999
 10
45.74577110939999
 20
98.7952733975
 10
45.7577388501
 20
98.80024566610002
 10
45.7707122885
 20
98.80505165209999
 10
45.7846558654
 20
98.80967818280002
 10
45.79953136239999
 20
98.81411257709999
 10
45.81529800680001
 20
98.8183426806
 10
45.83191258329999
 20
98.82235689899999
 10
45.8493295525
 20
98.8261442295
 10
45.8675011757
 20
98.82969429139999
 10
45.88637764579999
 20
98.8329973541
 10
45.90590722359999
 20
98.8360443642
 10
45.92603637989999
 20
98.83882697
 10
45.9467099422
 20
98.84133754469999
 10
45.9678712456
 20
98.8435692068
 10
45.9894622885
 20
98.84551583970001
 10
46.01142389129999
 20
98.84717210760001
 10
46.0336958588
 20
98.8485334709
 10
46.05621714509999
 20
98.84959619820001
 10
46.07892602089999
 20
98.8503573766
 10
46.1017602427
 20
98.85081491980001
 10
46.12465722359999
 20
98.8509675737
  0
LWPOLYLINE
  5
155B
330
218
100
AcDbEntity
  8
0
  6
Continuous
 62
     7
100
AcDbPolyline
 90
        4
 70
     0
 43
0.0
 10
50.490551062
 20
98.82473627510002
 10
50.5407928972
 20
98.9730479213
 10
50.59195978149999
 20
99.12303227370001
 10
50.6440974364
 20
99.2753608848
  0
LWPOLYLINE
  5
155C
330
218
100
AcDbEntity
  8
0
  6
Continuous
 62
     7
100
AcDbPolyline
 90
       25
 70
     0
 43
0.0
 10
49.8635182554
 20
98.8827928172
 10
49.846487123
 20
98.83327619900001
 10
49.830797068
 20
98.78745352280001
 10
49.81614497169999
 20
98.74508748469999
 10
49.8030889612
 20
98.70583827049999
 10
49.7857305818
 20
98.6707933383
 10
49.7600709765
 20
98.6386771535
 10
49.7242222808
 20
98.6067615083
 10
49.677772219
 20
98.57488275840001
 10
49.6211882779
 20
98.54368533390001
 10
49.5542374031
 20
98.5131672712
 10
49.47705909119999
 20
98.48353020979999
 10
49.3896554609
 20
98.45492118840001
 10
49.2920631032
 20
98.42750909620001
 10
49.1845127986
 20
98.4015059941
 10
49.06732267999999
 20
98.37711853649999
 10
48.9408455086
 20
98.35454109930001
 10
48.80563271979999
 20
98.33398695479999
 10
48.66230759229999
 20
98.3156581673
 10
48.51172672689999
 20
98.29976042150001
 10
48.3548083171
 20
98.286473424
 10
48.19262714729999
 20
98.27595823370002
 10
48.02641957350001
 20
98.26834924979999
 10
47.8574031993
 20
98.2637422398
 10
47.68715722359999
 20
98.2622013838
  0
LWPOLYLINE
  5
155D
330
218
100
AcDbEntity
  8
0
  6
Continuous
 62
     7
100
AcDbPolyline
 90
        5
 70
     0
 43
0.0
 10
49.8635182554
 20
98.8827928172
 10
49.89680423270001
 20
98.97246740780001
 10
49.9333008341
 20
99.06454207780001
 10
49.9735545356
 20
99.1711339174
 10
50.01760259640001
 20
99.2974339981
  0
LWPOLYLINE
  5
155E
330
218
100
AcDbEntity
  8
0
  6
Continuous
 62
     7
100
AcDbPolyline
 90
       24
 70
     0
 43
0.0
 10
49.1859944535
 20
98.67283981660001
 10
49.1855531351
 20
98.67169900100002
 10
49.1835544637
 20
98.6686168473
 10
49.1807683161
 20
98.66557457409999
 10
49.177206623
 20
98.66258520889999
 10
49.17288463609999
 20
98.65966155270001
 10
49.1678208628
 20
98.6568161249
 10
49.162036987
 20
98.6540611102
 10
49.15555777619999
 20
98.6514083059
 10
49.1484109753
 20
98.6488690718
 10
49.140627188
 20
98.64645428120001
 10
49.13223974560001
 20
98.64417427459999
 10
49.1232845645
 20
98.64203881540001
 10
49.1137999922
 20
98.640057048
 10
49.10382664310001
 20
98.6382374585
 10
49.0934072245
 20
98.6365878388
 10
49.08258635390001
 20
98.6351152527
 10
49.0714103681
 20
98.63382600620001
 10
49.0599271247
 20
98.63272561990001
 10
49.0481857962
 20
98.6318188059
 10
49.0362366602
 20
98.63110944719998
 10
49.0241308855
 20
98.63060058149999
 10
49.01192031069999
 20
98.6302943879
 10
48.9996572236
 20
98.63019217739999
  0
LINE
  5
155F
330
218
100
AcDbEntity
  8
DEFAULT_1
  6
CENTER
 62
     7
100
AcDbLine
 10
51.1871572236
 20
80.47936936939999
 30
0.0
 11
48.99549055689999
 21
80.47936936939999
 31
0.0
  0
LINE
  5
1560
330
218
100
AcDbEntity
  8
DEFAULT_1
  6
CENTER
 62
     7
100
AcDbLine
 10
51.1871572236
 20
80.47936936939999
 30
0.0
 11
53.3788238902
 21
80.47936936939999
 31
0.0
  0
LWPOLYLINE
  5
1561
330
218
100
AcDbEntity
  8
0
  6
Continuous
 62
     7
100
AcDbPolyline
 90
       22
 70
     0
 43
0.0
 10
45.71336482939999
 20
83.22936936939999
 10
45.7189527264
 20
83.08118977079999
 10
45.7354548609
 20
82.93536684279999
 10
45.7627839608
 20
82.7911576542
 10
45.8007746579
 20
82.64942207009999
 10
45.8492256166
 20
82.5109028115
 10
45.9078661288
 20
82.37637608609999
 10
45.9763881782
 20
82.24655994909999
 10
46.0544170273
 20
82.1221816537
 10
46.1415050508
 20
82.0039576075
 10
46.2372003213
 20
81.89250947599999
 10
46.34098978679999
 20
81.7884485767
 10
46.4523194247
 20
81.6923462611
 10
46.5705891035
 20
81.6047415845
 10
46.6951049714
 20
81.5261580001
 10
46.82517542350001
 20
81.45703747899998
 10
46.9600609734
 20
81.397776812
 10
47.09899445439999
 20
81.3487125408
 10
47.24112881039999
 20
81.3101387821
 10
47.3876888363
 20
81.28194717799999
 10
47.537226961
 20
81.2647975992
 10
47.68715722359999
 20
81.25909120699999
  0
LINE
  5
1562
330
218
100
AcDbEntity
  8
0
  6
Continuous
 62
     7
100
AcDbLine
 10
45.68715722359999
 20
98.71661188030001
 30
0.0
 11
45.68715722359999
 21
98.73957922129999
 31
0.0
  0
LINE
  5
1563
330
218
100
AcDbEntity
  8
0
  6
Continuous
 62
     7
100
AcDbLine
 10
46.12465722359999
 20
98.5530456643
 30
0.0
 11
46.12465722359999
 21
98.5553524486
 31
0.0
  0
LINE
  5
1564
330
218
100
AcDbEntity
  8
0
  6
Continuous
 62
     7
100
AcDbLine
 10
46.37465722359999
 20
98.70429458830001
 30
0.0
 11
46.37465722359999
 21
98.70330596649999
 31
0.0
  0
LINE
  5
1565
330
218
100
AcDbEntity
  8
0
  6
Continuous
 62
     7
100
AcDbLine
 10
47.68715722359999
 20
101.1420647596
 30
0.0
 11
47.6871572246
 21
101.2220647596
 31
0.0
  0
LINE
  5
1566
330
218
100
AcDbEntity
  8
DEFAULT_1
  6
CENTER
 62
     7
100
AcDbLine
 10
47.68715722359999
 20
87.20686936940001
 30
0.0
 11
47.68715722359999
 21
84.9397991956
 31
0.0
  0
LINE
  5
1567
330
218
100
AcDbEntity
  8
DEFAULT_1
  6
CENTER
 62
     7
100
AcDbLine
 10
47.68715722359999
 20
83.22936936939999
 30
0.0
 11
47.68715722359999
 21
80.4789356827
 31
0.0
  0
LINE
  5
1568
330
218
100
AcDbEntity
  8
DEFAULT_1
  6
CENTER
 62
     7
100
AcDbLine
 10
47.68715722359999
 20
83.22936936939999
 30
0.0
 11
47.68715722359999
 21
84.9397991956
 31
0.0
  0
LINE
  5
1569
330
218
100
AcDbEntity
  8
DEFAULT_1
  6
CENTER
 62
     7
100
AcDbLine
 10
47.68715722359999
 20
87.20686936940001
 30
0.0
 11
47.68715722359999
 21
89.47393954309999
 31
0.0
  0
LINE
  5
156A
330
218
100
AcDbEntity
  8
0
  6
Continuous
 62
     7
100
AcDbLine
 10
47.68715722359999
 20
65.3166739792
 30
0.0
 11
47.68715722249999
 21
65.2366739792
 31
0.0
  0
LWPOLYLINE
  5
156B
330
218
100
AcDbEntity
  8
0
  6
Continuous
 62
     7
100
AcDbPolyline
 90
       22
 70
     0
 43
0.0
 10
47.68715722359999
 20
81.25909120699999
 10
47.8356405639
 20
81.26468785630001
 10
47.981932152
 20
81.2812326238
 10
48.1266839238
 20
81.3086432609
 10
48.2689994326
 20
81.3467534547
 10
48.40808865020001
 20
81.39534987140001
 10
48.543140702
 20
81.4541435249
 10
48.6733960691
 20
81.5227983467
 10
48.7981299522
 20
81.6009255722
 10
48.9166122614
 20
81.68805463220001
 10
49.0282025915
 20
81.78369934050001
 10
49.1323035745
 20
81.8873310721
 10
49.22835809520001
 20
81.998385046
 10
49.3158655651
 20
82.11628081239998
 10
49.394324227
 20
82.240338349
 10
49.46330226669999
 20
82.3698665945
 10
49.52243291590001
 20
82.50416766029999
 10
49.571394377
 20
82.64251144020001
 10
49.609902206
 20
82.78408995879999
 10
49.6380502089
 20
82.9300600418
 10
49.6552130855
 20
83.07923478640001
 10
49.6609496178
 20
83.22936936939999
  0
LINE
  5
156C
330
218
100
AcDbEntity
  8
0
  6
Continuous
 62
     7
100
AcDbLine
 10
79.59985462449999
 20
83.22936936939999
 30
0.0
 11
79.67985462449999
 21
83.22936937139999
 31
0.0
  0
LINE
  5
156D
330
218
100
AcDbEntity
  8
DEFAULT_1
  6
CENTER
 62
     7
100
AcDbLine
 10
47.68715722359999
 20
83.22936936939999
 30
0.0
 11
44.9367235369
 21
83.22936936939999
 31
0.0
  0
LINE
  5
156E
330
218
100
AcDbEntity
  8
DEFAULT_1
  6
CENTER
 62
     7
100
AcDbLine
 10
47.68715722359999
 20
83.22936936939999
 30
0.0
 11
50.4375909103
 21
83.22936936939999
 31
0.0
  0
LINE
  5
156F
330
218
100
AcDbEntity
  8
0
  6
Continuous
 62
     7
100
AcDbLine
 10
15.7744598227
 20
83.22936936939999
 30
0.0
 11
15.6944598227
 21
83.2293693673
 31
0.0
  0
LWPOLYLINE
  5
1570
330
218
100
AcDbEntity
  8
0
  6
Continuous
 62
     7
100
AcDbPolyline
 90
       22
 70
     0
 43
0.0
 10
49.6609496178
 20
83.22936936939999
 10
49.6553619438
 20
83.3775460154
 10
49.63885992409999
 20
83.52336966039999
 10
49.6115307391
 20
83.66757997810001
 10
49.57353981629999
 20
83.80931658109998
 10
49.525088433
 20
83.9478369408
 10
49.46644734319999
 20
84.08236467970001
 10
49.3979246129
 20
84.21218166199999
 10
49.31989496119999
 20
84.3365606975
 10
49.2328060119
 20
84.45478538399999
 10
49.13710967310001
 20
84.56623407329999
 10
49.0333190396
 20
84.6702953922
 10
48.9219881877
 20
84.76639794649999
 10
48.8037172361
 20
84.85400270380001
 10
48.6792000499
 20
84.93258620729999
 10
48.5491282552
 20
85.00170647739999
 10
48.414241348
 20
85.06096672380001
 10
48.27530655050001
 20
85.110030389
 10
48.1331708413
 20
85.14860338609999
 10
47.9866131186
 20
85.17679347800001
 10
47.8370806021
 20
85.19394166419999
 10
47.68715722359999
 20
85.1996475318
  0
LINE
  5
1571
330
218
100
AcDbEntity
  8
0
  6
Continuous
 62
     7
100
AcDbLine
 10
48.9996572236
 20
98.70429458830001
 30
0.0
 11
48.9996572236
 21
98.70330596649999
 31
0.0
  0
LINE
  5
1572
330
218
100
AcDbEntity
  8
0
  6
Continuous
 62
     7
100
AcDbLine
 10
49.24965722359999
 20
98.5530456643
 30
0.0
 11
49.24965722359999
 21
98.5553524486
 31
0.0
  0
LINE
  5
1573
330
218
100
AcDbEntity
  8
0
  6
Continuous
 62
     7
100
AcDbLine
 10
49.68715722359999
 20
98.73957922129999
 30
0.0
 11
49.68715722359999
 21
98.71661188030001
 31
0.0
  0
LWPOLYLINE
  5
1574
330
218
100
AcDbEntity
  8
0
  6
Continuous
 62
     7
100
AcDbPolyline
 90
       22
 70
     0
 43
0.0
 10
47.68715722359999
 20
85.1996475318
 10
47.53867143799999
 20
85.1940506979
 10
47.39238068439999
 20
85.1775058717
 10
47.24762994619999
 20
85.15009534609999
 10
47.10531539069999
 20
85.11198539989999
 10
46.96622710609999
 20
85.0633893802
 10
46.8311759239
 20
85.0045962605
 10
46.70092133709999
 20
84.93594209539999
 10
46.5761881436
 20
84.85781564579999
 10
46.45770641939999
 20
84.77068747
 10
46.34611656699999
 20
84.67504375109999
 10
46.24201593439999
 20
84.57141309589999
 10
46.1459616192
 20
84.46036026219999
 10
46.0584542072
 20
84.34246568970001
 10
45.9799954513
 20
84.2184093872
 10
45.9110171879
 20
84.08888245680001
 10
45.8518861464
 20
83.95458271909999
 10
45.80292411560001
 20
83.81624024510001
 10
45.76441549739999
 20
83.6746627958
 10
45.73626601379999
 20
83.5286902332
 10
45.7191018458
 20
83.37951027829999
 10
45.71336482939999
 20
83.22936936939999
  0
LWPOLYLINE
  5
1575
330
218
100
AcDbEntity
  8
0
  6
Continuous
 62
     7
100
AcDbPolyline
 90
        4
 70
     0
 43
0.0
 10
44.730198131
 20
99.2757582638
 10
44.7823048205
 20
99.1236471342
 10
44.83343926969999
 20
98.9738675098
 10
44.883692801
 20
98.8256522216
  0
LWPOLYLINE
  5
1576
330
218
100
AcDbEntity
  8
0
  6
Continuous
 62
     7
100
AcDbPolyline
 90
       26
 70
     0
 43
0.0
 10
44.8836924742
 20
98.82565221050001
 10
44.9031183865
 20
98.76805576229999
 10
44.92106912799999
 20
98.71465932520001
 10
44.937523898
 20
98.66512005389999
 10
44.95356491579999
 20
98.61948178889999
 10
44.9754223464
 20
98.57718804480001
 10
45.01005340109999
 20
98.53481331450002
 10
45.05697141979999
 20
98.4930559482
 10
45.1157200917
 20
98.45240602190001
 10
45.1853254856
 20
98.41335772809999
 10
45.2669597542
 20
98.37557094680001
 10
45.3631325955
 20
98.33776887110001
 10
45.46624832729999
 20
98.30326950620001
 10
45.5835784735
 20
98.2695744089
 10
45.71449678949999
 20
98.2370197102
 10
45.8521879085
 20
98.2074404213
 10
45.99963220439999
 20
98.1801413167
 10
46.1585673734
 20
98.1548820967
 10
46.3286711878
 20
98.13183637879999
 10
46.5068563414
 20
98.11150596879999
 10
46.69044873869999
 20
98.09421933580001
 10
46.8809362563
 20
98.07985445340001
 10
47.0779823551
 20
98.06848109389999
 10
47.27942751069999
 20
98.06026909309998
 10
47.48317152939999
 20
98.0553172135
 10
47.68715722359999
 20
98.0536647745
  0
LWPOLYLINE
  5
1577
330
218
100
AcDbEntity
  8
0
  6
Continuous
 62
     7
100
AcDbPolyline
 90
       31
 70
     0
 43
0.0
 10
49.68715722359999
 20
98.73957922129999
 10
49.686557645
 20
98.74540883729999
 10
49.6847605528
 20
98.75122247459998
 10
49.6817708726
 20
98.75700419860001
 10
49.67759679890001
 20
98.76273816200001
 10
49.6722497726
 20
98.76840864830001
 10
49.66574444939999
 20
98.77400011520002
 10
49.6580986602
 20
98.7794972368
 10
49.6493333613
 20
98.7848849458
 10
49.6394725779
 20
98.79014847509999
 10
49.6285433377
 20
98.7952733975
 10
49.616575597
 20
98.80024566610002
 10
49.60360215859999
 20
98.80505165209999
 10
49.5896585817
 20
98.80967818280002
 10
49.5747830847
 20
98.81411257709999
 10
49.55901644029999
 20
98.8183426806
 10
49.5424018639
 20
98.82235689899999
 10
49.5249848947
 20
98.8261442295
 10
49.5068132714
 20
98.82969429139999
 10
49.4879368014
 20
98.8329973541
 10
49.4684072236
 20
98.8360443642
 10
49.4482780672
 20
98.83882697
 10
49.42760450489999
 20
98.84133754469999
 10
49.40644320149999
 20
98.8435692068
 10
49.3848521586
 20
98.84551583970001
 10
49.3628905558
 20
98.84717210760001
 10
49.34061858829999
 20
98.8485334709
 10
49.318097302
 20
98.84959619820001
 10
49.2953884262
 20
98.8503573766
 10
49.27255420439999
 20
98.85081491980001
 10
49.24965722359999
 20
98.8509675737
  0
LINE
  5
1578
330
218
100
AcDbEntity
  8
DEFAULT_1
  6
CENTER
 62
     7
100
AcDbLine
 10
51.1871572236
 20
80.47936936939999
 30
0.0
 11
51.1871572236
 21
78.2877027027
 31
0.0
  0
LINE
  5
1579
330
218
100
AcDbEntity
  8
DEFAULT_1
  6
CENTER
 62
     7
100
AcDbLine
 10
51.1871572236
 20
80.47936936939999
 30
0.0
 11
51.1871572236
 21
82.671036036
 31
0.0
  0
LINE
  5
157A
330
218
100
AcDbEntity
  8
DEFAULT_1
  6
CENTER
 62
     7
100
AcDbLine
 10
47.68715722359999
 20
87.20686936940001
 30
0.0
 11
45.42008704979999
 21
87.20686936940001
 31
0.0
  0
LINE
  5
157B
330
218
100
AcDbEntity
  8
DEFAULT_1
  6
CENTER
 62
     7
100
AcDbLine
 10
47.68715722359999
 20
87.20686936940001
 30
0.0
 11
49.95422739729999
 21
87.20686936940001
 31
0.0
  0
LWPOLYLINE
  5
157C
330
218
100
AcDbEntity
  8
0
  6
Continuous
 62
     7
100
AcDbPolyline
 90
        5
 70
     0
 43
0.0
 10
45.5107961917
 20
98.8827928172
 10
45.47747179199999
 20
98.9726472915
 10
45.4409583438
 20
99.06491509490001
 10
45.4007182914
 20
99.17156449549999
 10
45.35671836489999
 20
99.29768068459999
  0
LINE
  5
157D
330
218
100
AcDbEntity
  8
0
  6
Continuous
 62
     7
100
AcDbLine
 10
45.5276761481
 20
98.83323740979999
 30
0.0
 11
45.5107961917
 21
98.8827928172
 31
0.0
  0
LINE
  5
157E
330
218
100
AcDbEntity
  8
0
  6
Continuous
 62
     7
100
AcDbLine
 10
78.1631836536
 20
97.8815565981
 30
0.0
 11
78.24166094899999
 21
97.89709088610001
 31
0.0
  0
LINE
  5
157F
330
218
100
AcDbEntity
  8
0
  6
Continuous
 62
     7
100
AcDbLine
 10
17.2111307849
 20
97.8815565977
 30
0.0
 11
17.1326534897
 21
97.8970908872
 31
0.0
  0
LWPOLYLINE
  5
1580
330
218
100
AcDbEntity
  8
0
  6
Continuous
 62
     7
100
AcDbPolyline
 90
      109
 70
     0
 43
0.0
 10
47.68715722359999
 20
94.5435933747
 10
46.85830823889999
 20
94.54049005829999
 10
45.9230461874
 20
94.5290278465
 10
44.8472703831
 20
94.5043761692
 10
43.6823385018
 20
94.46249117639998
 10
42.57305855
 20
94.40652199809999
 10
41.5804610686
 20
94.34189037959999
 10
40.6903516144
 20
94.27124348659999
 10
39.8868258958
 20
94.1963539107
 10
39.1602959003
 20
94.11891099040001
 10
38.5020025793
 20
94.04022604639999
 10
37.9038943763
 20
93.9612670638
 10
37.3598072091
 20
93.88290119990001
 10
36.8641807961
 20
93.80579145770001
 10
36.4115035361
 20
93.73033941959999
 10
35.99816016110001
 20
93.6570451068
 10
35.6200598129
 20
93.58615338209999
 10
35.2727817022
 20
93.51766053450001
 10
34.9549714801
 20
93.4520210293
 10
34.6639099848
 20
93.3893257849
 10
34.3950113031
 20
93.32912998700001
 10
34.1473948799
 20
93.27169901239999
 10
33.9209805474
 20
93.21745305700002
 10
33.7133415749
 20
93.1662064518
 10
33.521232397
 20
93.11747759579999
 10
33.3423040605
 20
93.07092299729999
 10
33.1759694211
 20
93.02660702450001
 10
33.0224209596
 20
92.9847877409
 10
32.8817142029
 20
92.9456810937
 10
32.7537333143
 20
92.9094436137
 10
32.6383741834
 20
92.87622231870001
 10
32.5353836417
 20
92.8461073076
 10
32.4436598255
 20
92.8189188436
 10
32.3610402662
 20
92.79413186219999
 10
32.2847715827
 20
92.77099902209998
 10
32.2119772319
 20
92.74869337610001
 10
32.14030274760001
 20
92.7265131326
 10
32.0686925802
 20
92.70413551389999
 10
31.9970244584
 20
92.68151543530001
 10
31.9255405198
 20
92.65871401209999
 10
31.8551009344
 20
92.63600428030001
 10
31.7871980805
 20
92.61388423680001
 10
31.7227086007
 20
92.5926749245
 10
31.6611172195
 20
92.57223462010001
 10
31.6012308216
 20
92.5521852275
 10
31.5419782512
 20
92.53216989200002
 10
31.4826974159
 20
92.5119633683
 10
31.42326509
 20
92.49151930129999
 10
31.3640516272
 20
92.47093610479998
 10
31.3060401459
 20
92.45053101259999
 10
31.2500008533
 20
92.43058029370001
 10
31.1958575734
 20
92.4110747709
 10
31.1431510198
 20
92.39190910059999
 10
31.0911613082
 20
92.37284325679999
 10
31.0393120279
 20
92.3536726844
 10
30.9874912972
 20
92.33435547559999
 10
30.9356873367
 20
92.31486840290001
 10
30.8838626775
 20
92.2951918977
 10
30.8320268657
 20
92.275326123
 10
30.7801376198
 20
92.2552529812
 10
30.7276510922
 20
92.23476173600001
 10
30.6733306276
 20
92.21335513780001
 10
30.6156582133
 20
92.1904036175
 10
30.5530944367
 20
92.16524206749999
 10
30.4840787739
 20
92.1371642481
 10
30.4070740706
 20
92.105433365
 10
30.3205407162
 20
92.06925975999999
 10
30.2231273085
 20
92.02787077049999
 10
30.1147770029
 20
91.980987374
 10
29.9971104082
 20
91.92903797120001
 10
29.8709800969
 20
91.8721240992
 10
29.7346640738
 20
91.8091446726
 10
29.5851276735
 20
91.7382458498
 10
29.4195132314
 20
91.65743519500001
 10
29.236724677
 20
91.56534099179999
 10
29.0374170756
 20
91.4612952092
 10
28.8192466143
 20
91.3428390504
 10
28.5768351304
 20
91.20527626540001
 10
28.3076511428
 20
91.0446475226
 10
28.0087619673
 20
90.8557541691
 10
27.6731237189
 20
90.6290894802
 10
27.2983118691
 20
90.35555687530001
 10
26.9018170925
 20
90.0391166668
 10
26.5207606157
 20
89.70400324080001
 10
26.1748947807
 20
89.36835488879998
 10
25.8680916555
 20
89.04022955309999
 10
25.6058028974
 20
88.7321505431
 10
25.3842155935
 20
88.4479414527
 10
25.19648069
 20
88.1865911242
 10
25.0368385517
 20
87.94662067790001
 10
24.8997912911
 20
87.72515543290001
 10
24.7822997209
 20
87.52190035659999
 10
24.6818285393
 20
87.3366427358
 10
24.5950005551
 20
87.16670371100001
 10
24.5167973028
 20
87.0046699825
 10
24.4409404545
 20
86.8381640958
 10
24.3659283678
 20
86.6630135105
 10
24.2957223546
 20
86.4879279069
 10
24.2316698904
 20
86.31700981700001
 10
24.170236571
 20
86.14108536290002
 10
24.1071633773
 20
85.9455987533
 10
24.0421756793
 20
85.72442149030001
 10
23.9766556708
 20
85.47478618300001
 10
23.9119980959
 20
85.1917828726
 10
23.8504847951
 20
84.8707477916
 10
23.7950490983
 20
84.50471772710001
 10
23.7499323408
 20
84.0865411096
 10
23.72237053340001
 20
83.6474298715
 10
23.7139909475
 20
83.22936936939999
  0
LINE
  5
1581
330
218
100
AcDbEntity
  8
0
  6
Continuous
 62
     7
100
AcDbLine
 10
46.0229288341
 20
98.7388286975
 30
0.0
 11
46.0428898545
 21
98.7401395074
 31
0.0
  0
LINE
  5
1582
330
218
100
AcDbEntity
  8
0
  6
Continuous
 62
     7
100
AcDbLine
 10
46.0428898545
 20
98.7401395074
 30
0.0
 11
46.0631085232
 21
98.7411633107
 31
0.0
  0
LWPOLYLINE
  5
1583
330
218
100
AcDbEntity
  8
0
  6
Continuous
 62
     7
100
AcDbPolyline
 90
        4
 70
     0
 43
0.0
 10
46.0631085232
 20
98.7411633107
 10
46.0835197918
 20
98.74189682870001
 10
46.1040622503
 20
98.74233783960001
 10
46.12465722359999
 20
98.7424848805
  0
LWPOLYLINE
  5
1584
330
218
100
AcDbEntity
  8
0
  6
Continuous
 62
     7
100
AcDbPolyline
 90
       25
 70
     0
 43
0.0
 10
46.37465722359999
 20
98.70330596649999
 10
46.36156743489999
 20
98.70320192640001
 10
46.3485385395
 20
98.702890486
 10
46.33563216239999
 20
98.702373737
 10
46.32290874979999
 20
98.70165516989999
 10
46.3104294627
 20
98.7007398199
 10
46.2982548528
 20
98.69963432959998
 10
46.28644352899999
 20
98.69834692370002
 10
46.2750538943
 20
98.69688771319999
 10
46.2641445022
 20
98.6952690536
 10
46.2537715263
 20
98.69350553510001
 10
46.243986862
 20
98.69161389370001
 10
46.23484540919999
 20
98.68961489310001
 10
46.2263966105
 20
98.6875324814
 10
46.2186857264
 20
98.6853946779
 10
46.2117501527
 20
98.68323335840001
 10
46.20562483999999
 20
98.68108697700002
 10
46.20033152899999
 20
98.6789984033
 10
46.19587824919999
 20
98.6770152275
 10
46.1922560429
 20
98.67518866639999
 10
46.1894363613
 20
98.67357174209999
 10
46.1873700774
 20
98.67221702180001
 10
46.1859888906
 20
98.67117464520001
 10
46.18520940729999
 20
98.67049195420001
 10
46.1851176734
 20
98.67040269870001
  0
LWPOLYLINE
  5
1585
330
218
100
AcDbEntity
  8
0
  6
Continuous
 62
     7
100
AcDbPolyline
 90
       27
 70
     0
 43
0.0
 10
47.68715722359999
 20
98.0536647745
 10
47.88183805529999
 20
98.05513848270001
 10
48.07896547649999
 20
98.05971071350001
 10
48.27440292470001
 20
98.0673257435
 10
48.4650646516
 20
98.07785148229999
 10
48.6496838713
 20
98.09116777420001
 10
48.8283832237
 20
98.10724453620002
 10
49.0022338292
 20
98.12616346030001
 10
49.1683283131
 20
98.1475780014
 10
49.3237452988
 20
98.1710218611
 10
49.46883265020001
 20
98.1964336577
 10
49.6054433989
 20
98.22407475799998
 10
49.73402735829999
 20
98.2540082104
 10
49.8510756705
 20
98.2853404575
 10
49.95759410619999
 20
98.31824215899999
 10
50.0539821473
 20
98.35277513420001
 10
50.1396471436
 20
98.3886243328
 10
50.2137818542
 20
98.42534444260001
 10
50.27731274539999
 20
98.46335017620001
 10
50.3316275327
 20
98.50360535580001
 10
50.37270794810001
 20
98.5426782134
 10
50.4036220734
 20
98.58367028179999
 10
50.4232169457
 20
98.62519070719999
 10
50.43849641520001
 20
98.6695421571
 10
50.4544821916
 20
98.71753684819999
 10
50.4718291435
 20
98.76917342590001
 10
50.49055019549999
 20
98.82473630520001
  0
LWPOLYLINE
  5
1586
330
218
100
AcDbEntity
  8
0
  6
Continuous
 62
     7
100
AcDbPolyline
 90
       32
 70
     0
 43
0.0
 10
49.24965722359999
 20
98.5530456643
 10
49.2716674251
 20
98.55320583950001
 10
49.29362326949999
 20
98.55368628509999
 10
49.3154725819
 20
98.55448686089999
 10
49.3371641162
 20
98.55560746709999
 10
49.3586478909
 20
98.5570481667
 10
49.37987346719999
 20
98.55880917420002
 10
49.400797393
 20
98.56089169
 10
49.4213776795
 20
98.5632979172
 10
49.4415765412
 20
98.56603179309999
 10
49.4613586856
 20
98.5690994205
 10
49.4806967339
 20
98.57251082319999
 10
49.499576138
 20
98.5762826458
 10
49.5179903187
 20
98.5804399286
 10
49.53593898560001
 20
98.58501906229999
 10
49.55344379069999
 20
98.59007736910001
 10
49.5705467348
 20
98.59570333269999
 10
49.5872629063
 20
98.6020147169
 10
49.6035294201
 20
98.60914829709999
 10
49.6189710429
 20
98.61712862410001
 10
49.6327177892
 20
98.6256013366
 10
49.6441548772
 20
98.63403873360001
 10
49.65349965739999
 20
98.64226903129999
 10
49.6611726741
 20
98.65031804450001
 10
49.6675483651
 20
98.65829737330001
 10
49.6728477358
 20
98.66626891959999
 10
49.67723095770001
 20
98.67431214950002
 10
49.68081485369999
 20
98.68255461540002
 10
49.6835659092
 20
98.69084101410001
 10
49.685561169
 20
98.69936209110001
 10
49.6867536336
 20
98.70791663719998
 10
49.68715722359999
 20
98.71661188030001
  0
LINE
  5
1587
330
218
100
AcDbEntity
  8
0
  6
Continuous
 62
     7
100
AcDbLine
 10
49.24965722359999
 20
98.5530456643
 30
0.0
 11
46.12465722359999
 21
98.5530456643
 31
0.0
  0
LINE
  5
1588
330
218
100
AcDbEntity
  8
0
  6
Continuous
 62
     7
100
AcDbLine
 10
49.24965722359999
 20
98.5553524486
 30
0.0
 11
46.12465722359999
 21
98.5553524486
 31
0.0
  0
LINE
  5
1589
330
218
100
AcDbEntity
  8
0
  6
Continuous
 62
     7
100
AcDbLine
 10
48.9996572236
 20
98.59354274080001
 30
0.0
 11
46.37465722359999
 21
98.59354274080001
 31
0.0
  0
LINE
  5
158A
330
218
100
AcDbEntity
  8
0
  6
Continuous
 62
     7
100
AcDbLine
 10
48.9996572236
 20
98.63019217739999
 30
0.0
 11
46.37465722359999
 21
98.63019217739999
 31
0.0
  0
LINE
  5
158B
330
218
100
AcDbEntity
  8
0
  6
Continuous
 62
     7
100
AcDbLine
 10
46.37465722359999
 20
98.70330596649999
 30
0.0
 11
48.9996572236
 21
98.70330596649999
 31
0.0
  0
LINE
  5
158C
330
218
100
AcDbEntity
  8
0
  6
Continuous
 62
     7
100
AcDbLine
 10
46.37465722359999
 20
98.70429458830001
 30
0.0
 11
48.9996572236
 21
98.70429458830001
 31
0.0
  0
LINE
  5
158D
330
218
100
AcDbEntity
  8
0
  6
Continuous
 62
     7
100
AcDbLine
 10
46.12465722359999
 20
98.7424848805
 30
0.0
 11
49.24965722359999
 21
98.7424848805
 31
0.0
  0
LWPOLYLINE
  5
158E
330
218
100
AcDbEntity
  8
0
  6
Continuous
 62
     7
100
AcDbPolyline
 90
       52
 70
     0
 43
0.0
 10
46.12465722359999
 20
98.5553524486
 10
46.1040622547
 20
98.55549948950001
 10
46.0835197951
 20
98.55594050040002
 10
46.0631085261
 20
98.5566740183
 10
46.0428898578
 20
98.5576978215
 10
46.02292883699999
 20
98.5590086314
 10
46.0032877797
 20
98.56060235040001
 10
45.9840286497
 20
98.56247395250001
 10
45.9652119939
 20
98.56461755319999
 10
45.94689703439999
 20
98.56702640600001
 10
45.9291413944
 20
98.56969293200002
 10
45.9120009431
 20
98.5726087409
 10
45.89552961239999
 20
98.57576465820001
 10
45.8797792293
 20
98.57915075370002
 10
45.8647993522
 20
98.58275637330001
 10
45.8506371151
 20
98.5865701718
 10
45.8373370793
 20
98.59058014909999
 10
45.82494109329999
 20
98.594773688
 10
45.8134881609
 20
98.59913759340001
 10
45.8030143185
 20
98.60365813440001
 10
45.7935525221
 20
98.6083210872
 10
45.7851325431
 20
98.6131117799
 10
45.77778087489999
 20
98.6180151385
 10
45.77152064929999
 20
98.62301573479999
 10
45.7663715641
 20
98.62809783430002
 10
45.76234982099999
 20
98.6332454463
 10
45.7594680741
 20
98.638442374
 10
45.7577353911
 20
98.64367226520002
 10
45.7571572236
 20
98.6489186642
 10
45.7577353909
 20
98.65416506309999
 10
45.7594680738
 20
98.6593949543
 10
45.76234982039999
 20
98.66459188200002
 10
45.7663715634
 20
98.66973949410001
 10
45.77152064839999
 20
98.67482159360001
 10
45.77778087379999
 20
98.6798221899
 10
45.78513254189999
 20
98.68472554850001
 10
45.7935525208
 20
98.68951624120001
 10
45.80301431699999
 20
98.694179194
 10
45.8134881592
 20
98.69869973510001
 10
45.82494109149999
 20
98.7030636405
 10
45.8373370774
 20
98.7072571794
 10
45.85063711300001
 20
98.7112671568
 10
45.86479934999999
 20
98.71508095530002
 10
45.8797792269
 20
98.7186865748
 10
45.89552960989999
 20
98.72207267040002
 10
45.9120009405
 20
98.7252285877
 10
45.9291413917
 20
98.72814439670001
 10
45.94689703159999
 20
98.73081092280001
 10
45.96521199109999
 20
98.73321977559999
 10
45.9840286468
 20
98.7353633763
 10
46.00328777659999
 20
98.7372349784
 10
46.0229288341
 20
98.7388286975
  0
LWPOLYLINE
  5
158F
330
218
100
AcDbEntity
  8
0
  6
Continuous
 62
     7
100
AcDbPolyline
 90
        4
 70
     0
 43
0.0
 10
49.24965722359999
 20
98.7424848805
 10
49.2702521968
 20
98.74233783960001
 10
49.2907946553
 20
98.74189682870001
 10
49.31120592390001
 20
98.7411633107
  0
LWPOLYLINE
  5
1590
330
218
100
AcDbEntity
  8
0
  6
Continuous
 62
     7
100
AcDbPolyline
 90
       32
 70
     0
 43
0.0
 10
46.12465722359999
 20
98.5530456643
 10
46.102647022
 20
98.55320583950001
 10
46.0806911776
 20
98.55368628509999
 10
46.05884186529999
 20
98.55448686089999
 10
46.0371503309
 20
98.55560746709999
 10
46.01566655630001
 20
98.5570481667
 10
45.99444098
 20
98.55880917420002
 10
45.9735170541
 20
98.56089169
 10
45.9529367677
 20
98.5632979172
 10
45.93273790589999
 20
98.56603179309999
 10
45.91295576159999
 20
98.5690994205
 10
45.89361771319999
 20
98.57251082319999
 10
45.87473830909999
 20
98.5762826458
 10
45.8563241284
 20
98.5804399286
 10
45.8383754616
 20
98.58501906229999
 10
45.82087065649999
 20
98.59007736910001
 10
45.8037677124
 20
98.59570333269999
 10
45.7870515409
 20
98.6020147169
 10
45.7707850271
 20
98.60914829709999
 10
45.75534340429999
 20
98.61712862410001
 10
45.74159665789999
 20
98.6256013366
 10
45.73015956999999
 20
98.63403873360001
 10
45.72081478979999
 20
98.64226903129999
 10
45.713141773
 20
98.65031804450001
 10
45.7067660821
 20
98.65829737330001
 10
45.70146671129999
 20
98.66626891959999
 10
45.69708348939999
 20
98.67431214950002
 10
45.6934995934
 20
98.68255461540002
 10
45.6907485379
 20
98.69084101410001
 10
45.68875327819999
 20
98.69936209110001
 10
45.6875608135
 20
98.70791663719998
 10
45.68715722359999
 20
98.71661188030001
  0
LWPOLYLINE
  5
1591
330
218
100
AcDbEntity
  8
0
  6
Continuous
 62
     7
100
AcDbPolyline
 90
       51
 70
     0
 43
0.0
 10
46.37465722359999
 20
98.59354274080001
 10
46.3610106859
 20
98.59365184600001
 10
46.34740634369999
 20
98.59397910390001
 10
46.3339110199
 20
98.59452315230001
 10
46.3205757185
 20
98.59528191870001
 10
46.3074540572
 20
98.59625236719999
 10
46.2945975813
 20
98.59743068210001
 10
46.28205709479999
 20
98.598812208
 10
46.26988208149999
 20
98.6003914934
 10
46.258120594
 20
98.60216230510001
 10
46.2468190506
 20
98.6041176542
 10
46.2360220569
 20
98.6062498234
 10
46.2257722269
 20
98.6085503974
 10
46.21611001419999
 20
98.61101029620002
 10
46.2070735534
 20
98.6136198113
 10
46.19869850939999
 20
98.61636864350002
 10
46.19101793699999
 20
98.61924594360001
 10
46.1840621495
 20
98.62224035549999
 10
46.1778586
 20
98.62534006110001
 10
46.17243177259999
 20
98.62853282639999
 10
46.1678030858
 20
98.6318060502
 10
46.1639908081
 20
98.63514681379999
 10
46.1610099857
 20
98.63854193200001
 10
46.1588723832
 20
98.6419780049
 10
46.1575864374
 20
98.6454414712
 10
46.1571572236
 20
98.64891866110001
 10
46.15758643569999
 20
98.65239585110002
 10
46.1588723799
 20
98.6558593174
 10
46.16100998060001
 20
98.65929539040001
 10
46.1639908014
 20
98.66269050870002
 10
46.1678030775
 20
98.66603127250002
 10
46.1724317627
 20
98.66930449639999
 10
46.1778585885
 20
98.6724972618
 10
46.1840621365
 20
98.6755969676
 10
46.1910179225
 20
98.6785913798
 10
46.19869849359999
 20
98.68146868010001
 10
46.2070735362
 20
98.6842175125
 10
46.21610999569999
 20
98.68682702790001
 10
46.2257722072
 20
98.68928692700002
 10
46.23602203609999
 20
98.69158750129999
 10
46.2468190288
 20
98.6937196709
 10
46.2581205712
 20
98.6956750204
 10
46.2698820579
 20
98.69744583239999
 10
46.2820570706
 20
98.69902511820001
 10
46.29459755590001
 20
98.70040664450002
 10
46.30745403239999
 20
98.70158495990001
 10
46.3205756905
 20
98.7025554086
 10
46.33391099639999
 20
98.7033141756
 10
46.3474063147
 20
98.70385822430002
 10
46.3610106491
 20
98.7041854825
 10
46.37465722359999
 20
98.70429458830001
  0
LWPOLYLINE
  5
1592
330
218
100
AcDbEntity
  8
0
  6
Continuous
 62
     7
100
AcDbPolyline
 90
       25
 70
     0
 43
0.0
 10
48.9996572236
 20
98.70330596649999
 10
49.0127470123
 20
98.70320192640001
 10
49.02577590759999
 20
98.702890486
 10
49.0386822847
 20
98.702373737
 10
49.0514056973
 20
98.70165516989999
 10
49.0638849845
 20
98.7007398199
 10
49.07605959439999
 20
98.69963432959998
 10
49.0878709181
 20
98.69834692370002
 10
49.09926055279999
 20
98.69688771319999
 10
49.1101699449
 20
98.6952690536
 10
49.1205429208
 20
98.69350553510001
 10
49.1303275851
 20
98.69161389370001
 10
49.1394690379
 20
98.68961489310001
 10
49.14791783670001
 20
98.6875324814
 10
49.15562872079999
 20
98.6853946779
 10
49.1625642944
 20
98.68323335840001
 10
49.1686896071
 20
98.68108697700002
 10
49.1739829181
 20
98.6789984033
 10
49.1784361979
 20
98.6770152275
 10
49.1820584042
 20
98.67518866639999
 10
49.18487808590001
 20
98.67357174209999
 10
49.1869443697
 20
98.67221702180001
 10
49.18832555659999
 20
98.67117464520001
 10
49.1891050398
 20
98.67049195420001
 10
49.18919677369999
 20
98.67040269870001
  0
LWPOLYLINE
  5
1593
330
218
100
AcDbEntity
  8
0
  6
Continuous
 62
     7
100
AcDbPolyline
 90
       51
 70
     0
 43
0.0
 10
48.9996572236
 20
98.70429458830001
 10
49.013303798
 20
98.7041854825
 10
49.02690813239999
 20
98.70385822430002
 10
49.0404034507
 20
98.7033141756
 10
49.0537387566
 20
98.7025554086
 10
49.0668604148
 20
98.70158495990001
 10
49.0797168912
 20
98.70040664450002
 10
49.09225737649999
 20
98.69902511820001
 10
49.1044323892
 20
98.69744583239999
 10
49.1161938759
 20
98.6956750204
 10
49.1274954183
 20
98.6937196709
 10
49.138292411
 20
98.69158750129999
 10
49.14854223989999
 20
98.68928692700002
 10
49.1582044514
 20
98.68682702790001
 10
49.16724091089999
 20
98.6842175125
 10
49.17561595350001
 20
98.68146868010001
 10
49.1832965246
 20
98.6785913798
 10
49.1902523106
 20
98.6755969676
 10
49.19645585859999
 20
98.67249726190001
 10
49.2018826844
 20
98.66930449639999
 10
49.2065113696
 20
98.66603127250002
 10
49.21032364569999
 20
98.66269050870002
 10
49.21330446649999
 20
98.65929539040001
 10
49.2154420673
 20
98.6558593174
 10
49.2167280114
 20
98.65239585110002
 10
49.2171572236
 20
98.64891866120002
 10
49.2167280097
 20
98.6454414712
 10
49.21544206390001
 20
98.6419780049
 10
49.21330446149999
 20
98.63854193200001
 10
49.210323639
 20
98.63514681379999
 10
49.2065113613
 20
98.6318060502
 10
49.2018826746
 20
98.62853282639999
 10
49.1964558472
 20
98.62534006110001
 10
49.1902522977
 20
98.62224035549999
 10
49.1832965102
 20
98.61924594360001
 10
49.1756159377
 20
98.61636864350002
 10
49.1672408938
 20
98.6136198113
 10
49.158204433
 20
98.61101029629999
 10
49.14854222029999
 20
98.6085503974
 10
49.1382923903
 20
98.60624982350001
 10
49.1274953966
 20
98.6041176542
 10
49.11619385319999
 20
98.60216230510001
 10
49.1044323656
 20
98.6003914934
 10
49.09225735229999
 20
98.598812208
 10
49.0797168659
 20
98.59743068210001
 10
49.06686039
 20
98.59625236719999
 10
49.0537387287
 20
98.59528191870001
 10
49.04040342720001
 20
98.59452315230001
 10
49.02690810350001
 20
98.59397910390001
 10
49.0133037613
 20
98.59365184600001
 10
48.9996572236
 20
98.59354274080001
  0
LWPOLYLINE
  5
1594
330
218
100
AcDbEntity
  8
0
  6
Continuous
 62
     7
100
AcDbPolyline
 90
       24
 70
     0
 43
0.0
 10
46.37465722359999
 20
98.63019217739999
 10
46.36239413640001
 20
98.6302943879
 10
46.35018356169999
 20
98.63060058149999
 10
46.33807778689999
 20
98.63110944719998
 10
46.326128651
 20
98.6318188059
 10
46.31438732239999
 20
98.63272561990001
 10
46.30290407899999
 20
98.63382600620001
 10
46.29172809319999
 20
98.6351152527
 10
46.2809072226
 20
98.6365878388
 10
46.270487804
 20
98.6382374585
 10
46.26051445489999
 20
98.640057048
 10
46.2510298826
 20
98.64203881540001
 10
46.24207470149999
 20
98.64417427459999
 10
46.2336872592
 20
98.64645428120001
 10
46.2259034719
 20
98.6488690718
 10
46.2187566709
 20
98.6514083059
 10
46.2122774601
 20
98.6540611102
 10
46.2064935843
 20
98.6568161249
 10
46.20142981109999
 20
98.65966155270001
 10
46.1971078242
 20
98.66258520889999
 10
46.1935461311
 20
98.66557457409999
 10
46.1907599835
 20
98.6686168473
 10
46.18876131199999
 20
98.67169900100002
 10
46.1883199936
 20
98.67283981660001
  0
LWPOLYLINE
  5
1595
330
218
100
AcDbEntity
  8
0
  6
Continuous
 62
     7
100
AcDbPolyline
 90
       23
 70
     0
 43
0.0
 10
47.68715722359999
 20
98.2622013838
 10
47.5169297033
 20
98.2637419151
 10
47.3479304993
 20
98.26834805069999
 10
47.18173955850001
 20
98.2759556042
 10
47.01957372699999
 20
98.28646870520001
 10
46.86266881289999
 20
98.2997528952
 10
46.71209921729999
 20
98.31564719479999
 10
46.56878309819999
 20
98.33397219780001
 10
46.4335780333
 20
98.35452268450001
 10
46.30710860589999
 20
98.37709694979999
 10
46.1899257743
 20
98.4014813919
 10
46.0823754988
 20
98.42747975700001
 10
45.98476643949999
 20
98.45488411259999
 10
45.89734318149999
 20
98.4834862848
 10
45.8201768579
 20
98.5131163445
 10
45.7532462355
 20
98.54362758059998
 10
45.69669597579999
 20
98.57480130950001
 10
45.6501778357
 20
98.60666499790001
 10
45.61427077939999
 20
98.6386198816
 10
45.5886336256
 20
98.67076319170001
 10
45.5712435551
 20
98.7057903648
 10
45.5581862096
 20
98.74503663709999
 10
45.5276761481
 20
98.83323740979999
  0
LINE
  5
1596
330
218
100
AcDbEntity
  8
0
  6
Continuous
 62
     7
100
AcDbLine
 10
49.31120592390001
 20
98.7411633107
 30
0.0
 11
49.3314245926
 21
98.7401395074
 31
0.0
  0
LWPOLYLINE
  5
1597
330
218
100
AcDbEntity
  8
0
  6
Continuous
 62
     7
100
AcDbPolyline
 90
       53
 70
     0
 43
0.0
 10
49.3314245926
 20
98.7401395074
 10
49.35138561310001
 20
98.7388286975
 10
49.3710266705
 20
98.7372349784
 10
49.3902858004
 20
98.7353633763
 10
49.40910245609999
 20
98.73321977559999
 10
49.4274174156
 20
98.73081092280001
 10
49.4451730555
 20
98.72814439670001
 10
49.4623135067
 20
98.7252285877
 10
49.4787848372
 20
98.72207267040002
 10
49.4945352202
 20
98.7186865748
 10
49.5095150972
 20
98.71508095530002
 10
49.5236773342
 20
98.7112671568
 10
49.5369773698
 20
98.7072571794
 10
49.5493733557
 20
98.7030636405
 10
49.560826288
 20
98.69869973510001
 10
49.5713001301
 20
98.694179194
 10
49.5807619264
 20
98.68951624120001
 10
49.58918190520001
 20
98.68472554850001
 10
49.5965335733
 20
98.6798221899
 10
49.6027937987
 20
98.67482159360001
 10
49.60794288369999
 20
98.66973949410001
 10
49.6119646267
 20
98.66459188200002
 10
49.61484637329999
 20
98.6593949543
 10
49.6165790563
 20
98.65416506309999
 10
49.6171572236
 20
98.6489186642
 10
49.6165790561
 20
98.64367226520002
 10
49.61484637299999
 20
98.638442374
 10
49.6119646262
 20
98.6332454463
 10
49.607942883
 20
98.62809783430002
 10
49.6027937979
 20
98.62301573479999
 10
49.59653357229999
 20
98.6180151385
 10
49.58918190399999
 20
98.6131117799
 10
49.580761925
 20
98.6083210872
 10
49.57130012859999
 20
98.60365813440001
 10
49.56082628629999
 20
98.59913759340001
 10
49.5493733538
 20
98.594773688
 10
49.5369773678
 20
98.59058014909999
 10
49.523677332
 20
98.5865701718
 10
49.5095150949
 20
98.58275637330001
 10
49.4945352178
 20
98.57915075370002
 10
49.4787848347
 20
98.57576465820001
 10
49.46231350409999
 20
98.5726087409
 10
49.44517305279999
 20
98.56969293200002
 10
49.42741741279999
 20
98.56702640600001
 10
49.4091024532
 20
98.56461755319999
 10
49.3902857974
 20
98.56247395250001
 10
49.3710266675
 20
98.56060235040001
 10
49.3513856101
 20
98.5590086314
 10
49.3314245893
 20
98.5576978215
 10
49.3112059211
 20
98.5566740183
 10
49.290794652
 20
98.55594050040002
 10
49.2702521925
 20
98.55549948950001
 10
49.24965722359999
 20
98.5553524486
  0
LWPOLYLINE
  5
1598
330
218
100
AcDbEntity
  8
0
  6
Continuous
 62
     7
100
AcDbPolyline
 90
      102
 70
     0
 43
0.0
 10
47.6871572254
 20
99.9546113094
 10
45.75172887359999
 20
99.92980147170001
 10
43.96233464529999
 20
99.8626624171
 10
42.375373873
 20
99.7674603937
 10
40.97112516889999
 20
99.65513074709999
 10
39.72112956130001
 20
99.53283614020001
 10
38.603855333
 20
99.4056442515
 10
37.6010971324
 20
99.2770302833
 10
36.6980587654
 20
99.14943025740001
 10
35.8822968327
 20
99.02451044300001
 10
35.1434105999
 20
98.90340818520002
 10
34.4724994208
 20
98.78686108610001
 10
33.8619499424
 20
98.6753242668
 10
33.3053940592
 20
98.5690829245
 10
32.7972978801
 20
98.4682693513
 10
32.3325902835
 20
98.37285330180002
 10
31.9065274541
 20
98.28266175000001
 10
31.5148533548
 20
98.19745120120002
 10
31.154790017
 20
98.1171660192
 10
30.8248733428
 20
98.04195412280002
 10
30.5239126226
 20
97.9719638397
 10
30.2506966415
 20
97.9072871382
 10
30.0039430615
 20
97.84794528010001
 10
29.782313041
 20
97.79389473469999
 10
29.5839742727
 20
97.74492288879999
 10
29.4064128277
 20
97.7005930101
 10
29.2467891038
 20
97.6603339655
 10
29.1025178527
 20
97.62360413739999
 10
28.9722244613
 20
97.5901465175
 10
28.8559140552
 20
97.5600598788
 10
28.7531194714
 20
97.53331206430001
 10
28.6614262206
 20
97.5093390856
 10
28.5770591618
 20
97.48719484950001
 10
28.4960568531
 20
97.46586238540002
 10
28.415497409
 20
97.44458188380001
 10
28.3344211338
 20
97.42308567389999
 10
28.2536114102
 20
97.40155518819999
 10
28.1746000197
 20
97.38037752430001
 10
28.0979884087
 20
97.35970571000001
 10
28.0229550979
 20
97.33933024549999
 10
27.9482434302
 20
97.3189206738
 10
27.8729156997
 20
97.29822606
 10
27.7979456076
 20
97.2775147419
 10
27.7263171566
 20
97.25760965159999
 10
27.6604276993
 20
97.23918880079999
 10
27.6013154534
 20
97.22256515899999
 10
27.5491034194
 20
97.20779754310001
 10
27.5026238202
 20
97.1945630044
 10
27.4599274352
 20
97.18230987780001
 10
27.4189109339
 20
97.1704337845
 10
27.3781300449
 20
97.15850656149999
 10
27.3372403422
 20
97.14641101200001
 10
27.2964053202
 20
97.13417825229999
 10
27.2557608617
 20
97.1218368268
 10
27.2147046703
 20
97.1092049035
 10
27.1717490974
 20
97.0958185805
 10
27.1251308099
 20
97.081104002
 10
27.0730851425
 20
97.06445996700001
 10
27.0139469538
 20
97.04529017540002
 10
26.9465846911
 20
97.0231460443
 10
26.8725347685
 20
96.9984236898
 10
26.7956715559
 20
96.9723218136
 10
26.7181048593
 20
96.9455047473
 10
26.6397015293
 20
96.9178915464
 10
26.5587318102
 20
96.88883264760001
 10
26.4722423244
 20
96.8571835934
 10
26.3770372853
 20
96.8216162593
 10
26.27033131
 20
96.78084225900001
 10
26.1501238581
 20
96.73375376910001
 10
26.0149427642
 20
96.67933125530002
 10
25.8638827149
 20
96.61665751459999
 10
25.6965323652
 20
96.5449013451
 10
25.5124981239
 20
96.46312379040001
 10
25.3107348103
 20
96.3699486115
 10
25.0891970679
 20
96.26330493879999
 10
24.8455715807
 20
96.1406498134
 10
24.57783319300001
 20
95.99916690459998
 10
24.2835384796
 20
95.83530235459999
 10
23.957996679
 20
95.64345052889999
 10
23.5946741954
 20
95.41557111839999
 10
23.1885655083
 20
95.14268587910001
 10
22.7400369169
 20
94.81742237899998
 10
22.2560744987
 20
94.4358993117
 10
21.7554061965
 20
94.00429050019999
 10
21.2641941459
 20
93.53984273469999
 10
20.7953901766
 20
93.0534657883
 10
20.3500876255
 20
92.54637582079999
 10
19.9286908667
 20
92.01896610209999
 10
19.5323563261
 20
91.47268492429999
 10
19.1619519179
 20
90.9088348985
 10
18.8182110868
 20
90.32853098350001
 10
18.5018956484
 20
89.7329917068
 10
18.2136567245
 20
89.1235647174
 10
17.9540729291
 20
88.5015492816
 10
17.7237011357
 20
87.86818421739999
 10
17.5230552139
 20
87.2248348733
 10
17.352507248
 20
86.57287819530001
 10
17.2124025714
 20
85.91361957149999
 10
17.1030969706
 20
85.2484324151
 10
17.0247685751
 20
84.57814383819998
 10
16.9776567792
 20
83.9044529907
 10
16.9619331375
 20
83.22936936939999
  0
LWPOLYLINE
  5
1599
330
218
100
AcDbEntity
  8
0
  6
Continuous
 62
     7
100
AcDbPolyline
 90
       12
 70
     0
 43
0.0
 10
47.68715722359999
 20
101.1420647596
 10
44.9016914694
 20
101.117234504
 10
42.1803788765
 20
101.0450249331
 10
39.4601726479
 20
100.9254461283
 10
36.74253830850001
 20
100.7585641919
 10
34.0283927535
 20
100.5444399956
 10
31.3183973173
 20
100.2831129667
 10
28.612373094
 20
99.974539237
 10
25.9144248107
 20
99.61924865340002
 10
23.1620651103
 20
99.2074509497
 10
20.3595710228
 20
98.7365342148
 10
17.5410702453
 20
98.2098922966
  0
LWPOLYLINE
  5
159A
330
218
100
AcDbEntity
  8
0
  6
Continuous
 62
     7
100
AcDbPolyline
 90
       12
 70
     0
 43
0.0
 10
47.6871572246
 20
101.2220647596
 10
44.9392916712
 20
101.1979126355
 10
42.1797454006
 20
101.1250522639
 10
39.4214872237
 20
101.003515306
 10
36.6654623391
 20
100.8333379287
 10
33.9126217268
 20
100.6145607175
 10
31.1639129669
 20
100.347229979
 10
28.420272304
 20
100.0314313039
 10
25.6826229755
 20
99.6672970284
 10
22.951888848
 20
99.254964645
 10
20.2289868208
 20
98.79457400020001
 10
17.5256562201
 20
98.2883933019
  0
LINE
  5
159B
330
218
100
AcDbEntity
  8
0
  6
Continuous
 62
     7
100
AcDbLine
 10
46.12465722359999
 20
98.82800023260001
 30
0.0
 11
49.24965722359999
 21
98.82800023260001
 31
0.0
  0
LINE
  5
159C
330
218
100
AcDbEntity
  8
0
  6
Continuous
 62
     7
100
AcDbLine
 10
46.12465722359999
 20
98.8509675737
 30
0.0
 11
49.24965722359999
 21
98.8509675737
 31
0.0
  0
LWPOLYLINE
  5
159D
330
218
100
AcDbEntity
  8
0
  6
Continuous
 62
     7
100
AcDbPolyline
 90
       31
 70
     0
 43
0.0
 10
49.24965722359999
 20
98.82800023260001
 10
49.2729419251
 20
98.82784236139999
 10
49.2961606235
 20
98.8273691954
 10
49.3192475031
 20
98.8265820756
 10
49.3421371214
 20
98.8254832335
 10
49.36476459539999
 20
98.82407578360002
 10
49.3870657851
 20
98.82236371559999
 10
49.40897747520001
 20
98.82035188260001
 10
49.43043755479999
 20
98.8180459872
 10
49.4513851929
 20
98.81545256590001
 10
49.4717610112
 20
98.8125789699
 10
49.4915072522
 20
98.8094333447
 10
49.5105679429
 20
98.80602460700002
 10
49.5288890539
 20
98.80236241929999
 10
49.5464186519
 20
98.79845716230001
 10
49.56310704739999
 20
98.794319906
 10
49.5789069354
 20
98.7899623778
 10
49.5937735292
 20
98.78539692970001
 10
49.607664688
 20
98.78063650290002
 10
49.6205410358
 20
98.7756945913
 10
49.6323660731
 20
98.7705852034
 10
49.6431062805
 20
98.76532282219999
 10
49.6527312139
 20
98.75992236450002
 10
49.6612135902
 20
98.75439913860001
 10
49.6685293654
 20
98.7487688006
 10
49.6746578019
 20
98.74304731040002
 10
49.6795815281
 20
98.737250886
 10
49.68328658709999
 20
98.7313959581
 10
49.68576247659999
 20
98.72549912309999
 10
49.6870021784
 20
98.71957709629999
 10
49.68715722359999
 20
98.71661188030001
  0
LWPOLYLINE
  5
159E
330
218
100
AcDbEntity
  8
0
  6
Continuous
 62
     7
100
AcDbPolyline
 90
       12
 70
     0
 43
0.0
 10
77.83324416949999
 20
98.20989229780002
 10
75.09369932590001
 20
98.7225078217
 10
72.40841658099999
 20
99.17618858330001
 10
69.7154122923
 20
99.5831223683
 10
67.0160815135
 20
99.94310545680001
 10
64.3113140537
 20
100.2560271823
 10
61.6017488978
 20
100.5218042806
 10
58.88720853359999
 20
100.7404371605
 10
56.17189463039999
 20
100.9116546089
 10
53.3925906729
 20
101.0378969827
 10
50.5529444428
 20
101.1157819834
 10
47.68715722359999
 20
101.1420647596
  0
LWPOLYLINE
  5
159F
330
218
100
AcDbEntity
  8
0
  6
Continuous
 62
     7
100
AcDbPolyline
 90
       12
 70
     0
 43
0.0
 10
77.8486581936
 20
98.28839330320001
 10
75.1463124646
 20
98.79439853850001
 10
72.42341603939999
 20
99.25480614160001
 10
69.69268465909999
 20
99.66715599090001
 10
66.9550365181
 20
100.0313079952
 10
64.2113961611
 20
100.34712419
 10
61.4626867671
 20
100.6144730387
 10
58.70984495560001
 20
100.8332677879
 10
55.9538194555
 20
101.0034628208
 10
53.19556147260001
 20
101.1250173012
 10
50.43601583810001
 20
101.1978951722
 10
47.6871572246
 20
101.2220647596
  0
LWPOLYLINE
  5
15A0
330
218
100
AcDbEntity
  8
0
  6
Continuous
 62
     7
100
AcDbPolyline
 90
       91
 70
     0
 43
0.0
 10
69.5863866218
 20
83.22936936939999
 10
69.5809806395
 20
83.5851332784
 10
69.5623960972
 20
83.9717051963
 10
69.52540343959999
 20
84.40046550099999
 10
69.46459403119999
 20
84.86556421459999
 10
69.3807211127
 20
85.33162663410001
 10
69.27667573419999
 20
85.78074063889999
 10
69.15275933220001
 20
86.21484141439999
 10
69.0088467794
 20
86.63621144750001
 10
68.84498578529999
 20
87.04587191999999
 10
68.66103963819999
 20
87.4445536534
 10
68.456316136
 20
87.8335082491
 10
68.22992924250001
 20
88.213863626
 10
67.9813617381
 20
88.58577094469998
 10
67.71009306399999
 20
88.94902628610001
 10
67.4144228178
 20
89.30474429379998
 10
67.09250348339999
 20
89.6537364547
 10
66.7446738962
 20
89.9941641969
 10
66.3832029384
 20
90.3145200308
 10
66.0352002711
 20
90.59587168629999
 10
65.7156547655
 20
90.83407044839999
 10
65.42472060609999
 20
91.03612094030001
 10
65.15996205010001
 20
91.20894042739999
 10
64.918078799
 20
91.3584173783
 10
64.6959376642
 20
91.4891427034
 10
64.49251220489999
 20
91.60369657450001
 10
64.3067762459
 20
91.70422058159999
 10
64.13642692739999
 20
91.79316960639999
 10
63.97895839810001
 20
91.87274937439999
 10
63.8325956608
 20
91.94452824379999
 10
63.6966275001
 20
92.0093863559
 10
63.5715367022
 20
92.06755117209999
 10
63.4582847081
 20
92.11900314270001
 10
63.3561343896
 20
92.16445453709999
 10
63.26190190470001
 20
92.2056089023
 10
63.171425085
 20
92.24443781399999
 10
63.0816780509
 20
92.28229835319998
 10
62.9918561489
 20
92.31953665299998
 10
62.902296283
 20
92.35595841879998
 10
62.81281769149999
 20
92.39165959579999
 10
62.7226818507
 20
92.42697022420001
 10
62.63098393529999
 20
92.46226455670001
 10
62.53660839760001
 20
92.4980276688
 10
62.4392256047
 20
92.53437788459999
 10
62.33955854659999
 20
92.57100914049999
 10
62.23846924930001
 20
92.60758306719999
 10
62.13665283960001
 20
92.64383734209998
 10
62.03472481689999
 20
92.67955621590001
 10
61.9332068847
 20
92.71457082149998
 10
61.8314441218
 20
92.74911966239999
 10
61.72649997619999
 20
92.784183844
 10
61.6148041327
 20
92.82088623889999
 10
61.495197403
 20
92.8594960078
 10
61.36850555199999
 20
92.89962853290001
 10
61.234256366
 20
92.94131575999999
 10
61.08983582729999
 20
92.9852198594
 10
60.93221825899999
 20
93.0320498733
 10
60.7591991927
 20
93.08218573339999
 10
60.5693473062
 20
93.13571409209998
 10
60.3613300464
 20
93.19263535659999
 10
60.1335158983
 20
93.252965233
 10
59.8837523649
 20
93.3167761626
 10
59.60922211649999
 20
93.38420314229999
 10
59.30704109819999
 20
93.45526642940001
 10
58.9743933196
 20
93.52983187499999
 10
58.6074902178
 20
93.6078249244
 10
58.2021111658
 20
93.68905227010001
 10
57.7538499189
 20
93.77312544510001
 10
57.257267885
 20
93.85958827719999
 10
56.7064588085
 20
93.94775411999999
 10
56.0936424284
 20
94.03684384139999
 10
55.4120169492
 20
94.12549938919999
 10
54.6970193908
 20
94.2074661592
 10
54.0292191161
 20
94.27447831969999
 10
53.43933293
 20
94.32646395849999
 10
52.9161179904
 20
94.36721767459998
 10
52.4453218859
 20
94.39978234180001
 10
52.02209452399999
 20
94.42587302700001
 10
51.6452866574
 20
94.44665953379999
 10
51.3077665657
 20
94.46339006850001
 10
50.995221283
 20
94.47733669760001
 10
50.6932339399
 20
94.4894373864
 10
50.3893720218
 20
94.5002845403
 10
50.08218402629999
 20
94.5099309397
 10
49.7751801051
 20
94.5182813551
 10
49.4714135657
 20
94.52530871790001
 10
49.1694936417
 20
94.5311097785
 10
48.8557201137
 20
94.53592406889999
 10
48.51442979359999
 20
94.53979838040002
 10
48.1300689276
 20
94.54252144299999
 10
47.68715722359999
 20
94.54359337479999
  0
LWPOLYLINE
  5
15A1
330
218
100
AcDbEntity
  8
0
  6
Continuous
 62
     7
100
AcDbPolyline
 90
       13
 70
     0
 43
0.0
 10
17.5410702453
 20
98.2098922966
 10
17.5004933931
 20
98.19981819639998
 10
17.4621817428
 20
98.18621830899999
 10
17.4253045179
 20
98.16895416340001
 10
17.3903544915
 20
98.1482494846
 10
17.3576145177
 20
98.12428462860001
 10
17.3273883863
 20
98.09728839639999
 10
17.2999502321
 20
98.0675123051
 10
17.2755353496
 20
98.03521189459999
 10
17.25442779079999
 20
98.0007833325
 10
17.2363594153
 20
97.96353076430001
 10
17.2217295158
 20
97.92352299059999
 10
17.2111307849
 20
97.8815565977
  0
LINE
  5
15A2
330
218
100
AcDbEntity
  8
0
  6
Continuous
 62
     7
100
AcDbLine
 10
17.5266160827
 20
98.2845180406
 30
0.0
 11
17.5304497453
 21
98.2854675996
 31
0.0
  0
LWPOLYLINE
  5
15A3
330
218
100
AcDbEntity
  8
0
  6
Continuous
 62
     7
100
AcDbPolyline
 90
       13
 70
     0
 43
0.0
 10
17.5256562201
 20
98.2883933019
 10
17.4878759977
 20
98.27944746580001
 10
17.4392832236
 20
98.26322549950001
 10
17.3926674552
 20
98.24215919469999
 10
17.3485008438
 20
98.2164707615
 10
17.3072429771
 20
98.18643533459999
 10
17.2693185732
 20
98.15237166690002
 10
17.2351164786
 20
98.1146398055
 10
17.2049836772
 20
98.07363417360001
 10
17.1792250755
 20
98.02978137940002
 10
17.1581023868
 20
97.98354122920001
 10
17.1418241013
 20
97.9353823295
 10
17.1326534897
 20
97.8970908872
  0
LINE
  5
15A4
330
218
100
AcDbEntity
  8
0
  6
Continuous
 62
     7
100
AcDbLine
 10
77.84386470189999
 20
98.2854675996
 30
0.0
 11
77.8476983466
 21
98.2845180568
 31
0.0
  0
LINE
  5
15A5
330
218
100
AcDbEntity
  8
0
  6
Continuous
 62
     7
100
AcDbLine
 10
77.83324416949999
 20
98.20989229780002
 30
0.0
 11
77.8486581936
 21
98.28839330320001
 31
0.0
  0
LINE
  5
15A6
330
218
100
AcDbEntity
  8
0
  6
Continuous
 62
     7
100
AcDbLine
 10
77.8332442002
 20
68.24884644259999
 30
0.0
 11
77.84865822499999
 21
68.1703454373
 31
0.0
  0
LWPOLYLINE
  5
15A7
330
218
100
AcDbEntity
  8
0
  6
Continuous
 62
     7
100
AcDbPolyline
 90
       83
 70
     0
 43
0.0
 10
78.3872216784
 20
83.22936936939999
 10
78.371745797
 20
83.899473585
 10
78.32567447409999
 20
84.565015989
 10
78.24909425379999
 20
85.22786704880001
 10
78.14217362419999
 20
85.8862279483
 10
78.0051686699
 20
86.5386143984
 10
77.8383760448
 20
87.18397514620001
 10
77.64207970040001
 20
87.82117327379998
 10
77.4166628851
 20
88.44872974739999
 10
77.1626734341
 20
89.06515909120001
 10
76.880681174
 20
89.66923463290001
 10
76.5711792795
 20
90.25986234920001
 10
76.2346130613
 20
90.83600959120001
 10
75.8717274724
 20
91.3963762454
 10
75.48398074100001
 20
91.9388319599
 10
75.0725999842
 20
92.4618706535
 10
74.6358154871
 20
92.9675462768
 10
74.1723507482
 20
93.4565645354
 10
73.691361243
 20
93.91937999200001
 10
73.2134239187
 20
94.3396719417
 10
72.7562549128
 20
94.7087741364
 10
72.3296737113
 20
95.02688162850001
 10
71.93884555470001
 20
95.29780783680001
 10
71.58386838680001
 20
95.5280085883
 10
71.26116980279999
 20
95.7248890007
 10
70.96611230899999
 20
95.89506820530001
 10
70.6957291712
 20
96.04310268150001
 10
70.4503685133
 20
96.17111505780002
 10
70.2308358607
 20
96.280703191
 10
70.03418779579999
 20
96.37499758030001
 10
69.8535344216
 20
96.45846724590001
 10
69.6804296526
 20
96.53566667479999
 10
69.5077238137
 20
96.61001984670001
 10
69.3330552834
 20
96.68254959709999
 10
69.15748785019999
 20
96.75278916370002
 10
68.98162449049999
 20
96.82052164860001
 10
68.8049328875
 20
96.88599120840001
 10
68.62626432479999
 20
96.9496247338
 10
68.44931876
 20
97.0101261661
 10
68.2846068801
 20
97.06414573059999
 10
68.1388060375
 20
97.11007123959999
 10
68.0109129853
 20
97.1488683811
 10
67.8977205593
 20
97.18212635270001
 10
67.7957892588
 20
97.21135908469999
 10
67.70161497939999
 20
97.2378822345
 10
67.6115544462
 20
97.26290933299999
 10
67.52280805689998
 20
97.28733819520002
 10
67.4343901754
 20
97.3115318882
 10
67.3459614624
 20
97.3356267691
 10
67.2567658014
 20
97.35982589350001
 10
67.1651366273
 20
97.3845717644
 10
67.06834665409999
 20
97.4105820283
 10
66.96314736099999
 20
97.43869592220001
 10
66.8466978949
 20
97.46961956200001
 10
66.7175243616
 20
97.50367627670001
 10
66.5750900564
 20
97.54093306979999
 10
66.4189372217
 20
97.58142688059999
 10
66.24840967379999
 20
97.6252357155
 10
66.06120676489999
 20
97.67283761649999
 10
65.8527448462
 20
97.7252398185
 10
65.61800060829999
 20
97.7834830645
 10
65.35529547649999
 20
97.84770200010001
 10
65.0683945074
 20
97.916679066
 10
64.76203439390001
 20
97.98900644639999
 10
64.4379823645
 20
98.06402387209999
 10
64.0949382047
 20
98.14177892549999
 10
63.72785986989999
 20
98.22309866819999
 10
63.32889524279999
 20
98.3092827926
 10
62.8900575372
 20
98.40144471229999
 10
62.40478132879999
 20
98.5001579584
 10
61.86843022619999
 20
98.6053662103
 10
61.27612489699999
 20
98.716821805
 10
60.6205587734
 20
98.83442537669999
 10
59.8923902777
 20
98.95800247870001
 10
59.0808952999
 20
99.0870275956
 10
58.1733829082
 20
99.22053002710001
 10
57.1541521629
 20
99.3569691857
 10
56.0038672345
 20
99.49390701150001
 10
54.6978825044
 20
99.62761162760001
 10
53.205174452
 20
99.75225996669999
 10
51.4898412758
 20
99.85860634280001
 10
49.6173416891
 20
99.9298928996
 10
47.6871572254
 20
99.9546113094
  0
LWPOLYLINE
  5
15A8
330
218
100
AcDbEntity
  8
0
  6
Continuous
 62
     7
100
AcDbPolyline
 90
        9
 70
     0
 43
0.0
 10
79.59985462449999
 20
83.22936936939999
 10
79.5768719088
 20
85.0904095345
 10
79.51162466640001
 20
86.8755623724
 10
79.404134376
 20
88.6586762595
 10
79.25433112189999
 20
90.44008811160001
 10
79.0628582514
 20
92.2131991618
 10
78.81951467270001
 20
94.05067039829999
 10
78.519069461
 20
95.95240660059999
 10
78.1631836536
 20
97.8815565981
  0
LWPOLYLINE
  5
15A9
330
218
100
AcDbEntity
  8
0
  6
Continuous
 62
     7
100
AcDbPolyline
 90
        9
 70
     0
 43
0.0
 10
79.67985462449999
 20
83.22936937139999
 10
79.6575319346
 20
85.0644637139
 10
79.5900107674
 20
86.91070129319999
 10
79.4773396158
 20
88.75494981180001
 10
79.3195661807
 20
90.59611745419999
 10
79.1167540311
 20
92.43309194540001
 10
78.86903761380001
 20
94.2647710099
 10
78.5765727847
 20
96.09007782529999
 10
78.24166094899999
 20
97.89709088610001
  0
LWPOLYLINE
  5
15AA
330
218
100
AcDbEntity
  8
0
  6
Continuous
 62
     7
100
AcDbPolyline
 90
        9
 70
     0
 43
0.0
 10
78.1631836632
 20
68.577182142
 10
78.5022837564
 20
70.4086003628
 10
78.78509821819999
 20
72.17322351979999
 10
79.02603583379999
 20
73.94372828819999
 10
79.2250919981
 20
75.72042982319999
 10
79.38163218949999
 20
77.4967883474
 10
79.4997764883
 20
79.3461497518
 10
79.5743591063
 20
81.2692259634
 10
79.59985462449999
 20
83.22936936939999
  0
LWPOLYLINE
  5
15AB
330
218
100
AcDbEntity
  8
0
  6
Continuous
 62
     7
100
AcDbPolyline
 90
        9
 70
     0
 43
0.0
 10
78.2416609584
 20
68.5616478527
 10
78.57640214559999
 20
70.3676733232
 10
78.8688902442
 20
72.1929700863
 10
79.11663100140001
 20
74.02464565069999
 10
79.3194680587
 20
75.8616186411
 10
79.4772657552
 20
77.7027830009
 10
79.58996160649999
 20
79.5470302179
 10
79.65750753569999
 20
81.3932731166
 10
79.67985462449999
 20
83.22936937139999
  0
LINE
  5
15AC
330
218
100
AcDbEntity
  8
0
  6
Continuous
 62
     7
100
AcDbLine
 10
78.2366475836
 20
68.56406269449999
 30
0.0
 11
78.23637423360001
 21
68.5629681403
 31
0.0
  0
LWPOLYLINE
  5
15AD
330
218
100
AcDbEntity
  8
0
  6
Continuous
 62
     7
100
AcDbPolyline
 90
       13
 70
     0
 43
0.0
 10
78.1631836536
 20
97.8815565981
 10
78.1530996834
 20
97.92184256510001
 10
78.139494183
 20
97.9598596974
 10
78.1222257126
 20
97.99645537469999
 10
78.1014897866
 20
98.03118716120001
 10
78.0774645609
 20
98.0637563474
 10
78.05036596009999
 20
98.09386187770002
 10
78.0204434516
 20
98.12121860620001
 10
77.98793870909999
 20
98.14559094239999
 10
77.95327825850001
 20
98.16666584469999
 10
77.9158453709
 20
98.18467405520001
 10
77.87557707170001
 20
98.1992845126
 10
77.83324416949999
 20
98.20989229780002
  0
LINE
  5
15AE
330
218
100
AcDbEntity
  8
0
  6
Continuous
 62
     7
100
AcDbLine
 10
78.23637423390001
 20
97.89577058
 30
0.0
 11
78.2366475836
 21
97.89467604430001
 31
0.0
  0
LWPOLYLINE
  5
15AF
330
218
100
AcDbEntity
  8
0
  6
Continuous
 62
     7
100
AcDbPolyline
 90
       13
 70
     0
 43
0.0
 10
78.24166094899999
 20
97.89709088610001
 10
78.2327723686
 20
97.93437773509999
 10
78.2165990849
 20
97.98256134030001
 10
78.1955792336
 20
98.0288375617
 10
78.16991942979999
 20
98.0727382965
 10
78.1398790858
 20
98.1138043296
 10
78.10576004159999
 20
98.15160929600001
 10
78.06790636969999
 20
98.1857579038
 10
78.0267064482
 20
98.21588691009999
 10
77.9825857906
 20
98.24167434479999
 10
77.9360052977
 20
98.26284276169999
 10
77.8874381501
 20
98.27916840430001
 10
77.8486581936
 20
98.28839330320001
  0
CIRCLE
  5
1628
330
218
100
AcDbEntity
  8
DEFAULT_2
  6
HIDDEN
 62
     7
100
AcDbCircle
 10
47.68715722359999
 20
87.20686936940001
 30
0.0
 40
1.125
  0
CIRCLE
  5
1629
330
218
100
AcDbEntity
  8
DEFAULT_2
  6
HIDDEN
 62
     7
100
AcDbCircle
 10
51.1871572236
 20
80.47936936939999
 30
0.0
 40
1.125
  0
CIRCLE
  5
162B
330
218
100
AcDbEntity
  8
DEFAULT_2
  6
HIDDEN
 62
     7
100
AcDbCircle
 10
51.1871572236
 20
80.47936936939999
 30
0.0
 40
0.9375
  0
CIRCLE
  5
1649
330
218
100
AcDbEntity
  8
0
  6
Continuous
 62
     7
100
AcDbCircle
 10
47.68715722359999
 20
83.22936936939999
 30
0.0
 40
1.448223304699999
  0
ENDSEC
  0
SECTION
  2
OBJECTS
  0
DICTIONARY
  5
C
330
0
100
AcDbDictionary
281
     1
  3
ACAD_CIP_PREVIOUS_PRODUCT_INFO
350
173C
  3
ACAD_COLOR
350
1687
  3
ACAD_DETAILVIEWSTYLE
350
1735
  3
ACAD_GROUP
350
D
  3
ACAD_LAYOUT
350
1A
  3
ACAD_MATERIAL
350
165A
  3
ACAD_MLEADERSTYLE
350
16AC
  3
ACAD_MLINESTYLE
350
17
  3
ACAD_PLOTSETTINGS
350
19
  3
ACAD_PLOTSTYLENAME
350
E
  3
ACAD_SCALELIST
350
168A
  3
ACAD_SECTIONVIEWSTYLE
350
1733
  3
ACAD_TABLESTYLE
350
1688
  3
ACAD_VISUALSTYLE
350
1673
  3
ACDB_RECOMPOSE_DATA
350
1786
  3
AcDbVariableDictionary
350
16E2
  0
DICTIONARY
  5
16B1
330
8
100
AcDbDictionary
280
     1
281
     1
  0
DICTIONARY
  5
16F1
330
10
100
AcDbDictionary
280
     1
281
     1
  3
ADSK_XREC_LAYER_RECONCILED
360
16F2
  0
DICTIONARY
  5
16F3
330
1FA
100
AcDbDictionary
280
     1
281
     1
  3
ADSK_XREC_LAYER_RECONCILED
360
16F4
  0
DICTIONARY
  5
16F5
330
1FB
100
AcDbDictionary
280
     1
281
     1
  3
ADSK_XREC_LAYER_RECONCILED
360
16F6
  0
DICTIONARY
  5
16F7
330
1FC
100
AcDbDictionary
280
     1
281
     1
  3
ADSK_XREC_LAYER_RECONCILED
360
16F8
  0
DICTIONARY
  5
16F9
330
1FD
100
AcDbDictionary
280
     1
281
     1
  3
ADSK_XREC_LAYER_RECONCILED
360
16FA
  0
DICTIONARY
  5
16FB
330
1FE
100
AcDbDictionary
280
     1
281
     1
  3
ADSK_XREC_LAYER_RECONCILED
360
16FC
  0
DICTIONARY
  5
16FD
330
1FF
100
AcDbDictionary
280
     1
281
     1
  3
ADSK_XREC_LAYER_RECONCILED
360
16FE
  0
DICTIONARY
  5
16FF
330
200
100
AcDbDictionary
280
     1
281
     1
  3
ADSK_XREC_LAYER_RECONCILED
360
1700
  0
DICTIONARY
  5
1701
330
201
100
AcDbDictionary
280
     1
281
     1
  3
ADSK_XREC_LAYER_RECONCILED
360
1702
  0
DICTIONARY
  5
1703
330
202
100
AcDbDictionary
280
     1
281
     1
  3
ADSK_XREC_LAYER_RECONCILED
360
1704
  0
DICTIONARY
  5
1705
330
203
100
AcDbDictionary
280
     1
281
     1
  3
ADSK_XREC_LAYER_RECONCILED
360
1706
  0
DICTIONARY
  5
1707
330
204
100
AcDbDictionary
280
     1
281
     1
  3
ADSK_XREC_LAYER_RECONCILED
360
1708
  0
DICTIONARY
  5
1709
330
205
100
AcDbDictionary
280
     1
281
     1
  3
ADSK_XREC_LAYER_RECONCILED
360
170A
  0
DICTIONARY
  5
170B
330
206
100
AcDbDictionary
280
     1
281
     1
  3
ADSK_XREC_LAYER_RECONCILED
360
170C
  0
DICTIONARY
  5
170D
330
207
100
AcDbDictionary
280
     1
281
     1
  3
ADSK_XREC_LAYER_RECONCILED
360
170E
  0
DICTIONARY
  5
170F
330
208
100
AcDbDictionary
280
     1
281
     1
  3
ADSK_XREC_LAYER_RECONCILED
360
1710
  0
DICTIONARY
  5
1711
330
209
100
AcDbDictionary
280
     1
281
     1
  3
ADSK_XREC_LAYER_RECONCILED
360
1712
  0
DICTIONARY
  5
1713
330
20A
100
AcDbDictionary
280
     1
281
     1
  3
ADSK_XREC_LAYER_RECONCILED
360
1714
  0
DICTIONARY
  5
1715
330
20B
100
AcDbDictionary
280
     1
281
     1
  3
ADSK_XREC_LAYER_RECONCILED
360
1716
  0
DICTIONARY
  5
1717
330
20C
100
AcDbDictionary
280
     1
281
     1
  3
ADSK_XREC_LAYER_RECONCILED
360
1718
  0
DICTIONARY
  5
1719
330
20D
100
AcDbDictionary
280
     1
281
     1
  3
ADSK_XREC_LAYER_RECONCILED
360
171A
  0
DICTIONARY
  5
171B
330
20E
100
AcDbDictionary
280
     1
281
     1
  3
ADSK_XREC_LAYER_RECONCILED
360
171C
  0
DICTIONARY
  5
171D
330
20F
100
AcDbDictionary
280
     1
281
     1
  3
ADSK_XREC_LAYER_RECONCILED
360
171E
  0
XRECORD
  5
173C
102
{ACAD_REACTORS
330
C
102
}
330
C
100
AcDbXrecord
280
     1
300
ACDLT
300
2016
300
ACDLT_F_S
  0
DICTIONARY
  5
1687
102
{ACAD_REACTORS
330
C
102
}
330
C
100
AcDbDictionary
281
     1
  0
DICTIONARY
  5
1735
102
{ACAD_REACTORS
330
C
102
}
330
C
100
AcDbDictionary
281
     1
  3
Imperial24
350
1736
  0
DICTIONARY
  5
D
102
{ACAD_REACTORS
330
C
102
}
330
C
100
AcDbDictionary
281
     1
  0
DICTIONARY
  5
1A
102
{ACAD_REACTORS
330
C
102
}
330
C
100
AcDbDictionary
281
     1
  3
Layout1
350
1657
  3
Model
350
1656
  0
DICTIONARY
  5
165A
102
{ACAD_REACTORS
330
C
102
}
330
C
100
AcDbDictionary
281
     1
  3
ByBlock
350
1663
  3
ByLayer
350
165B
  3
Global
350
166B
  0
DICTIONARY
  5
16AC
102
{ACAD_REACTORS
330
C
102
}
330
C
100
AcDbDictionary
281
     1
  3
Standard
350
16AD
  0
DICTIONARY
  5
17
102
{ACAD_REACTORS
330
C
102
}
330
C
100
AcDbDictionary
281
     1
  3
Standard
350
18
  0
DICTIONARY
  5
19
102
{ACAD_REACTORS
330
C
102
}
330
C
100
AcDbDictionary
281
     1
  0
ACDBDICTIONARYWDFLT
  5
E
102
{ACAD_REACTORS
330
C
102
}
330
C
100
AcDbDictionary
281
     1
  3
Normal
350
F
100
AcDbDictionaryWithDefault
340
F
  0
DICTIONARY
  5
168A
102
{ACAD_REACTORS
330
C
102
}
330
C
100
AcDbDictionary
281
     1
  3
A0
350
168B
  3
A1
350
168C
  3
A2
350
168D
  3
A3
350
168E
  3
A4
350
168F
  3
A5
350
1690
  3
A6
350
1691
  3
A7
350
1692
  3
A8
350
1693
  3
A9
350
1694
  3
B0
350
1695
  3
B1
350
1696
  3
B2
350
1697
  3
B3
350
1698
  3
B4
350
1699
  3
B5
350
169A
  3
B6
350
169B
  3
B7
350
169C
  3
B8
350
169D
  3
B9
350
169E
  3
C0
350
169F
  3
C1
350
16A0
  3
C2
350
16A1
  3
C3
350
16A2
  3
C4
350
16A3
  3
C5
350
16A4
  3
C6
350
16A5
  3
C7
350
16A6
  3
C8
350
16A7
  3
C9
350
16A8
  3
D0
350
16A9
  3
D1
350
16AA
  3
D2
350
16AB
  0
DICTIONARY
  5
1733
102
{ACAD_REACTORS
330
C
102
}
330
C
100
AcDbDictionary
281
     1
  3
Imperial24
350
1734
  0
DICTIONARY
  5
1688
102
{ACAD_REACTORS
330
C
102
}
330
C
100
AcDbDictionary
281
     1
  3
Standard
350
1689
  0
DICTIONARY
  5
1673
102
{ACAD_REACTORS
330
C
102
}
330
C
100
AcDbDictionary
281
     1
  3
2dWireframe
350
1679
  3
3D Hidden
350
167B
  3
3dWireframe
350
167A
  3
Basic
350
1678
  3
Brighten
350
167F
  3
ColorChange
350
1683
  3
Conceptual
350
167C
  3
Dim
350
167E
  3
EdgeColorOff
350
1686
  3
Facepattern
350
1682
  3
Flat
350
1674
  3
FlatWithEdges
350
1675
  3
Gouraud
350
1676
  3
GouraudWithEdges
350
1677
  3
Hidden
350
172D
  3
JitterOff
350
1684
  3
Linepattern
350
1681
  3
OverhangOff
350
1685
  3
Realistic
350
167D
  3
Shaded
350
1732
  3
Shaded with edges
350
1731
  3
Shades of Gray
350
172E
  3
Sketchy
350
172F
  3
Thicken
350
1680
  3
Wireframe
350
172C
  3
X-Ray
350
1730
  0
XRECORD
  5
1786
102
{ACAD_REACTORS
330
C
102
}
330
C
100
AcDbXrecord
280
     1
 90
        1
330
1689
  0
DICTIONARY
  5
16E2
102
{ACAD_REACTORS
330
C
102
}
330
C
100
AcDbDictionary
281
     1
  3
CANNOSCALE
350
16E5
  3
CMLEADERSTYLE
350
16E4
  3
CTABLESTYLE
350
16E3
  3
CVIEWDETAILSTYLE
350
1781
  3
CVIEWSECTIONSTYLE
350
1782
  3
DIMASSOC
350
16E8
  3
INDEXCTL
350
16E7
  3
LAYEREVAL
350
1722
  3
LAYERNOTIFY
350
1723
  3
LIGHTINGUNITS
350
1721
  3
MSLTSCALE
350
1720
  3
SOLIDHIST
350
1783
  3
SORTENTS
350
16E6
  3
XCLIPFRAME
350
1784
  0
XRECORD
  5
16F2
102
{ACAD_REACTORS
330
16F1
102
}
330
16F1
100
AcDbXrecord
280
     1
290
     1
  0
XRECORD
  5
16F4
102
{ACAD_REACTORS
330
16F3
102
}
330
16F3
100
AcDbXrecord
280
     1
290
     1
  0
XRECORD
  5
16F6
102
{ACAD_REACTORS
330
16F5
102
}
330
16F5
100
AcDbXrecord
280
     1
290
     1
  0
XRECORD
  5
16F8
102
{ACAD_REACTORS
330
16F7
102
}
330
16F7
100
AcDbXrecord
280
     1
290
     1
  0
XRECORD
  5
16FA
102
{ACAD_REACTORS
330
16F9
102
}
330
16F9
100
AcDbXrecord
280
     1
290
     1
  0
XRECORD
  5
16FC
102
{ACAD_REACTORS
330
16FB
102
}
330
16FB
100
AcDbXrecord
280
     1
290
     1
  0
XRECORD
  5
16FE
102
{ACAD_REACTORS
330
16FD
102
}
330
16FD
100
AcDbXrecord
280
     1
290
     1
  0
XRECORD
  5
1700
102
{ACAD_REACTORS
330
16FF
102
}
330
16FF
100
AcDbXrecord
280
     1
290
     1
  0
XRECORD
  5
1702
102
{ACAD_REACTORS
330
1701
102
}
330
1701
100
AcDbXrecord
280
     1
290
     1
  0
XRECORD
  5
1704
102
{ACAD_REACTORS
330
1703
102
}
330
1703
100
AcDbXrecord
280
     1
290
     1
  0
XRECORD
  5
1706
102
{ACAD_REACTORS
330
1705
102
}
330
1705
100
AcDbXrecord
280
     1
290
     1
  0
XRECORD
  5
1708
102
{ACAD_REACTORS
330
1707
102
}
330
1707
100
AcDbXrecord
280
     1
290
     1
  0
XRECORD
  5
170A
102
{ACAD_REACTORS
330
1709
102
}
330
1709
100
AcDbXrecord
280
     1
290
     1
  0
XRECORD
  5
170C
102
{ACAD_REACTORS
330
170B
102
}
330
170B
100
AcDbXrecord
280
     1
290
     1
  0
XRECORD
  5
170E
102
{ACAD_REACTORS
330
170D
102
}
330
170D
100
AcDbXrecord
280
     1
290
     1
  0
XRECORD
  5
1710
102
{ACAD_REACTORS
330
170F
102
}
330
170F
100
AcDbXrecord
280
     1
290
     1
  0
XRECORD
  5
1712
102
{ACAD_REACTORS
330
1711
102
}
330
1711
100
AcDbXrecord
280
     1
290
     1
  0
XRECORD
  5
1714
102
{ACAD_REACTORS
330
1713
102
}
330
1713
100
AcDbXrecord
280
     1
290
     1
  0
XRECORD
  5
1716
102
{ACAD_REACTORS
330
1715
102
}
330
1715
100
AcDbXrecord
280
     1
290
     1
  0
XRECORD
  5
1718
102
{ACAD_REACTORS
330
1717
102
}
330
1717
100
AcDbXrecord
280
     1
290
     1
  0
XRECORD
  5
171A
102
{ACAD_REACTORS
330
1719
102
}
330
1719
100
AcDbXrecord
280
     1
290
     1
  0
XRECORD
  5
171C
102
{ACAD_REACTORS
330
171B
102
}
330
171B
100
AcDbXrecord
280
     1
290
     1
  0
XRECORD
  5
171E
102
{ACAD_REACTORS
330
171D
102
}
330
171D
100
AcDbXrecord
280
     1
290
     1
  0
ACDBDETAILVIEWSTYLE
  5
1736
102
{ACAD_XDICTIONARY
360
17C1
102
}
102
{ACAD_REACTORS
330
1735
102
}
330
1735
100
AcDbModelDocViewStyle
 70
     0
  3
Imperial24
290
     0
100
AcDbDetailViewStyle
 70
     0
 71
     0
 90
        3
 71
     1
340
11
 62
   256
 40
0.24
340
0
 62
   256
 40
0.24
300

 40
0.36
280
     3
 71
     2
340
16
 90
       25
 62
   256
 71
     3
340
11
 62
   256
 40
0.24
 90
        1
 40
0.75
 90
        1
300
%<\AcVar ViewType \f "%tc1">% %<\AcVar ViewDetailId>%\PSCALE %<\AcVar ViewScale \f "%sn">%
 71
     4
340
16
 90
       25
 62
   256
340
16
 90
       25
 62
   256
280
     0
  0
LAYOUT
  5
1657
102
{ACAD_REACTORS
330
1A
102
}
330
1A
100
AcDbPlotSettings
  1

  2
none_device
  4
ANSI_B_(17.00_x_11.00_Inches)
  6

 40
0.0
 41
0.0
 42
0.0
 43
0.0
 44
431.8
 45
279.4
 46
0.0
 47
0.0
 48
0.0
 49
0.0
140
0.0
141
0.0
142
1.0
143
1.0
 70
     0
 72
     0
 73
     0
 74
     0
  7

 75
     0
147
1.0
 76
     0
 77
     2
 78
   300
148
0.0
149
0.0
100
AcDbLayout
  1
Layout1
 70
     1
 71
     1
 10
0.0
 20
0.0
 11
12.0
 21
9.0
 12
0.0
 22
0.0
 32
0.0
 14
1.000000000000000E+20
 24
1.000000000000000E+20
 34
1.000000000000000E+20
 15
-1.000000000000000E+20
 25
-1.000000000000000E+20
 35
-1.000000000000000E+20
146
0.0
 13
0.0
 23
0.0
 33
0.0
 16
1.0
 26
0.0
 36
0.0
 17
0.0
 27
1.0
 37
0.0
 76
     0
330
219
  0
LAYOUT
  5
1656
102
{ACAD_REACTORS
330
1A
102
}
330
1A
100
AcDbPlotSettings
  1

  2
none_device
  4
ANSI_B_(17.00_x_11.00_Inches)
  6

 40
0.0
 41
0.0
 42
0.0
 43
0.0
 44
431.8
 45
279.4
 46
0.0
 47
0.0
 48
0.0
 49
0.0
140
0.0
141
0.0
142
1.0
143
1.0
 70
  1024
 72
     0
 73
     0
 74
     0
  7

 75
     0
147
1.0
 76
     0
 77
     2
 78
   300
148
0.0
149
0.0
100
AcDbLayout
  1
Model
 70
     0
 71
     0
 10
0.0
 20
0.0
 11
17.0
 21
11.0
 12
0.0
 22
0.0
 32
0.0
 14
0.0
 24
0.0
 34
0.0
 15
0.0
 25
0.0
 35
0.0
146
0.0
 13
0.0
 23
0.0
 33
0.0
 16
1.0
 26
0.0
 36
0.0
 17
0.0
 27
1.0
 37
0.0
 76
     0
330
218
331
1F4
  0
MATERIAL
  5
1663
102
{ACAD_XDICTIONARY
360
1664
102
}
102
{ACAD_REACTORS
330
165A
102
}
330
165A
100
AcDbMaterial
  1
ByBlock
 72
     0
 43
0.0208333333333333
 43
0.0
 43
0.0
 43
0.0
 43
0.0
 43
0.0208333333333333
 43
0.0
 43
0.0
 43
0.0
 43
0.0
 43
1.0
 43
0.0
 43
0.0
 43
0.0
 43
0.0
 43
1.0
 77
     0
 47
0.0208333333333333
 47
0.0
 47
0.0
 47
0.0
 47
0.0
 47
0.0208333333333333
 47
0.0
 47
0.0
 47
0.0
 47
0.0
 47
1.0
 47
0.0
 47
0.0
 47
0.0
 47
0.0
 47
1.0
171
     0
 49
0.0208333333333333
 49
0.0
 49
0.0
 49
0.0
 49
0.0
 49
0.0208333333333333
 49
0.0
 49
0.0
 49
0.0
 49
0.0
 49
1.0
 49
0.0
 49
0.0
 49
0.0
 49
0.0
 49
1.0
175
     0
142
0.0208333333333333
142
0.0
142
0.0
142
0.0
142
0.0
142
0.0208333333333333
142
0.0
142
0.0
142
0.0
142
0.0
142
1.0
142
0.0
142
0.0
142
0.0
142
0.0
142
1.0
179
     0
144
0.0208333333333333
144
0.0
144
0.0
144
0.0
144
0.0
144
0.0208333333333333
144
0.0
144
0.0
144
0.0
144
0.0
144
1.0
144
0.0
144
0.0
144
0.0
144
0.0
144
1.0
147
0.0208333333333333
147
0.0
147
0.0
147
0.0
147
0.0
147
0.0208333333333333
147
0.0
147
0.0
147
0.0
147
0.0
147
1.0
147
0.0
147
0.0
147
0.0
147
0.0
147
1.0
  0
MATERIAL
  5
165B
102
{ACAD_XDICTIONARY
360
165C
102
}
102
{ACAD_REACTORS
330
165A
102
}
330
165A
100
AcDbMaterial
  1
ByLayer
 72
     0
 43
0.0208333333333333
 43
0.0
 43
0.0
 43
0.0
 43
0.0
 43
0.0208333333333333
 43
0.0
 43
0.0
 43
0.0
 43
0.0
 43
1.0
 43
0.0
 43
0.0
 43
0.0
 43
0.0
 43
1.0
 77
     0
 47
0.0208333333333333
 47
0.0
 47
0.0
 47
0.0
 47
0.0
 47
0.0208333333333333
 47
0.0
 47
0.0
 47
0.0
 47
0.0
 47
1.0
 47
0.0
 47
0.0
 47
0.0
 47
0.0
 47
1.0
171
     0
 49
0.0208333333333333
 49
0.0
 49
0.0
 49
0.0
 49
0.0
 49
0.0208333333333333
 49
0.0
 49
0.0
 49
0.0
 49
0.0
 49
1.0
 49
0.0
 49
0.0
 49
0.0
 49
0.0
 49
1.0
175
     0
142
0.0208333333333333
142
0.0
142
0.0
142
0.0
142
0.0
142
0.0208333333333333
142
0.0
142
0.0
142
0.0
142
0.0
142
1.0
142
0.0
142
0.0
142
0.0
142
0.0
142
1.0
179
     0
144
0.0208333333333333
144
0.0
144
0.0
144
0.0
144
0.0
144
0.0208333333333333
144
0.0
144
0.0
144
0.0
144
0.0
144
1.0
144
0.0
144
0.0
144
0.0
144
0.0
144
1.0
147
0.0208333333333333
147
0.0
147
0.0
147
0.0
147
0.0
147
0.0208333333333333
147
0.0
147
0.0
147
0.0
147
0.0
147
1.0
147
0.0
147
0.0
147
0.0
147
0.0
147
1.0
  0
MATERIAL
  5
166B
102
{ACAD_XDICTIONARY
360
166C
102
}
102
{ACAD_REACTORS
330
165A
102
}
330
165A
100
AcDbMaterial
  1
Global
 72
     0
 43
0.0208333333333333
 43
0.0
 43
0.0
 43
0.0
 43
0.0
 43
0.0208333333333333
 43
0.0
 43
0.0
 43
0.0
 43
0.0
 43
1.0
 43
0.0
 43
0.0
 43
0.0
 43
0.0
 43
1.0
 77
     0
 47
0.0208333333333333
 47
0.0
 47
0.0
 47
0.0
 47
0.0
 47
0.0208333333333333
 47
0.0
 47
0.0
 47
0.0
 47
0.0
 47
1.0
 47
0.0
 47
0.0
 47
0.0
 47
0.0
 47
1.0
171
     0
 49
0.0208333333333333
 49
0.0
 49
0.0
 49
0.0
 49
0.0
 49
0.0208333333333333
 49
0.0
 49
0.0
 49
0.0
 49
0.0
 49
1.0
 49
0.0
 49
0.0
 49
0.0
 49
0.0
 49
1.0
175
     0
142
0.0208333333333333
142
0.0
142
0.0
142
0.0
142
0.0
142
0.0208333333333333
142
0.0
142
0.0
142
0.0
142
0.0
142
1.0
142
0.0
142
0.0
142
0.0
142
0.0
142
1.0
179
     0
144
0.0208333333333333
144
0.0
144
0.0
144
0.0
144
0.0
144
0.0208333333333333
144
0.0
144
0.0
144
0.0
144
0.0
144
1.0
144
0.0
144
0.0
144
0.0
144
0.0
144
1.0
147
0.0208333333333333
147
0.0
147
0.0
147
0.0
147
0.0
147
0.0208333333333333
147
0.0
147
0.0
147
0.0
147
0.0
147
1.0
147
0.0
147
0.0
147
0.0
147
0.0
147
1.0
  0
MLEADERSTYLE
  5
16AD
102
{ACAD_REACTORS
330
16AC
102
}
330
16AC
100
AcDbMLeaderStyle
170
     2
171
     1
172
     0
 90
        2
 40
0.0
 41
0.0
173
     1
 91
-1056964608
340
14
 92
       -2
290
     1
 42
0.09
291
     1
 43
0.36
  3
Standard
 44
0.18
300

342
11
174
     1
178
     6
175
     1
176
     0
 93
-1056964608
 45
0.18
292
     0
297
     0
 46
0.18
 94
-1056964608
 47
1.0
 49
1.0
140
1.0
293
     1
141
0.0
294
     1
177
     0
142
1.0
295
     0
296
     0
143
0.125
1001
ACAD_MLEADERVER
1070
     2
  0
MLINESTYLE
  5
18
102
{ACAD_REACTORS
330
17
102
}
330
17
100
AcDbMlineStyle
  2
STANDARD
 70
     0
  3

 62
   256
 51
90.0
 52
90.0
 71
     2
 49
0.5
 62
   256
  6
BYLAYER
 49
-0.5
 62
   256
  6
BYLAYER
  0
ACDBPLACEHOLDER
  5
F
102
{ACAD_REACTORS
330
E
102
}
330
E
  0
SCALE
  5
168B
102
{ACAD_REACTORS
330
168A
102
}
330
168A
100
AcDbScale
 70
     0
300
1:1
140
1.0
141
1.0
290
     1
  0
SCALE
  5
168C
102
{ACAD_REACTORS
330
168A
102
}
330
168A
100
AcDbScale
 70
     0
300
1:2
140
1.0
141
2.0
290
     0
  0
SCALE
  5
168D
102
{ACAD_REACTORS
330
168A
102
}
330
168A
100
AcDbScale
 70
     0
300
1:4
140
1.0
141
4.0
290
     0
  0
SCALE
  5
168E
102
{ACAD_REACTORS
330
168A
102
}
330
168A
100
AcDbScale
 70
     0
300
1:5
140
1.0
141
5.0
290
     0
  0
SCALE
  5
168F
102
{ACAD_REACTORS
330
168A
102
}
330
168A
100
AcDbScale
 70
     0
300
1:8
140
1.0
141
8.0
290
     0
  0
SCALE
  5
1690
102
{ACAD_REACTORS
330
168A
102
}
330
168A
100
AcDbScale
 70
     0
300
1:10
140
1.0
141
10.0
290
     0
  0
SCALE
  5
1691
102
{ACAD_REACTORS
330
168A
102
}
330
168A
100
AcDbScale
 70
     0
300
1:16
140
1.0
141
16.0
290
     0
  0
SCALE
  5
1692
102
{ACAD_REACTORS
330
168A
102
}
330
168A
100
AcDbScale
 70
     0
300
1:20
140
1.0
141
20.0
290
     0
  0
SCALE
  5
1693
102
{ACAD_REACTORS
330
168A
102
}
330
168A
100
AcDbScale
 70
     0
300
1:30
140
1.0
141
30.0
290
     0
  0
SCALE
  5
1694
102
{ACAD_REACTORS
330
168A
102
}
330
168A
100
AcDbScale
 70
     0
300
1:40
140
1.0
141
40.0
290
     0
  0
SCALE
  5
1695
102
{ACAD_REACTORS
330
168A
102
}
330
168A
100
AcDbScale
 70
     0
300
1:50
140
1.0
141
50.0
290
     0
  0
SCALE
  5
1696
102
{ACAD_REACTORS
330
168A
102
}
330
168A
100
AcDbScale
 70
     0
300
1:100
140
1.0
141
100.0
290
     0
  0
SCALE
  5
1697
102
{ACAD_REACTORS
330
168A
102
}
330
168A
100
AcDbScale
 70
     0
300
2:1
140
2.0
141
1.0
290
     0
  0
SCALE
  5
1698
102
{ACAD_REACTORS
330
168A
102
}
330
168A
100
AcDbScale
 70
     0
300
4:1
140
4.0
141
1.0
290
     0
  0
SCALE
  5
1699
102
{ACAD_REACTORS
330
168A
102
}
330
168A
100
AcDbScale
 70
     0
300
8:1
140
8.0
141
1.0
290
     0
  0
SCALE
  5
169A
102
{ACAD_REACTORS
330
168A
102
}
330
168A
100
AcDbScale
 70
     0
300
10:1
140
10.0
141
1.0
290
     0
  0
SCALE
  5
169B
102
{ACAD_REACTORS
330
168A
102
}
330
168A
100
AcDbScale
 70
     0
300
100:1
140
100.0
141
1.0
290
     0
  0
SCALE
  5
169C
102
{ACAD_REACTORS
330
168A
102
}
330
168A
100
AcDbScale
 70
     0
300
1/128" = 1'-0"
140
0.0078125
141
12.0
290
     0
  0
SCALE
  5
169D
102
{ACAD_REACTORS
330
168A
102
}
330
168A
100
AcDbScale
 70
     0
300
1/64" = 1'-0"
140
0.015625
141
12.0
290
     0
  0
SCALE
  5
169E
102
{ACAD_REACTORS
330
168A
102
}
330
168A
100
AcDbScale
 70
     0
300
1/32" = 1'-0"
140
0.03125
141
12.0
290
     0
  0
SCALE
  5
169F
102
{ACAD_REACTORS
330
168A
102
}
330
168A
100
AcDbScale
 70
     0
300
1/16" = 1'-0"
140
0.0625
141
12.0
290
     0
  0
SCALE
  5
16A0
102
{ACAD_REACTORS
330
168A
102
}
330
168A
100
AcDbScale
 70
     0
300
3/32" = 1'-0"
140
0.09375
141
12.0
290
     0
  0
SCALE
  5
16A1
102
{ACAD_REACTORS
330
168A
102
}
330
168A
100
AcDbScale
 70
     0
300
1/8" = 1'-0"
140
0.125
141
12.0
290
     0
  0
SCALE
  5
16A2
102
{ACAD_REACTORS
330
168A
102
}
330
168A
100
AcDbScale
 70
     0
300
3/16" = 1'-0"
140
0.1875
141
12.0
290
     0
  0
SCALE
  5
16A3
102
{ACAD_REACTORS
330
168A
102
}
330
168A
100
AcDbScale
 70
     0
300
1/4" = 1'-0"
140
0.25
141
12.0
290
     0
  0
SCALE
  5
16A4
102
{ACAD_REACTORS
330
168A
102
}
330
168A
100
AcDbScale
 70
     0
300
3/8" = 1'-0"
140
0.375
141
12.0
290
     0
  0
SCALE
  5
16A5
102
{ACAD_REACTORS
330
168A
102
}
330
168A
100
AcDbScale
 70
     0
300
1/2" = 1'-0"
140
0.5
141
12.0
290
     0
  0
SCALE
  5
16A6
102
{ACAD_REACTORS
330
168A
102
}
330
168A
100
AcDbScale
 70
     0
300
3/4" = 1'-0"
140
0.75
141
12.0
290
     0
  0
SCALE
  5
16A7
102
{ACAD_REACTORS
330
168A
102
}
330
168A
100
AcDbScale
 70
     0
300
1" = 1'-0"
140
1.0
141
12.0
290
     0
  0
SCALE
  5
16A8
102
{ACAD_REACTORS
330
168A
102
}
330
168A
100
AcDbScale
 70
     0
300
1-1/2" = 1'-0"
140
1.5
141
12.0
290
     0
  0
SCALE
  5
16A9
102
{ACAD_REACTORS
330
168A
102
}
330
168A
100
AcDbScale
 70
     0
300
3" = 1'-0"
140
3.0
141
12.0
290
     0
  0
SCALE
  5
16AA
102
{ACAD_REACTORS
330
168A
102
}
330
168A
100
AcDbScale
 70
     0
300
6" = 1'-0"
140
6.0
141
12.0
290
     0
  0
SCALE
  5
16AB
102
{ACAD_REACTORS
330
168A
102
}
330
168A
100
AcDbScale
 70
     0
300
1'-0" = 1'-0"
140
12.0
141
12.0
290
     0
  0
ACDBSECTIONVIEWSTYLE
  5
1734
102
{ACAD_XDICTIONARY
360
17BF
102
}
102
{ACAD_REACTORS
330
1733
102
}
330
1733
100
AcDbModelDocViewStyle
 70
     0
  3
Imperial24
290
     0
100
AcDbSectionViewStyle
 70
     0
 71
     0
 90
       78
 71
     1
340
11
 62
   256
 40
0.24
340
0
340
0
 62
   256
 40
0.24
300
I, O, Q, S, X, Z
 40
0.48
 90
        3
 40
0.18
 90
        1
 71
     2
340
16
 90
       25
 62
   256
340
16
 90
       50
 62
   256
 40
0.24
 40
0.0
 40
0.24
 71
     3
340
11
 62
   256
 40
0.24
 90
        1
 40
0.75
 90
        1
300
%<\AcVar ViewType \f "%tc1">% %<\AcVar ViewSectionStartId>%-%<\AcVar ViewSectionEndId>%\PSCALE %<\AcVar ViewScale \f "%sn">%
 71
     4
 62
   256
 62
   257
300
ANSI31
 40
1.0
 90
        0
290
     0
290
     0
 90
        6
 40
0.0
 40
1.570796326794896
 40
0.2617993877991494
 40
1.308996938995747
 40
-0.2617993877991494
 40
1.832595714594046
  0
TABLESTYLE
  5
1689
102
{ACAD_XDICTIONARY
360
16AE
102
}
102
{ACAD_REACTORS
330
1688
102
}
330
1688
100
AcDbTableStyle
  3
Standard
 70
     0
 71
     0
 40
0.06
 41
0.06
280
     0
281
     0
  7
STANDARD
140
0.18
170
     2
 62
     0
 63
     7
283
     0
274
    -2
284
     1
 64
     0
275
    -2
285
     1
 65
     0
276
    -2
286
     1
 66
     0
277
    -2
287
     1
 67
     0
278
    -2
288
     1
 68
     0
279
    -2
289
     1
 69
     0
  7
STANDARD
140
0.25
170
     5
 62
     0
 63
     7
283
     0
274
    -2
284
     1
 64
     0
275
    -2
285
     1
 65
     0
276
    -2
286
     1
 66
     0
277
    -2
287
     1
 67
     0
278
    -2
288
     1
 68
     0
279
    -2
289
     1
 69
     0
  7
STANDARD
140
0.18
170
     5
 62
     0
 63
     7
283
     0
274
    -2
284
     1
 64
     0
275
    -2
285
     1
 65
     0
276
    -2
286
     1
 66
     0
277
    -2
287
     1
 67
     0
278
    -2
288
     1
 68
     0
279
    -2
289
     1
 69
     0
  0
VISUALSTYLE
  5
1679
102
{ACAD_XDICTIONARY
360
1794
102
}
102
{ACAD_REACTORS
330
1673
102
}
330
1673
100
AcDbVisualStyle
  2
2dWireframe
 70
     4
 71
     0
 72
     2
 73
     0
 90
        0
 40
-0.6
 41
-30.0
 62
     5
 63
     7
 74
     1
 91
        4
 64
     7
 65
   257
 75
     1
175
     1
 42
1.0
 92
        0
 66
   257
 43
1.0
 76
     1
 77
     6
 78
     2
 67
     7
 79
     5
170
     0
171
     0
290
     0
174
     0
 93
        1
 44
0.0
173
     0
291
     0
 45
0.0
1001
ACAD
1000
AcDbSavedByObjectVersion
1070
     0
  0
VISUALSTYLE
  5
167B
102
{ACAD_XDICTIONARY
360
1798
102
}
102
{ACAD_REACTORS
330
1673
102
}
330
1673
100
AcDbVisualStyle
  2
3D Hidden
 70
     6
 71
     1
 72
     2
 73
     2
 90
        0
 40
-0.6
 41
-30.0
 62
     5
 63
     7
 74
     2
 91
        2
 64
     7
 65
   257
 75
     2
175
     1
 42
179.0
 92
        0
 66
   257
 43
1.0
 76
     1
 77
     6
 78
     2
 67
     7
 79
     3
170
     0
171
     0
290
     0
174
     0
 93
        1
 44
0.0
173
     0
291
     0
 45
0.0
1001
ACAD
1000
AcDbSavedByObjectVersion
1070
     0
  0
VISUALSTYLE
  5
167A
102
{ACAD_XDICTIONARY
360
1796
102
}
102
{ACAD_REACTORS
330
1673
102
}
330
1673
100
AcDbVisualStyle
  2
3dWireframe
 70
     5
 71
     0
 72
     2
 73
     0
 90
        0
 40
-0.6
 41
-30.0
 62
     5
 63
     7
 74
     1
 91
        4
 64
     7
 65
   257
 75
     1
175
     1
 42
1.0
 92
        0
 66
   257
 43
1.0
 76
     1
 77
     6
 78
     2
 67
     7
 79
     5
170
     0
171
     0
290
     0
174
     0
 93
        1
 44
0.0
173
     0
291
     0
 45
0.0
1001
ACAD
1000
AcDbSavedByObjectVersion
1070
     0
  0
VISUALSTYLE
  5
1678
102
{ACAD_XDICTIONARY
360
1792
102
}
102
{ACAD_REACTORS
330
1673
102
}
330
1673
100
AcDbVisualStyle
  2
Basic
 70
     7
 71
     1
 72
     0
 73
     1
 90
        0
 40
-0.6
 41
-30.0
 62
     5
 63
     7
 74
     0
 91
        4
 64
     7
 65
   257
 75
     1
175
     1
 42
1.0
 92
        8
 66
     7
 43
1.0
 76
     1
 77
     6
 78
     2
 67
     7
 79
     5
170
     0
171
     0
290
     0
174
     0
 93
        1
 44
0.0
173
     0
291
     1
 45
0.0
1001
ACAD
1000
AcDbSavedByObjectVersion
1070
     0
  0
VISUALSTYLE
  5
167F
102
{ACAD_XDICTIONARY
360
17A0
102
}
102
{ACAD_REACTORS
330
1673
102
}
330
1673
100
AcDbVisualStyle
  2
Brighten
 70
    12
 71
     2
 72
     2
 73
     0
 90
        0
 40
-0.6
 41
-30.0
 62
     5
 63
     7
 74
     1
 91
        4
 64
     7
 65
   257
 75
     1
175
     1
 42
1.0
 92
        8
 66
     7
 43
1.0
 76
     1
 77
     6
 78
     2
 67
     7
 79
     5
170
     0
171
     0
290
     0
174
     0
 93
        1
 44
50.0
173
     0
291
     1
 45
0.0
1001
ACAD
1000
AcDbSavedByObjectVersion
1070
     0
  0
VISUALSTYLE
  5
1683
102
{ACAD_XDICTIONARY
360
17A8
102
}
102
{ACAD_REACTORS
330
1673
102
}
330
1673
100
AcDbVisualStyle
  2
ColorChange
 70
    16
 71
     2
 72
     2
 73
     3
 90
        0
 40
-0.6
 41
-30.0
 62
     5
 63
     8
 74
     1
 91
        4
 64
     7
 65
   257
 75
     1
175
     1
 42
1.0
 92
        8
 66
     8
 43
1.0
 76
     1
 77
     6
 78
     2
 67
     7
 79
     5
170
     0
171
     0
290
     0
174
     0
 93
        1
 44
0.0
173
     0
291
     1
 45
0.0
1001
ACAD
1000
AcDbSavedByObjectVersion
1070
     0
  0
VISUALSTYLE
  5
167C
102
{ACAD_XDICTIONARY
360
179A
102
}
102
{ACAD_REACTORS
330
1673
102
}
330
1673
100
AcDbVisualStyle
  2
Conceptual
 70
     9
 71
     3
 72
     2
 73
     0
 90
        0
 40
-0.6
 41
-30.0
 62
     5
 63
     7
 74
     2
 91
        2
 64
     7
 65
   257
 75
     1
175
     1
 42
179.0
 92
        8
 66
     7
 43
1.0
 76
     1
 77
     6
 78
     2
 67
     7
 79
     3
170
     0
171
     0
290
     0
174
     0
 93
        1
 44
0.0
173
     0
291
     0
 45
0.0
1001
ACAD
1000
AcDbSavedByObjectVersion
1070
     0
  0
VISUALSTYLE
  5
167E
102
{ACAD_XDICTIONARY
360
179E
102
}
102
{ACAD_REACTORS
330
1673
102
}
330
1673
100
AcDbVisualStyle
  2
Dim
 70
    11
 71
     2
 72
     2
 73
     0
 90
        0
 40
-0.6
 41
-30.0
 62
     5
 63
     7
 74
     1
 91
        4
 64
     7
 65
   257
 75
     1
175
     1
 42
1.0
 92
        8
 66
     7
 43
1.0
 76
     1
 77
     6
 78
     2
 67
     7
 79
     5
170
     0
171
     0
290
     0
174
     0
 93
        1
 44
-50.0
173
     0
291
     1
 45
0.0
1001
ACAD
1000
AcDbSavedByObjectVersion
1070
     0
  0
VISUALSTYLE
  5
1686
102
{ACAD_XDICTIONARY
360
17AE
102
}
102
{ACAD_REACTORS
330
1673
102
}
330
1673
100
AcDbVisualStyle
  2
EdgeColorOff
 70
    22
 71
     2
 72
     2
 73
     0
 90
        0
 40
-0.6
 41
-30.0
 62
     5
 63
     7
 74
     1
 91
        4
 64
     7
 65
   257
 75
     1
175
     1
 42
1.0
 92
        8
 66
     7
 43
1.0
 76
     1
 77
     6
 78
     2
 67
     7
 79
     5
170
     0
171
     0
290
     0
174
     0
 93
        1
 44
0.0
173
     0
291
     1
 45
0.0
1001
ACAD
1000
AcDbSavedByObjectVersion
1070
     0
  0
VISUALSTYLE
  5
1682
102
{ACAD_XDICTIONARY
360
17A6
102
}
102
{ACAD_REACTORS
330
1673
102
}
330
1673
100
AcDbVisualStyle
  2
Facepattern
 70
    15
 71
     2
 72
     2
 73
     0
 90
        0
 40
-0.6
 41
-30.0
 62
     5
 63
     7
 74
     1
 91
        4
 64
     7
 65
   257
 75
     1
175
     1
 42
1.0
 92
        8
 66
     7
 43
1.0
 76
     1
 77
     6
 78
     2
 67
     7
 79
     5
170
     0
171
     0
290
     0
174
     0
 93
        1
 44
0.0
173
     0
291
     1
 45
0.0
1001
ACAD
1000
AcDbSavedByObjectVersion
1070
     0
  0
VISUALSTYLE
  5
1674
102
{ACAD_XDICTIONARY
360
178A
102
}
102
{ACAD_REACTORS
330
1673
102
}
330
1673
100
AcDbVisualStyle
  2
Flat
 70
     0
 71
     2
 72
     1
 73
     1
 90
        2
 40
-0.6
 41
30.0
 62
     5
 63
     7
 74
     0
 91
        4
 64
     7
 65
   257
 75
     1
175
     1
 42
1.0
 92
        8
 66
     7
 43
1.0
 76
     1
 77
     6
 78
     2
 67
     7
 79
     5
170
     0
171
     0
290
     0
174
     0
 93
       13
 44
0.0
173
     0
291
     1
 45
0.0
1001
ACAD
1000
AcDbSavedByObjectVersion
1070
     0
  0
VISUALSTYLE
  5
1675
102
{ACAD_XDICTIONARY
360
178C
102
}
102
{ACAD_REACTORS
330
1673
102
}
330
1673
100
AcDbVisualStyle
  2
FlatWithEdges
 70
     1
 71
     2
 72
     1
 73
     1
 90
        2
 40
-0.6
 41
30.0
 62
     5
 63
     7
 74
     1
 91
        4
 64
     7
 65
   257
 75
     1
175
     1
 42
1.0
 92
        0
 66
   257
 43
1.0
 76
     1
 77
     6
 78
     2
 67
     7
 79
     5
170
     0
171
     0
290
     0
174
     0
 93
       13
 44
0.0
173
     0
291
     1
 45
0.0
1001
ACAD
1000
AcDbSavedByObjectVersion
1070
     0
  0
VISUALSTYLE
  5
1676
102
{ACAD_XDICTIONARY
360
178E
102
}
102
{ACAD_REACTORS
330
1673
102
}
330
1673
100
AcDbVisualStyle
  2
Gouraud
 70
     2
 71
     2
 72
     2
 73
     1
 90
        2
 40
-0.6
 41
30.0
 62
     5
 63
     7
 74
     0
 91
        4
 64
     7
 65
   257
 75
     1
175
     1
 42
1.0
 92
        0
 66
     7
 43
1.0
 76
     1
 77
     6
 78
     2
 67
     7
 79
     5
170
     0
171
     0
290
     0
174
     0
 93
       13
 44
0.0
173
     0
291
     1
 45
0.0
1001
ACAD
1000
AcDbSavedByObjectVersion
1070
     0
  0
VISUALSTYLE
  5
1677
102
{ACAD_XDICTIONARY
360
1790
102
}
102
{ACAD_REACTORS
330
1673
102
}
330
1673
100
AcDbVisualStyle
  2
GouraudWithEdges
 70
     3
 71
     2
 72
     2
 73
     1
 90
        2
 40
-0.6
 41
30.0
 62
     5
 63
     7
 74
     1
 91
        4
 64
     7
 65
   257
 75
     1
175
     1
 42
1.0
 92
        0
 66
   257
 43
1.0
 76
     1
 77
     6
 78
     2
 67
     7
 79
     5
170
     0
171
     0
290
     0
174
     0
 93
       13
 44
0.0
173
     0
291
     1
 45
0.0
1001
ACAD
1000
AcDbSavedByObjectVersion
1070
     0
  0
VISUALSTYLE
  5
172D
102
{ACAD_XDICTIONARY
360
17B3
102
}
102
{ACAD_REACTORS
330
1673
102
}
330
1673
100
AcDbVisualStyle
  2
Hidden
 70
     6
 71
     1
 72
     2
 73
     2
 90
        0
 40
-0.6
 41
-30.0
 62
     5
 63
     7
421
 16777215
 74
     2
 91
        2
 64
     7
 65
   257
 75
     2
175
     1
 42
40.0
 92
        0
 66
   257
 43
1.0
 76
     1
 77
     6
 78
     2
 67
     7
 79
     3
170
     0
171
     0
290
     0
174
     0
 93
        1
 44
0.0
173
     0
291
     0
 45
0.0
1001
ACAD
1000
AcDbSavedByObjectVersion
1070
     0
  0
VISUALSTYLE
  5
1684
102
{ACAD_XDICTIONARY
360
17AA
102
}
102
{ACAD_REACTORS
330
1673
102
}
330
1673
100
AcDbVisualStyle
  2
JitterOff
 70
    20
 71
     2
 72
     2
 73
     0
 90
        0
 40
-0.6
 41
-30.0
 62
     5
 63
     7
 74
     1
 91
        4
 64
     7
 65
   257
 75
     1
175
     1
 42
1.0
 92
       10
 66
     7
 43
1.0
 76
     1
 77
     6
 78
     2
 67
     7
 79
     5
170
     0
171
     0
290
     0
174
     0
 93
        1
 44
0.0
173
     0
291
     1
 45
0.0
1001
ACAD
1000
AcDbSavedByObjectVersion
1070
     0
  0
VISUALSTYLE
  5
1681
102
{ACAD_XDICTIONARY
360
17A4
102
}
102
{ACAD_REACTORS
330
1673
102
}
330
1673
100
AcDbVisualStyle
  2
Linepattern
 70
    14
 71
     2
 72
     2
 73
     0
 90
        0
 40
-0.6
 41
-30.0
 62
     5
 63
     7
 74
     1
 91
        4
 64
     7
 65
   257
 75
     7
175
     7
 42
1.0
 92
        8
 66
     7
 43
1.0
 76
     1
 77
     6
 78
     2
 67
     7
 79
     5
170
     0
171
     0
290
     0
174
     0
 93
        1
 44
0.0
173
     0
291
     1
 45
0.0
1001
ACAD
1000
AcDbSavedByObjectVersion
1070
     0
  0
VISUALSTYLE
  5
1685
102
{ACAD_XDICTIONARY
360
17AC
102
}
102
{ACAD_REACTORS
330
1673
102
}
330
1673
100
AcDbVisualStyle
  2
OverhangOff
 70
    21
 71
     2
 72
     2
 73
     0
 90
        0
 40
-0.6
 41
-30.0
 62
     5
 63
     7
 74
     1
 91
        4
 64
     7
 65
   257
 75
     1
175
     1
 42
1.0
 92
        9
 66
     7
 43
1.0
 76
     1
 77
     6
 78
     2
 67
     7
 79
     5
170
     0
171
     0
290
     0
174
     0
 93
        1
 44
0.0
173
     0
291
     1
 45
0.0
1001
ACAD
1000
AcDbSavedByObjectVersion
1070
     0
  0
VISUALSTYLE
  5
167D
102
{ACAD_XDICTIONARY
360
179C
102
}
102
{ACAD_REACTORS
330
1673
102
}
330
1673
100
AcDbVisualStyle
  2
Realistic
 70
     8
 71
     2
 72
     2
 73
     0
 90
        0
 40
-0.6
 41
-30.0
 62
     5
 63
     7
 74
     1
 91
        0
 64
     7
 65
   257
 75
     1
175
     1
 42
1.0
 92
        8
 66
     8
 43
1.0
 76
     1
 77
     6
 78
     2
 67
     7
 79
     5
170
     0
171
     0
290
     0
174
     0
 93
       13
 44
0.0
173
     0
291
     0
 45
0.0
1001
ACAD
1000
AcDbSavedByObjectVersion
1070
     0
  0
VISUALSTYLE
  5
1732
102
{ACAD_XDICTIONARY
360
17BD
102
}
102
{ACAD_REACTORS
330
1673
102
}
330
1673
100
AcDbVisualStyle
  2
Shaded
 70
    27
 71
     2
 72
     2
 73
     1
 90
        2
 40
-0.6
 41
30.0
 62
     5
 63
     7
421
 16777215
 74
     0
 91
        4
 64
     7
 65
   257
 75
     1
175
     1
 42
1.0
 92
        8
 66
   257
 43
1.0
 76
     1
 77
     6
 78
     2
 67
     8
425
  7895160
 79
     3
170
     0
171
     0
290
     0
174
     0
 93
        5
 44
0.0
173
     0
291
     0
 45
0.0
1001
ACAD
1000
AcDbSavedByObjectVersion
1070
     0
  0
VISUALSTYLE
  5
1731
102
{ACAD_XDICTIONARY
360
17BB
102
}
102
{ACAD_REACTORS
330
1673
102
}
330
1673
100
AcDbVisualStyle
  2
Shaded with edges
 70
    26
 71
     2
 72
     2
 73
     1
 90
        2
 40
-0.6
 41
30.0
 62
     5
 63
     7
421
 16777215
 74
     1
 91
       10
 64
     7
 65
   257
 75
     2
175
     1
 42
1.0
 92
        8
 66
   257
 43
1.0
 76
     1
 77
     6
 78
     2
 67
     7
 79
     3
170
     0
171
     0
290
     0
174
     0
 93
        5
 44
0.0
173
     0
291
     0
 45
0.0
1001
ACAD
1000
AcDbSavedByObjectVersion
1070
     0
  0
VISUALSTYLE
  5
172E
102
{ACAD_XDICTIONARY
360
17B5
102
}
102
{ACAD_REACTORS
330
1673
102
}
330
1673
100
AcDbVisualStyle
  2
Shades of Gray
 70
    23
 71
     2
 72
     2
 73
     3
 90
        0
 40
-0.6
 41
-30.0
 62
     5
 63
     7
421
 16777215
 74
     2
 91
        2
 64
     7
 65
     7
 75
     1
175
     1
 42
40.0
 92
        8
 66
     7
 43
1.0
 76
     1
 77
     6
 78
     2
 67
     7
 79
     3
170
     0
171
     0
290
     0
174
     0
 93
        1
 44
0.0
173
     0
291
     0
 45
0.0
1001
ACAD
1000
AcDbSavedByObjectVersion
1070
     0
  0
VISUALSTYLE
  5
172F
102
{ACAD_XDICTIONARY
360
17B7
102
}
102
{ACAD_REACTORS
330
1673
102
}
330
1673
100
AcDbVisualStyle
  2
Sketchy
 70
    24
 71
     1
 72
     2
 73
     2
 90
        0
 40
-0.6
 41
-30.0
 62
     5
 63
     7
421
 16777215
 74
     2
 91
        2
 64
     7
 65
     7
 75
     1
175
     1
 42
40.0
 92
       11
 66
     7
 43
1.0
 76
     1
 77
     6
 78
     2
 67
     7
 79
     6
170
     0
171
     0
290
     0
174
     0
 93
        1
 44
0.0
173
     0
291
     0
 45
0.0
1001
ACAD
1000
AcDbSavedByObjectVersion
1070
     0
  0
VISUALSTYLE
  5
1680
102
{ACAD_XDICTIONARY
360
17A2
102
}
102
{ACAD_REACTORS
330
1673
102
}
330
1673
100
AcDbVisualStyle
  2
Thicken
 70
    13
 71
     2
 72
     2
 73
     0
 90
        0
 40
-0.6
 41
-30.0
 62
     5
 63
     7
 74
     1
 91
        4
 64
     7
 65
   257
 75
     1
175
     1
 42
1.0
 92
       12
 66
     7
 43
1.0
 76
     1
 77
     6
 78
     2
 67
     7
 79
     5
170
     0
171
     0
290
     0
174
     0
 93
        1
 44
0.0
173
     0
291
     1
 45
0.0
1001
ACAD
1000
AcDbSavedByObjectVersion
1070
     0
  0
VISUALSTYLE
  5
172C
102
{ACAD_XDICTIONARY
360
17B1
102
}
102
{ACAD_REACTORS
330
1673
102
}
330
1673
100
AcDbVisualStyle
  2
Wireframe
 70
     5
 71
     0
 72
     2
 73
     0
 90
        0
 40
-0.6
 41
-30.0
 62
     5
 63
     7
421
 16777215
 74
     1
 91
        4
 64
     7
 65
   257
 75
     1
175
     1
 42
1.0
 92
        0
 66
   257
 43
1.0
 76
     1
 77
     6
 78
     2
 67
     7
 79
     3
170
     0
171
     0
290
     0
174
     0
 93
        1
 44
0.0
173
     0
291
     0
 45
0.0
1001
ACAD
1000
AcDbSavedByObjectVersion
1070
     0
  0
VISUALSTYLE
  5
1730
102
{ACAD_XDICTIONARY
360
17B9
102
}
102
{ACAD_REACTORS
330
1673
102
}
330
1673
100
AcDbVisualStyle
  2
X-Ray
 70
    25
 71
     2
 72
     2
 73
     1
 90
        1
 40
0.5
 41
-30.0
 62
     5
 63
     7
421
 16777215
 74
     1
 91
        0
 64
     7
 65
   257
 75
     1
175
     1
 42
1.0
 92
        8
 66
     7
 43
1.0
 76
     1
 77
     6
 78
     2
 67
     7
 79
     3
170
     0
171
     0
290
     0
174
     0
 93
       13
 44
0.0
173
     0
291
     0
 45
0.0
1001
ACAD
1000
AcDbSavedByObjectVersion
1070
     0
  0
DICTIONARYVAR
  5
16E5
102
{ACAD_REACTORS
330
16E2
102
}
330
16E2
100
DictionaryVariables
280
     0
  1
1:1
  0
DICTIONARYVAR
  5
16E4
102
{ACAD_REACTORS
330
16E2
102
}
330
16E2
100
DictionaryVariables
280
     0
  1
STANDARD
  0
DICTIONARYVAR
  5
16E3
102
{ACAD_REACTORS
330
16E2
102
}
330
16E2
100
DictionaryVariables
280
     0
  1
STANDARD
  0
DICTIONARYVAR
  5
1781
102
{ACAD_REACTORS
330
16E2
102
}
330
16E2
100
DictionaryVariables
280
     0
  1
Imperial24
  0
DICTIONARYVAR
  5
1782
102
{ACAD_REACTORS
330
16E2
102
}
330
16E2
100
DictionaryVariables
280
     0
  1
Imperial24
  0
DICTIONARYVAR
  5
16E8
102
{ACAD_REACTORS
330
16E2
102
}
330
16E2
100
DictionaryVariables
280
     0
  1
1
  0
DICTIONARYVAR
  5
16E7
102
{ACAD_REACTORS
330
16E2
102
}
330
16E2
100
DictionaryVariables
280
     0
  1
0
  0
DICTIONARYVAR
  5
1722
102
{ACAD_REACTORS
330
16E2
102
}
330
16E2
100
DictionaryVariables
280
     0
  1
1
  0
DICTIONARYVAR
  5
1723
102
{ACAD_REACTORS
330
16E2
102
}
330
16E2
100
DictionaryVariables
280
     0
  1
15
  0
DICTIONARYVAR
  5
1721
102
{ACAD_REACTORS
330
16E2
102
}
330
16E2
100
DictionaryVariables
280
     0
  1
0
  0
DICTIONARYVAR
  5
1720
102
{ACAD_REACTORS
330
16E2
102
}
330
16E2
100
DictionaryVariables
280
     0
  1
0
  0
DICTIONARYVAR
  5
1783
102
{ACAD_REACTORS
330
16E2
102
}
330
16E2
100
DictionaryVariables
280
     0
  1
1
  0
DICTIONARYVAR
  5
16E6
102
{ACAD_REACTORS
330
16E2
102
}
330
16E2
100
DictionaryVariables
280
     0
  1
127
  0
DICTIONARYVAR
  5
1784
102
{ACAD_REACTORS
330
16E2
102
}
330
16E2
100
DictionaryVariables
280
     0
  1
2
  0
DICTIONARY
  5
17C1
330
1736
100
AcDbDictionary
280
     1
281
     1
  3
ACAD_XREC_ROUNDTRIP
360
17C2
  0
DICTIONARY
  5
1664
330
1663
100
AcDbDictionary
280
     1
281
     1
  3
ACAD_XREC_ROUNDTRIP
360
1788
  3
BUMPTILE
360
1666
  3
DIFFUSETILE
360
1665
  3
OPACITYTILE
360
1669
  3
REFLECTIONTILE
360
1668
  3
REFRACTIONTILE
360
166A
  3
SPECULARTILE
360
1667
  0
DICTIONARY
  5
165C
330
165B
100
AcDbDictionary
280
     1
281
     1
  3
ACAD_XREC_ROUNDTRIP
360
1787
  3
BUMPTILE
360
165E
  3
DIFFUSETILE
360
165D
  3
OPACITYTILE
360
1661
  3
REFLECTIONTILE
360
1660
  3
REFRACTIONTILE
360
1662
  3
SPECULARTILE
360
165F
  0
DICTIONARY
  5
166C
330
166B
100
AcDbDictionary
280
     1
281
     1
  3
ACAD_XREC_ROUNDTRIP
360
1789
  3
BUMPTILE
360
166E
  3
DIFFUSETILE
360
166D
  3
OPACITYTILE
360
1671
  3
REFLECTIONTILE
360
1670
  3
REFRACTIONTILE
360
1672
  3
SPECULARTILE
360
166F
  0
DICTIONARY
  5
17BF
330
1734
100
AcDbDictionary
280
     1
281
     1
  3
ACAD_XREC_ROUNDTRIP
360
17C0
  0
DICTIONARY
  5
16AE
330
1689
100
AcDbDictionary
280
     1
281
     1
  3
ACAD_ROUNDTRIP_2008_TABLESTYLE_CELLSTYLEMAP
360
1785
  3
ACAD_XREC_ROUNDTRIP
360
17B0
  0
DICTIONARY
  5
1794
330
1679
100
AcDbDictionary
280
     1
281
     1
  3
ACAD_XREC_ROUNDTRIP
360
1795
  0
DICTIONARY
  5
1798
330
167B
100
AcDbDictionary
280
     1
281
     1
  3
ACAD_XREC_ROUNDTRIP
360
1799
  0
DICTIONARY
  5
1796
330
167A
100
AcDbDictionary
280
     1
281
     1
  3
ACAD_XREC_ROUNDTRIP
360
1797
  0
DICTIONARY
  5
1792
330
1678
100
AcDbDictionary
280
     1
281
     1
  3
ACAD_XREC_ROUNDTRIP
360
1793
  0
DICTIONARY
  5
17A0
330
167F
100
AcDbDictionary
280
     1
281
     1
  3
ACAD_XREC_ROUNDTRIP
360
17A1
  0
DICTIONARY
  5
17A8
330
1683
100
AcDbDictionary
280
     1
281
     1
  3
ACAD_XREC_ROUNDTRIP
360
17A9
  0
DICTIONARY
  5
179A
330
167C
100
AcDbDictionary
280
     1
281
     1
  3
ACAD_XREC_ROUNDTRIP
360
179B
  0
DICTIONARY
  5
179E
330
167E
100
AcDbDictionary
280
     1
281
     1
  3
ACAD_XREC_ROUNDTRIP
360
179F
  0
DICTIONARY
  5
17AE
330
1686
100
AcDbDictionary
280
     1
281
     1
  3
ACAD_XREC_ROUNDTRIP
360
17AF
  0
DICTIONARY
  5
17A6
330
1682
100
AcDbDictionary
280
     1
281
     1
  3
ACAD_XREC_ROUNDTRIP
360
17A7
  0
DICTIONARY
  5
178A
330
1674
100
AcDbDictionary
280
     1
281
     1
  3
ACAD_XREC_ROUNDTRIP
360
178B
  0
DICTIONARY
  5
178C
330
1675
100
AcDbDictionary
280
     1
281
     1
  3
ACAD_XREC_ROUNDTRIP
360
178D
  0
DICTIONARY
  5
178E
330
1676
100
AcDbDictionary
280
     1
281
     1
  3
ACAD_XREC_ROUNDTRIP
360
178F
  0
DICTIONARY
  5
1790
330
1677
100
AcDbDictionary
280
     1
281
     1
  3
ACAD_XREC_ROUNDTRIP
360
1791
  0
DICTIONARY
  5
17B3
330
172D
100
AcDbDictionary
280
     1
281
     1
  3
ACAD_XREC_ROUNDTRIP
360
17B4
  0
DICTIONARY
  5
17AA
330
1684
100
AcDbDictionary
280
     1
281
     1
  3
ACAD_XREC_ROUNDTRIP
360
17AB
  0
DICTIONARY
  5
17A4
330
1681
100
AcDbDictionary
280
     1
281
     1
  3
ACAD_XREC_ROUNDTRIP
360
17A5
  0
DICTIONARY
  5
17AC
330
1685
100
AcDbDictionary
280
     1
281
     1
  3
ACAD_XREC_ROUNDTRIP
360
17AD
  0
DICTIONARY
  5
179C
330
167D
100
AcDbDictionary
280
     1
281
     1
  3
ACAD_XREC_ROUNDTRIP
360
179D
  0
DICTIONARY
  5
17BD
330
1732
100
AcDbDictionary
280
     1
281
     1
  3
ACAD_XREC_ROUNDTRIP
360
17BE
  0
DICTIONARY
  5
17BB
330
1731
100
AcDbDictionary
280
     1
281
     1
  3
ACAD_XREC_ROUNDTRIP
360
17BC
  0
DICTIONARY
  5
17B5
330
172E
100
AcDbDictionary
280
     1
281
     1
  3
ACAD_XREC_ROUNDTRIP
360
17B6
  0
DICTIONARY
  5
17B7
330
172F
100
AcDbDictionary
280
     1
281
     1
  3
ACAD_XREC_ROUNDTRIP
360
17B8
  0
DICTIONARY
  5
17A2
330
1680
100
AcDbDictionary
280
     1
281
     1
  3
ACAD_XREC_ROUNDTRIP
360
17A3
  0
DICTIONARY
  5
17B1
330
172C
100
AcDbDictionary
280
     1
281
     1
  3
ACAD_XREC_ROUNDTRIP
360
17B2
  0
DICTIONARY
  5
17B9
330
1730
100
AcDbDictionary
280
     1
281
     1
  3
ACAD_XREC_ROUNDTRIP
360
17BA
  0
XRECORD
  5
17C2
102
{ACAD_REACTORS
330
17C1
102
}
330
17C1
100
AcDbXrecord
280
     1
102
DISPLAYNAME
  1
Imperial24
102
FLAGS
 90
        0
  0
XRECORD
  5
1788
102
{ACAD_REACTORS
330
1664
102
}
330
1664
100
AcDbXrecord
280
     1
102
MATERIAL
148
0.0
149
0.0
149
0.0
 93
        0
 94
      127
282
     0
 72
     0
 77
     0
171
     0
175
     0
179
     0
273
     0
  0
XRECORD
  5
1666
102
{ACAD_REACTORS
330
1664
102
}
330
1664
100
AcDbXrecord
280
     1
270
     1
271
     1
  0
XRECORD
  5
1665
102
{ACAD_REACTORS
330
1664
102
}
330
1664
100
AcDbXrecord
280
     1
270
     1
271
     1
  0
XRECORD
  5
1669
102
{ACAD_REACTORS
330
1664
102
}
330
1664
100
AcDbXrecord
280
     1
270
     1
271
     1
  0
XRECORD
  5
1668
102
{ACAD_REACTORS
330
1664
102
}
330
1664
100
AcDbXrecord
280
     1
270
     1
271
     1
  0
XRECORD
  5
166A
102
{ACAD_REACTORS
330
1664
102
}
330
1664
100
AcDbXrecord
280
     1
270
     1
271
     1
  0
XRECORD
  5
1667
102
{ACAD_REACTORS
330
1664
102
}
330
1664
100
AcDbXrecord
280
     1
270
     1
271
     1
  0
XRECORD
  5
1787
102
{ACAD_REACTORS
330
165C
102
}
330
165C
100
AcDbXrecord
280
     1
102
MATERIAL
148
0.0
149
0.0
149
0.0
 93
        0
 94
      127
282
     0
 72
     0
 77
     0
171
     0
175
     0
179
     0
273
     0
  0
XRECORD
  5
165E
102
{ACAD_REACTORS
330
165C
102
}
330
165C
100
AcDbXrecord
280
     1
270
     1
271
     1
  0
XRECORD
  5
165D
102
{ACAD_REACTORS
330
165C
102
}
330
165C
100
AcDbXrecord
280
     1
270
     1
271
     1
  0
XRECORD
  5
1661
102
{ACAD_REACTORS
330
165C
102
}
330
165C
100
AcDbXrecord
280
     1
270
     1
271
     1
  0
XRECORD
  5
1660
102
{ACAD_REACTORS
330
165C
102
}
330
165C
100
AcDbXrecord
280
     1
270
     1
271
     1
  0
XRECORD
  5
1662
102
{ACAD_REACTORS
330
165C
102
}
330
165C
100
AcDbXrecord
280
     1
270
     1
271
     1
  0
XRECORD
  5
165F
102
{ACAD_REACTORS
330
165C
102
}
330
165C
100
AcDbXrecord
280
     1
270
     1
271
     1
  0
XRECORD
  5
1789
102
{ACAD_REACTORS
330
166C
102
}
330
166C
100
AcDbXrecord
280
     1
102
MATERIAL
148
0.0
149
0.0
149
0.0
 93
        0
 94
      127
282
     0
 72
     0
 77
     0
171
     0
175
     0
179
     0
273
     0
  0
XRECORD
  5
166E
102
{ACAD_REACTORS
330
166C
102
}
330
166C
100
AcDbXrecord
280
     1
270
     1
271
     1
  0
XRECORD
  5
166D
102
{ACAD_REACTORS
330
166C
102
}
330
166C
100
AcDbXrecord
280
     1
270
     1
271
     1
  0
XRECORD
  5
1671
102
{ACAD_REACTORS
330
166C
102
}
330
166C
100
AcDbXrecord
280
     1
270
     1
271
     1
  0
XRECORD
  5
1670
102
{ACAD_REACTORS
330
166C
102
}
330
166C
100
AcDbXrecord
280
     1
270
     1
271
     1
  0
XRECORD
  5
1672
102
{ACAD_REACTORS
330
166C
102
}
330
166C
100
AcDbXrecord
280
     1
270
     1
271
     1
  0
XRECORD
  5
166F
102
{ACAD_REACTORS
330
166C
102
}
330
166C
100
AcDbXrecord
280
     1
270
     1
271
     1
  0
XRECORD
  5
17C0
102
{ACAD_REACTORS
330
17BF
102
}
330
17BF
100
AcDbXrecord
280
     1
102
DISPLAYNAME
  1
Imperial24
102
FLAGS
 90
        0
  0
CELLSTYLEMAP
  5
1785
102
{ACAD_REACTORS
330
16AE
102
}
330
16AE
100
AcDbCellStyleMap
 90
        3
300
CELLSTYLE
  1
TABLEFORMAT_BEGIN
 90
        5
170
     1
 91
        0
 92
    32768
 62
   257
 93
        1
300
CONTENTFORMAT
  1
CONTENTFORMAT_BEGIN
 90
        0
 91
        0
 92
      512
 93
        0
300

 40
0.0
140
1.0
 94
        5
 62
     0
340
11
144
0.25
309
CONTENTFORMAT_END
171
     0
 94
        0
309
TABLEFORMAT_END
  1
CELLSTYLE_BEGIN
 90
        1
 91
        1
300
_TITLE
309
CELLSTYLE_END
300
CELLSTYLE
  1
TABLEFORMAT_BEGIN
 90
        5
170
     1
 91
        0
 92
        0
 62
   257
 93
        1
300
CONTENTFORMAT
  1
CONTENTFORMAT_BEGIN
 90
        0
 91
        0
 92
      512
 93
        0
300

 40
0.0
140
1.0
 94
        5
 62
     0
340
11
144
0.18
309
CONTENTFORMAT_END
171
     0
 94
        0
309
TABLEFORMAT_END
  1
CELLSTYLE_BEGIN
 90
        2
 91
        1
300
_HEADER
309
CELLSTYLE_END
300
CELLSTYLE
  1
TABLEFORMAT_BEGIN
 90
        5
170
     1
 91
        0
 92
        0
 62
   257
 93
        1
300
CONTENTFORMAT
  1
CONTENTFORMAT_BEGIN
 90
        0
 91
        0
 92
      512
 93
        0
300

 40
0.0
140
1.0
 94
        2
 62
     0
340
11
144
0.18
309
CONTENTFORMAT_END
171
     0
 94
        0
309
TABLEFORMAT_END
  1
CELLSTYLE_BEGIN
 90
        3
 91
        2
300
_DATA
309
CELLSTYLE_END
  0
XRECORD
  5
17B0
102
{ACAD_REACTORS
330
16AE
102
}
330
16AE
100
AcDbXrecord
280
     1
102
ACAD_ROUNDTRIP_PRE2007_TABLESTYLE
 90
      512
 91
        0
  1

 92
      512
 93
        0
  2

 94
      512
 95
        0
  3

  0
XRECORD
  5
1795
102
{ACAD_REACTORS
330
1794
102
}
330
1794
100
AcDbXrecord
280
     1
102
RTVSPost2010Prop28
280
     1
102
RTVSPost2010PropOp28
 70
     1
102
RTVSPost2010Prop29
280
     1
102
RTVSPost2010PropOp29
 70
     1
102
RTVSPost2010Prop30
280
     0
102
RTVSPost2010PropOp30
 70
     1
102
RTVSPost2010Prop31
280
     0
102
RTVSPost2010PropOp31
 70
     1
102
RTVSPost2010Prop32
280
     0
102
RTVSPost2010PropOp32
 70
     1
102
RTVSPost2010Prop33
280
     0
102
RTVSPost2010PropOp33
 70
     1
102
RTVSPost2010Prop34
280
     0
102
RTVSPost2010PropOp34
 70
     1
102
RTVSPost2010Prop35
280
     0
102
RTVSPost2010PropOp35
 70
     1
102
RTVSPost2010Prop36
280
     0
102
RTVSPost2010PropOp36
 70
     1
102
RTVSPost2010Prop37
 90
       50
102
RTVSPost2010PropOp37
 70
     1
102
RTVSPost2010Prop38
140
0.0
102
RTVSPost2010PropOp38
 70
     1
102
RTVSPost2010Prop39
140
1.0
102
RTVSPost2010PropOp39
 70
     1
102
RTVSPost2010Prop40
 90
        0
102
RTVSPost2010PropOp40
 70
     1
102
RTVSPost2010Prop41ColorIndex
 90
       18
102
RTVSPost2010Prop41ColorRGB
 90
        0
102
RTVSPost2010PropOp41
 70
     1
102
RTVSPost2010Prop42
 90
       50
102
RTVSPost2010PropOp42
 70
     1
102
RTVSPost2010Prop43
 90
        3
102
RTVSPost2010PropOp43
 70
     1
102
RTVSPost2010Prop44ColorIndex
 90
        5
102
RTVSPost2010Prop44ColorRGB
 90
      255
102
RTVSPost2010PropOp44
 70
     1
102
RTVSPost2010Prop45
280
     0
102
RTVSPost2010PropOp45
 70
     1
102
RTVSPost2010Prop46
 90
       50
102
RTVSPost2010PropOp46
 70
     1
102
RTVSPost2010Prop47
 90
       50
102
RTVSPost2010PropOp47
 70
     1
102
RTVSPost2010Prop48
 90
       50
102
RTVSPost2010PropOp48
 70
     1
102
RTVSPost2010Prop49
280
     0
102
RTVSPost2010PropOp49
 70
     1
102
RTVSPost2010Prop50
 90
       50
102
RTVSPost2010PropOp50
 70
     1
102
RTVSPost2010Prop51ColorIndex
 90
      256
102
RTVSPost2010Prop51ColorRGB
 90
-16777216
102
RTVSPost2010PropOp51
 70
     0
102
RTVSPost2010Prop52
140
1.0
102
RTVSPost2010PropOp52
 70
     0
102
RTVSPost2010Prop53
 90
        2
102
RTVSPost2010PropOp53
 70
     1
102
RTVSPost2010Prop54
  1
strokes_ogs.tif
102
RTVSPost2010PropOp54
 70
     1
102
RTVSPost2010Prop55
280
     0
102
RTVSPost2010PropOp55
 70
     1
102
RTVSPost2010Prop56
140
1.0
102
RTVSPost2010PropOp56
 70
     1
102
RTVSPost2010Prop57
140
1.0
102
RTVSPost2010PropOp57
 70
     1
102
RTVSPropertyOp0
 70
     1
102
RTVSPropertyOp1
 70
     1
102
RTVSPropertyOp2
 70
     1
102
RTVSPropertyOp3
 70
     1
102
RTVSPropertyOp4
 70
     1
102
RTVSPropertyOp5
 70
     1
102
RTVSPropertyOp6
 70
     1
102
RTVSPropertyOp7
 70
     1
102
RTVSPropertyOp8
 70
     1
102
RTVSPropertyOp9
 70
     1
102
RTVSPropertyOp10
 70
     1
102
RTVSPropertyOp11
 70
     1
102
RTVSPropertyOp12
 70
     1
102
RTVSPropertyOp13
 70
     1
102
RTVSPropertyOp14
 70
     1
102
RTVSPropertyOp15
 70
     1
102
RTVSPropertyOp16
 70
     1
102
RTVSPropertyOp17
 70
     1
102
RTVSPropertyOp18
 70
     1
102
RTVSPropertyOp19
 70
     1
102
RTVSPropertyOp20
 70
     1
102
RTVSPropertyOp21
 70
     1
102
RTVSPropertyOp22
 70
     1
102
RTVSPropertyOp23
 70
     1
102
RTVSPropertyOp24
 70
     1
102
RTVSPropertyOp25
 70
     1
102
RTVSPropertyOp26
 70
     1
102
RTVSPropertyOp27
 70
     1
102
RTVSPropertyOp28
 70
     1
102
RTVSPropertyOp29
 70
     1
102
RTVSPropertyOp30
 70
     1
102
RTVSPropertyOp31
 70
     1
102
RTVSPropertyOp32
 70
     1
102
RTVSPropertyOp33
 70
     1
102
RTVSPropertyOp34
 70
     1
102
RTVSPropertyOp35
 70
     1
102
RTVSPropertyOp36
 70
     1
102
RTVSPropertyOp37
 70
     1
102
RTVSPropertyOp38
 70
     1
102
RTVSPropertyOp39
 70
     1
102
RTVSPropertyOp40
 70
     1
102
RTVSPropertyOp41
 70
     1
102
RTVSPropertyOp42
 70
     1
102
RTVSPropertyOp43
 70
     1
102
RTVSPropertyOp44
 70
     1
102
RTVSPropertyOp45
 70
     1
102
RTVSPropertyOp46
 70
     1
102
RTVSPropertyOp47
 70
     1
102
RTVSPropertyOp48
 70
     1
102
RTVSPropertyOp49
 70
     1
102
RTVSPropertyOp50
 70
     1
102
RTVSPropertyOp51
 70
     0
102
RTVSPropertyOp52
 70
     0
102
RTVSPropertyOp53
 70
     1
102
RTVSPropertyOp54
 70
     1
102
RTVSPropertyOp55
 70
     1
102
RTVSPropertyOp56
 70
     1
102
RTVSPropertyOp57
 70
     1
102
RTVSPropertyOp58
 70
     1
102
RTVSPropertyOp59
 70
     1
102
RTVSPropertyOp60
 70
     1
102
RTVSPropertyOp61
 70
     1
102
RTVSPropertyOp62
 70
     1
  0
XRECORD
  5
1799
102
{ACAD_REACTORS
330
1798
102
}
330
1798
100
AcDbXrecord
280
     1
102
RTVSPost2010Prop28
280
     0
102
RTVSPost2010PropOp28
 70
     1
102
RTVSPost2010Prop29
280
     1
102
RTVSPost2010PropOp29
 70
     1
102
RTVSPost2010Prop30
280
     1
102
RTVSPost2010PropOp30
 70
     1
102
RTVSPost2010Prop31
280
     0
102
RTVSPost2010PropOp31
 70
     1
102
RTVSPost2010Prop32
280
     0
102
RTVSPost2010PropOp32
 70
     1
102
RTVSPost2010Prop33
280
     0
102
RTVSPost2010PropOp33
 70
     1
102
RTVSPost2010Prop34
280
     0
102
RTVSPost2010PropOp34
 70
     1
102
RTVSPost2010Prop35
280
     0
102
RTVSPost2010PropOp35
 70
     1
102
RTVSPost2010Prop36
280
     0
102
RTVSPost2010PropOp36
 70
     1
102
RTVSPost2010Prop37
 90
       50
102
RTVSPost2010PropOp37
 70
     1
102
RTVSPost2010Prop38
140
0.0
102
RTVSPost2010PropOp38
 70
     1
102
RTVSPost2010Prop39
140
1.0
102
RTVSPost2010PropOp39
 70
     1
102
RTVSPost2010Prop40
 90
        0
102
RTVSPost2010PropOp40
 70
     1
102
RTVSPost2010Prop41ColorIndex
 90
       18
102
RTVSPost2010Prop41ColorRGB
 90
        0
102
RTVSPost2010PropOp41
 70
     1
102
RTVSPost2010Prop42
 90
       50
102
RTVSPost2010PropOp42
 70
     1
102
RTVSPost2010Prop43
 90
        3
102
RTVSPost2010PropOp43
 70
     1
102
RTVSPost2010Prop44ColorIndex
 90
        5
102
RTVSPost2010Prop44ColorRGB
 90
      255
102
RTVSPost2010PropOp44
 70
     1
102
RTVSPost2010Prop45
280
     0
102
RTVSPost2010PropOp45
 70
     1
102
RTVSPost2010Prop46
 90
       50
102
RTVSPost2010PropOp46
 70
     1
102
RTVSPost2010Prop47
 90
       50
102
RTVSPost2010PropOp47
 70
     1
102
RTVSPost2010Prop48
 90
       50
102
RTVSPost2010PropOp48
 70
     1
102
RTVSPost2010Prop49
280
     0
102
RTVSPost2010PropOp49
 70
     1
102
RTVSPost2010Prop50
 90
       50
102
RTVSPost2010PropOp50
 70
     1
102
RTVSPost2010Prop51ColorIndex
 90
      256
102
RTVSPost2010Prop51ColorRGB
 90
-16777216
102
RTVSPost2010PropOp51
 70
     0
102
RTVSPost2010Prop52
140
1.0
102
RTVSPost2010PropOp52
 70
     0
102
RTVSPost2010Prop53
 90
        2
102
RTVSPost2010PropOp53
 70
     1
102
RTVSPost2010Prop54
  1
strokes_ogs.tif
102
RTVSPost2010PropOp54
 70
     1
102
RTVSPost2010Prop55
280
     0
102
RTVSPost2010PropOp55
 70
     1
102
RTVSPost2010Prop56
140
1.0
102
RTVSPost2010PropOp56
 70
     1
102
RTVSPost2010Prop57
140
1.0
102
RTVSPost2010PropOp57
 70
     1
102
RTVSPropertyOp0
 70
     1
102
RTVSPropertyOp1
 70
     1
102
RTVSPropertyOp2
 70
     1
102
RTVSPropertyOp3
 70
     1
102
RTVSPropertyOp4
 70
     1
102
RTVSPropertyOp5
 70
     1
102
RTVSPropertyOp6
 70
     1
102
RTVSPropertyOp7
 70
     1
102
RTVSPropertyOp8
 70
     1
102
RTVSPropertyOp9
 70
     1
102
RTVSPropertyOp10
 70
     1
102
RTVSPropertyOp11
 70
     1
102
RTVSPropertyOp12
 70
     1
102
RTVSPropertyOp13
 70
     1
102
RTVSPropertyOp14
 70
     1
102
RTVSPropertyOp15
 70
     1
102
RTVSPropertyOp16
 70
     1
102
RTVSPropertyOp17
 70
     1
102
RTVSPropertyOp18
 70
     1
102
RTVSPropertyOp19
 70
     1
102
RTVSPropertyOp20
 70
     1
102
RTVSPropertyOp21
 70
     1
102
RTVSPropertyOp22
 70
     1
102
RTVSPropertyOp23
 70
     1
102
RTVSPropertyOp24
 70
     1
102
RTVSPropertyOp25
 70
     1
102
RTVSPropertyOp26
 70
     1
102
RTVSPropertyOp27
 70
     1
102
RTVSPropertyOp28
 70
     1
102
RTVSPropertyOp29
 70
     1
102
RTVSPropertyOp30
 70
     1
102
RTVSPropertyOp31
 70
     1
102
RTVSPropertyOp32
 70
     1
102
RTVSPropertyOp33
 70
     1
102
RTVSPropertyOp34
 70
     1
102
RTVSPropertyOp35
 70
     1
102
RTVSPropertyOp36
 70
     1
102
RTVSPropertyOp37
 70
     1
102
RTVSPropertyOp38
 70
     1
102
RTVSPropertyOp39
 70
     1
102
RTVSPropertyOp40
 70
     1
102
RTVSPropertyOp41
 70
     1
102
RTVSPropertyOp42
 70
     1
102
RTVSPropertyOp43
 70
     1
102
RTVSPropertyOp44
 70
     1
102
RTVSPropertyOp45
 70
     1
102
RTVSPropertyOp46
 70
     1
102
RTVSPropertyOp47
 70
     1
102
RTVSPropertyOp48
 70
     1
102
RTVSPropertyOp49
 70
     1
102
RTVSPropertyOp50
 70
     1
102
RTVSPropertyOp51
 70
     0
102
RTVSPropertyOp52
 70
     0
102
RTVSPropertyOp53
 70
     1
102
RTVSPropertyOp54
 70
     1
102
RTVSPropertyOp55
 70
     1
102
RTVSPropertyOp56
 70
     1
102
RTVSPropertyOp57
 70
     1
102
RTVSPropertyOp58
 70
     1
102
RTVSPropertyOp59
 70
     1
102
RTVSPropertyOp60
 70
     1
102
RTVSPropertyOp61
 70
     1
102
RTVSPropertyOp62
 70
     1
  0
XRECORD
  5
1797
102
{ACAD_REACTORS
330
1796
102
}
330
1796
100
AcDbXrecord
280
     1
102
RTVSPost2010Prop28
280
     0
102
RTVSPost2010PropOp28
 70
     1
102
RTVSPost2010Prop29
280
     1
102
RTVSPost2010PropOp29
 70
     1
102
RTVSPost2010Prop30
280
     1
102
RTVSPost2010PropOp30
 70
     1
102
RTVSPost2010Prop31
280
     0
102
RTVSPost2010PropOp31
 70
     1
102
RTVSPost2010Prop32
280
     0
102
RTVSPost2010PropOp32
 70
     1
102
RTVSPost2010Prop33
280
     0
102
RTVSPost2010PropOp33
 70
     1
102
RTVSPost2010Prop34
280
     0
102
RTVSPost2010PropOp34
 70
     1
102
RTVSPost2010Prop35
280
     0
102
RTVSPost2010PropOp35
 70
     1
102
RTVSPost2010Prop36
280
     0
102
RTVSPost2010PropOp36
 70
     1
102
RTVSPost2010Prop37
 90
       50
102
RTVSPost2010PropOp37
 70
     1
102
RTVSPost2010Prop38
140
0.0
102
RTVSPost2010PropOp38
 70
     1
102
RTVSPost2010Prop39
140
1.0
102
RTVSPost2010PropOp39
 70
     1
102
RTVSPost2010Prop40
 90
        0
102
RTVSPost2010PropOp40
 70
     1
102
RTVSPost2010Prop41ColorIndex
 90
       18
102
RTVSPost2010Prop41ColorRGB
 90
        0
102
RTVSPost2010PropOp41
 70
     1
102
RTVSPost2010Prop42
 90
       50
102
RTVSPost2010PropOp42
 70
     1
102
RTVSPost2010Prop43
 90
        3
102
RTVSPost2010PropOp43
 70
     1
102
RTVSPost2010Prop44ColorIndex
 90
        5
102
RTVSPost2010Prop44ColorRGB
 90
      255
102
RTVSPost2010PropOp44
 70
     1
102
RTVSPost2010Prop45
280
     0
102
RTVSPost2010PropOp45
 70
     1
102
RTVSPost2010Prop46
 90
       50
102
RTVSPost2010PropOp46
 70
     1
102
RTVSPost2010Prop47
 90
       50
102
RTVSPost2010PropOp47
 70
     1
102
RTVSPost2010Prop48
 90
       50
102
RTVSPost2010PropOp48
 70
     1
102
RTVSPost2010Prop49
280
     0
102
RTVSPost2010PropOp49
 70
     1
102
RTVSPost2010Prop50
 90
       50
102
RTVSPost2010PropOp50
 70
     1
102
RTVSPost2010Prop51ColorIndex
 90
      256
102
RTVSPost2010Prop51ColorRGB
 90
-16777216
102
RTVSPost2010PropOp51
 70
     0
102
RTVSPost2010Prop52
140
1.0
102
RTVSPost2010PropOp52
 70
     0
102
RTVSPost2010Prop53
 90
        2
102
RTVSPost2010PropOp53
 70
     1
102
RTVSPost2010Prop54
  1
strokes_ogs.tif
102
RTVSPost2010PropOp54
 70
     1
102
RTVSPost2010Prop55
280
     0
102
RTVSPost2010PropOp55
 70
     1
102
RTVSPost2010Prop56
140
1.0
102
RTVSPost2010PropOp56
 70
     1
102
RTVSPost2010Prop57
140
1.0
102
RTVSPost2010PropOp57
 70
     1
102
RTVSPropertyOp0
 70
     1
102
RTVSPropertyOp1
 70
     1
102
RTVSPropertyOp2
 70
     1
102
RTVSPropertyOp3
 70
     1
102
RTVSPropertyOp4
 70
     1
102
RTVSPropertyOp5
 70
     1
102
RTVSPropertyOp6
 70
     1
102
RTVSPropertyOp7
 70
     1
102
RTVSPropertyOp8
 70
     1
102
RTVSPropertyOp9
 70
     1
102
RTVSPropertyOp10
 70
     1
102
RTVSPropertyOp11
 70
     1
102
RTVSPropertyOp12
 70
     1
102
RTVSPropertyOp13
 70
     1
102
RTVSPropertyOp14
 70
     1
102
RTVSPropertyOp15
 70
     1
102
RTVSPropertyOp16
 70
     1
102
RTVSPropertyOp17
 70
     1
102
RTVSPropertyOp18
 70
     1
102
RTVSPropertyOp19
 70
     1
102
RTVSPropertyOp20
 70
     1
102
RTVSPropertyOp21
 70
     1
102
RTVSPropertyOp22
 70
     1
102
RTVSPropertyOp23
 70
     1
102
RTVSPropertyOp24
 70
     1
102
RTVSPropertyOp25
 70
     1
102
RTVSPropertyOp26
 70
     1
102
RTVSPropertyOp27
 70
     1
102
RTVSPropertyOp28
 70
     1
102
RTVSPropertyOp29
 70
     1
102
RTVSPropertyOp30
 70
     1
102
RTVSPropertyOp31
 70
     1
102
RTVSPropertyOp32
 70
     1
102
RTVSPropertyOp33
 70
     1
102
RTVSPropertyOp34
 70
     1
102
RTVSPropertyOp35
 70
     1
102
RTVSPropertyOp36
 70
     1
102
RTVSPropertyOp37
 70
     1
102
RTVSPropertyOp38
 70
     1
102
RTVSPropertyOp39
 70
     1
102
RTVSPropertyOp40
 70
     1
102
RTVSPropertyOp41
 70
     1
102
RTVSPropertyOp42
 70
     1
102
RTVSPropertyOp43
 70
     1
102
RTVSPropertyOp44
 70
     1
102
RTVSPropertyOp45
 70
     1
102
RTVSPropertyOp46
 70
     1
102
RTVSPropertyOp47
 70
     1
102
RTVSPropertyOp48
 70
     1
102
RTVSPropertyOp49
 70
     1
102
RTVSPropertyOp50
 70
     1
102
RTVSPropertyOp51
 70
     0
102
RTVSPropertyOp52
 70
     0
102
RTVSPropertyOp53
 70
     1
102
RTVSPropertyOp54
 70
     1
102
RTVSPropertyOp55
 70
     1
102
RTVSPropertyOp56
 70
     1
102
RTVSPropertyOp57
 70
     1
102
RTVSPropertyOp58
 70
     1
102
RTVSPropertyOp59
 70
     1
102
RTVSPropertyOp60
 70
     1
102
RTVSPropertyOp61
 70
     1
102
RTVSPropertyOp62
 70
     1
  0
XRECORD
  5
1793
102
{ACAD_REACTORS
330
1792
102
}
330
1792
100
AcDbXrecord
280
     1
102
RTVSPost2010Prop28
280
     0
102
RTVSPost2010PropOp28
 70
     1
102
RTVSPost2010Prop29
280
     1
102
RTVSPost2010PropOp29
 70
     1
102
RTVSPost2010Prop30
280
     1
102
RTVSPost2010PropOp30
 70
     1
102
RTVSPost2010Prop31
280
     0
102
RTVSPost2010PropOp31
 70
     1
102
RTVSPost2010Prop32
280
     0
102
RTVSPost2010PropOp32
 70
     1
102
RTVSPost2010Prop33
280
     0
102
RTVSPost2010PropOp33
 70
     1
102
RTVSPost2010Prop34
280
     0
102
RTVSPost2010PropOp34
 70
     1
102
RTVSPost2010Prop35
280
     0
102
RTVSPost2010PropOp35
 70
     1
102
RTVSPost2010Prop36
280
     0
102
RTVSPost2010PropOp36
 70
     1
102
RTVSPost2010Prop37
 90
       50
102
RTVSPost2010PropOp37
 70
     1
102
RTVSPost2010Prop38
140
0.0
102
RTVSPost2010PropOp38
 70
     1
102
RTVSPost2010Prop39
140
1.0
102
RTVSPost2010PropOp39
 70
     1
102
RTVSPost2010Prop40
 90
        0
102
RTVSPost2010PropOp40
 70
     1
102
RTVSPost2010Prop41ColorIndex
 90
       18
102
RTVSPost2010Prop41ColorRGB
 90
        0
102
RTVSPost2010PropOp41
 70
     1
102
RTVSPost2010Prop42
 90
       50
102
RTVSPost2010PropOp42
 70
     1
102
RTVSPost2010Prop43
 90
        3
102
RTVSPost2010PropOp43
 70
     1
102
RTVSPost2010Prop44ColorIndex
 90
        5
102
RTVSPost2010Prop44ColorRGB
 90
      255
102
RTVSPost2010PropOp44
 70
     1
102
RTVSPost2010Prop45
280
     0
102
RTVSPost2010PropOp45
 70
     1
102
RTVSPost2010Prop46
 90
       50
102
RTVSPost2010PropOp46
 70
     1
102
RTVSPost2010Prop47
 90
       50
102
RTVSPost2010PropOp47
 70
     1
102
RTVSPost2010Prop48
 90
       50
102
RTVSPost2010PropOp48
 70
     1
102
RTVSPost2010Prop49
280
     0
102
RTVSPost2010PropOp49
 70
     1
102
RTVSPost2010Prop50
 90
       50
102
RTVSPost2010PropOp50
 70
     1
102
RTVSPost2010Prop51ColorIndex
 90
      256
102
RTVSPost2010Prop51ColorRGB
 90
-16777216
102
RTVSPost2010PropOp51
 70
     0
102
RTVSPost2010Prop52
140
1.0
102
RTVSPost2010PropOp52
 70
     0
102
RTVSPost2010Prop53
 90
        2
102
RTVSPost2010PropOp53
 70
     1
102
RTVSPost2010Prop54
  1
strokes_ogs.tif
102
RTVSPost2010PropOp54
 70
     1
102
RTVSPost2010Prop55
280
     0
102
RTVSPost2010PropOp55
 70
     1
102
RTVSPost2010Prop56
140
1.0
102
RTVSPost2010PropOp56
 70
     1
102
RTVSPost2010Prop57
140
1.0
102
RTVSPost2010PropOp57
 70
     1
102
RTVSPropertyOp0
 70
     1
102
RTVSPropertyOp1
 70
     1
102
RTVSPropertyOp2
 70
     1
102
RTVSPropertyOp3
 70
     1
102
RTVSPropertyOp4
 70
     1
102
RTVSPropertyOp5
 70
     1
102
RTVSPropertyOp6
 70
     1
102
RTVSPropertyOp7
 70
     1
102
RTVSPropertyOp8
 70
     1
102
RTVSPropertyOp9
 70
     1
102
RTVSPropertyOp10
 70
     1
102
RTVSPropertyOp11
 70
     1
102
RTVSPropertyOp12
 70
     1
102
RTVSPropertyOp13
 70
     1
102
RTVSPropertyOp14
 70
     1
102
RTVSPropertyOp15
 70
     1
102
RTVSPropertyOp16
 70
     1
102
RTVSPropertyOp17
 70
     1
102
RTVSPropertyOp18
 70
     1
102
RTVSPropertyOp19
 70
     1
102
RTVSPropertyOp20
 70
     1
102
RTVSPropertyOp21
 70
     1
102
RTVSPropertyOp22
 70
     1
102
RTVSPropertyOp23
 70
     1
102
RTVSPropertyOp24
 70
     1
102
RTVSPropertyOp25
 70
     1
102
RTVSPropertyOp26
 70
     1
102
RTVSPropertyOp27
 70
     1
102
RTVSPropertyOp28
 70
     1
102
RTVSPropertyOp29
 70
     1
102
RTVSPropertyOp30
 70
     1
102
RTVSPropertyOp31
 70
     1
102
RTVSPropertyOp32
 70
     1
102
RTVSPropertyOp33
 70
     1
102
RTVSPropertyOp34
 70
     1
102
RTVSPropertyOp35
 70
     1
102
RTVSPropertyOp36
 70
     1
102
RTVSPropertyOp37
 70
     1
102
RTVSPropertyOp38
 70
     1
102
RTVSPropertyOp39
 70
     1
102
RTVSPropertyOp40
 70
     1
102
RTVSPropertyOp41
 70
     1
102
RTVSPropertyOp42
 70
     1
102
RTVSPropertyOp43
 70
     1
102
RTVSPropertyOp44
 70
     1
102
RTVSPropertyOp45
 70
     1
102
RTVSPropertyOp46
 70
     1
102
RTVSPropertyOp47
 70
     1
102
RTVSPropertyOp48
 70
     1
102
RTVSPropertyOp49
 70
     1
102
RTVSPropertyOp50
 70
     1
102
RTVSPropertyOp51
 70
     0
102
RTVSPropertyOp52
 70
     0
102
RTVSPropertyOp53
 70
     1
102
RTVSPropertyOp54
 70
     1
102
RTVSPropertyOp55
 70
     1
102
RTVSPropertyOp56
 70
     1
102
RTVSPropertyOp57
 70
     1
102
RTVSPropertyOp58
 70
     1
102
RTVSPropertyOp59
 70
     1
102
RTVSPropertyOp60
 70
     1
102
RTVSPropertyOp61
 70
     1
102
RTVSPropertyOp62
 70
     1
  0
XRECORD
  5
17A1
102
{ACAD_REACTORS
330
17A0
102
}
330
17A0
100
AcDbXrecord
280
     1
102
RTVSPost2010Prop28
280
     0
102
RTVSPost2010PropOp28
 70
     1
102
RTVSPost2010Prop29
280
     1
102
RTVSPost2010PropOp29
 70
     1
102
RTVSPost2010Prop30
280
     1
102
RTVSPost2010PropOp30
 70
     1
102
RTVSPost2010Prop31
280
     0
102
RTVSPost2010PropOp31
 70
     1
102
RTVSPost2010Prop32
280
     0
102
RTVSPost2010PropOp32
 70
     1
102
RTVSPost2010Prop33
280
     0
102
RTVSPost2010PropOp33
 70
     1
102
RTVSPost2010Prop34
280
     0
102
RTVSPost2010PropOp34
 70
     1
102
RTVSPost2010Prop35
280
     0
102
RTVSPost2010PropOp35
 70
     1
102
RTVSPost2010Prop36
280
     0
102
RTVSPost2010PropOp36
 70
     1
102
RTVSPost2010Prop37
 90
       50
102
RTVSPost2010PropOp37
 70
     1
102
RTVSPost2010Prop38
140
0.0
102
RTVSPost2010PropOp38
 70
     1
102
RTVSPost2010Prop39
140
1.0
102
RTVSPost2010PropOp39
 70
     1
102
RTVSPost2010Prop40
 90
        0
102
RTVSPost2010PropOp40
 70
     1
102
RTVSPost2010Prop41ColorIndex
 90
       18
102
RTVSPost2010Prop41ColorRGB
 90
        0
102
RTVSPost2010PropOp41
 70
     1
102
RTVSPost2010Prop42
 90
       50
102
RTVSPost2010PropOp42
 70
     1
102
RTVSPost2010Prop43
 90
        3
102
RTVSPost2010PropOp43
 70
     1
102
RTVSPost2010Prop44ColorIndex
 90
        5
102
RTVSPost2010Prop44ColorRGB
 90
      255
102
RTVSPost2010PropOp44
 70
     1
102
RTVSPost2010Prop45
280
     0
102
RTVSPost2010PropOp45
 70
     1
102
RTVSPost2010Prop46
 90
       50
102
RTVSPost2010PropOp46
 70
     1
102
RTVSPost2010Prop47
 90
       50
102
RTVSPost2010PropOp47
 70
     1
102
RTVSPost2010Prop48
 90
       50
102
RTVSPost2010PropOp48
 70
     1
102
RTVSPost2010Prop49
280
     0
102
RTVSPost2010PropOp49
 70
     1
102
RTVSPost2010Prop50
 90
       50
102
RTVSPost2010PropOp50
 70
     1
102
RTVSPost2010Prop51ColorIndex
 90
      256
102
RTVSPost2010Prop51ColorRGB
 90
-16777216
102
RTVSPost2010PropOp51
 70
     0
102
RTVSPost2010Prop52
140
1.0
102
RTVSPost2010PropOp52
 70
     0
102
RTVSPost2010Prop53
 90
        2
102
RTVSPost2010PropOp53
 70
     1
102
RTVSPost2010Prop54
  1
strokes_ogs.tif
102
RTVSPost2010PropOp54
 70
     1
102
RTVSPost2010Prop55
280
     0
102
RTVSPost2010PropOp55
 70
     1
102
RTVSPost2010Prop56
140
1.0
102
RTVSPost2010PropOp56
 70
     1
102
RTVSPost2010Prop57
140
1.0
102
RTVSPost2010PropOp57
 70
     1
102
RTVSPropertyOp0
 70
     1
102
RTVSPropertyOp1
 70
     1
102
RTVSPropertyOp2
 70
     1
102
RTVSPropertyOp3
 70
     1
102
RTVSPropertyOp4
 70
     1
102
RTVSPropertyOp5
 70
     1
102
RTVSPropertyOp6
 70
     1
102
RTVSPropertyOp7
 70
     1
102
RTVSPropertyOp8
 70
     1
102
RTVSPropertyOp9
 70
     1
102
RTVSPropertyOp10
 70
     1
102
RTVSPropertyOp11
 70
     1
102
RTVSPropertyOp12
 70
     1
102
RTVSPropertyOp13
 70
     1
102
RTVSPropertyOp14
 70
     1
102
RTVSPropertyOp15
 70
     1
102
RTVSPropertyOp16
 70
     1
102
RTVSPropertyOp17
 70
     1
102
RTVSPropertyOp18
 70
     1
102
RTVSPropertyOp19
 70
     1
102
RTVSPropertyOp20
 70
     1
102
RTVSPropertyOp21
 70
     1
102
RTVSPropertyOp22
 70
     1
102
RTVSPropertyOp23
 70
     1
102
RTVSPropertyOp24
 70
     1
102
RTVSPropertyOp25
 70
     1
102
RTVSPropertyOp26
 70
     1
102
RTVSPropertyOp27
 70
     1
102
RTVSPropertyOp28
 70
     1
102
RTVSPropertyOp29
 70
     1
102
RTVSPropertyOp30
 70
     1
102
RTVSPropertyOp31
 70
     1
102
RTVSPropertyOp32
 70
     1
102
RTVSPropertyOp33
 70
     1
102
RTVSPropertyOp34
 70
     1
102
RTVSPropertyOp35
 70
     1
102
RTVSPropertyOp36
 70
     1
102
RTVSPropertyOp37
 70
     1
102
RTVSPropertyOp38
 70
     1
102
RTVSPropertyOp39
 70
     1
102
RTVSPropertyOp40
 70
     1
102
RTVSPropertyOp41
 70
     1
102
RTVSPropertyOp42
 70
     1
102
RTVSPropertyOp43
 70
     1
102
RTVSPropertyOp44
 70
     1
102
RTVSPropertyOp45
 70
     1
102
RTVSPropertyOp46
 70
     1
102
RTVSPropertyOp47
 70
     1
102
RTVSPropertyOp48
 70
     1
102
RTVSPropertyOp49
 70
     1
102
RTVSPropertyOp50
 70
     1
102
RTVSPropertyOp51
 70
     0
102
RTVSPropertyOp52
 70
     0
102
RTVSPropertyOp53
 70
     1
102
RTVSPropertyOp54
 70
     1
102
RTVSPropertyOp55
 70
     1
102
RTVSPropertyOp56
 70
     1
102
RTVSPropertyOp57
 70
     1
102
RTVSPropertyOp58
 70
     1
102
RTVSPropertyOp59
 70
     1
102
RTVSPropertyOp60
 70
     1
102
RTVSPropertyOp61
 70
     1
102
RTVSPropertyOp62
 70
     1
  0
XRECORD
  5
17A9
102
{ACAD_REACTORS
330
17A8
102
}
330
17A8
100
AcDbXrecord
280
     1
102
RTVSPost2010Prop28
280
     0
102
RTVSPost2010PropOp28
 70
     1
102
RTVSPost2010Prop29
280
     1
102
RTVSPost2010PropOp29
 70
     1
102
RTVSPost2010Prop30
280
     1
102
RTVSPost2010PropOp30
 70
     1
102
RTVSPost2010Prop31
280
     0
102
RTVSPost2010PropOp31
 70
     1
102
RTVSPost2010Prop32
280
     0
102
RTVSPost2010PropOp32
 70
     1
102
RTVSPost2010Prop33
280
     0
102
RTVSPost2010PropOp33
 70
     1
102
RTVSPost2010Prop34
280
     0
102
RTVSPost2010PropOp34
 70
     1
102
RTVSPost2010Prop35
280
     0
102
RTVSPost2010PropOp35
 70
     1
102
RTVSPost2010Prop36
280
     0
102
RTVSPost2010PropOp36
 70
     1
102
RTVSPost2010Prop37
 90
       50
102
RTVSPost2010PropOp37
 70
     1
102
RTVSPost2010Prop38
140
0.0
102
RTVSPost2010PropOp38
 70
     1
102
RTVSPost2010Prop39
140
1.0
102
RTVSPost2010PropOp39
 70
     1
102
RTVSPost2010Prop40
 90
        0
102
RTVSPost2010PropOp40
 70
     1
102
RTVSPost2010Prop41ColorIndex
 90
       18
102
RTVSPost2010Prop41ColorRGB
 90
        0
102
RTVSPost2010PropOp41
 70
     1
102
RTVSPost2010Prop42
 90
       50
102
RTVSPost2010PropOp42
 70
     1
102
RTVSPost2010Prop43
 90
        3
102
RTVSPost2010PropOp43
 70
     1
102
RTVSPost2010Prop44ColorIndex
 90
        5
102
RTVSPost2010Prop44ColorRGB
 90
      255
102
RTVSPost2010PropOp44
 70
     1
102
RTVSPost2010Prop45
280
     0
102
RTVSPost2010PropOp45
 70
     1
102
RTVSPost2010Prop46
 90
       50
102
RTVSPost2010PropOp46
 70
     1
102
RTVSPost2010Prop47
 90
       50
102
RTVSPost2010PropOp47
 70
     1
102
RTVSPost2010Prop48
 90
       50
102
RTVSPost2010PropOp48
 70
     1
102
RTVSPost2010Prop49
280
     0
102
RTVSPost2010PropOp49
 70
     1
102
RTVSPost2010Prop50
 90
       50
102
RTVSPost2010PropOp50
 70
     1
102
RTVSPost2010Prop51ColorIndex
 90
      256
102
RTVSPost2010Prop51ColorRGB
 90
-16777216
102
RTVSPost2010PropOp51
 70
     0
102
RTVSPost2010Prop52
140
1.0
102
RTVSPost2010PropOp52
 70
     0
102
RTVSPost2010Prop53
 90
        2
102
RTVSPost2010PropOp53
 70
     1
102
RTVSPost2010Prop54
  1
strokes_ogs.tif
102
RTVSPost2010PropOp54
 70
     1
102
RTVSPost2010Prop55
280
     0
102
RTVSPost2010PropOp55
 70
     1
102
RTVSPost2010Prop56
140
1.0
102
RTVSPost2010PropOp56
 70
     1
102
RTVSPost2010Prop57
140
1.0
102
RTVSPost2010PropOp57
 70
     1
102
RTVSPropertyOp0
 70
     1
102
RTVSPropertyOp1
 70
     1
102
RTVSPropertyOp2
 70
     1
102
RTVSPropertyOp3
 70
     1
102
RTVSPropertyOp4
 70
     1
102
RTVSPropertyOp5
 70
     1
102
RTVSPropertyOp6
 70
     1
102
RTVSPropertyOp7
 70
     1
102
RTVSPropertyOp8
 70
     1
102
RTVSPropertyOp9
 70
     1
102
RTVSPropertyOp10
 70
     1
102
RTVSPropertyOp11
 70
     1
102
RTVSPropertyOp12
 70
     1
102
RTVSPropertyOp13
 70
     1
102
RTVSPropertyOp14
 70
     1
102
RTVSPropertyOp15
 70
     1
102
RTVSPropertyOp16
 70
     1
102
RTVSPropertyOp17
 70
     1
102
RTVSPropertyOp18
 70
     1
102
RTVSPropertyOp19
 70
     1
102
RTVSPropertyOp20
 70
     1
102
RTVSPropertyOp21
 70
     1
102
RTVSPropertyOp22
 70
     1
102
RTVSPropertyOp23
 70
     1
102
RTVSPropertyOp24
 70
     1
102
RTVSPropertyOp25
 70
     1
102
RTVSPropertyOp26
 70
     1
102
RTVSPropertyOp27
 70
     1
102
RTVSPropertyOp28
 70
     1
102
RTVSPropertyOp29
 70
     1
102
RTVSPropertyOp30
 70
     1
102
RTVSPropertyOp31
 70
     1
102
RTVSPropertyOp32
 70
     1
102
RTVSPropertyOp33
 70
     1
102
RTVSPropertyOp34
 70
     1
102
RTVSPropertyOp35
 70
     1
102
RTVSPropertyOp36
 70
     1
102
RTVSPropertyOp37
 70
     1
102
RTVSPropertyOp38
 70
     1
102
RTVSPropertyOp39
 70
     1
102
RTVSPropertyOp40
 70
     1
102
RTVSPropertyOp41
 70
     1
102
RTVSPropertyOp42
 70
     1
102
RTVSPropertyOp43
 70
     1
102
RTVSPropertyOp44
 70
     1
102
RTVSPropertyOp45
 70
     1
102
RTVSPropertyOp46
 70
     1
102
RTVSPropertyOp47
 70
     1
102
RTVSPropertyOp48
 70
     1
102
RTVSPropertyOp49
 70
     1
102
RTVSPropertyOp50
 70
     1
102
RTVSPropertyOp51
 70
     0
102
RTVSPropertyOp52
 70
     0
102
RTVSPropertyOp53
 70
     1
102
RTVSPropertyOp54
 70
     1
102
RTVSPropertyOp55
 70
     1
102
RTVSPropertyOp56
 70
     1
102
RTVSPropertyOp57
 70
     1
102
RTVSPropertyOp58
 70
     1
102
RTVSPropertyOp59
 70
     1
102
RTVSPropertyOp60
 70
     1
102
RTVSPropertyOp61
 70
     1
102
RTVSPropertyOp62
 70
     1
  0
XRECORD
  5
179B
102
{ACAD_REACTORS
330
179A
102
}
330
179A
100
AcDbXrecord
280
     1
102
RTVSPost2010Prop28
280
     0
102
RTVSPost2010PropOp28
 70
     1
102
RTVSPost2010Prop29
280
     1
102
RTVSPost2010PropOp29
 70
     1
102
RTVSPost2010Prop30
280
     1
102
RTVSPost2010PropOp30
 70
     1
102
RTVSPost2010Prop31
280
     0
102
RTVSPost2010PropOp31
 70
     1
102
RTVSPost2010Prop32
280
     0
102
RTVSPost2010PropOp32
 70
     1
102
RTVSPost2010Prop33
280
     0
102
RTVSPost2010PropOp33
 70
     1
102
RTVSPost2010Prop34
280
     0
102
RTVSPost2010PropOp34
 70
     1
102
RTVSPost2010Prop35
280
     0
102
RTVSPost2010PropOp35
 70
     1
102
RTVSPost2010Prop36
280
     0
102
RTVSPost2010PropOp36
 70
     1
102
RTVSPost2010Prop37
 90
       50
102
RTVSPost2010PropOp37
 70
     1
102
RTVSPost2010Prop38
140
0.0
102
RTVSPost2010PropOp38
 70
     1
102
RTVSPost2010Prop39
140
1.0
102
RTVSPost2010PropOp39
 70
     1
102
RTVSPost2010Prop40
 90
        0
102
RTVSPost2010PropOp40
 70
     1
102
RTVSPost2010Prop41ColorIndex
 90
       18
102
RTVSPost2010Prop41ColorRGB
 90
        0
102
RTVSPost2010PropOp41
 70
     1
102
RTVSPost2010Prop42
 90
       50
102
RTVSPost2010PropOp42
 70
     1
102
RTVSPost2010Prop43
 90
        3
102
RTVSPost2010PropOp43
 70
     1
102
RTVSPost2010Prop44ColorIndex
 90
        5
102
RTVSPost2010Prop44ColorRGB
 90
      255
102
RTVSPost2010PropOp44
 70
     1
102
RTVSPost2010Prop45
280
     0
102
RTVSPost2010PropOp45
 70
     1
102
RTVSPost2010Prop46
 90
       50
102
RTVSPost2010PropOp46
 70
     1
102
RTVSPost2010Prop47
 90
       50
102
RTVSPost2010PropOp47
 70
     1
102
RTVSPost2010Prop48
 90
       50
102
RTVSPost2010PropOp48
 70
     1
102
RTVSPost2010Prop49
280
     0
102
RTVSPost2010PropOp49
 70
     1
102
RTVSPost2010Prop50
 90
       50
102
RTVSPost2010PropOp50
 70
     1
102
RTVSPost2010Prop51ColorIndex
 90
      256
102
RTVSPost2010Prop51ColorRGB
 90
-16777216
102
RTVSPost2010PropOp51
 70
     0
102
RTVSPost2010Prop52
140
1.0
102
RTVSPost2010PropOp52
 70
     0
102
RTVSPost2010Prop53
 90
        2
102
RTVSPost2010PropOp53
 70
     1
102
RTVSPost2010Prop54
  1
strokes_ogs.tif
102
RTVSPost2010PropOp54
 70
     1
102
RTVSPost2010Prop55
280
     0
102
RTVSPost2010PropOp55
 70
     1
102
RTVSPost2010Prop56
140
1.0
102
RTVSPost2010PropOp56
 70
     1
102
RTVSPost2010Prop57
140
1.0
102
RTVSPost2010PropOp57
 70
     1
102
RTVSPropertyOp0
 70
     1
102
RTVSPropertyOp1
 70
     1
102
RTVSPropertyOp2
 70
     1
102
RTVSPropertyOp3
 70
     1
102
RTVSPropertyOp4
 70
     1
102
RTVSPropertyOp5
 70
     1
102
RTVSPropertyOp6
 70
     1
102
RTVSPropertyOp7
 70
     1
102
RTVSPropertyOp8
 70
     1
102
RTVSPropertyOp9
 70
     1
102
RTVSPropertyOp10
 70
     1
102
RTVSPropertyOp11
 70
     1
102
RTVSPropertyOp12
 70
     1
102
RTVSPropertyOp13
 70
     1
102
RTVSPropertyOp14
 70
     1
102
RTVSPropertyOp15
 70
     1
102
RTVSPropertyOp16
 70
     1
102
RTVSPropertyOp17
 70
     1
102
RTVSPropertyOp18
 70
     1
102
RTVSPropertyOp19
 70
     1
102
RTVSPropertyOp20
 70
     1
102
RTVSPropertyOp21
 70
     1
102
RTVSPropertyOp22
 70
     1
102
RTVSPropertyOp23
 70
     1
102
RTVSPropertyOp24
 70
     1
102
RTVSPropertyOp25
 70
     1
102
RTVSPropertyOp26
 70
     1
102
RTVSPropertyOp27
 70
     1
102
RTVSPropertyOp28
 70
     1
102
RTVSPropertyOp29
 70
     1
102
RTVSPropertyOp30
 70
     1
102
RTVSPropertyOp31
 70
     1
102
RTVSPropertyOp32
 70
     1
102
RTVSPropertyOp33
 70
     1
102
RTVSPropertyOp34
 70
     1
102
RTVSPropertyOp35
 70
     1
102
RTVSPropertyOp36
 70
     1
102
RTVSPropertyOp37
 70
     1
102
RTVSPropertyOp38
 70
     1
102
RTVSPropertyOp39
 70
     1
102
RTVSPropertyOp40
 70
     1
102
RTVSPropertyOp41
 70
     1
102
RTVSPropertyOp42
 70
     1
102
RTVSPropertyOp43
 70
     1
102
RTVSPropertyOp44
 70
     1
102
RTVSPropertyOp45
 70
     1
102
RTVSPropertyOp46
 70
     1
102
RTVSPropertyOp47
 70
     1
102
RTVSPropertyOp48
 70
     1
102
RTVSPropertyOp49
 70
     1
102
RTVSPropertyOp50
 70
     1
102
RTVSPropertyOp51
 70
     0
102
RTVSPropertyOp52
 70
     0
102
RTVSPropertyOp53
 70
     1
102
RTVSPropertyOp54
 70
     1
102
RTVSPropertyOp55
 70
     1
102
RTVSPropertyOp56
 70
     1
102
RTVSPropertyOp57
 70
     1
102
RTVSPropertyOp58
 70
     1
102
RTVSPropertyOp59
 70
     1
102
RTVSPropertyOp60
 70
     1
102
RTVSPropertyOp61
 70
     1
102
RTVSPropertyOp62
 70
     1
  0
XRECORD
  5
179F
102
{ACAD_REACTORS
330
179E
102
}
330
179E
100
AcDbXrecord
280
     1
102
RTVSPost2010Prop28
280
     0
102
RTVSPost2010PropOp28
 70
     1
102
RTVSPost2010Prop29
280
     1
102
RTVSPost2010PropOp29
 70
     1
102
RTVSPost2010Prop30
280
     1
102
RTVSPost2010PropOp30
 70
     1
102
RTVSPost2010Prop31
280
     0
102
RTVSPost2010PropOp31
 70
     1
102
RTVSPost2010Prop32
280
     0
102
RTVSPost2010PropOp32
 70
     1
102
RTVSPost2010Prop33
280
     0
102
RTVSPost2010PropOp33
 70
     1
102
RTVSPost2010Prop34
280
     0
102
RTVSPost2010PropOp34
 70
     1
102
RTVSPost2010Prop35
280
     0
102
RTVSPost2010PropOp35
 70
     1
102
RTVSPost2010Prop36
280
     0
102
RTVSPost2010PropOp36
 70
     1
102
RTVSPost2010Prop37
 90
       50
102
RTVSPost2010PropOp37
 70
     1
102
RTVSPost2010Prop38
140
0.0
102
RTVSPost2010PropOp38
 70
     1
102
RTVSPost2010Prop39
140
1.0
102
RTVSPost2010PropOp39
 70
     1
102
RTVSPost2010Prop40
 90
        0
102
RTVSPost2010PropOp40
 70
     1
102
RTVSPost2010Prop41ColorIndex
 90
       18
102
RTVSPost2010Prop41ColorRGB
 90
        0
102
RTVSPost2010PropOp41
 70
     1
102
RTVSPost2010Prop42
 90
       50
102
RTVSPost2010PropOp42
 70
     1
102
RTVSPost2010Prop43
 90
        3
102
RTVSPost2010PropOp43
 70
     1
102
RTVSPost2010Prop44ColorIndex
 90
        5
102
RTVSPost2010Prop44ColorRGB
 90
      255
102
RTVSPost2010PropOp44
 70
     1
102
RTVSPost2010Prop45
280
     0
102
RTVSPost2010PropOp45
 70
     1
102
RTVSPost2010Prop46
 90
       50
102
RTVSPost2010PropOp46
 70
     1
102
RTVSPost2010Prop47
 90
       50
102
RTVSPost2010PropOp47
 70
     1
102
RTVSPost2010Prop48
 90
       50
102
RTVSPost2010PropOp48
 70
     1
102
RTVSPost2010Prop49
280
     0
102
RTVSPost2010PropOp49
 70
     1
102
RTVSPost2010Prop50
 90
       50
102
RTVSPost2010PropOp50
 70
     1
102
RTVSPost2010Prop51ColorIndex
 90
      256
102
RTVSPost2010Prop51ColorRGB
 90
-16777216
102
RTVSPost2010PropOp51
 70
     0
102
RTVSPost2010Prop52
140
1.0
102
RTVSPost2010PropOp52
 70
     0
102
RTVSPost2010Prop53
 90
        2
102
RTVSPost2010PropOp53
 70
     1
102
RTVSPost2010Prop54
  1
strokes_ogs.tif
102
RTVSPost2010PropOp54
 70
     1
102
RTVSPost2010Prop55
280
     0
102
RTVSPost2010PropOp55
 70
     1
102
RTVSPost2010Prop56
140
1.0
102
RTVSPost2010PropOp56
 70
     1
102
RTVSPost2010Prop57
140
1.0
102
RTVSPost2010PropOp57
 70
     1
102
RTVSPropertyOp0
 70
     1
102
RTVSPropertyOp1
 70
     1
102
RTVSPropertyOp2
 70
     1
102
RTVSPropertyOp3
 70
     1
102
RTVSPropertyOp4
 70
     1
102
RTVSPropertyOp5
 70
     1
102
RTVSPropertyOp6
 70
     1
102
RTVSPropertyOp7
 70
     1
102
RTVSPropertyOp8
 70
     1
102
RTVSPropertyOp9
 70
     1
102
RTVSPropertyOp10
 70
     1
102
RTVSPropertyOp11
 70
     1
102
RTVSPropertyOp12
 70
     1
102
RTVSPropertyOp13
 70
     1
102
RTVSPropertyOp14
 70
     1
102
RTVSPropertyOp15
 70
     1
102
RTVSPropertyOp16
 70
     1
102
RTVSPropertyOp17
 70
     1
102
RTVSPropertyOp18
 70
     1
102
RTVSPropertyOp19
 70
     1
102
RTVSPropertyOp20
 70
     1
102
RTVSPropertyOp21
 70
     1
102
RTVSPropertyOp22
 70
     1
102
RTVSPropertyOp23
 70
     1
102
RTVSPropertyOp24
 70
     1
102
RTVSPropertyOp25
 70
     1
102
RTVSPropertyOp26
 70
     1
102
RTVSPropertyOp27
 70
     1
102
RTVSPropertyOp28
 70
     1
102
RTVSPropertyOp29
 70
     1
102
RTVSPropertyOp30
 70
     1
102
RTVSPropertyOp31
 70
     1
102
RTVSPropertyOp32
 70
     1
102
RTVSPropertyOp33
 70
     1
102
RTVSPropertyOp34
 70
     1
102
RTVSPropertyOp35
 70
     1
102
RTVSPropertyOp36
 70
     1
102
RTVSPropertyOp37
 70
     1
102
RTVSPropertyOp38
 70
     1
102
RTVSPropertyOp39
 70
     1
102
RTVSPropertyOp40
 70
     1
102
RTVSPropertyOp41
 70
     1
102
RTVSPropertyOp42
 70
     1
102
RTVSPropertyOp43
 70
     1
102
RTVSPropertyOp44
 70
     1
102
RTVSPropertyOp45
 70
     1
102
RTVSPropertyOp46
 70
     1
102
RTVSPropertyOp47
 70
     1
102
RTVSPropertyOp48
 70
     1
102
RTVSPropertyOp49
 70
     1
102
RTVSPropertyOp50
 70
     1
102
RTVSPropertyOp51
 70
     0
102
RTVSPropertyOp52
 70
     0
102
RTVSPropertyOp53
 70
     1
102
RTVSPropertyOp54
 70
     1
102
RTVSPropertyOp55
 70
     1
102
RTVSPropertyOp56
 70
     1
102
RTVSPropertyOp57
 70
     1
102
RTVSPropertyOp58
 70
     1
102
RTVSPropertyOp59
 70
     1
102
RTVSPropertyOp60
 70
     1
102
RTVSPropertyOp61
 70
     1
102
RTVSPropertyOp62
 70
     1
  0
XRECORD
  5
17AF
102
{ACAD_REACTORS
330
17AE
102
}
330
17AE
100
AcDbXrecord
280
     1
102
RTVSPost2010Prop28
280
     0
102
RTVSPost2010PropOp28
 70
     1
102
RTVSPost2010Prop29
280
     1
102
RTVSPost2010PropOp29
 70
     1
102
RTVSPost2010Prop30
280
     1
102
RTVSPost2010PropOp30
 70
     1
102
RTVSPost2010Prop31
280
     0
102
RTVSPost2010PropOp31
 70
     1
102
RTVSPost2010Prop32
280
     0
102
RTVSPost2010PropOp32
 70
     1
102
RTVSPost2010Prop33
280
     0
102
RTVSPost2010PropOp33
 70
     1
102
RTVSPost2010Prop34
280
     0
102
RTVSPost2010PropOp34
 70
     1
102
RTVSPost2010Prop35
280
     0
102
RTVSPost2010PropOp35
 70
     1
102
RTVSPost2010Prop36
280
     0
102
RTVSPost2010PropOp36
 70
     1
102
RTVSPost2010Prop37
 90
       50
102
RTVSPost2010PropOp37
 70
     1
102
RTVSPost2010Prop38
140
0.0
102
RTVSPost2010PropOp38
 70
     1
102
RTVSPost2010Prop39
140
1.0
102
RTVSPost2010PropOp39
 70
     1
102
RTVSPost2010Prop40
 90
        0
102
RTVSPost2010PropOp40
 70
     1
102
RTVSPost2010Prop41ColorIndex
 90
       18
102
RTVSPost2010Prop41ColorRGB
 90
        0
102
RTVSPost2010PropOp41
 70
     1
102
RTVSPost2010Prop42
 90
       50
102
RTVSPost2010PropOp42
 70
     1
102
RTVSPost2010Prop43
 90
        3
102
RTVSPost2010PropOp43
 70
     1
102
RTVSPost2010Prop44ColorIndex
 90
        5
102
RTVSPost2010Prop44ColorRGB
 90
      255
102
RTVSPost2010PropOp44
 70
     1
102
RTVSPost2010Prop45
280
     0
102
RTVSPost2010PropOp45
 70
     1
102
RTVSPost2010Prop46
 90
       50
102
RTVSPost2010PropOp46
 70
     1
102
RTVSPost2010Prop47
 90
       50
102
RTVSPost2010PropOp47
 70
     1
102
RTVSPost2010Prop48
 90
       50
102
RTVSPost2010PropOp48
 70
     1
102
RTVSPost2010Prop49
280
     0
102
RTVSPost2010PropOp49
 70
     1
102
RTVSPost2010Prop50
 90
       50
102
RTVSPost2010PropOp50
 70
     1
102
RTVSPost2010Prop51ColorIndex
 90
      256
102
RTVSPost2010Prop51ColorRGB
 90
-16777216
102
RTVSPost2010PropOp51
 70
     0
102
RTVSPost2010Prop52
140
1.0
102
RTVSPost2010PropOp52
 70
     0
102
RTVSPost2010Prop53
 90
        2
102
RTVSPost2010PropOp53
 70
     1
102
RTVSPost2010Prop54
  1
strokes_ogs.tif
102
RTVSPost2010PropOp54
 70
     1
102
RTVSPost2010Prop55
280
     0
102
RTVSPost2010PropOp55
 70
     1
102
RTVSPost2010Prop56
140
1.0
102
RTVSPost2010PropOp56
 70
     1
102
RTVSPost2010Prop57
140
1.0
102
RTVSPost2010PropOp57
 70
     1
102
RTVSPropertyOp0
 70
     0
102
RTVSPropertyOp1
 70
     0
102
RTVSPropertyOp2
 70
     0
102
RTVSPropertyOp3
 70
     0
102
RTVSPropertyOp4
 70
     0
102
RTVSPropertyOp5
 70
     0
102
RTVSPropertyOp6
 70
     0
102
RTVSPropertyOp7
 70
     0
102
RTVSPropertyOp8
 70
     0
102
RTVSPropertyOp9
 70
     0
102
RTVSPropertyOp10
 70
     0
102
RTVSPropertyOp11
 70
     0
102
RTVSPropertyOp12
 70
     0
102
RTVSPropertyOp13
 70
     0
102
RTVSPropertyOp14
 70
     2
102
RTVSPropertyOp15
 70
     0
102
RTVSPropertyOp16
 70
     0
102
RTVSPropertyOp17
 70
     0
102
RTVSPropertyOp18
 70
     0
102
RTVSPropertyOp19
 70
     0
102
RTVSPropertyOp20
 70
     0
102
RTVSPropertyOp21
 70
     0
102
RTVSPropertyOp22
 70
     0
102
RTVSPropertyOp23
 70
     0
102
RTVSPropertyOp24
 70
     0
102
RTVSPropertyOp25
 70
     0
102
RTVSPropertyOp26
 70
     0
102
RTVSPropertyOp27
 70
     0
102
RTVSPropertyOp28
 70
     1
102
RTVSPropertyOp29
 70
     1
102
RTVSPropertyOp30
 70
     1
102
RTVSPropertyOp31
 70
     1
102
RTVSPropertyOp32
 70
     1
102
RTVSPropertyOp33
 70
     1
102
RTVSPropertyOp34
 70
     1
102
RTVSPropertyOp35
 70
     1
102
RTVSPropertyOp36
 70
     1
102
RTVSPropertyOp37
 70
     1
102
RTVSPropertyOp38
 70
     1
102
RTVSPropertyOp39
 70
     1
102
RTVSPropertyOp40
 70
     1
102
RTVSPropertyOp41
 70
     1
102
RTVSPropertyOp42
 70
     1
102
RTVSPropertyOp43
 70
     1
102
RTVSPropertyOp44
 70
     1
102
RTVSPropertyOp45
 70
     1
102
RTVSPropertyOp46
 70
     1
102
RTVSPropertyOp47
 70
     1
102
RTVSPropertyOp48
 70
     1
102
RTVSPropertyOp49
 70
     1
102
RTVSPropertyOp50
 70
     1
102
RTVSPropertyOp51
 70
     0
102
RTVSPropertyOp52
 70
     0
102
RTVSPropertyOp53
 70
     1
102
RTVSPropertyOp54
 70
     1
102
RTVSPropertyOp55
 70
     1
102
RTVSPropertyOp56
 70
     1
102
RTVSPropertyOp57
 70
     1
102
RTVSPropertyOp58
 70
     1
102
RTVSPropertyOp59
 70
     1
102
RTVSPropertyOp60
 70
     1
102
RTVSPropertyOp61
 70
     1
102
RTVSPropertyOp62
 70
     1
  0
XRECORD
  5
17A7
102
{ACAD_REACTORS
330
17A6
102
}
330
17A6
100
AcDbXrecord
280
     1
102
RTVSPost2010Prop28
280
     0
102
RTVSPost2010PropOp28
 70
     1
102
RTVSPost2010Prop29
280
     1
102
RTVSPost2010PropOp29
 70
     1
102
RTVSPost2010Prop30
280
     1
102
RTVSPost2010PropOp30
 70
     1
102
RTVSPost2010Prop31
280
     0
102
RTVSPost2010PropOp31
 70
     1
102
RTVSPost2010Prop32
280
     0
102
RTVSPost2010PropOp32
 70
     1
102
RTVSPost2010Prop33
280
     0
102
RTVSPost2010PropOp33
 70
     1
102
RTVSPost2010Prop34
280
     0
102
RTVSPost2010PropOp34
 70
     1
102
RTVSPost2010Prop35
280
     0
102
RTVSPost2010PropOp35
 70
     1
102
RTVSPost2010Prop36
280
     0
102
RTVSPost2010PropOp36
 70
     1
102
RTVSPost2010Prop37
 90
       50
102
RTVSPost2010PropOp37
 70
     1
102
RTVSPost2010Prop38
140
0.0
102
RTVSPost2010PropOp38
 70
     1
102
RTVSPost2010Prop39
140
1.0
102
RTVSPost2010PropOp39
 70
     1
102
RTVSPost2010Prop40
 90
        0
102
RTVSPost2010PropOp40
 70
     1
102
RTVSPost2010Prop41ColorIndex
 90
       18
102
RTVSPost2010Prop41ColorRGB
 90
        0
102
RTVSPost2010PropOp41
 70
     1
102
RTVSPost2010Prop42
 90
       50
102
RTVSPost2010PropOp42
 70
     1
102
RTVSPost2010Prop43
 90
        3
102
RTVSPost2010PropOp43
 70
     1
102
RTVSPost2010Prop44ColorIndex
 90
        5
102
RTVSPost2010Prop44ColorRGB
 90
      255
102
RTVSPost2010PropOp44
 70
     1
102
RTVSPost2010Prop45
280
     0
102
RTVSPost2010PropOp45
 70
     1
102
RTVSPost2010Prop46
 90
       50
102
RTVSPost2010PropOp46
 70
     1
102
RTVSPost2010Prop47
 90
       50
102
RTVSPost2010PropOp47
 70
     1
102
RTVSPost2010Prop48
 90
       50
102
RTVSPost2010PropOp48
 70
     1
102
RTVSPost2010Prop49
280
     0
102
RTVSPost2010PropOp49
 70
     1
102
RTVSPost2010Prop50
 90
       50
102
RTVSPost2010PropOp50
 70
     1
102
RTVSPost2010Prop51ColorIndex
 90
      256
102
RTVSPost2010Prop51ColorRGB
 90
-16777216
102
RTVSPost2010PropOp51
 70
     0
102
RTVSPost2010Prop52
140
1.0
102
RTVSPost2010PropOp52
 70
     0
102
RTVSPost2010Prop53
 90
        2
102
RTVSPost2010PropOp53
 70
     1
102
RTVSPost2010Prop54
  1
strokes_ogs.tif
102
RTVSPost2010PropOp54
 70
     1
102
RTVSPost2010Prop55
280
     0
102
RTVSPost2010PropOp55
 70
     1
102
RTVSPost2010Prop56
140
1.0
102
RTVSPost2010PropOp56
 70
     1
102
RTVSPost2010Prop57
140
1.0
102
RTVSPost2010PropOp57
 70
     1
102
RTVSPropertyOp0
 70
     1
102
RTVSPropertyOp1
 70
     1
102
RTVSPropertyOp2
 70
     1
102
RTVSPropertyOp3
 70
     1
102
RTVSPropertyOp4
 70
     1
102
RTVSPropertyOp5
 70
     1
102
RTVSPropertyOp6
 70
     1
102
RTVSPropertyOp7
 70
     1
102
RTVSPropertyOp8
 70
     1
102
RTVSPropertyOp9
 70
     1
102
RTVSPropertyOp10
 70
     1
102
RTVSPropertyOp11
 70
     1
102
RTVSPropertyOp12
 70
     1
102
RTVSPropertyOp13
 70
     1
102
RTVSPropertyOp14
 70
     1
102
RTVSPropertyOp15
 70
     1
102
RTVSPropertyOp16
 70
     1
102
RTVSPropertyOp17
 70
     1
102
RTVSPropertyOp18
 70
     1
102
RTVSPropertyOp19
 70
     1
102
RTVSPropertyOp20
 70
     1
102
RTVSPropertyOp21
 70
     1
102
RTVSPropertyOp22
 70
     1
102
RTVSPropertyOp23
 70
     1
102
RTVSPropertyOp24
 70
     1
102
RTVSPropertyOp25
 70
     1
102
RTVSPropertyOp26
 70
     1
102
RTVSPropertyOp27
 70
     1
102
RTVSPropertyOp28
 70
     1
102
RTVSPropertyOp29
 70
     1
102
RTVSPropertyOp30
 70
     1
102
RTVSPropertyOp31
 70
     1
102
RTVSPropertyOp32
 70
     1
102
RTVSPropertyOp33
 70
     1
102
RTVSPropertyOp34
 70
     1
102
RTVSPropertyOp35
 70
     1
102
RTVSPropertyOp36
 70
     1
102
RTVSPropertyOp37
 70
     1
102
RTVSPropertyOp38
 70
     1
102
RTVSPropertyOp39
 70
     1
102
RTVSPropertyOp40
 70
     1
102
RTVSPropertyOp41
 70
     1
102
RTVSPropertyOp42
 70
     1
102
RTVSPropertyOp43
 70
     1
102
RTVSPropertyOp44
 70
     1
102
RTVSPropertyOp45
 70
     1
102
RTVSPropertyOp46
 70
     1
102
RTVSPropertyOp47
 70
     1
102
RTVSPropertyOp48
 70
     1
102
RTVSPropertyOp49
 70
     1
102
RTVSPropertyOp50
 70
     1
102
RTVSPropertyOp51
 70
     0
102
RTVSPropertyOp52
 70
     0
102
RTVSPropertyOp53
 70
     1
102
RTVSPropertyOp54
 70
     1
102
RTVSPropertyOp55
 70
     1
102
RTVSPropertyOp56
 70
     1
102
RTVSPropertyOp57
 70
     1
102
RTVSPropertyOp58
 70
     1
102
RTVSPropertyOp59
 70
     1
102
RTVSPropertyOp60
 70
     1
102
RTVSPropertyOp61
 70
     1
102
RTVSPropertyOp62
 70
     1
  0
XRECORD
  5
178B
102
{ACAD_REACTORS
330
178A
102
}
330
178A
100
AcDbXrecord
280
     1
102
RTVSPost2010Prop28
280
     0
102
RTVSPost2010PropOp28
 70
     1
102
RTVSPost2010Prop29
280
     1
102
RTVSPost2010PropOp29
 70
     1
102
RTVSPost2010Prop30
280
     1
102
RTVSPost2010PropOp30
 70
     1
102
RTVSPost2010Prop31
280
     0
102
RTVSPost2010PropOp31
 70
     1
102
RTVSPost2010Prop32
280
     0
102
RTVSPost2010PropOp32
 70
     1
102
RTVSPost2010Prop33
280
     0
102
RTVSPost2010PropOp33
 70
     1
102
RTVSPost2010Prop34
280
     0
102
RTVSPost2010PropOp34
 70
     1
102
RTVSPost2010Prop35
280
     0
102
RTVSPost2010PropOp35
 70
     1
102
RTVSPost2010Prop36
280
     0
102
RTVSPost2010PropOp36
 70
     1
102
RTVSPost2010Prop37
 90
       50
102
RTVSPost2010PropOp37
 70
     1
102
RTVSPost2010Prop38
140
0.0
102
RTVSPost2010PropOp38
 70
     1
102
RTVSPost2010Prop39
140
1.0
102
RTVSPost2010PropOp39
 70
     1
102
RTVSPost2010Prop40
 90
        0
102
RTVSPost2010PropOp40
 70
     1
102
RTVSPost2010Prop41ColorIndex
 90
       18
102
RTVSPost2010Prop41ColorRGB
 90
        0
102
RTVSPost2010PropOp41
 70
     1
102
RTVSPost2010Prop42
 90
       50
102
RTVSPost2010PropOp42
 70
     1
102
RTVSPost2010Prop43
 90
        3
102
RTVSPost2010PropOp43
 70
     1
102
RTVSPost2010Prop44ColorIndex
 90
        5
102
RTVSPost2010Prop44ColorRGB
 90
      255
102
RTVSPost2010PropOp44
 70
     1
102
RTVSPost2010Prop45
280
     0
102
RTVSPost2010PropOp45
 70
     1
102
RTVSPost2010Prop46
 90
       50
102
RTVSPost2010PropOp46
 70
     1
102
RTVSPost2010Prop47
 90
       50
102
RTVSPost2010PropOp47
 70
     1
102
RTVSPost2010Prop48
 90
       50
102
RTVSPost2010PropOp48
 70
     1
102
RTVSPost2010Prop49
280
     0
102
RTVSPost2010PropOp49
 70
     1
102
RTVSPost2010Prop50
 90
       50
102
RTVSPost2010PropOp50
 70
     1
102
RTVSPost2010Prop51ColorIndex
 90
      256
102
RTVSPost2010Prop51ColorRGB
 90
-16777216
102
RTVSPost2010PropOp51
 70
     0
102
RTVSPost2010Prop52
140
1.0
102
RTVSPost2010PropOp52
 70
     0
102
RTVSPost2010Prop53
 90
        2
102
RTVSPost2010PropOp53
 70
     1
102
RTVSPost2010Prop54
  1
strokes_ogs.tif
102
RTVSPost2010PropOp54
 70
     1
102
RTVSPost2010Prop55
280
     0
102
RTVSPost2010PropOp55
 70
     1
102
RTVSPost2010Prop56
140
1.0
102
RTVSPost2010PropOp56
 70
     1
102
RTVSPost2010Prop57
140
1.0
102
RTVSPost2010PropOp57
 70
     1
102
RTVSPropertyOp0
 70
     1
102
RTVSPropertyOp1
 70
     1
102
RTVSPropertyOp2
 70
     1
102
RTVSPropertyOp3
 70
     1
102
RTVSPropertyOp4
 70
     1
102
RTVSPropertyOp5
 70
     1
102
RTVSPropertyOp6
 70
     1
102
RTVSPropertyOp7
 70
     1
102
RTVSPropertyOp8
 70
     1
102
RTVSPropertyOp9
 70
     1
102
RTVSPropertyOp10
 70
     1
102
RTVSPropertyOp11
 70
     1
102
RTVSPropertyOp12
 70
     1
102
RTVSPropertyOp13
 70
     1
102
RTVSPropertyOp14
 70
     1
102
RTVSPropertyOp15
 70
     1
102
RTVSPropertyOp16
 70
     1
102
RTVSPropertyOp17
 70
     1
102
RTVSPropertyOp18
 70
     1
102
RTVSPropertyOp19
 70
     1
102
RTVSPropertyOp20
 70
     1
102
RTVSPropertyOp21
 70
     1
102
RTVSPropertyOp22
 70
     1
102
RTVSPropertyOp23
 70
     1
102
RTVSPropertyOp24
 70
     1
102
RTVSPropertyOp25
 70
     1
102
RTVSPropertyOp26
 70
     1
102
RTVSPropertyOp27
 70
     1
102
RTVSPropertyOp28
 70
     1
102
RTVSPropertyOp29
 70
     1
102
RTVSPropertyOp30
 70
     1
102
RTVSPropertyOp31
 70
     1
102
RTVSPropertyOp32
 70
     1
102
RTVSPropertyOp33
 70
     1
102
RTVSPropertyOp34
 70
     1
102
RTVSPropertyOp35
 70
     1
102
RTVSPropertyOp36
 70
     1
102
RTVSPropertyOp37
 70
     1
102
RTVSPropertyOp38
 70
     1
102
RTVSPropertyOp39
 70
     1
102
RTVSPropertyOp40
 70
     1
102
RTVSPropertyOp41
 70
     1
102
RTVSPropertyOp42
 70
     1
102
RTVSPropertyOp43
 70
     1
102
RTVSPropertyOp44
 70
     1
102
RTVSPropertyOp45
 70
     1
102
RTVSPropertyOp46
 70
     1
102
RTVSPropertyOp47
 70
     1
102
RTVSPropertyOp48
 70
     1
102
RTVSPropertyOp49
 70
     1
102
RTVSPropertyOp50
 70
     1
102
RTVSPropertyOp51
 70
     0
102
RTVSPropertyOp52
 70
     0
102
RTVSPropertyOp53
 70
     1
102
RTVSPropertyOp54
 70
     1
102
RTVSPropertyOp55
 70
     1
102
RTVSPropertyOp56
 70
     1
102
RTVSPropertyOp57
 70
     1
102
RTVSPropertyOp58
 70
     1
102
RTVSPropertyOp59
 70
     1
102
RTVSPropertyOp60
 70
     1
102
RTVSPropertyOp61
 70
     1
102
RTVSPropertyOp62
 70
     1
  0
XRECORD
  5
178D
102
{ACAD_REACTORS
330
178C
102
}
330
178C
100
AcDbXrecord
280
     1
102
RTVSPost2010Prop28
280
     0
102
RTVSPost2010PropOp28
 70
     1
102
RTVSPost2010Prop29
280
     1
102
RTVSPost2010PropOp29
 70
     1
102
RTVSPost2010Prop30
280
     1
102
RTVSPost2010PropOp30
 70
     1
102
RTVSPost2010Prop31
280
     0
102
RTVSPost2010PropOp31
 70
     1
102
RTVSPost2010Prop32
280
     0
102
RTVSPost2010PropOp32
 70
     1
102
RTVSPost2010Prop33
280
     0
102
RTVSPost2010PropOp33
 70
     1
102
RTVSPost2010Prop34
280
     0
102
RTVSPost2010PropOp34
 70
     1
102
RTVSPost2010Prop35
280
     0
102
RTVSPost2010PropOp35
 70
     1
102
RTVSPost2010Prop36
280
     0
102
RTVSPost2010PropOp36
 70
     1
102
RTVSPost2010Prop37
 90
       50
102
RTVSPost2010PropOp37
 70
     1
102
RTVSPost2010Prop38
140
0.0
102
RTVSPost2010PropOp38
 70
     1
102
RTVSPost2010Prop39
140
1.0
102
RTVSPost2010PropOp39
 70
     1
102
RTVSPost2010Prop40
 90
        0
102
RTVSPost2010PropOp40
 70
     1
102
RTVSPost2010Prop41ColorIndex
 90
       18
102
RTVSPost2010Prop41ColorRGB
 90
        0
102
RTVSPost2010PropOp41
 70
     1
102
RTVSPost2010Prop42
 90
       50
102
RTVSPost2010PropOp42
 70
     1
102
RTVSPost2010Prop43
 90
        3
102
RTVSPost2010PropOp43
 70
     1
102
RTVSPost2010Prop44ColorIndex
 90
        5
102
RTVSPost2010Prop44ColorRGB
 90
      255
102
RTVSPost2010PropOp44
 70
     1
102
RTVSPost2010Prop45
280
     0
102
RTVSPost2010PropOp45
 70
     1
102
RTVSPost2010Prop46
 90
       50
102
RTVSPost2010PropOp46
 70
     1
102
RTVSPost2010Prop47
 90
       50
102
RTVSPost2010PropOp47
 70
     1
102
RTVSPost2010Prop48
 90
       50
102
RTVSPost2010PropOp48
 70
     1
102
RTVSPost2010Prop49
280
     0
102
RTVSPost2010PropOp49
 70
     1
102
RTVSPost2010Prop50
 90
       50
102
RTVSPost2010PropOp50
 70
     1
102
RTVSPost2010Prop51ColorIndex
 90
      256
102
RTVSPost2010Prop51ColorRGB
 90
-16777216
102
RTVSPost2010PropOp51
 70
     0
102
RTVSPost2010Prop52
140
1.0
102
RTVSPost2010PropOp52
 70
     0
102
RTVSPost2010Prop53
 90
        2
102
RTVSPost2010PropOp53
 70
     1
102
RTVSPost2010Prop54
  1
strokes_ogs.tif
102
RTVSPost2010PropOp54
 70
     1
102
RTVSPost2010Prop55
280
     0
102
RTVSPost2010PropOp55
 70
     1
102
RTVSPost2010Prop56
140
1.0
102
RTVSPost2010PropOp56
 70
     1
102
RTVSPost2010Prop57
140
1.0
102
RTVSPost2010PropOp57
 70
     1
102
RTVSPropertyOp0
 70
     1
102
RTVSPropertyOp1
 70
     1
102
RTVSPropertyOp2
 70
     1
102
RTVSPropertyOp3
 70
     1
102
RTVSPropertyOp4
 70
     1
102
RTVSPropertyOp5
 70
     1
102
RTVSPropertyOp6
 70
     1
102
RTVSPropertyOp7
 70
     1
102
RTVSPropertyOp8
 70
     1
102
RTVSPropertyOp9
 70
     1
102
RTVSPropertyOp10
 70
     1
102
RTVSPropertyOp11
 70
     1
102
RTVSPropertyOp12
 70
     1
102
RTVSPropertyOp13
 70
     1
102
RTVSPropertyOp14
 70
     1
102
RTVSPropertyOp15
 70
     1
102
RTVSPropertyOp16
 70
     1
102
RTVSPropertyOp17
 70
     1
102
RTVSPropertyOp18
 70
     1
102
RTVSPropertyOp19
 70
     1
102
RTVSPropertyOp20
 70
     1
102
RTVSPropertyOp21
 70
     1
102
RTVSPropertyOp22
 70
     1
102
RTVSPropertyOp23
 70
     1
102
RTVSPropertyOp24
 70
     1
102
RTVSPropertyOp25
 70
     1
102
RTVSPropertyOp26
 70
     1
102
RTVSPropertyOp27
 70
     1
102
RTVSPropertyOp28
 70
     1
102
RTVSPropertyOp29
 70
     1
102
RTVSPropertyOp30
 70
     1
102
RTVSPropertyOp31
 70
     1
102
RTVSPropertyOp32
 70
     1
102
RTVSPropertyOp33
 70
     1
102
RTVSPropertyOp34
 70
     1
102
RTVSPropertyOp35
 70
     1
102
RTVSPropertyOp36
 70
     1
102
RTVSPropertyOp37
 70
     1
102
RTVSPropertyOp38
 70
     1
102
RTVSPropertyOp39
 70
     1
102
RTVSPropertyOp40
 70
     1
102
RTVSPropertyOp41
 70
     1
102
RTVSPropertyOp42
 70
     1
102
RTVSPropertyOp43
 70
     1
102
RTVSPropertyOp44
 70
     1
102
RTVSPropertyOp45
 70
     1
102
RTVSPropertyOp46
 70
     1
102
RTVSPropertyOp47
 70
     1
102
RTVSPropertyOp48
 70
     1
102
RTVSPropertyOp49
 70
     1
102
RTVSPropertyOp50
 70
     1
102
RTVSPropertyOp51
 70
     0
102
RTVSPropertyOp52
 70
     0
102
RTVSPropertyOp53
 70
     1
102
RTVSPropertyOp54
 70
     1
102
RTVSPropertyOp55
 70
     1
102
RTVSPropertyOp56
 70
     1
102
RTVSPropertyOp57
 70
     1
102
RTVSPropertyOp58
 70
     1
102
RTVSPropertyOp59
 70
     1
102
RTVSPropertyOp60
 70
     1
102
RTVSPropertyOp61
 70
     1
102
RTVSPropertyOp62
 70
     1
  0
XRECORD
  5
178F
102
{ACAD_REACTORS
330
178E
102
}
330
178E
100
AcDbXrecord
280
     1
102
RTVSPost2010Prop28
280
     0
102
RTVSPost2010PropOp28
 70
     1
102
RTVSPost2010Prop29
280
     1
102
RTVSPost2010PropOp29
 70
     1
102
RTVSPost2010Prop30
280
     1
102
RTVSPost2010PropOp30
 70
     1
102
RTVSPost2010Prop31
280
     0
102
RTVSPost2010PropOp31
 70
     1
102
RTVSPost2010Prop32
280
     0
102
RTVSPost2010PropOp32
 70
     1
102
RTVSPost2010Prop33
280
     0
102
RTVSPost2010PropOp33
 70
     1
102
RTVSPost2010Prop34
280
     0
102
RTVSPost2010PropOp34
 70
     1
102
RTVSPost2010Prop35
280
     0
102
RTVSPost2010PropOp35
 70
     1
102
RTVSPost2010Prop36
280
     0
102
RTVSPost2010PropOp36
 70
     1
102
RTVSPost2010Prop37
 90
       50
102
RTVSPost2010PropOp37
 70
     1
102
RTVSPost2010Prop38
140
0.0
102
RTVSPost2010PropOp38
 70
     1
102
RTVSPost2010Prop39
140
1.0
102
RTVSPost2010PropOp39
 70
     1
102
RTVSPost2010Prop40
 90
        0
102
RTVSPost2010PropOp40
 70
     1
102
RTVSPost2010Prop41ColorIndex
 90
       18
102
RTVSPost2010Prop41ColorRGB
 90
        0
102
RTVSPost2010PropOp41
 70
     1
102
RTVSPost2010Prop42
 90
       50
102
RTVSPost2010PropOp42
 70
     1
102
RTVSPost2010Prop43
 90
        3
102
RTVSPost2010PropOp43
 70
     1
102
RTVSPost2010Prop44ColorIndex
 90
        5
102
RTVSPost2010Prop44ColorRGB
 90
      255
102
RTVSPost2010PropOp44
 70
     1
102
RTVSPost2010Prop45
280
     0
102
RTVSPost2010PropOp45
 70
     1
102
RTVSPost2010Prop46
 90
       50
102
RTVSPost2010PropOp46
 70
     1
102
RTVSPost2010Prop47
 90
       50
102
RTVSPost2010PropOp47
 70
     1
102
RTVSPost2010Prop48
 90
       50
102
RTVSPost2010PropOp48
 70
     1
102
RTVSPost2010Prop49
280
     0
102
RTVSPost2010PropOp49
 70
     1
102
RTVSPost2010Prop50
 90
       50
102
RTVSPost2010PropOp50
 70
     1
102
RTVSPost2010Prop51ColorIndex
 90
      256
102
RTVSPost2010Prop51ColorRGB
 90
-16777216
102
RTVSPost2010PropOp51
 70
     0
102
RTVSPost2010Prop52
140
1.0
102
RTVSPost2010PropOp52
 70
     0
102
RTVSPost2010Prop53
 90
        2
102
RTVSPost2010PropOp53
 70
     1
102
RTVSPost2010Prop54
  1
strokes_ogs.tif
102
RTVSPost2010PropOp54
 70
     1
102
RTVSPost2010Prop55
280
     0
102
RTVSPost2010PropOp55
 70
     1
102
RTVSPost2010Prop56
140
1.0
102
RTVSPost2010PropOp56
 70
     1
102
RTVSPost2010Prop57
140
1.0
102
RTVSPost2010PropOp57
 70
     1
102
RTVSPropertyOp0
 70
     1
102
RTVSPropertyOp1
 70
     1
102
RTVSPropertyOp2
 70
     1
102
RTVSPropertyOp3
 70
     1
102
RTVSPropertyOp4
 70
     1
102
RTVSPropertyOp5
 70
     1
102
RTVSPropertyOp6
 70
     1
102
RTVSPropertyOp7
 70
     1
102
RTVSPropertyOp8
 70
     1
102
RTVSPropertyOp9
 70
     1
102
RTVSPropertyOp10
 70
     1
102
RTVSPropertyOp11
 70
     1
102
RTVSPropertyOp12
 70
     1
102
RTVSPropertyOp13
 70
     1
102
RTVSPropertyOp14
 70
     1
102
RTVSPropertyOp15
 70
     1
102
RTVSPropertyOp16
 70
     1
102
RTVSPropertyOp17
 70
     1
102
RTVSPropertyOp18
 70
     1
102
RTVSPropertyOp19
 70
     1
102
RTVSPropertyOp20
 70
     1
102
RTVSPropertyOp21
 70
     1
102
RTVSPropertyOp22
 70
     1
102
RTVSPropertyOp23
 70
     1
102
RTVSPropertyOp24
 70
     1
102
RTVSPropertyOp25
 70
     1
102
RTVSPropertyOp26
 70
     1
102
RTVSPropertyOp27
 70
     1
102
RTVSPropertyOp28
 70
     1
102
RTVSPropertyOp29
 70
     1
102
RTVSPropertyOp30
 70
     1
102
RTVSPropertyOp31
 70
     1
102
RTVSPropertyOp32
 70
     1
102
RTVSPropertyOp33
 70
     1
102
RTVSPropertyOp34
 70
     1
102
RTVSPropertyOp35
 70
     1
102
RTVSPropertyOp36
 70
     1
102
RTVSPropertyOp37
 70
     1
102
RTVSPropertyOp38
 70
     1
102
RTVSPropertyOp39
 70
     1
102
RTVSPropertyOp40
 70
     1
102
RTVSPropertyOp41
 70
     1
102
RTVSPropertyOp42
 70
     1
102
RTVSPropertyOp43
 70
     1
102
RTVSPropertyOp44
 70
     1
102
RTVSPropertyOp45
 70
     1
102
RTVSPropertyOp46
 70
     1
102
RTVSPropertyOp47
 70
     1
102
RTVSPropertyOp48
 70
     1
102
RTVSPropertyOp49
 70
     1
102
RTVSPropertyOp50
 70
     1
102
RTVSPropertyOp51
 70
     0
102
RTVSPropertyOp52
 70
     0
102
RTVSPropertyOp53
 70
     1
102
RTVSPropertyOp54
 70
     1
102
RTVSPropertyOp55
 70
     1
102
RTVSPropertyOp56
 70
     1
102
RTVSPropertyOp57
 70
     1
102
RTVSPropertyOp58
 70
     1
102
RTVSPropertyOp59
 70
     1
102
RTVSPropertyOp60
 70
     1
102
RTVSPropertyOp61
 70
     1
102
RTVSPropertyOp62
 70
     1
  0
XRECORD
  5
1791
102
{ACAD_REACTORS
330
1790
102
}
330
1790
100
AcDbXrecord
280
     1
102
RTVSPost2010Prop28
280
     0
102
RTVSPost2010PropOp28
 70
     1
102
RTVSPost2010Prop29
280
     1
102
RTVSPost2010PropOp29
 70
     1
102
RTVSPost2010Prop30
280
     1
102
RTVSPost2010PropOp30
 70
     1
102
RTVSPost2010Prop31
280
     0
102
RTVSPost2010PropOp31
 70
     1
102
RTVSPost2010Prop32
280
     0
102
RTVSPost2010PropOp32
 70
     1
102
RTVSPost2010Prop33
280
     0
102
RTVSPost2010PropOp33
 70
     1
102
RTVSPost2010Prop34
280
     0
102
RTVSPost2010PropOp34
 70
     1
102
RTVSPost2010Prop35
280
     0
102
RTVSPost2010PropOp35
 70
     1
102
RTVSPost2010Prop36
280
     0
102
RTVSPost2010PropOp36
 70
     1
102
RTVSPost2010Prop37
 90
       50
102
RTVSPost2010PropOp37
 70
     1
102
RTVSPost2010Prop38
140
0.0
102
RTVSPost2010PropOp38
 70
     1
102
RTVSPost2010Prop39
140
1.0
102
RTVSPost2010PropOp39
 70
     1
102
RTVSPost2010Prop40
 90
        0
102
RTVSPost2010PropOp40
 70
     1
102
RTVSPost2010Prop41ColorIndex
 90
       18
102
RTVSPost2010Prop41ColorRGB
 90
        0
102
RTVSPost2010PropOp41
 70
     1
102
RTVSPost2010Prop42
 90
       50
102
RTVSPost2010PropOp42
 70
     1
102
RTVSPost2010Prop43
 90
        3
102
RTVSPost2010PropOp43
 70
     1
102
RTVSPost2010Prop44ColorIndex
 90
        5
102
RTVSPost2010Prop44ColorRGB
 90
      255
102
RTVSPost2010PropOp44
 70
     1
102
RTVSPost2010Prop45
280
     0
102
RTVSPost2010PropOp45
 70
     1
102
RTVSPost2010Prop46
 90
       50
102
RTVSPost2010PropOp46
 70
     1
102
RTVSPost2010Prop47
 90
       50
102
RTVSPost2010PropOp47
 70
     1
102
RTVSPost2010Prop48
 90
       50
102
RTVSPost2010PropOp48
 70
     1
102
RTVSPost2010Prop49
280
     0
102
RTVSPost2010PropOp49
 70
     1
102
RTVSPost2010Prop50
 90
       50
102
RTVSPost2010PropOp50
 70
     1
102
RTVSPost2010Prop51ColorIndex
 90
      256
102
RTVSPost2010Prop51ColorRGB
 90
-16777216
102
RTVSPost2010PropOp51
 70
     0
102
RTVSPost2010Prop52
140
1.0
102
RTVSPost2010PropOp52
 70
     0
102
RTVSPost2010Prop53
 90
        2
102
RTVSPost2010PropOp53
 70
     1
102
RTVSPost2010Prop54
  1
strokes_ogs.tif
102
RTVSPost2010PropOp54
 70
     1
102
RTVSPost2010Prop55
280
     0
102
RTVSPost2010PropOp55
 70
     1
102
RTVSPost2010Prop56
140
1.0
102
RTVSPost2010PropOp56
 70
     1
102
RTVSPost2010Prop57
140
1.0
102
RTVSPost2010PropOp57
 70
     1
102
RTVSPropertyOp0
 70
     1
102
RTVSPropertyOp1
 70
     1
102
RTVSPropertyOp2
 70
     1
102
RTVSPropertyOp3
 70
     1
102
RTVSPropertyOp4
 70
     1
102
RTVSPropertyOp5
 70
     1
102
RTVSPropertyOp6
 70
     1
102
RTVSPropertyOp7
 70
     1
102
RTVSPropertyOp8
 70
     1
102
RTVSPropertyOp9
 70
     1
102
RTVSPropertyOp10
 70
     1
102
RTVSPropertyOp11
 70
     1
102
RTVSPropertyOp12
 70
     1
102
RTVSPropertyOp13
 70
     1
102
RTVSPropertyOp14
 70
     1
102
RTVSPropertyOp15
 70
     1
102
RTVSPropertyOp16
 70
     1
102
RTVSPropertyOp17
 70
     1
102
RTVSPropertyOp18
 70
     1
102
RTVSPropertyOp19
 70
     1
102
RTVSPropertyOp20
 70
     1
102
RTVSPropertyOp21
 70
     1
102
RTVSPropertyOp22
 70
     1
102
RTVSPropertyOp23
 70
     1
102
RTVSPropertyOp24
 70
     1
102
RTVSPropertyOp25
 70
     1
102
RTVSPropertyOp26
 70
     1
102
RTVSPropertyOp27
 70
     1
102
RTVSPropertyOp28
 70
     1
102
RTVSPropertyOp29
 70
     1
102
RTVSPropertyOp30
 70
     1
102
RTVSPropertyOp31
 70
     1
102
RTVSPropertyOp32
 70
     1
102
RTVSPropertyOp33
 70
     1
102
RTVSPropertyOp34
 70
     1
102
RTVSPropertyOp35
 70
     1
102
RTVSPropertyOp36
 70
     1
102
RTVSPropertyOp37
 70
     1
102
RTVSPropertyOp38
 70
     1
102
RTVSPropertyOp39
 70
     1
102
RTVSPropertyOp40
 70
     1
102
RTVSPropertyOp41
 70
     1
102
RTVSPropertyOp42
 70
     1
102
RTVSPropertyOp43
 70
     1
102
RTVSPropertyOp44
 70
     1
102
RTVSPropertyOp45
 70
     1
102
RTVSPropertyOp46
 70
     1
102
RTVSPropertyOp47
 70
     1
102
RTVSPropertyOp48
 70
     1
102
RTVSPropertyOp49
 70
     1
102
RTVSPropertyOp50
 70
     1
102
RTVSPropertyOp51
 70
     0
102
RTVSPropertyOp52
 70
     0
102
RTVSPropertyOp53
 70
     1
102
RTVSPropertyOp54
 70
     1
102
RTVSPropertyOp55
 70
     1
102
RTVSPropertyOp56
 70
     1
102
RTVSPropertyOp57
 70
     1
102
RTVSPropertyOp58
 70
     1
102
RTVSPropertyOp59
 70
     1
102
RTVSPropertyOp60
 70
     1
102
RTVSPropertyOp61
 70
     1
102
RTVSPropertyOp62
 70
     1
  0
XRECORD
  5
17B4
102
{ACAD_REACTORS
330
17B3
102
}
330
17B3
100
AcDbXrecord
280
     1
102
RTVSPost2010Prop28
280
     0
102
RTVSPost2010PropOp28
 70
     1
102
RTVSPost2010Prop29
280
     1
102
RTVSPost2010PropOp29
 70
     1
102
RTVSPost2010Prop30
280
     1
102
RTVSPost2010PropOp30
 70
     1
102
RTVSPost2010Prop31
280
     0
102
RTVSPost2010PropOp31
 70
     1
102
RTVSPost2010Prop32
280
     0
102
RTVSPost2010PropOp32
 70
     1
102
RTVSPost2010Prop33
280
     0
102
RTVSPost2010PropOp33
 70
     1
102
RTVSPost2010Prop34
280
     0
102
RTVSPost2010PropOp34
 70
     1
102
RTVSPost2010Prop35
280
     0
102
RTVSPost2010PropOp35
 70
     1
102
RTVSPost2010Prop36
280
     0
102
RTVSPost2010PropOp36
 70
     1
102
RTVSPost2010Prop37
 90
       50
102
RTVSPost2010PropOp37
 70
     1
102
RTVSPost2010Prop38
140
0.0
102
RTVSPost2010PropOp38
 70
     1
102
RTVSPost2010Prop39
140
1.0
102
RTVSPost2010PropOp39
 70
     1
102
RTVSPost2010Prop40
 90
        0
102
RTVSPost2010PropOp40
 70
     1
102
RTVSPost2010Prop41ColorIndex
 90
       18
102
RTVSPost2010Prop41ColorRGB
 90
        0
102
RTVSPost2010PropOp41
 70
     1
102
RTVSPost2010Prop42
 90
       50
102
RTVSPost2010PropOp42
 70
     1
102
RTVSPost2010Prop43
 90
        3
102
RTVSPost2010PropOp43
 70
     1
102
RTVSPost2010Prop44ColorIndex
 90
        5
102
RTVSPost2010Prop44ColorRGB
 90
      255
102
RTVSPost2010PropOp44
 70
     1
102
RTVSPost2010Prop45
280
     0
102
RTVSPost2010PropOp45
 70
     1
102
RTVSPost2010Prop46
 90
       50
102
RTVSPost2010PropOp46
 70
     1
102
RTVSPost2010Prop47
 90
       50
102
RTVSPost2010PropOp47
 70
     1
102
RTVSPost2010Prop48
 90
       50
102
RTVSPost2010PropOp48
 70
     1
102
RTVSPost2010Prop49
280
     0
102
RTVSPost2010PropOp49
 70
     1
102
RTVSPost2010Prop50
 90
       50
102
RTVSPost2010PropOp50
 70
     1
102
RTVSPost2010Prop51ColorIndex
 90
      256
102
RTVSPost2010Prop51ColorRGB
 90
-16777216
102
RTVSPost2010PropOp51
 70
     0
102
RTVSPost2010Prop52
140
1.0
102
RTVSPost2010PropOp52
 70
     0
102
RTVSPost2010Prop53
 90
        2
102
RTVSPost2010PropOp53
 70
     1
102
RTVSPost2010Prop54
  1
strokes_ogs.tif
102
RTVSPost2010PropOp54
 70
     1
102
RTVSPost2010Prop55
280
     0
102
RTVSPost2010PropOp55
 70
     1
102
RTVSPost2010Prop56
140
1.0
102
RTVSPost2010PropOp56
 70
     1
102
RTVSPost2010Prop57
140
1.0
102
RTVSPost2010PropOp57
 70
     1
102
RTVSPropertyOp0
 70
     1
102
RTVSPropertyOp1
 70
     1
102
RTVSPropertyOp2
 70
     1
102
RTVSPropertyOp3
 70
     1
102
RTVSPropertyOp4
 70
     1
102
RTVSPropertyOp5
 70
     1
102
RTVSPropertyOp6
 70
     1
102
RTVSPropertyOp7
 70
     1
102
RTVSPropertyOp8
 70
     1
102
RTVSPropertyOp9
 70
     1
102
RTVSPropertyOp10
 70
     1
102
RTVSPropertyOp11
 70
     1
102
RTVSPropertyOp12
 70
     1
102
RTVSPropertyOp13
 70
     1
102
RTVSPropertyOp14
 70
     1
102
RTVSPropertyOp15
 70
     1
102
RTVSPropertyOp16
 70
     1
102
RTVSPropertyOp17
 70
     1
102
RTVSPropertyOp18
 70
     1
102
RTVSPropertyOp19
 70
     1
102
RTVSPropertyOp20
 70
     1
102
RTVSPropertyOp21
 70
     1
102
RTVSPropertyOp22
 70
     1
102
RTVSPropertyOp23
 70
     1
102
RTVSPropertyOp24
 70
     1
102
RTVSPropertyOp25
 70
     1
102
RTVSPropertyOp26
 70
     1
102
RTVSPropertyOp27
 70
     1
102
RTVSPropertyOp28
 70
     1
102
RTVSPropertyOp29
 70
     1
102
RTVSPropertyOp30
 70
     1
102
RTVSPropertyOp31
 70
     1
102
RTVSPropertyOp32
 70
     1
102
RTVSPropertyOp33
 70
     1
102
RTVSPropertyOp34
 70
     1
102
RTVSPropertyOp35
 70
     1
102
RTVSPropertyOp36
 70
     1
102
RTVSPropertyOp37
 70
     1
102
RTVSPropertyOp38
 70
     1
102
RTVSPropertyOp39
 70
     1
102
RTVSPropertyOp40
 70
     1
102
RTVSPropertyOp41
 70
     1
102
RTVSPropertyOp42
 70
     1
102
RTVSPropertyOp43
 70
     1
102
RTVSPropertyOp44
 70
     1
102
RTVSPropertyOp45
 70
     1
102
RTVSPropertyOp46
 70
     1
102
RTVSPropertyOp47
 70
     1
102
RTVSPropertyOp48
 70
     1
102
RTVSPropertyOp49
 70
     1
102
RTVSPropertyOp50
 70
     1
102
RTVSPropertyOp51
 70
     0
102
RTVSPropertyOp52
 70
     0
102
RTVSPropertyOp53
 70
     1
102
RTVSPropertyOp54
 70
     1
102
RTVSPropertyOp55
 70
     1
102
RTVSPropertyOp56
 70
     1
102
RTVSPropertyOp57
 70
     1
102
RTVSPropertyOp58
 70
     1
102
RTVSPropertyOp59
 70
     1
102
RTVSPropertyOp60
 70
     1
102
RTVSPropertyOp61
 70
     1
102
RTVSPropertyOp62
 70
     1
  0
XRECORD
  5
17AB
102
{ACAD_REACTORS
330
17AA
102
}
330
17AA
100
AcDbXrecord
280
     1
102
RTVSPost2010Prop28
280
     0
102
RTVSPost2010PropOp28
 70
     1
102
RTVSPost2010Prop29
280
     1
102
RTVSPost2010PropOp29
 70
     1
102
RTVSPost2010Prop30
280
     1
102
RTVSPost2010PropOp30
 70
     1
102
RTVSPost2010Prop31
280
     0
102
RTVSPost2010PropOp31
 70
     1
102
RTVSPost2010Prop32
280
     0
102
RTVSPost2010PropOp32
 70
     1
102
RTVSPost2010Prop33
280
     0
102
RTVSPost2010PropOp33
 70
     1
102
RTVSPost2010Prop34
280
     0
102
RTVSPost2010PropOp34
 70
     1
102
RTVSPost2010Prop35
280
     0
102
RTVSPost2010PropOp35
 70
     1
102
RTVSPost2010Prop36
280
     0
102
RTVSPost2010PropOp36
 70
     1
102
RTVSPost2010Prop37
 90
       50
102
RTVSPost2010PropOp37
 70
     1
102
RTVSPost2010Prop38
140
0.0
102
RTVSPost2010PropOp38
 70
     1
102
RTVSPost2010Prop39
140
1.0
102
RTVSPost2010PropOp39
 70
     1
102
RTVSPost2010Prop40
 90
        0
102
RTVSPost2010PropOp40
 70
     1
102
RTVSPost2010Prop41ColorIndex
 90
       18
102
RTVSPost2010Prop41ColorRGB
 90
        0
102
RTVSPost2010PropOp41
 70
     1
102
RTVSPost2010Prop42
 90
       50
102
RTVSPost2010PropOp42
 70
     1
102
RTVSPost2010Prop43
 90
        3
102
RTVSPost2010PropOp43
 70
     1
102
RTVSPost2010Prop44ColorIndex
 90
        5
102
RTVSPost2010Prop44ColorRGB
 90
      255
102
RTVSPost2010PropOp44
 70
     1
102
RTVSPost2010Prop45
280
     0
102
RTVSPost2010PropOp45
 70
     1
102
RTVSPost2010Prop46
 90
       50
102
RTVSPost2010PropOp46
 70
     1
102
RTVSPost2010Prop47
 90
       50
102
RTVSPost2010PropOp47
 70
     1
102
RTVSPost2010Prop48
 90
       50
102
RTVSPost2010PropOp48
 70
     1
102
RTVSPost2010Prop49
280
     0
102
RTVSPost2010PropOp49
 70
     1
102
RTVSPost2010Prop50
 90
       50
102
RTVSPost2010PropOp50
 70
     1
102
RTVSPost2010Prop51ColorIndex
 90
      256
102
RTVSPost2010Prop51ColorRGB
 90
-16777216
102
RTVSPost2010PropOp51
 70
     0
102
RTVSPost2010Prop52
140
1.0
102
RTVSPost2010PropOp52
 70
     0
102
RTVSPost2010Prop53
 90
        2
102
RTVSPost2010PropOp53
 70
     1
102
RTVSPost2010Prop54
  1
strokes_ogs.tif
102
RTVSPost2010PropOp54
 70
     1
102
RTVSPost2010Prop55
280
     0
102
RTVSPost2010PropOp55
 70
     1
102
RTVSPost2010Prop56
140
1.0
102
RTVSPost2010PropOp56
 70
     1
102
RTVSPost2010Prop57
140
1.0
102
RTVSPost2010PropOp57
 70
     1
102
RTVSPropertyOp0
 70
     0
102
RTVSPropertyOp1
 70
     0
102
RTVSPropertyOp2
 70
     0
102
RTVSPropertyOp3
 70
     0
102
RTVSPropertyOp4
 70
     0
102
RTVSPropertyOp5
 70
     0
102
RTVSPropertyOp6
 70
     0
102
RTVSPropertyOp7
 70
     0
102
RTVSPropertyOp8
 70
     0
102
RTVSPropertyOp9
 70
     0
102
RTVSPropertyOp10
 70
     0
102
RTVSPropertyOp11
 70
     0
102
RTVSPropertyOp12
 70
     0
102
RTVSPropertyOp13
 70
     0
102
RTVSPropertyOp14
 70
     2
102
RTVSPropertyOp15
 70
     0
102
RTVSPropertyOp16
 70
     0
102
RTVSPropertyOp17
 70
     0
102
RTVSPropertyOp18
 70
     0
102
RTVSPropertyOp19
 70
     0
102
RTVSPropertyOp20
 70
     0
102
RTVSPropertyOp21
 70
     0
102
RTVSPropertyOp22
 70
     0
102
RTVSPropertyOp23
 70
     0
102
RTVSPropertyOp24
 70
     0
102
RTVSPropertyOp25
 70
     0
102
RTVSPropertyOp26
 70
     0
102
RTVSPropertyOp27
 70
     0
102
RTVSPropertyOp28
 70
     1
102
RTVSPropertyOp29
 70
     1
102
RTVSPropertyOp30
 70
     1
102
RTVSPropertyOp31
 70
     1
102
RTVSPropertyOp32
 70
     1
102
RTVSPropertyOp33
 70
     1
102
RTVSPropertyOp34
 70
     1
102
RTVSPropertyOp35
 70
     1
102
RTVSPropertyOp36
 70
     1
102
RTVSPropertyOp37
 70
     1
102
RTVSPropertyOp38
 70
     1
102
RTVSPropertyOp39
 70
     1
102
RTVSPropertyOp40
 70
     1
102
RTVSPropertyOp41
 70
     1
102
RTVSPropertyOp42
 70
     1
102
RTVSPropertyOp43
 70
     1
102
RTVSPropertyOp44
 70
     1
102
RTVSPropertyOp45
 70
     1
102
RTVSPropertyOp46
 70
     1
102
RTVSPropertyOp47
 70
     1
102
RTVSPropertyOp48
 70
     1
102
RTVSPropertyOp49
 70
     1
102
RTVSPropertyOp50
 70
     1
102
RTVSPropertyOp51
 70
     0
102
RTVSPropertyOp52
 70
     0
102
RTVSPropertyOp53
 70
     1
102
RTVSPropertyOp54
 70
     1
102
RTVSPropertyOp55
 70
     1
102
RTVSPropertyOp56
 70
     1
102
RTVSPropertyOp57
 70
     1
102
RTVSPropertyOp58
 70
     1
102
RTVSPropertyOp59
 70
     1
102
RTVSPropertyOp60
 70
     1
102
RTVSPropertyOp61
 70
     1
102
RTVSPropertyOp62
 70
     1
  0
XRECORD
  5
17A5
102
{ACAD_REACTORS
330
17A4
102
}
330
17A4
100
AcDbXrecord
280
     1
102
RTVSPost2010Prop28
280
     0
102
RTVSPost2010PropOp28
 70
     1
102
RTVSPost2010Prop29
280
     1
102
RTVSPost2010PropOp29
 70
     1
102
RTVSPost2010Prop30
280
     1
102
RTVSPost2010PropOp30
 70
     1
102
RTVSPost2010Prop31
280
     0
102
RTVSPost2010PropOp31
 70
     1
102
RTVSPost2010Prop32
280
     0
102
RTVSPost2010PropOp32
 70
     1
102
RTVSPost2010Prop33
280
     0
102
RTVSPost2010PropOp33
 70
     1
102
RTVSPost2010Prop34
280
     0
102
RTVSPost2010PropOp34
 70
     1
102
RTVSPost2010Prop35
280
     0
102
RTVSPost2010PropOp35
 70
     1
102
RTVSPost2010Prop36
280
     0
102
RTVSPost2010PropOp36
 70
     1
102
RTVSPost2010Prop37
 90
       50
102
RTVSPost2010PropOp37
 70
     1
102
RTVSPost2010Prop38
140
0.0
102
RTVSPost2010PropOp38
 70
     1
102
RTVSPost2010Prop39
140
1.0
102
RTVSPost2010PropOp39
 70
     1
102
RTVSPost2010Prop40
 90
        0
102
RTVSPost2010PropOp40
 70
     1
102
RTVSPost2010Prop41ColorIndex
 90
       18
102
RTVSPost2010Prop41ColorRGB
 90
        0
102
RTVSPost2010PropOp41
 70
     1
102
RTVSPost2010Prop42
 90
       50
102
RTVSPost2010PropOp42
 70
     1
102
RTVSPost2010Prop43
 90
        3
102
RTVSPost2010PropOp43
 70
     1
102
RTVSPost2010Prop44ColorIndex
 90
        5
102
RTVSPost2010Prop44ColorRGB
 90
      255
102
RTVSPost2010PropOp44
 70
     1
102
RTVSPost2010Prop45
280
     0
102
RTVSPost2010PropOp45
 70
     1
102
RTVSPost2010Prop46
 90
       50
102
RTVSPost2010PropOp46
 70
     1
102
RTVSPost2010Prop47
 90
       50
102
RTVSPost2010PropOp47
 70
     1
102
RTVSPost2010Prop48
 90
       50
102
RTVSPost2010PropOp48
 70
     1
102
RTVSPost2010Prop49
280
     0
102
RTVSPost2010PropOp49
 70
     1
102
RTVSPost2010Prop50
 90
       50
102
RTVSPost2010PropOp50
 70
     1
102
RTVSPost2010Prop51ColorIndex
 90
      256
102
RTVSPost2010Prop51ColorRGB
 90
-16777216
102
RTVSPost2010PropOp51
 70
     0
102
RTVSPost2010Prop52
140
1.0
102
RTVSPost2010PropOp52
 70
     0
102
RTVSPost2010Prop53
 90
        2
102
RTVSPost2010PropOp53
 70
     1
102
RTVSPost2010Prop54
  1
strokes_ogs.tif
102
RTVSPost2010PropOp54
 70
     1
102
RTVSPost2010Prop55
280
     0
102
RTVSPost2010PropOp55
 70
     1
102
RTVSPost2010Prop56
140
1.0
102
RTVSPost2010PropOp56
 70
     1
102
RTVSPost2010Prop57
140
1.0
102
RTVSPost2010PropOp57
 70
     1
102
RTVSPropertyOp0
 70
     1
102
RTVSPropertyOp1
 70
     1
102
RTVSPropertyOp2
 70
     1
102
RTVSPropertyOp3
 70
     1
102
RTVSPropertyOp4
 70
     1
102
RTVSPropertyOp5
 70
     1
102
RTVSPropertyOp6
 70
     1
102
RTVSPropertyOp7
 70
     1
102
RTVSPropertyOp8
 70
     1
102
RTVSPropertyOp9
 70
     1
102
RTVSPropertyOp10
 70
     1
102
RTVSPropertyOp11
 70
     1
102
RTVSPropertyOp12
 70
     1
102
RTVSPropertyOp13
 70
     1
102
RTVSPropertyOp14
 70
     1
102
RTVSPropertyOp15
 70
     1
102
RTVSPropertyOp16
 70
     1
102
RTVSPropertyOp17
 70
     1
102
RTVSPropertyOp18
 70
     1
102
RTVSPropertyOp19
 70
     1
102
RTVSPropertyOp20
 70
     1
102
RTVSPropertyOp21
 70
     1
102
RTVSPropertyOp22
 70
     1
102
RTVSPropertyOp23
 70
     1
102
RTVSPropertyOp24
 70
     1
102
RTVSPropertyOp25
 70
     1
102
RTVSPropertyOp26
 70
     1
102
RTVSPropertyOp27
 70
     1
102
RTVSPropertyOp28
 70
     1
102
RTVSPropertyOp29
 70
     1
102
RTVSPropertyOp30
 70
     1
102
RTVSPropertyOp31
 70
     1
102
RTVSPropertyOp32
 70
     1
102
RTVSPropertyOp33
 70
     1
102
RTVSPropertyOp34
 70
     1
102
RTVSPropertyOp35
 70
     1
102
RTVSPropertyOp36
 70
     1
102
RTVSPropertyOp37
 70
     1
102
RTVSPropertyOp38
 70
     1
102
RTVSPropertyOp39
 70
     1
102
RTVSPropertyOp40
 70
     1
102
RTVSPropertyOp41
 70
     1
102
RTVSPropertyOp42
 70
     1
102
RTVSPropertyOp43
 70
     1
102
RTVSPropertyOp44
 70
     1
102
RTVSPropertyOp45
 70
     1
102
RTVSPropertyOp46
 70
     1
102
RTVSPropertyOp47
 70
     1
102
RTVSPropertyOp48
 70
     1
102
RTVSPropertyOp49
 70
     1
102
RTVSPropertyOp50
 70
     1
102
RTVSPropertyOp51
 70
     0
102
RTVSPropertyOp52
 70
     0
102
RTVSPropertyOp53
 70
     1
102
RTVSPropertyOp54
 70
     1
102
RTVSPropertyOp55
 70
     1
102
RTVSPropertyOp56
 70
     1
102
RTVSPropertyOp57
 70
     1
102
RTVSPropertyOp58
 70
     1
102
RTVSPropertyOp59
 70
     1
102
RTVSPropertyOp60
 70
     1
102
RTVSPropertyOp61
 70
     1
102
RTVSPropertyOp62
 70
     1
  0
XRECORD
  5
17AD
102
{ACAD_REACTORS
330
17AC
102
}
330
17AC
100
AcDbXrecord
280
     1
102
RTVSPost2010Prop28
280
     0
102
RTVSPost2010PropOp28
 70
     1
102
RTVSPost2010Prop29
280
     1
102
RTVSPost2010PropOp29
 70
     1
102
RTVSPost2010Prop30
280
     1
102
RTVSPost2010PropOp30
 70
     1
102
RTVSPost2010Prop31
280
     0
102
RTVSPost2010PropOp31
 70
     1
102
RTVSPost2010Prop32
280
     0
102
RTVSPost2010PropOp32
 70
     1
102
RTVSPost2010Prop33
280
     0
102
RTVSPost2010PropOp33
 70
     1
102
RTVSPost2010Prop34
280
     0
102
RTVSPost2010PropOp34
 70
     1
102
RTVSPost2010Prop35
280
     0
102
RTVSPost2010PropOp35
 70
     1
102
RTVSPost2010Prop36
280
     0
102
RTVSPost2010PropOp36
 70
     1
102
RTVSPost2010Prop37
 90
       50
102
RTVSPost2010PropOp37
 70
     1
102
RTVSPost2010Prop38
140
0.0
102
RTVSPost2010PropOp38
 70
     1
102
RTVSPost2010Prop39
140
1.0
102
RTVSPost2010PropOp39
 70
     1
102
RTVSPost2010Prop40
 90
        0
102
RTVSPost2010PropOp40
 70
     1
102
RTVSPost2010Prop41ColorIndex
 90
       18
102
RTVSPost2010Prop41ColorRGB
 90
        0
102
RTVSPost2010PropOp41
 70
     1
102
RTVSPost2010Prop42
 90
       50
102
RTVSPost2010PropOp42
 70
     1
102
RTVSPost2010Prop43
 90
        3
102
RTVSPost2010PropOp43
 70
     1
102
RTVSPost2010Prop44ColorIndex
 90
        5
102
RTVSPost2010Prop44ColorRGB
 90
      255
102
RTVSPost2010PropOp44
 70
     1
102
RTVSPost2010Prop45
280
     0
102
RTVSPost2010PropOp45
 70
     1
102
RTVSPost2010Prop46
 90
       50
102
RTVSPost2010PropOp46
 70
     1
102
RTVSPost2010Prop47
 90
       50
102
RTVSPost2010PropOp47
 70
     1
102
RTVSPost2010Prop48
 90
       50
102
RTVSPost2010PropOp48
 70
     1
102
RTVSPost2010Prop49
280
     0
102
RTVSPost2010PropOp49
 70
     1
102
RTVSPost2010Prop50
 90
       50
102
RTVSPost2010PropOp50
 70
     1
102
RTVSPost2010Prop51ColorIndex
 90
      256
102
RTVSPost2010Prop51ColorRGB
 90
-16777216
102
RTVSPost2010PropOp51
 70
     0
102
RTVSPost2010Prop52
140
1.0
102
RTVSPost2010PropOp52
 70
     0
102
RTVSPost2010Prop53
 90
        2
102
RTVSPost2010PropOp53
 70
     1
102
RTVSPost2010Prop54
  1
strokes_ogs.tif
102
RTVSPost2010PropOp54
 70
     1
102
RTVSPost2010Prop55
280
     0
102
RTVSPost2010PropOp55
 70
     1
102
RTVSPost2010Prop56
140
1.0
102
RTVSPost2010PropOp56
 70
     1
102
RTVSPost2010Prop57
140
1.0
102
RTVSPost2010PropOp57
 70
     1
102
RTVSPropertyOp0
 70
     0
102
RTVSPropertyOp1
 70
     0
102
RTVSPropertyOp2
 70
     0
102
RTVSPropertyOp3
 70
     0
102
RTVSPropertyOp4
 70
     0
102
RTVSPropertyOp5
 70
     0
102
RTVSPropertyOp6
 70
     0
102
RTVSPropertyOp7
 70
     0
102
RTVSPropertyOp8
 70
     0
102
RTVSPropertyOp9
 70
     0
102
RTVSPropertyOp10
 70
     0
102
RTVSPropertyOp11
 70
     0
102
RTVSPropertyOp12
 70
     0
102
RTVSPropertyOp13
 70
     0
102
RTVSPropertyOp14
 70
     2
102
RTVSPropertyOp15
 70
     0
102
RTVSPropertyOp16
 70
     0
102
RTVSPropertyOp17
 70
     0
102
RTVSPropertyOp18
 70
     0
102
RTVSPropertyOp19
 70
     0
102
RTVSPropertyOp20
 70
     0
102
RTVSPropertyOp21
 70
     0
102
RTVSPropertyOp22
 70
     0
102
RTVSPropertyOp23
 70
     0
102
RTVSPropertyOp24
 70
     0
102
RTVSPropertyOp25
 70
     0
102
RTVSPropertyOp26
 70
     0
102
RTVSPropertyOp27
 70
     0
102
RTVSPropertyOp28
 70
     1
102
RTVSPropertyOp29
 70
     1
102
RTVSPropertyOp30
 70
     1
102
RTVSPropertyOp31
 70
     1
102
RTVSPropertyOp32
 70
     1
102
RTVSPropertyOp33
 70
     1
102
RTVSPropertyOp34
 70
     1
102
RTVSPropertyOp35
 70
     1
102
RTVSPropertyOp36
 70
     1
102
RTVSPropertyOp37
 70
     1
102
RTVSPropertyOp38
 70
     1
102
RTVSPropertyOp39
 70
     1
102
RTVSPropertyOp40
 70
     1
102
RTVSPropertyOp41
 70
     1
102
RTVSPropertyOp42
 70
     1
102
RTVSPropertyOp43
 70
     1
102
RTVSPropertyOp44
 70
     1
102
RTVSPropertyOp45
 70
     1
102
RTVSPropertyOp46
 70
     1
102
RTVSPropertyOp47
 70
     1
102
RTVSPropertyOp48
 70
     1
102
RTVSPropertyOp49
 70
     1
102
RTVSPropertyOp50
 70
     1
102
RTVSPropertyOp51
 70
     0
102
RTVSPropertyOp52
 70
     0
102
RTVSPropertyOp53
 70
     1
102
RTVSPropertyOp54
 70
     1
102
RTVSPropertyOp55
 70
     1
102
RTVSPropertyOp56
 70
     1
102
RTVSPropertyOp57
 70
     1
102
RTVSPropertyOp58
 70
     1
102
RTVSPropertyOp59
 70
     1
102
RTVSPropertyOp60
 70
     1
102
RTVSPropertyOp61
 70
     1
102
RTVSPropertyOp62
 70
     1
  0
XRECORD
  5
179D
102
{ACAD_REACTORS
330
179C
102
}
330
179C
100
AcDbXrecord
280
     1
102
RTVSPost2010Prop28
280
     0
102
RTVSPost2010PropOp28
 70
     1
102
RTVSPost2010Prop29
280
     1
102
RTVSPost2010PropOp29
 70
     1
102
RTVSPost2010Prop30
280
     1
102
RTVSPost2010PropOp30
 70
     1
102
RTVSPost2010Prop31
280
     0
102
RTVSPost2010PropOp31
 70
     1
102
RTVSPost2010Prop32
280
     0
102
RTVSPost2010PropOp32
 70
     1
102
RTVSPost2010Prop33
280
     0
102
RTVSPost2010PropOp33
 70
     1
102
RTVSPost2010Prop34
280
     0
102
RTVSPost2010PropOp34
 70
     1
102
RTVSPost2010Prop35
280
     0
102
RTVSPost2010PropOp35
 70
     1
102
RTVSPost2010Prop36
280
     0
102
RTVSPost2010PropOp36
 70
     1
102
RTVSPost2010Prop37
 90
       50
102
RTVSPost2010PropOp37
 70
     1
102
RTVSPost2010Prop38
140
0.0
102
RTVSPost2010PropOp38
 70
     1
102
RTVSPost2010Prop39
140
1.0
102
RTVSPost2010PropOp39
 70
     1
102
RTVSPost2010Prop40
 90
        0
102
RTVSPost2010PropOp40
 70
     1
102
RTVSPost2010Prop41ColorIndex
 90
       18
102
RTVSPost2010Prop41ColorRGB
 90
        0
102
RTVSPost2010PropOp41
 70
     1
102
RTVSPost2010Prop42
 90
       50
102
RTVSPost2010PropOp42
 70
     1
102
RTVSPost2010Prop43
 90
        3
102
RTVSPost2010PropOp43
 70
     1
102
RTVSPost2010Prop44ColorIndex
 90
        5
102
RTVSPost2010Prop44ColorRGB
 90
      255
102
RTVSPost2010PropOp44
 70
     1
102
RTVSPost2010Prop45
280
     0
102
RTVSPost2010PropOp45
 70
     1
102
RTVSPost2010Prop46
 90
       50
102
RTVSPost2010PropOp46
 70
     1
102
RTVSPost2010Prop47
 90
       50
102
RTVSPost2010PropOp47
 70
     1
102
RTVSPost2010Prop48
 90
       50
102
RTVSPost2010PropOp48
 70
     1
102
RTVSPost2010Prop49
280
     0
102
RTVSPost2010PropOp49
 70
     1
102
RTVSPost2010Prop50
 90
       50
102
RTVSPost2010PropOp50
 70
     1
102
RTVSPost2010Prop51ColorIndex
 90
      256
102
RTVSPost2010Prop51ColorRGB
 90
-16777216
102
RTVSPost2010PropOp51
 70
     0
102
RTVSPost2010Prop52
140
1.0
102
RTVSPost2010PropOp52
 70
     0
102
RTVSPost2010Prop53
 90
        2
102
RTVSPost2010PropOp53
 70
     1
102
RTVSPost2010Prop54
  1
strokes_ogs.tif
102
RTVSPost2010PropOp54
 70
     1
102
RTVSPost2010Prop55
280
     0
102
RTVSPost2010PropOp55
 70
     1
102
RTVSPost2010Prop56
140
1.0
102
RTVSPost2010PropOp56
 70
     1
102
RTVSPost2010Prop57
140
1.0
102
RTVSPost2010PropOp57
 70
     1
102
RTVSPropertyOp0
 70
     1
102
RTVSPropertyOp1
 70
     1
102
RTVSPropertyOp2
 70
     1
102
RTVSPropertyOp3
 70
     1
102
RTVSPropertyOp4
 70
     1
102
RTVSPropertyOp5
 70
     1
102
RTVSPropertyOp6
 70
     1
102
RTVSPropertyOp7
 70
     1
102
RTVSPropertyOp8
 70
     1
102
RTVSPropertyOp9
 70
     1
102
RTVSPropertyOp10
 70
     1
102
RTVSPropertyOp11
 70
     1
102
RTVSPropertyOp12
 70
     1
102
RTVSPropertyOp13
 70
     1
102
RTVSPropertyOp14
 70
     1
102
RTVSPropertyOp15
 70
     1
102
RTVSPropertyOp16
 70
     1
102
RTVSPropertyOp17
 70
     1
102
RTVSPropertyOp18
 70
     1
102
RTVSPropertyOp19
 70
     1
102
RTVSPropertyOp20
 70
     1
102
RTVSPropertyOp21
 70
     1
102
RTVSPropertyOp22
 70
     1
102
RTVSPropertyOp23
 70
     1
102
RTVSPropertyOp24
 70
     1
102
RTVSPropertyOp25
 70
     1
102
RTVSPropertyOp26
 70
     1
102
RTVSPropertyOp27
 70
     1
102
RTVSPropertyOp28
 70
     1
102
RTVSPropertyOp29
 70
     1
102
RTVSPropertyOp30
 70
     1
102
RTVSPropertyOp31
 70
     1
102
RTVSPropertyOp32
 70
     1
102
RTVSPropertyOp33
 70
     1
102
RTVSPropertyOp34
 70
     1
102
RTVSPropertyOp35
 70
     1
102
RTVSPropertyOp36
 70
     1
102
RTVSPropertyOp37
 70
     1
102
RTVSPropertyOp38
 70
     1
102
RTVSPropertyOp39
 70
     1
102
RTVSPropertyOp40
 70
     1
102
RTVSPropertyOp41
 70
     1
102
RTVSPropertyOp42
 70
     1
102
RTVSPropertyOp43
 70
     1
102
RTVSPropertyOp44
 70
     1
102
RTVSPropertyOp45
 70
     1
102
RTVSPropertyOp46
 70
     1
102
RTVSPropertyOp47
 70
     1
102
RTVSPropertyOp48
 70
     1
102
RTVSPropertyOp49
 70
     1
102
RTVSPropertyOp50
 70
     1
102
RTVSPropertyOp51
 70
     0
102
RTVSPropertyOp52
 70
     0
102
RTVSPropertyOp53
 70
     1
102
RTVSPropertyOp54
 70
     1
102
RTVSPropertyOp55
 70
     1
102
RTVSPropertyOp56
 70
     1
102
RTVSPropertyOp57
 70
     1
102
RTVSPropertyOp58
 70
     1
102
RTVSPropertyOp59
 70
     1
102
RTVSPropertyOp60
 70
     1
102
RTVSPropertyOp61
 70
     1
102
RTVSPropertyOp62
 70
     1
  0
XRECORD
  5
17BE
102
{ACAD_REACTORS
330
17BD
102
}
330
17BD
100
AcDbXrecord
280
     1
102
RTVSPost2010Prop28
280
     0
102
RTVSPost2010PropOp28
 70
     1
102
RTVSPost2010Prop29
280
     1
102
RTVSPost2010PropOp29
 70
     1
102
RTVSPost2010Prop30
280
     1
102
RTVSPost2010PropOp30
 70
     1
102
RTVSPost2010Prop31
280
     0
102
RTVSPost2010PropOp31
 70
     1
102
RTVSPost2010Prop32
280
     0
102
RTVSPost2010PropOp32
 70
     1
102
RTVSPost2010Prop33
280
     0
102
RTVSPost2010PropOp33
 70
     1
102
RTVSPost2010Prop34
280
     0
102
RTVSPost2010PropOp34
 70
     1
102
RTVSPost2010Prop35
280
     0
102
RTVSPost2010PropOp35
 70
     1
102
RTVSPost2010Prop36
280
     0
102
RTVSPost2010PropOp36
 70
     1
102
RTVSPost2010Prop37
 90
       50
102
RTVSPost2010PropOp37
 70
     1
102
RTVSPost2010Prop38
140
0.0
102
RTVSPost2010PropOp38
 70
     1
102
RTVSPost2010Prop39
140
1.0
102
RTVSPost2010PropOp39
 70
     1
102
RTVSPost2010Prop40
 90
        0
102
RTVSPost2010PropOp40
 70
     1
102
RTVSPost2010Prop41ColorIndex
 90
       18
102
RTVSPost2010Prop41ColorRGB
 90
        0
102
RTVSPost2010PropOp41
 70
     1
102
RTVSPost2010Prop42
 90
       50
102
RTVSPost2010PropOp42
 70
     1
102
RTVSPost2010Prop43
 90
        3
102
RTVSPost2010PropOp43
 70
     1
102
RTVSPost2010Prop44ColorIndex
 90
        5
102
RTVSPost2010Prop44ColorRGB
 90
      255
102
RTVSPost2010PropOp44
 70
     1
102
RTVSPost2010Prop45
280
     0
102
RTVSPost2010PropOp45
 70
     1
102
RTVSPost2010Prop46
 90
       50
102
RTVSPost2010PropOp46
 70
     1
102
RTVSPost2010Prop47
 90
       50
102
RTVSPost2010PropOp47
 70
     1
102
RTVSPost2010Prop48
 90
       50
102
RTVSPost2010PropOp48
 70
     1
102
RTVSPost2010Prop49
280
     0
102
RTVSPost2010PropOp49
 70
     1
102
RTVSPost2010Prop50
 90
       50
102
RTVSPost2010PropOp50
 70
     1
102
RTVSPost2010Prop51ColorIndex
 90
      256
102
RTVSPost2010Prop51ColorRGB
 90
-16777216
102
RTVSPost2010PropOp51
 70
     0
102
RTVSPost2010Prop52
140
1.0
102
RTVSPost2010PropOp52
 70
     0
102
RTVSPost2010Prop53
 90
        2
102
RTVSPost2010PropOp53
 70
     1
102
RTVSPost2010Prop54
  1
strokes_ogs.tif
102
RTVSPost2010PropOp54
 70
     1
102
RTVSPost2010Prop55
280
     0
102
RTVSPost2010PropOp55
 70
     1
102
RTVSPost2010Prop56
140
1.0
102
RTVSPost2010PropOp56
 70
     1
102
RTVSPost2010Prop57
140
1.0
102
RTVSPost2010PropOp57
 70
     1
102
RTVSPropertyOp0
 70
     1
102
RTVSPropertyOp1
 70
     1
102
RTVSPropertyOp2
 70
     1
102
RTVSPropertyOp3
 70
     1
102
RTVSPropertyOp4
 70
     1
102
RTVSPropertyOp5
 70
     1
102
RTVSPropertyOp6
 70
     1
102
RTVSPropertyOp7
 70
     1
102
RTVSPropertyOp8
 70
     1
102
RTVSPropertyOp9
 70
     1
102
RTVSPropertyOp10
 70
     1
102
RTVSPropertyOp11
 70
     1
102
RTVSPropertyOp12
 70
     1
102
RTVSPropertyOp13
 70
     1
102
RTVSPropertyOp14
 70
     1
102
RTVSPropertyOp15
 70
     1
102
RTVSPropertyOp16
 70
     1
102
RTVSPropertyOp17
 70
     1
102
RTVSPropertyOp18
 70
     1
102
RTVSPropertyOp19
 70
     1
102
RTVSPropertyOp20
 70
     1
102
RTVSPropertyOp21
 70
     1
102
RTVSPropertyOp22
 70
     1
102
RTVSPropertyOp23
 70
     1
102
RTVSPropertyOp24
 70
     1
102
RTVSPropertyOp25
 70
     1
102
RTVSPropertyOp26
 70
     1
102
RTVSPropertyOp27
 70
     1
102
RTVSPropertyOp28
 70
     1
102
RTVSPropertyOp29
 70
     1
102
RTVSPropertyOp30
 70
     1
102
RTVSPropertyOp31
 70
     1
102
RTVSPropertyOp32
 70
     1
102
RTVSPropertyOp33
 70
     1
102
RTVSPropertyOp34
 70
     1
102
RTVSPropertyOp35
 70
     1
102
RTVSPropertyOp36
 70
     1
102
RTVSPropertyOp37
 70
     1
102
RTVSPropertyOp38
 70
     1
102
RTVSPropertyOp39
 70
     1
102
RTVSPropertyOp40
 70
     1
102
RTVSPropertyOp41
 70
     1
102
RTVSPropertyOp42
 70
     1
102
RTVSPropertyOp43
 70
     1
102
RTVSPropertyOp44
 70
     1
102
RTVSPropertyOp45
 70
     1
102
RTVSPropertyOp46
 70
     1
102
RTVSPropertyOp47
 70
     1
102
RTVSPropertyOp48
 70
     1
102
RTVSPropertyOp49
 70
     1
102
RTVSPropertyOp50
 70
     1
102
RTVSPropertyOp51
 70
     0
102
RTVSPropertyOp52
 70
     0
102
RTVSPropertyOp53
 70
     1
102
RTVSPropertyOp54
 70
     1
102
RTVSPropertyOp55
 70
     1
102
RTVSPropertyOp56
 70
     1
102
RTVSPropertyOp57
 70
     1
102
RTVSPropertyOp58
 70
     1
102
RTVSPropertyOp59
 70
     1
102
RTVSPropertyOp60
 70
     1
102
RTVSPropertyOp61
 70
     1
102
RTVSPropertyOp62
 70
     1
  0
XRECORD
  5
17BC
102
{ACAD_REACTORS
330
17BB
102
}
330
17BB
100
AcDbXrecord
280
     1
102
RTVSPost2010Prop28
280
     0
102
RTVSPost2010PropOp28
 70
     1
102
RTVSPost2010Prop29
280
     1
102
RTVSPost2010PropOp29
 70
     1
102
RTVSPost2010Prop30
280
     1
102
RTVSPost2010PropOp30
 70
     1
102
RTVSPost2010Prop31
280
     0
102
RTVSPost2010PropOp31
 70
     1
102
RTVSPost2010Prop32
280
     0
102
RTVSPost2010PropOp32
 70
     1
102
RTVSPost2010Prop33
280
     0
102
RTVSPost2010PropOp33
 70
     1
102
RTVSPost2010Prop34
280
     0
102
RTVSPost2010PropOp34
 70
     1
102
RTVSPost2010Prop35
280
     0
102
RTVSPost2010PropOp35
 70
     1
102
RTVSPost2010Prop36
280
     0
102
RTVSPost2010PropOp36
 70
     1
102
RTVSPost2010Prop37
 90
       50
102
RTVSPost2010PropOp37
 70
     1
102
RTVSPost2010Prop38
140
0.0
102
RTVSPost2010PropOp38
 70
     1
102
RTVSPost2010Prop39
140
1.0
102
RTVSPost2010PropOp39
 70
     1
102
RTVSPost2010Prop40
 90
        0
102
RTVSPost2010PropOp40
 70
     1
102
RTVSPost2010Prop41ColorIndex
 90
       18
102
RTVSPost2010Prop41ColorRGB
 90
        0
102
RTVSPost2010PropOp41
 70
     1
102
RTVSPost2010Prop42
 90
       50
102
RTVSPost2010PropOp42
 70
     1
102
RTVSPost2010Prop43
 90
        3
102
RTVSPost2010PropOp43
 70
     1
102
RTVSPost2010Prop44ColorIndex
 90
        5
102
RTVSPost2010Prop44ColorRGB
 90
      255
102
RTVSPost2010PropOp44
 70
     1
102
RTVSPost2010Prop45
280
     0
102
RTVSPost2010PropOp45
 70
     1
102
RTVSPost2010Prop46
 90
       50
102
RTVSPost2010PropOp46
 70
     1
102
RTVSPost2010Prop47
 90
       50
102
RTVSPost2010PropOp47
 70
     1
102
RTVSPost2010Prop48
 90
       50
102
RTVSPost2010PropOp48
 70
     1
102
RTVSPost2010Prop49
280
     0
102
RTVSPost2010PropOp49
 70
     1
102
RTVSPost2010Prop50
 90
       50
102
RTVSPost2010PropOp50
 70
     1
102
RTVSPost2010Prop51ColorIndex
 90
      256
102
RTVSPost2010Prop51ColorRGB
 90
-16777216
102
RTVSPost2010PropOp51
 70
     0
102
RTVSPost2010Prop52
140
1.0
102
RTVSPost2010PropOp52
 70
     0
102
RTVSPost2010Prop53
 90
        2
102
RTVSPost2010PropOp53
 70
     1
102
RTVSPost2010Prop54
  1
strokes_ogs.tif
102
RTVSPost2010PropOp54
 70
     1
102
RTVSPost2010Prop55
280
     0
102
RTVSPost2010PropOp55
 70
     1
102
RTVSPost2010Prop56
140
1.0
102
RTVSPost2010PropOp56
 70
     1
102
RTVSPost2010Prop57
140
1.0
102
RTVSPost2010PropOp57
 70
     1
102
RTVSPropertyOp0
 70
     1
102
RTVSPropertyOp1
 70
     1
102
RTVSPropertyOp2
 70
     1
102
RTVSPropertyOp3
 70
     1
102
RTVSPropertyOp4
 70
     1
102
RTVSPropertyOp5
 70
     1
102
RTVSPropertyOp6
 70
     1
102
RTVSPropertyOp7
 70
     1
102
RTVSPropertyOp8
 70
     1
102
RTVSPropertyOp9
 70
     1
102
RTVSPropertyOp10
 70
     1
102
RTVSPropertyOp11
 70
     1
102
RTVSPropertyOp12
 70
     1
102
RTVSPropertyOp13
 70
     1
102
RTVSPropertyOp14
 70
     1
102
RTVSPropertyOp15
 70
     1
102
RTVSPropertyOp16
 70
     1
102
RTVSPropertyOp17
 70
     1
102
RTVSPropertyOp18
 70
     1
102
RTVSPropertyOp19
 70
     1
102
RTVSPropertyOp20
 70
     1
102
RTVSPropertyOp21
 70
     1
102
RTVSPropertyOp22
 70
     1
102
RTVSPropertyOp23
 70
     1
102
RTVSPropertyOp24
 70
     1
102
RTVSPropertyOp25
 70
     1
102
RTVSPropertyOp26
 70
     1
102
RTVSPropertyOp27
 70
     1
102
RTVSPropertyOp28
 70
     1
102
RTVSPropertyOp29
 70
     1
102
RTVSPropertyOp30
 70
     1
102
RTVSPropertyOp31
 70
     1
102
RTVSPropertyOp32
 70
     1
102
RTVSPropertyOp33
 70
     1
102
RTVSPropertyOp34
 70
     1
102
RTVSPropertyOp35
 70
     1
102
RTVSPropertyOp36
 70
     1
102
RTVSPropertyOp37
 70
     1
102
RTVSPropertyOp38
 70
     1
102
RTVSPropertyOp39
 70
     1
102
RTVSPropertyOp40
 70
     1
102
RTVSPropertyOp41
 70
     1
102
RTVSPropertyOp42
 70
     1
102
RTVSPropertyOp43
 70
     1
102
RTVSPropertyOp44
 70
     1
102
RTVSPropertyOp45
 70
     1
102
RTVSPropertyOp46
 70
     1
102
RTVSPropertyOp47
 70
     1
102
RTVSPropertyOp48
 70
     1
102
RTVSPropertyOp49
 70
     1
102
RTVSPropertyOp50
 70
     1
102
RTVSPropertyOp51
 70
     0
102
RTVSPropertyOp52
 70
     0
102
RTVSPropertyOp53
 70
     1
102
RTVSPropertyOp54
 70
     1
102
RTVSPropertyOp55
 70
     1
102
RTVSPropertyOp56
 70
     1
102
RTVSPropertyOp57
 70
     1
102
RTVSPropertyOp58
 70
     1
102
RTVSPropertyOp59
 70
     1
102
RTVSPropertyOp60
 70
     1
102
RTVSPropertyOp61
 70
     1
102
RTVSPropertyOp62
 70
     1
  0
XRECORD
  5
17B6
102
{ACAD_REACTORS
330
17B5
102
}
330
17B5
100
AcDbXrecord
280
     1
102
RTVSPost2010Prop28
280
     0
102
RTVSPost2010PropOp28
 70
     1
102
RTVSPost2010Prop29
280
     1
102
RTVSPost2010PropOp29
 70
     1
102
RTVSPost2010Prop30
280
     1
102
RTVSPost2010PropOp30
 70
     1
102
RTVSPost2010Prop31
280
     0
102
RTVSPost2010PropOp31
 70
     1
102
RTVSPost2010Prop32
280
     0
102
RTVSPost2010PropOp32
 70
     1
102
RTVSPost2010Prop33
280
     0
102
RTVSPost2010PropOp33
 70
     1
102
RTVSPost2010Prop34
280
     0
102
RTVSPost2010PropOp34
 70
     1
102
RTVSPost2010Prop35
280
     0
102
RTVSPost2010PropOp35
 70
     1
102
RTVSPost2010Prop36
280
     0
102
RTVSPost2010PropOp36
 70
     1
102
RTVSPost2010Prop37
 90
       50
102
RTVSPost2010PropOp37
 70
     1
102
RTVSPost2010Prop38
140
0.0
102
RTVSPost2010PropOp38
 70
     1
102
RTVSPost2010Prop39
140
1.0
102
RTVSPost2010PropOp39
 70
     1
102
RTVSPost2010Prop40
 90
        0
102
RTVSPost2010PropOp40
 70
     1
102
RTVSPost2010Prop41ColorIndex
 90
       18
102
RTVSPost2010Prop41ColorRGB
 90
        0
102
RTVSPost2010PropOp41
 70
     1
102
RTVSPost2010Prop42
 90
       50
102
RTVSPost2010PropOp42
 70
     1
102
RTVSPost2010Prop43
 90
        3
102
RTVSPost2010PropOp43
 70
     1
102
RTVSPost2010Prop44ColorIndex
 90
        5
102
RTVSPost2010Prop44ColorRGB
 90
      255
102
RTVSPost2010PropOp44
 70
     1
102
RTVSPost2010Prop45
280
     0
102
RTVSPost2010PropOp45
 70
     1
102
RTVSPost2010Prop46
 90
       50
102
RTVSPost2010PropOp46
 70
     1
102
RTVSPost2010Prop47
 90
       50
102
RTVSPost2010PropOp47
 70
     1
102
RTVSPost2010Prop48
 90
       50
102
RTVSPost2010PropOp48
 70
     1
102
RTVSPost2010Prop49
280
     0
102
RTVSPost2010PropOp49
 70
     1
102
RTVSPost2010Prop50
 90
       50
102
RTVSPost2010PropOp50
 70
     1
102
RTVSPost2010Prop51ColorIndex
 90
      256
102
RTVSPost2010Prop51ColorRGB
 90
-16777216
102
RTVSPost2010PropOp51
 70
     0
102
RTVSPost2010Prop52
140
1.0
102
RTVSPost2010PropOp52
 70
     0
102
RTVSPost2010Prop53
 90
        2
102
RTVSPost2010PropOp53
 70
     1
102
RTVSPost2010Prop54
  1
strokes_ogs.tif
102
RTVSPost2010PropOp54
 70
     1
102
RTVSPost2010Prop55
280
     0
102
RTVSPost2010PropOp55
 70
     1
102
RTVSPost2010Prop56
140
1.0
102
RTVSPost2010PropOp56
 70
     1
102
RTVSPost2010Prop57
140
1.0
102
RTVSPost2010PropOp57
 70
     1
102
RTVSPropertyOp0
 70
     1
102
RTVSPropertyOp1
 70
     1
102
RTVSPropertyOp2
 70
     1
102
RTVSPropertyOp3
 70
     1
102
RTVSPropertyOp4
 70
     1
102
RTVSPropertyOp5
 70
     1
102
RTVSPropertyOp6
 70
     1
102
RTVSPropertyOp7
 70
     1
102
RTVSPropertyOp8
 70
     1
102
RTVSPropertyOp9
 70
     1
102
RTVSPropertyOp10
 70
     1
102
RTVSPropertyOp11
 70
     1
102
RTVSPropertyOp12
 70
     1
102
RTVSPropertyOp13
 70
     1
102
RTVSPropertyOp14
 70
     1
102
RTVSPropertyOp15
 70
     1
102
RTVSPropertyOp16
 70
     1
102
RTVSPropertyOp17
 70
     1
102
RTVSPropertyOp18
 70
     1
102
RTVSPropertyOp19
 70
     1
102
RTVSPropertyOp20
 70
     1
102
RTVSPropertyOp21
 70
     1
102
RTVSPropertyOp22
 70
     1
102
RTVSPropertyOp23
 70
     1
102
RTVSPropertyOp24
 70
     1
102
RTVSPropertyOp25
 70
     1
102
RTVSPropertyOp26
 70
     1
102
RTVSPropertyOp27
 70
     1
102
RTVSPropertyOp28
 70
     1
102
RTVSPropertyOp29
 70
     1
102
RTVSPropertyOp30
 70
     1
102
RTVSPropertyOp31
 70
     1
102
RTVSPropertyOp32
 70
     1
102
RTVSPropertyOp33
 70
     1
102
RTVSPropertyOp34
 70
     1
102
RTVSPropertyOp35
 70
     1
102
RTVSPropertyOp36
 70
     1
102
RTVSPropertyOp37
 70
     1
102
RTVSPropertyOp38
 70
     1
102
RTVSPropertyOp39
 70
     1
102
RTVSPropertyOp40
 70
     1
102
RTVSPropertyOp41
 70
     1
102
RTVSPropertyOp42
 70
     1
102
RTVSPropertyOp43
 70
     1
102
RTVSPropertyOp44
 70
     1
102
RTVSPropertyOp45
 70
     1
102
RTVSPropertyOp46
 70
     1
102
RTVSPropertyOp47
 70
     1
102
RTVSPropertyOp48
 70
     1
102
RTVSPropertyOp49
 70
     1
102
RTVSPropertyOp50
 70
     1
102
RTVSPropertyOp51
 70
     0
102
RTVSPropertyOp52
 70
     0
102
RTVSPropertyOp53
 70
     1
102
RTVSPropertyOp54
 70
     1
102
RTVSPropertyOp55
 70
     1
102
RTVSPropertyOp56
 70
     1
102
RTVSPropertyOp57
 70
     1
102
RTVSPropertyOp58
 70
     1
102
RTVSPropertyOp59
 70
     1
102
RTVSPropertyOp60
 70
     1
102
RTVSPropertyOp61
 70
     1
102
RTVSPropertyOp62
 70
     1
  0
XRECORD
  5
17B8
102
{ACAD_REACTORS
330
17B7
102
}
330
17B7
100
AcDbXrecord
280
     1
102
RTVSPost2010Prop28
280
     0
102
RTVSPost2010PropOp28
 70
     1
102
RTVSPost2010Prop29
280
     1
102
RTVSPost2010PropOp29
 70
     1
102
RTVSPost2010Prop30
280
     1
102
RTVSPost2010PropOp30
 70
     1
102
RTVSPost2010Prop31
280
     0
102
RTVSPost2010PropOp31
 70
     1
102
RTVSPost2010Prop32
280
     0
102
RTVSPost2010PropOp32
 70
     1
102
RTVSPost2010Prop33
280
     0
102
RTVSPost2010PropOp33
 70
     1
102
RTVSPost2010Prop34
280
     0
102
RTVSPost2010PropOp34
 70
     1
102
RTVSPost2010Prop35
280
     0
102
RTVSPost2010PropOp35
 70
     1
102
RTVSPost2010Prop36
280
     0
102
RTVSPost2010PropOp36
 70
     1
102
RTVSPost2010Prop37
 90
       50
102
RTVSPost2010PropOp37
 70
     1
102
RTVSPost2010Prop38
140
0.0
102
RTVSPost2010PropOp38
 70
     1
102
RTVSPost2010Prop39
140
1.0
102
RTVSPost2010PropOp39
 70
     1
102
RTVSPost2010Prop40
 90
        0
102
RTVSPost2010PropOp40
 70
     1
102
RTVSPost2010Prop41ColorIndex
 90
       18
102
RTVSPost2010Prop41ColorRGB
 90
        0
102
RTVSPost2010PropOp41
 70
     1
102
RTVSPost2010Prop42
 90
       50
102
RTVSPost2010PropOp42
 70
     1
102
RTVSPost2010Prop43
 90
        3
102
RTVSPost2010PropOp43
 70
     1
102
RTVSPost2010Prop44ColorIndex
 90
        5
102
RTVSPost2010Prop44ColorRGB
 90
      255
102
RTVSPost2010PropOp44
 70
     1
102
RTVSPost2010Prop45
280
     0
102
RTVSPost2010PropOp45
 70
     1
102
RTVSPost2010Prop46
 90
       50
102
RTVSPost2010PropOp46
 70
     1
102
RTVSPost2010Prop47
 90
       50
102
RTVSPost2010PropOp47
 70
     1
102
RTVSPost2010Prop48
 90
       50
102
RTVSPost2010PropOp48
 70
     1
102
RTVSPost2010Prop49
280
     0
102
RTVSPost2010PropOp49
 70
     1
102
RTVSPost2010Prop50
 90
       50
102
RTVSPost2010PropOp50
 70
     1
102
RTVSPost2010Prop51ColorIndex
 90
      256
102
RTVSPost2010Prop51ColorRGB
 90
-16777216
102
RTVSPost2010PropOp51
 70
     0
102
RTVSPost2010Prop52
140
1.0
102
RTVSPost2010PropOp52
 70
     0
102
RTVSPost2010Prop53
 90
        2
102
RTVSPost2010PropOp53
 70
     1
102
RTVSPost2010Prop54
  1
strokes_ogs.tif
102
RTVSPost2010PropOp54
 70
     1
102
RTVSPost2010Prop55
280
     0
102
RTVSPost2010PropOp55
 70
     1
102
RTVSPost2010Prop56
140
1.0
102
RTVSPost2010PropOp56
 70
     1
102
RTVSPost2010Prop57
140
1.0
102
RTVSPost2010PropOp57
 70
     1
102
RTVSPropertyOp0
 70
     1
102
RTVSPropertyOp1
 70
     1
102
RTVSPropertyOp2
 70
     1
102
RTVSPropertyOp3
 70
     1
102
RTVSPropertyOp4
 70
     1
102
RTVSPropertyOp5
 70
     1
102
RTVSPropertyOp6
 70
     1
102
RTVSPropertyOp7
 70
     1
102
RTVSPropertyOp8
 70
     1
102
RTVSPropertyOp9
 70
     1
102
RTVSPropertyOp10
 70
     1
102
RTVSPropertyOp11
 70
     1
102
RTVSPropertyOp12
 70
     1
102
RTVSPropertyOp13
 70
     1
102
RTVSPropertyOp14
 70
     1
102
RTVSPropertyOp15
 70
     1
102
RTVSPropertyOp16
 70
     1
102
RTVSPropertyOp17
 70
     1
102
RTVSPropertyOp18
 70
     1
102
RTVSPropertyOp19
 70
     1
102
RTVSPropertyOp20
 70
     1
102
RTVSPropertyOp21
 70
     1
102
RTVSPropertyOp22
 70
     1
102
RTVSPropertyOp23
 70
     1
102
RTVSPropertyOp24
 70
     1
102
RTVSPropertyOp25
 70
     1
102
RTVSPropertyOp26
 70
     1
102
RTVSPropertyOp27
 70
     1
102
RTVSPropertyOp28
 70
     1
102
RTVSPropertyOp29
 70
     1
102
RTVSPropertyOp30
 70
     1
102
RTVSPropertyOp31
 70
     1
102
RTVSPropertyOp32
 70
     1
102
RTVSPropertyOp33
 70
     1
102
RTVSPropertyOp34
 70
     1
102
RTVSPropertyOp35
 70
     1
102
RTVSPropertyOp36
 70
     1
102
RTVSPropertyOp37
 70
     1
102
RTVSPropertyOp38
 70
     1
102
RTVSPropertyOp39
 70
     1
102
RTVSPropertyOp40
 70
     1
102
RTVSPropertyOp41
 70
     1
102
RTVSPropertyOp42
 70
     1
102
RTVSPropertyOp43
 70
     1
102
RTVSPropertyOp44
 70
     1
102
RTVSPropertyOp45
 70
     1
102
RTVSPropertyOp46
 70
     1
102
RTVSPropertyOp47
 70
     1
102
RTVSPropertyOp48
 70
     1
102
RTVSPropertyOp49
 70
     1
102
RTVSPropertyOp50
 70
     1
102
RTVSPropertyOp51
 70
     0
102
RTVSPropertyOp52
 70
     0
102
RTVSPropertyOp53
 70
     1
102
RTVSPropertyOp54
 70
     1
102
RTVSPropertyOp55
 70
     1
102
RTVSPropertyOp56
 70
     1
102
RTVSPropertyOp57
 70
     1
102
RTVSPropertyOp58
 70
     1
102
RTVSPropertyOp59
 70
     1
102
RTVSPropertyOp60
 70
     1
102
RTVSPropertyOp61
 70
     1
102
RTVSPropertyOp62
 70
     1
  0
XRECORD
  5
17A3
102
{ACAD_REACTORS
330
17A2
102
}
330
17A2
100
AcDbXrecord
280
     1
102
RTVSPost2010Prop28
280
     0
102
RTVSPost2010PropOp28
 70
     1
102
RTVSPost2010Prop29
280
     1
102
RTVSPost2010PropOp29
 70
     1
102
RTVSPost2010Prop30
280
     1
102
RTVSPost2010PropOp30
 70
     1
102
RTVSPost2010Prop31
280
     0
102
RTVSPost2010PropOp31
 70
     1
102
RTVSPost2010Prop32
280
     0
102
RTVSPost2010PropOp32
 70
     1
102
RTVSPost2010Prop33
280
     0
102
RTVSPost2010PropOp33
 70
     1
102
RTVSPost2010Prop34
280
     0
102
RTVSPost2010PropOp34
 70
     1
102
RTVSPost2010Prop35
280
     0
102
RTVSPost2010PropOp35
 70
     1
102
RTVSPost2010Prop36
280
     0
102
RTVSPost2010PropOp36
 70
     1
102
RTVSPost2010Prop37
 90
       50
102
RTVSPost2010PropOp37
 70
     1
102
RTVSPost2010Prop38
140
0.0
102
RTVSPost2010PropOp38
 70
     1
102
RTVSPost2010Prop39
140
1.0
102
RTVSPost2010PropOp39
 70
     1
102
RTVSPost2010Prop40
 90
        0
102
RTVSPost2010PropOp40
 70
     1
102
RTVSPost2010Prop41ColorIndex
 90
       18
102
RTVSPost2010Prop41ColorRGB
 90
        0
102
RTVSPost2010PropOp41
 70
     1
102
RTVSPost2010Prop42
 90
       50
102
RTVSPost2010PropOp42
 70
     1
102
RTVSPost2010Prop43
 90
        3
102
RTVSPost2010PropOp43
 70
     1
102
RTVSPost2010Prop44ColorIndex
 90
        5
102
RTVSPost2010Prop44ColorRGB
 90
      255
102
RTVSPost2010PropOp44
 70
     1
102
RTVSPost2010Prop45
280
     0
102
RTVSPost2010PropOp45
 70
     1
102
RTVSPost2010Prop46
 90
       50
102
RTVSPost2010PropOp46
 70
     1
102
RTVSPost2010Prop47
 90
       50
102
RTVSPost2010PropOp47
 70
     1
102
RTVSPost2010Prop48
 90
       50
102
RTVSPost2010PropOp48
 70
     1
102
RTVSPost2010Prop49
280
     0
102
RTVSPost2010PropOp49
 70
     1
102
RTVSPost2010Prop50
 90
       50
102
RTVSPost2010PropOp50
 70
     1
102
RTVSPost2010Prop51ColorIndex
 90
      256
102
RTVSPost2010Prop51ColorRGB
 90
-16777216
102
RTVSPost2010PropOp51
 70
     0
102
RTVSPost2010Prop52
140
1.0
102
RTVSPost2010PropOp52
 70
     0
102
RTVSPost2010Prop53
 90
        2
102
RTVSPost2010PropOp53
 70
     1
102
RTVSPost2010Prop54
  1
strokes_ogs.tif
102
RTVSPost2010PropOp54
 70
     1
102
RTVSPost2010Prop55
280
     0
102
RTVSPost2010PropOp55
 70
     1
102
RTVSPost2010Prop56
140
1.0
102
RTVSPost2010PropOp56
 70
     1
102
RTVSPost2010Prop57
140
1.0
102
RTVSPost2010PropOp57
 70
     1
102
RTVSPropertyOp0
 70
     1
102
RTVSPropertyOp1
 70
     1
102
RTVSPropertyOp2
 70
     1
102
RTVSPropertyOp3
 70
     1
102
RTVSPropertyOp4
 70
     1
102
RTVSPropertyOp5
 70
     1
102
RTVSPropertyOp6
 70
     1
102
RTVSPropertyOp7
 70
     1
102
RTVSPropertyOp8
 70
     1
102
RTVSPropertyOp9
 70
     1
102
RTVSPropertyOp10
 70
     1
102
RTVSPropertyOp11
 70
     1
102
RTVSPropertyOp12
 70
     1
102
RTVSPropertyOp13
 70
     1
102
RTVSPropertyOp14
 70
     1
102
RTVSPropertyOp15
 70
     1
102
RTVSPropertyOp16
 70
     1
102
RTVSPropertyOp17
 70
     1
102
RTVSPropertyOp18
 70
     1
102
RTVSPropertyOp19
 70
     1
102
RTVSPropertyOp20
 70
     1
102
RTVSPropertyOp21
 70
     1
102
RTVSPropertyOp22
 70
     1
102
RTVSPropertyOp23
 70
     1
102
RTVSPropertyOp24
 70
     1
102
RTVSPropertyOp25
 70
     1
102
RTVSPropertyOp26
 70
     1
102
RTVSPropertyOp27
 70
     1
102
RTVSPropertyOp28
 70
     1
102
RTVSPropertyOp29
 70
     1
102
RTVSPropertyOp30
 70
     1
102
RTVSPropertyOp31
 70
     1
102
RTVSPropertyOp32
 70
     1
102
RTVSPropertyOp33
 70
     1
102
RTVSPropertyOp34
 70
     1
102
RTVSPropertyOp35
 70
     1
102
RTVSPropertyOp36
 70
     1
102
RTVSPropertyOp37
 70
     1
102
RTVSPropertyOp38
 70
     1
102
RTVSPropertyOp39
 70
     1
102
RTVSPropertyOp40
 70
     1
102
RTVSPropertyOp41
 70
     1
102
RTVSPropertyOp42
 70
     1
102
RTVSPropertyOp43
 70
     1
102
RTVSPropertyOp44
 70
     1
102
RTVSPropertyOp45
 70
     1
102
RTVSPropertyOp46
 70
     1
102
RTVSPropertyOp47
 70
     1
102
RTVSPropertyOp48
 70
     1
102
RTVSPropertyOp49
 70
     1
102
RTVSPropertyOp50
 70
     1
102
RTVSPropertyOp51
 70
     0
102
RTVSPropertyOp52
 70
     0
102
RTVSPropertyOp53
 70
     1
102
RTVSPropertyOp54
 70
     1
102
RTVSPropertyOp55
 70
     1
102
RTVSPropertyOp56
 70
     1
102
RTVSPropertyOp57
 70
     1
102
RTVSPropertyOp58
 70
     1
102
RTVSPropertyOp59
 70
     1
102
RTVSPropertyOp60
 70
     1
102
RTVSPropertyOp61
 70
     1
102
RTVSPropertyOp62
 70
     1
  0
XRECORD
  5
17B2
102
{ACAD_REACTORS
330
17B1
102
}
330
17B1
100
AcDbXrecord
280
     1
102
RTVSPost2010Prop28
280
     0
102
RTVSPost2010PropOp28
 70
     1
102
RTVSPost2010Prop29
280
     1
102
RTVSPost2010PropOp29
 70
     1
102
RTVSPost2010Prop30
280
     1
102
RTVSPost2010PropOp30
 70
     1
102
RTVSPost2010Prop31
280
     0
102
RTVSPost2010PropOp31
 70
     1
102
RTVSPost2010Prop32
280
     0
102
RTVSPost2010PropOp32
 70
     1
102
RTVSPost2010Prop33
280
     0
102
RTVSPost2010PropOp33
 70
     1
102
RTVSPost2010Prop34
280
     0
102
RTVSPost2010PropOp34
 70
     1
102
RTVSPost2010Prop35
280
     0
102
RTVSPost2010PropOp35
 70
     1
102
RTVSPost2010Prop36
280
     0
102
RTVSPost2010PropOp36
 70
     1
102
RTVSPost2010Prop37
 90
       50
102
RTVSPost2010PropOp37
 70
     1
102
RTVSPost2010Prop38
140
0.0
102
RTVSPost2010PropOp38
 70
     1
102
RTVSPost2010Prop39
140
1.0
102
RTVSPost2010PropOp39
 70
     1
102
RTVSPost2010Prop40
 90
        0
102
RTVSPost2010PropOp40
 70
     1
102
RTVSPost2010Prop41ColorIndex
 90
       18
102
RTVSPost2010Prop41ColorRGB
 90
        0
102
RTVSPost2010PropOp41
 70
     1
102
RTVSPost2010Prop42
 90
       50
102
RTVSPost2010PropOp42
 70
     1
102
RTVSPost2010Prop43
 90
        3
102
RTVSPost2010PropOp43
 70
     1
102
RTVSPost2010Prop44ColorIndex
 90
        5
102
RTVSPost2010Prop44ColorRGB
 90
      255
102
RTVSPost2010PropOp44
 70
     1
102
RTVSPost2010Prop45
280
     0
102
RTVSPost2010PropOp45
 70
     1
102
RTVSPost2010Prop46
 90
       50
102
RTVSPost2010PropOp46
 70
     1
102
RTVSPost2010Prop47
 90
       50
102
RTVSPost2010PropOp47
 70
     1
102
RTVSPost2010Prop48
 90
       50
102
RTVSPost2010PropOp48
 70
     1
102
RTVSPost2010Prop49
280
     0
102
RTVSPost2010PropOp49
 70
     1
102
RTVSPost2010Prop50
 90
       50
102
RTVSPost2010PropOp50
 70
     1
102
RTVSPost2010Prop51ColorIndex
 90
      256
102
RTVSPost2010Prop51ColorRGB
 90
-16777216
102
RTVSPost2010PropOp51
 70
     0
102
RTVSPost2010Prop52
140
1.0
102
RTVSPost2010PropOp52
 70
     0
102
RTVSPost2010Prop53
 90
        2
102
RTVSPost2010PropOp53
 70
     1
102
RTVSPost2010Prop54
  1
strokes_ogs.tif
102
RTVSPost2010PropOp54
 70
     1
102
RTVSPost2010Prop55
280
     0
102
RTVSPost2010PropOp55
 70
     1
102
RTVSPost2010Prop56
140
1.0
102
RTVSPost2010PropOp56
 70
     1
102
RTVSPost2010Prop57
140
1.0
102
RTVSPost2010PropOp57
 70
     1
102
RTVSPropertyOp0
 70
     1
102
RTVSPropertyOp1
 70
     1
102
RTVSPropertyOp2
 70
     1
102
RTVSPropertyOp3
 70
     1
102
RTVSPropertyOp4
 70
     1
102
RTVSPropertyOp5
 70
     1
102
RTVSPropertyOp6
 70
     1
102
RTVSPropertyOp7
 70
     1
102
RTVSPropertyOp8
 70
     1
102
RTVSPropertyOp9
 70
     1
102
RTVSPropertyOp10
 70
     1
102
RTVSPropertyOp11
 70
     1
102
RTVSPropertyOp12
 70
     1
102
RTVSPropertyOp13
 70
     1
102
RTVSPropertyOp14
 70
     1
102
RTVSPropertyOp15
 70
     1
102
RTVSPropertyOp16
 70
     1
102
RTVSPropertyOp17
 70
     1
102
RTVSPropertyOp18
 70
     1
102
RTVSPropertyOp19
 70
     1
102
RTVSPropertyOp20
 70
     1
102
RTVSPropertyOp21
 70
     1
102
RTVSPropertyOp22
 70
     1
102
RTVSPropertyOp23
 70
     1
102
RTVSPropertyOp24
 70
     1
102
RTVSPropertyOp25
 70
     1
102
RTVSPropertyOp26
 70
     1
102
RTVSPropertyOp27
 70
     1
102
RTVSPropertyOp28
 70
     1
102
RTVSPropertyOp29
 70
     1
102
RTVSPropertyOp30
 70
     1
102
RTVSPropertyOp31
 70
     1
102
RTVSPropertyOp32
 70
     1
102
RTVSPropertyOp33
 70
     1
102
RTVSPropertyOp34
 70
     1
102
RTVSPropertyOp35
 70
     1
102
RTVSPropertyOp36
 70
     1
102
RTVSPropertyOp37
 70
     1
102
RTVSPropertyOp38
 70
     1
102
RTVSPropertyOp39
 70
     1
102
RTVSPropertyOp40
 70
     1
102
RTVSPropertyOp41
 70
     1
102
RTVSPropertyOp42
 70
     1
102
RTVSPropertyOp43
 70
     1
102
RTVSPropertyOp44
 70
     1
102
RTVSPropertyOp45
 70
     1
102
RTVSPropertyOp46
 70
     1
102
RTVSPropertyOp47
 70
     1
102
RTVSPropertyOp48
 70
     1
102
RTVSPropertyOp49
 70
     1
102
RTVSPropertyOp50
 70
     1
102
RTVSPropertyOp51
 70
     0
102
RTVSPropertyOp52
 70
     0
102
RTVSPropertyOp53
 70
     1
102
RTVSPropertyOp54
 70
     1
102
RTVSPropertyOp55
 70
     1
102
RTVSPropertyOp56
 70
     1
102
RTVSPropertyOp57
 70
     1
102
RTVSPropertyOp58
 70
     1
102
RTVSPropertyOp59
 70
     1
102
RTVSPropertyOp60
 70
     1
102
RTVSPropertyOp61
 70
     1
102
RTVSPropertyOp62
 70
     1
  0
XRECORD
  5
17BA
102
{ACAD_REACTORS
330
17B9
102
}
330
17B9
100
AcDbXrecord
280
     1
102
RTVSPost2010Prop28
280
     0
102
RTVSPost2010PropOp28
 70
     1
102
RTVSPost2010Prop29
280
     1
102
RTVSPost2010PropOp29
 70
     1
102
RTVSPost2010Prop30
280
     1
102
RTVSPost2010PropOp30
 70
     1
102
RTVSPost2010Prop31
280
     0
102
RTVSPost2010PropOp31
 70
     1
102
RTVSPost2010Prop32
280
     0
102
RTVSPost2010PropOp32
 70
     1
102
RTVSPost2010Prop33
280
     0
102
RTVSPost2010PropOp33
 70
     1
102
RTVSPost2010Prop34
280
     0
102
RTVSPost2010PropOp34
 70
     1
102
RTVSPost2010Prop35
280
     0
102
RTVSPost2010PropOp35
 70
     1
102
RTVSPost2010Prop36
280
     0
102
RTVSPost2010PropOp36
 70
     1
102
RTVSPost2010Prop37
 90
       50
102
RTVSPost2010PropOp37
 70
     1
102
RTVSPost2010Prop38
140
0.0
102
RTVSPost2010PropOp38
 70
     1
102
RTVSPost2010Prop39
140
1.0
102
RTVSPost2010PropOp39
 70
     1
102
RTVSPost2010Prop40
 90
        0
102
RTVSPost2010PropOp40
 70
     1
102
RTVSPost2010Prop41ColorIndex
 90
       18
102
RTVSPost2010Prop41ColorRGB
 90
        0
102
RTVSPost2010PropOp41
 70
     1
102
RTVSPost2010Prop42
 90
       50
102
RTVSPost2010PropOp42
 70
     1
102
RTVSPost2010Prop43
 90
        3
102
RTVSPost2010PropOp43
 70
     1
102
RTVSPost2010Prop44ColorIndex
 90
        5
102
RTVSPost2010Prop44ColorRGB
 90
      255
102
RTVSPost2010PropOp44
 70
     1
102
RTVSPost2010Prop45
280
     0
102
RTVSPost2010PropOp45
 70
     1
102
RTVSPost2010Prop46
 90
       50
102
RTVSPost2010PropOp46
 70
     1
102
RTVSPost2010Prop47
 90
       50
102
RTVSPost2010PropOp47
 70
     1
102
RTVSPost2010Prop48
 90
       50
102
RTVSPost2010PropOp48
 70
     1
102
RTVSPost2010Prop49
280
     0
102
RTVSPost2010PropOp49
 70
     1
102
RTVSPost2010Prop50
 90
       50
102
RTVSPost2010PropOp50
 70
     1
102
RTVSPost2010Prop51ColorIndex
 90
      256
102
RTVSPost2010Prop51ColorRGB
 90
-16777216
102
RTVSPost2010PropOp51
 70
     0
102
RTVSPost2010Prop52
140
1.0
102
RTVSPost2010PropOp52
 70
     0
102
RTVSPost2010Prop53
 90
        2
102
RTVSPost2010PropOp53
 70
     1
102
RTVSPost2010Prop54
  1
strokes_ogs.tif
102
RTVSPost2010PropOp54
 70
     1
102
RTVSPost2010Prop55
280
     0
102
RTVSPost2010PropOp55
 70
     1
102
RTVSPost2010Prop56
140
1.0
102
RTVSPost2010PropOp56
 70
     1
102
RTVSPost2010Prop57
140
1.0
102
RTVSPost2010PropOp57
 70
     1
102
RTVSPropertyOp0
 70
     1
102
RTVSPropertyOp1
 70
     1
102
RTVSPropertyOp2
 70
     1
102
RTVSPropertyOp3
 70
     1
102
RTVSPropertyOp4
 70
     1
102
RTVSPropertyOp5
 70
     1
102
RTVSPropertyOp6
 70
     1
102
RTVSPropertyOp7
 70
     1
102
RTVSPropertyOp8
 70
     1
102
RTVSPropertyOp9
 70
     1
102
RTVSPropertyOp10
 70
     1
102
RTVSPropertyOp11
 70
     1
102
RTVSPropertyOp12
 70
     1
102
RTVSPropertyOp13
 70
     1
102
RTVSPropertyOp14
 70
     1
102
RTVSPropertyOp15
 70
     1
102
RTVSPropertyOp16
 70
     1
102
RTVSPropertyOp17
 70
     1
102
RTVSPropertyOp18
 70
     1
102
RTVSPropertyOp19
 70
     1
102
RTVSPropertyOp20
 70
     1
102
RTVSPropertyOp21
 70
     1
102
RTVSPropertyOp22
 70
     1
102
RTVSPropertyOp23
 70
     1
102
RTVSPropertyOp24
 70
     1
102
RTVSPropertyOp25
 70
     1
102
RTVSPropertyOp26
 70
     1
102
RTVSPropertyOp27
 70
     1
102
RTVSPropertyOp28
 70
     1
102
RTVSPropertyOp29
 70
     1
102
RTVSPropertyOp30
 70
     1
102
RTVSPropertyOp31
 70
     1
102
RTVSPropertyOp32
 70
     1
102
RTVSPropertyOp33
 70
     1
102
RTVSPropertyOp34
 70
     1
102
RTVSPropertyOp35
 70
     1
102
RTVSPropertyOp36
 70
     1
102
RTVSPropertyOp37
 70
     1
102
RTVSPropertyOp38
 70
     1
102
RTVSPropertyOp39
 70
     1
102
RTVSPropertyOp40
 70
     1
102
RTVSPropertyOp41
 70
     1
102
RTVSPropertyOp42
 70
     1
102
RTVSPropertyOp43
 70
     1
102
RTVSPropertyOp44
 70
     1
102
RTVSPropertyOp45
 70
     1
102
RTVSPropertyOp46
 70
     1
102
RTVSPropertyOp47
 70
     1
102
RTVSPropertyOp48
 70
     1
102
RTVSPropertyOp49
 70
     1
102
RTVSPropertyOp50
 70
     1
102
RTVSPropertyOp51
 70
     0
102
RTVSPropertyOp52
 70
     0
102
RTVSPropertyOp53
 70
     1
102
RTVSPropertyOp54
 70
     1
102
RTVSPropertyOp55
 70
     1
102
RTVSPropertyOp56
 70
     1
102
RTVSPropertyOp57
 70
     1
102
RTVSPropertyOp58
 70
     1
102
RTVSPropertyOp59
 70
     1
102
RTVSPropertyOp60
 70
     1
102
RTVSPropertyOp61
 70
     1
102
RTVSPropertyOp62
 70
     1
  0
ENDSEC
  0
EOF
