  0
SECTION
  2
HEADER
  9
$ACADVER
  1
AC1014
  9
$ACADMAINTVER
 70
     9
  9
$DWGCODEPAGE
  3
ANSI_1252
  9
$INSBASE
 10
4.95814436790485
 20
-23.08973841696527
 30
0.0
  9
$EXTMIN
 10
-46.54573368246572
 20
-26.37029163613521
 30
-0.0000000349181948
  9
$EXTMAX
 10
13.46289438818843
 20
-0.9637624989022839
 30
0.0000000814935746
  9
$LIMMIN
 10
0.0
 20
0.0
  9
$LIMMAX
 10
17.0
 20
11.0
  9
$ORTHOMODE
 70
     1
  9
$REGENMODE
 70
     1
  9
$FILLMODE
 70
     1
  9
$QTEXTMODE
 70
     0
  9
$MIRRTEXT
 70
     1
  9
$DRAGMODE
 70
     2
  9
$LTSCALE
 40
8.0
  9
$OSMODE
 70
    55
  9
$ATTMODE
 70
     1
  9
$TEXTSIZE
 40
0.2
  9
$TRACEWID
 40
0.05
  9
$TEXTSTYLE
  7
STANDARD
  9
$CLAYER
  8
0
  9
$CELTYPE
  6
BYLAYER
  9
$CECOLOR
 62
   256
  9
$CELTSCALE
 40
1.0
  9
$DELOBJ
 70
     1
  9
$DISPSILH
 70
     0
  9
$DIMSCALE
 40
12.0
  9
$DIMASZ
 40
0.1875
  9
$DIMEXO
 40
0.10625
  9
$DIMDLI
 40
0.6459999999999999
  9
$DIMRND
 40
0.0
  9
$DIMDLE
 40
0.0
  9
$DIMEXE
 40
0.306
  9
$DIMTP
 40
0.0
  9
$DIMTM
 40
0.0
  9
$DIMTXT
 40
0.125
  9
$DIMCEN
 40
0.153
  9
$DIMTSZ
 40
0.0
  9
$DIMTOL
 70
     0
  9
$DIMLIM
 70
     0
  9
$DIMTIH
 70
     1
  9
$DIMTOH
 70
     1
  9
$DIMSE1
 70
     0
  9
$DIMSE2
 70
     0
  9
$DIMTAD
 70
     0
  9
$DIMZIN
 70
     0
  9
$DIMBLK
  1
_FILLED
  9
$DIMASO
 70
     1
  9
$DIMSHO
 70
     1
  9
$DIMPOST
  1

  9
$DIMAPOST
  1

  9
$DIMALT
 70
     0
  9
$DIMALTD
 70
     2
  9
$DIMALTF
 40
25.4
  9
$DIMLFAC
 40
1.0
  9
$DIMTOFL
 70
     0
  9
$DIMTVP
 40
0.0
  9
$DIMTIX
 70
     0
  9
$DIMSOXD
 70
     0
  9
$DIMSAH
 70
     0
  9
$DIMBLK1
  1

  9
$DIMBLK2
  1

  9
$DIMSTYLE
  2
STANDARD
  9
$DIMCLRD
 70
     0
  9
$DIMCLRE
 70
     0
  9
$DIMCLRT
 70
     0
  9
$DIMTFAC
 40
1.0
  9
$DIMGAP
 40
0.09
  9
$DIMJUST
 70
     0
  9
$DIMSD1
 70
     0
  9
$DIMSD2
 70
     0
  9
$DIMTOLJ
 70
     1
  9
$DIMTZIN
 70
     0
  9
$DIMALTZ
 70
     0
  9
$DIMALTTZ
 70
     0
  9
$DIMFIT
 70
     3
  9
$DIMUPT
 70
     0
  9
$DIMUNIT
 70
     2
  9
$DIMDEC
 70
     4
  9
$DIMTDEC
 70
     4
  9
$DIMALTU
 70
     2
  9
$DIMALTTD
 70
     2
  9
$DIMTXSTY
  7
STANDARD
  9
$DIMAUNIT
 70
     0
  9
$LUNITS
 70
     2
  9
$LUPREC
 70
     4
  9
$SKETCHINC
 40
0.1
  9
$FILLETRAD
 40
0.75
  9
$AUNITS
 70
     0
  9
$AUPREC
 70
     0
  9
$MENU
  1
acad
  9
$ELEVATION
 40
0.0
  9
$PELEVATION
 40
0.0
  9
$THICKNESS
 40
0.0
  9
$LIMCHECK
 70
     0
  9
$BLIPMODE
 70
     0
  9
$CHAMFERA
 40
0.0
  9
$CHAMFERB
 40
0.0
  9
$CHAMFERC
 40
0.0
  9
$CHAMFERD
 40
0.0
  9
$SKPOLY
 70
     0
  9
$TDCREATE
 40
2453679.188597361
  9
$TDUPDATE
 40
2453685.614996735
  9
$TDINDWG
 40
0.0436195023
  9
$TDUSRTIMER
 40
0.0436195023
  9
$USRTIMER
 70
     1
  9
$ANGBASE
 50
0.0
  9
$ANGDIR
 70
     0
  9
$PDMODE
 70
     3
  9
$PDSIZE
 40
0.3125
  9
$PLINEWID
 40
0.0
  9
$COORDS
 70
     1
  9
$SPLFRAME
 70
     0
  9
$SPLINETYPE
 70
     6
  9
$SPLINESEGS
 70
     8
  9
$ATTDIA
 70
     0
  9
$ATTREQ
 70
     1
  9
$HANDLING
 70
 22529
  9
$HANDSEED
  5
4AB
  9
$SURFTAB1
 70
     6
  9
$SURFTAB2
 70
     6
  9
$SURFTYPE
 70
     6
  9
$SURFU
 70
     6
  9
$SURFV
 70
     6
  9
$UCSNAME
  2

  9
$UCSORG
 10
0.0
 20
0.0
 30
0.0
  9
$UCSXDIR
 10
1.0
 20
0.0
 30
0.0
  9
$UCSYDIR
 10
0.0
 20
1.0
 30
0.0
  9
$PUCSNAME
  2

  9
$PUCSORG
 10
0.0
 20
0.0
 30
0.0
  9
$PUCSXDIR
 10
1.0
 20
0.0
 30
0.0
  9
$PUCSYDIR
 10
0.0
 20
1.0
 30
0.0
  9
$USERI1
 70
     0
  9
$USERI2
 70
     0
  9
$USERI3
 70
     0
  9
$USERI4
 70
     0
  9
$USERI5
 70
     0
  9
$USERR1
 40
0.0
  9
$USERR2
 40
0.0
  9
$USERR3
 40
0.0
  9
$USERR4
 40
0.0
  9
$USERR5
 40
0.0
  9
$WORLDVIEW
 70
     1
  9
$SHADEDGE
 70
     3
  9
$SHADEDIF
 70
    70
  9
$TILEMODE
 70
     1
  9
$MAXACTVP
 70
    16
  9
$PINSBASE
 10
0.0
 20
0.0
 30
0.0
  9
$PLIMCHECK
 70
     0
  9
$PEXTMIN
 10
1.000000000000000E+20
 20
1.000000000000000E+20
 30
1.000000000000000E+20
  9
$PEXTMAX
 10
-1.000000000000000E+20
 20
-1.000000000000000E+20
 30
-1.000000000000000E+20
  9
$PLIMMIN
 10
0.0
 20
0.0
  9
$PLIMMAX
 10
12.0
 20
9.0
  9
$UNITMODE
 70
     0
  9
$VISRETAIN
 70
     0
  9
$PLINEGEN
 70
     1
  9
$PSLTSCALE
 70
     0
  9
$TREEDEPTH
 70
  3020
  9
$PICKSTYLE
 70
     1
  9
$CMLSTYLE
  2
STANDARD
  9
$CMLJUST
 70
     0
  9
$CMLSCALE
 40
1.0
  9
$PROXYGRAPHICS
 70
     1
  9
$MEASUREMENT
 70
     0
  0
ENDSEC
  0
SECTION
  2
CLASSES
  0
CLASS
  1
HATCH
  2
AcDbHatch
  3
AutoCAD 2000
 90
        0
280
     0
281
     1
  0
CLASS
  1
LWPOLYLINE
  2
AcDbPolyline
  3
AutoCAD 2000
 90
        0
280
     0
281
     1
  0
CLASS
  1
ACDBDICTIONARYWDFLT
  2
AcDbDictionaryWithDefault
  3
AutoCAD 2000
 90
        0
280
     0
281
     0
  0
CLASS
  1
ACDBPLACEHOLDER
  2
AcDbPlaceHolder
  3
AutoCAD 2000
 90
        0
280
     0
281
     0
  0
CLASS
  1
LAYOUT
  2
AcDbLayout
  3
AutoCAD 2000
 90
        0
280
     0
281
     0
  0
CLASS
  1
LONG_TRANSACTION
  2
AcDbLongTransaction
  3
AutoCAD 2000
 90
        0
280
     0
281
     0
  0
CLASS
  1
LWPOLYLINE
  2
AcDbPolyline
  3
AutoCAD 2000
 90
        0
280
     0
281
     1
  0
CLASS
  1
HATCH
  2
AcDbHatch
  3
AutoCAD 2000
 90
        0
280
     0
281
     1
  0
CLASS
  1
XRECORD
  2
AcDbXrecord
  3
AutoCAD 2000
 90
        0
280
     0
281
     0
  0
CLASS
  1
LONG_TRANSACTION
  2
AcDbLongTransaction
  3
AutoCAD 2000
 90
        0
280
     0
281
     0
  0
CLASS
  1
LWPOLYLINE
  2
AcDbPolyline
  3
AutoCAD 2000
 90
        0
280
     0
281
     1
  0
CLASS
  1
HATCH
  2
AcDbHatch
  3
AutoCAD 2000
 90
        0
280
     0
281
     1
  0
CLASS
  1
XRECORD
  2
AcDbXrecord
  3
AutoCAD 2000
 90
        0
280
     0
281
     0
  0
CLASS
  1
DICTIONARYVAR
  2
AcDbDictionaryVar
  3
AutoCAD 2000
 90
        0
280
     0
281
     0
  0
CLASS
  1
LONG_TRANSACTION
  2
AcDbLongTransaction
  3
AutoCAD 2000
 90
        0
280
     0
281
     0
  0
CLASS
  1
LWPOLYLINE
  2
AcDbPolyline
  3
AutoCAD 2000
 90
        0
280
     0
281
     1
  0
CLASS
  1
HATCH
  2
AcDbHatch
  3
AutoCAD 2000
 90
        0
280
     0
281
     1
  0
CLASS
  1
XRECORD
  2
AcDbXrecord
  3
AutoCAD 2000
 90
        0
280
     0
281
     0
  0
ENDSEC
  0
SECTION
  2
TABLES
  0
TABLE
  2
VPORT
  5
12
330
0
100
AcDbSymbolTable
 70
     3
  0
VPORT
  5
487
330
12
100
AcDbSymbolTableRecord
100
AcDbViewportTableRecord
  2
*ACTIVE
 70
     0
 10
0.0
 20
0.0
 11
1.0
 21
1.0
 12
-16.54141965373136
 22
-13.66702713263407
 13
0.0
 23
0.0
 14
1.0
 24
1.0
 15
0.0
 25
0.0
 16
0.0
 26
0.0
 36
1.0
 17
0.0
 27
0.0
 37
0.0
 40
40.55632615828455
 41
1.786792452830188
 42
50.0
 43
0.0
 44
0.0
 50
0.0
 51
0.0
 71
     0
 72
   100
 73
     1
 74
     1
 75
     0
 76
     0
 77
     0
 78
     0
  0
ENDTAB
  0
TABLE
  2
LTYPE
  5
D
330
0
100
AcDbSymbolTable
 70
     4
  0
LTYPE
  5
E
330
D
100
AcDbSymbolTableRecord
100
AcDbLinetypeTableRecord
  2
BYBLOCK
 70
     0
  3

 72
    65
 73
     0
 40
0.0
  0
LTYPE
  5
F
330
D
100
AcDbSymbolTableRecord
100
AcDbLinetypeTableRecord
  2
BYLAYER
 70
     0
  3

 72
    65
 73
     0
 40
0.0
  0
LTYPE
  5
5
330
D
100
AcDbSymbolTableRecord
100
AcDbLinetypeTableRecord
  2
CONTINUOUS
 70
     0
  3
Solid line
 72
    65
 73
     0
 40
0.0
  0
LTYPE
  5
334
330
D
100
AcDbSymbolTableRecord
100
AcDbLinetypeTableRecord
  2
CENTER
 70
     0
  3
____ _ ____ _ ____ _ ____ _ ____ _ ____ _ ____
 72
    65
 73
     4
 40
0.6
 49
0.375
 74
     0
 49
-0.075
 74
     0
 49
0.075
 74
     0
 49
-0.075
 74
     0
  0
LTYPE
  5
13B
330
D
100
AcDbSymbolTableRecord
100
AcDbLinetypeTableRecord
  2
HIDDEN
 70
     0
  3
- - - - - - - - - - - - - - - - - - - -
 72
    65
 73
     2
 40
0.2
 49
0.1
 74
     0
 49
-0.1
 74
     0
  0
LTYPE
  5
DD
330
D
100
AcDbSymbolTableRecord
100
AcDbLinetypeTableRecord
  2
PHANTOM
 70
     0
  3
_____ _ _ _____ _ _ _____ _ _ _____
 72
    65
 73
     6
 40
0.8
 49
0.45
 74
     0
 49
-0.05
 74
     0
 49
0.1
 74
     0
 49
-0.05
 74
     0
 49
0.1
 74
     0
 49
-0.05
 74
     0
  0
ENDTAB
  0
TABLE
  2
LAYER
  5
A
330
0
100
AcDbSymbolTable
 70
     2
  0
LAYER
  5
4
330
A
100
AcDbSymbolTableRecord
100
AcDbLayerTableRecord
  2
0
 70
     0
 62
     7
  6
CONTINUOUS
  0
LAYER
  5
43F
330
A
100
AcDbSymbolTableRecord
100
AcDbLayerTableRecord
  2
DEFPOINTS
 70
     0
 62
     7
  6
CONTINUOUS
  0
ENDTAB
  0
TABLE
  2
STYLE
  5
B
330
0
100
AcDbSymbolTable
 70
     1
  0
STYLE
  5
C
330
B
100
AcDbSymbolTableRecord
100
AcDbTextStyleTableRecord
  2
STANDARD
 70
     0
 40
0.0
 41
0.8
 50
0.0
 71
     0
 42
0.2
  3
txt
  4

  0
ENDTAB
  0
TABLE
  2
VIEW
  5
10
330
0
100
AcDbSymbolTable
 70
     0
  0
ENDTAB
  0
TABLE
  2
UCS
  5
11
330
0
100
AcDbSymbolTable
 70
     0
  0
ENDTAB
  0
TABLE
  2
APPID
  5
14
330
0
100
AcDbSymbolTable
 70
     1
  0
APPID
  5
15
330
14
100
AcDbSymbolTableRecord
100
AcDbRegAppTableRecord
  2
ACAD
 70
     0
  0
ENDTAB
  0
TABLE
  2
DIMSTYLE
  5
16
330
0
100
AcDbSymbolTable
 70
     1
  0
DIMSTYLE
105
1C
330
16
100
AcDbSymbolTableRecord
100
AcDbDimStyleTableRecord
  2
STANDARD
 70
     0
  3

  4

  5
_FILLED
  6
_FILLED
  7
_FILLED
 40
1.0
 41
0.1875
 42
0.0625
 43
0.38
 44
0.18
 45
0.0
 46
0.0
 47
0.00001
 48
0.00001
140
0.125
141
0.09
142
0.0
143
25.4
144
1.0
145
0.0
146
1.0
147
0.09
 71
     0
 72
     0
 73
     1
 74
     1
 75
     0
 76
     0
 77
     0
 78
     4
170
     0
171
     2
172
     0
173
     0
174
     0
175
     0
176
     0
177
     0
178
     0
270
     2
271
     4
272
     4
273
     2
274
     2
340
C
275
     0
280
     0
281
     0
282
     0
283
     1
284
     0
285
     0
286
     0
287
     3
288
     0
  0
ENDTAB
  0
TABLE
  2
BLOCK_RECORD
  5
1
330
0
100
AcDbSymbolTable
 70
     2
  0
BLOCK_RECORD
  5
2
102
{ACAD_XDICTIONARY
360
3FD
102
}
330
1
100
AcDbSymbolTableRecord
100
AcDbBlockTableRecord
  2
*MODEL_SPACE
  0
BLOCK_RECORD
  5
7
102
{ACAD_XDICTIONARY
360
3FF
102
}
330
1
100
AcDbSymbolTableRecord
100
AcDbBlockTableRecord
  2
*PAPER_SPACE
  0
BLOCK_RECORD
  5
1D
330
1
100
AcDbSymbolTableRecord
100
AcDbBlockTableRecord
  2
_FILLED
  0
ENDTAB
  0
ENDSEC
  0
SECTION
  2
BLOCKS
  0
BLOCK
  5
3
330
2
100
AcDbEntity
  8
0
100
AcDbBlockBegin
  2
*MODEL_SPACE
 70
     0
 10
0.0
 20
0.0
 30
0.0
  3
*MODEL_SPACE
  1

  0
ENDBLK
  5
6
330
2
100
AcDbEntity
  8
0
100
AcDbBlockEnd
  0
BLOCK
  5
8
330
7
100
AcDbEntity
 67
     1
  8
0
100
AcDbBlockBegin
  2
*PAPER_SPACE
 70
     0
 10
0.0
 20
0.0
 30
0.0
  3
*PAPER_SPACE
  1

  0
ENDBLK
  5
9
330
7
100
AcDbEntity
 67
     1
  8
0
100
AcDbBlockEnd
  0
BLOCK
  5
1F
330
1D
100
AcDbEntity
  8
0
100
AcDbBlockBegin
  2
_FILLED
 70
     0
 10
0.0
 20
0.0
 30
0.0
  3
_FILLED
  1

  0
SOLID
  5
1E
330
1D
100
AcDbEntity
  8
0
  6
BYBLOCK
 62
     0
100
AcDbTrace
 10
0.0
 20
0.0
 30
0.0
 11
-1.0
 21
0.1666666667
 31
0.0
 12
-1.0
 22
-0.1666666667
 32
0.0
 13
-1.0
 23
-0.1666666667
 33
0.0
  0
ENDBLK
  5
20
330
1D
100
AcDbEntity
  8
0
  6
BYBLOCK
 62
     0
100
AcDbBlockEnd
  0
ENDSEC
  0
SECTION
  2
ENTITIES
  0
LWPOLYLINE
  5
21
330
2
100
AcDbEntity
  8
0
  6
CONTINUOUS
 62
     7
100
AcDbPolyline
 90
        4
 70
     0
 43
0.0
 10
1.087917910304852
 20
-22.19205513536525
 10
1.581951947104855
 20
-22.18524222976525
 10
2.075911091104842
 20
-22.17793687616527
 10
2.56979123830483
 20
-22.17012170016527
  0
LWPOLYLINE
  5
27
330
2
100
AcDbEntity
  8
0
  6
CONTINUOUS
 62
     7
100
AcDbPolyline
 90
        3
 70
     0
 43
0.0
 10
1.087595956704831
 20
-22.22329496096524
 10
1.762492372704855
 20
-22.21385968576524
 10
2.421450628704832
 20
-22.20376328736525
  0
LINE
  5
2C
330
2
100
AcDbEntity
  8
0
  6
CONTINUOUS
 62
     7
100
AcDbLine
 10
-15.12345497609514
 20
-23.08973841696527
 30
0.0
 11
4.09911143030483
 21
-23.08973841696527
 31
0.0
  0
LINE
  5
2D
330
2
100
AcDbEntity
  8
0
  6
CONTINUOUS
 62
     7
100
AcDbLine
 10
2.668309716704854
 20
-22.34195674976526
 30
0.0
 11
-12.03562890089514
 21
-22.06882814176526
 31
0.0
  0
LINE
  5
2E
330
2
100
AcDbEntity
  8
0
  6
CONTINUOUS
 62
     7
100
AcDbLine
 10
13.20814436790485
 20
-2.094019381765278
 30
0.0
 11
-46.29185563209515
 21
-2.094019381765278
 31
0.0
  0
LINE
  5
31
330
2
100
AcDbEntity
  8
0
100
AcDbLine
 10
13.45814436790485
 20
-0.9647384169652681
 30
0.0
 11
-46.54185563209515
 21
-0.9647384169652681
 31
0.0
  0
LWPOLYLINE
  5
32
330
2
100
AcDbEntity
  8
0
  6
CONTINUOUS
 62
     7
100
AcDbPolyline
 90
       17
 70
     0
 43
0.0
 10
3.024109180704854
 20
-7.94439653376525
 10
1.235785940704829
 20
-8.035345616965265
 10
-0.520518656095149
 20
-8.135458386565268
 10
-2.245096200095147
 20
-8.244427087365274
 10
-3.938391246495157
 20
-8.361965863365249
 10
-5.600805648095146
 20
-8.487799847365273
 10
-7.23272085289517
 20
-8.62166551136525
 10
-8.834492801695148
 20
-8.763309368965273
 10
-10.40639788649517
 20
-8.91248169056525
 10
-11.94821102889514
 20
-9.06888955136528
 10
-13.46978913609514
 20
-9.233369762565274
 10
-15.12614711369517
 20
-9.425057917765251
 10
-16.99058493769514
 20
-9.659811488965274
 10
-19.06627959689515
 20
-9.94937692416525
 10
-21.18765842569514
 20
-10.28108123136524
 10
-23.14480890249515
 20
-10.62323267776526
 10
-24.87715483049516
 20
-10.95753221536524
  0
LWPOLYLINE
  5
45
330
2
100
AcDbEntity
  8
0
  6
CONTINUOUS
 62
     7
100
AcDbPolyline
 90
       24
 70
     0
 43
0.0
 10
-26.27727374409516
 20
-11.25140622816525
 10
-25.63701002729514
 20
-11.11393322176525
 10
-24.61272245289517
 20
-10.90451922176524
 10
-23.47367398889515
 20
-10.68436271136528
 10
-22.20686912329515
 20
-10.45471369696524
 10
-20.78900050249516
 20
-10.21576122976525
 10
-19.22418180329516
 20
-9.97275989856525
 10
-17.53454229929516
 20
-9.73262552096525
 10
-15.66002823049515
 20
-9.490067847365274
 10
-13.90696605129515
 20
-9.282588621765249
 10
-12.32632301769514
 20
-9.108809301765248
 10
-10.75054600009517
 20
-8.946515951365249
 10
-9.14326579529515
 20
-8.791806919365249
 10
-7.511213512095167
 20
-8.645554759365268
 10
-5.959641041695149
 20
-8.51634627136525
 10
-4.579183187295157
 20
-8.40922921376525
 10
-3.347514723295148
 20
-8.319746338565273
 10
-2.240381227295145
 20
-8.244114517765268
 10
-1.240434897695152
 20
-8.179646578565268
 10
-0.3335252960951465
 20
-8.12428284096525
 10
0.4916065631048526
 20
-8.076444525765275
 10
1.24434540470483
 20
-8.03488410816525
 10
1.932674737504854
 20
-7.998599748165268
 10
2.563573094304842
 20
-7.966772580165248
  0
LINE
  5
5F
330
2
100
AcDbEntity
  8
0
  6
CONTINUOUS
 62
     7
100
AcDbLine
 10
-29.96544052489515
 20
-22.88128127296527
 30
0.0
 11
-30.55169292169515
 21
-20.69335753856526
 31
0.0
  0
LINE
  5
60
330
2
100
AcDbEntity
  8
0
  6
CONTINUOUS
 62
     7
100
AcDbLine
 10
-26.36827074089516
 20
-22.88128127296527
 30
0.0
 11
-25.82302553449514
 21
-20.84639846016526
 31
0.0
  0
ARC
  5
61
330
2
100
AcDbEntity
  8
0
  6
CONTINUOUS
 62
     7
100
AcDbCircle
 10
-18.39169972009514
 20
-21.07710842976526
 30
0.0
 40
0.625
100
AcDbArc
 50
188.3555687641999
 51
267.5942941855
  0
LWPOLYLINE
  5
62
330
2
100
AcDbEntity
  8
0
  6
CONTINUOUS
 62
     7
100
AcDbPolyline
 90
        4
 70
     0
 43
0.0
 10
-16.22000296329514
 20
-21.79006672416524
 10
-14.04333314729515
 20
-21.86992604096527
 10
-11.88172139689514
 20
-21.94119221056524
 10
-10.87605938729515
 20
-21.97045647456526
  0
LINE
  5
68
330
2
100
AcDbEntity
  8
0
  6
CONTINUOUS
 62
     7
100
AcDbLine
 10
-15.03959151209515
 20
-21.86031992416527
 30
0.0
 11
-11.05064976329517
 21
-21.97310423296524
 31
0.0
  0
LWPOLYLINE
  5
69
330
2
100
AcDbEntity
  8
0
  6
CONTINUOUS
 62
     7
100
AcDbPolyline
 90
        4
 70
     0
 43
0.0
 10
0.9186344063048323
 20
-22.22318824416525
 10
-4.813315342495144
 20
-22.14110096576527
 10
-10.10657838729514
 20
-22.02816195936525
 10
-15.04054783849515
 20
-21.89155166976525
  0
ARC
  5
6F
330
2
100
AcDbEntity
  8
0
  6
CONTINUOUS
 62
     7
100
AcDbCircle
 10
-28.16685563209515
 20
-23.62098841696526
 30
0.0
 40
0.90625
100
AcDbArc
 50
43.17279520929999
 51
136.8269375013999
  0
ARC
  5
70
330
2
100
AcDbEntity
  8
0
  6
CONTINUOUS
 62
     7
100
AcDbCircle
 10
-29.69377388649516
 20
-22.80848841696526
 30
0.0
 40
0.28125
100
AcDbArc
 50
195.0
 51
270.0
  0
ARC
  5
71
330
2
100
AcDbEntity
  8
0
  6
CONTINUOUS
 62
     7
100
AcDbCircle
 10
-29.03288103689515
 20
-22.80848841696526
 30
0.0
 40
0.28125
100
AcDbArc
 50
270.0
 51
316.8246066523
  0
LINE
  5
72
330
2
100
AcDbEntity
  8
0
  6
CONTINUOUS
 62
     7
100
AcDbLine
 10
-29.69377388649516
 20
-23.08973841696527
 30
0.0
 11
-29.03288103689515
 21
-23.08973841696527
 31
0.0
  0
ARC
  5
73
330
2
100
AcDbEntity
  8
0
  6
CONTINUOUS
 62
     7
100
AcDbCircle
 10
-26.63993737929514
 20
-22.80848841696526
 30
0.0
 40
0.28125
100
AcDbArc
 50
270.0
 51
345.0
  0
ARC
  5
74
330
2
100
AcDbEntity
  8
0
  6
CONTINUOUS
 62
     7
100
AcDbCircle
 10
-27.30083022889516
 20
-22.80848841696526
 30
0.0
 40
0.28125
100
AcDbArc
 50
223.1763857244999
 51
270.0
  0
LINE
  5
75
330
2
100
AcDbEntity
  8
0
  6
CONTINUOUS
 62
     7
100
AcDbLine
 10
-27.30083022889516
 20
-23.08973841696527
 30
0.0
 11
-26.63993737929514
 21
-23.08973841696527
 31
0.0
  0
LINE
  5
76
330
2
100
AcDbEntity
  8
0
  6
CONTINUOUS
 62
     7
100
AcDbLine
 10
-18.41793430409516
 20
-21.70155758496524
 30
0.0
 11
-16.22000296329514
 21
-21.79006672416524
 31
0.0
  0
ARC
  5
77
330
2
100
AcDbEntity
  8
0
  6
CONTINUOUS
 62
     7
100
AcDbCircle
 10
-15.12555345609514
 20
-22.18348841696526
 30
0.0
 40
0.90625
100
AcDbArc
 50
190.0
 51
270.0
  0
LINE
  5
78
330
2
100
AcDbEntity
  8
0
  6
CONTINUOUS
 62
     7
100
AcDbLine
 10
-16.01803548169515
 20
-22.34085707776525
 30
0.0
 11
-16.05197282409514
 21
-22.14838884256526
 31
0.0
  0
LWPOLYLINE
  5
79
330
2
100
AcDbEntity
  8
0
  6
CONTINUOUS
 62
     7
100
AcDbPolyline
 90
        5
 70
     0
 43
0.0
 10
-16.20778804169516
 20
-21.91657807456525
 10
-16.15320979529516
 20
-21.95903182816526
 10
-16.10657593289516
 20
-22.01398301216524
 10
-16.07187404489516
 20
-22.07882889376524
 10
-16.05205254569514
 20
-22.14793363456525
  0
LWPOLYLINE
  5
80
330
2
100
AcDbEntity
  8
0
  6
CONTINUOUS
 62
     7
100
AcDbPolyline
 90
        5
 70
     0
 43
0.0
 10
-15.04054783849515
 20
-21.89155166976525
 10
-15.44334024809517
 20
-21.87995744896525
 10
-15.80601370089515
 20
-21.87067769376526
 10
-16.10521256649517
 20
-21.86402272096526
 10
-16.31707519049514
 20
-21.86046336096524
  0
LWPOLYLINE
  5
87
330
2
100
AcDbEntity
  8
0
  6
CONTINUOUS
 62
     7
100
AcDbPolyline
 90
        5
 70
     0
 43
0.0
 10
-16.19844865769516
 20
-21.83101688096525
 10
-15.97253424809514
 20
-21.83556864096524
 10
-15.68981871529514
 20
-21.84227663136526
 10
-15.37139233129517
 20
-21.85066597696526
 10
-15.03959151209515
 20
-21.86031992416527
  0
LWPOLYLINE
  5
8E
330
2
100
AcDbEntity
  8
0
  6
CONTINUOUS
 62
     7
100
AcDbPolyline
 90
        3
 70
     0
 43
0.0
 10
-16.44957625289517
 20
-21.86150789856525
 10
-16.43861353449514
 20
-21.86340784096526
 10
-16.33348635689515
 20
-21.87029940736526
  0
LWPOLYLINE
  5
93
330
2
100
AcDbEntity
  8
0
  6
CONTINUOUS
 62
     7
100
AcDbPolyline
 90
        3
 70
     0
 43
0.0
 10
-16.31707519049514
 20
-21.86046336096524
 10
-16.43254477929517
 20
-21.86015390816526
 10
-16.44957625289517
 20
-21.86150789856525
  0
LWPOLYLINE
  5
98
330
2
100
AcDbEntity
  8
0
  6
CONTINUOUS
 62
     7
100
AcDbPolyline
 90
        3
 70
     0
 43
0.0
 10
-16.44844746889516
 20
-21.83027872416527
 10
-16.43816685449515
 20
-21.82912631936525
 10
-16.35602697769516
 20
-21.82882612096527
  0
LINE
  5
9D
330
2
100
AcDbEntity
  8
0
  6
CONTINUOUS
 62
     7
100
AcDbLine
 10
-16.44859653609516
 20
-21.83027339456526
 30
0.0
 11
-16.44971310889516
 21
-21.86150300416525
 31
0.0
  0
LWPOLYLINE
  5
9E
330
2
100
AcDbEntity
  8
0
  6
CONTINUOUS
 62
     7
100
AcDbPolyline
 90
        4
 70
     0
 43
0.0
 10
-16.32517927049517
 20
-21.87070364896527
 10
-16.31566127369517
 20
-21.87240834016525
 10
-16.26748877769514
 20
-21.88680601856526
 10
-16.20929654409516
 20
-21.91563742976526
  0
LWPOLYLINE
  5
A4
330
2
100
AcDbEntity
  8
0
  6
CONTINUOUS
 62
     7
100
AcDbPolyline
 90
        6
 70
     0
 43
0.0
 10
-16.34256284809517
 20
-21.86772637056525
 10
-16.34462267849517
 20
-21.86754077696524
 10
-16.33845937289514
 20
-21.86830680096524
 10
-16.31430353289516
 20
-21.87270789856526
 10
-16.26556583369515
 20
-21.88754712896526
 10
-16.20778804169516
 20
-21.91657807456525
  0
LINE
  5
AC
330
2
100
AcDbEntity
  8
0
  6
CONTINUOUS
 62
     7
100
AcDbLine
 10
-16.35602697769516
 20
-21.82882612096527
 30
0.0
 11
-16.19844865769516
 21
-21.83101688096525
 31
0.0
  0
LINE
  5
AD
330
2
100
AcDbEntity
  8
0
  6
CONTINUOUS
 62
     7
100
AcDbLine
 10
-16.33348635689515
 20
-21.87029940736526
 30
0.0
 11
-16.32534951529514
 21
-21.87069536416525
 31
0.0
  0
LWPOLYLINE
  5
AE
330
2
100
AcDbEntity
  8
0
  6
CONTINUOUS
 62
     7
100
AcDbPolyline
 90
        4
 70
     0
 43
0.0
 10
-11.05064976329517
 20
-21.97310423296524
 10
-7.061157798495145
 20
-22.06615146816526
 10
-3.071249478495147
 20
-22.13928482656526
 10
0.9189605615048179
 20
-22.19194843616524
  0
LWPOLYLINE
  5
B4
330
2
100
AcDbEntity
  8
0
  6
CONTINUOUS
 62
     7
100
AcDbPolyline
 90
        4
 70
     0
 43
0.0
 10
-2.145833654495149
 20
-22.15149865376526
 10
-1.183600484895166
 20
-22.16301930496527
 10
0.9123958623048338
 20
-22.17832523136525
 10
1.885140412704842
 20
-22.18075825856524
  0
LINE
  5
BA
330
2
100
AcDbEntity
  8
0
  6
CONTINUOUS
 62
     7
100
AcDbLine
 10
0.9189605615048179
 20
-22.19194843616524
 30
0.0
 11
0.9650228927048516
 21
-22.19231335296524
 31
0.0
  0
LINE
  5
BB
330
2
100
AcDbEntity
  8
0
  6
CONTINUOUS
 62
     7
100
AcDbLine
 10
0.9186344063048323
 20
-22.22318824416525
 30
0.0
 11
0.9801194943048301
 21
-22.22362568736524
 31
0.0
  0
LWPOLYLINE
  5
BC
330
2
100
AcDbEntity
  8
0
  6
CONTINUOUS
 62
     7
100
AcDbPolyline
 90
        3
 70
     0
 43
0.0
 10
0.9650228927048516
 20
-22.19231335296524
 10
1.010158607904855
 20
-22.19245353376526
 10
1.051934635104842
 20
-22.19236805376525
  0
LINE
  5
C1
330
2
100
AcDbEntity
  8
0
  6
CONTINUOUS
 62
     7
100
AcDbLine
 10
0.9801194943048301
 20
-22.22362568736524
 30
0.0
 11
1.038097059104842
 21
-22.22366208576525
 31
0.0
  0
LINE
  5
C2
330
2
100
AcDbEntity
  8
0
  6
CONTINUOUS
 62
     7
100
AcDbLine
 10
1.051934635104842
 20
-22.19236805376525
 30
0.0
 11
1.087917910304852
 21
-22.19205513536525
 31
0.0
  0
LINE
  5
C3
330
2
100
AcDbEntity
  8
0
  6
CONTINUOUS
 62
     7
100
AcDbLine
 10
1.038097059104842
 20
-22.22366208576525
 30
0.0
 11
1.087595956704831
 21
-22.22329496096524
 31
0.0
  0
LWPOLYLINE
  5
C4
330
2
100
AcDbEntity
  8
0
  6
CONTINUOUS
 62
     7
100
AcDbPolyline
 90
       21
 70
     0
 43
0.0
 10
-34.77937179849515
 20
-13.40133635136525
 10
-34.63940675209514
 20
-13.36124508416526
 10
-34.48044473129515
 20
-13.31742299616524
 10
-34.30038985289515
 20
-13.26950743456524
 10
-34.09684423689516
 20
-13.21697170656527
 10
-33.86735308969516
 20
-13.15904601536524
 10
-33.60965254089514
 20
-13.09451989056526
 10
-33.32168884969515
 20
-13.02200418496527
 10
-33.00167152489515
 20
-12.94016403296525
 10
-32.64816393449515
 20
-12.84823003936524
 10
-32.26042985449515
 20
-12.74587312416525
 10
-31.83862518889515
 20
-12.63338801856525
 10
-31.38414915369514
 20
-12.51177346016526
 10
-30.90021527849518
 20
-12.38265275136525
 10
-30.39229444649516
 20
-12.24823031296524
 10
-29.86857859529514
 20
-12.11125895296525
 10
-29.33912434249517
 20
-11.97469508256526
 10
-28.81475993129516
 20
-11.84175364736526
 10
-28.30592652169517
 20
-11.71558894816524
 10
-27.82177597449516
 20
-11.59887558016524
 10
-27.36909044809515
 20
-11.49342079616527
  0
LINE
  5
DB
330
2
100
AcDbEntity
  8
0
  6
CONTINUOUS
 62
     7
100
AcDbLine
 10
-15.27428283208945
 20
-20.78763185177711
 30
0.0
 11
-35.28671858569515
 21
-20.21969777536527
 31
0.0
  0
LWPOLYLINE
  5
DE
330
2
100
AcDbEntity
  8
0
  6
CONTINUOUS
 62
     7
100
AcDbPolyline
 90
       23
 70
     0
 43
0.0
 10
-39.63201957129517
 20
-6.887439658565249
 10
-39.60192099849517
 20
-7.083690176965248
 10
-39.56185325769514
 20
-7.284449746565258
 10
-39.50916002249517
 20
-7.49196842016525
 10
-39.44103557929517
 20
-7.710877064965274
 10
-39.35782701769515
 20
-7.946401068165251
 10
-39.26521407369515
 20
-8.206904765765266
 10
-39.16560110729517
 20
-8.498905285765275
 10
-39.05863468169517
 20
-8.826686887365248
 10
-38.94385119209517
 20
-9.195756141765251
 10
-38.82130497289514
 20
-9.611402855365248
 10
-38.69133192649517
 20
-10.07958828736526
 10
-38.55499552169516
 20
-10.60527027776525
 10
-38.41389951529515
 20
-11.19232364096524
 10
-38.26989200969515
 20
-11.84487281216525
 10
-38.12336794729515
 20
-12.57736972736526
 10
-37.97858349609514
 20
-13.39114330176526
 10
-37.84862026249517
 20
-14.22510240896524
 10
-37.74336559369517
 20
-15.00271062816527
 10
-37.66011572329515
 20
-15.71723445376526
 10
-37.58889068649514
 20
-16.43582560896525
 10
-37.52532264649515
 20
-17.21191061376524
 10
-37.46968793929514
 20
-18.09064522176525
  0
LWPOLYLINE
  5
F7
330
2
100
AcDbEntity
  8
0
  6
CONTINUOUS
 62
     7
100
AcDbPolyline
 90
       21
 70
     0
 43
0.0
 10
-39.52958229769515
 20
-6.824926671365268
 10
-39.48072708649515
 20
-6.931304479365266
 10
-39.42700993129517
 20
-7.050457224965249
 10
-39.36673723369517
 20
-7.186887640965267
 10
-39.29860120169514
 20
-7.344564112965265
 10
-39.22215532809515
 20
-7.525646220165249
 10
-39.13934566569518
 20
-7.726348632965247
 10
-39.05024292169516
 20
-7.94688153696525
 10
-38.95283600009516
 20
-8.193455184965266
 10
-38.84588919689515
 20
-8.47124745056525
 10
-38.73001993129517
 20
-8.781052149765265
 10
-38.60473526249516
 20
-9.126897871365265
 10
-38.47011387849514
 20
-9.511676424965266
 10
-38.32709915849516
 20
-9.936000434565244
 10
-38.17576204329516
 20
-10.40310449216524
 10
-38.01561868809517
 20
-10.91815914336526
 10
-37.84406125129516
 20
-11.49352732736524
 10
-37.66928161609515
 20
-12.10282951616525
 10
-37.48797999049514
 20
-12.75878678336528
 10
-37.29374152969516
 20
-13.49277837536527
 10
-37.11288469929515
 20
-14.20486807456526
  0
LWPOLYLINE
  5
10E
330
2
100
AcDbEntity
  8
0
  6
CONTINUOUS
 62
     7
100
AcDbPolyline
 90
       12
 70
     0
 43
0.0
 10
-37.11287161449515
 20
-14.20486313056526
 10
-37.03786443849514
 20
-14.50502956736524
 10
-36.97206180009514
 20
-14.76702177536524
 10
-36.91068404489515
 20
-15.00727217056525
 10
-36.84501257289515
 20
-15.25905361216528
 10
-36.77106028009514
 20
-15.53852677696524
 10
-36.68589930889517
 20
-15.86008078816524
 10
-36.58814007529515
 20
-16.23950838496524
 10
-36.48579177289514
 20
-16.67157066336526
 10
-36.39298476169517
 20
-17.12719372416526
 10
-36.31389418089516
 20
-17.60276765696525
 10
-36.24800683369515
 20
-18.11868404256524
  0
ARC
  5
11C
330
2
100
AcDbEntity
  8
0
  6
CONTINUOUS
 62
     7
100
AcDbCircle
 10
-35.22289245609518
 20
-17.97060324096526
 30
0.0
 40
2.25
100
AcDbArc
 50
183.0583030361
 51
268.3744360441
  0
LWPOLYLINE
  5
11D
330
2
100
AcDbEntity
  8
0
  6
CONTINUOUS
 62
     7
100
AcDbPolyline
 90
       21
 70
     0
 43
0.0
 10
-34.14575189929514
 20
-20.25207728736526
 10
-34.30714127849516
 20
-20.24123673376525
 10
-34.46727804009517
 20
-20.21794562176526
 10
-34.62527122409516
 20
-20.18233351296525
 10
-34.78024197609514
 20
-20.13459850656527
 10
-34.93132824969515
 20
-20.07500613056524
 10
-35.07768961289515
 20
-20.00388787776525
 10
-35.21851191689517
 20
-19.92163934976525
 10
-35.35301182089515
 20
-19.82871806336525
 10
-35.48044115209517
 20
-19.72564090496526
 10
-35.60009106889517
 20
-19.61298125536524
 10
-35.71129600489518
 20
-19.49136579456526
 10
-35.81343736649516
 20
-19.36147102336526
 10
-35.90594698089516
 20
-19.22401949696526
 10
-35.98831025129516
 20
-19.07977580896526
 10
-36.06006902089514
 20
-18.92954232896526
 10
-36.12082411849514
 20
-18.77415474976526
 10
-36.17023758889514
 20
-18.61447743296526
 10
-36.20803456009515
 20
-18.45139860576525
 10
-36.23400478249514
 20
-18.28582540896526
 10
-36.24800420489518
 20
-18.11867884096526
  0
LWPOLYLINE
  5
134
330
2
100
AcDbEntity
  8
0
  6
CONTINUOUS
 62
     7
100
AcDbPolyline
 90
        4
 70
     0
 43
0.0
 10
-41.12742793977972
 20
-3.589738416965268
 10
-40.51279085129515
 20
-4.743003967365268
 10
-40.17217278409517
 20
-5.449555445765248
 10
-39.81028084169517
 20
-6.248882464965248
  0
LINE
  5
13C
330
2
100
AcDbEntity
  8
0
  6
CONTINUOUS
 62
     7
100
AcDbLine
 10
-46.54185563209515
 20
-3.589738416965268
 30
0.0
 11
-46.54185563209515
 21
-0.9647384169652681
 31
0.0
  0
LINE
  5
144
330
2
100
AcDbEntity
  8
0
  6
CONTINUOUS
 62
     7
100
AcDbLine
 10
-46.54185563209515
 20
-2.089738416965268
 30
0.0
 11
-46.29185563209515
 21
-2.089738416965268
 31
0.0
  0
LINE
  5
145
330
2
100
AcDbEntity
  8
0
  6
CONTINUOUS
 62
     7
100
AcDbLine
 10
-46.29185563209515
 20
-2.094019381765278
 30
0.0
 11
-46.29185563209515
 21
-0.9647384169652681
 31
0.0
  0
LINE
  5
146
330
2
100
AcDbEntity
  8
0
  6
HIDDEN
 62
     8
100
AcDbLine
 10
-42.79835332329517
 20
-1.140502767365248
 30
0.0
 11
-42.86235702249517
 21
-1.164325533765278
 31
0.0
  0
LINE
  5
147
330
2
100
AcDbEntity
  8
0
  6
HIDDEN
 62
     8
100
AcDbLine
 10
-42.86235702249517
 20
-1.164325533765278
 30
0.0
 11
-42.90735846249517
 21
-1.155302165765284
 31
0.0
  0
LINE
  5
148
330
2
100
AcDbEntity
  8
0
  6
HIDDEN
 62
     8
100
AcDbLine
 10
-42.92944430089515
 20
-1.150664164165291
 30
0.0
 11
-43.03700764809515
 21
-1.122582997765292
 31
0.0
  0
LINE
  5
149
330
2
100
AcDbEntity
  8
0
  6
HIDDEN
 62
     8
100
AcDbLine
 10
-43.03700764809515
 20
-1.122582997765292
 30
0.0
 11
-43.14135378889517
 21
-1.104548221765291
 31
0.0
  0
LINE
  5
14A
330
2
100
AcDbEntity
  8
0
  6
HIDDEN
 62
     8
100
AcDbLine
 10
-43.14135378889517
 20
-1.104548221765291
 30
0.0
 11
-43.24276761129515
 21
-1.095841309765283
 31
0.0
  0
LINE
  5
14B
330
2
100
AcDbEntity
  8
0
  6
HIDDEN
 62
     8
100
AcDbLine
 10
-43.24276761129515
 20
-1.095841309765283
 30
0.0
 11
-43.34448056329515
 21
-1.096044372165266
 31
0.0
  0
LINE
  5
14C
330
2
100
AcDbEntity
  8
0
  6
HIDDEN
 62
     8
100
AcDbLine
 10
-43.34448056329515
 20
-1.096044372165266
 30
0.0
 11
-43.45254693929518
 21
-1.105699757765265
 31
0.0
  0
LINE
  5
14D
330
2
100
AcDbEntity
  8
0
  6
HIDDEN
 62
     8
100
AcDbLine
 10
-43.45254693929518
 20
-1.105699757765265
 30
0.0
 11
-43.56927394409516
 21
-1.125962460165283
 31
0.0
  0
LINE
  5
14E
330
2
100
AcDbEntity
  8
0
  6
HIDDEN
 62
     8
100
AcDbLine
 10
-43.78776561929515
 20
-1.153975973765248
 30
0.0
 11
-43.87578272489518
 21
-1.189180045765247
 31
0.0
  0
LINE
  5
14F
330
2
100
AcDbEntity
  8
0
  6
HIDDEN
 62
     8
100
AcDbLine
 10
-43.87578272489518
 20
-1.189180045765247
 30
0.0
 11
-43.95224204329514
 21
-1.224825765765274
 31
0.0
  0
LINE
  5
150
330
2
100
AcDbEntity
  8
0
  6
HIDDEN
 62
     8
100
AcDbLine
 10
-43.95224204329514
 20
-1.224825765765274
 30
0.0
 11
-44.01804343049515
 21
-1.260080442565261
 31
0.0
  0
LINE
  5
151
330
2
100
AcDbEntity
  8
0
  6
HIDDEN
 62
     8
100
AcDbLine
 10
-44.01804343049515
 20
-1.260080442565261
 30
0.0
 11
-44.07418109609518
 21
-1.296016941765266
 31
0.0
  0
LINE
  5
152
330
2
100
AcDbEntity
  8
0
  6
HIDDEN
 62
     8
100
AcDbLine
 10
-44.07418109609518
 20
-1.296016941765266
 30
0.0
 11
-44.12364524169515
 21
-1.33530767456525
 31
0.0
  0
LINE
  5
153
330
2
100
AcDbEntity
  8
0
  6
HIDDEN
 62
     8
100
AcDbLine
 10
-44.12364524169515
 20
-1.33530767456525
 30
0.0
 11
-44.17127058249517
 21
-1.381909904965247
 31
0.0
  0
LINE
  5
154
330
2
100
AcDbEntity
  8
0
  6
HIDDEN
 62
     8
100
AcDbLine
 10
-44.17127058249517
 20
-1.381909904965247
 30
0.0
 11
-44.22037228489514
 21
-1.43973981536525
 31
0.0
  0
ARC
  5
155
330
2
100
AcDbEntity
  8
0
  6
CONTINUOUS
 62
     7
100
AcDbCircle
 10
-44.63844521609515
 20
-2.015898620165266
 30
0.0
 40
0.125
100
AcDbArc
 50
321.2169919191
 51
343.6152492196
  0
LINE
  5
156
330
2
100
AcDbEntity
  8
0
  6
HIDDEN
 62
     8
100
AcDbLine
 10
-44.48144722889515
 20
-1.943169284165279
 30
0.0
 11
-44.51852154089515
 21
-2.051159397765268
 31
0.0
  0
LINE
  5
157
330
2
100
AcDbEntity
  8
0
  6
HIDDEN
 62
     8
100
AcDbLine
 10
-44.43306554729515
 20
-1.830336887365298
 30
0.0
 11
-44.48144722889515
 21
-1.943169284165279
 31
0.0
  0
LINE
  5
158
330
2
100
AcDbEntity
  8
0
  6
HIDDEN
 62
     8
100
AcDbLine
 10
-40.91696778729515
 20
-1.383416196165249
 30
0.0
 11
-41.24658722249516
 21
-1.34558713856525
 31
0.0
  0
LINE
  5
159
330
2
100
AcDbEntity
  8
0
  6
HIDDEN
 62
     8
100
AcDbLine
 10
-41.24658722249516
 20
-1.34558713856525
 30
0.0
 11
-41.54255011369515
 21
-1.310287602565274
 31
0.0
  0
LINE
  5
15A
330
2
100
AcDbEntity
  8
0
  6
HIDDEN
 62
     8
100
AcDbLine
 10
-41.54255011369515
 20
-1.310287602565274
 30
0.0
 11
-41.80793374729517
 21
-1.277586330565249
 31
0.0
  0
LINE
  5
15B
330
2
100
AcDbEntity
  8
0
  6
HIDDEN
 62
     8
100
AcDbLine
 10
-41.80793374729517
 20
-1.277586330565249
 30
0.0
 11
-42.04525253929515
 21
-1.247464685765265
 31
0.0
  0
LINE
  5
15C
330
2
100
AcDbEntity
  8
0
  6
HIDDEN
 62
     8
100
AcDbLine
 10
-42.04525253929515
 20
-1.247464685765265
 30
0.0
 11
-42.25518093929516
 21
-1.21998412256525
 31
0.0
  0
LINE
  5
15D
330
2
100
AcDbEntity
  8
0
  6
HIDDEN
 62
     8
100
AcDbLine
 10
-41.60697936809517
 20
-2.440466016965267
 30
0.0
 11
-41.75036327049514
 21
-2.207739676165267
 31
0.0
  0
LINE
  5
160
330
2
100
AcDbEntity
  8
0
  6
HIDDEN
 62
     8
100
AcDbLine
 10
-41.75036327049514
 20
-2.207739676165267
 30
0.0
 11
-41.88626210089517
 21
-2.004694853765265
 31
0.0
  0
LINE
  5
161
330
2
100
AcDbEntity
  8
0
  6
HIDDEN
 62
     8
100
AcDbLine
 10
-42.13593272969514
 20
-1.64939818976525
 30
0.0
 11
-42.25107133929516
 21
-1.529250178565249
 31
0.0
  0
LINE
  5
162
330
2
100
AcDbEntity
  8
0
  6
HIDDEN
 62
     8
100
AcDbLine
 10
-42.43656185769517
 20
-1.195345519365261
 30
0.0
 11
-42.58825640489514
 21
-1.173718220165248
 31
0.0
  0
LINE
  5
163
330
2
100
AcDbEntity
  8
0
  6
HIDDEN
 62
     8
100
AcDbLine
 10
-42.58825640489514
 20
-1.173718220165248
 30
0.0
 11
-42.70892679209515
 21
-1.155353322565261
 31
0.0
  0
LINE
  5
164
330
2
100
AcDbEntity
  8
0
  6
HIDDEN
 62
     8
100
AcDbLine
 10
-42.70892679209515
 20
-1.155353322565261
 30
0.0
 11
-42.79835332329517
 21
-1.140502767365248
 31
0.0
  0
LINE
  5
165
330
2
100
AcDbEntity
  8
0
  6
HIDDEN
 62
     8
100
AcDbLine
 10
-42.36305608649515
 20
-1.428714844165249
 30
0.0
 11
-42.47613914409515
 21
-1.341893829765261
 31
0.0
  0
LINE
  5
166
330
2
100
AcDbEntity
  8
0
  6
HIDDEN
 62
     8
100
AcDbLine
 10
-42.47613914409515
 20
-1.341893829765261
 30
0.0
 11
-42.59092803049514
 21
-1.267089210565266
 31
0.0
  0
LINE
  5
167
330
2
100
AcDbEntity
  8
0
  6
HIDDEN
 62
     8
100
AcDbLine
 10
-42.59092803049514
 20
-1.267089210565266
 30
0.0
 11
-42.70573916649515
 21
-1.20448621696525
 31
0.0
  0
LINE
  5
168
330
2
100
AcDbEntity
  8
0
  6
HIDDEN
 62
     8
100
AcDbLine
 10
-42.70573916649515
 20
-1.20448621696525
 30
0.0
 11
-42.74004697769516
 21
-1.188029500165249
 31
0.0
  0
LINE
  5
169
330
2
100
AcDbEntity
  8
0
  6
HIDDEN
 62
     8
100
AcDbLine
 10
-42.25518093929516
 20
-1.21998412256525
 30
0.0
 11
-42.43656185769517
 21
-1.195345519365261
 31
0.0
  0
LINE
  5
16A
330
2
100
AcDbEntity
  8
0
  6
HIDDEN
 62
     8
100
AcDbLine
 10
-42.25107133929516
 20
-1.529250178565249
 30
0.0
 11
-42.36305608649515
 21
-1.428714844165249
 31
0.0
  0
LWPOLYLINE
  5
16B
330
2
100
AcDbEntity
  8
0
  6
CONTINUOUS
 62
     7
100
AcDbPolyline
 90
       11
 70
     0
 43
0.0
 10
-39.80830334249515
 20
-6.252729492165251
 10
-39.79218409609515
 20
-6.284302496965274
 10
-39.77816961609514
 20
-6.311895368965274
 10
-39.76028713769516
 20
-6.347299032965274
 10
-39.73863206409514
 20
-6.390469082565275
 10
-39.71326570409514
 20
-6.441459098565275
 10
-39.68423258729515
 20
-6.500388052165249
 10
-39.65150695049517
 20
-6.567552696965258
 10
-39.61493802569518
 20
-6.643551807365248
 10
-39.57438446889517
 20
-6.729022023365274
 10
-39.52958229769515
 20
-6.824926671365268
  0
ARC
  5
178
330
2
100
AcDbEntity
  8
0
  6
CONTINUOUS
 62
     7
100
AcDbCircle
 10
-41.98629063529515
 20
-7.200541396165249
 30
0.0
 40
2.3749999936
100
AcDbArc
 50
7.575486785299998
 51
23.62240878619999
  0
LINE
  5
179
330
2
100
AcDbEntity
  8
0
  6
CONTINUOUS
 62
     7
100
AcDbLine
 10
-39.81028084169517
 20
-6.248882464965248
 30
0.0
 11
-39.80830334249515
 21
-6.252729492165251
 31
0.0
  0
LINE
  5
17A
330
2
100
AcDbEntity
  8
0
  6
HIDDEN
 62
     8
100
AcDbLine
 10
-36.32865840809516
 20
-1.819041111365265
 30
0.0
 11
-36.82749204009516
 21
-1.783053629765291
 31
0.0
  0
LINE
  5
17B
330
2
100
AcDbEntity
  8
0
  6
HIDDEN
 62
     8
100
AcDbLine
 10
-38.46032864969515
 20
-1.622307623365266
 30
0.0
 11
-38.86354756329515
 21
-1.588103391365265
 31
0.0
  0
LINE
  5
17C
330
2
100
AcDbEntity
  8
0
  6
HIDDEN
 62
     8
100
AcDbLine
 10
-38.86354756329515
 20
-1.588103391365265
 30
0.0
 11
-39.27388655849515
 21
-1.551237799365274
 31
0.0
  0
LINE
  5
17D
330
2
100
AcDbEntity
  8
0
  6
HIDDEN
 62
     8
100
AcDbLine
 10
-39.27388655849515
 20
-1.551237799365274
 30
0.0
 11
-39.69948252489518
 21
-1.510788511365248
 31
0.0
  0
LINE
  5
17E
330
2
100
AcDbEntity
  8
0
  6
HIDDEN
 62
     8
100
AcDbLine
 10
-36.82749204009516
 20
-1.783053629765291
 30
0.0
 11
-37.26396894889514
 21
-1.715211288965249
 31
0.0
  0
LINE
  5
17F
330
2
100
AcDbEntity
  8
0
  6
HIDDEN
 62
     8
100
AcDbLine
 10
-34.06580979049516
 20
-1.982067812165283
 30
0.0
 11
-34.45052644329516
 21
-1.950892024965284
 31
0.0
  0
LINE
  5
180
330
2
100
AcDbEntity
  8
0
  6
HIDDEN
 62
     8
100
AcDbLine
 10
-34.45052644329516
 20
-1.950892024965284
 30
0.0
 11
-34.85848667849516
 21
-1.920847866565267
 31
0.0
  0
LINE
  5
181
330
2
100
AcDbEntity
  8
0
  6
HIDDEN
 62
     8
100
AcDbLine
 10
-35.79452198889514
 20
-1.856212324165291
 30
0.0
 11
-36.32865840809516
 21
-1.819041111365265
 31
0.0
  0
LINE
  5
182
330
2
100
AcDbEntity
  8
0
  6
HIDDEN
 62
     8
100
AcDbLine
 10
-32.86222282889514
 20
-2.094019381765278
 30
0.0
 11
-33.01838599209514
 21
-2.080027317765278
 31
0.0
  0
LINE
  5
183
330
2
100
AcDbEntity
  8
0
  6
HIDDEN
 62
     8
100
AcDbLine
 10
-33.01838599209514
 20
-2.080027317765278
 30
0.0
 11
-33.35025288009514
 21
-2.048580151365278
 31
0.0
  0
LINE
  5
184
330
2
100
AcDbEntity
  8
0
  6
HIDDEN
 62
     8
100
AcDbLine
 10
-33.69993607689515
 20
-2.015131237765267
 30
0.0
 11
-34.06580979049516
 21
-1.982067812165283
 31
0.0
  0
LINE
  5
185
330
2
100
AcDbEntity
  8
0
  6
HIDDEN
 62
     8
100
AcDbLine
 10
-33.35025288009514
 20
-2.048580151365278
 30
0.0
 11
-33.69993607689515
 21
-2.015131237765267
 31
0.0
  0
LINE
  5
188
330
2
100
AcDbEntity
  8
0
  6
CONTINUOUS
 62
     7
100
AcDbLine
 10
-25.27672566249516
 20
-20.56629710816526
 30
0.0
 11
-31.09361700649516
 21
-20.40121921216526
 31
0.0
  0
LINE
  5
189
330
2
100
AcDbEntity
  8
0
  6
CONTINUOUS
 62
     7
100
AcDbLine
 10
-25.27761215209514
 20
-20.59753453216524
 30
0.0
 11
-31.09450349449515
 21
-20.43245663456525
 31
0.0
  0
ARC
  5
18A
330
2
100
AcDbEntity
  8
0
  6
CONTINUOUS
 62
     7
100
AcDbCircle
 10
-30.88369173129514
 20
-20.78232766976526
 30
0.0
 40
0.3437354047999999
100
AcDbArc
 50
15.0018223873
 51
88.38080431349998
  0
ARC
  5
18B
330
2
100
AcDbEntity
  8
0
  6
CONTINUOUS
 62
     7
100
AcDbCircle
 10
-30.88372992489515
 20
-20.78232658656526
 30
0.0
 40
0.34375
100
AcDbArc
 50
15.0
 51
63.9155239618
  0
ARC
  5
18C
330
2
100
AcDbEntity
  8
0
  6
CONTINUOUS
 62
     7
100
AcDbCircle
 10
-25.49098853129514
 20
-20.93536750656525
 30
0.0
 40
0.34375
100
AcDbArc
 50
88.37443604410001
 51
165.0
  0
LINE
  5
18D
330
2
100
AcDbEntity
  8
0
  6
CONTINUOUS
 62
     7
100
AcDbLine
 10
-24.87715483049516
 20
-10.95753221536524
 30
0.0
 11
-26.40464191529514
 21
-11.27813981056525
 31
0.0
  0
LINE
  5
18E
330
2
100
AcDbEntity
  8
0
  6
CONTINUOUS
 62
     7
100
AcDbLine
 10
-26.54020917609514
 20
-11.30779406336525
 30
0.0
 11
-26.65920836809515
 21
-11.33398702336527
 31
0.0
  0
LWPOLYLINE
  5
18F
330
2
100
AcDbEntity
  8
0
  6
CONTINUOUS
 62
     7
100
AcDbPolyline
 90
        3
 70
     0
 43
0.0
 10
-26.40464191529514
 20
-11.27813981056525
 10
-26.44474528969515
 20
-11.28689154496525
 10
-26.54020917609514
 20
-11.30779406336525
  0
LWPOLYLINE
  5
194
330
2
100
AcDbEntity
  8
0
  6
CONTINUOUS
 62
     7
100
AcDbPolyline
 90
        8
 70
     0
 43
0.0
 10
-26.65920836809515
 20
-11.33398702336527
 10
-26.72933929609515
 20
-11.34949498016526
 10
-26.80776728169515
 20
-11.36690045856526
 10
-26.89564054889514
 20
-11.38648097856527
 10
-26.99417642569514
 20
-11.40853664256526
 10
-27.10483624809516
 20
-11.43343126816525
 10
-27.22917307369515
 20
-11.46156099456527
 10
-27.36913145769515
 20
-11.49342552896526
  0
LWPOLYLINE
  5
19E
330
2
100
AcDbEntity
  8
0
  6
CONTINUOUS
 62
     7
100
AcDbPolyline
 90
        3
 70
     0
 43
0.0
 10
-27.36913145769515
 20
-11.49342552896526
 10
-26.55424788809515
 20
-11.31087620416527
 10
-26.40451588489515
 20
-11.27872678176525
  0
LWPOLYLINE
  5
1A3
330
2
100
AcDbEntity
  8
0
  6
CONTINUOUS
 62
     7
100
AcDbPolyline
 90
       15
 70
     0
 43
0.0
 10
-19.01006539689515
 20
-21.16793072736526
 10
-19.02641867049514
 20
-21.07141437056525
 10
-19.04500422729516
 20
-20.98905943296525
 10
-19.06561791369514
 20
-20.92045950016525
 10
-19.08765148169514
 20
-20.86483698176525
 10
-19.11019175209514
 20
-20.82100272096526
 10
-19.13251613929515
 20
-20.78702337536525
 10
-19.15467747529514
 20
-20.76038349536526
 10
-19.17724266409514
 20
-20.73887576096525
 10
-19.20096196809515
 20
-20.72107541376524
 10
-19.22696074889516
 20
-20.70604085536526
 10
-19.25653204969516
 20
-20.69325000096525
 10
-19.29134445929514
 20
-20.68275165696526
 10
-19.33356764329516
 20
-20.67496533216524
 10
-19.38524960969516
 20
-20.67096648576524
  0
LINE
  5
332
330
2
100
AcDbEntity
  8
0
  6
CONTINUOUS
 62
     7
100
AcDbLine
 10
8.807945182304834
 20
-21.26854297216524
 30
0.0
 11
8.860001228704831
 21
-21.14945300896526
 31
0.0
  0
LINE
  5
333
330
2
100
AcDbEntity
  8
0
  6
CENTER
 62
     1
100
AcDbLine
 10
4.95814436790485
 20
-18.99875573806156
 30
0.0
 11
4.95814436790485
 21
-26.36822109586899
 31
0.0
  0
LINE
  5
335
330
2
100
AcDbEntity
  8
0
  6
CONTINUOUS
 62
     7
100
AcDbLine
 10
6.849451606304853
 20
-22.21895787296524
 30
0.0
 11
6.494756019104855
 21
-22.57365346016527
 31
0.0
  0
LWPOLYLINE
  5
336
330
2
100
AcDbEntity
  8
0
  6
CONTINUOUS
 62
     7
100
AcDbPolyline
 90
        5
 70
     0
 43
0.0
 10
6.450984076704855
 20
-22.19055843776526
 10
6.551419383904843
 20
-22.19046319936527
 10
6.670605691104853
 20
-22.19020849056526
 10
6.81766690550485
 20
-22.18963436416525
 10
7.01098649110483
 20
-22.18833986816524
  0
LWPOLYLINE
  5
33D
330
2
100
AcDbEntity
  8
0
  6
CONTINUOUS
 62
     7
100
AcDbPolyline
 90
        7
 70
     0
 43
0.0
 10
3.063582889504829
 20
-22.16166167936526
 10
3.316842097504832
 20
-22.15864064416526
 10
3.61499749750483
 20
-22.15762502336525
 10
3.937001283104834
 20
-22.15862952096525
 10
4.261943631904856
 20
-22.16167513216525
 10
4.571288011104854
 20
-22.16657733216526
 10
4.848495537504831
 20
-22.17298619936526
  0
ARC
  5
346
330
2
100
AcDbEntity
  8
0
  6
CONTINUOUS
 62
     7
100
AcDbCircle
 10
4.101963487904853
 20
-22.18348841696526
 30
0.0
 40
0.90625
100
AcDbArc
 50
270.0
 51
341.5890988322
  0
LWPOLYLINE
  5
347
330
2
100
AcDbEntity
  8
0
  6
CONTINUOUS
 62
     7
100
AcDbPolyline
 90
        8
 70
     0
 43
0.0
 10
3.063267747104831
 20
-22.19289796576526
 10
3.372887014304851
 20
-22.18951250816525
 10
3.733194180704842
 20
-22.18899691936526
 10
4.108690526304854
 20
-22.19122146336526
 10
4.458968299104853
 20
-22.19579621216524
 10
4.762400545504831
 20
-22.20198515616524
 10
5.004513059104851
 20
-22.20908524736526
 10
5.185209793504853
 20
-22.21678414176526
  0
LINE
  5
351
330
2
100
AcDbEntity
  8
0
  6
CONTINUOUS
 62
     7
100
AcDbLine
 10
2.421450628704832
 20
-22.20376328736525
 30
0.0
 11
3.063267747104831
 21
-22.19289796576526
 31
0.0
  0
LINE
  5
352
330
2
100
AcDbEntity
  8
0
  6
CONTINUOUS
 62
     7
100
AcDbLine
 10
2.56979123830483
 20
-22.17012170016527
 30
0.0
 11
3.063582889504829
 21
-22.16166167936526
 31
0.0
  0
ARC
  5
353
330
2
100
AcDbEntity
  8
0
  6
CONTINUOUS
 62
     7
100
AcDbCircle
 10
6.229590975904855
 20
-22.30848841696527
 30
0.0
 40
0.375
100
AcDbArc
 50
270.0
 51
315.0
  0
LINE
  5
354
330
2
100
AcDbEntity
  8
0
  6
CONTINUOUS
 62
     7
100
AcDbLine
 10
6.219934161504852
 20
-22.19003159296524
 30
0.0
 11
6.095325273504855
 21
-22.18944744896526
 31
0.0
  0
LINE
  5
355
330
2
100
AcDbEntity
  8
0
  6
CONTINUOUS
 62
     7
100
AcDbLine
 10
6.277257675104848
 20
-22.19026469696525
 30
0.0
 11
6.219934161504852
 21
-22.19003159296524
 31
0.0
  0
LINE
  5
356
330
2
100
AcDbEntity
  8
0
  6
CONTINUOUS
 62
     7
100
AcDbLine
 10
6.297454099104854
 20
-22.19033938656524
 30
0.0
 11
6.277257675104848
 21
-22.19026469696525
 31
0.0
  0
LINE
  5
357
330
2
100
AcDbEntity
  8
0
  6
CONTINUOUS
 62
     7
100
AcDbLine
 10
6.313640801504831
 20
-22.19039605696524
 30
0.0
 11
6.297454099104854
 21
-22.19033938656524
 31
0.0
  0
LINE
  5
358
330
2
100
AcDbEntity
  8
0
  6
CONTINUOUS
 62
     7
100
AcDbLine
 10
6.345927396704851
 20
-22.19046973056526
 30
0.0
 11
6.313640801504831
 21
-22.19039605696524
 31
0.0
  0
LINE
  5
359
330
2
100
AcDbEntity
  8
0
  6
CONTINUOUS
 62
     7
100
AcDbLine
 10
6.352245881504842
 20
-22.19046666816525
 30
0.0
 11
6.345927396704851
 21
-22.19046973056526
 31
0.0
  0
LINE
  5
35A
330
2
100
AcDbEntity
  8
0
  6
CONTINUOUS
 62
     7
100
AcDbLine
 10
5.361794783904855
 20
-22.23470784896524
 30
0.0
 11
5.36197482710483
 21
-22.20347025536526
 31
0.0
  0
LWPOLYLINE
  5
35B
330
2
100
AcDbEntity
  8
0
  6
CONTINUOUS
 62
     7
100
AcDbPolyline
 90
        3
 70
     0
 43
0.0
 10
5.306226260704818
 20
-22.22490915616526
 10
5.360460415904853
 20
-22.23325754176527
 10
5.361386897504829
 20
-22.23470545856526
  0
LWPOLYLINE
  5
360
330
2
100
AcDbEntity
  8
0
  6
CONTINUOUS
 62
     7
100
AcDbPolyline
 90
        3
 70
     0
 43
0.0
 10
6.095325273504855
 20
-22.18944744896526
 10
5.91422240630483
 20
-22.18848377536525
 10
5.849696347104853
 20
-22.18812021056526
  0
LINE
  5
365
330
2
100
AcDbEntity
  8
0
  6
CONTINUOUS
 62
     7
100
AcDbLine
 10
4.995846196704832
 20
-22.39722841376524
 30
0.0
 11
5.05186493270483
 21
-22.32874465376525
 31
0.0
  0
LINE
  5
366
330
2
100
AcDbEntity
  8
0
  6
CONTINUOUS
 62
     7
100
AcDbLine
 10
4.961774135904832
 20
-22.46984068576524
 30
0.0
 11
4.995846196704832
 21
-22.39722841376524
 31
0.0
  0
LINE
  5
367
330
2
100
AcDbEntity
  8
0
  6
CONTINUOUS
 62
     7
100
AcDbLine
 10
5.05186493270483
 20
-22.32874465376525
 30
0.0
 11
5.116951140704856
 21
-22.28064260576526
 31
0.0
  0
LWPOLYLINE
  5
368
330
2
100
AcDbEntity
  8
0
  6
CONTINUOUS
 62
     7
100
AcDbPolyline
 90
        4
 70
     0
 43
0.0
 10
5.116951140704856
 20
-22.28064260576526
 10
5.176498388704843
 20
-22.25407558016525
 10
5.213833454304833
 20
-22.24418934496525
 10
5.22407766710485
 20
-22.24242292736526
  0
LINE
  5
36E
330
2
100
AcDbEntity
  8
0
  6
CONTINUOUS
 62
     7
100
AcDbLine
 10
5.077160241504842
 20
-22.18058008096524
 30
0.0
 11
5.244123299104842
 21
-22.18895374816526
 31
0.0
  0
LWPOLYLINE
  5
36F
330
2
100
AcDbEntity
  8
0
  6
CONTINUOUS
 62
     7
100
AcDbPolyline
 90
        3
 70
     0
 43
0.0
 10
5.244123299104842
 20
-22.18895374816526
 10
5.340752049504843
 20
-22.19752520416526
 10
5.361820537504854
 20
-22.20346937376526
  0
LINE
  5
374
330
2
100
AcDbEntity
  8
0
  6
CONTINUOUS
 62
     7
100
AcDbLine
 10
5.185209793504853
 20
-22.21678414176526
 30
0.0
 11
5.306226260704818
 21
-22.22490915616526
 31
0.0
  0
LWPOLYLINE
  5
375
330
2
100
AcDbEntity
  8
0
  6
CONTINUOUS
 62
     7
100
AcDbPolyline
 90
        7
 70
     0
 43
0.0
 10
5.849696347104853
 20
-22.18812021056526
 10
5.685245510304852
 20
-22.18716845696526
 10
5.579563374304854
 20
-22.18654680096526
 10
5.454103779104855
 20
-22.18581437376526
 10
5.325861775904854
 20
-22.18511300576526
 10
5.192942511904831
 20
-22.18443234976526
 10
5.149431043104854
 20
-22.18420466496525
  0
LWPOLYLINE
  5
37E
330
2
100
AcDbEntity
  8
0
  6
CONTINUOUS
 62
     7
100
AcDbPolyline
 90
        3
 70
     0
 43
0.0
 10
5.361386897504829
 20
-22.23470545856526
 10
5.330163913504833
 20
-22.24119605056525
 10
5.202957385504831
 20
-22.24775251616525
  0
LINE
  5
383
330
2
100
AcDbEntity
  8
0
  6
CONTINUOUS
 62
     7
100
AcDbLine
 10
6.229589967904843
 20
-22.68348841696526
 30
0.0
 11
4.852533191904853
 21
-22.68348841696526
 31
0.0
  0
LINE
  5
384
330
2
100
AcDbEntity
  8
0
  6
CONTINUOUS
 62
     7
100
AcDbLine
 10
4.848495537504831
 20
-22.17298619936526
 30
0.0
 11
5.077160241504842
 21
-22.18058008096524
 31
0.0
  0
LINE
  5
385
330
2
100
AcDbEntity
  8
0
  6
CONTINUOUS
 62
     7
100
AcDbLine
 10
8.677247188704853
 20
-21.49084407616526
 30
0.0
 11
8.747460761504854
 21
-21.38152613056524
 31
0.0
  0
LINE
  5
386
330
2
100
AcDbEntity
  8
0
  6
CONTINUOUS
 62
     7
100
AcDbLine
 10
7.623641726304853
 20
-22.15999496736525
 30
0.0
 11
7.750366902304847
 21
-22.13275716576525
 31
0.0
  0
LINE
  5
387
330
2
100
AcDbEntity
  8
0
  6
CONTINUOUS
 62
     7
100
AcDbLine
 10
7.990787078304833
 20
-22.05045719616526
 30
0.0
 11
8.106394017504854
 21
-21.99496962976525
 31
0.0
  0
LINE
  5
388
330
2
100
AcDbEntity
  8
0
  6
CONTINUOUS
 62
     7
100
AcDbLine
 10
7.871938289504853
 20
-22.09639676256525
 30
0.0
 11
7.991606561504852
 21
-22.05010266016525
 31
0.0
  0
LINE
  5
389
330
2
100
AcDbEntity
  8
0
  6
CONTINUOUS
 62
     7
100
AcDbLine
 10
7.749498601504853
 20
-22.13298009216527
 30
0.0
 11
7.87278412950485
 21
-22.09610711136524
 31
0.0
  0
LINE
  5
38A
330
2
100
AcDbEntity
  8
0
  6
CONTINUOUS
 62
     7
100
AcDbLine
 10
8.105604777504851
 20
-21.99538722976524
 30
0.0
 11
8.21662096630483
 21
-21.93095315456526
 31
0.0
  0
LINE
  5
38B
330
2
100
AcDbEntity
  8
0
  6
CONTINUOUS
 62
     7
100
AcDbLine
 10
8.59914173270485
 20
-21.59345955136525
 30
0.0
 11
8.677763975904852
 21
-21.49010566976524
 31
0.0
  0
LINE
  5
38C
330
2
100
AcDbEntity
  8
0
  6
CONTINUOUS
 62
     7
100
AcDbLine
 10
8.420311587104833
 20
-21.77809265696525
 30
0.0
 11
8.513898695904842
 21
-21.68878319776526
 31
0.0
  0
LINE
  5
38D
330
2
100
AcDbEntity
  8
0
  6
CONTINUOUS
 62
     7
100
AcDbLine
 10
8.320969235104854
 20
-21.85888967456527
 30
0.0
 11
8.42098653590483
 21
-21.77749770656525
 31
0.0
  0
LINE
  5
38E
330
2
100
AcDbEntity
  8
0
  6
CONTINUOUS
 62
     7
100
AcDbLine
 10
8.215865401504842
 20
-21.93143224256524
 30
0.0
 11
8.321686979104853
 21
-21.85835115936524
 31
0.0
  0
LINE
  5
38F
330
2
100
AcDbEntity
  8
0
  6
CONTINUOUS
 62
     7
100
AcDbLine
 10
8.513271908704851
 20
-21.68943055616524
 30
0.0
 11
8.599715545504849
 21
-21.59276430656525
 31
0.0
  0
LINE
  5
390
330
2
100
AcDbEntity
  8
0
  6
CONTINUOUS
 62
     7
100
AcDbLine
 10
7.374296271904853
 20
-22.18368928736527
 30
0.0
 11
7.495625035104851
 21
-22.17700745696525
 31
0.0
  0
LINE
  5
391
330
2
100
AcDbEntity
  8
0
  6
CONTINUOUS
 62
     7
100
AcDbLine
 10
7.494728356704854
 20
-22.17709029056526
 30
0.0
 11
7.624527943904851
 21
-22.15984090656525
 31
0.0
  0
ARC
  5
392
330
2
100
AcDbEntity
  8
0
  6
CONTINUOUS
 62
     7
100
AcDbCircle
 10
6.937839715104843
 20
-22.30734646016525
 30
0.0
 40
0.125
100
AcDbArc
 50
108.8310571954
 51
134.9999999842999
  0
LWPOLYLINE
  5
393
330
2
100
AcDbEntity
  8
0
  6
CONTINUOUS
 62
     7
100
AcDbPolyline
 90
        3
 70
     0
 43
0.0
 10
7.01098649110483
 20
-22.18833986816524
 10
7.269763139104853
 20
-22.18537570176526
 10
7.374294724704853
 20
-22.18368943936526
  0
LINE
  5
398
330
2
100
AcDbEntity
  8
0
  6
CONTINUOUS
 62
     7
100
AcDbLine
 10
8.74700437430485
 20
-21.38230286656527
 30
0.0
 11
8.80833827670483
 21
-21.26773294336526
 31
0.0
  0
LWPOLYLINE
  5
399
330
2
100
AcDbEntity
  8
0
  6
CONTINUOUS
 62
     7
100
AcDbPolyline
 90
        9
 70
     0
 43
0.0
 10
9.843638155104855
 20
-14.54316568736527
 10
10.08655414870483
 20
-12.78452508576527
 10
10.20058038870484
 20
-11.95969554336524
 10
10.31038022390482
 20
-11.16679933696524
 10
10.41645633110485
 20
-10.40257107296526
 10
10.51931150710483
 20
-9.663585463365251
 10
10.61957002070485
 20
-8.945372733765275
 10
10.71774538550485
 20
-8.244136264965248
 10
10.81283885590484
 20
-7.566832941765248
  0
LWPOLYLINE
  5
3A4
330
2
100
AcDbEntity
  8
0
  6
CONTINUOUS
 62
     7
100
AcDbPolyline
 90
        8
 70
     0
 43
0.0
 10
8.954507142304834
 20
-20.79103782656525
 10
9.063902159904841
 20
-20.03797325216525
 10
9.186779622304854
 20
-19.19649103136524
 10
9.316684900704842
 20
-18.30155325856525
 10
9.449543219104853
 20
-17.37102156256526
 10
9.58284997910485
 20
-16.42290239616524
 10
9.714757585504855
 20
-15.47465733856525
 10
9.843638155104855
 20
-14.54316568736527
  0
LINE
  5
3AE
330
2
100
AcDbEntity
  8
0
  6
CONTINUOUS
 62
     7
100
AcDbLine
 10
8.859673879904832
 20
-21.15029109696526
 30
0.0
 11
8.90211832950483
 21
-21.02743671456527
 31
0.0
  0
LINE
  5
3AF
330
2
100
AcDbEntity
  8
0
  6
CONTINUOUS
 62
     7
100
AcDbLine
 10
8.901858700704849
 20
-21.02829754976525
 30
0.0
 11
8.934420508704832
 21
-20.90245777696524
 31
0.0
  0
LINE
  5
3B0
330
2
100
AcDbEntity
  8
0
  6
CONTINUOUS
 62
     7
100
AcDbLine
 10
8.934230161504842
 20
-20.90333583776526
 30
0.0
 11
8.954506324704851
 21
-20.79104511616525
 31
0.0
  0
LINE
  5
3B1
330
2
100
AcDbEntity
  8
0
  6
CONTINUOUS
 62
     7
100
AcDbLine
 10
10.81283997430485
 20
-7.566833154565266
 30
0.0
 11
11.3769304141502
 21
-3.589738416965268
 31
0.0
  0
LWPOLYLINE
  5
3B2
330
2
100
AcDbEntity
  8
0
  6
CONTINUOUS
 62
     7
100
AcDbPolyline
 90
        8
 70
     0
 43
0.0
 10
4.569208718304849
 20
-7.87451436896525
 10
4.865944987104853
 20
-7.862004725765274
 10
5.159812294304842
 20
-7.849800516165274
 10
5.453886995104852
 20
-7.837518381765249
 10
5.750158444704851
 20
-7.824562695365266
 10
6.045060710304852
 20
-7.810502332165249
 10
6.329732388704854
 20
-7.795605700165268
 10
6.595616454304831
 20
-7.778898952965249
  0
LWPOLYLINE
  5
3BC
330
2
100
AcDbEntity
  8
0
  6
CONTINUOUS
 62
     7
100
AcDbPolyline
 90
        5
 70
     0
 43
0.0
 10
3.024109180704854
 20
-7.94439653376525
 10
3.401004747104863
 20
-7.926618946565248
 10
3.785609974304833
 20
-7.90897123776525
 10
4.175926702304849
 20
-7.891568701765265
 10
4.56882760310485
 20
-7.874564540165273
  0
LWPOLYLINE
  5
3C3
330
2
100
AcDbEntity
  8
0
  6
CONTINUOUS
 62
     7
100
AcDbPolyline
 90
        5
 70
     0
 43
0.0
 10
2.563573094304842
 20
-7.966772580165248
 10
3.142031852704832
 20
-7.938782700165248
 10
3.669815412704849
 20
-7.91423218976525
 10
4.145812145504834
 20
-7.89289324416525
 10
4.56882760310485
 20
-7.874564540165273
  0
LINE
  5
3CA
330
2
100
AcDbEntity
  8
0
  6
HIDDEN
 62
     8
100
AcDbLine
 10
11.3561212652878
 20
-2.784420511061255
 30
0.0
 11
11.14894396630485
 21
-4.28981359136528
 31
0.0
  0
LINE
  5
3CB
330
2
100
AcDbEntity
  8
0
  6
CONTINUOUS
 62
     7
100
AcDbLine
 10
13.45814436790485
 20
-0.9647384169652681
 30
0.0
 11
13.45814436790485
 21
-3.589738416965268
 31
0.0
  0
LINE
  5
3CD
330
2
100
AcDbEntity
  8
0
  6
HIDDEN
 62
     8
 48
0.5
100
AcDbLine
 10
12.05081529513141
 20
-2.175869328023748
 30
0.0
 11
13.20814436790485
 21
-2.101637204165278
 31
0.0
  0
LINE
  5
3CE
330
2
100
AcDbEntity
  8
0
  6
CONTINUOUS
 62
     7
100
AcDbLine
 10
13.20814436790485
 20
-2.089738416965268
 30
0.0
 11
13.45814436790485
 21
-2.089738416965268
 31
0.0
  0
LINE
  5
3CF
330
2
100
AcDbEntity
  8
0
  6
CONTINUOUS
 62
     7
100
AcDbLine
 10
13.20814436790485
 20
-2.094019381765278
 30
0.0
 11
13.20814436790485
 21
-0.9647384169652681
 31
0.0
  0
ARC
  5
445
330
2
100
AcDbEntity
  8
0
  6
HIDDEN
 62
     8
 48
0.5
100
AcDbCircle
 10
12.0648788276118
 20
-2.892714571202095
 30
0.0
 40
0.7169831836335144
100
AcDbArc
 50
91.12392138798339
 51
171.312724740774
  0
LINE
  5
453
330
2
100
AcDbEntity
  8
0
100
AcDbLine
 10
13.45814436790485
 20
-3.589738416965268
 30
0.0
 11
-46.54185563209515
 21
-3.589738416965268
 31
0.0
  0
ENDSEC
  0
SECTION
  2
OBJECTS
  0
DICTIONARY
  5
1A
330
0
100
AcDbDictionary
  3
ACAD_GROUP
350
18
  3
ACAD_LAYOUT
350
3D3
  3
ACAD_MLINESTYLE
350
19
  3
ACAD_PLOTSETTINGS
350
3D4
  3
ACAD_PLOTSTYLENAME
350
3D1
  3
ACDBHEADERROUNDTRIPXREC
350
488
  3
ACDBVARIABLEDICTIONARY
350
485
  0
DICTIONARY
  5
3FD
330
2
100
AcDbDictionary
280
     1
  3
ACAD_LAYOUTSELFREF
360
4A9
  0
DICTIONARY
  5
3FF
330
7
100
AcDbDictionary
280
     1
  3
ACAD_LAYOUTSELFREF
360
4AA
  0
DICTIONARY
  5
18
102
{ACAD_REACTORS
330
1A
102
}
330
1A
100
AcDbDictionary
  0
DICTIONARY
  5
3D3
102
{ACAD_REACTORS
330
1A
102
}
330
1A
100
AcDbDictionary
  0
DICTIONARY
  5
19
102
{ACAD_REACTORS
330
1A
102
}
330
1A
100
AcDbDictionary
  3
STANDARD
350
1B
  0
DICTIONARY
  5
3D4
102
{ACAD_REACTORS
330
1A
102
}
330
1A
100
AcDbDictionary
  0
ACDBDICTIONARYWDFLT
  5
3D1
102
{ACAD_REACTORS
330
1A
102
}
330
1A
100
AcDbDictionary
281
     1
  3
Normal
350
3D2
100
AcDbDictionaryWithDefault
340
3D2
  0
DICTIONARY
  5
488
102
{ACAD_REACTORS
330
1A
102
}
330
1A
100
AcDbDictionary
  3
CEPSNTYPE
350
492
  3
DIMSTYLEDATA
350
496
  3
FINGERPRINTGUID
350
493
  3
HYPERLINKBASE
350
48B
  3
INSUNITS
350
491
  3
LAYOUTDICT
350
48D
  3
LWETCUNION
350
490
  3
PLOTSETDICT
350
48E
  3
PLOTSTYLNAMDICT
350
48F
  3
PSVPSCALE
350
495
  3
PUCSBASE
350
499
  3
PUCSORGBACK
350
49F
  3
PUCSORGBOTTOM
350
49B
  3
PUCSORGFRONT
350
49E
  3
PUCSORGLEFT
350
49C
  3
PUCSORGRIGHT
350
49D
  3
PUCSORGTOP
350
49A
  3
PUCSORTHOREF
350
497
  3
PUCSORTHOVIEW
350
498
  3
STYLESHEET
350
48C
  3
TSTACKALIGN
350
489
  3
TSTACKSIZE
350
48A
  3
UCSBASE
350
4A2
  3
UCSORGBACK
350
4A8
  3
UCSORGBOTTOM
350
4A4
  3
UCSORGFRONT
350
4A7
  3
UCSORGLEFT
350
4A5
  3
UCSORGRIGHT
350
4A6
  3
UCSORGTOP
350
4A3
  3
UCSORTHOREF
350
4A0
  3
UCSORTHOVIEW
350
4A1
  3
VERSIONGUID
350
494
  0
DICTIONARY
  5
485
102
{ACAD_REACTORS
330
1A
102
}
330
1A
100
AcDbDictionary
  3
DIMASSOC
350
486
  0
XRECORD
  5
4A9
102
{ACAD_REACTORS
330
3FD
102
}
330
3FD
100
AcDbXrecord
340
2
  0
XRECORD
  5
4AA
102
{ACAD_REACTORS
330
3FF
102
}
330
3FF
100
AcDbXrecord
340
7
  0
MLINESTYLE
  5
1B
102
{ACAD_REACTORS
330
19
102
}
330
19
100
AcDbMlineStyle
  2
STANDARD
 70
     0
  3

 62
   256
 51
90.0
 52
90.0
 71
     2
 49
0.5
 62
   256
  6
BYLAYER
 49
-0.5
 62
   256
  6
BYLAYER
  0
ACDBPLACEHOLDER
  5
3D2
102
{ACAD_REACTORS
330
3D1
102
}
330
3D1
100
AcDbPlaceHolder
280
     0
  0
XRECORD
  5
492
102
{ACAD_REACTORS
330
488
102
}
330
488
100
AcDbXrecord
 90
        0
  0
XRECORD
  5
496
102
{ACAD_REACTORS
330
488
102
}
330
488
100
AcDbXrecord
1000
DSTYLE
1002
{
1070
   341
340
1D
1070
   342
340
1D
1002
}
  0
XRECORD
  5
493
102
{ACAD_REACTORS
330
488
102
}
330
488
100
AcDbXrecord
  1
{8D9694B1-9782-4EC1-B42B-D873D1810162}
  0
XRECORD
  5
48B
102
{ACAD_REACTORS
330
488
102
}
330
488
100
AcDbXrecord
  1

  0
XRECORD
  5
491
102
{ACAD_REACTORS
330
488
102
}
330
488
100
AcDbXrecord
 90
        0
  0
XRECORD
  5
48D
102
{ACAD_REACTORS
330
488
102
}
330
488
100
AcDbXrecord
340
3D3
  0
XRECORD
  5
490
102
{ACAD_REACTORS
330
488
102
}
330
488
100
AcDbXrecord
 90
    14877
  0
XRECORD
  5
48E
102
{ACAD_REACTORS
330
488
102
}
330
488
100
AcDbXrecord
340
3D4
  0
XRECORD
  5
48F
102
{ACAD_REACTORS
330
488
102
}
330
488
100
AcDbXrecord
340
3D1
  0
XRECORD
  5
495
102
{ACAD_REACTORS
330
488
102
}
330
488
100
AcDbXrecord
 40
0.0
  0
XRECORD
  5
499
102
{ACAD_REACTORS
330
488
102
}
330
488
100
AcDbXrecord
340
0
  0
XRECORD
  5
49F
102
{ACAD_REACTORS
330
488
102
}
330
488
100
AcDbXrecord
 10
0.0
 20
0.0
 30
0.0
  0
XRECORD
  5
49B
102
{ACAD_REACTORS
330
488
102
}
330
488
100
AcDbXrecord
 10
0.0
 20
0.0
 30
0.0
  0
XRECORD
  5
49E
102
{ACAD_REACTORS
330
488
102
}
330
488
100
AcDbXrecord
 10
0.0
 20
0.0
 30
0.0
  0
XRECORD
  5
49C
102
{ACAD_REACTORS
330
488
102
}
330
488
100
AcDbXrecord
 10
0.0
 20
0.0
 30
0.0
  0
XRECORD
  5
49D
102
{ACAD_REACTORS
330
488
102
}
330
488
100
AcDbXrecord
 10
0.0
 20
0.0
 30
0.0
  0
XRECORD
  5
49A
102
{ACAD_REACTORS
330
488
102
}
330
488
100
AcDbXrecord
 10
0.0
 20
0.0
 30
0.0
  0
XRECORD
  5
497
102
{ACAD_REACTORS
330
488
102
}
330
488
100
AcDbXrecord
340
0
  0
XRECORD
  5
498
102
{ACAD_REACTORS
330
488
102
}
330
488
100
AcDbXrecord
 70
     0
  0
XRECORD
  5
48C
102
{ACAD_REACTORS
330
488
102
}
330
488
100
AcDbXrecord
  1

  0
XRECORD
  5
489
102
{ACAD_REACTORS
330
488
102
}
330
488
100
AcDbXrecord
 90
        1
  0
XRECORD
  5
48A
102
{ACAD_REACTORS
330
488
102
}
330
488
100
AcDbXrecord
 90
       70
  0
XRECORD
  5
4A2
102
{ACAD_REACTORS
330
488
102
}
330
488
100
AcDbXrecord
340
0
  0
XRECORD
  5
4A8
102
{ACAD_REACTORS
330
488
102
}
330
488
100
AcDbXrecord
 10
0.0
 20
0.0
 30
0.0
  0
XRECORD
  5
4A4
102
{ACAD_REACTORS
330
488
102
}
330
488
100
AcDbXrecord
 10
0.0
 20
0.0
 30
0.0
  0
XRECORD
  5
4A7
102
{ACAD_REACTORS
330
488
102
}
330
488
100
AcDbXrecord
 10
0.0
 20
0.0
 30
0.0
  0
XRECORD
  5
4A5
102
{ACAD_REACTORS
330
488
102
}
330
488
100
AcDbXrecord
 10
0.0
 20
0.0
 30
0.0
  0
XRECORD
  5
4A6
102
{ACAD_REACTORS
330
488
102
}
330
488
100
AcDbXrecord
 10
0.0
 20
0.0
 30
0.0
  0
XRECORD
  5
4A3
102
{ACAD_REACTORS
330
488
102
}
330
488
100
AcDbXrecord
 10
0.0
 20
0.0
 30
0.0
  0
XRECORD
  5
4A0
102
{ACAD_REACTORS
330
488
102
}
330
488
100
AcDbXrecord
340
0
  0
XRECORD
  5
4A1
102
{ACAD_REACTORS
330
488
102
}
330
488
100
AcDbXrecord
 70
     0
  0
XRECORD
  5
494
102
{ACAD_REACTORS
330
488
102
}
330
488
100
AcDbXrecord
  1
{F8E21C2C-EB27-42DF-9DA6-DBAE517D22A0}
  0
DICTIONARYVAR
  5
486
102
{ACAD_REACTORS
330
485
102
}
330
485
100
DictionaryVariables
280
     0
  1
1
  0
ENDSEC
  0
EOF
