  0
SECTION
  2
HEADER
  9
$ACADVER
  1
AC1014
  9
$ACADMAINTVER
 70
     9
  9
$DWGCODEPAGE
  3
ANSI_1252
  9
$INSBASE
 10
110.6272011048146
 20
-23.08973841696527
 30
0.0
  9
$EXTMIN
 10
96.61807023195052
 20
-27.06967915094901
 30
-0.0000000349181948
  9
$EXTMAX
 10
126.635503367996
 20
-0.9620510190182329
 30
0.0000000814935746
  9
$LIMMIN
 10
0.0
 20
0.0
  9
$LIMMAX
 10
17.0
 20
11.0
  9
$ORTHOMODE
 70
     1
  9
$REGENMODE
 70
     1
  9
$FILLMODE
 70
     1
  9
$QTEXTMODE
 70
     0
  9
$MIRRTEXT
 70
     1
  9
$DRAGMODE
 70
     2
  9
$LTSCALE
 40
8.0
  9
$OSMODE
 70
    55
  9
$ATTMODE
 70
     1
  9
$TEXTSIZE
 40
0.2
  9
$TRACEWID
 40
0.05
  9
$TEXTSTYLE
  7
STANDARD
  9
$CLAYER
  8
0
  9
$CELTYPE
  6
BYLAYER
  9
$CECOLOR
 62
   256
  9
$CELTSCALE
 40
1.0
  9
$DELOBJ
 70
     1
  9
$DISPSILH
 70
     0
  9
$DIMSCALE
 40
12.0
  9
$DIMASZ
 40
0.1875
  9
$DIMEXO
 40
0.10625
  9
$DIMDLI
 40
0.6459999999999999
  9
$DIMRND
 40
0.0
  9
$DIMDLE
 40
0.0
  9
$DIMEXE
 40
0.306
  9
$DIMTP
 40
0.0
  9
$DIMTM
 40
0.0
  9
$DIMTXT
 40
0.125
  9
$DIMCEN
 40
0.153
  9
$DIMTSZ
 40
0.0
  9
$DIMTOL
 70
     0
  9
$DIMLIM
 70
     0
  9
$DIMTIH
 70
     1
  9
$DIMTOH
 70
     1
  9
$DIMSE1
 70
     0
  9
$DIMSE2
 70
     0
  9
$DIMTAD
 70
     0
  9
$DIMZIN
 70
     0
  9
$DIMBLK
  1
_FILLED
  9
$DIMASO
 70
     1
  9
$DIMSHO
 70
     1
  9
$DIMPOST
  1

  9
$DIMAPOST
  1

  9
$DIMALT
 70
     0
  9
$DIMALTD
 70
     2
  9
$DIMALTF
 40
25.4
  9
$DIMLFAC
 40
1.0
  9
$DIMTOFL
 70
     0
  9
$DIMTVP
 40
0.0
  9
$DIMTIX
 70
     0
  9
$DIMSOXD
 70
     0
  9
$DIMSAH
 70
     0
  9
$DIMBLK1
  1

  9
$DIMBLK2
  1

  9
$DIMSTYLE
  2
STANDARD
  9
$DIMCLRD
 70
     0
  9
$DIMCLRE
 70
     0
  9
$DIMCLRT
 70
     0
  9
$DIMTFAC
 40
1.0
  9
$DIMGAP
 40
0.09
  9
$DIMJUST
 70
     0
  9
$DIMSD1
 70
     0
  9
$DIMSD2
 70
     0
  9
$DIMTOLJ
 70
     1
  9
$DIMTZIN
 70
     0
  9
$DIMALTZ
 70
     0
  9
$DIMALTTZ
 70
     0
  9
$DIMFIT
 70
     3
  9
$DIMUPT
 70
     0
  9
$DIMUNIT
 70
     2
  9
$DIMDEC
 70
     4
  9
$DIMTDEC
 70
     4
  9
$DIMALTU
 70
     2
  9
$DIMALTTD
 70
     2
  9
$DIMTXSTY
  7
STANDARD
  9
$DIMAUNIT
 70
     0
  9
$LUNITS
 70
     2
  9
$LUPREC
 70
     4
  9
$SKETCHINC
 40
0.1
  9
$FILLETRAD
 40
0.0
  9
$AUNITS
 70
     0
  9
$AUPREC
 70
     0
  9
$MENU
  1
acad
  9
$ELEVATION
 40
0.0
  9
$PELEVATION
 40
0.0
  9
$THICKNESS
 40
0.0
  9
$LIMCHECK
 70
     0
  9
$BLIPMODE
 70
     0
  9
$CHAMFERA
 40
0.0
  9
$CHAMFERB
 40
0.0
  9
$CHAMFERC
 40
0.0
  9
$CHAMFERD
 40
0.0
  9
$SKPOLY
 70
     0
  9
$TDCREATE
 40
2453679.188597361
  9
$TDUPDATE
 40
2453685.632815185
  9
$TDINDWG
 40
0.0360180093
  9
$TDUSRTIMER
 40
0.0360180093
  9
$USRTIMER
 70
     1
  9
$ANGBASE
 50
0.0
  9
$ANGDIR
 70
     0
  9
$PDMODE
 70
     3
  9
$PDSIZE
 40
0.3125
  9
$PLINEWID
 40
0.0
  9
$COORDS
 70
     1
  9
$SPLFRAME
 70
     0
  9
$SPLINETYPE
 70
     6
  9
$SPLINESEGS
 70
     8
  9
$ATTDIA
 70
     0
  9
$ATTREQ
 70
     1
  9
$HANDLING
 70
 22529
  9
$HANDSEED
  5
788
  9
$SURFTAB1
 70
     6
  9
$SURFTAB2
 70
     6
  9
$SURFTYPE
 70
     6
  9
$SURFU
 70
     6
  9
$SURFV
 70
     6
  9
$UCSNAME
  2

  9
$UCSORG
 10
0.0
 20
0.0
 30
0.0
  9
$UCSXDIR
 10
1.0
 20
0.0
 30
0.0
  9
$UCSYDIR
 10
0.0
 20
1.0
 30
0.0
  9
$PUCSNAME
  2

  9
$PUCSORG
 10
0.0
 20
0.0
 30
0.0
  9
$PUCSXDIR
 10
1.0
 20
0.0
 30
0.0
  9
$PUCSYDIR
 10
0.0
 20
1.0
 30
0.0
  9
$USERI1
 70
     0
  9
$USERI2
 70
     0
  9
$USERI3
 70
     0
  9
$USERI4
 70
     0
  9
$USERI5
 70
     0
  9
$USERR1
 40
0.0
  9
$USERR2
 40
0.0
  9
$USERR3
 40
0.0
  9
$USERR4
 40
0.0
  9
$USERR5
 40
0.0
  9
$WORLDVIEW
 70
     1
  9
$SHADEDGE
 70
     3
  9
$SHADEDIF
 70
    70
  9
$TILEMODE
 70
     1
  9
$MAXACTVP
 70
    16
  9
$PINSBASE
 10
0.0
 20
0.0
 30
0.0
  9
$PLIMCHECK
 70
     0
  9
$PEXTMIN
 10
1.000000000000000E+20
 20
1.000000000000000E+20
 30
1.000000000000000E+20
  9
$PEXTMAX
 10
-1.000000000000000E+20
 20
-1.000000000000000E+20
 30
-1.000000000000000E+20
  9
$PLIMMIN
 10
0.0
 20
0.0
  9
$PLIMMAX
 10
12.0
 20
9.0
  9
$UNITMODE
 70
     0
  9
$VISRETAIN
 70
     0
  9
$PLINEGEN
 70
     1
  9
$PSLTSCALE
 70
     0
  9
$TREEDEPTH
 70
  3020
  9
$PICKSTYLE
 70
     1
  9
$CMLSTYLE
  2
STANDARD
  9
$CMLJUST
 70
     0
  9
$CMLSCALE
 40
1.0
  9
$PROXYGRAPHICS
 70
     1
  9
$MEASUREMENT
 70
     0
  0
ENDSEC
  0
SECTION
  2
CLASSES
  0
CLASS
  1
HATCH
  2
AcDbHatch
  3
AutoCAD 2000
 90
        0
280
     0
281
     1
  0
CLASS
  1
LWPOLYLINE
  2
AcDbPolyline
  3
AutoCAD 2000
 90
        0
280
     0
281
     1
  0
CLASS
  1
ACDBDICTIONARYWDFLT
  2
AcDbDictionaryWithDefault
  3
AutoCAD 2000
 90
        0
280
     0
281
     0
  0
CLASS
  1
ACDBPLACEHOLDER
  2
AcDbPlaceHolder
  3
AutoCAD 2000
 90
        0
280
     0
281
     0
  0
CLASS
  1
LAYOUT
  2
AcDbLayout
  3
AutoCAD 2000
 90
        0
280
     0
281
     0
  0
CLASS
  1
LONG_TRANSACTION
  2
AcDbLongTransaction
  3
AutoCAD 2000
 90
        0
280
     0
281
     0
  0
CLASS
  1
LWPOLYLINE
  2
AcDbPolyline
  3
AutoCAD 2000
 90
        0
280
     0
281
     1
  0
CLASS
  1
HATCH
  2
AcDbHatch
  3
AutoCAD 2000
 90
        0
280
     0
281
     1
  0
CLASS
  1
XRECORD
  2
AcDbXrecord
  3
AutoCAD 2000
 90
        0
280
     0
281
     0
  0
CLASS
  1
DICTIONARYVAR
  2
AcDbDictionaryVar
  3
AutoCAD 2000
 90
        0
280
     0
281
     0
  0
CLASS
  1
LONG_TRANSACTION
  2
AcDbLongTransaction
  3
AutoCAD 2000
 90
        0
280
     0
281
     0
  0
CLASS
  1
LWPOLYLINE
  2
AcDbPolyline
  3
AutoCAD 2000
 90
        0
280
     0
281
     1
  0
CLASS
  1
HATCH
  2
AcDbHatch
  3
AutoCAD 2000
 90
        0
280
     0
281
     1
  0
CLASS
  1
XRECORD
  2
AcDbXrecord
  3
AutoCAD 2000
 90
        0
280
     0
281
     0
  0
ENDSEC
  0
SECTION
  2
TABLES
  0
TABLE
  2
VPORT
  5
12
330
0
100
AcDbSymbolTable
 70
     3
  0
VPORT
  5
764
330
12
100
AcDbSymbolTableRecord
100
AcDbViewportTableRecord
  2
*ACTIVE
 70
     0
 10
0.0
 20
0.0
 11
1.0
 21
1.0
 12
111.6267866946646
 22
-14.01586511177188
 13
0.0
 23
0.0
 14
1.0
 24
1.0
 15
0.0
 25
0.0
 16
0.0
 26
0.0
 36
1.0
 17
0.0
 27
0.0
 37
0.0
 40
31.15510291472371
 41
1.786792452830188
 42
50.0
 43
0.0
 44
0.0
 50
0.0
 51
0.0
 71
     0
 72
   100
 73
     1
 74
     1
 75
     0
 76
     0
 77
     0
 78
     0
  0
ENDTAB
  0
TABLE
  2
LTYPE
  5
D
330
0
100
AcDbSymbolTable
 70
     3
  0
LTYPE
  5
E
330
D
100
AcDbSymbolTableRecord
100
AcDbLinetypeTableRecord
  2
BYBLOCK
 70
     0
  3

 72
    65
 73
     0
 40
0.0
  0
LTYPE
  5
F
330
D
100
AcDbSymbolTableRecord
100
AcDbLinetypeTableRecord
  2
BYLAYER
 70
     0
  3

 72
    65
 73
     0
 40
0.0
  0
LTYPE
  5
5
330
D
100
AcDbSymbolTableRecord
100
AcDbLinetypeTableRecord
  2
CONTINUOUS
 70
     0
  3
Solid line
 72
    65
 73
     0
 40
0.0
  0
LTYPE
  5
4AE
330
D
100
AcDbSymbolTableRecord
100
AcDbLinetypeTableRecord
  2
CENTER
 70
     0
  3
____ _ ____ _ ____ _ ____ _ ____ _ ____ _ ____
 72
    65
 73
     4
 40
0.6
 49
0.375
 74
     0
 49
-0.075
 74
     0
 49
0.075
 74
     0
 49
-0.075
 74
     0
  0
LTYPE
  5
7B
330
D
100
AcDbSymbolTableRecord
100
AcDbLinetypeTableRecord
  2
HIDDEN
 70
     0
  3
- - - - - - - - - - - - - - - - - - - -
 72
    65
 73
     2
 40
0.2
 49
0.1
 74
     0
 49
-0.1
 74
     0
  0
ENDTAB
  0
TABLE
  2
LAYER
  5
A
330
0
100
AcDbSymbolTable
 70
     1
  0
LAYER
  5
4
330
A
100
AcDbSymbolTableRecord
100
AcDbLayerTableRecord
  2
0
 70
     0
 62
     7
  6
CONTINUOUS
  0
ENDTAB
  0
TABLE
  2
STYLE
  5
B
330
0
100
AcDbSymbolTable
 70
     1
  0
STYLE
  5
C
330
B
100
AcDbSymbolTableRecord
100
AcDbTextStyleTableRecord
  2
STANDARD
 70
     0
 40
0.0
 41
0.8
 50
0.0
 71
     0
 42
0.2
  3
txt
  4

  0
ENDTAB
  0
TABLE
  2
VIEW
  5
10
330
0
100
AcDbSymbolTable
 70
     0
  0
ENDTAB
  0
TABLE
  2
UCS
  5
11
330
0
100
AcDbSymbolTable
 70
     0
  0
ENDTAB
  0
TABLE
  2
APPID
  5
14
330
0
100
AcDbSymbolTable
 70
     1
  0
APPID
  5
15
330
14
100
AcDbSymbolTableRecord
100
AcDbRegAppTableRecord
  2
ACAD
 70
     0
  0
ENDTAB
  0
TABLE
  2
DIMSTYLE
  5
16
330
0
100
AcDbSymbolTable
 70
     1
  0
DIMSTYLE
105
1C
330
16
100
AcDbSymbolTableRecord
100
AcDbDimStyleTableRecord
  2
STANDARD
 70
     0
  3

  4

  5
_FILLED
  6
_FILLED
  7
_FILLED
 40
1.0
 41
0.1875
 42
0.0625
 43
0.38
 44
0.18
 45
0.0
 46
0.0
 47
0.00001
 48
0.00001
140
0.125
141
0.09
142
0.0
143
25.4
144
1.0
145
0.0
146
1.0
147
0.09
 71
     0
 72
     0
 73
     1
 74
     1
 75
     0
 76
     0
 77
     0
 78
     4
170
     0
171
     2
172
     0
173
     0
174
     0
175
     0
176
     0
177
     0
178
     0
270
     2
271
     4
272
     4
273
     2
274
     2
340
C
275
     0
280
     0
281
     0
282
     0
283
     1
284
     0
285
     0
286
     0
287
     3
288
     0
  0
ENDTAB
  0
TABLE
  2
BLOCK_RECORD
  5
1
330
0
100
AcDbSymbolTable
 70
     1
  0
BLOCK_RECORD
  5
2
102
{ACAD_XDICTIONARY
360
71F
102
}
330
1
100
AcDbSymbolTableRecord
100
AcDbBlockTableRecord
  2
*MODEL_SPACE
  0
BLOCK_RECORD
  5
7
102
{ACAD_XDICTIONARY
360
721
102
}
330
1
100
AcDbSymbolTableRecord
100
AcDbBlockTableRecord
  2
*PAPER_SPACE
  0
BLOCK_RECORD
  5
1D
330
1
100
AcDbSymbolTableRecord
100
AcDbBlockTableRecord
  2
_FILLED
  0
ENDTAB
  0
ENDSEC
  0
SECTION
  2
BLOCKS
  0
BLOCK
  5
3
330
2
100
AcDbEntity
  8
0
100
AcDbBlockBegin
  2
*MODEL_SPACE
 70
     0
 10
0.0
 20
0.0
 30
0.0
  3
*MODEL_SPACE
  1

  0
ENDBLK
  5
6
330
2
100
AcDbEntity
  8
0
100
AcDbBlockEnd
  0
BLOCK
  5
8
330
7
100
AcDbEntity
 67
     1
  8
0
100
AcDbBlockBegin
  2
*PAPER_SPACE
 70
     0
 10
0.0
 20
0.0
 30
0.0
  3
*PAPER_SPACE
  1

  0
ENDBLK
  5
9
330
7
100
AcDbEntity
 67
     1
  8
0
100
AcDbBlockEnd
  0
BLOCK
  5
1F
330
1D
100
AcDbEntity
  8
0
100
AcDbBlockBegin
  2
_FILLED
 70
     0
 10
0.0
 20
0.0
 30
0.0
  3
_FILLED
  1

  0
SOLID
  5
1E
330
1D
100
AcDbEntity
  8
0
  6
BYBLOCK
 62
     0
100
AcDbTrace
 10
0.0
 20
0.0
 30
0.0
 11
-1.0
 21
0.1666666667
 31
0.0
 12
-1.0
 22
-0.1666666667
 32
0.0
 13
-1.0
 23
-0.1666666667
 33
0.0
  0
ENDBLK
  5
20
330
1D
100
AcDbEntity
  8
0
  6
BYBLOCK
 62
     0
100
AcDbBlockEnd
  0
ENDSEC
  0
SECTION
  2
ENTITIES
  0
LWPOLYLINE
  5
21
330
2
100
AcDbEntity
  8
0
  6
CONTINUOUS
 62
     7
100
AcDbPolyline
 90
       28
 70
     0
 43
0.0
 10
119.5857149320147
 20
-20.49412982816524
 10
119.5826368968147
 20
-20.52583192096526
 10
119.5769546152147
 20
-20.57324453536524
 10
119.5671644968147
 20
-20.63721912096525
 10
119.5512594648146
 20
-20.71776682016526
 10
119.5269567992147
 20
-20.81354452256526
 10
119.4919652168147
 20
-20.92210109376524
 10
119.4440221704147
 20
-21.04074058976525
 10
119.3808289272146
 20
-21.16687172736527
 10
119.3006547848147
 20
-21.29696046496526
 10
119.2041204968147
 20
-21.42504566656526
 10
119.0930546616147
 20
-21.54605855776524
 10
118.9731702840147
 20
-21.65370439136526
 10
118.8488874536147
 20
-21.74595594016526
 10
118.7216235400147
 20
-21.82395978176526
 10
118.5924662232147
 20
-21.88883837856526
 10
118.4677656280147
 20
-21.93970001216527
 10
118.3470500760147
 20
-21.97926147616525
 10
118.2328385432147
 20
-22.00893212576525
 10
118.1244901752147
 20
-22.03098906816526
 10
118.0205587208147
 20
-22.04742261536524
 10
117.9172379976147
 20
-22.06008454336525
 10
117.8096472936147
 20
-22.07035915296526
 10
117.6927205256147
 20
-22.07916972096526
 10
117.5630504920147
 20
-22.08704981216527
 10
117.4200221016147
 20
-22.09429447136526
 10
117.2663858744147
 20
-22.10101083776526
 10
117.1126260408147
 20
-22.10701264256526
  0
LWPOLYLINE
  5
3F
330
2
100
AcDbEntity
  8
0
  6
CONTINUOUS
 62
     7
100
AcDbPolyline
 90
       28
 70
     0
 43
0.0
 10
104.1429217816147
 20
-22.10701264256526
 10
103.9891723800147
 20
-22.10101126496525
 10
103.8355621768146
 20
-22.09429617696525
 10
103.6925621064147
 20
-22.08705338496526
 10
103.5629154104147
 20
-22.07917565376527
 10
103.4460052376146
 20
-22.07036800416526
 10
103.3384264152146
 20
-22.06009711296526
 10
103.2351136616147
 20
-22.04743989856525
 10
103.1311850632147
 20
-22.03101186176525
 10
103.0228357432147
 20
-22.00896115456524
 10
102.9086259384146
 20
-21.97929882336524
 10
102.7879154776146
 20
-21.93974872256525
 10
102.6632358952146
 20
-21.88890812416527
 10
102.5341096728147
 20
-21.82406267296526
 10
102.4068772232147
 20
-21.74610211776526
 10
102.2826136456147
 20
-21.65389686176526
 10
102.1627204264147
 20
-21.54628306336526
 10
102.0516301784146
 20
-21.42528956256526
 10
101.9550728680147
 20
-21.29722439936525
 10
101.8748776456147
 20
-21.16715770496524
 10
101.8116584552146
 20
-21.04103607296524
 10
101.7636863528147
 20
-20.92238893216524
 10
101.7286660744147
 20
-20.81380754816525
 10
101.7043391400147
 20
-20.71799466976526
 10
101.6884156424147
 20
-20.63740640576527
 10
101.6786127016147
 20
-20.57339012576524
 10
101.6729220472146
 20
-20.52593668896526
 10
101.6698385288147
 20
-20.49419357376526
  0
ARC
  5
5D
330
2
100
AcDbEntity
  8
0
100
AcDbCircle
 10
110.6277739112147
 20
96.35791842028714
 30
0.0
 40
118.6422909373767
100
AcDbArc
 50
266.4794847394629
 51
273.1332833587776
  0
LINE
  5
5E
330
2
100
AcDbEntity
  8
0
  6
CONTINUOUS
 62
     7
100
AcDbLine
 10
115.9983192408147
 20
-23.08973841696527
 30
0.0
 11
105.2572285896147
 21
-23.08973841696527
 31
0.0
  0
LWPOLYLINE
  5
5F
330
2
100
AcDbEntity
  8
0
  6
CONTINUOUS
 62
     7
100
AcDbPolyline
 90
        3
 70
     0
 43
0.0
 10
104.3724403400147
 20
-22.39844558176526
 10
104.3345064392147
 20
-22.33269173376526
 10
104.1282010107759
 20
-22.10643803932488
  0
ARC
  5
64
330
2
100
AcDbEntity
  8
0
  6
CONTINUOUS
 62
     7
100
AcDbCircle
 10
105.2567023576147
 20
-22.18348841696526
 30
0.0
 40
0.90625
100
AcDbArc
 50
196.4097412361999
 51
270.0
  0
LINE
  5
65
330
2
100
AcDbEntity
  8
0
  6
CONTINUOUS
 62
     7
100
AcDbLine
 10
104.3873053624147
 20
-22.43925123296527
 30
0.0
 11
104.3724403400147
 21
-22.39844558176526
 31
0.0
  0
LINE
  5
66
330
2
100
AcDbEntity
  8
0
  6
CONTINUOUS
 62
     7
100
AcDbLine
 10
111.8980749048146
 20
-22.68348841696526
 30
0.0
 11
109.3563273048147
 21
-22.68348841696526
 31
0.0
  0
ARC
  5
67
330
2
100
AcDbEntity
  8
0
  6
CONTINUOUS
 62
     7
100
AcDbCircle
 10
107.8677217368146
 20
-22.18348841696526
 30
0.0
 40
0.90625
100
AcDbArc
 50
270.0
 51
340.115220245
  0
LINE
  5
68
330
2
100
AcDbEntity
  8
0
  6
CONTINUOUS
 62
     7
100
AcDbLine
 10
108.831177540623
 20
-22.31366873757359
 30
0.0
 11
108.7226282248147
 21
-22.48459137536524
 31
0.0
  0
LINE
  5
69
330
2
100
AcDbEntity
  8
0
  6
CONTINUOUS
 62
     7
100
AcDbLine
 10
108.7876098173666
 20
-22.27010101431719
 30
0.0
 11
109.0911622632147
 21
-22.57365346016527
 31
0.0
  0
ARC
  5
6A
330
2
100
AcDbEntity
  8
0
  6
CONTINUOUS
 62
     7
100
AcDbCircle
 10
109.3563273048147
 20
-22.30848841696527
 30
0.0
 40
0.375
100
AcDbArc
 50
225.0
 51
270.0
  0
LINE
  5
6B
330
2
100
AcDbEntity
  8
0
  6
CONTINUOUS
 62
     7
100
AcDbLine
 10
112.5109064152147
 20
-22.43870217536525
 30
0.0
 11
112.4201056844265
 21
-22.31793334295344
 31
0.0
  0
LINE
  5
6C
330
2
100
AcDbEntity
  8
0
  6
CONTINUOUS
 62
     7
100
AcDbLine
 10
112.1643855672146
 20
-22.57365346016527
 30
0.0
 11
112.4679380131887
 21
-22.27010101419115
 31
0.0
  0
LINE
  5
6D
330
2
100
AcDbEntity
  8
0
  6
CONTINUOUS
 62
     7
100
AcDbLine
 10
112.4623508456146
 20
-22.37347323296526
 30
0.0
 11
112.5329829208147
 21
-22.48475322336526
 31
0.0
  0
LINE
  5
6E
330
2
100
AcDbEntity
  8
0
  6
CONTINUOUS
 62
     7
100
AcDbLine
 10
112.5329829208147
 20
-22.48475322336526
 30
0.0
 11
112.5109064152147
 21
-22.43870217536525
 31
0.0
  0
LINE
  5
6F
330
2
100
AcDbEntity
  8
0
  6
CONTINUOUS
 62
     7
100
AcDbLine
 10
112.5329829208147
 20
-22.48475322336526
 30
0.0
 11
112.5359547272146
 21
-22.49263925536526
 31
0.0
  0
ARC
  5
70
330
2
100
AcDbEntity
  8
0
  6
CONTINUOUS
 62
     7
100
AcDbCircle
 10
113.3878383416147
 20
-22.18348841696526
 30
0.0
 40
0.90625
100
AcDbArc
 50
199.4181917365
 51
269.9992255900999
  0
ARC
  5
71
330
2
100
AcDbEntity
  8
0
  6
CONTINUOUS
 62
     7
100
AcDbCircle
 10
111.8992205240146
 20
-22.30848841696527
 30
0.0
 40
0.375
100
AcDbArc
 50
270.0
 51
315.0
  0
ARC
  5
72
330
2
100
AcDbEntity
  8
0
  6
CONTINUOUS
 62
     7
100
AcDbCircle
 10
115.9988454712147
 20
-22.18348841696526
 30
0.0
 40
0.90625
100
AcDbArc
 50
270.0
 51
343.5902587638
  0
LWPOLYLINE
  5
73
330
2
100
AcDbEntity
  8
0
  6
CONTINUOUS
 62
     7
100
AcDbPolyline
 90
        5
 70
     0
 43
0.0
 10
117.1595043060125
 20
-22.10518281360087
 10
116.9427594520147
 20
-22.30605358016526
 10
116.9047089336147
 20
-22.35701575456527
 10
116.8760995768147
 20
-22.41571697376524
 10
116.8682424712147
 20
-22.43925121856527
  0
LINE
  5
7A
330
2
100
AcDbEntity
  8
0
  6
HIDDEN
 62
     8
100
AcDbLine
 10
126.4959681095037
 20
-2.089738416965261
 30
0.0
 11
96.62720110481471
 21
-2.089738416965261
 31
0.0
  0
LINE
  5
7C
330
2
100
AcDbEntity
  8
0
100
AcDbLine
 10
125.2678715107388
 20
-0.9647384169652681
 30
0.0
 11
96.62720110481469
 21
-0.9647384169652681
 31
0.0
  0
LINE
  5
7D
330
2
100
AcDbEntity
  8
0
100
AcDbLine
 10
126.6272011048147
 20
-3.589738416965268
 30
0.0
 11
96.62720110481471
 21
-3.589738416965268
 31
0.0
  0
ARC
  5
7E
330
2
100
AcDbEntity
  8
0
  6
HIDDEN
 62
     8
 48
0.5
100
AcDbCircle
 10
110.9457178244588
 20
-157.3550744476479
 30
0.0
 40
137.2606946492467
100
AcDbArc
 50
86.7600383913596
 51
93.50633578732944
  0
LWPOLYLINE
  5
7F
330
2
100
AcDbEntity
  8
0
  6
HIDDEN
 62
     8
100
AcDbPolyline
 90
       15
 70
     0
 43
0.0
 10
101.4817806632147
 20
-18.59341650176526
 10
101.4984793880147
 20
-18.75162150976525
 10
101.5271292920146
 20
-18.90884686176524
 10
101.5675316248147
 20
-19.06350278336526
 10
101.6194499864147
 20
-19.21466358496525
 10
101.6823103784147
 20
-19.36088482816527
 10
101.7558908680147
 20
-19.50186896736527
 10
101.8401841272146
 20
-19.63747192256526
 10
101.9345075672147
 20
-19.76643153696524
 10
102.0382676104147
 20
-19.88791369856524
 10
102.1504983000147
 20
-20.00087734976526
 10
102.2707426632147
 20
-20.10497509856524
 10
102.3988775080147
 20
-20.20005146816524
 10
102.9576238357392
 20
-20.57054113680663
 10
118.4943402630674
 20
-20.55434959776526
  0
LWPOLYLINE
  5
90
330
2
100
AcDbEntity
  8
0
  6
CONTINUOUS
 62
     7
100
AcDbPolyline
 90
       12
 70
     0
 43
0.0
 10
99.38707366001473
 20
-10.85628075296526
 10
99.40214667441471
 20
-10.47543581216526
 10
99.42150396721469
 20
-10.10958609216526
 10
99.4457314920147
 20
-9.760263992965249
 10
99.47539262321472
 20
-9.428482284165248
 10
99.51094346641474
 20
-9.11458698976525
 10
99.55250955601472
 20
-8.817677416965274
 10
99.59995084401471
 20
-8.535945640965266
 10
99.65383378001472
 20
-8.269746061765282
 10
99.71549491441471
 20
-8.020975522565265
 10
99.78700747281472
 20
-7.792149757765265
 10
99.8720552088147
 20
-7.58704280416525
  0
LINE
  5
9E
330
2
100
AcDbEntity
  8
0
  6
CONTINUOUS
 62
     7
100
AcDbLine
 10
100.7365860888146
 20
-9.930755928965268
 30
0.0
 11
100.6254026328147
 21
-8.855028738565273
 31
0.0
  0
LWPOLYLINE
  5
A6
330
2
100
AcDbEntity
  8
0
  6
CONTINUOUS
 62
     7
100
AcDbPolyline
 90
        4
 70
     0
 43
0.0
 10
99.39181935441473
 20
-10.94479629376525
 10
99.32502440401471
 20
-10.27507851936526
 10
99.08339140881471
 20
-7.853935698565265
 10
98.82818486161474
 20
-5.298850368965268
  0
LWPOLYLINE
  5
AC
330
2
100
AcDbEntity
  8
0
  6
CONTINUOUS
 62
     7
100
AcDbPolyline
 90
       40
 70
     0
 43
0.0
 10
101.4274677880147
 20
-17.46335185856526
 10
101.4062515720147
 20
-17.19857560576524
 10
101.3953832472146
 20
-17.06364943456525
 10
101.3843426072146
 20
-16.92710936096526
 10
101.3731307448147
 20
-16.78900229216525
 10
101.3617484680147
 20
-16.64937212576526
 10
101.3501960888147
 20
-16.50826009536526
 10
101.3384710376147
 20
-16.36567467776524
 10
101.3265549688147
 20
-16.22143492736526
 10
101.3144236680147
 20
-16.07529417536524
 10
101.3020522280147
 20
-15.92700391456526
 10
101.2894151080147
 20
-15.77631469856525
 10
101.2764860664147
 20
-15.62297520256525
 10
101.2632379896147
 20
-15.46673164576525
 10
101.2496428216147
 20
-15.30732802976525
 10
101.2356714856146
 20
-15.14450592576526
 10
101.2212937640146
 20
-14.97800390816524
 10
101.2064669464147
 20
-14.80742837856524
 10
101.1911171384146
 20
-14.63204625376527
 10
101.1751610216147
 20
-14.45104441376527
 10
101.1585156328147
 20
-14.26364560896525
 10
101.1411521752146
 20
-14.06971226176528
 10
101.1231097064147
 20
-13.86987533536524
 10
101.1044320072147
 20
-13.66480842656526
 10
101.0851638536147
 20
-13.45518278016525
 10
101.0653513176147
 20
-13.24166806816527
 10
101.0450421208147
 20
-13.02493379776525
 10
101.0242739368146
 20
-12.80552387936527
 10
101.0030347144147
 20
-12.58343597376526
 10
100.9813120008147
 20
-12.35856230176528
 10
100.9590953608147
 20
-12.13076436896526
 10
100.9363750312147
 20
-11.89990897376524
 10
100.9131469128147
 20
-11.66589282976524
 10
100.8894124680147
 20
-11.42861445056524
 10
100.8651745240147
 20
-11.18797033376525
 10
100.8404367928147
 20
-10.94385688256525
 10
100.8152028856147
 20
-10.69617189376527
 10
100.7894779272146
 20
-10.44481977056526
 10
100.7632690360147
 20
-10.18970967296525
 10
100.7365860888146
 20
-9.930755928965268
  0
LWPOLYLINE
  5
D6
330
2
100
AcDbEntity
  8
0
  6
CONTINUOUS
 62
     7
100
AcDbPolyline
 90
       10
 70
     0
 43
0.0
 10
100.8315650344147
 20
-18.35345760896525
 10
100.8192997304147
 20
-18.17331742656524
 10
100.7569416056147
 20
-17.27858876416525
 10
100.6927247800147
 20
-16.44076913696525
 10
100.6236259928147
 20
-15.65956625056524
 10
100.5453345656147
 20
-14.91120859296526
 10
100.4538883288146
 20
-14.16440723296527
 10
100.3474579720147
 20
-13.38600514496527
 10
100.2242637064147
 20
-12.54254311296524
 10
100.1122101112147
 20
-11.79309387776526
  0
LWPOLYLINE
  5
E2
330
2
100
AcDbEntity
  8
0
  6
CONTINUOUS
 62
     7
100
AcDbPolyline
 90
       12
 70
     0
 43
0.0
 10
101.5185997928147
 20
-19.83115642336525
 10
101.4542205800147
 20
-19.76701877056525
 10
101.3638445608147
 20
-19.66619022336525
 10
101.2739530552147
 20
-19.55265505536525
 10
101.1873374440147
 20
-19.42731767136526
 10
101.1065669832147
 20
-19.29154851936525
 10
101.0335828152147
 20
-19.14654996416526
 10
100.9699852408147
 20
-18.99365932736525
 10
100.9170876152146
 20
-18.83446144576525
 10
100.8758482056147
 20
-18.67063626976526
 10
100.8468813272147
 20
-18.50393551456525
 10
100.8315696600147
 20
-18.35336344896527
  0
LINE
  5
F0
330
2
100
AcDbEntity
  8
0
  6
CONTINUOUS
 62
     7
100
AcDbLine
 10
101.5145164552146
 20
-18.56157245216525
 30
0.0
 11
101.4870285304146
 21
-18.21373061536525
 31
0.0
  0
LWPOLYLINE
  5
F1
330
2
100
AcDbEntity
  8
0
  6
CONTINUOUS
 62
     7
100
AcDbPolyline
 90
       49
 70
     0
 43
0.0
 10
101.7538048552146
 20
-20.89175106336524
 10
101.7494842952146
 20
-20.88405348416525
 10
101.7404175256147
 20
-20.86744618176526
 10
101.7316972696147
 20
-20.85102624256526
 10
101.7233173224147
 20
-20.83480640416524
 10
101.7152714152147
 20
-20.81879929056526
 10
101.7075532136147
 20
-20.80301739936526
 10
101.7001563032147
 20
-20.78747308576525
 10
101.6930742536147
 20
-20.77217880576525
 10
101.6863013224147
 20
-20.75714918336525
 10
101.6798330488146
 20
-20.74240227776525
 10
101.6736649224147
 20
-20.72795660896525
 10
101.6677922328147
 20
-20.71383082496525
 10
101.6622099176146
 20
-20.70004347296524
 10
101.6569068120146
 20
-20.68659828256524
 10
101.6518676360147
 20
-20.67348693856526
 10
101.6470779096147
 20
-20.66070081056526
 10
101.6425240392146
 20
-20.64823137856524
 10
101.6381933592147
 20
-20.63607052096525
 10
101.6340858600147
 20
-20.62424501536527
 10
101.6302312936147
 20
-20.61287204896525
 10
101.6266624248147
 20
-20.60208807936526
 10
101.6234239288146
 20
-20.59207733696526
 10
101.6203546216147
 20
-20.58237953216524
 10
101.6172226888147
 20
-20.57226008736525
 10
101.6143168856147
 20
-20.56265883936525
 10
101.6114427784146
 20
-20.55295187296526
 10
101.6083163064147
 20
-20.54213851936526
 10
101.6048775256146
 20
-20.52991034656526
 10
101.6015270696147
 20
-20.51762730336526
 10
101.5982507432147
 20
-20.50523010176525
 10
101.5950348008147
 20
-20.49265431456525
 10
101.5918653032147
 20
-20.47982597216525
 10
101.5887575896147
 20
-20.46678519616527
 10
101.5857235080147
 20
-20.45356269696525
 10
101.5827726424146
 20
-20.44018364096526
 10
101.5799114104147
 20
-20.42666121216524
 10
101.5771440472146
 20
-20.41299928896526
 10
101.5744728328147
 20
-20.39919256096526
 10
101.5718967928147
 20
-20.38521726336524
 10
101.5694102328147
 20
-20.37101797696525
 10
101.5670157976147
 20
-20.35657922816526
 10
101.5650431048147
 20
-20.34403347936525
 10
101.5629403704146
 20
-20.32991237856526
 10
101.5608318328147
 20
-20.31482719296526
 10
101.5585653160147
 20
-20.29733731456527
 10
101.5563818520146
 20
-20.27890741056527
 10
101.5546816120147
 20
-20.26317732736524
 10
101.5531640824147
 20
-20.24774647936526
  0
ARC
  5
124
330
2
100
AcDbEntity
  8
0
  6
HIDDEN
 62
     8
 48
0.5
100
AcDbCircle
 10
103.6789138883405
 20
-18.41886032687588
 30
0.0
 40
2.205198345418603
100
AcDbArc
 50
194.7694613783846
 51
239.2376547896231
  0
LINE
  5
125
330
2
100
AcDbEntity
  8
0
  6
HIDDEN
 62
     8
100
AcDbLine
 10
102.4525585672146
 20
-20.23564593536524
 30
0.0
 11
102.4608093336146
 21
-20.24091120736525
 31
0.0
  0
LINE
  5
126
330
2
100
AcDbEntity
  8
0
  6
CONTINUOUS
 62
     7
100
AcDbLine
 10
101.4301087144147
 20
-18.95492779616525
 30
0.0
 11
101.4298263560147
 21
-18.95323519296526
 31
0.0
  0
LWPOLYLINE
  5
127
330
2
100
AcDbEntity
  8
0
  6
CONTINUOUS
 62
     7
100
AcDbPolyline
 90
        4
 70
     0
 43
0.0
 10
101.4329133816147
 20
-18.97324205536526
 10
101.4311631784147
 20
-18.96157141696525
 10
101.4305443592147
 20
-18.95762527616526
 10
101.4301087144147
 20
-18.95492779616525
  0
LINE
  5
12D
330
2
100
AcDbEntity
  8
0
  6
CONTINUOUS
 62
     7
100
AcDbLine
 10
101.4352986104147
 20
-18.99005095456525
 30
0.0
 11
101.4329133816147
 21
-18.97324205536526
 31
0.0
  0
LINE
  5
12E
330
2
100
AcDbEntity
  8
0
  6
CONTINUOUS
 62
     7
100
AcDbLine
 10
101.4382783112147
 20
-19.01219588256525
 30
0.0
 11
101.4352986104147
 21
-18.99005095456525
 31
0.0
  0
LWPOLYLINE
  5
12F
330
2
100
AcDbEntity
  8
0
  6
CONTINUOUS
 62
     7
100
AcDbPolyline
 90
        5
 70
     0
 43
0.0
 10
101.6689286696147
 20
-20.48363148096524
 10
101.6664550216147
 20
-20.45349553216524
 10
101.6631778520147
 20
-20.41356225536524
 10
101.6593511016147
 20
-20.36690636096526
 10
101.6502908456146
 20
-20.25627814976524
  0
LINE
  5
136
330
2
100
AcDbEntity
  8
0
  6
CONTINUOUS
 62
     7
100
AcDbLine
 10
101.5531640824147
 20
-20.24774647936526
 30
0.0
 11
101.5517845096147
 21
-20.23206369536524
 31
0.0
  0
LINE
  5
137
330
2
100
AcDbEntity
  8
0
  6
CONTINUOUS
 62
     7
100
AcDbLine
 10
101.5521630344146
 20
-20.23518361536525
 30
0.0
 11
101.5414878296147
 21
-20.10510291776525
 31
0.0
  0
LWPOLYLINE
  5
138
330
2
100
AcDbEntity
  8
0
  6
CONTINUOUS
 62
     7
100
AcDbPolyline
 90
        3
 70
     0
 43
0.0
 10
101.6502908456146
 20
-20.25627814976524
 10
101.6451538008146
 20
-20.19342864096526
 10
101.6215190280147
 20
-19.90289585536526
  0
LINE
  5
13D
330
2
100
AcDbEntity
  8
0
  6
CONTINUOUS
 62
     7
100
AcDbLine
 10
101.6215190280147
 20
-19.90289585536526
 30
0.0
 11
101.6013142392147
 21
-19.65261205536526
 31
0.0
  0
LINE
  5
13E
330
2
100
AcDbEntity
  8
0
  6
CONTINUOUS
 62
     7
100
AcDbLine
 10
101.6013142392147
 20
-19.65261205536526
 30
0.0
 11
101.5796739368147
 21
-19.38263091296526
 31
0.0
  0
LWPOLYLINE
  5
13F
330
2
100
AcDbEntity
  8
0
  6
CONTINUOUS
 62
     7
100
AcDbPolyline
 90
        3
 70
     0
 43
0.0
 10
101.5796739368147
 20
-19.38263091296526
 10
101.5721569512147
 20
-19.28844303456527
 10
101.5403599768146
 20
-18.88824183296525
  0
LWPOLYLINE
  5
144
330
2
100
AcDbEntity
  8
0
  6
CONTINUOUS
 62
     7
100
AcDbPolyline
 90
        3
 70
     0
 43
0.0
 10
101.5403599768146
 20
-18.88824183296525
 10
101.5319367032147
 20
-18.78186122656527
 10
101.5145164552146
 20
-18.56157245216525
  0
LWPOLYLINE
  5
149
330
2
100
AcDbEntity
  8
0
  6
CONTINUOUS
 62
     7
100
AcDbPolyline
 90
       29
 70
     0
 43
0.0
 10
101.5414878296147
 20
-20.10510291776525
 10
101.5300944488146
 20
-19.96761997376526
 10
101.5247011208147
 20
-19.90324775616524
 10
101.5195083640147
 20
-19.84180457216526
 10
101.5145099528147
 20
-19.78322492256526
 10
101.5096990104147
 20
-19.72742564256525
 10
101.5050682184147
 20
-19.67431091776527
 10
101.5006099720146
 20
-19.62377634496525
 10
101.4963164456147
 20
-19.57571147296526
 10
101.4921803224147
 20
-19.53000941216524
 10
101.4881951368147
 20
-19.48657115936526
 10
101.4843545976147
 20
-19.44529883296524
 10
101.4806526440147
 20
-19.40609675296526
 10
101.4770834952146
 20
-19.36887253856524
 10
101.4736416952147
 20
-19.33353789216526
 10
101.4703225336146
 20
-19.30001294496526
 10
101.4671241352146
 20
-19.26824670496525
 10
101.4640457896147
 20
-19.23819874816526
 10
101.4610868952147
 20
-19.20982851776526
 10
101.4582471400147
 20
-19.18309716256526
 10
101.4555290792147
 20
-19.15799353536525
 10
101.4529335224147
 20
-19.13449176576526
 10
101.4504605720147
 20
-19.11255688736525
 10
101.4481109144147
 20
-19.09215638496525
 10
101.4458858648147
 20
-19.07326044736525
 10
101.4437873560147
 20
-19.05584167616525
 10
101.4418178312147
 20
-19.03987402656525
 10
101.4399802808147
 20
-19.02533297216526
 10
101.4382783112147
 20
-19.01219588256525
  0
LINE
  5
168
330
2
100
AcDbEntity
  8
0
  6
CONTINUOUS
 62
     7
100
AcDbLine
 10
101.4479964840147
 20
-17.72104608096526
 30
0.0
 11
101.4274677880147
 21
-17.46335185856526
 31
0.0
  0
LINE
  5
169
330
2
100
AcDbEntity
  8
0
  6
CONTINUOUS
 62
     7
100
AcDbLine
 10
101.4678471896147
 20
-17.97128990016526
 30
0.0
 11
101.4479964840147
 21
-17.72104608096526
 31
0.0
  0
LINE
  5
16A
330
2
100
AcDbEntity
  8
0
  6
CONTINUOUS
 62
     7
100
AcDbLine
 10
101.4870285304146
 20
-18.21373061536525
 30
0.0
 11
101.4678471896147
 21
-17.97128990016526
 31
0.0
  0
LWPOLYLINE
  5
17E
330
2
100
AcDbEntity
  8
0
  6
CONTINUOUS
 62
     7
100
AcDbPolyline
 90
       15
 70
     0
 43
0.0
 10
100.1792240360147
 20
-12.24130380736524
 10
100.1462321448147
 20
-12.21285772576527
 10
100.0719501160147
 20
-12.14508250656526
 10
100.0011153672146
 20
-12.07639676096526
 10
99.93357643281472
 20
-12.00662469856526
 10
99.86868831921471
 20
-11.93503961376524
 10
99.8061911688147
 20
-11.86101262976524
 10
99.74623957841469
 20
-11.78420704416524
 10
99.68913364721473
 20
-11.70441675456524
 10
99.6351335304147
 20
-11.62130675136528
 10
99.5845829736147
 20
-11.53451857056526
 10
99.53794025201471
 20
-11.44369471296527
 10
99.49562046321474
 20
-11.34812240736527
 10
99.45838804881471
 20
-11.24746576896525
 10
99.42921470481472
 20
-11.14864489216525
  0
LWPOLYLINE
  5
18F
330
2
100
AcDbEntity
  8
0
  6
CONTINUOUS
 62
     7
100
AcDbPolyline
 90
       16
 70
     0
 43
0.0
 10
100.7019155752147
 20
-9.595084828165248
 10
100.6975149272147
 20
-9.617567466565247
 10
100.6593861336146
 20
-9.82799798176525
 10
100.6170791624146
 20
-10.01893260256525
 10
100.5655692888147
 20
-10.19165181856527
 10
100.5053920568147
 20
-10.35272376416527
 10
100.4422228920146
 20
-10.50436443936526
 10
100.3808584248147
 20
-10.64608524096524
 10
100.3238488488147
 20
-10.77857827456524
 10
100.2728472216147
 20
-10.90256044256528
 10
100.2275511240147
 20
-11.02227946816526
 10
100.1868750792147
 20
-11.14335460736527
 10
100.1517389320147
 20
-11.26685271456527
 10
100.1238778856146
 20
-11.39345138656527
 10
100.1056338680147
 20
-11.52557817376526
 10
100.1010727368146
 20
-11.66851279136526
  0
LINE
  5
1A1
330
2
100
AcDbEntity
  8
0
  6
CONTINUOUS
 62
     7
100
AcDbLine
 10
100.1122101112147
 20
-11.79309387776526
 30
0.0
 11
100.1010727368146
 21
-11.66851279136526
 31
0.0
  0
LWPOLYLINE
  5
1A2
330
2
100
AcDbEntity
  8
0
  6
CONTINUOUS
 62
     7
100
AcDbPolyline
 90
        3
 70
     0
 43
0.0
 10
99.42909542801473
 20
-11.14868010496524
 10
99.40967015601472
 20
-11.06487475936527
 10
99.39669262961473
 20
-10.98666578816526
  0
LINE
  5
1A7
330
2
100
AcDbEntity
  8
0
  6
CONTINUOUS
 62
     7
100
AcDbLine
 10
99.39669262961473
 20
-10.98666578816526
 30
0.0
 11
99.39167150001473
 21
-10.94329071456525
 31
0.0
  0
LINE
  5
1A8
330
2
100
AcDbEntity
  8
0
  6
CONTINUOUS
 62
     7
100
AcDbLine
 10
96.62720110481469
 20
-0.9647384169652681
 30
0.0
 11
96.62720110481471
 21
-3.589738416965268
 31
0.0
  0
LINE
  5
1A9
330
2
100
AcDbEntity
  8
0
  6
HIDDEN
 62
     8
 48
0.3
100
AcDbLine
 10
98.65423490012899
 20
-3.589738416965268
 30
0.0
 11
98.57182711565364
 21
-2.765252044996206
 31
0.0
  0
LWPOLYLINE
  5
1B6
330
2
100
AcDbEntity
  8
0
  6
CONTINUOUS
 62
     7
100
AcDbPolyline
 90
       15
 70
     0
 43
0.0
 10
100.6076971096147
 20
-8.004710941765281
 10
100.6442433272147
 20
-7.986900213765274
 10
100.6996672200147
 20
-7.967804050565248
 10
100.7725894168146
 20
-7.949140271365266
 10
100.8640727752146
 20
-7.930624684165266
 10
100.9763141720147
 20
-7.911884378565268
 10
101.1082911864147
 20
-7.893099578565248
 10
101.2566231608146
 20
-7.87467228736525
 10
101.4165005192147
 20
-7.857091464965243
 10
101.5816007672147
 20
-7.840863549765273
 10
101.7477232392147
 20
-7.826068624965266
 10
101.9174296776147
 20
-7.812164866565268
 10
102.0995460280147
 20
-7.798315956165268
 10
102.3079560856146
 20
-7.783582810565249
 10
102.5552072856147
 20
-7.767463322565248
  0
LWPOLYLINE
  5
1C7
330
2
100
AcDbEntity
  8
0
  6
CONTINUOUS
 62
     7
100
AcDbPolyline
 90
        9
 70
     0
 43
0.0
 10
101.1901334568147
 20
-7.398235541765281
 10
100.9921506168147
 20
-7.413645636165249
 10
100.8304256088146
 20
-7.435753484165275
 10
100.6869330744147
 20
-7.447169719365248
 10
100.5539821192147
 20
-7.463397352965266
 10
100.4283238136147
 20
-7.479390524165275
 10
100.3093307800147
 20
-7.495142788165274
 10
100.1973165864147
 20
-7.51334532416525
 10
100.0921515688147
 20
-7.530480655365273
  0
LINE
  5
1E8
330
2
100
AcDbEntity
  8
0
  6
HIDDEN
 62
     8
100
AcDbLine
 10
100.5510335720147
 20
-8.132703210565267
 30
0.0
 11
100.5521914152146
 21
-8.143175060165248
 31
0.0
  0
LWPOLYLINE
  5
1E9
330
2
100
AcDbEntity
  8
0
  6
CONTINUOUS
 62
     7
100
AcDbPolyline
 90
        4
 70
     0
 43
0.0
 10
100.6254026328147
 20
-8.855028738565273
 10
100.5966054696147
 20
-8.575957328965266
 10
100.5674700216147
 20
-8.292857842565268
 10
100.5510335720147
 20
-8.132703210565267
  0
LINE
  5
1EF
330
2
100
AcDbEntity
  8
0
  6
HIDDEN
 62
     8
100
AcDbLine
 10
100.7860356920146
 20
-8.957023439365251
 30
0.0
 11
100.7863807512147
 21
-8.960711202565249
 31
0.0
  0
LWPOLYLINE
  5
1F0
330
2
100
AcDbEntity
  8
0
  6
CONTINUOUS
 62
     7
100
AcDbPolyline
 90
        7
 70
     0
 43
0.0
 10
100.6076971096147
 20
-8.004710941765281
 10
100.5766310680147
 20
-8.026568853765247
 10
100.5601077848147
 20
-8.047898474565251
 10
100.5519937080147
 20
-8.06965966176525
 10
100.5491488616147
 20
-8.092418194565269
 10
100.5496363592147
 20
-8.116543000965251
 10
100.5510335720147
 20
-8.132703210565267
  0
LWPOLYLINE
  5
207
330
2
100
AcDbEntity
  8
0
  6
CONTINUOUS
 62
     7
100
AcDbPolyline
 90
        5
 70
     0
 43
0.0
 10
99.8720552088147
 20
-7.58704280416525
 10
99.89218185841471
 20
-7.572816476165257
 10
99.93517659121472
 20
-7.55864458976525
 10
100.0017367768146
 20
-7.544521488965266
 10
100.0921515688147
 20
-7.530480655365273
  0
LINE
  5
20E
330
2
100
AcDbEntity
  8
0
  6
CONTINUOUS
 62
     7
100
AcDbLine
 10
98.82818486161474
 20
-5.298850368965268
 30
0.0
 11
98.65423490012901
 21
-3.589738416965268
 31
0.0
  0
LWPOLYLINE
  5
2EB
330
2
100
AcDbEntity
  8
0
  6
CONTINUOUS
 62
     7
100
AcDbPolyline
 90
        7
 70
     0
 43
0.0
 10
102.4575618056146
 20
-7.345601634565248
 10
102.2532994792147
 20
-7.351846042565249
 10
102.0539526440147
 20
-7.358302818565249
 10
101.8555256536146
 20
-7.365158991365248
 10
101.6506542184146
 20
-7.373037829765266
 10
101.4250354808147
 20
-7.38362806176525
 10
101.1901334568147
 20
-7.398235541765281
  0
ARC
  5
318
330
2
100
AcDbEntity
  8
0
  6
HIDDEN
 62
     8
 48
0.3
100
AcDbCircle
 10
98.07430608037327
 20
-2.814979496705838
 30
0.0
 40
0.5
100
AcDbArc
 50
5.707782266587901
 51
88.81532506446209
  0
LINE
  5
319
330
2
100
AcDbEntity
  8
0
  6
HIDDEN
 62
     8
 48
0.3
100
AcDbLine
 10
96.8147011048147
 20
-2.288836536965249
 30
0.0
 11
96.8147011048147
 21
-2.276720482565281
 31
0.0
  0
LINE
  5
31A
330
2
100
AcDbEntity
  8
0
  6
HIDDEN
 62
     8
 48
0.3
100
AcDbLine
 10
96.8147011048147
 20
-2.276325311365248
 30
0.0
 11
96.8147011048147
 21
-2.214738416965261
 31
0.0
  0
LINE
  5
31B
330
2
100
AcDbEntity
  8
0
  6
HIDDEN
 62
     8
 48
0.3
100
AcDbLine
 10
96.8147011048147
 20
-2.288836536965249
 30
0.0
 11
98.08464358285611
 21
-2.315086372085769
 31
0.0
  0
LWPOLYLINE
  5
31C
330
2
100
AcDbEntity
  8
0
  6
CONTINUOUS
 62
     7
100
AcDbPolyline
 90
        4
 70
     0
 43
0.0
 10
122.6013129292599
 20
-3.589738416965268
 10
122.4273629688146
 20
-5.298850368965268
 10
122.1721564200146
 20
-7.853935698565265
 10
121.9305234264147
 20
-10.27507851936526
  0
LWPOLYLINE
  5
322
330
2
100
AcDbEntity
  8
0
  6
CONTINUOUS
 62
     7
100
AcDbPolyline
 90
       39
 70
     0
 43
0.0
 10
120.5989138392147
 20
-9.157187168965251
 10
120.5142691272147
 20
-9.976251064965268
 10
120.4870057672147
 20
-10.24096810976524
 10
120.4602415576147
 20
-10.50167650656527
 10
120.4339865560146
 20
-10.75846898816524
 10
120.4082479368146
 20
-11.01144431456527
 10
120.3830307912147
 20
-11.26070635776525
 10
120.3583390024147
 20
-11.50636643776526
 10
120.3341765544147
 20
-11.74853469536524
 10
120.3105460744147
 20
-11.98732324096526
 10
120.2874480232147
 20
-12.22283600416526
 10
120.2648747496147
 20
-12.45519848736526
 10
120.2428153480146
 20
-12.68455772416526
 10
120.2212587928146
 20
-12.91105074336526
 10
120.2001861016146
 20
-13.13479258816526
 10
120.1796067192146
 20
-13.35553544416524
 10
120.1595735928147
 20
-13.57255263936524
 10
120.1401399064147
 20
-13.78509304896525
 10
120.1213571080147
 20
-13.99240471776527
 10
120.1032753032147
 20
-14.19373362656527
 10
120.0859433112146
 20
-14.38832614976524
 10
120.0693658808146
 20
-14.57592033536527
 10
120.0534589400147
 20
-14.75728043296525
 10
120.0381292424147
 20
-14.93331116576527
 10
120.0232899288146
 20
-15.10487753376526
 10
120.0088863544147
 20
-15.27249878656525
 10
119.9948849352147
 20
-15.43646580096526
 10
119.9812537640146
 20
-15.59706176096526
 10
119.9679620824147
 20
-15.75456711136526
 10
119.9549801944147
 20
-15.90925979776526
 10
119.9422793848146
 20
-16.06141514816526
 10
119.9298317512146
 20
-16.21130616096525
 10
119.9176100856146
 20
-16.35920484896525
 10
119.9055879640147
 20
-16.50538109056525
 10
119.8937460776147
 20
-16.65002440256525
 10
119.8820820440146
 20
-16.79312119936527
 10
119.8705961672147
 20
-16.93462763136526
 10
119.8592892968147
 20
-17.07449689216525
 10
119.8481626296147
 20
-17.21267818016524
  0
LWPOLYLINE
  5
34B
330
2
100
AcDbEntity
  8
0
  6
CONTINUOUS
 62
     7
100
AcDbPolyline
 90
       12
 70
     0
 43
0.0
 10
121.8684741688147
 20
-10.85628075296526
 10
121.8534011544147
 20
-10.47543581216526
 10
121.8340438632147
 20
-10.10958609216526
 10
121.8098163368147
 20
-9.760263992965249
 10
121.7801552056147
 20
-9.428482284165248
 10
121.7446043640147
 20
-9.11458698976525
 10
121.7030382744147
 20
-8.817677416965274
 10
121.6555969864147
 20
-8.535945640965266
 10
121.6017140504147
 20
-8.269746061765282
 10
121.5400529144147
 20
-8.020975522565265
 10
121.4685403576146
 20
-7.792149757765265
 10
121.3834926216147
 20
-7.58704280416525
  0
LINE
  5
360
330
2
100
AcDbEntity
  8
0
  6
HIDDEN
 62
     8
 48
0.25
100
AcDbLine
 10
112.4143755464147
 20
-9.126897871365265
 30
0.0
 11
112.4557477752146
 21
-9.511676424965266
 31
0.0
  0
LINE
  5
361
330
2
100
AcDbEntity
  8
0
  6
HIDDEN
 62
     8
 48
0.25
100
AcDbLine
 10
109.6232197784147
 20
-9.258110620165268
 30
0.0
 11
109.5955754344147
 21
-9.632655228165248
 31
0.0
  0
LINE
  5
362
330
2
100
AcDbEntity
  8
0
  6
HIDDEN
 62
     8
 48
0.25
100
AcDbLine
 10
108.8411722840147
 20
-9.126897871365265
 30
0.0
 11
108.7998000536147
 21
-9.511676424965266
 31
0.0
  0
LINE
  5
363
330
2
100
AcDbEntity
  8
0
  6
HIDDEN
 62
     8
 48
0.25
100
AcDbLine
 10
113.9280250584147
 20
-16.76857149536524
 30
0.0
 11
114.0445748440147
 21
-17.19228039296526
 31
0.0
  0
LINE
  5
364
330
2
100
AcDbEntity
  8
0
  6
HIDDEN
 62
     8
 48
0.25
100
AcDbLine
 10
113.9005076008147
 20
-19.95989365376525
 30
0.0
 11
113.9392332344147
 21
-19.89272640416526
 31
0.0
  0
LINE
  5
365
330
2
100
AcDbEntity
  8
0
  6
HIDDEN
 62
     8
 48
0.25
100
AcDbLine
 10
112.5968517656147
 20
-15.23904925696525
 30
0.0
 11
112.6710942904147
 21
-15.46168681216526
 31
0.0
  0
LINE
  5
366
330
2
100
AcDbEntity
  8
0
  6
HIDDEN
 62
     8
 48
0.25
100
AcDbLine
 10
107.7214795496147
 20
-18.29315899456526
 30
0.0
 11
107.7103522488147
 21
-18.12859245056525
 31
0.0
  0
LINE
  5
367
330
2
100
AcDbEntity
  8
0
  6
HIDDEN
 62
     8
 48
0.25
100
AcDbLine
 10
107.0018025368147
 20
-18.27011189536526
 30
0.0
 11
106.9969109032147
 21
-18.11225128576526
 31
0.0
  0
LINE
  5
368
330
2
100
AcDbEntity
  8
0
  6
HIDDEN
 62
     8
 48
0.25
100
AcDbLine
 10
107.5191781736146
 20
-20.11688927616526
 30
0.0
 11
107.4772115208147
 21
-20.09489210016526
 31
0.0
  0
LINE
  5
369
330
2
100
AcDbEntity
  8
0
  6
HIDDEN
 62
     8
 48
0.25
100
AcDbLine
 10
107.0098068776146
 20
-18.42648656736526
 30
0.0
 11
107.0018025368147
 21
-18.27011189536526
 31
0.0
  0
LINE
  5
36A
330
2
100
AcDbEntity
  8
0
  6
HIDDEN
 62
     8
 48
0.25
100
AcDbLine
 10
107.0208794040147
 20
-18.58050544736526
 30
0.0
 11
107.0098068776146
 21
-18.42648656736526
 31
0.0
  0
LINE
  5
36B
330
2
100
AcDbEntity
  8
0
  6
HIDDEN
 62
     8
 48
0.25
100
AcDbLine
 10
107.0349585208147
 20
-18.73131179136525
 30
0.0
 11
107.0208794040147
 21
-18.58050544736526
 31
0.0
  0
LINE
  5
36C
330
2
100
AcDbEntity
  8
0
  6
HIDDEN
 62
     8
 48
0.25
100
AcDbLine
 10
107.0519659144147
 20
-18.87806671776525
 30
0.0
 11
107.0349585208147
 21
-18.73131179136525
 31
0.0
  0
LINE
  5
36D
330
2
100
AcDbEntity
  8
0
  6
HIDDEN
 62
     8
 48
0.25
100
AcDbLine
 10
107.0718069784146
 20
-19.01995388576526
 30
0.0
 11
107.0519659144147
 21
-18.87806671776525
 31
0.0
  0
LINE
  5
36E
330
2
100
AcDbEntity
  8
0
  6
HIDDEN
 62
     8
 48
0.25
100
AcDbLine
 10
107.2431607752146
 20
-19.72728823136525
 30
0.0
 11
107.2091395144147
 21
-19.62993757856526
 31
0.0
  0
LINE
  5
36F
330
2
100
AcDbEntity
  8
0
  6
HIDDEN
 62
     8
 48
0.25
100
AcDbLine
 10
107.2789521656147
 20
-19.81504722976525
 30
0.0
 11
107.2431607752146
 21
-19.72728823136525
 31
0.0
  0
LINE
  5
370
330
2
100
AcDbEntity
  8
0
  6
HIDDEN
 62
     8
 48
0.25
100
AcDbLine
 10
107.3163145944147
 20
-19.89272640416526
 30
0.0
 11
107.2789521656147
 21
-19.81504722976525
 31
0.0
  0
LINE
  5
371
330
2
100
AcDbEntity
  8
0
  6
HIDDEN
 62
     8
 48
0.25
100
AcDbLine
 10
107.3550402296147
 20
-19.95989365376525
 30
0.0
 11
107.3163145944147
 21
-19.89272640416526
 31
0.0
  0
LINE
  5
372
330
2
100
AcDbEntity
  8
0
  6
HIDDEN
 62
     8
 48
0.25
100
AcDbLine
 10
107.3949136536146
 20
-20.01617535296524
 30
0.0
 11
107.3550402296147
 21
-19.95989365376525
 31
0.0
  0
LINE
  5
373
330
2
100
AcDbEntity
  8
0
  6
HIDDEN
 62
     8
 48
0.25
100
AcDbLine
 10
107.4357130680147
 20
-20.06125842816526
 30
0.0
 11
107.3949136536146
 21
-20.01617535296524
 31
0.0
  0
LINE
  5
374
330
2
100
AcDbEntity
  8
0
  6
HIDDEN
 62
     8
 48
0.25
100
AcDbLine
 10
107.4772115208147
 20
-20.09489210016526
 30
0.0
 11
107.4357130680147
 21
-20.06125842816526
 31
0.0
  0
LINE
  5
375
330
2
100
AcDbEntity
  8
0
  6
HIDDEN
 62
     8
 48
0.25
100
AcDbLine
 10
108.1661065832147
 20
-19.68235793056526
 30
0.0
 11
108.0981998072146
 21
-19.57748019616526
 31
0.0
  0
LINE
  5
376
330
2
100
AcDbEntity
  8
0
  6
HIDDEN
 62
     8
 48
0.25
100
AcDbLine
 10
108.2379273944147
 20
-19.77695556416525
 30
0.0
 11
108.1661065832147
 21
-19.68235793056526
 31
0.0
  0
LINE
  5
377
330
2
100
AcDbEntity
  8
0
  6
HIDDEN
 62
     8
 48
0.25
100
AcDbLine
 10
108.3132265896147
 20
-19.86069928416524
 30
0.0
 11
108.2379273944147
 21
-19.77695556416525
 31
0.0
  0
LINE
  5
378
330
2
100
AcDbEntity
  8
0
  6
HIDDEN
 62
     8
 48
0.25
100
AcDbLine
 10
108.3915474200147
 20
-19.93308111776526
 30
0.0
 11
108.3132265896147
 21
-19.86069928416524
 31
0.0
  0
LINE
  5
379
330
2
100
AcDbEntity
  8
0
  6
HIDDEN
 62
     8
 48
0.25
100
AcDbLine
 10
108.4724148056147
 20
-19.99366200736526
 30
0.0
 11
108.3915474200147
 21
-19.93308111776526
 31
0.0
  0
LINE
  5
37A
330
2
100
AcDbEntity
  8
0
  6
HIDDEN
 62
     8
 48
0.25
100
AcDbLine
 10
108.5553382216147
 20
-20.04207448256527
 30
0.0
 11
108.4724148056147
 21
-19.99366200736526
 31
0.0
  0
LINE
  5
37B
330
2
100
AcDbEntity
  8
0
  6
HIDDEN
 62
     8
 48
0.25
100
AcDbLine
 10
108.6398146712147
 20
-20.07802488096526
 30
0.0
 11
108.5553382216147
 21
-20.04207448256527
 31
0.0
  0
LINE
  5
37C
330
2
100
AcDbEntity
  8
0
  6
HIDDEN
 62
     8
 48
0.25
100
AcDbLine
 10
108.7253317368147
 20
-20.10129513216524
 30
0.0
 11
108.6398146712147
 21
-20.07802488096526
 31
0.0
  0
LINE
  5
37D
330
2
100
AcDbEntity
  8
0
  6
HIDDEN
 62
     8
 48
0.25
100
AcDbLine
 10
108.8113706904147
 20
-20.11174408576526
 30
0.0
 11
108.7253317368147
 21
-20.10129513216524
 31
0.0
  0
LINE
  5
37E
330
2
100
AcDbEntity
  8
0
  6
HIDDEN
 62
     8
 48
0.25
100
AcDbLine
 10
107.7392179032147
 20
-18.45587206816524
 30
0.0
 11
107.7214795496147
 21
-18.29315899456526
 31
0.0
  0
LINE
  5
37F
330
2
100
AcDbEntity
  8
0
  6
HIDDEN
 62
     8
 48
0.25
100
AcDbLine
 10
107.7634597144146
 20
-18.61574468416525
 30
0.0
 11
107.7392179032147
 21
-18.45587206816524
 31
0.0
  0
LINE
  5
380
330
2
100
AcDbEntity
  8
0
  6
HIDDEN
 62
     8
 48
0.25
100
AcDbLine
 10
107.7940579368146
 20
-18.77180708576526
 30
0.0
 11
107.7634597144146
 21
-18.61574468416525
 31
0.0
  0
LINE
  5
381
330
2
100
AcDbEntity
  8
0
  6
HIDDEN
 62
     8
 48
0.25
100
AcDbLine
 10
107.8308269672146
 20
-18.92311262176525
 30
0.0
 11
107.7940579368146
 21
-18.77180708576526
 31
0.0
  0
LINE
  5
382
330
2
100
AcDbEntity
  8
0
  6
HIDDEN
 62
     8
 48
0.25
100
AcDbLine
 10
108.0981998072146
 20
-19.57748019616526
 30
0.0
 11
108.0346189768146
 21
-19.46295853056526
 31
0.0
  0
LINE
  5
383
330
2
100
AcDbEntity
  8
0
  6
HIDDEN
 62
     8
 48
0.25
100
AcDbLine
 10
107.5613795800147
 20
-20.12712759456526
 30
0.0
 11
107.5191781736146
 21
-20.11688927616526
 31
0.0
  0
LINE
  5
384
330
2
100
AcDbEntity
  8
0
  6
HIDDEN
 62
     8
 48
0.25
100
AcDbLine
 10
107.5655933784147
 20
-15.98868143296525
 30
0.0
 11
107.4485805912147
 21
-16.35939228416526
 31
0.0
  0
LINE
  5
385
330
2
100
AcDbEntity
  8
0
  6
HIDDEN
 62
     8
 48
0.25
100
AcDbLine
 10
107.1007192888147
 20
-17.63463910976527
 30
0.0
 11
106.9969103704147
 21
-18.11225546336525
 31
0.0
  0
LINE
  5
386
330
2
100
AcDbEntity
  8
0
  6
HIDDEN
 62
     8
 48
0.25
100
AcDbLine
 10
107.2109729864147
 20
-17.19228039296526
 30
0.0
 11
107.1007192888147
 21
-17.63463910976527
 31
0.0
  0
LINE
  5
387
330
2
100
AcDbEntity
  8
0
  6
HIDDEN
 62
     8
 48
0.25
100
AcDbLine
 10
107.3275227720146
 20
-16.76857149536524
 30
0.0
 11
107.2109729864147
 21
-17.19228039296526
 31
0.0
  0
LINE
  5
388
330
2
100
AcDbEntity
  8
0
  6
HIDDEN
 62
     8
 48
0.25
100
AcDbLine
 10
107.4485805912147
 20
-16.35939228416526
 30
0.0
 11
107.3275227720146
 21
-16.76857149536524
 31
0.0
  0
LINE
  5
389
330
2
100
AcDbEntity
  8
0
  6
HIDDEN
 62
     8
 48
0.25
100
AcDbLine
 10
108.3015386712147
 20
-16.23137368256524
 30
0.0
 11
108.1807504632147
 21
-16.54357127936527
 31
0.0
  0
LINE
  5
38A
330
2
100
AcDbEntity
  8
0
  6
HIDDEN
 62
     8
 48
0.25
100
AcDbLine
 10
108.4084577544147
 20
-15.95079370016525
 30
0.0
 11
108.3015386712147
 21
-16.23137368256524
 31
0.0
  0
LINE
  5
38B
330
2
100
AcDbEntity
  8
0
  6
HIDDEN
 62
     8
 48
0.25
100
AcDbLine
 10
108.5019720104147
 20
-15.69655150016525
 30
0.0
 11
108.4084577544147
 21
-15.95079370016525
 31
0.0
  0
LINE
  5
38C
330
2
100
AcDbEntity
  8
0
  6
HIDDEN
 62
     8
 48
0.25
100
AcDbLine
 10
107.7103522488147
 20
-18.12859245056525
 30
0.0
 11
107.7059034984146
 21
-17.96317066816526
 31
0.0
  0
LINE
  5
38D
330
2
100
AcDbEntity
  8
0
  6
HIDDEN
 62
     8
 48
0.25
100
AcDbLine
 10
107.6684350488147
 20
-15.67082339616527
 30
0.0
 11
107.5655933784147
 21
-15.98868143296525
 31
0.0
  0
LINE
  5
38E
330
2
100
AcDbEntity
  8
0
  6
HIDDEN
 62
     8
 48
0.25
100
AcDbLine
 10
107.7576504440147
 20
-15.39486251456526
 30
0.0
 11
107.6684350488147
 21
-15.67082339616527
 31
0.0
  0
LINE
  5
38F
330
2
100
AcDbEntity
  8
0
  6
HIDDEN
 62
     8
 48
0.25
100
AcDbLine
 10
107.8138928488146
 20
-17.58436612416525
 30
0.0
 11
107.7059033976146
 21
-17.96317065696526
 31
0.0
  0
LINE
  5
390
330
2
100
AcDbEntity
  8
0
  6
HIDDEN
 62
     8
 48
0.25
100
AcDbLine
 10
113.5340682808147
 20
-18.29315899456526
 30
0.0
 11
113.5451955800147
 21
-18.12859245056525
 31
0.0
  0
LINE
  5
391
330
2
100
AcDbEntity
  8
0
  6
HIDDEN
 62
     8
 48
0.25
100
AcDbLine
 10
113.5163299256147
 20
-18.45587206816524
 30
0.0
 11
113.5340682808147
 21
-18.29315899456526
 31
0.0
  0
LINE
  5
392
330
2
100
AcDbEntity
  8
0
  6
HIDDEN
 62
     8
 48
0.25
100
AcDbLine
 10
113.4920881144147
 20
-18.61574468416525
 30
0.0
 11
113.5163299256147
 21
-18.45587206816524
 31
0.0
  0
LINE
  5
393
330
2
100
AcDbEntity
  8
0
  6
HIDDEN
 62
     8
 48
0.25
100
AcDbLine
 10
113.4614898936147
 20
-18.77180708576526
 30
0.0
 11
113.4920881144147
 21
-18.61574468416525
 31
0.0
  0
LINE
  5
394
330
2
100
AcDbEntity
  8
0
  6
HIDDEN
 62
     8
 48
0.25
100
AcDbLine
 10
113.4247208616147
 20
-18.92311262176525
 30
0.0
 11
113.4614898936147
 21
-18.77180708576526
 31
0.0
  0
LINE
  5
395
330
2
100
AcDbEntity
  8
0
  6
HIDDEN
 62
     8
 48
0.25
100
AcDbLine
 10
113.3820040552147
 20
-19.06874350496524
 30
0.0
 11
113.4247208616147
 21
-18.92311262176525
 31
0.0
  0
LINE
  5
396
330
2
100
AcDbEntity
  8
0
  6
HIDDEN
 62
     8
 48
0.25
100
AcDbLine
 10
113.1573480216147
 20
-19.57748019616526
 30
0.0
 11
113.2209288536147
 21
-19.46295853056526
 31
0.0
  0
LINE
  5
397
330
2
100
AcDbEntity
  8
0
  6
HIDDEN
 62
     8
 48
0.25
100
AcDbLine
 10
113.0894412456147
 20
-19.68235793056526
 30
0.0
 11
113.1573480216147
 21
-19.57748019616526
 31
0.0
  0
LINE
  5
398
330
2
100
AcDbEntity
  8
0
  6
HIDDEN
 62
     8
 48
0.25
100
AcDbLine
 10
113.0176204360147
 20
-19.77695556416525
 30
0.0
 11
113.0894412456147
 21
-19.68235793056526
 31
0.0
  0
LINE
  5
399
330
2
100
AcDbEntity
  8
0
  6
HIDDEN
 62
     8
 48
0.25
100
AcDbLine
 10
112.9423212392147
 20
-19.86069928416524
 30
0.0
 11
113.0176204360147
 21
-19.77695556416525
 31
0.0
  0
LINE
  5
39A
330
2
100
AcDbEntity
  8
0
  6
HIDDEN
 62
     8
 48
0.25
100
AcDbLine
 10
112.8640004104147
 20
-19.93308111776526
 30
0.0
 11
112.9423212392147
 21
-19.86069928416524
 31
0.0
  0
LINE
  5
39B
330
2
100
AcDbEntity
  8
0
  6
HIDDEN
 62
     8
 48
0.25
100
AcDbLine
 10
112.7831330232147
 20
-19.99366200736526
 30
0.0
 11
112.8640004104147
 21
-19.93308111776526
 31
0.0
  0
LINE
  5
39C
330
2
100
AcDbEntity
  8
0
  6
HIDDEN
 62
     8
 48
0.25
100
AcDbLine
 10
112.7002096072147
 20
-20.04207448256527
 30
0.0
 11
112.7831330232147
 21
-19.99366200736526
 31
0.0
  0
LINE
  5
39D
330
2
100
AcDbEntity
  8
0
  6
HIDDEN
 62
     8
 48
0.25
100
AcDbLine
 10
112.6157331576147
 20
-20.07802488096526
 30
0.0
 11
112.7002096072147
 21
-20.04207448256527
 31
0.0
  0
LINE
  5
39E
330
2
100
AcDbEntity
  8
0
  6
HIDDEN
 62
     8
 48
0.25
100
AcDbLine
 10
112.5302160920147
 20
-20.10129513216524
 30
0.0
 11
112.6157331576147
 21
-20.07802488096526
 31
0.0
  0
LINE
  5
39F
330
2
100
AcDbEntity
  8
0
  6
HIDDEN
 62
     8
 48
0.25
100
AcDbLine
 10
112.4441771400147
 20
-20.11174408576526
 30
0.0
 11
112.5302160920147
 21
-20.10129513216524
 31
0.0
  0
LINE
  5
3A0
330
2
100
AcDbEntity
  8
0
  6
HIDDEN
 62
     8
 48
0.25
100
AcDbLine
 10
113.8606341768147
 20
-20.01617535296524
 30
0.0
 11
113.9005076008147
 21
-19.95989365376525
 31
0.0
  0
LINE
  5
3A1
330
2
100
AcDbEntity
  8
0
  6
HIDDEN
 62
     8
 48
0.25
100
AcDbLine
 10
113.8198347624147
 20
-20.06125842816526
 30
0.0
 11
113.8606341768147
 21
-20.01617535296524
 31
0.0
  0
LINE
  5
3A2
330
2
100
AcDbEntity
  8
0
  6
HIDDEN
 62
     8
 48
0.25
100
AcDbLine
 10
113.7783363096147
 20
-20.09489210016526
 30
0.0
 11
113.8198347624147
 21
-20.06125842816526
 31
0.0
  0
LINE
  5
3A3
330
2
100
AcDbEntity
  8
0
  6
HIDDEN
 62
     8
 48
0.25
100
AcDbLine
 10
113.7363696568147
 20
-20.11688927616526
 30
0.0
 11
113.7783363096147
 21
-20.09489210016526
 31
0.0
  0
LINE
  5
3A4
330
2
100
AcDbEntity
  8
0
  6
HIDDEN
 62
     8
 48
0.25
100
AcDbLine
 10
113.6941682504147
 20
-20.12712759456526
 30
0.0
 11
113.7363696568147
 21
-20.11688927616526
 31
0.0
  0
LINE
  5
3A5
330
2
100
AcDbEntity
  8
0
  6
HIDDEN
 62
     8
 48
0.25
100
AcDbLine
 10
113.4416549800147
 20
-17.58436612416525
 30
0.0
 11
113.5496444328147
 21
-17.96317065696526
 31
0.0
  0
LINE
  5
3A6
330
2
100
AcDbEntity
  8
0
  6
HIDDEN
 62
     8
 48
0.25
100
AcDbLine
 10
113.0747973656147
 20
-16.54357127936527
 30
0.0
 11
113.2029729928147
 21
-16.88032887296525
 31
0.0
  0
LINE
  5
3A7
330
2
100
AcDbEntity
  8
0
  6
HIDDEN
 62
     8
 48
0.25
100
AcDbLine
 10
112.9540091592147
 20
-16.23137368256524
 30
0.0
 11
113.0747973656147
 21
-16.54357127936527
 31
0.0
  0
LINE
  5
3A8
330
2
100
AcDbEntity
  8
0
  6
HIDDEN
 62
     8
 48
0.25
100
AcDbLine
 10
112.8470900760147
 20
-15.95079370016525
 30
0.0
 11
112.9540091592147
 21
-16.23137368256524
 31
0.0
  0
LINE
  5
3A9
330
2
100
AcDbEntity
  8
0
  6
HIDDEN
 62
     8
 48
0.25
100
AcDbLine
 10
113.5451955800147
 20
-18.12859245056525
 30
0.0
 11
113.5496443320147
 21
-17.96317066816526
 31
0.0
  0
LINE
  5
3AA
330
2
100
AcDbEntity
  8
0
  6
HIDDEN
 62
     8
 48
0.25
100
AcDbLine
 10
113.8069672392147
 20
-16.35939228416526
 30
0.0
 11
113.9280250584147
 21
-16.76857149536524
 31
0.0
  0
LINE
  5
3AB
330
2
100
AcDbEntity
  8
0
  6
HIDDEN
 62
     8
 48
0.25
100
AcDbLine
 10
113.6899544520147
 20
-15.98868143296525
 30
0.0
 11
113.8069672392147
 21
-16.35939228416526
 31
0.0
  0
LINE
  5
3AC
330
2
100
AcDbEntity
  8
0
  6
HIDDEN
 62
     8
 48
0.25
100
AcDbLine
 10
113.5871127816147
 20
-15.67082339616527
 30
0.0
 11
113.6899544520147
 21
-15.98868143296525
 31
0.0
  0
LINE
  5
3AD
330
2
100
AcDbEntity
  8
0
  6
HIDDEN
 62
     8
 48
0.25
100
AcDbLine
 10
113.4978973848147
 20
-15.39486251456526
 30
0.0
 11
113.5871127816147
 21
-15.67082339616527
 31
0.0
  0
LINE
  5
3AE
330
2
100
AcDbEntity
  8
0
  6
HIDDEN
 62
     8
 48
0.25
100
AcDbLine
 10
108.2585637896147
 20
-13.49277837536527
 30
0.0
 11
108.0863912504147
 21
-14.20486807456526
 31
0.0
  0
LINE
  5
3AF
330
2
100
AcDbEntity
  8
0
  6
HIDDEN
 62
     8
 48
0.25
100
AcDbLine
 10
109.0683895800147
 20
-13.76626924576525
 30
0.0
 11
108.8784995464147
 21
-14.50512644896525
 31
0.0
  0
LINE
  5
3B0
330
2
100
AcDbEntity
  8
0
  6
HIDDEN
 62
     8
 48
0.25
100
AcDbLine
 10
109.2334722680146
 20
-12.99731076576525
 30
0.0
 11
109.0683895800147
 21
-13.76626924576525
 31
0.0
  0
LINE
  5
3B1
330
2
100
AcDbEntity
  8
0
  6
HIDDEN
 62
     8
 48
0.25
100
AcDbLine
 10
108.4138664488147
 20
-12.75878678336528
 30
0.0
 11
108.2585637896147
 21
-13.49277837536527
 31
0.0
  0
LINE
  5
3B2
330
2
100
AcDbEntity
  8
0
  6
HIDDEN
 62
     8
 48
0.25
100
AcDbLine
 10
108.8013626136147
 20
-14.77581352256525
 30
0.0
 11
108.7286032936147
 21
-15.01799687616524
 31
0.0
  0
LINE
  5
3B3
330
2
100
AcDbEntity
  8
0
  6
HIDDEN
 62
     8
 48
0.25
100
AcDbLine
 10
108.8784995464147
 20
-14.50512644896525
 30
0.0
 11
108.8013626136147
 21
-14.77581352256525
 31
0.0
  0
LINE
  5
3B4
330
2
100
AcDbEntity
  8
0
  6
HIDDEN
 62
     8
 48
0.25
100
AcDbLine
 10
108.1083454952146
 20
-14.18033903296525
 30
0.0
 11
108.0363373688147
 21
-14.45766434496526
 31
0.0
  0
LINE
  5
3B5
330
2
100
AcDbEntity
  8
0
  6
HIDDEN
 62
     8
 48
0.25
100
AcDbLine
 10
109.4349382184147
 20
-11.64657798976524
 30
0.0
 11
109.3524251192147
 21
-12.29919217056524
 31
0.0
  0
LINE
  5
3B6
330
2
100
AcDbEntity
  8
0
  6
HIDDEN
 62
     8
 48
0.25
100
AcDbLine
 10
109.4919184568146
 20
-11.04519929856525
 30
0.0
 11
109.4349382184147
 21
-11.64657798976524
 31
0.0
  0
LINE
  5
3B7
330
2
100
AcDbEntity
  8
0
  6
HIDDEN
 62
     8
 48
0.25
100
AcDbLine
 10
109.5330974968147
 20
-10.51944636256527
 30
0.0
 11
109.4919184568146
 21
-11.04519929856525
 31
0.0
  0
LINE
  5
3B8
330
2
100
AcDbEntity
  8
0
  6
HIDDEN
 62
     8
 48
0.25
100
AcDbLine
 10
109.5663085592146
 20
-10.05128887776526
 30
0.0
 11
109.5330974968147
 21
-10.51944636256527
 31
0.0
  0
LINE
  5
3B9
330
2
100
AcDbEntity
  8
0
  6
HIDDEN
 62
     8
 48
0.25
100
AcDbLine
 10
109.5955754344147
 20
-9.632655228165248
 30
0.0
 11
109.5663085592146
 21
-10.05128887776526
 31
0.0
  0
LINE
  5
3BA
330
2
100
AcDbEntity
  8
0
  6
HIDDEN
 62
     8
 48
0.25
100
AcDbLine
 10
108.6140800744147
 20
-11.49352732736524
 30
0.0
 11
108.5303627176147
 21
-12.10282951616525
 31
0.0
  0
LINE
  5
3BB
330
2
100
AcDbEntity
  8
0
  6
HIDDEN
 62
     8
 48
0.25
100
AcDbLine
 10
108.7200185848147
 20
-10.40310449216524
 30
0.0
 11
108.6742014520147
 21
-10.91815914336526
 31
0.0
  0
LINE
  5
3BC
330
2
100
AcDbEntity
  8
0
  6
HIDDEN
 62
     8
 48
0.25
100
AcDbLine
 10
108.7603025800147
 20
-9.936000434565244
 30
0.0
 11
108.7200185848147
 21
-10.40310449216524
 31
0.0
  0
LINE
  5
3BD
330
2
100
AcDbEntity
  8
0
  6
HIDDEN
 62
     8
 48
0.25
100
AcDbLine
 10
108.7998000536147
 20
-9.511676424965266
 30
0.0
 11
108.7603025800147
 21
-9.936000434565244
 31
0.0
  0
LINE
  5
3BE
330
2
100
AcDbEntity
  8
0
  6
HIDDEN
 62
     8
 48
0.25
100
AcDbLine
 10
111.9031227096147
 20
-12.29919217056524
 30
0.0
 11
112.0220755608147
 21
-12.99731076576525
 31
0.0
  0
LINE
  5
3BF
330
2
100
AcDbEntity
  8
0
  6
HIDDEN
 62
     8
 48
0.25
100
AcDbLine
 10
112.3770482840147
 20
-14.50512644896525
 30
0.0
 11
112.4541852152147
 21
-14.77581352256525
 31
0.0
  0
LINE
  5
3C0
330
2
100
AcDbEntity
  8
0
  6
HIDDEN
 62
     8
 48
0.25
100
AcDbLine
 10
112.5269445368147
 20
-15.01799687616524
 30
0.0
 11
112.5968517656147
 21
-15.23904925696525
 31
0.0
  0
LINE
  5
3C1
330
2
100
AcDbEntity
  8
0
  6
HIDDEN
 62
     8
 48
0.25
100
AcDbLine
 10
112.4541852152147
 20
-14.77581352256525
 30
0.0
 11
112.5269445368147
 21
-15.01799687616524
 31
0.0
  0
LINE
  5
3C2
330
2
100
AcDbEntity
  8
0
  6
HIDDEN
 62
     8
 48
0.25
100
AcDbLine
 10
113.2192104600147
 20
-14.45766434496526
 30
0.0
 11
113.2863765720147
 21
-14.70203907296524
 31
0.0
  0
LINE
  5
3C3
330
2
100
AcDbEntity
  8
0
  6
HIDDEN
 62
     8
 48
0.25
100
AcDbLine
 10
113.1472023336147
 20
-14.18033903296525
 30
0.0
 11
113.2192104600147
 21
-14.45766434496526
 31
0.0
  0
LINE
  5
3C4
330
2
100
AcDbEntity
  8
0
  6
HIDDEN
 62
     8
 48
0.25
100
AcDbLine
 10
112.9969840408147
 20
-13.49277837536527
 30
0.0
 11
113.1691565784147
 21
-14.20486807456526
 31
0.0
  0
LINE
  5
3C5
330
2
100
AcDbEntity
  8
0
  6
HIDDEN
 62
     8
 48
0.25
100
AcDbLine
 10
112.8416813816147
 20
-12.75878678336528
 30
0.0
 11
112.9969840408147
 21
-13.49277837536527
 31
0.0
  0
LINE
  5
3C6
330
2
100
AcDbEntity
  8
0
  6
HIDDEN
 62
     8
 48
0.25
100
AcDbLine
 10
111.6892392712147
 20
-10.05128887776526
 30
0.0
 11
111.7224503320147
 21
-10.51944636256527
 31
0.0
  0
LINE
  5
3C7
330
2
100
AcDbEntity
  8
0
  6
HIDDEN
 62
     8
 48
0.25
100
AcDbLine
 10
111.6599723960147
 20
-9.632655228165248
 30
0.0
 11
111.6892392712147
 21
-10.05128887776526
 31
0.0
  0
LINE
  5
3C8
330
2
100
AcDbEntity
  8
0
  6
HIDDEN
 62
     8
 48
0.25
100
AcDbLine
 10
112.5813463768147
 20
-10.91815914336526
 30
0.0
 11
112.6414677544147
 21
-11.49352732736524
 31
0.0
  0
LINE
  5
3C9
330
2
100
AcDbEntity
  8
0
  6
HIDDEN
 62
     8
 48
0.25
100
AcDbLine
 10
112.5355292440147
 20
-10.40310449216524
 30
0.0
 11
112.5813463768147
 21
-10.91815914336526
 31
0.0
  0
LINE
  5
3CA
330
2
100
AcDbEntity
  8
0
  6
HIDDEN
 62
     8
 48
0.25
100
AcDbLine
 10
112.4952452488146
 20
-9.936000434565244
 30
0.0
 11
112.5355292440147
 21
-10.40310449216524
 31
0.0
  0
LINE
  5
3CB
330
2
100
AcDbEntity
  8
0
  6
HIDDEN
 62
     8
 48
0.25
100
AcDbLine
 10
112.4557477752146
 20
-9.511676424965266
 30
0.0
 11
112.4952452488146
 21
-9.936000434565244
 31
0.0
  0
LINE
  5
3CC
330
2
100
AcDbEntity
  8
0
  6
HIDDEN
 62
     8
 48
0.25
100
AcDbLine
 10
111.8206096120146
 20
-11.64657798976524
 30
0.0
 11
111.9031227096147
 21
-12.29919217056524
 31
0.0
  0
LWPOLYLINE
  5
3CD
330
2
100
AcDbEntity
  8
0
  6
CONTINUOUS
 62
     7
100
AcDbPolyline
 90
       10
 70
     0
 43
0.0
 10
121.1433377176147
 20
-11.79309387776526
 10
121.0312841224147
 20
-12.54254311296524
 10
120.9080898584147
 20
-13.38600514496527
 10
120.8016595000146
 20
-14.16440723296527
 10
120.7102132648146
 20
-14.91120859296526
 10
120.6319218376147
 20
-15.65956625056524
 10
120.5628230488147
 20
-16.44076913696525
 10
120.4986062248146
 20
-17.27858876416525
 10
120.4362481000147
 20
-18.17331742656524
 10
120.4239827944147
 20
-18.35345760896525
  0
LINE
  5
3D9
330
2
100
AcDbEntity
  8
0
  6
HIDDEN
 62
     8
 48
0.25
100
AcDbLine
 10
114.2537452936147
 20
-18.27011189536526
 30
0.0
 11
114.2586369272147
 21
-18.11225128576526
 31
0.0
  0
LINE
  5
3DA
330
2
100
AcDbEntity
  8
0
  6
HIDDEN
 62
     8
 48
0.25
100
AcDbLine
 10
114.2457409512147
 20
-18.42648656736526
 30
0.0
 11
114.2537452936147
 21
-18.27011189536526
 31
0.0
  0
LINE
  5
3DB
330
2
100
AcDbEntity
  8
0
  6
HIDDEN
 62
     8
 48
0.25
100
AcDbLine
 10
114.2346684264146
 20
-18.58050544736526
 30
0.0
 11
114.2457409512147
 21
-18.42648656736526
 31
0.0
  0
LINE
  5
3DC
330
2
100
AcDbEntity
  8
0
  6
HIDDEN
 62
     8
 48
0.25
100
AcDbLine
 10
114.2205893080147
 20
-18.73131179136525
 30
0.0
 11
114.2346684264146
 21
-18.58050544736526
 31
0.0
  0
LINE
  5
3DD
330
2
100
AcDbEntity
  8
0
  6
HIDDEN
 62
     8
 48
0.25
100
AcDbLine
 10
114.2035819160147
 20
-18.87806671776525
 30
0.0
 11
114.2205893080147
 21
-18.73131179136525
 31
0.0
  0
LINE
  5
3DE
330
2
100
AcDbEntity
  8
0
  6
HIDDEN
 62
     8
 48
0.25
100
AcDbLine
 10
114.1837408504147
 20
-19.01995388576526
 30
0.0
 11
114.2035819160147
 21
-18.87806671776525
 31
0.0
  0
LINE
  5
3DF
330
2
100
AcDbEntity
  8
0
  6
HIDDEN
 62
     8
 48
0.25
100
AcDbLine
 10
114.1611764824147
 20
-19.15618402976525
 30
0.0
 11
114.1837408504147
 21
-19.01995388576526
 31
0.0
  0
LINE
  5
3E0
330
2
100
AcDbEntity
  8
0
  6
HIDDEN
 62
     8
 48
0.25
100
AcDbLine
 10
114.1360143288147
 20
-19.28599935456524
 30
0.0
 11
114.1611764824147
 21
-19.15618402976525
 31
0.0
  0
LINE
  5
3E1
330
2
100
AcDbEntity
  8
0
  6
HIDDEN
 62
     8
 48
0.25
100
AcDbLine
 10
114.1083943528147
 20
-19.40867774816526
 30
0.0
 11
114.1360143288147
 21
-19.28599935456524
 31
0.0
  0
LINE
  5
3E2
330
2
100
AcDbEntity
  8
0
  6
HIDDEN
 62
     8
 48
0.25
100
AcDbLine
 10
114.0784701976147
 20
-19.52353679456526
 30
0.0
 11
114.1083943528147
 21
-19.40867774816526
 31
0.0
  0
LINE
  5
3E3
330
2
100
AcDbEntity
  8
0
  6
HIDDEN
 62
     8
 48
0.25
100
AcDbLine
 10
114.0464083144147
 20
-19.62993757856526
 30
0.0
 11
114.0784701976147
 21
-19.52353679456526
 31
0.0
  0
LINE
  5
3E4
330
2
100
AcDbEntity
  8
0
  6
HIDDEN
 62
     8
 48
0.25
100
AcDbLine
 10
114.0123870552147
 20
-19.72728823136525
 30
0.0
 11
114.0464083144147
 21
-19.62993757856526
 31
0.0
  0
LINE
  5
3E5
330
2
100
AcDbEntity
  8
0
  6
HIDDEN
 62
     8
 48
0.25
100
AcDbLine
 10
113.9392332344147
 20
-19.89272640416526
 30
0.0
 11
113.9765956648147
 21
-19.81504722976525
 31
0.0
  0
LINE
  5
3E6
330
2
100
AcDbEntity
  8
0
  6
HIDDEN
 62
     8
 48
0.25
100
AcDbLine
 10
113.9765956648147
 20
-19.81504722976525
 30
0.0
 11
114.0123870552147
 21
-19.72728823136525
 31
0.0
  0
LINE
  5
3E7
330
2
100
AcDbEntity
  8
0
  6
HIDDEN
 62
     8
 48
0.25
100
AcDbLine
 10
114.1548285400147
 20
-17.63463910976527
 30
0.0
 11
114.2586374600147
 21
-18.11225546336525
 31
0.0
  0
LINE
  5
3E8
330
2
100
AcDbEntity
  8
0
  6
HIDDEN
 62
     8
 48
0.25
100
AcDbLine
 10
114.0445748440147
 20
-17.19228039296526
 30
0.0
 11
114.1548285400147
 21
-17.63463910976527
 31
0.0
  0
LINE
  5
3E9
330
2
100
AcDbEntity
  8
0
  6
CONTINUOUS
 62
     7
100
AcDbLine
 10
119.7655859544146
 20
-18.25083982176527
 30
0.0
 11
119.7375523256147
 21
-18.60558864896526
 31
0.0
  0
LWPOLYLINE
  5
3EA
330
2
100
AcDbEntity
  8
0
  6
CONTINUOUS
 62
     7
100
AcDbPolyline
 90
       12
 70
     0
 43
0.0
 10
120.4239781688146
 20
-18.35336347296524
 10
120.4085563528146
 20
-18.50474703136525
 10
120.3795451912147
 20
-18.67136251616526
 10
120.3382722344147
 20
-18.83510548416526
 10
120.2853523672146
 20
-18.99422144256524
 10
120.2217452456146
 20
-19.14702821856526
 10
120.1487664232146
 20
-19.29193907616524
 10
120.0680188712147
 20
-19.42761554016525
 10
119.9814434888146
 20
-19.55285905216526
 10
119.8916025112147
 20
-19.66630952416524
 10
119.8012783368147
 20
-19.76707020896525
 10
119.7369525320147
 20
-19.83115269696527
  0
ARC
  5
3F8
330
2
100
AcDbEntity
  8
0
  6
HIDDEN
 62
     8
 48
0.5
100
AcDbCircle
 10
117.5754883212889
 20
-18.41886032687588
 30
0.0
 40
2.205198345418603
100
AcDbArc
 50
300.7623452103768
 51
345.2305386216153
  0
LWPOLYLINE
  5
3F9
330
2
100
AcDbEntity
  8
0
  6
CONTINUOUS
 62
     7
100
AcDbPolyline
 90
       50
 70
     0
 43
0.0
 10
119.7037633192147
 20
-20.23206369536524
 10
119.7023837480147
 20
-20.24774647936526
 10
119.7008662184147
 20
-20.26317732736524
 10
119.6991659768146
 20
-20.27890741056527
 10
119.6969825144147
 20
-20.29733731456527
 10
119.6947159976147
 20
-20.31482719296526
 10
119.6926074600147
 20
-20.32991237856526
 10
119.6905047256146
 20
-20.34403347936525
 10
119.6885320328146
 20
-20.35657922816526
 10
119.6861375976147
 20
-20.37101797696525
 10
119.6836510376147
 20
-20.38521726336524
 10
119.6810749976147
 20
-20.39919256096526
 10
119.6784037832147
 20
-20.41299928896526
 10
119.6756364184147
 20
-20.42666121216524
 10
119.6727751880147
 20
-20.44018364096526
 10
119.6698243224146
 20
-20.45356269696525
 10
119.6667902392147
 20
-20.46678519616527
 10
119.6636825272146
 20
-20.47982597216525
 10
119.6605130280147
 20
-20.49265431456525
 10
119.6572970872147
 20
-20.50523010176525
 10
119.6540207592146
 20
-20.51762730336526
 10
119.6506703048146
 20
-20.52991034656526
 10
119.6472315224146
 20
-20.54213851936526
 10
119.6441050520147
 20
-20.55295187296526
 10
119.6412309432146
 20
-20.56265883936525
 10
119.6383251416146
 20
-20.57226008736525
 10
119.6351932088147
 20
-20.58237953216524
 10
119.6321239000147
 20
-20.59207733696526
 10
119.6288854056147
 20
-20.60208807936526
 10
119.6253165352147
 20
-20.61287204896525
 10
119.6214619688146
 20
-20.62424501536527
 10
119.6173544712147
 20
-20.63607052096525
 10
119.6130237912147
 20
-20.64823137856524
 10
119.6084699208146
 20
-20.66070081056526
 10
119.6036801928146
 20
-20.67348693856526
 10
119.5986410184147
 20
-20.68659828256524
 10
119.5933379112147
 20
-20.70004347296524
 10
119.5877555960146
 20
-20.71383082496525
 10
119.5818829064147
 20
-20.72795660896525
 10
119.5757147816147
 20
-20.74240227776525
 10
119.5692465080147
 20
-20.75714918336525
 10
119.5624735752147
 20
-20.77217880576525
 10
119.5553915256147
 20
-20.78747308576525
 10
119.5479946152147
 20
-20.80301739936526
 10
119.5402764136147
 20
-20.81879929056526
 10
119.5322305080147
 20
-20.83480640416524
 10
119.5238505608147
 20
-20.85102624256526
 10
119.5151303048147
 20
-20.86744618176526
 10
119.5060635352147
 20
-20.88405348416525
 10
119.5017549992147
 20
-20.89172963936526
  0
LINE
  5
42D
330
2
100
AcDbEntity
  8
0
  6
HIDDEN
 62
     8
100
AcDbLine
 10
119.6880162056147
 20
-19.06350278336526
 30
0.0
 11
119.6360978440147
 21
-19.21466358496525
 31
0.0
  0
LINE
  5
42E
330
2
100
AcDbEntity
  8
0
  6
HIDDEN
 62
     8
100
AcDbLine
 10
119.7737671672147
 20
-18.59341650176526
 30
0.0
 11
119.7570684424147
 21
-18.75162150976525
 31
0.0
  0
LWPOLYLINE
  5
42F
330
2
100
AcDbEntity
  8
0
  6
CONTINUOUS
 62
     7
100
AcDbPolyline
 90
        3
 70
     0
 43
0.0
 10
119.7375523256147
 20
-18.60558864896526
 10
119.7285867080146
 20
-18.71897436576524
 10
119.7112585416147
 20
-18.93782466016526
  0
LINE
  5
434
330
2
100
AcDbEntity
  8
0
  6
CONTINUOUS
 62
     7
100
AcDbLine
 10
119.7112585416147
 20
-18.93782466016526
 30
0.0
 11
119.6867763304147
 21
-19.24596313536525
 31
0.0
  0
LINE
  5
435
330
2
100
AcDbEntity
  8
0
  6
CONTINUOUS
 62
     7
100
AcDbLine
 10
119.6867763304147
 20
-19.24596313536525
 30
0.0
 11
119.6639036728147
 21
-19.53220164096526
 31
0.0
  0
LINE
  5
436
330
2
100
AcDbEntity
  8
0
  6
CONTINUOUS
 62
     7
100
AcDbLine
 10
119.6639036728147
 20
-19.53220164096526
 30
0.0
 11
119.6424714776147
 21
-19.79853046496526
 31
0.0
  0
LINE
  5
437
330
2
100
AcDbEntity
  8
0
  6
CONTINUOUS
 62
     7
100
AcDbLine
 10
119.6424714776147
 20
-19.79853046496526
 30
0.0
 11
119.6228836616147
 21
-20.04019186176525
 31
0.0
  0
LINE
  5
438
330
2
100
AcDbEntity
  8
0
  6
CONTINUOUS
 62
     7
100
AcDbLine
 10
119.6228836616147
 20
-20.04019186176525
 30
0.0
 11
119.6009656952147
 21
-20.30870839936525
 31
0.0
  0
LINE
  5
439
330
2
100
AcDbEntity
  8
0
  6
CONTINUOUS
 62
     7
100
AcDbLine
 10
119.6009656952147
 20
-20.30870839936525
 30
0.0
 11
119.5925435800146
 21
-20.41144636896525
 31
0.0
  0
LINE
  5
43A
330
2
100
AcDbEntity
  8
0
  6
CONTINUOUS
 62
     7
100
AcDbLine
 10
119.7155787528147
 20
-20.08667908576526
 30
0.0
 11
119.7033847864146
 21
-20.23518370976526
 31
0.0
  0
LWPOLYLINE
  5
43B
330
2
100
AcDbEntity
  8
0
  6
CONTINUOUS
 62
     7
100
AcDbPolyline
 90
        3
 70
     0
 43
0.0
 10
119.5925435800146
 20
-20.41144636896525
 10
119.5891521048147
 20
-20.45277310176526
 10
119.5868261256147
 20
-20.48111005376525
  0
LINE
  5
440
330
2
100
AcDbEntity
  8
0
  6
CONTINUOUS
 62
     7
100
AcDbLine
 10
119.5868261256147
 20
-20.48111005376525
 30
0.0
 11
119.5857149320147
 21
-20.49412982816524
 31
0.0
  0
LWPOLYLINE
  5
441
330
2
100
AcDbEntity
  8
0
  6
CONTINUOUS
 62
     7
100
AcDbPolyline
 90
       36
 70
     0
 43
0.0
 10
119.8256074888146
 20
-18.95387934656526
 10
119.8257287768146
 20
-18.95319317056524
 10
119.8255916232147
 20
-18.95400568576526
 10
119.8251994952146
 20
-18.95640164896526
 10
119.8245685000147
 20
-18.96038717376525
 10
119.8237129000147
 20
-18.96597167936526
 10
119.8226450136147
 20
-18.97316972256526
 10
119.8213749528147
 20
-18.98200416096526
 10
119.8199106312147
 20
-18.99250769696524
 10
119.8182580648146
 20
-19.00472240576524
 10
119.8164233768147
 20
-19.01868562976525
 10
119.8144131720147
 20
-19.03442628096525
 10
119.8122330456147
 20
-19.05197577056524
 10
119.8098875640147
 20
-19.07136863296526
 10
119.8073803736147
 20
-19.09264203776526
 10
119.8047142824147
 20
-19.11583542496527
 10
119.8018911048147
 20
-19.14099208896525
 10
119.7989116408147
 20
-19.16815966656526
 10
119.7957759480146
 20
-19.19738794016525
 10
119.7924871720147
 20
-19.22869618496525
 10
119.7890462520147
 20
-19.26212738816526
 10
119.7854523720147
 20
-19.29773988256526
 10
119.7817045224147
 20
-19.33559197056526
 10
119.7777998696147
 20
-19.37575857056526
 10
119.7737315000147
 20
-19.41835619776524
 10
119.7694914280146
 20
-19.46351360736525
 10
119.7650711704147
 20
-19.51136579456525
 10
119.7604618168147
 20
-19.56205236736527
 10
119.7556541496147
 20
-19.61571534816526
 10
119.7506380072147
 20
-19.67250510816526
 10
119.7454021336147
 20
-19.73258081696526
 10
119.7399355960147
 20
-19.79609239296524
 10
119.7342279432147
 20
-19.86317513216526
 10
119.7282695112147
 20
-19.93394217216526
 10
119.7220528104147
 20
-20.00846257376525
 10
119.7155787528147
 20
-20.08667908576526
  0
LINE
  5
467
330
2
100
AcDbEntity
  8
0
  6
CONTINUOUS
 62
     7
100
AcDbLine
 10
119.8481626296147
 20
-17.21267818016524
 30
0.0
 11
119.8264528104147
 21
-17.48372865056526
 31
0.0
  0
LWPOLYLINE
  5
468
330
2
100
AcDbEntity
  8
0
  6
CONTINUOUS
 62
     7
100
AcDbPolyline
 90
        4
 70
     0
 43
0.0
 10
119.8054603368146
 20
-17.74736343776526
 10
119.7851740952146
 20
-18.00319571296525
 10
119.7752926760147
 20
-18.12806935776524
 10
119.7655859544146
 20
-18.25083982176527
  0
LINE
  5
46E
330
2
100
AcDbEntity
  8
0
  6
CONTINUOUS
 62
     7
100
AcDbLine
 10
119.8264528104147
 20
-17.48372865056526
 30
0.0
 11
119.8054603368146
 21
-17.74736343776526
 31
0.0
  0
LWPOLYLINE
  5
482
330
2
100
AcDbEntity
  8
0
  6
CONTINUOUS
 62
     7
100
AcDbPolyline
 90
       16
 70
     0
 43
0.0
 10
120.5536328888147
 20
-9.595087853765249
 10
120.5580329144146
 20
-9.617567311365249
 10
120.5961617048147
 20
-9.827997872965248
 10
120.6384686696147
 20
-10.01893257216524
 10
120.6899785368146
 20
-10.19165185696525
 10
120.7501557656146
 20
-10.35272382176528
 10
120.8133249272147
 20
-10.50436450016526
 10
120.8746893912147
 20
-10.64608531456524
 10
120.9316989640146
 20
-10.77857835296526
 10
120.9827005880147
 20
-10.90256051936527
 10
121.0279966840147
 20
-11.02227954016525
 10
121.0686727320147
 20
-11.14335467136526
 10
121.1038088824146
 20
-11.26685276896525
 10
121.1316699320146
 20
-11.39345142496525
 10
121.1499139560147
 20
-11.52557819456524
 10
121.1544750920147
 20
-11.66851279136526
  0
LINE
  5
494
330
2
100
AcDbEntity
  8
0
  6
CONTINUOUS
 62
     7
100
AcDbLine
 10
121.1433377176147
 20
-11.79309387776526
 30
0.0
 11
121.1544750920147
 21
-11.66851279136526
 31
0.0
  0
LINE
  5
495
330
2
100
AcDbEntity
  8
0
  6
CONTINUOUS
 62
     7
100
AcDbLine
 10
121.9305234264147
 20
-10.27507851936526
 30
0.0
 11
121.8637284760147
 21
-10.94479627936524
 31
0.0
  0
LWPOLYLINE
  5
496
330
2
100
AcDbEntity
  8
0
  6
CONTINUOUS
 62
     7
100
AcDbPolyline
 90
        3
 70
     0
 43
0.0
 10
121.8638756072147
 20
-10.94329809376525
 10
121.8585772840147
 20
-10.98873272096526
 10
121.8456751512147
 20
-11.06589581536526
  0
LINE
  5
49B
330
2
100
AcDbEntity
  8
0
  6
CONTINUOUS
 62
     7
100
AcDbLine
 10
121.8456751512147
 20
-11.06589581536526
 30
0.0
 11
121.8264524568147
 21
-11.14867990016524
 31
0.0
  0
LWPOLYLINE
  5
49C
330
2
100
AcDbEntity
  8
0
  6
CONTINUOUS
 62
     7
100
AcDbPolyline
 90
       15
 70
     0
 43
0.0
 10
121.8263331848147
 20
-11.14864468896524
 10
121.7971597800147
 20
-11.24746576896525
 10
121.7599273656147
 20
-11.34812240736527
 10
121.7176075784146
 20
-11.44369471296527
 10
121.6709648552147
 20
-11.53451857056526
 10
121.6204142984146
 20
-11.62130675136528
 10
121.5664141816147
 20
-11.70441675456524
 10
121.5093082520147
 20
-11.78420704416524
 10
121.4493566616147
 20
-11.86101262976524
 10
121.3868595096147
 20
-11.93503961376524
 10
121.3219713976147
 20
-12.00662469856526
 10
121.2544324632147
 20
-12.07639676096526
 10
121.1835977144147
 20
-12.14508250656526
 10
121.1093156840146
 20
-12.21285772576527
 10
121.0763237944146
 20
-12.24130380736524
  0
LINE
  5
4AD
330
2
100
AcDbEntity
  8
0
  6
CENTER
 62
     1
100
AcDbLine
 10
110.6272011048146
 20
-2.96998141517804
 30
0.0
 11
110.6272011048146
 21
-8.178097015552509
 31
0.0
  0
LWPOLYLINE
  5
4AF
330
2
100
AcDbEntity
  8
0
  6
CONTINUOUS
 62
     7
100
AcDbPolyline
 90
       19
 70
     0
 43
0.0
 10
110.6277739144146
 20
-4.273799580165267
 10
110.5322124456147
 20
-4.277252356165249
 10
110.4333266632147
 20
-4.288155311365265
 10
110.3322362248147
 20
-4.307207418565248
 10
110.2298772680146
 20
-4.335017872965281
 10
110.1276835656147
 20
-4.371925020165249
 10
110.0273174664147
 20
-4.417906872965268
 10
109.9311312872147
 20
-4.472145165765248
 10
109.8401544664147
 20
-4.534026149765274
 10
109.7548657880146
 20
-4.603150242565249
 10
109.6755843240147
 20
-4.679265887365268
 10
109.6030785736147
 20
-4.761660296965274
 10
109.5377845848147
 20
-4.849835735365275
 10
109.4802403496147
 20
-4.943059490565268
 10
109.4307704424146
 20
-5.040804287365268
 10
109.3897832808147
 20
-5.14227047456525
 10
109.3575335128147
 20
-5.246825760965251
 10
109.3342719960147
 20
-5.353662845765249
 10
109.3201515848146
 20
-5.462073509765268
  0
LINE
  5
4C4
330
2
100
AcDbEntity
  8
0
  6
HIDDEN
 62
     8
 48
0.25
100
AcDbLine
 10
109.6506704296147
 20
-8.925188330565248
 30
0.0
 11
109.6232197784147
 21
-9.258110620165268
 31
0.0
  0
LINE
  5
4C5
330
2
100
AcDbEntity
  8
0
  6
HIDDEN
 62
     8
 48
0.25
100
AcDbLine
 10
109.7171147960147
 20
-6.567552696965258
 30
0.0
 11
109.6310898776147
 21
-6.643551807365248
 31
0.0
  0
LWPOLYLINE
  5
4C6
330
2
100
AcDbEntity
  8
0
  6
CONTINUOUS
 62
     7
100
AcDbPolyline
 90
       20
 70
     0
 43
0.0
 10
110.6277739144146
 20
-6.858413242565248
 10
110.5287325240146
 20
-6.854709728965268
 10
110.4277144952147
 20
-6.843234588165266
 10
110.3256456680147
 20
-6.823528551365249
 10
110.2232533496147
 20
-6.795175543365274
 10
110.1217121480147
 20
-6.757966277765248
 10
110.0222344328147
 20
-6.711887221765266
 10
109.9266371992147
 20
-6.657508804165274
 10
109.8358610408147
 20
-6.595281346565258
 10
109.7507639656146
 20
-6.525783367365249
 10
109.6717956520147
 20
-6.449381972165248
 10
109.5996552440146
 20
-6.366753749765265
 10
109.5347216920147
 20
-6.278332583365248
 10
109.4775651032147
 20
-6.184891856965258
 10
109.4285018760147
 20
-6.086950044165249
 10
109.3879481656147
 20
-5.985335146565248
 10
109.3561402376147
 20
-5.880642173765274
 10
109.3333373672146
 20
-5.773719221765269
 10
109.3196807992147
 20
-5.665235463365249
 10
109.3159036904147
 20
-5.574013167365251
  0
LWPOLYLINE
  5
4DC
330
2
100
AcDbEntity
  8
0
  6
CONTINUOUS
 62
     7
100
AcDbPolyline
 90
       20
 70
     0
 43
0.0
 10
109.3152739144147
 20
-5.574039242565248
 10
109.3196811592147
 20
-5.680475805765269
 10
109.3333365464147
 20
-5.788950373765274
 10
109.3561366856147
 20
-5.895864413765274
 10
109.3879403944147
 20
-6.00054899616525
 10
109.4284884392147
 20
-6.102156122565268
 10
109.4775446824147
 20
-6.20009107136525
 10
109.5346930104147
 20
-6.293525866565268
 10
109.5996172424147
 20
-6.381942352965275
 10
109.6717473560147
 20
-6.464567168965274
 10
109.7507045912147
 20
-6.540966608965248
 10
109.8357897816147
 20
-6.610464012165266
 10
109.9265537096147
 20
-6.67269261856525
 10
110.0221391928147
 20
-6.72707423456525
 10
110.1216089608147
 20
-6.773159626565274
 10
110.2231509912147
 20
-6.810378738565248
 10
110.3255549960147
 20
-6.83874333056525
 10
110.4276458088147
 20
-6.858460101765281
 10
110.5286945704147
 20
-6.869942876165268
 10
110.6277739144146
 20
-6.873649229765248
  0
LINE
  5
4F2
330
2
100
AcDbEntity
  8
0
  6
CENTER
 62
     1
100
AcDbLine
 10
113.2312589050019
 20
-5.574039215365274
 30
0.0
 11
108.0231433046274
 21
-5.574039215365274
 31
0.0
  0
LINE
  5
4F3
330
2
100
AcDbEntity
  8
0
  6
HIDDEN
 62
     8
 48
0.25
100
AcDbLine
 10
109.0344565288147
 20
-7.94688153696525
 30
0.0
 11
108.9829028616147
 21
-8.193455184965266
 31
0.0
  0
LINE
  5
4F4
330
2
100
AcDbEntity
  8
0
  6
HIDDEN
 62
     8
 48
0.25
100
AcDbLine
 10
109.0866008408147
 20
-7.726348632965247
 30
0.0
 11
109.0344565288147
 21
-7.94688153696525
 31
0.0
  0
LINE
  5
4F5
330
2
100
AcDbEntity
  8
0
  6
HIDDEN
 62
     8
 48
0.25
100
AcDbLine
 10
109.1404423640146
 20
-7.525646220165249
 30
0.0
 11
109.0866008408147
 21
-7.726348632965247
 31
0.0
  0
LINE
  5
4F6
330
2
100
AcDbEntity
  8
0
  6
HIDDEN
 62
     8
 48
0.25
100
AcDbLine
 10
109.4702973896147
 20
-6.824926671365268
 30
0.0
 11
109.3966353496147
 21
-6.931304479365266
 31
0.0
  0
LINE
  5
4F7
330
2
100
AcDbEntity
  8
0
  6
HIDDEN
 62
     8
 48
0.25
100
AcDbLine
 10
109.5487715176147
 20
-6.729022023365274
 30
0.0
 11
109.4702973896147
 21
-6.824926671365268
 31
0.0
  0
LINE
  5
4F8
330
2
100
AcDbEntity
  8
0
  6
HIDDEN
 62
     8
 48
0.25
100
AcDbLine
 10
109.6310898776147
 20
-6.643551807365248
 30
0.0
 11
109.5487715176147
 21
-6.729022023365274
 31
0.0
  0
LINE
  5
4F9
330
2
100
AcDbEntity
  8
0
  6
CONTINUOUS
 62
     7
100
AcDbLine
 10
109.3201515848146
 20
-5.462073509765268
 30
0.0
 11
109.3152739144147
 21
-5.574039242565248
 31
0.0
  0
LINE
  5
4FA
330
2
100
AcDbEntity
  8
0
  6
HIDDEN
 62
     8
 48
0.25
100
AcDbLine
 10
111.3558622088147
 20
-6.441459098565275
 30
0.0
 11
111.4489106312147
 21
-6.500388052165249
 31
0.0
  0
LINE
  5
4FB
330
2
100
AcDbEntity
  8
0
  6
HIDDEN
 62
     8
 48
0.25
100
AcDbLine
 10
109.8996856216147
 20
-6.441459098565275
 30
0.0
 11
109.8066371976146
 21
-6.500388052165249
 31
0.0
  0
LWPOLYLINE
  5
4FC
330
2
100
AcDbEntity
  8
0
  6
CONTINUOUS
 62
     7
100
AcDbPolyline
 90
       20
 70
     0
 43
0.0
 10
110.6277739144146
 20
-6.873649229765248
 10
110.7268956600147
 20
-6.869939698565268
 10
110.8279410584147
 20
-6.85845414016525
 10
110.9300129832146
 20
-6.838738612165251
 10
111.0323925800146
 20
-6.810380104965268
 10
111.1339203560147
 20
-6.773167285765268
 10
111.2333702360147
 20
-6.727094004165266
 10
111.3289489320147
 20
-6.672720890565265
 10
111.4197162136147
 20
-6.610495351365266
 10
111.5048092600147
 20
-6.540996824965247
 10
111.5837661784147
 20
-6.464603268165248
 10
111.6558984408147
 20
-6.381982466565268
 10
111.7208244888147
 20
-6.293571050565248
 10
111.7779769304147
 20
-6.20013830656525
 10
111.8270361080146
 20
-6.102207973765274
 10
111.8675884472147
 20
-6.000603128965273
 10
111.8993961560146
 20
-5.895922492165269
 10
111.9222011912147
 20
-5.789009991365269
 10
111.9358614600147
 20
-5.680538599365249
 10
111.9402739144147
 20
-5.574039215365274
  0
LWPOLYLINE
  5
512
330
2
100
AcDbEntity
  8
0
  6
CONTINUOUS
 62
     7
100
AcDbPolyline
 90
       20
 70
     0
 43
0.0
 10
111.9396437672147
 20
-5.574013108165274
 10
111.9358618184147
 20
-5.665298274565266
 10
111.9222003656147
 20
-5.77377885376525
 10
111.8993925976147
 20
-5.880700274565249
 10
111.8675806680146
 20
-5.985389298565266
 10
111.8270226568147
 20
-6.087001920965249
 10
111.7779564936147
 20
-6.184939116165274
 10
111.7207957832147
 20
-6.278377797765266
 10
111.6558604120147
 20
-6.366793893765247
 10
111.5837178536147
 20
-6.449418096965274
 10
111.5047498584147
 20
-6.52581360416525
 10
111.4196448888147
 20
-6.595312728965268
 10
111.3288653480146
 20
-6.657537128965266
 10
111.2332749448147
 20
-6.711907013765248
 10
111.1338172024147
 20
-6.757973922565248
 10
111.0322903144147
 20
-6.79517687936525
 10
110.9299224872147
 20
-6.823523792965268
 10
110.8278726312147
 20
-6.843228589765274
 10
110.7268579576147
 20
-6.854706533765273
 10
110.6277739144146
 20
-6.858413242565248
  0
LINE
  5
528
330
2
100
AcDbEntity
  8
0
  6
HIDDEN
 62
     8
 48
0.25
100
AcDbLine
 10
111.7852504408147
 20
-6.824926671365268
 30
0.0
 11
111.8589124808147
 21
-6.931304479365266
 31
0.0
  0
LINE
  5
529
330
2
100
AcDbEntity
  8
0
  6
HIDDEN
 62
     8
 48
0.25
100
AcDbLine
 10
110.3317243016147
 20
-6.931419901765281
 30
0.0
 11
110.2779286920147
 21
-6.957901890565267
 31
0.0
  0
LINE
  5
52A
330
2
100
AcDbEntity
  8
0
  6
HIDDEN
 62
     8
 48
0.25
100
AcDbLine
 10
110.3876658552147
 20
-6.909717527365273
 30
0.0
 11
110.3317243016147
 21
-6.931419901765281
 31
0.0
  0
LINE
  5
52B
330
2
100
AcDbEntity
  8
0
  6
HIDDEN
 62
     8
 48
0.25
100
AcDbLine
 10
110.4455239944147
 20
-6.892795573765248
 30
0.0
 11
110.3876658552147
 21
-6.909717527365273
 31
0.0
  0
LINE
  5
52C
330
2
100
AcDbEntity
  8
0
  6
HIDDEN
 62
     8
 48
0.25
100
AcDbLine
 10
110.5050219608147
 20
-6.880678432965268
 30
0.0
 11
110.4455239944147
 21
-6.892795573765248
 31
0.0
  0
LINE
  5
52D
330
2
100
AcDbEntity
  8
0
  6
HIDDEN
 62
     8
 48
0.25
100
AcDbLine
 10
110.5658692920147
 20
-6.873392623365248
 30
0.0
 11
110.5050219608147
 21
-6.880678432965268
 31
0.0
  0
LINE
  5
52E
330
2
100
AcDbEntity
  8
0
  6
HIDDEN
 62
     8
 48
0.25
100
AcDbLine
 10
110.6277739144146
 20
-6.870960580165274
 30
0.0
 11
110.5658692920147
 21
-6.873392623365248
 31
0.0
  0
LINE
  5
52F
330
2
100
AcDbEntity
  8
0
  6
HIDDEN
 62
     8
 48
0.25
100
AcDbLine
 10
111.6048773992147
 20
-8.925188330565248
 30
0.0
 11
111.6323280520147
 21
-9.258110620165268
 31
0.0
  0
LINE
  5
530
330
2
100
AcDbEntity
  8
0
  6
HIDDEN
 62
     8
 48
0.25
100
AcDbLine
 10
111.5764264008147
 20
-8.629483056965248
 30
0.0
 11
111.6048773992147
 21
-8.925188330565248
 31
0.0
  0
LINE
  5
531
330
2
100
AcDbEntity
  8
0
  6
HIDDEN
 62
     8
 48
0.25
100
AcDbLine
 10
111.5459986712147
 20
-8.365789992965268
 30
0.0
 11
111.5764264008147
 21
-8.629483056965248
 31
0.0
  0
LINE
  5
532
330
2
100
AcDbEntity
  8
0
  6
HIDDEN
 62
     8
 48
0.25
100
AcDbLine
 10
111.5133226440147
 20
-8.132111189765268
 30
0.0
 11
111.5459986712147
 21
-8.365789992965268
 31
0.0
  0
LINE
  5
533
330
2
100
AcDbEntity
  8
0
  6
HIDDEN
 62
     8
 48
0.25
100
AcDbLine
 10
111.2909945464146
 20
-7.301546205765248
 30
0.0
 11
111.3279170760147
 21
-7.382673700165248
 31
0.0
  0
LINE
  5
534
330
2
100
AcDbEntity
  8
0
  6
HIDDEN
 62
     8
 48
0.25
100
AcDbLine
 10
111.2526761656147
 20
-7.231246082565249
 30
0.0
 11
111.2909945464146
 21
-7.301546205765248
 31
0.0
  0
LINE
  5
535
330
2
100
AcDbEntity
  8
0
  6
HIDDEN
 62
     8
 48
0.25
100
AcDbLine
 10
111.2122218472147
 20
-7.169287938565268
 30
0.0
 11
111.2526761656147
 21
-7.231246082565249
 31
0.0
  0
LINE
  5
536
330
2
100
AcDbEntity
  8
0
  6
HIDDEN
 62
     8
 48
0.25
100
AcDbLine
 10
111.1697784776147
 20
-7.115008524165268
 30
0.0
 11
111.2122218472147
 21
-7.169287938565268
 31
0.0
  0
LINE
  5
537
330
2
100
AcDbEntity
  8
0
  6
HIDDEN
 62
     8
 48
0.25
100
AcDbLine
 10
111.1251691256146
 20
-7.067354648965249
 30
0.0
 11
111.1697784776147
 21
-7.115008524165268
 31
0.0
  0
LINE
  5
538
330
2
100
AcDbEntity
  8
0
  6
HIDDEN
 62
     8
 48
0.25
100
AcDbLine
 10
111.0783354744147
 20
-7.025627295365268
 30
0.0
 11
111.1251691256146
 21
-7.067354648965249
 31
0.0
  0
LINE
  5
539
330
2
100
AcDbEntity
  8
0
  6
HIDDEN
 62
     8
 48
0.25
100
AcDbLine
 10
111.0291538872146
 20
-6.989250034565266
 30
0.0
 11
111.0783354744147
 21
-7.025627295365268
 31
0.0
  0
LINE
  5
53A
330
2
100
AcDbEntity
  8
0
  6
HIDDEN
 62
     8
 48
0.25
100
AcDbLine
 10
110.9776191384147
 20
-6.957901890565267
 30
0.0
 11
111.0291538872146
 21
-6.989250034565266
 31
0.0
  0
LINE
  5
53B
330
2
100
AcDbEntity
  8
0
  6
HIDDEN
 62
     8
 48
0.25
100
AcDbLine
 10
110.9238235272147
 20
-6.931419901765281
 30
0.0
 11
110.9776191384147
 21
-6.957901890565267
 31
0.0
  0
LINE
  5
53C
330
2
100
AcDbEntity
  8
0
  6
HIDDEN
 62
     8
 48
0.25
100
AcDbLine
 10
110.8678819752147
 20
-6.909717527365273
 30
0.0
 11
110.9238235272147
 21
-6.931419901765281
 31
0.0
  0
LINE
  5
53D
330
2
100
AcDbEntity
  8
0
  6
HIDDEN
 62
     8
 48
0.25
100
AcDbLine
 10
110.8100238344147
 20
-6.892795573765248
 30
0.0
 11
110.8678819752147
 21
-6.909717527365273
 31
0.0
  0
LINE
  5
53E
330
2
100
AcDbEntity
  8
0
  6
HIDDEN
 62
     8
 48
0.25
100
AcDbLine
 10
110.7505258696147
 20
-6.880678432965268
 30
0.0
 11
110.8100238344147
 21
-6.892795573765248
 31
0.0
  0
LINE
  5
53F
330
2
100
AcDbEntity
  8
0
  6
HIDDEN
 62
     8
 48
0.25
100
AcDbLine
 10
110.6896785368147
 20
-6.873392623365248
 30
0.0
 11
110.7505258696147
 21
-6.880678432965268
 31
0.0
  0
LINE
  5
540
330
2
100
AcDbEntity
  8
0
  6
HIDDEN
 62
     8
 48
0.25
100
AcDbLine
 10
110.6277739144146
 20
-6.870960580165274
 30
0.0
 11
110.6896785368147
 21
-6.873392623365248
 31
0.0
  0
LINE
  5
541
330
2
100
AcDbEntity
  8
0
  6
HIDDEN
 62
     8
 48
0.25
100
AcDbLine
 10
111.7067763112147
 20
-6.729022023365274
 30
0.0
 11
111.7852504408147
 21
-6.824926671365268
 31
0.0
  0
LINE
  5
542
330
2
100
AcDbEntity
  8
0
  6
HIDDEN
 62
     8
 48
0.25
100
AcDbLine
 10
111.6244579528147
 20
-6.643551807365248
 30
0.0
 11
111.7067763112147
 21
-6.729022023365274
 31
0.0
  0
LINE
  5
543
330
2
100
AcDbEntity
  8
0
  6
HIDDEN
 62
     8
 48
0.25
100
AcDbLine
 10
111.5384330344147
 20
-6.567552696965258
 30
0.0
 11
111.6244579528147
 21
-6.643551807365248
 31
0.0
  0
LINE
  5
544
330
2
100
AcDbEntity
  8
0
  6
HIDDEN
 62
     8
 48
0.25
100
AcDbLine
 10
111.4489106312147
 20
-6.500388052165249
 30
0.0
 11
111.5384330344147
 21
-6.567552696965258
 31
0.0
  0
LINE
  5
545
330
2
100
AcDbEntity
  8
0
  6
HIDDEN
 62
     8
 48
0.25
100
AcDbLine
 10
109.7422251848147
 20
-8.132111189765268
 30
0.0
 11
109.7095491576147
 21
-8.365789992965268
 31
0.0
  0
LINE
  5
546
330
2
100
AcDbEntity
  8
0
  6
HIDDEN
 62
     8
 48
0.25
100
AcDbLine
 10
109.8154294840147
 20
-7.744034706565265
 30
0.0
 11
109.7776828360147
 21
-7.922804959365265
 31
0.0
  0
LINE
  5
547
330
2
100
AcDbEntity
  8
0
  6
HIDDEN
 62
     8
 48
0.25
100
AcDbLine
 10
109.9645532824147
 20
-7.301546205765248
 30
0.0
 11
109.9276307544147
 21
-7.382673700165248
 31
0.0
  0
LINE
  5
548
330
2
100
AcDbEntity
  8
0
  6
HIDDEN
 62
     8
 48
0.25
100
AcDbLine
 10
110.0028716648147
 20
-7.231246082565249
 30
0.0
 11
109.9645532824147
 21
-7.301546205765248
 31
0.0
  0
LINE
  5
549
330
2
100
AcDbEntity
  8
0
  6
HIDDEN
 62
     8
 48
0.25
100
AcDbLine
 10
110.0433259816147
 20
-7.169287938565268
 30
0.0
 11
110.0028716648147
 21
-7.231246082565249
 31
0.0
  0
LINE
  5
54A
330
2
100
AcDbEntity
  8
0
  6
HIDDEN
 62
     8
 48
0.25
100
AcDbLine
 10
110.0857693528147
 20
-7.115008524165268
 30
0.0
 11
110.0433259816147
 21
-7.169287938565268
 31
0.0
  0
LINE
  5
54B
330
2
100
AcDbEntity
  8
0
  6
HIDDEN
 62
     8
 48
0.25
100
AcDbLine
 10
110.1303787032147
 20
-7.067354648965249
 30
0.0
 11
110.0857693528147
 21
-7.115008524165268
 31
0.0
  0
LINE
  5
54C
330
2
100
AcDbEntity
  8
0
  6
HIDDEN
 62
     8
 48
0.25
100
AcDbLine
 10
110.1772123560147
 20
-7.025627295365268
 30
0.0
 11
110.1303787032147
 21
-7.067354648965249
 31
0.0
  0
LINE
  5
54D
330
2
100
AcDbEntity
  8
0
  6
HIDDEN
 62
     8
 48
0.25
100
AcDbLine
 10
110.2263939432147
 20
-6.989250034565266
 30
0.0
 11
110.1772123560147
 21
-7.025627295365268
 31
0.0
  0
LINE
  5
54E
330
2
100
AcDbEntity
  8
0
  6
HIDDEN
 62
     8
 48
0.25
100
AcDbLine
 10
110.2779286920147
 20
-6.957901890565267
 30
0.0
 11
110.2263939432147
 21
-6.989250034565266
 31
0.0
  0
LINE
  5
54F
330
2
100
AcDbEntity
  8
0
  6
HIDDEN
 62
     8
 48
0.25
100
AcDbLine
 10
109.8066371976146
 20
-6.500388052165249
 30
0.0
 11
109.7171147960147
 21
-6.567552696965258
 31
0.0
  0
LINE
  5
550
330
2
100
AcDbEntity
  8
0
  6
HIDDEN
 62
     8
 48
0.25
100
AcDbLine
 10
109.6791214296147
 20
-8.629483056965248
 30
0.0
 11
109.6506704296147
 21
-8.925188330565248
 31
0.0
  0
LINE
  5
551
330
2
100
AcDbEntity
  8
0
  6
HIDDEN
 62
     8
 48
0.25
100
AcDbLine
 10
109.7095491576147
 20
-8.365789992965268
 30
0.0
 11
109.6791214296147
 21
-8.629483056965248
 31
0.0
  0
LINE
  5
552
330
2
100
AcDbEntity
  8
0
  6
HIDDEN
 62
     8
 48
0.25
100
AcDbLine
 10
112.3227764408147
 20
-8.47124745056525
 30
0.0
 11
112.3701198376147
 21
-8.781052149765265
 31
0.0
  0
LINE
  5
553
330
2
100
AcDbEntity
  8
0
  6
HIDDEN
 62
     8
 48
0.25
100
AcDbLine
 10
112.2726449688147
 20
-8.193455184965266
 30
0.0
 11
112.3227764408147
 21
-8.47124745056525
 31
0.0
  0
LINE
  5
554
330
2
100
AcDbEntity
  8
0
  6
HIDDEN
 62
     8
 48
0.25
100
AcDbLine
 10
112.2210913016147
 20
-7.94688153696525
 30
0.0
 11
112.2726449688147
 21
-8.193455184965266
 31
0.0
  0
LINE
  5
555
330
2
100
AcDbEntity
  8
0
  6
HIDDEN
 62
     8
 48
0.25
100
AcDbLine
 10
112.1689469896147
 20
-7.726348632965247
 30
0.0
 11
112.2210913016147
 21
-7.94688153696525
 31
0.0
  0
LINE
  5
556
330
2
100
AcDbEntity
  8
0
  6
HIDDEN
 62
     8
 48
0.25
100
AcDbLine
 10
111.8589124808147
 20
-6.931304479365266
 30
0.0
 11
111.9282623288147
 21
-7.050457224965249
 31
0.0
  0
LWPOLYLINE
  5
557
330
2
100
AcDbEntity
  8
0
  6
CONTINUOUS
 62
     7
100
AcDbPolyline
 90
       20
 70
     0
 43
0.0
 10
111.9402739144147
 20
-5.574039215365274
 10
111.9354019992147
 20
-5.462139452165281
 10
111.9212872568147
 20
-5.353728623365249
 10
111.8980320056147
 20
-5.246893132165268
 10
111.8657880088147
 20
-5.142336469765268
 10
111.8248075032147
 20
-5.04087062016525
 10
111.7753433608147
 20
-4.943123520965251
 10
111.7178067160147
 20
-4.849899940165251
 10
111.6525173992147
 20
-4.761719890565267
 10
111.5800168424147
 20
-4.679321591365265
 10
111.5007412136147
 20
-4.603202460165249
 10
111.4154696088146
 20
-4.534082828165274
 10
111.3244922856147
 20
-4.47219217376525
 10
111.2282738440147
 20
-4.417929042565248
 10
111.1278555176147
 20
-4.371921447365274
 10
111.0256221560147
 20
-4.335002612165268
 10
110.9232178968147
 20
-4.307185957765248
 10
110.8221015736147
 20
-4.288137559365274
 10
110.7232325032146
 20
-4.277244914565265
 10
110.6277739144146
 20
-4.273799580165267
  0
LINE
  5
56D
330
2
100
AcDbEntity
  8
0
  6
HIDDEN
 62
     8
 48
0.25
100
AcDbLine
 10
110.3032247992147
 20
-6.284302496965274
 30
0.0
 11
110.1982546184147
 21
-6.311895368965274
 31
0.0
  0
LINE
  5
56E
330
2
100
AcDbEntity
  8
0
  6
HIDDEN
 62
     8
 48
0.25
100
AcDbLine
 10
111.2594092760147
 20
-6.390469082565275
 30
0.0
 11
111.3558622088147
 21
-6.441459098565275
 31
0.0
  0
LINE
  5
56F
330
2
100
AcDbEntity
  8
0
  6
HIDDEN
 62
     8
 48
0.25
100
AcDbLine
 10
111.1598017272147
 20
-6.347299032965274
 30
0.0
 11
111.2594092760147
 21
-6.390469082565275
 31
0.0
  0
LINE
  5
570
330
2
100
AcDbEntity
  8
0
  6
HIDDEN
 62
     8
 48
0.25
100
AcDbLine
 10
111.0572932104147
 20
-6.311895368965274
 30
0.0
 11
111.1598017272147
 21
-6.347299032965274
 31
0.0
  0
LINE
  5
571
330
2
100
AcDbEntity
  8
0
  6
HIDDEN
 62
     8
 48
0.25
100
AcDbLine
 10
110.9523230296147
 20
-6.284302496965274
 30
0.0
 11
111.0572932104147
 21
-6.311895368965274
 31
0.0
  0
LINE
  5
572
330
2
100
AcDbEntity
  8
0
  6
HIDDEN
 62
     8
 48
0.25
100
AcDbLine
 10
110.8453998600147
 20
-6.264570901765281
 30
0.0
 11
110.9523230296147
 21
-6.284302496965274
 31
0.0
  0
LINE
  5
573
330
2
100
AcDbEntity
  8
0
  6
HIDDEN
 62
     8
 48
0.25
100
AcDbLine
 10
110.7370441992147
 20
-6.252729492165251
 30
0.0
 11
110.8453998600147
 21
-6.264570901765281
 31
0.0
  0
LINE
  5
574
330
2
100
AcDbEntity
  8
0
  6
HIDDEN
 62
     8
 48
0.25
100
AcDbLine
 10
110.6277739144146
 20
-6.248882464965248
 30
0.0
 11
110.7370441992147
 21
-6.252729492165251
 31
0.0
  0
LINE
  5
575
330
2
100
AcDbEntity
  8
0
  6
HIDDEN
 62
     8
 48
0.25
100
AcDbLine
 10
110.4101479688147
 20
-6.264570901765281
 30
0.0
 11
110.3032247992147
 21
-6.284302496965274
 31
0.0
  0
LINE
  5
576
330
2
100
AcDbEntity
  8
0
  6
HIDDEN
 62
     8
 48
0.25
100
AcDbLine
 10
110.5185036296147
 20
-6.252729492165251
 30
0.0
 11
110.4101479688147
 21
-6.264570901765281
 31
0.0
  0
LINE
  5
577
330
2
100
AcDbEntity
  8
0
  6
HIDDEN
 62
     8
 48
0.25
100
AcDbLine
 10
110.6277739144146
 20
-6.248882464965248
 30
0.0
 11
110.5185036296147
 21
-6.252729492165251
 31
0.0
  0
LINE
  5
578
330
2
100
AcDbEntity
  8
0
  6
HIDDEN
 62
     8
 48
0.25
100
AcDbLine
 10
109.9961385544147
 20
-6.390469082565275
 30
0.0
 11
109.8996856216147
 21
-6.441459098565275
 31
0.0
  0
LINE
  5
579
330
2
100
AcDbEntity
  8
0
  6
HIDDEN
 62
     8
 48
0.25
100
AcDbLine
 10
110.0957461016147
 20
-6.347299032965274
 30
0.0
 11
109.9961385544147
 21
-6.390469082565275
 31
0.0
  0
LINE
  5
57A
330
2
100
AcDbEntity
  8
0
  6
HIDDEN
 62
     8
 48
0.25
100
AcDbLine
 10
110.1982546184147
 20
-6.311895368965274
 30
0.0
 11
110.0957461016147
 21
-6.347299032965274
 31
0.0
  0
LWPOLYLINE
  5
57C
330
2
100
AcDbEntity
  8
0
  6
CONTINUOUS
 62
     7
100
AcDbPolyline
 90
       15
 70
     0
 43
0.0
 10
120.6478507192147
 20
-8.004710941765281
 10
120.6113045032146
 20
-7.986900213765274
 10
120.5558806104147
 20
-7.967804050565248
 10
120.4829584120147
 20
-7.949140271365266
 10
120.3914750552147
 20
-7.930624684165266
 10
120.2792336584147
 20
-7.911884378565268
 10
120.1472566440147
 20
-7.893099578565248
 10
119.9989246696147
 20
-7.87467228736525
 10
119.8390473112147
 20
-7.857091464965243
 10
119.6739470632147
 20
-7.840863549765273
 10
119.5078245912147
 20
-7.826068624965266
 10
119.3381181528147
 20
-7.812164866565268
 10
119.1560018008146
 20
-7.798315956165268
 10
118.9475917448147
 20
-7.783582810565249
 10
118.7003405448147
 20
-7.767463322565248
  0
LWPOLYLINE
  5
58D
330
2
100
AcDbEntity
  8
0
  6
CONTINUOUS
 62
     7
100
AcDbPolyline
 90
        9
 70
     0
 43
0.0
 10
120.0654143736147
 20
-7.398235541765281
 10
120.2633972120146
 20
-7.413645636165249
 10
120.4251222216146
 20
-7.435753484165275
 10
120.5686147544147
 20
-7.447169719365248
 10
120.7015657112147
 20
-7.463397352965266
 10
120.8272240168147
 20
-7.479390524165275
 10
120.9462170504147
 20
-7.495142788165274
 10
121.0582312424147
 20
-7.51334532416525
 10
121.1633962616147
 20
-7.530480655365273
  0
LWPOLYLINE
  5
5A2
330
2
100
AcDbEntity
  8
0
  6
CONTINUOUS
 62
     7
100
AcDbPolyline
 90
        7
 70
     0
 43
0.0
 10
118.7979860232147
 20
-7.345601634565248
 10
119.0022483512147
 20
-7.351846042565249
 10
119.2015951864146
 20
-7.358302818565249
 10
119.4000221768147
 20
-7.365158991365248
 10
119.6048936120147
 20
-7.373037829765266
 10
119.8305123496147
 20
-7.38362806176525
 10
120.0654143736147
 20
-7.398235541765281
  0
LWPOLYLINE
  5
5C0
330
2
100
AcDbEntity
  8
0
  6
CONTINUOUS
 62
     7
100
AcDbPolyline
 90
        5
 70
     0
 43
0.0
 10
121.3834926216147
 20
-7.58704280416525
 10
121.3633659720147
 20
-7.572816476165257
 10
121.3203712376147
 20
-7.55864458976525
 10
121.2538110536147
 20
-7.544521488965266
 10
121.1633962616147
 20
-7.530480655365273
  0
LWPOLYLINE
  5
5CA
330
2
100
AcDbEntity
  8
0
  6
CONTINUOUS
 62
     7
100
AcDbPolyline
 90
        7
 70
     0
 43
0.0
 10
120.6478507192147
 20
-8.004710941765281
 10
120.6789167672147
 20
-8.026568876165249
 10
120.6954400488146
 20
-8.047898512965268
 10
120.7035541192146
 20
-8.069659735365249
 10
120.7063989608147
 20
-8.092418285765248
 10
120.7059114696147
 20
-8.116543021765281
 10
120.7045142856147
 20
-8.132702936965266
  0
LINE
  5
5F0
330
2
100
AcDbEntity
  8
0
  6
HIDDEN
 62
     8
100
AcDbLine
 10
120.4695124440147
 20
-8.957020242565249
 30
0.0
 11
120.4693074392147
 21
-8.95919017216525
 31
0.0
  0
LWPOLYLINE
  5
5F1
330
2
100
AcDbEntity
  8
0
  6
CONTINUOUS
 62
     7
100
AcDbPolyline
 90
        5
 70
     0
 43
0.0
 10
120.7045142856147
 20
-8.132702936965266
 10
120.6873510936147
 20
-8.299930656965265
 10
120.6575037704147
 20
-8.589913685765274
 10
120.6280124200146
 20
-8.875675885765268
 10
120.5989138392147
 20
-9.157187168965251
  0
LINE
  5
5F8
330
2
100
AcDbEntity
  8
0
  6
HIDDEN
 62
     8
100
AcDbLine
 10
120.7045142856147
 20
-8.132702936965266
 30
0.0
 11
120.7037134680147
 21
-8.140101444165274
 31
0.0
  0
LINE
  5
6E9
330
2
100
AcDbEntity
  8
0
100
AcDbLine
 10
126.3814267128147
 20
-2.214738416965261
 30
0.0
 11
126.5017236263436
 21
-3.589738416965268
 31
0.0
  0
LINE
  5
6EA
330
2
100
AcDbEntity
  8
0
  6
CONTINUOUS
 62
     7
100
AcDbLine
 10
126.4955935736146
 20
-2.08545745216525
 30
0.0
 11
126.6272011048147
 21
-3.589738416965268
 31
0.0
  0
LINE
  5
6EB
330
2
100
AcDbEntity
  8
0
  6
HIDDEN
 62
     8
 48
0.3
100
AcDbLine
 10
122.6013129292599
 20
-3.589738416965268
 30
0.0
 11
122.6817944595609
 21
-2.78452996854655
 31
0.0
  0
LINE
  5
6EC
330
2
100
AcDbEntity
  8
0
  6
CONTINUOUS
 62
     7
100
AcDbLine
 10
126.5017236248146
 20
-3.589738416965268
 30
0.0
 11
126.6272011048147
 21
-3.589738416965268
 31
0.0
  0
LINE
  5
6EE
330
2
100
AcDbEntity
  8
0
  6
HIDDEN
 62
     8
 48
0.3
100
AcDbLine
 10
123.160723099834
 20
-2.334603572300885
 30
0.0
 11
126.3814267128147
 21
-2.214738416965261
 31
0.0
  0
ARC
  5
6EF
330
2
100
AcDbEntity
  8
0
  6
HIDDEN
 62
     8
 48
0.3
100
AcDbCircle
 10
123.1793154591945
 20
-2.834257776899832
 30
0.0
 40
0.5
100
AcDbArc
 50
92.1310187320744
 51
174.2921766614272
  0
LINE
  5
6F0
330
2
100
AcDbEntity
  8
0
  6
CONTINUOUS
 62
     7
100
AcDbLine
 10
125.2678715107388
 20
-0.9647384169652681
 30
0.0
 11
126.4955935736146
 21
-2.08545745216525
 31
0.0
  0
LINE
  5
6F1
330
2
100
AcDbEntity
  8
0
  6
CENTER
 62
     1
100
AcDbLine
 10
110.6272011048146
 20
-25.98442292182797
 30
0.0
 11
110.6272011048146
 21
-20.19505391210256
 31
0.0
  0
ENDSEC
  0
SECTION
  2
OBJECTS
  0
DICTIONARY
  5
1A
330
0
100
AcDbDictionary
  3
ACAD_GROUP
350
18
  3
ACAD_LAYOUT
350
6F5
  3
ACAD_MLINESTYLE
350
19
  3
ACAD_PLOTSETTINGS
350
6F6
  3
ACAD_PLOTSTYLENAME
350
6F3
  3
ACDBHEADERROUNDTRIPXREC
350
765
  3
ACDBVARIABLEDICTIONARY
350
762
  0
DICTIONARY
  5
71F
330
2
100
AcDbDictionary
280
     1
  3
ACAD_LAYOUTSELFREF
360
786
  0
DICTIONARY
  5
721
330
7
100
AcDbDictionary
280
     1
  3
ACAD_LAYOUTSELFREF
360
787
  0
DICTIONARY
  5
18
102
{ACAD_REACTORS
330
1A
102
}
330
1A
100
AcDbDictionary
  0
DICTIONARY
  5
6F5
102
{ACAD_REACTORS
330
1A
102
}
330
1A
100
AcDbDictionary
  0
DICTIONARY
  5
19
102
{ACAD_REACTORS
330
1A
102
}
330
1A
100
AcDbDictionary
  3
STANDARD
350
1B
  0
DICTIONARY
  5
6F6
102
{ACAD_REACTORS
330
1A
102
}
330
1A
100
AcDbDictionary
  0
ACDBDICTIONARYWDFLT
  5
6F3
102
{ACAD_REACTORS
330
1A
102
}
330
1A
100
AcDbDictionary
281
     1
  3
Normal
350
6F4
100
AcDbDictionaryWithDefault
340
6F4
  0
DICTIONARY
  5
765
102
{ACAD_REACTORS
330
1A
102
}
330
1A
100
AcDbDictionary
  3
CEPSNTYPE
350
76F
  3
DIMSTYLEDATA
350
773
  3
FINGERPRINTGUID
350
770
  3
HYPERLINKBASE
350
768
  3
INSUNITS
350
76E
  3
LAYOUTDICT
350
76A
  3
LWETCUNION
350
76D
  3
PLOTSETDICT
350
76B
  3
PLOTSTYLNAMDICT
350
76C
  3
PSVPSCALE
350
772
  3
PUCSBASE
350
776
  3
PUCSORGBACK
350
77C
  3
PUCSORGBOTTOM
350
778
  3
PUCSORGFRONT
350
77B
  3
PUCSORGLEFT
350
779
  3
PUCSORGRIGHT
350
77A
  3
PUCSORGTOP
350
777
  3
PUCSORTHOREF
350
774
  3
PUCSORTHOVIEW
350
775
  3
STYLESHEET
350
769
  3
TSTACKALIGN
350
766
  3
TSTACKSIZE
350
767
  3
UCSBASE
350
77F
  3
UCSORGBACK
350
785
  3
UCSORGBOTTOM
350
781
  3
UCSORGFRONT
350
784
  3
UCSORGLEFT
350
782
  3
UCSORGRIGHT
350
783
  3
UCSORGTOP
350
780
  3
UCSORTHOREF
350
77D
  3
UCSORTHOVIEW
350
77E
  3
VERSIONGUID
350
771
  0
DICTIONARY
  5
762
102
{ACAD_REACTORS
330
1A
102
}
330
1A
100
AcDbDictionary
  3
DIMASSOC
350
763
  0
XRECORD
  5
786
102
{ACAD_REACTORS
330
71F
102
}
330
71F
100
AcDbXrecord
340
2
  0
XRECORD
  5
787
102
{ACAD_REACTORS
330
721
102
}
330
721
100
AcDbXrecord
340
7
  0
MLINESTYLE
  5
1B
102
{ACAD_REACTORS
330
19
102
}
330
19
100
AcDbMlineStyle
  2
STANDARD
 70
     0
  3

 62
   256
 51
90.0
 52
90.0
 71
     2
 49
0.5
 62
   256
  6
BYLAYER
 49
-0.5
 62
   256
  6
BYLAYER
  0
ACDBPLACEHOLDER
  5
6F4
102
{ACAD_REACTORS
330
6F3
102
}
330
6F3
100
AcDbPlaceHolder
280
     0
  0
XRECORD
  5
76F
102
{ACAD_REACTORS
330
765
102
}
330
765
100
AcDbXrecord
 90
        0
  0
XRECORD
  5
773
102
{ACAD_REACTORS
330
765
102
}
330
765
100
AcDbXrecord
1000
DSTYLE
1002
{
1070
   341
340
1D
1070
   342
340
1D
1002
}
  0
XRECORD
  5
770
102
{ACAD_REACTORS
330
765
102
}
330
765
100
AcDbXrecord
  1
{CEC4D41F-FEB7-49E7-A8F4-F0BFD4EB3E94}
  0
XRECORD
  5
768
102
{ACAD_REACTORS
330
765
102
}
330
765
100
AcDbXrecord
  1

  0
XRECORD
  5
76E
102
{ACAD_REACTORS
330
765
102
}
330
765
100
AcDbXrecord
 90
        0
  0
XRECORD
  5
76A
102
{ACAD_REACTORS
330
765
102
}
330
765
100
AcDbXrecord
340
6F5
  0
XRECORD
  5
76D
102
{ACAD_REACTORS
330
765
102
}
330
765
100
AcDbXrecord
 90
    14877
  0
XRECORD
  5
76B
102
{ACAD_REACTORS
330
765
102
}
330
765
100
AcDbXrecord
340
6F6
  0
XRECORD
  5
76C
102
{ACAD_REACTORS
330
765
102
}
330
765
100
AcDbXrecord
340
6F3
  0
XRECORD
  5
772
102
{ACAD_REACTORS
330
765
102
}
330
765
100
AcDbXrecord
 40
0.0
  0
XRECORD
  5
776
102
{ACAD_REACTORS
330
765
102
}
330
765
100
AcDbXrecord
340
0
  0
XRECORD
  5
77C
102
{ACAD_REACTORS
330
765
102
}
330
765
100
AcDbXrecord
 10
0.0
 20
0.0
 30
0.0
  0
XRECORD
  5
778
102
{ACAD_REACTORS
330
765
102
}
330
765
100
AcDbXrecord
 10
0.0
 20
0.0
 30
0.0
  0
XRECORD
  5
77B
102
{ACAD_REACTORS
330
765
102
}
330
765
100
AcDbXrecord
 10
0.0
 20
0.0
 30
0.0
  0
XRECORD
  5
779
102
{ACAD_REACTORS
330
765
102
}
330
765
100
AcDbXrecord
 10
0.0
 20
0.0
 30
0.0
  0
XRECORD
  5
77A
102
{ACAD_REACTORS
330
765
102
}
330
765
100
AcDbXrecord
 10
0.0
 20
0.0
 30
0.0
  0
XRECORD
  5
777
102
{ACAD_REACTORS
330
765
102
}
330
765
100
AcDbXrecord
 10
0.0
 20
0.0
 30
0.0
  0
XRECORD
  5
774
102
{ACAD_REACTORS
330
765
102
}
330
765
100
AcDbXrecord
340
0
  0
XRECORD
  5
775
102
{ACAD_REACTORS
330
765
102
}
330
765
100
AcDbXrecord
 70
     0
  0
XRECORD
  5
769
102
{ACAD_REACTORS
330
765
102
}
330
765
100
AcDbXrecord
  1

  0
XRECORD
  5
766
102
{ACAD_REACTORS
330
765
102
}
330
765
100
AcDbXrecord
 90
        1
  0
XRECORD
  5
767
102
{ACAD_REACTORS
330
765
102
}
330
765
100
AcDbXrecord
 90
       70
  0
XRECORD
  5
77F
102
{ACAD_REACTORS
330
765
102
}
330
765
100
AcDbXrecord
340
0
  0
XRECORD
  5
785
102
{ACAD_REACTORS
330
765
102
}
330
765
100
AcDbXrecord
 10
0.0
 20
0.0
 30
0.0
  0
XRECORD
  5
781
102
{ACAD_REACTORS
330
765
102
}
330
765
100
AcDbXrecord
 10
0.0
 20
0.0
 30
0.0
  0
XRECORD
  5
784
102
{ACAD_REACTORS
330
765
102
}
330
765
100
AcDbXrecord
 10
0.0
 20
0.0
 30
0.0
  0
XRECORD
  5
782
102
{ACAD_REACTORS
330
765
102
}
330
765
100
AcDbXrecord
 10
0.0
 20
0.0
 30
0.0
  0
XRECORD
  5
783
102
{ACAD_REACTORS
330
765
102
}
330
765
100
AcDbXrecord
 10
0.0
 20
0.0
 30
0.0
  0
XRECORD
  5
780
102
{ACAD_REACTORS
330
765
102
}
330
765
100
AcDbXrecord
 10
0.0
 20
0.0
 30
0.0
  0
XRECORD
  5
77D
102
{ACAD_REACTORS
330
765
102
}
330
765
100
AcDbXrecord
340
0
  0
XRECORD
  5
77E
102
{ACAD_REACTORS
330
765
102
}
330
765
100
AcDbXrecord
 70
     0
  0
XRECORD
  5
771
102
{ACAD_REACTORS
330
765
102
}
330
765
100
AcDbXrecord
  1
{27BA6654-FB0D-4267-B0F9-A6057C9B70F4}
  0
DICTIONARYVAR
  5
763
102
{ACAD_REACTORS
330
762
102
}
330
762
100
DictionaryVariables
280
     0
  1
1
  0
ENDSEC
  0
EOF
