  0
SECTION
  2
HEADER
  9
$ACADVER
  1
AC1014
  9
$ACADMAINTVER
 70
     9
  9
$DWGCODEPAGE
  3
ANSI_1252
  9
$INSBASE
 10
60.95593331863366
 20
-1.272515612548296
 30
0.0
  9
$EXTMIN
 10
19.97128387543365
 20
-1.369365256711632
 30
0.0
  9
$EXTMAX
 10
101.9405827618336
 20
22.23267656609456
 30
0.0
  9
$LIMMIN
 10
0.0
 20
0.0
  9
$LIMMAX
 10
17.0
 20
11.0
  9
$ORTHOMODE
 70
     1
  9
$REGENMODE
 70
     1
  9
$FILLMODE
 70
     1
  9
$QTEXTMODE
 70
     0
  9
$MIRRTEXT
 70
     1
  9
$DRAGMODE
 70
     2
  9
$LTSCALE
 40
0.9350000000000001
  9
$OSMODE
 70
  3071
  9
$ATTMODE
 70
     1
  9
$TEXTSIZE
 40
0.2
  9
$TRACEWID
 40
0.05
  9
$TEXTSTYLE
  7
STANDARD
  9
$CLAYER
  8
DEFPOINTS
  9
$CELTYPE
  6
BYLAYER
  9
$CECOLOR
 62
   256
  9
$CELTSCALE
 40
1.0
  9
$DELOBJ
 70
     1
  9
$DISPSILH
 70
     0
  9
$DIMSCALE
 40
1.0
  9
$DIMASZ
 40
0.1875
  9
$DIMEXO
 40
0.10625
  9
$DIMDLI
 40
0.646
  9
$DIMRND
 40
0.0
  9
$DIMDLE
 40
0.0
  9
$DIMEXE
 40
0.306
  9
$DIMTP
 40
0.0
  9
$DIMTM
 40
0.0
  9
$DIMTXT
 40
0.125
  9
$DIMCEN
 40
0.153
  9
$DIMTSZ
 40
0.0
  9
$DIMTOL
 70
     0
  9
$DIMLIM
 70
     0
  9
$DIMTIH
 70
     1
  9
$DIMTOH
 70
     1
  9
$DIMSE1
 70
     0
  9
$DIMSE2
 70
     0
  9
$DIMTAD
 70
     0
  9
$DIMZIN
 70
     0
  9
$DIMBLK
  1
_FILLED
  9
$DIMASO
 70
     1
  9
$DIMSHO
 70
     1
  9
$DIMPOST
  1

  9
$DIMAPOST
  1

  9
$DIMALT
 70
     0
  9
$DIMALTD
 70
     2
  9
$DIMALTF
 40
25.4
  9
$DIMLFAC
 40
1.0
  9
$DIMTOFL
 70
     0
  9
$DIMTVP
 40
0.0
  9
$DIMTIX
 70
     0
  9
$DIMSOXD
 70
     0
  9
$DIMSAH
 70
     0
  9
$DIMBLK1
  1

  9
$DIMBLK2
  1

  9
$DIMSTYLE
  2
STANDARD
  9
$DIMCLRD
 70
     0
  9
$DIMCLRE
 70
     0
  9
$DIMCLRT
 70
     0
  9
$DIMTFAC
 40
1.0
  9
$DIMGAP
 40
0.09
  9
$DIMJUST
 70
     0
  9
$DIMSD1
 70
     0
  9
$DIMSD2
 70
     0
  9
$DIMTOLJ
 70
     1
  9
$DIMTZIN
 70
     0
  9
$DIMALTZ
 70
     0
  9
$DIMALTTZ
 70
     0
  9
$DIMFIT
 70
     3
  9
$DIMUPT
 70
     0
  9
$DIMUNIT
 70
     2
  9
$DIMDEC
 70
     4
  9
$DIMTDEC
 70
     4
  9
$DIMALTU
 70
     2
  9
$DIMALTTD
 70
     2
  9
$DIMTXSTY
  7
STANDARD
  9
$DIMAUNIT
 70
     0
  9
$LUNITS
 70
     2
  9
$LUPREC
 70
     4
  9
$SKETCHINC
 40
0.1
  9
$FILLETRAD
 40
0.5
  9
$AUNITS
 70
     0
  9
$AUPREC
 70
     0
  9
$MENU
  1
acad
  9
$ELEVATION
 40
0.0
  9
$PELEVATION
 40
0.0
  9
$THICKNESS
 40
0.0
  9
$LIMCHECK
 70
     0
  9
$BLIPMODE
 70
     0
  9
$CHAMFERA
 40
0.0
  9
$CHAMFERB
 40
0.0
  9
$CHAMFERC
 40
0.0
  9
$CHAMFERD
 40
0.0
  9
$SKPOLY
 70
     0
  9
$TDCREATE
 40
2453887.512139004
  9
$TDUPDATE
 40
2453887.622829305
  9
$TDINDWG
 40
0.1049540741
  9
$TDUSRTIMER
 40
0.1049540741
  9
$USRTIMER
 70
     1
  9
$ANGBASE
 50
0.0
  9
$ANGDIR
 70
     0
  9
$PDMODE
 70
     3
  9
$PDSIZE
 40
0.03125
  9
$PLINEWID
 40
0.0
  9
$COORDS
 70
     1
  9
$SPLFRAME
 70
     0
  9
$SPLINETYPE
 70
     6
  9
$SPLINESEGS
 70
     8
  9
$ATTDIA
 70
     0
  9
$ATTREQ
 70
     1
  9
$HANDLING
 70
-16383
  9
$HANDSEED
  5
C21
  9
$SURFTAB1
 70
     6
  9
$SURFTAB2
 70
     6
  9
$SURFTYPE
 70
     6
  9
$SURFU
 70
     6
  9
$SURFV
 70
     6
  9
$UCSNAME
  2

  9
$UCSORG
 10
0.0
 20
0.0
 30
0.0
  9
$UCSXDIR
 10
1.0
 20
0.0
 30
0.0
  9
$UCSYDIR
 10
0.0
 20
1.0
 30
0.0
  9
$PUCSNAME
  2

  9
$PUCSORG
 10
0.0
 20
0.0
 30
0.0
  9
$PUCSXDIR
 10
1.0
 20
0.0
 30
0.0
  9
$PUCSYDIR
 10
0.0
 20
1.0
 30
0.0
  9
$USERI1
 70
     0
  9
$USERI2
 70
     0
  9
$USERI3
 70
     0
  9
$USERI4
 70
     0
  9
$USERI5
 70
     0
  9
$USERR1
 40
0.0
  9
$USERR2
 40
0.0
  9
$USERR3
 40
0.0
  9
$USERR4
 40
0.0
  9
$USERR5
 40
0.0
  9
$WORLDVIEW
 70
     1
  9
$SHADEDGE
 70
     3
  9
$SHADEDIF
 70
    70
  9
$TILEMODE
 70
     1
  9
$MAXACTVP
 70
    16
  9
$PINSBASE
 10
0.0
 20
0.0
 30
0.0
  9
$PLIMCHECK
 70
     0
  9
$PEXTMIN
 10
1.000000000000000E+20
 20
1.000000000000000E+20
 30
1.000000000000000E+20
  9
$PEXTMAX
 10
-1.000000000000000E+20
 20
-1.000000000000000E+20
 30
-1.000000000000000E+20
  9
$PLIMMIN
 10
0.0
 20
0.0
  9
$PLIMMAX
 10
12.0
 20
9.0
  9
$UNITMODE
 70
     0
  9
$VISRETAIN
 70
     0
  9
$PLINEGEN
 70
     1
  9
$PSLTSCALE
 70
     0
  9
$TREEDEPTH
 70
  3020
  9
$PICKSTYLE
 70
     1
  9
$CMLSTYLE
  2
STANDARD
  9
$CMLJUST
 70
     0
  9
$CMLSCALE
 40
1.0
  9
$PROXYGRAPHICS
 70
     0
  9
$MEASUREMENT
 70
     0
  0
ENDSEC
  0
SECTION
  2
CLASSES
  0
CLASS
  1
ACDBDICTIONARYWDFLT
  2
AcDbDictionaryWithDefault
  3
AutoCAD 2000
 90
        0
280
     0
281
     0
  0
CLASS
  1
ACDBPLACEHOLDER
  2
AcDbPlaceHolder
  3
AutoCAD 2000
 90
        0
280
     0
281
     0
  0
CLASS
  1
LAYOUT
  2
AcDbLayout
  3
AutoCAD 2000
 90
        0
280
     0
281
     0
  0
CLASS
  1
LWPOLYLINE
  2
AcDbPolyline
  3
AutoCAD 2000
 90
        0
280
     0
281
     1
  0
CLASS
  1
IMAGE
  2
AcDbRasterImage
  3
ISM
 90
      127
280
     0
281
     1
  0
CLASS
  1
OLE2FRAME
  2
AcDbOle2Frame
  3
AutoCAD 2000
 90
        0
280
     0
281
     1
  0
CLASS
  1
HATCH
  2
AcDbHatch
  3
AutoCAD 2000
 90
        0
280
     0
281
     1
  0
CLASS
  1
DICTIONARYVAR
  2
AcDbDictionaryVar
  3
AutoCAD 2000
 90
        0
280
     0
281
     0
  0
CLASS
  1
RASTERVARIABLES
  2
AcDbRasterVariables
  3
ISM
 90
        0
280
     0
281
     0
  0
CLASS
  1
IMAGEDEF
  2
AcDbRasterImageDef
  3
ISM
 90
        0
280
     0
281
     0
  0
CLASS
  1
IMAGEDEF_REACTOR
  2
AcDbRasterImageDefReactor
  3
ISM
 90
        1
280
     0
281
     0
  0
CLASS
  1
IDBUFFER
  2
AcDbIdBuffer
  3
AutoCAD 2000
 90
        0
280
     0
281
     0
  0
CLASS
  1
SPATIAL_FILTER
  2
AcDbSpatialFilter
  3
AutoCAD 2000
 90
        0
280
     0
281
     0
  0
CLASS
  1
XRECORD
  2
AcDbXrecord
  3
AutoCAD 2000
 90
        0
280
     0
281
     0
  0
CLASS
  1
SORTENTSTABLE
  2
AcDbSortentsTable
  3
AutoCAD 2000
 90
        0
280
     0
281
     0
  0
CLASS
  1
LAYER_INDEX
  2
AcDbLayerIndex
  3
AutoCAD 2000
 90
        0
280
     0
281
     0
  0
CLASS
  1
SPATIAL_INDEX
  2
AcDbSpatialIndex
  3
AutoCAD 2000
 90
        0
280
     0
281
     0
  0
CLASS
  1
OBJECT_PTR
  2
CAseDLPNTableRecord
  3
ASE-LPNTableRecord
 90
        1
280
     0
281
     0
  0
CLASS
  1
PLOTSETTINGS
  2
AcDbPlotSettings
  3
AutoCAD 2000
 90
        0
280
     0
281
     0
  0
CLASS
  1
VBA_PROJECT
  2
AcDbVbaProject
  3
acadvba
 90
        0
280
     0
281
     0
  0
CLASS
  1
WIPEOUT
  2
AcDbWipeout
  3
WipeOut|AutoCAD Express Tool|expresstools@autodesk.com
 90
      127
280
     0
281
     1
  0
CLASS
  1
WIPEOUTVARIABLES
  2
AcDbWipeoutVariables
  3
WipeOut|AutoCAD Express Tool|expresstools@autodesk.com
 90
        0
280
     0
281
     0
  0
CLASS
  1
RTEXT
  2
RText
  3
RText|AutoCAD Express Tool|expresstools@autodesk.com
 90
        0
280
     0
281
     1
  0
CLASS
  1
ARCALIGNEDTEXT
  2
AcDbArcAlignedText
  3
ATEXT|AutoCAD Express Tool|expresstools@autodesk.com
 90
        0
280
     0
281
     1
  0
CLASS
  1
LONG_TRANSACTION
  2
AcDbLongTransaction
  3
AutoCAD 2000
 90
        0
280
     0
281
     0
  0
CLASS
  1
LWPOLYLINE
  2
AcDbPolyline
  3
AutoCAD 2000
 90
        0
280
     0
281
     1
  0
CLASS
  1
HATCH
  2
AcDbHatch
  3
AutoCAD 2000
 90
        0
280
     0
281
     1
  0
CLASS
  1
XRECORD
  2
AcDbXrecord
  3
AutoCAD 2000
 90
        0
280
     0
281
     0
  0
ENDSEC
  0
SECTION
  2
TABLES
  0
TABLE
  2
VPORT
  5
8
330
0
100
AcDbSymbolTable
 70
     3
  0
VPORT
  5
BFB
330
8
100
AcDbSymbolTableRecord
100
AcDbViewportTableRecord
  2
*ACTIVE
 70
     0
 10
0.0
 20
0.0
 11
1.0
 21
1.0
 12
69.27992607501642
 22
16.32236278716412
 13
0.0
 23
0.0
 14
1.0
 24
1.0
 15
0.0
 25
0.0
 16
0.0
 26
0.0
 36
1.0
 17
0.0
 27
0.0
 37
0.0
 40
64.61185362176687
 41
1.781954887218045
 42
50.0
 43
0.0
 44
0.0
 50
0.0
 51
0.0
 71
     0
 72
   100
 73
     1
 74
     1
 75
     0
 76
     0
 77
     0
 78
     0
  0
ENDTAB
  0
TABLE
  2
LTYPE
  5
5
330
0
100
AcDbSymbolTable
 70
     5
  0
LTYPE
  5
14
330
5
100
AcDbSymbolTableRecord
100
AcDbLinetypeTableRecord
  2
BYBLOCK
 70
     0
  3

 72
    65
 73
     0
 40
0.0
  0
LTYPE
  5
15
330
5
100
AcDbSymbolTableRecord
100
AcDbLinetypeTableRecord
  2
BYLAYER
 70
     0
  3

 72
    65
 73
     0
 40
0.0
  0
LTYPE
  5
16
330
5
100
AcDbSymbolTableRecord
100
AcDbLinetypeTableRecord
  2
CONTINUOUS
 70
     0
  3
Solid line
 72
    65
 73
     0
 40
0.0
  0
LTYPE
  5
1F5
330
5
100
AcDbSymbolTableRecord
100
AcDbLinetypeTableRecord
  2
CENTER
 70
     0
  3
____ _ ____ _ ____ _ ____ _ ____ _ ____ _ ____
 72
    65
 73
     4
 40
0.6
 49
0.375
 74
     0
 49
-0.075
 74
     0
 49
0.075
 74
     0
 49
-0.075
 74
     0
  0
LTYPE
  5
1F6
330
5
100
AcDbSymbolTableRecord
100
AcDbLinetypeTableRecord
  2
HIDDEN
 70
     0
  3
- - - - - - - - - - - - - - - - - - - -
 72
    65
 73
     2
 40
0.2
 49
0.1
 74
     0
 49
-0.1
 74
     0
  0
LTYPE
  5
1F7
330
5
100
AcDbSymbolTableRecord
100
AcDbLinetypeTableRecord
  2
PHANTOM
 70
     0
  3
_____ _ _ _____ _ _ _____ _ _ _____
 72
    65
 73
     6
 40
0.8
 49
0.45
 74
     0
 49
-0.05
 74
     0
 49
0.1
 74
     0
 49
-0.05
 74
     0
 49
0.1
 74
     0
 49
-0.05
 74
     0
  0
LTYPE
  5
B44
330
5
100
AcDbSymbolTableRecord
100
AcDbLinetypeTableRecord
  2
CENTERX2
 70
     0
  3
Center (2x) ________  __  ________  __  _____
 72
    65
 73
     4
 40
4.0
 49
2.5
 74
     0
 49
-0.5
 74
     0
 49
0.5
 74
     0
 49
-0.5
 74
     0
  0
ENDTAB
  0
TABLE
  2
LAYER
  5
2
330
0
100
AcDbSymbolTable
 70
     3
  0
LAYER
  5
10
330
2
100
AcDbSymbolTableRecord
100
AcDbLayerTableRecord
  2
0
 70
     0
 62
     7
  6
CONTINUOUS
  0
LAYER
  5
B41
330
2
100
AcDbSymbolTableRecord
100
AcDbLayerTableRecord
  2
CENTER
 70
     0
 62
     1
  6
CENTERX2
  0
LAYER
  5
B49
330
2
100
AcDbSymbolTableRecord
100
AcDbLayerTableRecord
  2
DEFPOINTS
 70
     0
 62
     7
  6
CONTINUOUS
  0
ENDTAB
  0
TABLE
  2
STYLE
  5
3
330
0
100
AcDbSymbolTable
 70
     3
  0
STYLE
  5
11
330
3
100
AcDbSymbolTableRecord
100
AcDbTextStyleTableRecord
  2
STANDARD
 70
     0
 40
0.0
 41
0.8
 50
0.0
 71
     0
 42
0.2
  3
txt
  4

  0
STYLE
  5
219
330
3
100
AcDbSymbolTableRecord
100
AcDbTextStyleTableRecord
  2
TEXTSTYLE_1
 70
     0
 40
0.0
 41
0.8
 50
0.0
 71
     0
 42
0.2
  3
txt
  4

  0
STYLE
  5
B43
330
3
100
AcDbSymbolTableRecord
100
AcDbTextStyleTableRecord
  2

 70
     1
 40
0.0
 41
1.0
 50
0.0
 71
     0
 42
0.2
  3
ltypeshp.shx
  4

  0
ENDTAB
  0
TABLE
  2
VIEW
  5
6
330
0
100
AcDbSymbolTable
 70
     0
  0
ENDTAB
  0
TABLE
  2
UCS
  5
7
330
0
100
AcDbSymbolTable
 70
     0
  0
ENDTAB
  0
TABLE
  2
APPID
  5
9
330
0
100
AcDbSymbolTable
 70
     2
  0
APPID
  5
21D
330
9
100
AcDbSymbolTableRecord
100
AcDbRegAppTableRecord
  2
ACAD
 70
     0
  0
APPID
  5
B23
330
9
100
AcDbSymbolTableRecord
100
AcDbRegAppTableRecord
  2
DCO15
 70
     0
  0
ENDTAB
  0
TABLE
  2
DIMSTYLE
  5
A
330
0
100
AcDbSymbolTable
 70
     1
  0
DIMSTYLE
105
244
330
A
100
AcDbSymbolTableRecord
100
AcDbDimStyleTableRecord
  2
STANDARD
 70
     0
  3

  4

  5
_FILLED
  6
_FILLED
  7
_FILLED
 40
1.0
 41
0.1875
 42
0.0625
 43
0.38
 44
0.18
 45
0.0
 46
0.0
 47
0.00001
 48
0.00001
140
0.125
141
0.09
142
0.0
143
25.4
144
1.0
145
0.0
146
1.0
147
0.09
 71
     0
 72
     0
 73
     1
 74
     1
 75
     0
 76
     0
 77
     0
 78
     4
170
     0
171
     2
172
     0
173
     0
174
     0
175
     0
176
     0
177
     0
178
     0
270
     2
271
     5
272
     5
273
     2
274
     2
340
11
275
     0
280
     0
281
     0
282
     0
283
     1
284
     4
285
     0
286
     0
287
     3
288
     0
  0
ENDTAB
  0
TABLE
  2
BLOCK_RECORD
  5
1
330
0
100
AcDbSymbolTable
 70
     6
  0
BLOCK_RECORD
  5
1F
102
{ACAD_XDICTIONARY
360
C1F
102
}
330
1
100
AcDbSymbolTableRecord
100
AcDbBlockTableRecord
  2
*MODEL_SPACE
  0
BLOCK_RECORD
  5
1B
102
{ACAD_XDICTIONARY
360
C1D
102
}
330
1
100
AcDbSymbolTableRecord
100
AcDbBlockTableRecord
  2
*PAPER_SPACE
  0
BLOCK_RECORD
  5
21E
330
1
100
AcDbSymbolTableRecord
100
AcDbBlockTableRecord
  2
_FILLED
  0
ENDTAB
  0
ENDSEC
  0
SECTION
  2
BLOCKS
  0
BLOCK
  5
20
330
1F
100
AcDbEntity
  8
0
100
AcDbBlockBegin
  2
*MODEL_SPACE
 70
     0
 10
0.0
 20
0.0
 30
0.0
  3
*MODEL_SPACE
  1

  0
ENDBLK
  5
21
330
1F
100
AcDbEntity
  8
0
100
AcDbBlockEnd
  0
BLOCK
  5
1C
330
1B
100
AcDbEntity
 67
     1
  8
0
100
AcDbBlockBegin
  2
*PAPER_SPACE
 70
     0
 10
0.0
 20
0.0
 30
0.0
  3
*PAPER_SPACE
  1

  0
ENDBLK
  5
1D
330
1B
100
AcDbEntity
 67
     1
  8
0
100
AcDbBlockEnd
  0
BLOCK
  5
469
330
21E
100
AcDbEntity
  8
0
100
AcDbBlockBegin
  2
_FILLED
 70
     0
 10
0.0
 20
0.0
 30
0.0
  3
_FILLED
  1

  0
SOLID
  5
46A
330
21E
100
AcDbEntity
  8
0
  6
BYBLOCK
 62
     0
100
AcDbTrace
 10
0.0
 20
0.0
 30
0.0
 11
-1.0
 21
0.1666666667
 31
0.0
 12
-1.0
 22
-0.1666666667
 32
0.0
 13
-1.0
 23
-0.1666666667
 33
0.0
  0
ENDBLK
  5
46B
330
21E
100
AcDbEntity
  8
0
  6
BYBLOCK
 62
     0
100
AcDbBlockEnd
  0
ENDSEC
  0
SECTION
  2
ENTITIES
  0
MTEXT
  5
4E9
330
1F
100
AcDbEntity
  8
0
  6
CONTINUOUS
 62
     2
100
AcDbMText
 10
15.84375
 20
2.3125
 30
0.0
 40
0.09375
 41
0.075
 71
     2
 72
     1
  1
 \P \P 
  7
TEXTSTYLE_1
1001
ACAD
1000
MTEXTBEGIN
1070
    73
1070
     1
1070
    44
1040
1.0
1070
    74
1070
     0
1000
MTEXTEND
  0
TEXT
  5
4EA
330
1F
100
AcDbEntity
  8
0
  6
CONTINUOUS
 62
     2
100
AcDbText
 10
14.24375
 20
2.1875
 30
0.0
 40
0.09375
  1
 
 41
0.8
  7
TEXTSTYLE_1
 72
     1
 11
14.28125
 21
2.1875
 31
0.0
100
AcDbText
  0
LWPOLYLINE
  5
516
330
1F
100
AcDbEntity
  8
0
  6
CONTINUOUS
 62
     7
100
AcDbPolyline
 90
        3
 70
     0
 43
0.0
 10
33.11099946423365
 20
15.5442513746517
 10
33.07631612343366
 20
15.61448314105169
 10
33.07414873943365
 20
15.61889181785169
  0
LINE
  5
517
330
1F
100
AcDbEntity
  8
0
  6
CONTINUOUS
 62
     7
100
AcDbLine
 10
36.68663124823365
 20
4.036059582651702
 30
0.0
 11
36.74036584983365
 21
3.794871600251703
 31
0.0
  0
LWPOLYLINE
  5
518
330
1F
100
AcDbEntity
  8
0
  6
CONTINUOUS
 62
     7
100
AcDbPolyline
 90
       36
 70
     0
 43
0.0
 10
36.68663124823365
 20
4.036059582651702
 10
36.54964816343365
 20
4.6652886194517
 10
36.39574219383365
 20
5.3903400370517
 10
36.23735946903365
 20
6.132360493051699
 10
36.08745739383365
 20
6.815575606651698
 10
35.94024285303365
 20
7.462315251451698
 10
35.85928185463366
 20
7.802830885051697
 10
35.77487775703366
 20
8.142504833851702
 10
35.68143122903365
 20
8.498884976251702
 10
35.58335343863365
 20
8.854022277051697
 10
35.48815337623365
 20
9.1838037778517
 10
35.38980234423366
 20
9.512659013051703
 10
35.21076846903365
 20
10.0887844274517
 10
35.02798878903365
 20
10.6537973618517
 10
34.83228837303365
 20
11.23740930105169
 10
34.64146648983365
 20
11.7874377090517
 10
34.46789068503365
 20
12.27234088825169
 10
34.30976278103365
 20
12.70139995225169
 10
34.16516382903366
 20
13.0831063026517
 10
34.03398043703365
 20
13.42063805465169
 10
33.91545455863365
 20
13.71850587225169
 10
33.80847473783365
 20
13.9815807314517
 10
33.71196247703366
 20
14.21414431705169
 10
33.62511325143365
 20
14.4194387858517
 10
33.54755667703365
 20
14.5994408482517
 10
33.47894922583366
 20
14.7559125458517
 10
33.41877004823365
 20
14.8908963490517
 10
33.36641645783366
 20
15.0065023458517
 10
33.32090935543365
 20
15.10554093305169
 10
33.28136504023365
 20
15.19046661625169
 10
33.24635578583365
 20
15.2647513474517
 10
33.21437248183365
 20
15.33187007865169
 10
33.18453936503365
 20
15.39384314585169
 10
33.15681600183365
 20
15.4509082834517
 10
33.13192226903366
 20
15.50175549145169
 10
33.11099946423365
 20
15.5442513746517
  0
LWPOLYLINE
  5
51C
330
1F
100
AcDbEntity
  8
0
  6
CONTINUOUS
 62
     7
100
AcDbPolyline
 90
       64
 70
     0
 43
0.0
 10
36.74433387063365
 20
3.780462013051696
 10
36.74997363543365
 20
3.731268272251696
 10
36.75669126103366
 20
3.682204096251702
 10
36.76448392183365
 20
3.633297536251703
 10
36.77333987703365
 20
3.584621235451699
 10
36.78326250743365
 20
3.536152742651701
 10
36.79424829143365
 20
3.487914545851701
 10
36.80627824343365
 20
3.439987283451699
 10
36.81936029303365
 20
3.392336011451696
 10
36.83348947383366
 20
3.344984553851702
 10
36.84863758743365
 20
3.298025381051701
 10
36.86481855863366
 20
3.251412137851701
 10
36.88202613303365
 20
3.205168065851701
 10
36.90022203383366
 20
3.159393870651697
 10
36.91942720343365
 20
3.1140338434517
 10
36.93963401943365
 20
3.0691110722517
 10
36.96079343543365
 20
3.024732563451699
 10
36.98293408663365
 20
2.980835369851696
 10
37.00604695863365
 20
2.937442211451703
 10
37.03007204023365
 20
2.894663792251698
 10
37.05504590263366
 20
2.852432240251701
 10
37.08095809783365
 20
2.810769845051702
 10
37.10773789783365
 20
2.769788472251697
 10
37.13542960503366
 20
2.729417693051701
 10
37.16402131543365
 20
2.6896792530517
 10
37.19343229783365
 20
2.650683613051697
 10
37.22371392823365
 20
2.612360142651702
 10
37.25485282743365
 20
2.574729920251698
 10
37.28675942743366
 20
2.537899573051703
 10
37.31949109303365
 20
2.501800493051696
 10
37.35303295703365
 20
2.4664529618517
 10
37.38728820023365
 20
2.431957534651701
 10
37.42231868663365
 20
2.398249654651699
 10
37.45810806903365
 20
2.365348661051697
 10
37.49455423703365
 20
2.333347093051699
 10
37.53172170743365
 20
2.302186176251701
 10
37.56959267703365
 20
2.271884160251701
 10
37.60806200983365
 20
2.242523987451697
 10
37.64719474903365
 20
2.214054035451702
 10
37.68697167703365
 20
2.186491302651702
 10
37.72728712183365
 20
2.159907992251703
 10
37.76820432823365
 20
2.134260576251698
 10
37.80970272823365
 20
2.109564637051697
 10
37.85167873783366
 20
2.085880976251701
 10
37.89419135863365
 20
2.0631746226517
 10
37.93721876663365
 20
2.041459598651698
 10
37.98066210583366
 20
2.020785121851702
 10
38.02457370903365
 20
2.001124773051699
 10
38.06893061623366
 20
1.982490859451701
 10
38.11364127063365
 20
1.964921345851699
 10
38.15874897143365
 20
1.948397867451703
 10
38.20422971383365
 20
1.932930877051703
 10
38.25000161783365
 20
1.918547904251703
 10
38.29609693463365
 20
1.9052376690517
 10
38.34249092503366
 20
1.8930086402517
 10
38.38911350583365
 20
1.8818791682517
 10
38.43598362743366
 20
1.8718436866517
 10
38.48307542583365
 20
1.8629086050517
 10
38.53033222583365
 20
1.855084725051696
 10
38.57775987383366
 20
1.848370406651703
 10
38.62533365783365
 20
1.842769846651698
 10
38.67301200823365
 20
1.838288208251697
 10
38.72078059703365
 20
1.834925995451698
 10
38.76860832183365
 20
1.832685413051699
  0
LWPOLYLINE
  5
566
330
1F
100
AcDbEntity
  8
0
  6
CONTINUOUS
 62
     7
100
AcDbPolyline
 90
       21
 70
     0
 43
0.0
 10
60.96807943383366
 20
11.7484391730517
 10
60.52319472023365
 20
11.7467964370517
 10
60.07832728503366
 20
11.74236564345169
 10
59.62996036023366
 20
11.73500637625169
 10
59.18165244183366
 20
11.72467804985169
 10
58.72069792343365
 20
11.7109025490517
 10
58.25985079703365
 20
11.6939048946517
 10
57.77724315543366
 20
11.67264113785169
 10
57.29480117623365
 20
11.6478928818517
 10
56.77756392823365
 20
11.6175394898517
 10
56.26057231863366
 20
11.58325306905169
 10
55.68072517303366
 20
11.5401018578517
 10
55.10126104823366
 20
11.49206782745169
 10
54.42968436343366
 20
11.4303481202517
 10
53.75871363863366
 20
11.3623423426517
 10
52.99274750743365
 20
11.2771785682517
 10
52.22766584503366
 20
11.18439353145169
 10
51.46473897623366
 20
11.08449086585169
 10
50.70275927063366
 20
10.97760729305169
 10
50.05135522583366
 20
10.88080189785169
 10
49.40066160503365
 20
10.77935404825169
  0
LWPOLYLINE
  5
57D
330
1F
100
AcDbEntity
  8
0
  6
CONTINUOUS
 62
     7
100
AcDbPolyline
 90
       21
 70
     0
 43
0.0
 10
60.96799637943365
 20
11.7484392722517
 10
61.41288109463365
 20
11.7467964738517
 10
61.85774852983365
 20
11.74236564345169
 10
62.30611545303366
 20
11.7350063714517
 10
62.75442337143365
 20
11.72467804985169
 10
63.21537789143365
 20
11.7109025506517
 10
63.67622501623365
 20
11.6939048946517
 10
64.15883265783364
 20
11.67264113785169
 10
64.64127463863366
 20
11.6478928818517
 10
65.15851188663365
 20
11.6175394898517
 10
65.67550349463366
 20
11.58325306905169
 10
66.25535064183364
 20
11.5401018578517
 10
66.83481476663366
 20
11.49206782745169
 10
67.50639145143364
 20
11.4303481202517
 10
68.17736217463366
 20
11.3623423426517
 10
68.94332830743366
 20
11.2771785682517
 10
69.70840996823366
 20
11.18439353145169
 10
70.47133683703364
 20
11.08449086585169
 10
71.23331654263364
 20
10.97760729305169
 10
71.88472058743366
 20
10.88080189785169
 10
72.53541420823364
 20
10.77935404825169
  0
LWPOLYLINE
  5
581
330
1F
100
AcDbEntity
  8
0
  6
CONTINUOUS
 62
     7
100
AcDbPolyline
 90
       20
 70
     0
 43
0.0
 10
72.53541420823364
 20
10.77935404825169
 10
72.92224531063365
 20
10.7164411138517
 10
73.30870316823364
 20
10.65126637145169
 10
73.68152334263365
 20
10.5861792130517
 10
74.05396646423366
 20
10.5189704690517
 10
74.41246563543365
 20
10.45219199385169
 10
74.77058588183365
 20
10.38341040185169
 10
75.11471588983366
 20
10.31533308185169
 10
75.45846657623366
 20
10.24536607225169
 10
76.12003665303365
 20
10.10510475385169
 10
76.75658883863366
 20
9.963059680251703
 10
77.36884107223366
 20
9.819688048251698
 10
77.95746006423366
 20
9.6755092514517
 10
78.52379932663365
 20
9.530788094651697
 10
79.06977963223366
 20
9.385567305851701
 10
79.59667620183364
 20
9.240046208251698
 10
80.10603534423365
 20
9.094284339451697
 10
80.59903925463364
 20
8.9484512530517
 10
81.07701328503365
 20
8.802697430651697
 10
81.53687868503366
 20
8.658537942651697
  0
LWPOLYLINE
  5
582
330
1F
100
AcDbEntity
  8
0
  6
CONTINUOUS
 62
     7
100
AcDbPolyline
 90
       20
 70
     0
 43
0.0
 10
49.40066160503365
 20
10.77935404825169
 10
49.01383050263365
 20
10.7164411138517
 10
48.62737264503365
 20
10.65126637145169
 10
48.25455247063366
 20
10.5861792130517
 10
47.88210934903366
 20
10.5189704690517
 10
47.52361017783365
 20
10.45219199385169
 10
47.16548993143366
 20
10.38341040185169
 10
46.82135992503365
 20
10.31533308185169
 10
46.47760923863365
 20
10.24536607225169
 10
45.81603916023365
 20
10.10510475385169
 10
45.17948697463365
 20
9.963059680251703
 10
44.56723474103365
 20
9.819688048251698
 10
43.97861574903365
 20
9.6755092514517
 10
43.41227648663365
 20
9.530788094651697
 10
42.86629618103365
 20
9.385567305851701
 10
42.33939961143366
 20
9.240046208251698
 10
41.83004047063366
 20
9.094284339451697
 10
41.33703656023365
 20
8.9484512530517
 10
40.85906252823366
 20
8.802697430651697
 10
40.39919712823365
 20
8.658537942651697
  0
LWPOLYLINE
  5
5AE
330
1F
100
AcDbEntity
  8
0
  6
CONTINUOUS
 62
     7
100
AcDbPolyline
 90
       64
 70
     0
 43
0.0
 10
85.17963735543366
 20
3.780462013051696
 10
85.17399759063366
 20
3.731268272251696
 10
85.16727996343366
 20
3.682204096251702
 10
85.15948730263366
 20
3.633297536251703
 10
85.15063134903366
 20
3.584621235451699
 10
85.14070871863365
 20
3.536152742651701
 10
85.12972293303366
 20
3.487914545851701
 10
85.11769298263365
 20
3.439987283451699
 10
85.10461093303366
 20
3.392336011451696
 10
85.09048175223364
 20
3.344984553851702
 10
85.07533363863364
 20
3.298025381051701
 10
85.05915266743366
 20
3.251412137851701
 10
85.04194509143365
 20
3.205168065851701
 10
85.02374919223365
 20
3.159393870651697
 10
85.00454402263367
 20
3.1140338434517
 10
84.98433720663365
 20
3.0691110722517
 10
84.96317779063366
 20
3.024732563451699
 10
84.94103713943365
 20
2.980835369851696
 10
84.91792426743364
 20
2.937442211451703
 10
84.89389918583365
 20
2.894663792251698
 10
84.86892532343365
 20
2.852432240251701
 10
84.84301312823365
 20
2.810769845051702
 10
84.81623332663366
 20
2.769788472251697
 10
84.78854161943365
 20
2.729417693051701
 10
84.75994991063364
 20
2.6896792530517
 10
84.73053892823363
 20
2.650683613051697
 10
84.70025729623364
 20
2.612360142651702
 10
84.66911839703366
 20
2.574729920251698
 10
84.63721179863364
 20
2.537899573051703
 10
84.60448013303366
 20
2.501800493051696
 10
84.57093826903365
 20
2.4664529618517
 10
84.53668302583366
 20
2.431957534651701
 10
84.50165253783366
 20
2.398249654651699
 10
84.46586315543365
 20
2.365348661051697
 10
84.42941698903366
 20
2.333347093051699
 10
84.39224951703366
 20
2.302186176251701
 10
84.35437854743367
 20
2.271884160251701
 10
84.31590921623365
 20
2.242523987451697
 10
84.27677647703365
 20
2.214054035451702
 10
84.23699954903367
 20
2.186491302651702
 10
84.19668410423367
 20
2.159907992251703
 10
84.15576689783364
 20
2.134260576251698
 10
84.11426849623365
 20
2.109564637051697
 10
84.07229248823364
 20
2.085880976251701
 10
84.02977986583366
 20
2.0631746226517
 10
83.98675245783365
 20
2.041459598651698
 10
83.94330912023367
 20
2.020785121851702
 10
83.89939751543366
 20
2.001124773051699
 10
83.85504060823365
 20
1.982490859451701
 10
83.81032995543364
 20
1.964921345851699
 10
83.76522225303366
 20
1.948397867451703
 10
83.71974151063367
 20
1.932930877051703
 10
83.67396960823365
 20
1.918547904251703
 10
83.62787428983365
 20
1.9052376690517
 10
83.58148030103365
 20
1.8930086402517
 10
83.53485771863365
 20
1.8818791682517
 10
83.48798759863365
 20
1.8718436866517
 10
83.44089580023364
 20
1.8629086050517
 10
83.39363900023366
 20
1.855084725051696
 10
83.34621135063366
 20
1.848370406651703
 10
83.29863756663366
 20
1.842769846651698
 10
83.25095921623367
 20
1.838288208251697
 10
83.20319062743365
 20
1.834925995451698
 10
83.15536290423366
 20
1.832685413051699
  0
LWPOLYLINE
  5
5C1
330
1F
100
AcDbEntity
  8
0
  6
CONTINUOUS
 62
     7
100
AcDbPolyline
 90
       36
 70
     0
 43
0.0
 10
85.23733997783365
 20
4.036059582651702
 10
85.37432306103367
 20
4.6652886194517
 10
85.52822903063367
 20
5.3903400370517
 10
85.68661175703367
 20
6.132360493051699
 10
85.83651383223367
 20
6.815575606651698
 10
85.98372837303363
 20
7.462315251451698
 10
86.06468937143365
 20
7.802830885051697
 10
86.14909346743365
 20
8.142504833851702
 10
86.24253999703364
 20
8.498884976251702
 10
86.34061778743364
 20
8.854022277051697
 10
86.43581784983366
 20
9.1838037778517
 10
86.53416888183366
 20
9.512659013051703
 10
86.71320275543365
 20
10.0887844274517
 10
86.89598243703366
 20
10.6537973618517
 10
87.09168285303366
 20
11.23740930105169
 10
87.28250473623365
 20
11.7874377090517
 10
87.45608053943366
 20
12.27234088825169
 10
87.61420844343366
 20
12.70139995225169
 10
87.75880739703366
 20
13.0831063026517
 10
87.88999078903364
 20
13.42063805465169
 10
88.00851666743367
 20
13.71850587225169
 10
88.11549648823364
 20
13.9815807314517
 10
88.21200874903366
 20
14.21414431705169
 10
88.29885797303365
 20
14.4194387858517
 10
88.37641454743366
 20
14.5994408482517
 10
88.44502199863365
 20
14.7559125458517
 10
88.50520117783366
 20
14.8908963490517
 10
88.55755476823365
 20
15.0065023458517
 10
88.60306186903367
 20
15.10554093305169
 10
88.64260618423363
 20
15.19046661625169
 10
88.67761544023366
 20
15.2647513474517
 10
88.70959874263366
 20
15.33187007865169
 10
88.73943186103366
 20
15.39384314585169
 10
88.76715522263365
 20
15.4509082834517
 10
88.79204895703365
 20
15.50175549145169
 10
88.81297176023366
 20
15.5442513746517
  0
LINE
  5
5C2
330
1F
100
AcDbEntity
  8
0
  6
CONTINUOUS
 62
     7
100
AcDbLine
 10
85.23733997783365
 20
4.036059582651702
 30
0.0
 11
85.17963735543366
 21
3.780462013051696
 31
0.0
  0
LINE
  5
5D0
330
1F
100
AcDbEntity
  8
0
  6
CONTINUOUS
 62
     7
100
AcDbLine
 10
88.81297176023366
 20
15.5442513746517
 30
0.0
 11
88.84982248663366
 21
15.61889181785169
 31
0.0
  0
LINE
  5
70E
330
1F
100
AcDbEntity
  8
0
  6
CONTINUOUS
 62
     7
100
AcDbLine
 10
20.23168698103365
 20
19.7635782354517
 30
0.0
 11
19.97129675383365
 21
17.97758231385169
 31
0.0
  0
LWPOLYLINE
  5
70F
330
1F
100
AcDbEntity
  8
0
  6
CONTINUOUS
 62
     7
100
AcDbPolyline
 90
        3
 70
     0
 43
0.0
 10
27.06966147223365
 20
20.14537783225169
 10
27.11909253303366
 20
20.57297005945169
 10
27.17736721783365
 20
20.99939389785169
  0
LWPOLYLINE
  5
710
330
1F
100
AcDbEntity
  8
0
  6
CONTINUOUS
 62
     7
100
AcDbPolyline
 90
       17
 70
     0
 43
0.0
 10
27.17732594103365
 20
20.9994530290517
 10
27.20157705463365
 20
21.12504681305169
 10
27.23690679383365
 20
21.24801700025169
 10
27.28303216503365
 20
21.3673620098517
 10
27.33958809623365
 20
21.4821350018517
 10
27.40612647063366
 20
21.59142543385169
 10
27.48211974263365
 20
21.6943663970517
 10
27.56696564343365
 20
21.79014201785169
 10
27.65999203703365
 20
21.8779935826517
 10
27.76046195383365
 20
21.95722508985169
 10
27.86757925303365
 20
22.02720868505169
 10
27.98049502423365
 20
22.0873898082517
 10
28.09831411383365
 20
22.1372915378517
 10
28.22010202583365
 20
22.1765184674517
 10
28.34489272983365
 20
22.20476010585169
 10
28.47169641943365
 20
22.22179337945169
 10
28.59948242743366
 20
22.2274843890517
  0
LWPOLYLINE
  5
712
330
1F
100
AcDbEntity
  8
0
  6
CONTINUOUS
 62
     7
100
AcDbPolyline
 90
       13
 70
     0
 43
0.0
 10
35.56429005623366
 20
3.934884881851701
 10
35.52634671383365
 20
4.527947763451699
 10
35.47097419703365
 20
5.212272840251699
 10
35.39316904983365
 20
5.988847857851702
 10
35.28521027543365
 20
6.869342731451702
 10
35.13373368343365
 20
7.882591752251698
 10
34.93792792823365
 20
8.961741168251698
 10
34.72787399383365
 20
9.934187910651701
 10
34.52231724823365
 20
10.7599176402517
 10
34.32290170583366
 20
11.46803570425169
 10
34.13295979863365
 20
12.0751853394517
 10
33.95514783223365
 20
12.5992988546517
 10
33.65130724503365
 20
13.46126514265169
  0
LWPOLYLINE
  5
714
330
1F
100
AcDbEntity
  8
0
  6
CONTINUOUS
 62
     7
100
AcDbPolyline
 90
        4
 70
     0
 43
0.0
 10
31.97613256023366
 20
17.9774843874517
 10
32.10480407383365
 20
17.72406954585169
 10
32.57574857143366
 20
16.7355703650517
 10
33.07414873943365
 20
15.61889181785169
  0
LWPOLYLINE
  5
715
330
1F
100
AcDbEntity
  8
0
  6
CONTINUOUS
 62
     7
100
AcDbPolyline
 90
        7
 70
     0
 43
0.0
 10
33.65130724503365
 20
13.46126514265169
 10
33.52832830423365
 20
13.82169297785169
 10
33.42487635383365
 20
14.1445489122517
 10
33.34105021783365
 20
14.4332578706517
 10
33.27671897783365
 20
14.69033410905169
 10
33.23135599383365
 20
14.91827904345169
 10
33.20389973143365
 20
15.1192734194517
  0
LINE
  5
716
330
1F
100
AcDbEntity
  8
0
  6
CONTINUOUS
 62
     7
100
AcDbLine
 10
42.5354335632203
 20
1.346450131215489
 30
0.0
 11
43.18753360983365
 21
-1.087220374148301
 31
0.0
  0
LINE
  5
71D
330
1F
100
AcDbEntity
  8
0
  6
CONTINUOUS
 62
     7
100
AcDbLine
 10
65.63756130583366
 20
-1.272515612548296
 30
0.0
 11
56.27430533143366
 21
-1.272515612548296
 31
0.0
  0
LINE
  5
71F
330
1F
100
AcDbEntity
  8
0
  6
CONTINUOUS
 62
     7
100
AcDbLine
 10
44.08990791543365
 20
-1.272515612548296
 30
0.0
 11
43.42901506583365
 21
-1.272515612548296
 31
0.0
  0
LINE
  5
720
330
1F
100
AcDbEntity
  8
0
  6
CONTINUOUS
 62
     7
100
AcDbLine
 10
45.82195872183365
 20
-1.272515612548296
 30
0.0
 11
46.48285157143365
 21
-1.272515612548296
 31
0.0
  0
LINE
  5
722
330
1F
100
AcDbEntity
  8
0
  6
CONTINUOUS
 62
     7
100
AcDbLine
 10
59.68448670903366
 20
-0.5850156125482969
 30
0.0
 11
62.22737992823365
 21
-0.5850156125482969
 31
0.0
  0
LWPOLYLINE
  5
72A
330
1F
100
AcDbEntity
  8
0
  6
CONTINUOUS
 62
     7
100
AcDbPolyline
 90
        6
 70
     0
 43
0.0
 10
53.45955393943365
 20
1.233568019451702
 10
53.48539035863366
 20
1.204392184251702
 10
53.50739442743366
 20
1.172227617851703
 10
53.52522401943366
 20
1.137574499451702
 10
53.53860189623365
 20
1.100971686651696
 10
53.54732001623366
 20
1.062988342651699
  0
LINE
  5
72B
330
1F
100
AcDbEntity
  8
0
  6
CONTINUOUS
 62
     7
100
AcDbLine
 10
53.57844024983365
 20
0.718742509051701
 30
0.0
 11
53.57893119383366
 21
0.7141088754517
 31
0.0
  0
LINE
  5
72C
330
1F
100
AcDbEntity
  8
0
  6
CONTINUOUS
 62
     7
100
AcDbLine
 10
53.57813593143365
 20
0.7217716738516984
 30
0.0
 11
53.57844024983365
 21
0.718742509051701
 31
0.0
  0
LINE
  5
72D
330
1F
100
AcDbEntity
  8
0
  6
CONTINUOUS
 62
     7
100
AcDbLine
 10
53.57759063063365
 20
0.7277566386516981
 30
0.0
 11
53.57813593143365
 21
0.7217716738516984
 31
0.0
  0
LINE
  5
72E
330
1F
100
AcDbEntity
  8
0
  6
CONTINUOUS
 62
     7
100
AcDbLine
 10
53.56523493143366
 20
0.8685592082517032
 30
0.0
 11
53.57123192183365
 21
0.801192601851703
 31
0.0
  0
LINE
  5
72F
330
1F
100
AcDbEntity
  8
0
  6
CONTINUOUS
 62
     7
100
AcDbLine
 10
53.55028439703366
 20
1.039443523451701
 30
0.0
 11
53.56523814103365
 21
0.8685214306516968
 31
0.0
  0
LINE
  5
730
330
1F
100
AcDbEntity
  8
0
  6
CONTINUOUS
 62
     7
100
AcDbLine
 10
53.57123192183365
 20
0.801192601851703
 30
0.0
 11
53.57586693623366
 21
0.7478774034517031
 31
0.0
  0
LINE
  5
731
330
1F
100
AcDbEntity
  8
0
  6
CONTINUOUS
 62
     7
100
AcDbLine
 10
53.57586693623366
 20
0.7478774034517031
 30
0.0
 11
53.57759063063365
 21
0.7277566386516981
 31
0.0
  0
LINE
  5
732
330
1F
100
AcDbEntity
  8
0
  6
CONTINUOUS
 62
     7
100
AcDbLine
 10
46.72433302743365
 20
-1.087220374148301
 30
0.0
 11
47.32236778728096
 21
1.144675731775346
 31
0.0
  0
LWPOLYLINE
  5
733
330
1F
100
AcDbEntity
  8
0
  6
CONTINUOUS
 62
     7
100
AcDbPolyline
 90
        3
 70
     0
 43
0.0
 10
68.58538832663365
 20
1.312205968251703
 10
68.62330155543364
 20
1.3207473538517
 10
68.66193375703367
 20
1.324515125051696
  0
LWPOLYLINE
  5
73C
330
1F
100
AcDbEntity
  8
0
  6
CONTINUOUS
 62
     7
100
AcDbPolyline
 90
       10
 70
     0
 43
0.0
 10
62.92845509463365
 20
-0.0797287165483027
 10
63.08865692503365
 20
-0.070991223748301
 10
63.32615589943365
 20
-0.0582510445482996
 10
63.57723622743365
 20
-0.0450113901483036
 10
63.84037793783366
 20
-0.0313383821482987
 10
64.11503973623365
 20
-0.0172413085483001
 10
64.40268160343364
 20
-0.0026267085482985
 10
64.70438508983367
 20
0.0125761234517015
 10
65.02095779063364
 20
0.0284210898516975
 10
65.35284498423365
 20
0.0449416338516997
  0
LWPOLYLINE
  5
73D
330
1F
100
AcDbEntity
  8
0
  6
CONTINUOUS
 62
     7
100
AcDbPolyline
 90
       40
 70
     0
 43
0.0
 10
66.99696310263366
 20
0.1259638370516996
 10
67.06749314103365
 20
0.1295555362517007
 10
67.14615026743365
 20
0.1338769170517011
 10
67.21781434263366
 20
0.1381297874517031
 10
67.28316400663366
 20
0.1423041026516998
 10
67.34273328983366
 20
0.1463904610517019
 10
67.39701896183365
 20
0.1503819138517031
 10
67.44649739543365
 20
0.1542754130516997
 10
67.49159828023366
 20
0.1580714786516992
 10
67.53269215863366
 20
0.1617701058517014
 10
67.57014261463365
 20
0.1653737874516992
 10
67.60438677783366
 20
0.1688964514517011
 10
67.63588070743364
 20
0.1723609890516968
 10
67.66503689943366
 20
0.1757941842516999
 10
67.69219035543367
 20
0.1792213250516994
 10
67.71758757783366
 20
0.1826626898517034
 10
67.74146359383365
 20
0.1861421890517008
 10
67.76405425623366
 20
0.1896898658516974
 10
67.78562518583365
 20
0.1933488034516983
 10
67.80641644183365
 20
0.1971689026516969
 10
67.82666025623365
 20
0.2012102178517026
 10
67.84661031223365
 20
0.2055514434516965
 10
67.86659603863364
 20
0.2103089458517005
 10
67.88699997943365
 20
0.2156446306517026
 10
67.90824972823364
 20
0.2217800322517007
 10
67.93075727383365
 20
0.2289979794516981
 10
67.95491027063366
 20
0.2376590434516999
 10
67.98110173623365
 20
0.2482402386516966
 10
68.00988312663367
 20
0.2614520466516979
 10
68.04161267223367
 20
0.2781490002517017
 10
68.07616860503364
 20
0.2991916434516994
 10
68.11293879863365
 20
0.3253585250516977
 10
68.15075882263366
 20
0.3571459506516987
 10
68.18825804183365
 20
0.3948297522517023
 10
68.22431983383364
 20
0.4387614722516986
 10
68.25742524663366
 20
0.4886413410516966
 10
68.28615276343365
 20
0.5439694146516985
 10
68.30953378743365
 20
0.6049099602517032
 10
68.32642311223366
 20
0.6712987858516968
 10
68.33288013303365
 20
0.713620017851703
  0
LINE
  5
740
330
1F
100
AcDbEntity
  8
0
  6
CONTINUOUS
 62
     7
100
AcDbLine
 10
65.35284498423365
 20
0.0449416338516997
 30
0.0
 11
66.65025271861854
 21
0.1089425545560154
 31
0.0
  0
LWPOLYLINE
  5
741
330
1F
100
AcDbEntity
  8
0
  6
CONTINUOUS
 62
     7
100
AcDbPolyline
 90
        5
 70
     0
 43
0.0
 10
66.13565860663365
 20
-0.8160940333482997
 10
66.17670984136687
 20
-0.3468762867889643
 42
-0.3748056717404934
 10
66.65025271861853
 20
0.1089425545560147
 10
66.83222323703365
 20
0.1178897298516972
 10
66.99481903383366
 20
0.1258630658517035
  0
LINE
  5
747
330
1F
100
AcDbEntity
  8
0
  6
CONTINUOUS
 62
     7
100
AcDbLine
 10
84.24022169463365
 20
1.871179419451699
 30
0.0
 11
67.04790423383366
 21
1.267876536251698
 31
0.0
  0
LINE
  5
756
330
1F
100
AcDbEntity
  8
0
  6
CONTINUOUS
 62
     7
100
AcDbLine
 10
37.67164494263365
 20
1.871179419451699
 30
0.0
 11
42.07001710217524
 21
1.716732635825104
 31
0.0
  0
LWPOLYLINE
  5
75B
330
1F
100
AcDbEntity
  8
0
  6
CONTINUOUS
 62
     7
100
AcDbPolyline
 90
       10
 70
     0
 43
0.0
 10
55.26160974823909
 20
0.1089372636210401
 10
56.55902094743366
 20
0.0449416690517026
 10
56.89090808023365
 20
0.0284211282517006
 10
57.20748073783365
 20
0.0125761650516978
 10
57.50918419063365
 20
-0.002626665348302
 10
57.79682603063366
 20
-0.0172412637483035
 10
58.07148779863366
 20
-0.0313383357483019
 10
58.33462946903365
 20
-0.0450113405482995
 10
58.58570974903366
 20
-0.0582509917483023
 10
58.82320866263365
 20
-0.0709911661483034
  0
LWPOLYLINE
  5
75F
330
1F
100
AcDbEntity
  8
0
  6
CONTINUOUS
 62
     7
100
AcDbPolyline
 90
       17
 70
     0
 43
0.0
 10
58.82320866263365
 20
-0.0709911661483034
 10
58.98325655863366
 20
-0.0797199197482996
 10
58.98495530583366
 20
-0.0798248141483029
 10
58.98743644823365
 20
-0.080009596548301
 10
58.99094431063366
 20
-0.0803313629483
 10
58.99583055223367
 20
-0.0808945677483024
 10
59.00243232343366
 20
-0.0818665725483001
 10
59.01062872023366
 20
-0.0834135293482987
 10
59.01999913943366
 20
-0.0856537405483025
 10
59.03006880823365
 20
-0.0886420525483018
 10
59.04060447543366
 20
-0.0924454013483001
 10
59.05143036343366
 20
-0.0971224781483002
 10
59.06237095703366
 20
-0.1027082013482996
 10
59.07327918423366
 20
-0.1092281005483002
 10
59.08401210423366
 20
-0.1166897453483031
 10
59.09442935703365
 20
-0.1250803709482966
 10
59.10426105463366
 20
-0.1342316365483001
  0
LWPOLYLINE
  5
766
330
1F
100
AcDbEntity
  8
0
  6
CONTINUOUS
 62
     7
100
AcDbPolyline
 90
        7
 70
     0
 43
0.0
 10
53.24993288023365
 20
1.324515125051696
 10
53.28866916343366
 20
1.3207306066517
 10
53.32668048343365
 20
1.312146923451699
 10
53.36332916663366
 20
1.298898707451698
 10
53.39804482743366
 20
1.281191704251696
 10
53.43028708183366
 20
1.259301232251701
 10
53.45955408983365
 20
1.233567869051697
  0
LINE
  5
768
330
1F
100
AcDbEntity
  8
0
  6
CONTINUOUS
 62
     7
100
AcDbLine
 10
59.10426268663365
 20
-0.1342333277482979
 30
0.0
 11
59.46351584023366
 21
-0.4934864813482989
 31
0.0
  0
LWPOLYLINE
  5
769
330
1F
100
AcDbEntity
  8
0
  6
HIDDEN
 62
     8
100
AcDbPolyline
 90
        3
 70
     0
 43
0.0
 10
50.07769344663365
 20
15.0944359858517
 10
50.05280903863366
 20
15.1786906498517
 10
50.02816920663366
 20
15.2634898626517
  0
LWPOLYLINE
  5
76A
330
1F
100
AcDbEntity
  8
0
  6
HIDDEN
 62
     8
100
AcDbPolyline
 90
       24
 70
     0
 43
0.0
 10
50.02816920663366
 20
15.2634898626517
 10
50.01701855063366
 20
15.30797272345169
 10
50.00928757303365
 20
15.35176468985169
 10
50.00484723543365
 20
15.39468851385169
 10
50.00355963063365
 20
15.43662699545169
 10
50.00529310583365
 20
15.47749129945169
 10
50.00992164343365
 20
15.51717405465169
 10
50.01733698103365
 20
15.55564658905169
 10
50.02743325623366
 20
15.5928197106517
 10
50.04011816503365
 20
15.6286377890517
 10
50.05533769303365
 20
15.6631038306517
 10
50.07301108503366
 20
15.6961206802517
 10
50.09311901783365
 20
15.7276882594517
 10
50.11563751223365
 20
15.75775472505169
 10
50.14052479703366
 20
15.78622809145169
 10
50.16784163223365
 20
15.8131076674517
 10
50.19755144023366
 20
15.83826202905169
 10
50.22969350423366
 20
15.8616159890517
 10
50.26433273303366
 20
15.8830804978517
 10
50.30144755063366
 20
15.90249209145169
 10
50.34116185143366
 20
15.9197451042517
 10
50.38343296663366
 20
15.9346330114517
 10
50.42833654743365
 20
15.9469826194517
 10
50.47587077463365
 20
15.95657426585169
  0
LWPOLYLINE
  5
76B
330
1F
100
AcDbEntity
  8
0
  6
CONTINUOUS
 62
     7
100
AcDbPolyline
 90
       42
 70
     0
 43
0.0
 10
53.57898657943366
 20
0.7136193490516974
 10
53.58539760823365
 20
0.6715389970516981
 10
53.60255045943365
 20
0.6042299378516987
 10
53.62637600023365
 20
0.5425073202517013
 10
53.65569823063365
 20
0.4865249906517022
 10
53.68949172343365
 20
0.4361537986517022
 10
53.72626124983366
 20
0.3919251426517007
 10
53.76443123383365
 20
0.3541257090517007
 10
53.80283152183366
 20
0.3223757138516987
 10
53.84000398423365
 20
0.2963934098517029
 10
53.87478789783366
 20
0.2756169138516995
 10
53.90660755383366
 20
0.2592107314517023
 10
53.93539165303366
 20
0.2462753714517021
 10
53.96160874743365
 20
0.2359124882516994
 10
53.98578911543365
 20
0.2274324562516981
 10
54.00834630423366
 20
0.2203600978517031
 10
54.02968598583366
 20
0.214337699451697
 10
54.05025388823366
 20
0.2090815826516987
 10
54.07048898583365
 20
0.204375619451703
 10
54.09078172503366
 20
0.2000628514516975
 10
54.11145481623365
 20
0.1960334434516966
 10
54.13276358903365
 20
0.192211969851698
 10
54.15494831383365
 20
0.1885399138516988
 10
54.17827645783365
 20
0.1849661378517027
 10
54.20301300823366
 20
0.1814510050516986
 10
54.22940274103366
 20
0.1779657362517
 10
54.25769148183365
 20
0.1744873362517012
 10
54.28816129143366
 20
0.1709936738516973
 10
54.32119957303366
 20
0.1674567794516975
 10
54.35725909623365
 20
0.1638498482517008
 10
54.39681772983365
 20
0.1601521266517025
 10
54.44029663383366
 20
0.1563546370516988
 10
54.48807761303366
 20
0.152456032251699
 10
54.54057448183365
 20
0.1484557410516984
 10
54.59827239863366
 20
0.1443543906516993
 10
54.66166154103365
 20
0.1401593826517029
 10
54.73126177623366
 20
0.1358811106517024
 10
54.80765631063365
 20
0.1315317490517032
 10
54.89167736823365
 20
0.1271227426517001
 10
55.26160974823909
 20
0.1089372636210401
 42
-0.3748083287900977
 10
55.73515727912361
 20
-0.3468818068109645
 10
55.77620803063366
 20
-0.8160940333482997
  0
LINE
  5
76C
330
1F
100
AcDbEntity
  8
0
  6
CONTINUOUS
 62
     7
100
AcDbLine
 10
53.54732003383364
 20
1.062988206651702
 30
0.0
 11
53.55028439703366
 21
1.039443523451701
 31
0.0
  0
LINE
  5
76D
330
1F
100
AcDbEntity
  8
0
  6
CONTINUOUS
 62
     7
100
AcDbLine
 10
53.57898566903365
 20
0.7136192690516979
 30
0.0
 11
53.57903919223366
 21
0.7131710290517006
 31
0.0
  0
LINE
  5
76E
330
1F
100
AcDbEntity
  8
0
  6
CONTINUOUS
 62
     7
100
AcDbLine
 10
53.57893119383366
 20
0.7141088754517
 30
0.0
 11
53.57898566903365
 21
0.7136192690516979
 31
0.0
  0
LWPOLYLINE
  5
770
330
1F
100
AcDbEntity
  8
0
  6
HIDDEN
 62
     8
100
AcDbPolyline
 90
       20
 70
     0
 43
0.0
 10
53.90194849783365
 20
15.54795473785169
 10
53.90496907063366
 20
15.5125528594517
 10
53.90522066903366
 20
15.4776721890517
 10
53.90278761943366
 20
15.44390742265169
 10
53.89785661303366
 20
15.41166613625169
 10
53.89054257783365
 20
15.3807669762517
 10
53.88099541943365
 20
15.3513916738517
 10
53.86938140823366
 20
15.32368745945169
 10
53.85585552343365
 20
15.2977296242517
 10
53.84043292663366
 20
15.2733785778517
 10
53.82323291223365
 20
15.2507381090517
 10
53.80443044503365
 20
15.2299475666517
 10
53.78421006743366
 20
15.21110517305169
 10
53.76258374743366
 20
15.1941471538517
 10
53.73960268983365
 20
15.1790884210517
 10
53.71527302263366
 20
15.16594401465169
 10
53.68968504663366
 20
15.1547969650517
 10
53.66286624823366
 20
15.14571079385169
 10
53.63484039223366
 20
15.13877197945169
 10
53.60576384183366
 20
15.13410806585169
  0
LWPOLYLINE
  5
773
330
1F
100
AcDbEntity
  8
0
  6
HIDDEN
 62
     8
100
AcDbPolyline
 90
        3
 70
     0
 43
0.0
 10
53.90194849783365
 20
15.54795473785169
 10
53.89532534903366
 20
15.60255671865169
 10
53.88897063063366
 20
15.6574699202517
  0
LWPOLYLINE
  5
776
330
1F
100
AcDbEntity
  8
0
  6
HIDDEN
 62
     8
100
AcDbPolyline
 90
        7
 70
     0
 43
0.0
 10
53.80082933303365
 20
15.9480714050517
 10
53.80736908343365
 20
15.9350243090517
 10
53.83143250743366
 20
15.88139410425169
 10
53.85176396343366
 20
15.8262806882517
 10
53.86822282743366
 20
15.7701093362517
 10
53.88064866263365
 20
15.71356928345169
 10
53.88897063063366
 20
15.6574699202517
  0
LWPOLYLINE
  5
777
330
1F
100
AcDbEntity
  8
0
  6
CONTINUOUS
 62
     7
100
AcDbPolyline
 90
       18
 70
     0
 43
0.0
 10
59.76868815703365
 20
16.4720449682517
 10
59.77360331223366
 20
16.3672127170517
 10
59.78897934903366
 20
16.2583749010517
 10
59.81428035703366
 20
16.1519446850517
 10
59.84917422583365
 20
16.0487227698517
 10
59.89319650583365
 20
15.94964196345169
 10
59.94602753303365
 20
15.8551613826517
 10
60.00719723863365
 20
15.76601729305169
 10
60.07643979863365
 20
15.6826164850517
 10
60.15313005783365
 20
15.60579038265169
 10
60.23694431543365
 20
15.53598078905169
 10
60.32706269463366
 20
15.4740040706517
 10
60.42301381783365
 20
15.4203181442517
 10
60.52373664983366
 20
15.37563561145169
 10
60.62853833463365
 20
15.3403511474517
 10
60.73615123383365
 20
15.3149407826517
 10
60.84570308503366
 20
15.29961079065169
 10
60.95593331863366
 20
15.2945031842517
  0
LINE
  5
779
330
1F
100
AcDbEntity
  8
CENTER
100
AcDbLine
 10
60.95593331863366
 20
20.57214886530041
 30
0.0
 11
60.95593331863365
 21
12.26217747805665
 31
0.0
  0
LWPOLYLINE
  5
77A
330
1F
100
AcDbEntity
  8
0
  6
CONTINUOUS
 62
     7
100
AcDbPolyline
 90
       18
 70
     0
 43
0.0
 10
59.76843331863366
 20
16.4720330210517
 10
59.77332073783365
 20
16.5792512434517
 10
59.78813206263366
 20
16.68661189945169
 10
59.81291808663365
 20
16.7927900882517
 10
59.84758330263366
 20
16.89669355705169
 10
59.89175475383365
 20
16.9969822946517
 10
59.94511766423365
 20
17.0928863906517
 10
60.00708724663365
 20
17.1833533058517
 10
60.07727678263365
 20
17.2678185298517
 10
60.15491332183366
 20
17.3453538274517
 10
60.23952948663365
 20
17.4154912914517
 10
60.33017087543366
 20
17.4774415266517
 10
60.42629688503366
 20
17.5308377778517
 10
60.52688915383366
 20
17.5751068034517
 10
60.63129008823366
 20
17.6099524098517
 10
60.73825650423366
 20
17.6349734866517
 10
60.84689530423366
 20
17.6500207970517
 10
60.95593331863366
 20
17.6550183570517
  0
LWPOLYLINE
  5
77B
330
1F
100
AcDbEntity
  8
0
  6
HIDDEN
 62
     8
100
AcDbPolyline
 90
        8
 70
     0
 43
0.0
 10
71.49673131863366
 20
14.7572879506517
 10
71.45269139223365
 20
14.7424307858517
 10
71.40859870743367
 20
14.73109524185169
 10
71.36452715863365
 20
14.72317213625169
 10
71.32099770263366
 20
14.71865307065169
 10
71.27849644983365
 20
14.7174595474517
 10
71.23770215543365
 20
14.71943001145169
 10
71.19943203383366
 20
14.7242419298517
  0
LWPOLYLINE
  5
77C
330
1F
100
AcDbEntity
  8
0
  6
HIDDEN
 62
     8
100
AcDbPolyline
 90
       18
 70
     0
 43
0.0
 10
50.41513535703366
 20
14.7572879266517
 10
50.57877644663366
 20
14.6988094578517
 10
50.75970742903366
 20
14.6415441954517
 10
50.94815623223365
 20
14.5889254226517
 10
51.14372548663366
 20
14.54083148505169
 10
51.34598917623365
 20
14.4971561042517
 10
51.55452641943365
 20
14.45779746905169
 10
51.76900248823366
 20
14.4226460706517
 10
51.98909645143366
 20
14.39160305945169
 10
52.21447290103365
 20
14.3645829170517
 10
52.44475979703366
 20
14.34151251865169
 10
52.67957214583365
 20
14.32232512185169
 10
52.91851831223365
 20
14.30695852345169
 10
53.16119958423365
 20
14.2953543746517
 10
53.40721173303365
 20
14.28745749625169
 10
53.65614415543365
 20
14.28321550105169
 10
53.90758931543366
 20
14.28257835865169
 10
54.15838003383366
 20
14.28544807065169
  0
LWPOLYLINE
  5
77D
330
1F
100
AcDbEntity
  8
0
  6
HIDDEN
 62
     8
100
AcDbPolyline
 90
       13
 70
     0
 43
0.0
 10
50.41513536023366
 20
14.7572879346517
 10
50.37325778743365
 20
14.7749128434517
 10
50.33225480023364
 20
14.7957950066517
 10
50.29323050583365
 20
14.8194328530517
 10
50.25675787703366
 20
14.8453922770517
 10
50.22316153943365
 20
14.87328482585169
 10
50.19254343543366
 20
14.9028504002517
 10
50.16511858743366
 20
14.9336854354517
 10
50.14103961623366
 20
14.9653584034517
 10
50.12029103383365
 20
14.99758311545169
 10
50.10285713623366
 20
15.0300434210517
 10
50.08867925143365
 20
15.0624491474517
 10
50.07769344663365
 20
15.0944359858517
  0
LWPOLYLINE
  5
77E
330
1F
100
AcDbEntity
  8
0
  6
HIDDEN
 62
     8
100
AcDbPolyline
 90
        4
 70
     0
 43
0.0
 10
53.79120325783365
 20
15.9641435890517
 10
53.79027181303366
 20
15.9651762722517
 10
53.79227967383365
 20
15.9624915042517
 10
53.79712687383365
 20
15.9548645874517
  0
LINE
  5
77F
330
1F
100
AcDbEntity
  8
0
  6
CONTINUOUS
 62
     7
100
AcDbLine
 10
62.13848368503366
 20
16.5799300962517
 30
0.0
 11
62.14343331863366
 21
16.4720330210517
 31
0.0
  0
LWPOLYLINE
  5
780
330
1F
100
AcDbEntity
  8
0
  6
CONTINUOUS
 62
     7
100
AcDbPolyline
 90
       18
 70
     0
 43
0.0
 10
62.14343331863366
 20
16.4720330210517
 10
62.13826246423366
 20
16.3617563282517
 10
62.12288631063366
 20
16.2529224946517
 10
62.09758955223365
 20
16.14650883865169
 10
62.06269804663365
 20
16.04328997145169
 10
62.01867958743366
 20
15.9442136226517
 10
61.96584820183366
 20
15.84972879865169
 10
61.90468285943365
 20
15.76058787385169
 10
61.83544121783365
 20
15.6771850402517
 10
61.75875321463365
 20
15.6003583538517
 10
61.67493986903366
 20
15.5305468546517
 10
61.58482023863366
 20
15.4685669714517
 10
61.48887144983365
 20
15.41488023065169
 10
61.38814322903365
 20
15.37019353145169
 10
61.28334489943365
 20
15.3349086562517
 10
61.17572117143366
 20
15.30949463065169
 10
61.06617615703366
 20
15.2941647266517
 10
60.95593331863366
 20
15.2890559490517
  0
LWPOLYLINE
  5
781
330
1F
100
AcDbEntity
  8
0
  6
HIDDEN
 62
     8
100
AcDbPolyline
 90
        3
 70
     0
 43
0.0
 10
68.11475514743367
 20
15.9548910354517
 10
68.11959614583367
 20
15.9625045474517
 10
68.12149815223367
 20
15.9650579218517
  0
LWPOLYLINE
  5
782
330
1F
100
AcDbEntity
  8
0
  6
HIDDEN
 62
     8
100
AcDbPolyline
 90
       28
 70
     0
 43
0.0
 10
68.12149815223367
 20
15.9650579218517
 10
68.12159569943367
 20
15.96517732825169
 10
68.12008329143364
 20
15.9635292114517
 10
68.11457418103365
 20
15.9581739218517
 10
68.10468068023365
 20
15.94965228985169
 10
68.09005137943365
 20
15.9384201554517
 10
68.07036204823365
 20
15.92487701145169
 10
68.04528575223367
 20
15.9093686690517
 10
68.01447086423365
 20
15.8921953186517
 10
67.97762308983365
 20
15.8736687826517
 10
67.93456961303366
 20
15.85413307225169
 10
67.88519639223366
 20
15.8339209618517
 10
67.82943774263364
 20
15.81334821305169
 10
67.76729020023364
 20
15.7927180002517
 10
67.69881705463365
 20
15.7723197874517
 10
67.62412601463364
 20
15.75242105305169
 10
67.54336926423366
 20
15.73326825305169
 10
67.45675723703365
 20
15.7150901826517
 10
67.36454318583366
 20
15.6980940322517
 10
67.26701750583365
 20
15.6824651458517
 10
67.16450881623365
 20
15.6683681362517
 10
67.05737663063366
 20
15.65594662745169
 10
66.94600394263367
 20
15.6453236018517
 10
66.83078382103366
 20
15.6366018498517
 10
66.71212634743366
 20
15.62986647705169
 10
66.59046012343364
 20
15.6251860114517
 10
66.46623141463365
 20
15.62261299705169
 10
66.34327100503364
 20
15.62216782265169
  0
LWPOLYLINE
  5
786
330
1F
100
AcDbEntity
  8
0
  6
HIDDEN
 62
     8
100
AcDbPolyline
 90
       18
 70
     0
 43
0.0
 10
68.11103730903366
 20
15.9480714146517
 10
68.13196385623365
 20
15.98647701465169
 10
68.16239751063367
 20
16.0351143778517
 10
68.19550993623366
 20
16.0806937138517
 10
68.23096562743365
 20
16.1229547554517
 10
68.26833666583365
 20
16.1616102818517
 10
68.30728297943366
 20
16.1965477266517
 10
68.34763166263366
 20
16.2278179314517
 10
68.38898535703364
 20
16.25530623705169
 10
68.43094146103365
 20
16.27896779065169
 10
68.47337111383365
 20
16.2989419394517
 10
68.51619396983366
 20
16.31535506265169
 10
68.55917316503365
 20
16.32825701945169
 10
68.60210012183364
 20
16.33772365785169
 10
68.64499858583366
 20
16.3438690786517
 10
68.68786947063364
 20
16.3467529538517
 10
68.73072160023366
 20
16.3463908722517
 10
68.77353235703364
 20
16.3427561506517
  0
LINE
  5
787
330
1F
100
AcDbEntity
  8
0
  6
CONTINUOUS
 62
     7
100
AcDbLine
 10
92.90490818743364
 20
22.1908505410517
 30
0.0
 11
92.98368961143365
 21
22.2066802386517
 31
0.0
  0
LINE
  5
788
330
1F
100
AcDbEntity
  8
0
  6
CONTINUOUS
 62
     7
100
AcDbLine
 10
91.38469183703364
 20
21.89378612345169
 30
0.0
 11
90.15876937303366
 21
21.6545304610517
 31
0.0
  0
LINE
  5
789
330
1F
100
AcDbEntity
  8
0
  6
CONTINUOUS
 62
     7
100
AcDbLine
 10
90.15876937303366
 20
21.6545304610517
 30
0.0
 11
89.82244091703364
 21
21.5889468338517
 31
0.0
  0
LWPOLYLINE
  5
78A
330
1F
100
AcDbEntity
  8
0
  6
CONTINUOUS
 62
     7
100
AcDbPolyline
 90
       10
 70
     0
 43
0.0
 10
92.90491189143365
 20
22.1908513938517
 10
92.90408403863366
 20
22.19069085465169
 10
92.87222971703366
 20
22.18392295865169
 10
92.80826381143365
 20
22.1709546274517
 10
92.70789954263367
 20
22.15118908025169
 10
92.57440239223365
 20
22.1251924498517
 10
92.40758510583365
 20
22.09283964665169
 10
92.20532097303365
 20
22.05360703865169
 10
91.96637221623365
 20
22.0071554946517
 10
91.38469183703364
 20
21.89378612345169
  0
LINE
  5
78B
330
1F
100
AcDbEntity
  8
0
  6
CONTINUOUS
 62
     7
100
AcDbLine
 10
89.82244091703364
 20
21.5889468338517
 30
0.0
 11
89.29119870903367
 21
21.4857445250517
 31
0.0
  0
LWPOLYLINE
  5
78C
330
1F
100
AcDbEntity
  8
0
  6
CONTINUOUS
 62
     7
100
AcDbPolyline
 90
        9
 70
     0
 43
0.0
 10
92.91643146263366
 20
22.19502372985169
 10
92.82983634423365
 20
22.17974324665169
 10
92.70746473463365
 20
22.1576762898517
 10
92.54890293783365
 20
22.1283909858517
 10
92.35353613783365
 20
22.0913815394517
 10
92.11992187543364
 20
22.0459645506517
 10
91.84491768823367
 20
21.99113065465169
 10
91.52588685463365
 20
21.9260124898517
 10
91.16972930903367
 20
21.85184547385169
  0
LINE
  5
78D
330
1F
100
AcDbEntity
  8
0
  6
CONTINUOUS
 62
     7
100
AcDbLine
 10
92.98368960343365
 20
22.20668028825169
 30
0.0
 11
92.91643146263366
 21
22.19502372985169
 31
0.0
  0
LWPOLYLINE
  5
78E
330
1F
100
AcDbEntity
  8
0
  6
CONTINUOUS
 62
     7
100
AcDbPolyline
 90
       22
 70
     0
 43
0.0
 10
90.16293599703365
 20
21.6331630194517
 10
89.85149246103365
 20
21.5799060578517
 10
89.34832094423365
 20
21.4951939138517
 10
88.82432637623365
 20
21.4085126322517
 10
88.28408426263365
 20
21.3204842450517
 10
87.72766870583366
 20
21.2310290834517
 10
87.15194764663365
 20
21.1397115330517
 10
86.55302521303367
 20
21.0460617218517
 10
85.92763016183367
 20
20.95000754585169
 10
85.27283656983366
 20
20.8517253202517
 10
84.58507071063365
 20
20.7517255794517
 10
83.86234677143367
 20
20.6513131314517
 10
83.11806777463365
 20
20.5541271554517
 10
82.37239504823364
 20
20.46446780185169
 10
81.64638192343366
 20
20.3857955346517
 10
80.94444102263366
 20
20.3183875618517
 10
80.25104453783365
 20
20.2602736194517
 10
79.54850326103366
 20
20.2097911714517
 10
78.82049405783366
 20
20.16557833785169
 10
78.05062216663364
 20
20.1266845250517
 10
77.22148958903367
 20
20.09249049785169
 10
76.32948657143365
 20
20.06294307385169
  0
LWPOLYLINE
  5
78F
330
1F
100
AcDbEntity
  8
0
  6
HIDDEN
 62
     8
100
AcDbPolyline
 90
        4
 70
     0
 43
0.0
 10
53.60576384183366
 20
15.13410806585169
 10
52.63986372503365
 20
15.0124953026517
 10
51.67536247223365
 20
14.8758683474517
 10
50.71243460183366
 20
14.7242419298517
  0
LWPOLYLINE
  5
790
330
1F
100
AcDbEntity
  8
0
  6
HIDDEN
 62
     8
100
AcDbPolyline
 90
        8
 70
     0
 43
0.0
 10
50.71243460183366
 20
14.7242419298517
 10
50.67416224503364
 20
14.71942981625169
 10
50.63336767543365
 20
14.7174595218517
 10
50.59086734903365
 20
14.71865317625169
 10
50.54733834103366
 20
14.72317229785169
 10
50.50326705303366
 20
14.73109543385169
 10
50.45917440663366
 20
14.7424310354517
 10
50.41513536023366
 20
14.7572879346517
  0
LWPOLYLINE
  5
791
330
1F
100
AcDbEntity
  8
0
  6
CONTINUOUS
 62
     7
100
AcDbPolyline
 90
       18
 70
     0
 43
0.0
 10
60.95593331863366
 20
15.2945031842517
 10
61.06611359543365
 20
15.29960615225169
 10
61.17560033303365
 20
15.3149192002517
 10
61.28317294263366
 20
15.3403067682517
 10
61.38793118903365
 20
15.3755582466517
 10
61.48863210583365
 20
15.4202077554517
 10
61.58456812023366
 20
15.47385744505169
 10
61.67468877143366
 20
15.5358038370517
 10
61.75851616183366
 20
15.6055889778517
 10
61.83522916983366
 20
15.68239948825169
 10
61.90450369463365
 20
15.76579805945169
 10
61.96570645143365
 20
15.8549477986517
 10
62.01857632183365
 20
15.9494545650517
 10
62.06263240183366
 20
16.0485690722517
 10
62.09755618263366
 20
16.15183995545169
 10
62.12287479223365
 20
16.2583088594517
 10
62.13826084663365
 20
16.3671863570517
 10
62.14317841943366
 20
16.4720449746517
  0
LWPOLYLINE
  5
792
330
1F
100
AcDbEntity
  8
0
  6
HIDDEN
 62
     8
100
AcDbPolyline
 90
       17
 70
     0
 43
0.0
 10
54.60607897623365
 20
14.29857984025169
 10
55.39563155223365
 20
14.32838248985169
 10
56.18888004823364
 20
14.3543391154517
 10
56.98263055383365
 20
14.3763162258517
 10
57.77679321943365
 20
14.3943067458517
 10
58.57127723383366
 20
14.4083049938517
 10
59.36599351223365
 20
14.4183067282517
 10
60.16086117463366
 20
14.42430911705169
 10
60.95580444343365
 20
14.42631052665169
 10
61.75074770263365
 20
14.42431041465169
 10
62.54561535703366
 20
14.4183093234517
 10
63.34033167223365
 20
14.4083088866517
 10
64.13481577943366
 20
14.39431193305169
 10
64.92897856983365
 20
14.3763227074517
 10
65.72272919703365
 20
14.35434688985169
 10
66.51597778743365
 20
14.3283915570517
 10
67.30578766103366
 20
14.29857984025169
  0
LWPOLYLINE
  5
793
330
1F
100
AcDbEntity
  8
0
  6
HIDDEN
 62
     8
100
AcDbPolyline
 90
        4
 70
     0
 43
0.0
 10
54.15838002263366
 20
14.28544806905169
 10
54.30607275063366
 20
14.28868958745169
 10
54.45727738103365
 20
14.2931256274517
 10
54.60607897783365
 20
14.29857984025169
  0
LWPOLYLINE
  5
794
330
1F
100
AcDbEntity
  8
0
  6
HIDDEN
 62
     8
100
AcDbPolyline
 90
       27
 70
     0
 43
0.0
 10
55.56859563703365
 20
15.62216782265169
 10
55.44535879063365
 20
15.6226163218517
 10
55.32113354583366
 20
15.6251940818517
 10
55.19947181463366
 20
15.62987924985169
 10
55.08081986423365
 20
15.6366192530517
 10
54.96560628023365
 20
15.6453455202517
 10
54.85424112663366
 20
15.65597290745169
 10
54.74711745303366
 20
15.66839857945169
 10
54.64461824503366
 20
15.6824995010517
 10
54.54710300183365
 20
15.6981319906517
 10
54.45490031223365
 20
15.71513137145169
 10
54.36830047863365
 20
15.7333122418517
 10
54.28755664343365
 20
15.7524673554517
 10
54.21287909783366
 20
15.77236786905169
 10
54.14441990583365
 20
15.7927672738517
 10
54.08228669143365
 20
15.81339802905169
 10
54.02654263863365
 20
15.8339706018517
 10
53.97718412183365
 20
15.8541817794517
 10
53.93414531223366
 20
15.87371575225169
 10
53.89731202743365
 20
15.89223969785169
 10
53.86651131063366
 20
15.9094095634517
 10
53.84144869303366
 20
15.92491351545169
 10
53.82177233623366
 20
15.9384513970517
 10
53.80715521303366
 20
15.94967735065169
 10
53.79727308023365
 20
15.95819172985169
 10
53.79177456183366
 20
15.9635384018517
 10
53.79120325783365
 20
15.9641435890517
  0
LWPOLYLINE
  5
795
330
1F
100
AcDbEntity
  8
0
  6
HIDDEN
 62
     8
100
AcDbPolyline
 90
       18
 70
     0
 43
0.0
 10
67.75348660183365
 20
14.28544807065169
 10
68.00403245943366
 20
14.28257947385169
 10
68.25548183703364
 20
14.2832131650517
 10
68.50441842423364
 20
14.2874517090517
 10
68.75043459703366
 20
14.2953451122517
 10
68.99311992343365
 20
14.3069457490517
 10
69.23207026423367
 20
14.3223087826517
 10
69.46688697623367
 20
14.3414925602517
 10
69.69717841783367
 20
14.3645592658517
 10
69.92255957143365
 20
14.3915756290517
 10
70.14265838583367
 20
14.42261475385169
 10
70.35713949303366
 20
14.4577621410517
 10
70.56568201303367
 20
14.4971166290517
 10
70.76795128983366
 20
14.5407877218517
 10
70.96352663863365
 20
14.5888772658517
 10
71.15198224663365
 20
14.64149159385169
 10
71.33292090583364
 20
14.6987524418517
 10
71.49673132183366
 20
14.7572879442517
  0
LWPOLYLINE
  5
796
330
1F
100
AcDbEntity
  8
0
  6
HIDDEN
 62
     8
100
AcDbPolyline
 90
        4
 70
     0
 43
0.0
 10
67.30578765943366
 20
14.29857984025169
 10
67.45433741303367
 20
14.2931339506517
 10
67.60554296663366
 20
14.28869601625169
 10
67.75348661463366
 20
14.28544806905169
  0
LWPOLYLINE
  5
797
330
1F
100
AcDbEntity
  8
0
  6
CONTINUOUS
 62
     7
100
AcDbPolyline
 90
       18
 70
     0
 43
0.0
 10
60.95593331863366
 20
15.2890559490517
 10
60.84576297463365
 20
15.29415799545169
 10
60.73626694263365
 20
15.30947184665169
 10
60.62870296823366
 20
15.33485688665169
 10
60.52393974583365
 20
15.3701093410517
 10
60.42324310423365
 20
15.41475623545169
 10
60.32730436823366
 20
15.4684065730517
 10
60.23718509783365
 20
15.5303511250517
 10
60.15335757143365
 20
15.60013526265169
 10
60.07664347703366
 20
15.67694565785169
 10
60.00736955383366
 20
15.76034208185169
 10
59.94616405943366
 20
15.8494943282517
 10
59.89329625463366
 20
15.9439954690517
 10
59.84923799703366
 20
16.04311220985169
 10
59.81431309623365
 20
16.14638352985169
 10
59.78899085143366
 20
16.2528668738517
 10
59.77360500503365
 20
16.3617474770517
 10
59.76843331863366
 20
16.4720330210517
  0
LWPOLYLINE
  5
798
330
1F
100
AcDbEntity
  8
0
  6
HIDDEN
 62
     8
100
AcDbPolyline
 90
        4
 70
     0
 43
0.0
 10
71.19943203383366
 20
14.7242419298517
 10
70.23650417463366
 20
14.8758683458517
 10
69.27200291863366
 20
15.0124953026517
 10
68.30610279543364
 20
15.13410806585169
  0
LWPOLYLINE
  5
799
330
1F
100
AcDbEntity
  8
0
  6
HIDDEN
 62
     8
100
AcDbPolyline
 90
       20
 70
     0
 43
0.0
 10
68.30610279543364
 20
15.13410806585169
 10
68.27702605783366
 20
15.13877201625169
 10
68.24900002903365
 20
15.1457108994517
 10
68.22218107383367
 20
15.15479716505169
 10
68.19659295703366
 20
15.16594433465169
 10
68.17226317303365
 20
15.17908888345169
 10
68.14928201783366
 20
15.19414777945169
 10
68.12765561463365
 20
15.2111059906517
 10
68.10743515543364
 20
15.22994861785169
 10
68.08863263223367
 20
15.25073942585169
 10
68.07143260983366
 20
15.27338016345169
 10
68.05601006103365
 20
15.2977314530517
 10
68.04248429943365
 20
15.32368943705169
 10
68.03087055863366
 20
15.3513934482517
 10
68.02132375543365
 20
15.38076805785169
 10
68.01401006583365
 20
15.4116659282517
 10
68.00907909143365
 20
15.4439067682517
 10
68.00664601143364
 20
15.47767085945169
 10
68.00689749463365
 20
15.5125513218517
 10
68.00991813943366
 20
15.54795473785169
  0
LINE
  5
79A
330
1F
100
AcDbEntity
  8
0
  6
CONTINUOUS
 62
     7
100
AcDbLine
 10
29.00732872503366
 20
22.1929251154517
 30
0.0
 11
28.92819077623365
 21
22.2066779234517
 31
0.0
  0
LWPOLYLINE
  5
79B
330
1F
100
AcDbEntity
  8
0
  6
CONTINUOUS
 62
     7
100
AcDbPolyline
 90
        3
 70
     0
 43
0.0
 10
32.62329482263365
 20
21.4852555842517
 10
32.52889567863365
 20
21.5035020114517
 10
32.05899545943365
 20
21.59487413625169
  0
LWPOLYLINE
  5
79C
330
1F
100
AcDbEntity
  8
0
  6
CONTINUOUS
 62
     7
100
AcDbPolyline
 90
        9
 70
     0
 43
0.0
 10
29.93490812823365
 20
22.0092158274517
 10
29.69886388823365
 20
22.0550983282517
 10
29.49898535383365
 20
22.09386631225169
 10
29.33392538103365
 20
22.1258797090517
 10
29.20172832663365
 20
22.1516268850517
 10
29.10237540503365
 20
22.17119911065169
 10
29.03914251063365
 20
22.1840258370517
 10
29.00769352023365
 20
22.19071035545169
 10
29.00695877623365
 20
22.1908504658517
  0
LWPOLYLINE
  5
79D
330
1F
100
AcDbEntity
  8
0
  6
CONTINUOUS
 62
     7
100
AcDbPolyline
 90
        4
 70
     0
 43
0.0
 10
32.05899545943365
 20
21.59487413625169
 10
31.62289028023365
 20
21.6799250258517
 10
31.21980958263366
 20
21.7586194882517
 10
30.51156302903365
 20
21.89683130745169
  0
LINE
  5
79E
330
1F
100
AcDbEntity
  8
0
  6
CONTINUOUS
 62
     7
100
AcDbLine
 10
30.51156302903365
 20
21.89683130745169
 30
0.0
 11
29.93490812823365
 21
22.0092158274517
 31
0.0
  0
LINE
  5
79F
330
1F
100
AcDbEntity
  8
0
  6
CONTINUOUS
 62
     7
100
AcDbLine
 10
29.00696247223365
 20
22.19084961625169
 30
0.0
 11
28.92819076823365
 21
22.2066778754517
 31
0.0
  0
LWPOLYLINE
  5
7A0
330
1F
100
AcDbEntity
  8
0
  6
CONTINUOUS
 62
     7
100
AcDbPolyline
 90
        9
 70
     0
 43
0.0
 10
30.74209005143365
 20
21.85185492665169
 10
30.38622155863365
 20
21.92596263385169
 10
30.06719933303365
 20
21.9910801234517
 10
29.79218899863365
 20
22.04591647865169
 10
29.55856417303365
 20
22.0913367090517
 10
29.36319001783365
 20
22.12834868185169
 10
29.20461346583365
 20
22.15763770905169
 10
29.08219815543366
 20
22.1797133378517
 10
29.00732872503366
 20
22.1929251154517
  0
LINE
  5
7A1
330
1F
100
AcDbEntity
  8
0
  6
CONTINUOUS
 62
     7
100
AcDbLine
 10
68.33427600823364
 20
0.727756649851699
 30
0.0
 11
68.33940015223365
 21
0.7870993458517006
 31
0.0
  0
LINE
  5
7A3
330
1F
100
AcDbEntity
  8
0
  6
CONTINUOUS
 62
     7
100
AcDbLine
 10
68.33940015223365
 20
0.7870993458517006
 30
0.0
 11
68.34490690903365
 21
0.8493798674517023
 31
0.0
  0
LINE
  5
7A4
330
1F
100
AcDbEntity
  8
0
  6
CONTINUOUS
 62
     7
100
AcDbLine
 10
68.34490690903365
 20
0.8493798674517023
 30
0.0
 11
68.36158224023364
 21
1.039443523451701
 31
0.0
  0
LINE
  5
7A5
330
1F
100
AcDbEntity
  8
0
  6
CONTINUOUS
 62
     7
100
AcDbLine
 10
68.33373085623364
 20
0.7217731842517026
 30
0.0
 11
68.33427600823364
 21
0.727756649851699
 31
0.0
  0
LINE
  5
7A6
330
1F
100
AcDbEntity
  8
0
  6
CONTINUOUS
 62
     7
100
AcDbLine
 10
68.33342640183366
 20
0.7187426834517013
 30
0.0
 11
68.33373085623364
 21
0.7217731842517026
 31
0.0
  0
LINE
  5
7A7
330
1F
100
AcDbEntity
  8
0
  6
CONTINUOUS
 62
     7
100
AcDbLine
 10
68.33288104823364
 20
0.7136199378517035
 30
0.0
 11
68.33342640183366
 21
0.7187426834517013
 31
0.0
  0
LWPOLYLINE
  5
7A8
330
1F
100
AcDbEntity
  8
0
  6
HIDDEN
 62
     8
100
AcDbPolyline
 90
        3
 70
     0
 43
0.0
 10
68.02289600663366
 20
15.6574699202517
 10
68.01654128983367
 20
15.60255672185169
 10
68.00991813943366
 20
15.54795473785169
  0
LINE
  5
7A9
330
1F
100
AcDbEntity
  8
0
  6
CONTINUOUS
 62
     7
100
AcDbLine
 10
68.33282744503364
 20
0.7131710290517006
 30
0.0
 11
68.33288104823364
 21
0.7136199378517035
 31
0.0
  0
LINE
  5
7AA
330
1F
100
AcDbEntity
  8
0
  6
CONTINUOUS
 62
     7
100
AcDbLine
 10
68.36158224023364
 20
1.039443523451701
 30
0.0
 11
68.36473673463365
 21
1.064129513851696
 31
0.0
  0
LWPOLYLINE
  5
7AB
330
1F
100
AcDbEntity
  8
0
  6
HIDDEN
 62
     8
100
AcDbPolyline
 90
        7
 70
     0
 43
0.0
 10
68.02289600663366
 20
15.6574699202517
 10
68.03121797463365
 20
15.71356928345169
 10
68.04364380983367
 20
15.7701093362517
 10
68.06010267383365
 20
15.8262806882517
 10
68.08043412983366
 20
15.88139410425169
 10
68.10449755383365
 20
15.9350243090517
 10
68.11103730903366
 20
15.9480714146517
  0
LWPOLYLINE
  5
7AD
330
1F
100
AcDbEntity
  8
0
  6
HIDDEN
 62
     8
100
AcDbPolyline
 90
       13
 70
     0
 43
0.0
 10
71.83417320343366
 20
15.0944360274517
 10
71.82318735863365
 20
15.0624490850517
 10
71.80900943863367
 20
15.03004329465169
 10
71.79157549143366
 20
14.9975829282517
 10
71.77082685463367
 20
14.96535816345169
 10
71.74674781943366
 20
14.93368515225169
 10
71.71932289943365
 20
14.9028500818517
 10
71.68870470423366
 20
14.87328447065169
 10
71.65510824983366
 20
14.84539188505169
 10
71.61863547543365
 20
14.8194324226517
 10
71.57961104503366
 20
14.7957945666517
 10
71.53860797143366
 20
14.77491243545169
 10
71.49673131863366
 20
14.7572879506517
  0
LINE
  5
7AF
330
1F
100
AcDbEntity
  8
0
  6
CONTINUOUS
 62
     7
100
AcDbLine
 10
62.44835079703366
 20
-0.4934864813482989
 30
0.0
 11
62.80760231703366
 21
-0.134234961348298
 31
0.0
  0
LWPOLYLINE
  5
7B0
330
1F
100
AcDbEntity
  8
0
  6
HIDDEN
 62
     8
100
AcDbPolyline
 90
        4
 70
     0
 43
0.0
 10
53.13833428023365
 20
16.3427561506517
 10
52.24959997783366
 20
16.2265430466517
 10
51.36206804663366
 20
16.0978119314517
 10
50.47587077463365
 20
15.95657426585169
  0
LWPOLYLINE
  5
7B1
330
1F
100
AcDbEntity
  8
0
  6
HIDDEN
 62
     8
100
AcDbPolyline
 90
       18
 70
     0
 43
0.0
 10
53.13833428023365
 20
16.3427561506517
 10
53.18114503703365
 20
16.3463908722517
 10
53.22399716663365
 20
16.3467529538517
 10
53.26686805143365
 20
16.3438690786517
 10
53.30976651543366
 20
16.33772365785169
 10
53.35269347223366
 20
16.32825701945169
 10
53.39567266743365
 20
16.31535506265169
 10
53.43849552343365
 20
16.2989419394517
 10
53.48092517623366
 20
16.27896779065169
 10
53.52288128023365
 20
16.25530623705169
 10
53.56423497463365
 20
16.2278179314517
 10
53.60458365783365
 20
16.1965477266517
 10
53.64352997143366
 20
16.1616102818517
 10
53.68090100983366
 20
16.1229547554517
 10
53.71635670103366
 20
16.0806937138517
 10
53.74946912663366
 20
16.0351143778517
 10
53.77990278103366
 20
15.98647701625169
 10
53.80082933303365
 20
15.9480714050517
  0
LINE
  5
7B2
330
1F
100
AcDbEntity
  8
0
  6
CONTINUOUS
 62
     7
100
AcDbLine
 10
19.97128387543365
 20
17.9774843874517
 30
0.0
 11
101.9405827618336
 21
17.9774843874517
 31
0.0
  0
LWPOLYLINE
  5
7B3
330
1F
100
AcDbEntity
  8
0
  6
CONTINUOUS
 62
     7
100
AcDbPolyline
 90
       17
 70
     0
 43
0.0
 10
60.95593331863366
 20
17.6550183570517
 10
61.06446802103365
 20
17.6500669234517
 10
61.17271137943365
 20
17.6351400802517
 10
61.27940749463365
 20
17.6102827618517
 10
61.38369082263366
 20
17.5756026034517
 10
61.48426016503365
 20
17.53148688825169
 10
61.58042582583365
 20
17.47822483065169
 10
61.67111527063365
 20
17.4164108386517
 10
61.75578632503366
 20
17.34641466265169
 10
61.83349934263365
 20
17.26901183065169
 10
61.90377968983366
 20
17.18467478265169
 10
61.96584437463365
 20
17.0943456242517
 10
62.01931033623365
 20
16.9985917826517
 10
62.06364196663366
 20
16.8983510770517
 10
62.09851389623366
 20
16.7943232610517
 10
62.12351288503366
 20
16.6878058018517
 10
62.13848368503366
 20
16.5799300962517
  0
LWPOLYLINE
  5
7B4
330
1F
100
AcDbEntity
  8
0
  6
HIDDEN
 62
     8
100
AcDbPolyline
 90
        4
 70
     0
 43
0.0
 10
71.43599586103366
 20
15.95657426585169
 10
70.54979859223365
 20
16.0978119314517
 10
69.66226665943366
 20
16.2265430466517
 10
68.77353235703364
 20
16.3427561506517
  0
LWPOLYLINE
  5
7B5
330
1F
100
AcDbEntity
  8
0
  6
HIDDEN
 62
     8
100
AcDbPolyline
 90
       24
 70
     0
 43
0.0
 10
71.43599586103366
 20
15.95657426585169
 10
71.48353008983367
 20
15.9469826194517
 10
71.52843367223366
 20
15.9346330098517
 10
71.57070478743367
 20
15.9197451042517
 10
71.61041908823367
 20
15.90249209145169
 10
71.64753390583365
 20
15.8830804978517
 10
71.68217313463364
 20
15.8616159890517
 10
71.71431519703364
 20
15.8382620306517
 10
71.74402500343365
 20
15.8131076690517
 10
71.77134183863365
 20
15.78622809465169
 10
71.79622912343365
 20
15.75775472665169
 10
71.81874761943365
 20
15.7276882610517
 10
71.83885555223366
 20
15.6961206818517
 10
71.85652894423364
 20
15.6631038306517
 10
71.87174847383366
 20
15.6286377890517
 10
71.88443338263366
 20
15.5928197106517
 10
71.89452965783366
 20
15.55564659065169
 10
71.90194499543366
 20
15.51717405625169
 10
71.90657353463365
 20
15.47749130265169
 10
71.90830700983366
 20
15.43662700025169
 10
71.90701940343365
 20
15.39468852185169
 10
71.90257906743366
 20
15.35176469945169
 10
71.89484809143365
 20
15.3079727362517
 10
71.88369743703365
 20
15.26348988505169
  0
LWPOLYLINE
  5
7B6
330
1F
100
AcDbEntity
  8
0
  6
CONTINUOUS
 62
     7
100
AcDbPolyline
 90
        8
 70
     0
 43
0.0
 10
68.36473673463365
 20
1.064129513851696
 10
68.37356515703366
 20
1.101979525051703
 10
68.38702364343365
 20
1.138440923451696
 10
68.40490400663364
 20
1.1729497106517
 10
68.42692971383366
 20
1.204972161851699
 10
68.45276014263365
 20
1.234012987451698
 10
68.48199580983365
 20
1.259622960251697
 10
68.51418428343365
 20
1.281405734651698
  0
LWPOLYLINE
  5
7B7
330
1F
100
AcDbEntity
  8
0
  6
HIDDEN
 62
     8
100
AcDbPolyline
 90
        3
 70
     0
 43
0.0
 10
71.88369743703365
 20
15.26348988505169
 10
71.85905760183366
 20
15.1786906594517
 10
71.83417320343366
 20
15.0944360274517
  0
LWPOLYLINE
  5
7B8
330
1F
100
AcDbEntity
  8
0
  6
CONTINUOUS
 62
     7
100
AcDbPolyline
 90
       17
 70
     0
 43
0.0
 10
62.80760558263366
 20
-0.1342316365483001
 10
62.81386286423366
 20
-0.1282566749482967
 10
62.82298109783365
 20
-0.1204627933483024
 10
62.83251687543366
 20
-0.1133116013483004
 10
62.84235677943365
 20
-0.1068609261483004
 10
62.85237747223366
 20
-0.1011484877482971
 10
62.86244828663366
 20
-0.096191527748303
 10
62.87244403863365
 20
-0.0919829805483019
 10
62.88216679703365
 20
-0.0885216205482991
 10
62.89141422103365
 20
-0.0857751373482998
 10
62.89998911543366
 20
-0.0836827245482965
 10
62.90771990743365
 20
-0.0821588013482995
 10
62.91443786263365
 20
-0.0811076173483017
 10
62.91989926743365
 20
-0.0804382653482989
 10
62.92391369463366
 20
-0.0800525789482976
 10
62.92665786903365
 20
-0.0798420109482976
 10
62.92845509463365
 20
-0.0797287165483027
  0
LWPOLYLINE
  5
7B9
330
1F
100
AcDbEntity
  8
0
  6
CONTINUOUS
 62
     7
100
AcDbPolyline
 90
        3
 70
     0
 43
0.0
 10
68.51418447063366
 20
1.2814058450517
 10
68.54882744023365
 20
1.299024312251702
 10
68.58538852023366
 20
1.3122060242517
  0
LWPOLYLINE
  5
7BA
330
1F
100
AcDbEntity
  8
0
  6
CONTINUOUS
 62
     7
100
AcDbPolyline
 90
       37
 70
     0
 43
0.0
 10
53.46837215383366
 20
20.2101127762517
 10
53.70642905303365
 20
20.22183307225169
 10
53.93908133303366
 20
20.23320696025169
 10
54.16678985463366
 20
20.2442404242517
 10
54.38983982263366
 20
20.25493369145169
 10
54.60855833943365
 20
20.2652913602517
 10
54.82323507543365
 20
20.2753181378517
 10
55.03413871063366
 20
20.2850192722517
 10
55.24150257143364
 20
20.2943996274517
 10
55.44556644503366
 20
20.30346506425169
 10
55.64655145303365
 20
20.31221980345169
 10
55.84467401623366
 20
20.3206680354517
 10
56.04009794423365
 20
20.3288122498517
 10
56.23297555223366
 20
20.3366550658517
 10
56.42345289943366
 20
20.34419923545169
 10
56.61166292663365
 20
20.3514472466517
 10
56.79784648343365
 20
20.3584057890517
 10
56.98213872183366
 20
20.3650772690517
 10
57.16467341303366
 20
20.37146398265169
 10
57.34555755223365
 20
20.3775672514517
 10
57.52488298903365
 20
20.38338792665169
 10
57.70272219223365
 20
20.38892623385169
 10
57.87922064663366
 20
20.3941845682517
 10
58.05459730743366
 20
20.3991670130517
 10
58.22892606903366
 20
20.4038731906517
 10
58.40226837783365
 20
20.4083027730517
 10
58.57474488823366
 20
20.41245673785169
 10
58.74650780023365
 20
20.41633620185169
 10
58.91766498743366
 20
20.41994058905169
 10
59.08825262743365
 20
20.4232674434517
 10
59.25831940023365
 20
20.4263144450517
 10
59.42805245143365
 20
20.42908123225169
 10
59.59757676983366
 20
20.4315657026517
 10
59.76689857463365
 20
20.4337655090517
 10
59.93602908343365
 20
20.43567938905169
 10
60.10510235223365
 20
20.4373070274517
 10
60.27433267223366
 20
20.43864769625169
  0
LWPOLYLINE
  5
7BB
330
1F
100
AcDbEntity
  8
0
  6
CONTINUOUS
 62
     7
100
AcDbPolyline
 90
       14
 70
     0
 43
0.0
 10
48.79492674103365
 20
20.0040133634517
 10
48.83536574903367
 20
20.0051817714517
 10
49.21565166903365
 20
20.0175323954517
 10
49.58862645463366
 20
20.0308688882517
 10
49.95233974263366
 20
20.0449281570517
 10
50.30583039863365
 20
20.0594693250517
 10
50.64857737303365
 20
20.07427914105169
 10
50.97973122743365
 20
20.08915597945169
 10
51.29835762743365
 20
20.10391150745169
 10
51.60336708823366
 20
20.11836678265169
 10
51.89647020023365
 20
20.1324992978517
 10
52.17915157623366
 20
20.14630134105169
 10
52.45241174583365
 20
20.1597597026517
 10
53.46837215383366
 20
20.2101127762517
  0
LWPOLYLINE
  5
7BC
330
1F
100
AcDbEntity
  8
0
  6
CONTINUOUS
 62
     7
100
AcDbPolyline
 90
        4
 70
     0
 43
0.0
 10
76.32948676983366
 20
20.0629433874517
 10
75.79529380183365
 20
20.0482503698517
 10
75.19045918583365
 20
20.03403696025169
 10
74.54415863703366
 20
20.0212884402517
  0
LWPOLYLINE
  5
7BD
330
1F
100
AcDbEntity
  8
0
  6
CONTINUOUS
 62
     7
100
AcDbPolyline
 90
       42
 70
     0
 43
0.0
 10
59.37845872503366
 20
20.42783919865169
 10
59.23511610423366
 20
20.4253303602517
 10
59.09078124023366
 20
20.42258469785169
 10
58.94546328343366
 20
20.4195986818517
 10
58.79917021943366
 20
20.41636864825169
 10
58.65190035863366
 20
20.41289056665169
 10
58.50361282423366
 20
20.4091591778517
 10
58.35408527223365
 20
20.40516377305169
 10
58.20317493943366
 20
20.40089437305169
 10
58.05092041943366
 20
20.3963453890517
 10
57.89733349783364
 20
20.39151049145169
 10
57.74240754743365
 20
20.3863830930517
 10
57.58628806583365
 20
20.38096190905169
 10
57.42887642903365
 20
20.3752373410517
 10
57.27004846743366
 20
20.3691979250517
 10
57.10972001303366
 20
20.3628328354517
 10
56.94778811063366
 20
20.3561297218517
 10
56.78412037943365
 20
20.34907394745169
 10
56.61874201303366
 20
20.34165680825169
 10
56.45185770263365
 20
20.33387786265169
 10
56.28337454903366
 20
20.3257230530517
 10
56.11307121783365
 20
20.31717065785169
 10
55.94053163383365
 20
20.3081868082517
 10
55.76540947543365
 20
20.2987382434517
 10
55.58755171063365
 20
20.28879956505169
 10
55.40686867703365
 20
20.2783472978517
 10
55.22297900023366
 20
20.2673382994517
 10
55.03555537463365
 20
20.25572761145169
 10
54.84447558903365
 20
20.24347973145169
 10
54.64950486583365
 20
20.23054940665169
 10
54.45031704663365
 20
20.2168816562517
 10
54.24651876663364
 20
20.2024121490517
 10
54.03733193783365
 20
20.1870422738517
 10
53.82154342903366
 20
20.1706301442517
 10
53.59704379703366
 20
20.15294861305169
 10
53.36205836023365
 20
20.1337727218517
 10
53.11422108023365
 20
20.11280226105169
 10
52.84995066263365
 20
20.08959447065169
 10
52.56335974263365
 20
20.06344020985169
 10
52.24600068663366
 20
20.03329301145169
 10
51.88686160663365
 20
19.99770876825169
 10
51.70161286423366
 20
19.9785323266517
  0
LWPOLYLINE
  5
7BE
330
1F
100
AcDbEntity
  8
0
  6
CONTINUOUS
 62
     7
100
AcDbPolyline
 90
       16
 70
     0
 43
0.0
 10
59.64778558583365
 20
20.4322495666517
 10
58.98382298903366
 20
20.4212742770517
 10
58.31063381943366
 20
20.40603218425169
 10
57.62370131383366
 20
20.3865965026517
 10
56.92214725463365
 20
20.3631485730517
 10
56.20641262423365
 20
20.3360008194517
 10
55.47699619383365
 20
20.3055587074517
 10
54.73378541143365
 20
20.27230181465169
 10
53.97492893303366
 20
20.2366906562517
 10
53.19840643063366
 20
20.1992889970517
 10
52.40269210583366
 20
20.1608820978517
 10
51.58951544983366
 20
20.1226198514517
 10
50.76152568343365
 20
20.0859003954517
 10
49.92081788343365
 20
20.0523684050517
 10
49.06954680023366
 20
20.0238536066517
 10
48.45109680023365
 20
20.0081750786517
  0
LWPOLYLINE
  5
7BF
330
1F
100
AcDbEntity
  8
0
  6
CONTINUOUS
 62
     7
100
AcDbPolyline
 90
        3
 70
     0
 43
0.0
 10
59.79846008663366
 20
20.4339338978517
 10
59.66031553623366
 20
20.43213584825169
 10
59.52029854743366
 20
20.43010702745169
  0
LWPOLYLINE
  5
7C0
330
1F
100
AcDbEntity
  8
0
  6
CONTINUOUS
 62
     7
100
AcDbPolyline
 90
        5
 70
     0
 43
0.0
 10
74.54415863863366
 20
20.02128840985169
 10
71.51190761783365
 20
19.9845860642517
 10
68.22691731863367
 20
19.96930821625169
 10
64.70313152343365
 20
19.96481945945169
 10
60.95593332023366
 20
19.9647147698517
  0
LINE
  5
7C1
330
1F
100
AcDbEntity
  8
0
  6
CONTINUOUS
 62
     7
100
AcDbLine
 10
60.30782523703366
 20
20.43887870585169
 30
0.0
 11
59.64778558583365
 21
20.4322495666517
 31
0.0
  0
LWPOLYLINE
  5
7C2
330
1F
100
AcDbEntity
  8
0
  6
CONTINUOUS
 62
     7
100
AcDbPolyline
 90
        5
 70
     0
 43
0.0
 10
60.33384336023365
 20
20.4389989586517
 10
60.20229182263366
 20
20.4380346146517
 10
60.06916329143366
 20
20.4368728050517
 10
59.93469627543365
 20
20.43550959065169
 10
59.79846008663366
 20
20.4339338978517
  0
LINE
  5
7C3
330
1F
100
AcDbEntity
  8
0
  6
CONTINUOUS
 62
     7
100
AcDbLine
 10
60.46313600023365
 20
20.4397685058517
 30
0.0
 11
60.27433267223366
 21
20.43864769625169
 31
0.0
  0
LINE
  5
7C4
330
1F
100
AcDbEntity
  8
0
  6
CONTINUOUS
 62
     7
100
AcDbLine
 10
60.44397047223365
 20
20.43969930105169
 30
0.0
 11
60.61411152343366
 21
20.44045732985169
 31
0.0
  0
LINE
  5
7C5
330
1F
100
AcDbEntity
  8
0
  6
CONTINUOUS
 62
     7
100
AcDbLine
 10
60.87685661943366
 20
20.44103763225169
 30
0.0
 11
60.30782523703366
 21
20.43887870585169
 31
0.0
  0
LINE
  5
7C6
330
1F
100
AcDbEntity
  8
0
  6
CONTINUOUS
 62
     7
100
AcDbLine
 10
60.59126566583366
 20
20.4403555458517
 30
0.0
 11
60.75404287383366
 21
20.4408337106517
 31
0.0
  0
LINE
  5
7C7
330
1F
100
AcDbEntity
  8
0
  6
CONTINUOUS
 62
     7
100
AcDbLine
 10
60.75404287383366
 20
20.4408337106517
 30
0.0
 11
60.87685659383366
 21
20.44103763385169
 31
0.0
  0
LINE
  5
7C8
330
1F
100
AcDbEntity
  8
0
  6
CONTINUOUS
 62
     7
100
AcDbLine
 10
60.95593331863366
 20
20.4410706226517
 30
0.0
 11
60.87685660503366
 21
20.4410197090517
 31
0.0
  0
LWPOLYLINE
  5
7C9
330
1F
100
AcDbEntity
  8
0
  6
CONTINUOUS
 62
     7
100
AcDbPolyline
 90
        5
 70
     0
 43
0.0
 10
60.95593331703366
 20
19.9647147698517
 10
57.20873511383366
 20
19.96481945945169
 10
53.68494931863367
 20
19.96930821625169
 10
50.39995901943366
 20
19.9845860642517
 10
47.36770799863365
 20
20.02128840985169
  0
LINE
  5
7CC
330
1F
100
AcDbEntity
  8
0
  6
CONTINUOUS
 62
     7
100
AcDbLine
 10
20.47906792983365
 20
19.9774843874517
 30
0.0
 11
27.40876922903366
 21
19.9774843874517
 31
0.0
  0
LINE
  5
7CD
330
1F
100
AcDbEntity
  8
0
  6
CONTINUOUS
 62
     7
100
AcDbLine
 10
94.50309740983366
 20
19.9774843874517
 30
0.0
 11
101.4327987074336
 21
19.9774843874517
 31
0.0
  0
LINE
  5
7CE
330
1F
100
AcDbEntity
  8
0
  6
CONTINUOUS
 62
     7
100
AcDbLine
 10
93.31233419703366
 20
22.2274843874517
 30
0.0
 11
93.22736782903366
 21
22.2274843874517
 31
0.0
  0
LINE
  5
7CF
330
1F
100
AcDbEntity
  8
0
  6
CONTINUOUS
 62
     7
100
AcDbLine
 10
28.59953244023365
 20
22.2274843874517
 30
0.0
 11
28.68449880823365
 21
22.2274843874517
 31
0.0
  0
LINE
  5
7D0
330
1F
100
AcDbEntity
  8
0
  6
CONTINUOUS
 62
     7
100
AcDbLine
 10
61.09018784503366
 20
20.44096494745169
 30
0.0
 11
60.95593331863366
 21
20.4410706226517
 31
0.0
  0
LINE
  5
7D1
330
1F
100
AcDbEntity
  8
0
  6
CONTINUOUS
 62
     7
100
AcDbLine
 10
61.60404140023366
 20
20.43887870585169
 30
0.0
 11
61.04069971543365
 21
20.44101604665169
 31
0.0
  0
LINE
  5
7D2
330
1F
100
AcDbEntity
  8
0
  6
CONTINUOUS
 62
     7
100
AcDbLine
 10
61.33222622263366
 20
20.4403037506517
 30
0.0
 11
61.09018784503366
 21
20.44096494745169
 31
0.0
  0
LINE
  5
7D3
330
1F
100
AcDbEntity
  8
0
  6
CONTINUOUS
 62
     7
100
AcDbLine
 10
61.32060097143366
 20
20.4403555458517
 30
0.0
 11
61.46789616503365
 21
20.43969930105169
 31
0.0
  0
LWPOLYLINE
  5
7D4
330
1F
100
AcDbEntity
  8
0
  6
CONTINUOUS
 62
     7
100
AcDbPolyline
 90
        5
 70
     0
 43
0.0
 10
61.58411405303365
 20
20.4389543106517
 10
61.70957481463366
 20
20.4380346146517
 10
61.84270334583366
 20
20.4368728050517
 10
61.97717036183365
 20
20.43550959065169
 10
62.11340655063366
 20
20.4339338978517
  0
LINE
  5
7D5
330
1F
100
AcDbEntity
  8
0
  6
CONTINUOUS
 62
     7
100
AcDbLine
 10
62.26408105143366
 20
20.4322495666517
 30
0.0
 11
61.60404140023366
 21
20.43887870585169
 31
0.0
  0
LWPOLYLINE
  5
7D6
330
1F
100
AcDbEntity
  8
0
  6
CONTINUOUS
 62
     7
100
AcDbPolyline
 90
        3
 70
     0
 43
0.0
 10
62.11340655063366
 20
20.4339338978517
 10
62.25155110103366
 20
20.43213584825169
 10
62.39156808983366
 20
20.43010702745169
  0
LINE
  5
7D7
330
1F
100
AcDbEntity
  8
0
  6
CONTINUOUS
 62
     7
100
AcDbLine
 10
62.92804364823366
 20
20.4212742770517
 30
0.0
 11
62.26408105143366
 21
20.4322495666517
 31
0.0
  0
LWPOLYLINE
  5
7D8
330
1F
100
AcDbEntity
  8
0
  6
CONTINUOUS
 62
     7
100
AcDbPolyline
 90
       42
 70
     0
 43
0.0
 10
62.57618808023366
 20
20.42709044345169
 10
62.67675053303366
 20
20.4253303602517
 10
62.82108539703366
 20
20.42258469785169
 10
62.96640335383366
 20
20.4195986818517
 10
63.11269641783365
 20
20.41636864825169
 10
63.25996627863366
 20
20.41289056665169
 10
63.40825381303366
 20
20.4091591778517
 10
63.55778136503365
 20
20.40516377305169
 10
63.70869169783365
 20
20.40089437305169
 10
63.86094621783365
 20
20.3963453890517
 10
64.01453313943367
 20
20.39151049145169
 10
64.16945908983365
 20
20.3863830930517
 10
64.32557857143365
 20
20.38096190905169
 10
64.48299020823364
 20
20.3752373410517
 10
64.64181816983367
 20
20.3691979250517
 10
64.80214662423364
 20
20.3628328354517
 10
64.96407852663364
 20
20.3561297218517
 10
65.12774625783364
 20
20.34907394745169
 10
65.29312462423366
 20
20.34165680825169
 10
65.46000893463366
 20
20.33387786265169
 10
65.62849208823365
 20
20.3257230530517
 10
65.79879541943364
 20
20.31717065785169
 10
65.97133500343367
 20
20.3081868082517
 10
66.14645716183367
 20
20.2987382434517
 10
66.32431492663366
 20
20.28879956505169
 10
66.50499796023365
 20
20.2783472978517
 10
66.68888763703364
 20
20.2673382994517
 10
66.87631126263366
 20
20.25572761145169
 10
67.06739104823364
 20
20.24347973145169
 10
67.26236177143366
 20
20.23054940665169
 10
67.46154959063367
 20
20.2168816562517
 10
67.66534787063367
 20
20.2024121490517
 10
67.87453469943367
 20
20.1870422738517
 10
68.09032320823366
 20
20.1706301442517
 10
68.31482284023365
 20
20.15294861305169
 10
68.54980827703366
 20
20.1337727218517
 10
68.79764555703366
 20
20.11280226105169
 10
69.06191597463365
 20
20.08959447065169
 10
69.34850689463366
 20
20.06344020985169
 10
69.66586595063365
 20
20.03329301145169
 10
70.02500503063365
 20
19.99770876825169
 10
70.21025377303366
 20
19.9785323266517
  0
LWPOLYLINE
  5
7D9
330
1F
100
AcDbEntity
  8
0
  6
CONTINUOUS
 62
     7
100
AcDbPolyline
 90
        4
 70
     0
 43
0.0
 10
47.36770800023365
 20
20.0212884402517
 10
46.72140745143365
 20
20.03403696025169
 10
46.11657283543364
 20
20.0482503698517
 10
45.58237986743365
 20
20.0629433874517
  0
LWPOLYLINE
  5
7DA
330
1F
100
AcDbEntity
  8
0
  6
CONTINUOUS
 62
     7
100
AcDbPolyline
 90
       15
 70
     0
 43
0.0
 10
73.46076983703366
 20
20.0081750786517
 10
72.84231983703364
 20
20.0238536066517
 10
71.99104875383366
 20
20.0523684050517
 10
71.15034095383364
 20
20.0859003954517
 10
70.32235118743367
 20
20.1226198514517
 10
69.50917453143365
 20
20.1608820978517
 10
68.71346020663366
 20
20.1992889970517
 10
67.93693770423366
 20
20.2366906562517
 10
67.17808122583367
 20
20.27230181465169
 10
66.43487044343365
 20
20.3055587074517
 10
65.70545401303366
 20
20.3360008194517
 10
64.98971938263366
 20
20.3631485730517
 10
64.28816532343365
 20
20.3865965026517
 10
63.60123281783366
 20
20.40603218425169
 10
62.92804364823366
 20
20.4212742770517
  0
LWPOLYLINE
  5
7DB
330
1F
100
AcDbEntity
  8
0
  6
CONTINUOUS
 62
     7
100
AcDbPolyline
 90
       15
 70
     0
 43
0.0
 10
73.11693989623364
 20
20.0040133634517
 10
73.07650088823365
 20
20.0051817714517
 10
72.69621496823365
 20
20.0175323954517
 10
72.32324018263367
 20
20.0308688882517
 10
71.95952689463365
 20
20.0449281570517
 10
71.60603623863366
 20
20.0594693250517
 10
71.26328926423366
 20
20.07427914105169
 10
70.93213540983365
 20
20.08915597945169
 10
70.61350900983365
 20
20.10391150745169
 10
70.30849954903366
 20
20.11836678265169
 10
70.01539643703364
 20
20.1324992978517
 10
69.73271506103364
 20
20.14630134105169
 10
69.45945489143366
 20
20.1597597026517
 10
69.19470488663364
 20
20.1728686418517
 10
68.68742699383367
 20
20.1980428818517
  0
LWPOLYLINE
  5
7DC
330
1F
100
AcDbEntity
  8
0
  6
CONTINUOUS
 62
     7
100
AcDbPolyline
 90
       22
 70
     0
 43
0.0
 10
45.58238006583365
 20
20.06294307385169
 10
44.69437276183366
 20
20.09234268185169
 10
43.86860669783366
 20
20.1263478530517
 10
43.10171696023365
 20
20.16500477305169
 10
42.37653925623366
 20
20.20892028025169
 10
41.67688588503366
 20
20.25902761305169
 10
40.98667579543366
 20
20.31666020185169
 10
40.28850640023366
 20
20.38344843065169
 10
39.56677672823365
 20
20.4613487010517
 10
38.82492077943365
 20
20.5502211506517
 10
38.08357926583365
 20
20.64671780665169
 10
37.36271265143365
 20
20.7466133858517
 10
36.67626440343365
 20
20.84621779065169
 10
36.02271046903365
 20
20.9441642226517
 10
35.39847030423365
 20
21.03991869785169
 10
34.80062466743365
 20
21.13330200825169
 10
34.22602596823365
 20
21.2243524450517
 10
33.67084574743365
 20
21.31351816665169
 10
33.13190163703366
 20
21.40123685465169
 10
32.60883452663366
 20
21.48764433785169
 10
32.10594135863365
 20
21.5721685282517
 10
31.74898239063365
 20
21.6331541154517
  0
LWPOLYLINE
  5
7DD
330
1F
100
AcDbEntity
  8
0
  6
CONTINUOUS
 62
     7
100
AcDbPolyline
 90
       37
 70
     0
 43
0.0
 10
68.20543758423366
 20
20.22183307225169
 10
67.97278530423366
 20
20.23320696025169
 10
67.74507678263365
 20
20.2442404242517
 10
67.52202681463365
 20
20.25493369145169
 10
67.30330829783366
 20
20.2652913602517
 10
67.08863156183366
 20
20.2753181378517
 10
66.87772792663366
 20
20.2850192722517
 10
66.67036406583367
 20
20.2943996274517
 10
66.46630019223366
 20
20.30346506425169
 10
66.26531518423366
 20
20.31221980345169
 10
66.06719262103365
 20
20.3206680354517
 10
65.87176869303366
 20
20.3288122498517
 10
65.67889108503365
 20
20.3366550658517
 10
65.48841373783367
 20
20.34419923545169
 10
65.30020371063367
 20
20.3514472466517
 10
65.11402015383365
 20
20.3584057890517
 10
64.92972791543365
 20
20.3650772690517
 10
64.74719322423365
 20
20.37146398265169
 10
64.56630908503365
 20
20.3775672514517
 10
64.38698364823366
 20
20.38338792665169
 10
64.20914444503364
 20
20.38892623385169
 10
64.03264599063366
 20
20.3941845682517
 10
63.85726932983365
 20
20.3991670130517
 10
63.68294056823366
 20
20.4038731906517
 10
63.50959825943365
 20
20.4083027730517
 10
63.33712174903364
 20
20.41245673785169
 10
63.16535883703366
 20
20.41633620185169
 10
62.99420164983366
 20
20.41994058905169
 10
62.82361400983365
 20
20.4232674434517
 10
62.65354723703365
 20
20.4263144450517
 10
62.48381418583366
 20
20.42908123225169
 10
62.31428986743365
 20
20.4315657026517
 10
62.14496806263365
 20
20.4337655090517
 10
61.97583755383365
 20
20.43567938905169
 10
61.80676428503366
 20
20.4373070274517
 10
61.63753396503366
 20
20.43864769625169
 10
61.44873063703365
 20
20.4397685058517
  0
LINE
  5
7DE
330
1F
100
AcDbEntity
  8
0
  6
CONTINUOUS
 62
     7
100
AcDbLine
 10
68.68742699383367
 20
20.1980428818517
 30
0.0
 11
68.20543758423366
 21
20.22183307225169
 31
0.0
  0
LWPOLYLINE
  5
7E3
330
1F
100
AcDbEntity
  8
0
  6
CONTINUOUS
 62
     7
100
AcDbPolyline
 90
        4
 70
     0
 43
0.0
 10
89.93573407703365
 20
17.9774843874517
 10
89.80706256343365
 20
17.72406954585169
 10
89.33611806583366
 20
16.7355703650517
 10
88.83771789783367
 20
15.61889181785169
  0
LWPOLYLINE
  5
7E4
330
1F
100
AcDbEntity
  8
0
  6
CONTINUOUS
 62
     7
100
AcDbPolyline
 90
       20
 70
     0
 43
0.0
 10
86.34757658103366
 20
3.934884881851701
 10
86.38551992343366
 20
4.527947763451699
 10
86.44089244023366
 20
5.212272840251699
 10
86.51869758743364
 20
5.988847857851702
 10
86.62665636183366
 20
6.869342731451702
 10
86.77813295383364
 20
7.882591752251698
 10
86.97393870903367
 20
8.961741168251698
 10
87.18399264343366
 20
9.934187910651701
 10
87.38954938903365
 20
10.7599176402517
 10
87.58896493143366
 20
11.46803570425169
 10
87.77890683863365
 20
12.0751853394517
 10
87.95671880503366
 20
12.5992988546517
 10
88.11804406743366
 20
13.05701415385169
 10
88.26055939223365
 20
13.46126514265169
 10
88.38353833303367
 20
13.82169297785169
 10
88.48699028343366
 20
14.1445489122517
 10
88.57081641943366
 20
14.4332578706517
 10
88.63514765943364
 20
14.69033410905169
 10
88.68051064343365
 20
14.91827904345169
 10
88.70796690583365
 20
15.1192734194517
  0
LWPOLYLINE
  5
7E5
330
1F
100
AcDbEntity
  8
0
  6
CONTINUOUS
 62
     7
100
AcDbPolyline
 90
       17
 70
     0
 43
0.0
 10
94.73454069623366
 20
20.9994530290517
 10
94.71028958263365
 20
21.12504681305169
 10
94.67495984343367
 20
21.24801700025169
 10
94.62883447223365
 20
21.3673620098517
 10
94.57227854103365
 20
21.4821350018517
 10
94.50574016663365
 20
21.59142543385169
 10
94.42974689463367
 20
21.6943663970517
 10
94.34490099383365
 20
21.79014201785169
 10
94.25187460023366
 20
21.8779935826517
 10
94.15140468343366
 20
21.95722508985169
 10
94.04428738423366
 20
22.02720868505169
 10
93.93137161303366
 20
22.0873898082517
 10
93.81355252343366
 20
22.1372915378517
 10
93.69176461143366
 20
22.1765184674517
 10
93.56697390743367
 20
22.20476010585169
 10
93.44017021783367
 20
22.22179337945169
 10
93.31238420983366
 20
22.2274843890517
  0
LWPOLYLINE
  5
7E6
330
1F
100
AcDbEntity
  8
0
  6
CONTINUOUS
 62
     7
100
AcDbPolyline
 90
        3
 70
     0
 43
0.0
 10
94.84220516503365
 20
20.14537783225169
 10
94.79277410423364
 20
20.57297005945169
 10
94.73449941943366
 20
20.99939389785169
  0
LINE
  5
7E7
330
1F
100
AcDbEntity
  8
0
  6
CONTINUOUS
 62
     7
100
AcDbLine
 10
101.9405698834336
 20
17.97758231385169
 30
0.0
 11
101.6801796562336
 21
19.7635782354517
 31
0.0
  0
ARC
  5
AE2
330
1F
100
AcDbEntity
  8
0
  6
CONTINUOUS
 62
     7
100
AcDbCircle
 10
65.63756130583366
 20
-0.7725156125482969
 30
0.0
 40
0.5
100
AcDbArc
 50
270.0
 51
354.9999366969
  0
ARC
  5
AE3
330
1F
100
AcDbEntity
  8
0
  6
CONTINUOUS
 62
     7
100
AcDbCircle
 10
56.27430533143366
 20
-0.7725156125482969
 30
0.0
 40
0.5
100
AcDbArc
 50
185.0000633031
 51
270.0
  0
ARC
  5
AEB
330
1F
100
AcDbEntity
  8
0
  6
CONTINUOUS
 62
     7
100
AcDbCircle
 10
44.95593331863366
 20
-1.835015612548296
 30
0.0
 40
0.9375
100
AcDbArc
 50
43.1748307208
 51
136.8257454273
  0
ARC
  5
AEC
330
1F
100
AcDbEntity
  8
0
  6
CONTINUOUS
 62
     7
100
AcDbCircle
 10
44.08990791543365
 20
-1.022515612548296
 30
0.0
 40
0.25
100
AcDbArc
 50
270.0
 51
316.8290868881999
  0
ARC
  5
AED
330
1F
100
AcDbEntity
  8
0
  6
CONTINUOUS
 62
     7
100
AcDbCircle
 10
45.82195872183365
 20
-1.022515612548296
 30
0.0
 40
0.25
100
AcDbArc
 50
223.1735511072999
 51
269.9999999998
  0
ARC
  5
AEE
330
1F
100
AcDbEntity
  8
0
  6
CONTINUOUS
 62
     7
100
AcDbCircle
 10
46.48285175863365
 20
-1.022515612548296
 30
0.0
 40
0.25
100
AcDbArc
 50
269.9999569724
 51
345.0
  0
ARC
  5
AEF
330
1F
100
AcDbEntity
  8
0
  6
CONTINUOUS
 62
     7
100
AcDbCircle
 10
43.42901517783365
 20
-1.022515612548296
 30
0.0
 40
0.25
100
AcDbArc
 50
194.9999933045
 51
269.9999741307
  0
ARC
  5
AF2
330
1F
100
AcDbEntity
  8
0
  6
CONTINUOUS
 62
     7
100
AcDbCircle
 10
26.88318946423366
 20
20.1649843874517
 30
0.0
 40
0.1874999904
100
AcDbArc
 50
269.9849405103
 51
353.9977031669
  0
ARC
  5
AF3
330
1F
100
AcDbEntity
  8
0
  6
CONTINUOUS
 62
     7
100
AcDbCircle
 10
95.02867717303365
 20
20.1649843874517
 30
0.0
 40
0.1874999904
100
AcDbArc
 50
186.0022968331
 51
270.0150594896999
  0
ARC
  5
AF4
330
1F
100
AcDbEntity
  8
0
  6
CONTINUOUS
 62
     7
100
AcDbCircle
 10
62.22737992823365
 20
-0.2725156125482968
 30
0.0
 40
0.3125
100
AcDbArc
 50
270.0
 51
315.0
  0
ARC
  5
AF6
330
1F
100
AcDbEntity
  8
0
  6
CONTINUOUS
 62
     7
100
AcDbCircle
 10
37.74836022263365
 20
4.057333809851698
 30
0.0
 40
2.1875
100
AcDbArc
 50
183.2089043995999
 51
267.9902339089
  0
ARC
  5
AF7
330
1F
100
AcDbEntity
  8
0
  6
CONTINUOUS
 62
     7
100
AcDbCircle
 10
59.68448670903366
 20
-0.2725156125482968
 30
0.0
 40
0.3125
100
AcDbArc
 50
225.0
 51
270.0
  0
ARC
  5
AF8
330
1F
100
AcDbEntity
  8
0
  6
CONTINUOUS
 62
     7
100
AcDbCircle
 10
20.47906779223365
 20
19.7274843874517
 30
0.0
 40
0.25
100
AcDbArc
 50
90.0
 51
171.7049872651
  0
ARC
  5
AF9
330
1F
100
AcDbEntity
  8
0
  6
CONTINUOUS
 62
     7
100
AcDbCircle
 10
101.4327988450336
 20
19.7274843874517
 30
0.0
 40
0.25
100
AcDbArc
 50
8.2950127349
 51
90.0
  0
ARC
  5
AFB
330
1F
100
AcDbEntity
  8
0
  6
CONTINUOUS
 62
     7
100
AcDbCircle
 10
84.16350641463365
 20
4.057333809851698
 30
0.0
 40
2.1875
100
AcDbArc
 50
272.0097660911
 51
356.7910956004
  0
ARC
  5
AFC
330
1F
100
AcDbEntity
  8
0
  6
CONTINUOUS
 62
     7
100
AcDbCircle
 10
93.22736793303366
 20
20.7899840994517
 30
0.0
 40
1.437500289599999
100
AcDbArc
 50
90.00000520749999
 51
99.75963993249999
  0
ARC
  5
AFD
330
1F
100
AcDbEntity
  8
0
  6
CONTINUOUS
 62
     7
100
AcDbCircle
 10
28.68449870423365
 20
20.7899840994517
 30
0.0
 40
1.437500289599999
100
AcDbArc
 50
80.2398042633
 51
89.9999947925
  0
ARC
  5
AFF
330
1F
100
AcDbEntity
  8
0
  6
CONTINUOUS
 62
     7
100
AcDbCircle
 10
31.52492124823365
 20
14.9498998098517
 30
0.0
 40
1.687500092799999
100
AcDbArc
 50
5.7604510985
 51
23.35579377139999
  0
ARC
  5
B01
330
1F
100
AcDbEntity
  8
0
  6
CONTINUOUS
 62
     7
100
AcDbCircle
 10
90.38694538903365
 20
14.9498998098517
 30
0.0
 40
1.687500092799999
100
AcDbArc
 50
156.6442062286
 51
174.2395489015
  0
LINE
  5
B33
330
1F
100
AcDbEntity
  8
0
  6
CONTINUOUS
 62
     7
100
AcDbLine
 10
42.07001710217524
 20
1.716732635825104
 30
0.0
 11
53.24993288023365
 21
1.324515125051696
 31
0.0
  0
LINE
  5
B46
330
1F
100
AcDbEntity
  8
CENTER
100
AcDbLine
 10
57.68244767177475
 20
16.41716317167853
 30
0.0
 11
64.16594257537514
 21
16.41716317167853
 31
0.0
  0
ARC
  5
BAD
330
1F
100
AcDbEntity
  8
0
  6
CONTINUOUS
 62
     7
100
AcDbCircle
 10
42.05247065007863
 20
1.217040608653547
 30
0.0
 40
0.5
100
AcDbArc
 50
15.00000000126727
 51
87.9889117748935
  0
ARC
  5
BAE
330
1F
100
AcDbEntity
  8
0
  6
CONTINUOUS
 62
     7
100
AcDbCircle
 10
47.80533070038898
 20
1.015266209087826
 30
0.0
 40
0.5
100
AcDbArc
 50
87.99023420820672
 51
164.9999999838349
  0
ARC
  5
BAF
330
1F
100
AcDbEntity
  8
0
  6
CONTINUOUS
 62
     7
100
AcDbCircle
 10
74.10653593687832
 20
1.015266209087826
 30
0.0
 40
0.5
100
AcDbArc
 50
15.00000001616509
 51
92.00976579179327
  0
ARC
  5
BB0
330
1F
100
AcDbEntity
  8
0
  6
CONTINUOUS
 62
     7
100
AcDbCircle
 10
79.85939598718868
 20
1.217040608653547
 30
0.0
 40
0.5
100
AcDbArc
 50
92.01108822510651
 51
164.9999999987327
  0
ARC
  5
BB1
330
1F
100
AcDbEntity
  8
0
  6
CONTINUOUS
 62
     7
100
AcDbCircle
 10
76.95593331863364
 20
-1.835015612548296
 30
0.0
 40
0.9375
100
AcDbArc
 50
43.1742545727
 51
136.8251692792
  0
LINE
  5
BB2
330
1F
100
AcDbEntity
  8
0
  6
CONTINUOUS
 62
     7
100
AcDbLine
 10
79.37643307404702
 20
1.346450131215489
 30
0.0
 11
78.72433302743366
 21
-1.087220374148301
 31
0.0
  0
ARC
  5
BB3
330
1F
100
AcDbEntity
  8
0
  6
CONTINUOUS
 62
     7
100
AcDbCircle
 10
77.82195872183365
 20
-1.022515612548296
 30
0.0
 40
0.25
100
AcDbArc
 50
223.1709131118
 51
270.0
  0
ARC
  5
BB4
330
1F
100
AcDbEntity
  8
0
  6
CONTINUOUS
 62
     7
100
AcDbCircle
 10
78.48285145943364
 20
-1.022515612548296
 30
0.0
 40
0.25
100
AcDbArc
 50
270.0000258692999
 51
345.0000066955
  0
LINE
  5
BB5
330
1F
100
AcDbEntity
  8
0
  6
CONTINUOUS
 62
     7
100
AcDbLine
 10
77.82195872183365
 20
-1.272515612548296
 30
0.0
 11
78.48285157143365
 21
-1.272515612548296
 31
0.0
  0
LINE
  5
BB6
330
1F
100
AcDbEntity
  8
0
  6
CONTINUOUS
 62
     7
100
AcDbLine
 10
75.18753360983365
 20
-1.087220374148301
 30
0.0
 11
74.58949884998634
 21
1.144675731775346
 31
0.0
  0
ARC
  5
BB7
330
1F
100
AcDbEntity
  8
0
  6
CONTINUOUS
 62
     7
100
AcDbCircle
 10
75.42901487863367
 20
-1.022515612548296
 30
0.0
 40
0.25
100
AcDbArc
 50
195.0
 51
270.0000430275999
  0
ARC
  5
BB8
330
1F
100
AcDbEntity
  8
0
  6
CONTINUOUS
 62
     7
100
AcDbCircle
 10
76.08990791543366
 20
-1.022515612548296
 30
0.0
 40
0.25
100
AcDbArc
 50
270.0000000001999
 51
316.8264488926999
  0
LINE
  5
BB9
330
1F
100
AcDbEntity
  8
0
  6
CONTINUOUS
 62
     7
100
AcDbLine
 10
76.08990791543366
 20
-1.272515612548296
 30
0.0
 11
75.42901506583366
 21
-1.272515612548296
 31
0.0
  0
ENDSEC
  0
SECTION
  2
OBJECTS
  0
DICTIONARY
  5
C
330
0
100
AcDbDictionary
  3
ACAD_GROUP
350
D
  3
ACAD_LAYOUT
350
1A
  3
ACAD_MLINESTYLE
350
17
  3
ACAD_PLOTSETTINGS
350
19
  3
ACAD_PLOTSTYLENAME
350
E
  3
ACDBHEADERROUNDTRIPXREC
350
BFC
  0
DICTIONARY
  5
C1F
330
1F
100
AcDbDictionary
280
     1
  3
ACAD_LAYOUTSELFREF
360
C20
  0
DICTIONARY
  5
C1D
330
1B
100
AcDbDictionary
280
     1
  3
ACAD_LAYOUTSELFREF
360
C1E
  0
DICTIONARY
  5
D
102
{ACAD_REACTORS
330
C
102
}
330
C
100
AcDbDictionary
  0
DICTIONARY
  5
1A
102
{ACAD_REACTORS
330
C
102
}
330
C
100
AcDbDictionary
  0
DICTIONARY
  5
17
102
{ACAD_REACTORS
330
C
102
}
330
C
100
AcDbDictionary
  3
STANDARD
350
18
  0
DICTIONARY
  5
19
102
{ACAD_REACTORS
330
C
102
}
330
C
100
AcDbDictionary
  0
ACDBDICTIONARYWDFLT
  5
E
102
{ACAD_REACTORS
330
C
102
}
330
C
100
AcDbDictionary
281
     1
  3
Normal
350
F
100
AcDbDictionaryWithDefault
340
F
  0
DICTIONARY
  5
BFC
102
{ACAD_REACTORS
330
C
102
}
330
C
100
AcDbDictionary
  3
CEPSNTYPE
350
C06
  3
DIMSTYLEDATA
350
C0A
  3
FINGERPRINTGUID
350
C07
  3
HYPERLINKBASE
350
BFF
  3
INSUNITS
350
C05
  3
LAYOUTDICT
350
C01
  3
LWETCUNION
350
C04
  3
PLOTSETDICT
350
C02
  3
PLOTSTYLNAMDICT
350
C03
  3
PSVPSCALE
350
C09
  3
PUCSBASE
350
C0D
  3
PUCSORGBACK
350
C13
  3
PUCSORGBOTTOM
350
C0F
  3
PUCSORGFRONT
350
C12
  3
PUCSORGLEFT
350
C10
  3
PUCSORGRIGHT
350
C11
  3
PUCSORGTOP
350
C0E
  3
PUCSORTHOREF
350
C0B
  3
PUCSORTHOVIEW
350
C0C
  3
STYLESHEET
350
C00
  3
TSTACKALIGN
350
BFD
  3
TSTACKSIZE
350
BFE
  3
UCSBASE
350
C16
  3
UCSORGBACK
350
C1C
  3
UCSORGBOTTOM
350
C18
  3
UCSORGFRONT
350
C1B
  3
UCSORGLEFT
350
C19
  3
UCSORGRIGHT
350
C1A
  3
UCSORGTOP
350
C17
  3
UCSORTHOREF
350
C14
  3
UCSORTHOVIEW
350
C15
  3
VERSIONGUID
350
C08
  0
XRECORD
  5
C20
102
{ACAD_REACTORS
330
C1F
102
}
330
C1F
100
AcDbXrecord
340
1F
  0
XRECORD
  5
C1E
102
{ACAD_REACTORS
330
C1D
102
}
330
C1D
100
AcDbXrecord
340
1B
  0
MLINESTYLE
  5
18
102
{ACAD_REACTORS
330
17
102
}
330
17
100
AcDbMlineStyle
  2
STANDARD
 70
     0
  3

 62
   256
 51
90.0
 52
90.0
 71
     2
 49
0.5
 62
   256
  6
BYLAYER
 49
-0.5
 62
   256
  6
BYLAYER
  0
ACDBPLACEHOLDER
  5
F
102
{ACAD_REACTORS
330
E
102
}
330
0
100
AcDbPlaceHolder
280
     0
  0
XRECORD
  5
C06
102
{ACAD_REACTORS
330
BFC
102
}
330
BFC
100
AcDbXrecord
 90
        0
  0
XRECORD
  5
C0A
102
{ACAD_REACTORS
330
BFC
102
}
330
BFC
100
AcDbXrecord
1000
DSTYLE
1002
{
1070
   278
 70
     0
1070
   342
340
21E
1070
   371
 70
     0
1070
   372
 70
     0
1002
}
  0
XRECORD
  5
C07
102
{ACAD_REACTORS
330
BFC
102
}
330
BFC
100
AcDbXrecord
  1

  0
XRECORD
  5
BFF
102
{ACAD_REACTORS
330
BFC
102
}
330
BFC
100
AcDbXrecord
  1

  0
XRECORD
  5
C05
102
{ACAD_REACTORS
330
BFC
102
}
330
BFC
100
AcDbXrecord
 90
        1
  0
XRECORD
  5
C01
102
{ACAD_REACTORS
330
BFC
102
}
330
BFC
100
AcDbXrecord
340
1A
  0
XRECORD
  5
C04
102
{ACAD_REACTORS
330
BFC
102
}
330
BFC
100
AcDbXrecord
 90
    10752
  0
XRECORD
  5
C02
102
{ACAD_REACTORS
330
BFC
102
}
330
BFC
100
AcDbXrecord
340
19
  0
XRECORD
  5
C03
102
{ACAD_REACTORS
330
BFC
102
}
330
BFC
100
AcDbXrecord
340
E
  0
XRECORD
  5
C09
102
{ACAD_REACTORS
330
BFC
102
}
330
BFC
100
AcDbXrecord
 40
0.0
  0
XRECORD
  5
C0D
102
{ACAD_REACTORS
330
BFC
102
}
330
BFC
100
AcDbXrecord
340
0
  0
XRECORD
  5
C13
102
{ACAD_REACTORS
330
BFC
102
}
330
BFC
100
AcDbXrecord
 10
0.0
 20
0.0
 30
0.0
  0
XRECORD
  5
C0F
102
{ACAD_REACTORS
330
BFC
102
}
330
BFC
100
AcDbXrecord
 10
0.0
 20
0.0
 30
0.0
  0
XRECORD
  5
C12
102
{ACAD_REACTORS
330
BFC
102
}
330
BFC
100
AcDbXrecord
 10
0.0
 20
0.0
 30
0.0
  0
XRECORD
  5
C10
102
{ACAD_REACTORS
330
BFC
102
}
330
BFC
100
AcDbXrecord
 10
0.0
 20
0.0
 30
0.0
  0
XRECORD
  5
C11
102
{ACAD_REACTORS
330
BFC
102
}
330
BFC
100
AcDbXrecord
 10
0.0
 20
0.0
 30
0.0
  0
XRECORD
  5
C0E
102
{ACAD_REACTORS
330
BFC
102
}
330
BFC
100
AcDbXrecord
 10
0.0
 20
0.0
 30
0.0
  0
XRECORD
  5
C0B
102
{ACAD_REACTORS
330
BFC
102
}
330
BFC
100
AcDbXrecord
340
0
  0
XRECORD
  5
C0C
102
{ACAD_REACTORS
330
BFC
102
}
330
BFC
100
AcDbXrecord
 70
     0
  0
XRECORD
  5
C00
102
{ACAD_REACTORS
330
BFC
102
}
330
BFC
100
AcDbXrecord
  1

  0
XRECORD
  5
BFD
102
{ACAD_REACTORS
330
BFC
102
}
330
BFC
100
AcDbXrecord
 90
        1
  0
XRECORD
  5
BFE
102
{ACAD_REACTORS
330
BFC
102
}
330
BFC
100
AcDbXrecord
 90
       70
  0
XRECORD
  5
C16
102
{ACAD_REACTORS
330
BFC
102
}
330
BFC
100
AcDbXrecord
340
0
  0
XRECORD
  5
C1C
102
{ACAD_REACTORS
330
BFC
102
}
330
BFC
100
AcDbXrecord
 10
0.0
 20
0.0
 30
0.0
  0
XRECORD
  5
C18
102
{ACAD_REACTORS
330
BFC
102
}
330
BFC
100
AcDbXrecord
 10
0.0
 20
0.0
 30
0.0
  0
XRECORD
  5
C1B
102
{ACAD_REACTORS
330
BFC
102
}
330
BFC
100
AcDbXrecord
 10
0.0
 20
0.0
 30
0.0
  0
XRECORD
  5
C19
102
{ACAD_REACTORS
330
BFC
102
}
330
BFC
100
AcDbXrecord
 10
0.0
 20
0.0
 30
0.0
  0
XRECORD
  5
C1A
102
{ACAD_REACTORS
330
BFC
102
}
330
BFC
100
AcDbXrecord
 10
0.0
 20
0.0
 30
0.0
  0
XRECORD
  5
C17
102
{ACAD_REACTORS
330
BFC
102
}
330
BFC
100
AcDbXrecord
 10
0.0
 20
0.0
 30
0.0
  0
XRECORD
  5
C14
102
{ACAD_REACTORS
330
BFC
102
}
330
BFC
100
AcDbXrecord
340
0
  0
XRECORD
  5
C15
102
{ACAD_REACTORS
330
BFC
102
}
330
BFC
100
AcDbXrecord
 70
     0
  0
XRECORD
  5
C08
102
{ACAD_REACTORS
330
BFC
102
}
330
BFC
100
AcDbXrecord
  1
{027A3AF9-6439-4A0C-A8C3-15E42D1BF02C}
  0
ENDSEC
  0
EOF
