  0
SECTION
  2
HEADER
  9
$ACADVER
  1
AC1014
  9
$ACADMAINTVER
 70
     9
  9
$DWGCODEPAGE
  3
ANSI_1252
  9
$INSBASE
 10
140.1688333434336
 20
-1.022515612548296
 30
0.0
  9
$EXTMIN
 10
11.44799936662722
 20
-3.20923912610921
 30
0.0
  9
$EXTMAX
 10
181.7715769796316
 20
119.0146423514977
 30
0.0
  9
$LIMMIN
 10
0.0
 20
0.0
  9
$LIMMAX
 10
17.0
 20
11.0
  9
$ORTHOMODE
 70
     1
  9
$REGENMODE
 70
     1
  9
$FILLMODE
 70
     1
  9
$QTEXTMODE
 70
     0
  9
$MIRRTEXT
 70
     1
  9
$DRAGMODE
 70
     2
  9
$LTSCALE
 40
0.9350000000000001
  9
$OSMODE
 70
  3071
  9
$ATTMODE
 70
     1
  9
$TEXTSIZE
 40
0.2
  9
$TRACEWID
 40
0.05
  9
$TEXTSTYLE
  7
STANDARD
  9
$CLAYER
  8
DEFPOINTS
  9
$CELTYPE
  6
BYLAYER
  9
$CECOLOR
 62
   256
  9
$CELTSCALE
 40
1.0
  9
$DELOBJ
 70
     1
  9
$DISPSILH
 70
     0
  9
$DIMSCALE
 40
1.0
  9
$DIMASZ
 40
0.1875
  9
$DIMEXO
 40
0.10625
  9
$DIMDLI
 40
0.646
  9
$DIMRND
 40
0.0
  9
$DIMDLE
 40
0.0
  9
$DIMEXE
 40
0.306
  9
$DIMTP
 40
0.0
  9
$DIMTM
 40
0.0
  9
$DIMTXT
 40
0.125
  9
$DIMCEN
 40
0.153
  9
$DIMTSZ
 40
0.0
  9
$DIMTOL
 70
     0
  9
$DIMLIM
 70
     0
  9
$DIMTIH
 70
     1
  9
$DIMTOH
 70
     1
  9
$DIMSE1
 70
     0
  9
$DIMSE2
 70
     0
  9
$DIMTAD
 70
     0
  9
$DIMZIN
 70
     0
  9
$DIMBLK
  1
_FILLED
  9
$DIMASO
 70
     1
  9
$DIMSHO
 70
     1
  9
$DIMPOST
  1

  9
$DIMAPOST
  1

  9
$DIMALT
 70
     0
  9
$DIMALTD
 70
     2
  9
$DIMALTF
 40
25.4
  9
$DIMLFAC
 40
1.0
  9
$DIMTOFL
 70
     0
  9
$DIMTVP
 40
0.0
  9
$DIMTIX
 70
     0
  9
$DIMSOXD
 70
     0
  9
$DIMSAH
 70
     0
  9
$DIMBLK1
  1

  9
$DIMBLK2
  1

  9
$DIMSTYLE
  2
STANDARD
  9
$DIMCLRD
 70
     0
  9
$DIMCLRE
 70
     0
  9
$DIMCLRT
 70
     0
  9
$DIMTFAC
 40
1.0
  9
$DIMGAP
 40
0.09
  9
$DIMJUST
 70
     0
  9
$DIMSD1
 70
     0
  9
$DIMSD2
 70
     0
  9
$DIMTOLJ
 70
     1
  9
$DIMTZIN
 70
     0
  9
$DIMALTZ
 70
     0
  9
$DIMALTTZ
 70
     0
  9
$DIMFIT
 70
     3
  9
$DIMUPT
 70
     0
  9
$DIMUNIT
 70
     2
  9
$DIMDEC
 70
     4
  9
$DIMTDEC
 70
     4
  9
$DIMALTU
 70
     2
  9
$DIMALTTD
 70
     2
  9
$DIMTXSTY
  7
STANDARD
  9
$DIMAUNIT
 70
     0
  9
$LUNITS
 70
     2
  9
$LUPREC
 70
     4
  9
$SKETCHINC
 40
0.1
  9
$FILLETRAD
 40
0.5
  9
$AUNITS
 70
     0
  9
$AUPREC
 70
     0
  9
$MENU
  1
acad
  9
$ELEVATION
 40
0.0
  9
$PELEVATION
 40
0.0
  9
$THICKNESS
 40
0.0
  9
$LIMCHECK
 70
     0
  9
$BLIPMODE
 70
     0
  9
$CHAMFERA
 40
0.0
  9
$CHAMFERB
 40
0.0
  9
$CHAMFERC
 40
0.0
  9
$CHAMFERD
 40
0.0
  9
$SKPOLY
 70
     0
  9
$TDCREATE
 40
2453887.512139004
  9
$TDUPDATE
 40
2453887.620458900
  9
$TDINDWG
 40
0.1083217130
  9
$TDUSRTIMER
 40
0.1083217130
  9
$USRTIMER
 70
     1
  9
$ANGBASE
 50
0.0
  9
$ANGDIR
 70
     0
  9
$PDMODE
 70
     3
  9
$PDSIZE
 40
0.03125
  9
$PLINEWID
 40
0.0
  9
$COORDS
 70
     1
  9
$SPLFRAME
 70
     0
  9
$SPLINETYPE
 70
     6
  9
$SPLINESEGS
 70
     8
  9
$ATTDIA
 70
     0
  9
$ATTREQ
 70
     1
  9
$HANDLING
 70
-16383
  9
$HANDSEED
  5
D4C
  9
$SURFTAB1
 70
     6
  9
$SURFTAB2
 70
     6
  9
$SURFTYPE
 70
     6
  9
$SURFU
 70
     6
  9
$SURFV
 70
     6
  9
$UCSNAME
  2

  9
$UCSORG
 10
0.0
 20
0.0
 30
0.0
  9
$UCSXDIR
 10
1.0
 20
0.0
 30
0.0
  9
$UCSYDIR
 10
0.0
 20
1.0
 30
0.0
  9
$PUCSNAME
  2

  9
$PUCSORG
 10
0.0
 20
0.0
 30
0.0
  9
$PUCSXDIR
 10
1.0
 20
0.0
 30
0.0
  9
$PUCSYDIR
 10
0.0
 20
1.0
 30
0.0
  9
$USERI1
 70
     0
  9
$USERI2
 70
     0
  9
$USERI3
 70
     0
  9
$USERI4
 70
     0
  9
$USERI5
 70
     0
  9
$USERR1
 40
0.0
  9
$USERR2
 40
0.0
  9
$USERR3
 40
0.0
  9
$USERR4
 40
0.0
  9
$USERR5
 40
0.0
  9
$WORLDVIEW
 70
     1
  9
$SHADEDGE
 70
     3
  9
$SHADEDIF
 70
    70
  9
$TILEMODE
 70
     1
  9
$MAXACTVP
 70
    16
  9
$PINSBASE
 10
0.0
 20
0.0
 30
0.0
  9
$PLIMCHECK
 70
     0
  9
$PEXTMIN
 10
1.000000000000000E+20
 20
1.000000000000000E+20
 30
1.000000000000000E+20
  9
$PEXTMAX
 10
-1.000000000000000E+20
 20
-1.000000000000000E+20
 30
-1.000000000000000E+20
  9
$PLIMMIN
 10
0.0
 20
0.0
  9
$PLIMMAX
 10
12.0
 20
9.0
  9
$UNITMODE
 70
     0
  9
$VISRETAIN
 70
     0
  9
$PLINEGEN
 70
     1
  9
$PSLTSCALE
 70
     0
  9
$TREEDEPTH
 70
  3020
  9
$PICKSTYLE
 70
     1
  9
$CMLSTYLE
  2
STANDARD
  9
$CMLJUST
 70
     0
  9
$CMLSCALE
 40
1.0
  9
$PROXYGRAPHICS
 70
     0
  9
$MEASUREMENT
 70
     0
  0
ENDSEC
  0
SECTION
  2
CLASSES
  0
CLASS
  1
ACDBDICTIONARYWDFLT
  2
AcDbDictionaryWithDefault
  3
AutoCAD 2000
 90
        0
280
     0
281
     0
  0
CLASS
  1
ACDBPLACEHOLDER
  2
AcDbPlaceHolder
  3
AutoCAD 2000
 90
        0
280
     0
281
     0
  0
CLASS
  1
LAYOUT
  2
AcDbLayout
  3
AutoCAD 2000
 90
        0
280
     0
281
     0
  0
CLASS
  1
LWPOLYLINE
  2
AcDbPolyline
  3
AutoCAD 2000
 90
        0
280
     0
281
     1
  0
CLASS
  1
IMAGE
  2
AcDbRasterImage
  3
ISM
 90
      127
280
     0
281
     1
  0
CLASS
  1
OLE2FRAME
  2
AcDbOle2Frame
  3
AutoCAD 2000
 90
        0
280
     0
281
     1
  0
CLASS
  1
HATCH
  2
AcDbHatch
  3
AutoCAD 2000
 90
        0
280
     0
281
     1
  0
CLASS
  1
DICTIONARYVAR
  2
AcDbDictionaryVar
  3
AutoCAD 2000
 90
        0
280
     0
281
     0
  0
CLASS
  1
RASTERVARIABLES
  2
AcDbRasterVariables
  3
ISM
 90
        0
280
     0
281
     0
  0
CLASS
  1
IMAGEDEF
  2
AcDbRasterImageDef
  3
ISM
 90
        0
280
     0
281
     0
  0
CLASS
  1
IMAGEDEF_REACTOR
  2
AcDbRasterImageDefReactor
  3
ISM
 90
        1
280
     0
281
     0
  0
CLASS
  1
IDBUFFER
  2
AcDbIdBuffer
  3
AutoCAD 2000
 90
        0
280
     0
281
     0
  0
CLASS
  1
SPATIAL_FILTER
  2
AcDbSpatialFilter
  3
AutoCAD 2000
 90
        0
280
     0
281
     0
  0
CLASS
  1
XRECORD
  2
AcDbXrecord
  3
AutoCAD 2000
 90
        0
280
     0
281
     0
  0
CLASS
  1
SORTENTSTABLE
  2
AcDbSortentsTable
  3
AutoCAD 2000
 90
        0
280
     0
281
     0
  0
CLASS
  1
LAYER_INDEX
  2
AcDbLayerIndex
  3
AutoCAD 2000
 90
        0
280
     0
281
     0
  0
CLASS
  1
SPATIAL_INDEX
  2
AcDbSpatialIndex
  3
AutoCAD 2000
 90
        0
280
     0
281
     0
  0
CLASS
  1
OBJECT_PTR
  2
CAseDLPNTableRecord
  3
ASE-LPNTableRecord
 90
        1
280
     0
281
     0
  0
CLASS
  1
PLOTSETTINGS
  2
AcDbPlotSettings
  3
AutoCAD 2000
 90
        0
280
     0
281
     0
  0
CLASS
  1
VBA_PROJECT
  2
AcDbVbaProject
  3
acadvba
 90
        0
280
     0
281
     0
  0
CLASS
  1
WIPEOUT
  2
AcDbWipeout
  3
WipeOut|AutoCAD Express Tool|expresstools@autodesk.com
 90
      127
280
     0
281
     1
  0
CLASS
  1
WIPEOUTVARIABLES
  2
AcDbWipeoutVariables
  3
WipeOut|AutoCAD Express Tool|expresstools@autodesk.com
 90
        0
280
     0
281
     0
  0
CLASS
  1
RTEXT
  2
RText
  3
RText|AutoCAD Express Tool|expresstools@autodesk.com
 90
        0
280
     0
281
     1
  0
CLASS
  1
ARCALIGNEDTEXT
  2
AcDbArcAlignedText
  3
ATEXT|AutoCAD Express Tool|expresstools@autodesk.com
 90
        0
280
     0
281
     1
  0
CLASS
  1
LONG_TRANSACTION
  2
AcDbLongTransaction
  3
AutoCAD 2000
 90
        0
280
     0
281
     0
  0
CLASS
  1
LWPOLYLINE
  2
AcDbPolyline
  3
AutoCAD 2000
 90
        0
280
     0
281
     1
  0
CLASS
  1
HATCH
  2
AcDbHatch
  3
AutoCAD 2000
 90
        0
280
     0
281
     1
  0
CLASS
  1
XRECORD
  2
AcDbXrecord
  3
AutoCAD 2000
 90
        0
280
     0
281
     0
  0
ENDSEC
  0
SECTION
  2
TABLES
  0
TABLE
  2
VPORT
  5
8
330
0
100
AcDbSymbolTable
 70
    14
  0
VPORT
  5
D26
330
8
100
AcDbSymbolTableRecord
100
AcDbViewportTableRecord
  2
*ACTIVE
 70
     0
 10
0.0
 20
0.0
 11
1.0
 21
1.0
 12
159.5525390590434
 22
15.2767512048028
 13
0.0
 23
0.0
 14
1.0
 24
1.0
 15
0.0
 25
0.0
 16
0.0
 26
0.0
 36
1.0
 17
0.0
 27
0.0
 37
0.0
 40
101.9387772536908
 41
1.781954887218045
 42
50.0
 43
0.0
 44
0.0
 50
0.0
 51
0.0
 71
     0
 72
   100
 73
     1
 74
     1
 75
     0
 76
     0
 77
     0
 78
     0
  0
ENDTAB
  0
TABLE
  2
LTYPE
  5
5
330
0
100
AcDbSymbolTable
 70
     7
  0
LTYPE
  5
14
330
5
100
AcDbSymbolTableRecord
100
AcDbLinetypeTableRecord
  2
BYBLOCK
 70
     0
  3

 72
    65
 73
     0
 40
0.0
  0
LTYPE
  5
15
330
5
100
AcDbSymbolTableRecord
100
AcDbLinetypeTableRecord
  2
BYLAYER
 70
     0
  3

 72
    65
 73
     0
 40
0.0
  0
LTYPE
  5
16
330
5
100
AcDbSymbolTableRecord
100
AcDbLinetypeTableRecord
  2
CONTINUOUS
 70
     0
  3
Solid line
 72
    65
 73
     0
 40
0.0
  0
LTYPE
  5
1F5
330
5
100
AcDbSymbolTableRecord
100
AcDbLinetypeTableRecord
  2
CENTER
 70
     0
  3
____ _ ____ _ ____ _ ____ _ ____ _ ____ _ ____
 72
    65
 73
     4
 40
0.6
 49
0.375
 74
     0
 49
-0.075
 74
     0
 49
0.075
 74
     0
 49
-0.075
 74
     0
  0
LTYPE
  5
1F6
330
5
100
AcDbSymbolTableRecord
100
AcDbLinetypeTableRecord
  2
HIDDEN
 70
     0
  3
- - - - - - - - - - - - - - - - - - - -
 72
    65
 73
     2
 40
0.2
 49
0.1
 74
     0
 49
-0.1
 74
     0
  0
LTYPE
  5
1F7
330
5
100
AcDbSymbolTableRecord
100
AcDbLinetypeTableRecord
  2
PHANTOM
 70
     0
  3
_____ _ _ _____ _ _ _____ _ _ _____
 72
    65
 73
     6
 40
0.8
 49
0.45
 74
     0
 49
-0.05
 74
     0
 49
0.1
 74
     0
 49
-0.05
 74
     0
 49
0.1
 74
     0
 49
-0.05
 74
     0
  0
LTYPE
  5
B44
330
5
100
AcDbSymbolTableRecord
100
AcDbLinetypeTableRecord
  2
CENTERX2
 70
     0
  3
Center (2x) ________  __  ________  __  _____
 72
    65
 73
     4
 40
4.0
 49
2.5
 74
     0
 49
-0.5
 74
     0
 49
0.5
 74
     0
 49
-0.5
 74
     0
  0
ENDTAB
  0
TABLE
  2
LAYER
  5
2
330
0
100
AcDbSymbolTable
 70
    33
  0
LAYER
  5
10
330
2
100
AcDbSymbolTableRecord
100
AcDbLayerTableRecord
  2
0
 70
     0
 62
     7
  6
CONTINUOUS
  0
LAYER
  5
B41
330
2
100
AcDbSymbolTableRecord
100
AcDbLayerTableRecord
  2
CENTER
 70
     0
 62
     1
  6
CENTERX2
  0
LAYER
  5
B49
330
2
100
AcDbSymbolTableRecord
100
AcDbLayerTableRecord
  2
DEFPOINTS
 70
     0
 62
     7
  6
CONTINUOUS
  0
ENDTAB
  0
TABLE
  2
STYLE
  5
3
330
0
100
AcDbSymbolTable
 70
     6
  0
STYLE
  5
11
330
3
100
AcDbSymbolTableRecord
100
AcDbTextStyleTableRecord
  2
STANDARD
 70
     0
 40
0.0
 41
0.8
 50
0.0
 71
     0
 42
0.2
  3
txt
  4

  0
STYLE
  5
219
330
3
100
AcDbSymbolTableRecord
100
AcDbTextStyleTableRecord
  2
TEXTSTYLE_1
 70
     0
 40
0.0
 41
0.8
 50
0.0
 71
     0
 42
0.2
  3
txt
  4

  0
STYLE
  5
B43
330
3
100
AcDbSymbolTableRecord
100
AcDbTextStyleTableRecord
  2

 70
     1
 40
0.0
 41
1.0
 50
0.0
 71
     0
 42
0.2
  3
ltypeshp.shx
  4

  0
ENDTAB
  0
TABLE
  2
VIEW
  5
6
330
0
100
AcDbSymbolTable
 70
     0
  0
ENDTAB
  0
TABLE
  2
UCS
  5
7
330
0
100
AcDbSymbolTable
 70
     0
  0
ENDTAB
  0
TABLE
  2
APPID
  5
9
330
0
100
AcDbSymbolTable
 70
     2
  0
APPID
  5
21D
330
9
100
AcDbSymbolTableRecord
100
AcDbRegAppTableRecord
  2
ACAD
 70
     0
  0
APPID
  5
B23
330
9
100
AcDbSymbolTableRecord
100
AcDbRegAppTableRecord
  2
DCO15
 70
     0
  0
ENDTAB
  0
TABLE
  2
DIMSTYLE
  5
A
330
0
100
AcDbSymbolTable
 70
     6
  0
DIMSTYLE
105
244
330
A
100
AcDbSymbolTableRecord
100
AcDbDimStyleTableRecord
  2
STANDARD
 70
     0
  3

  4

  5
_FILLED
  6
_FILLED
  7
_FILLED
 40
1.0
 41
0.1875
 42
0.0625
 43
0.38
 44
0.18
 45
0.0
 46
0.0
 47
0.00001
 48
0.00001
140
0.125
141
0.09
142
0.0
143
25.4
144
1.0
145
0.0
146
1.0
147
0.09
 71
     0
 72
     0
 73
     1
 74
     1
 75
     0
 76
     0
 77
     0
 78
     4
170
     0
171
     2
172
     0
173
     0
174
     0
175
     0
176
     0
177
     0
178
     0
270
     2
271
     5
272
     5
273
     2
274
     2
340
11
275
     0
280
     0
281
     0
282
     0
283
     1
284
     4
285
     0
286
     0
287
     3
288
     0
  0
ENDTAB
  0
TABLE
  2
BLOCK_RECORD
  5
1
330
0
100
AcDbSymbolTable
 70
    44
  0
BLOCK_RECORD
  5
1F
102
{ACAD_XDICTIONARY
360
D4A
102
}
330
1
100
AcDbSymbolTableRecord
100
AcDbBlockTableRecord
  2
*MODEL_SPACE
  0
BLOCK_RECORD
  5
1B
102
{ACAD_XDICTIONARY
360
D48
102
}
330
1
100
AcDbSymbolTableRecord
100
AcDbBlockTableRecord
  2
*PAPER_SPACE
  0
BLOCK_RECORD
  5
21E
330
1
100
AcDbSymbolTableRecord
100
AcDbBlockTableRecord
  2
_FILLED
  0
BLOCK_RECORD
  5
B4A
330
1
100
AcDbSymbolTableRecord
100
AcDbBlockTableRecord
  2
*D38
  0
BLOCK_RECORD
  5
B62
330
1
100
AcDbSymbolTableRecord
100
AcDbBlockTableRecord
  2
*D39
  0
BLOCK_RECORD
  5
B7A
330
1
100
AcDbSymbolTableRecord
100
AcDbBlockTableRecord
  2
*D40
  0
BLOCK_RECORD
  5
B88
330
1
100
AcDbSymbolTableRecord
100
AcDbBlockTableRecord
  2
*D41
  0
BLOCK_RECORD
  5
B96
330
1
100
AcDbSymbolTableRecord
100
AcDbBlockTableRecord
  2
*D42
  0
BLOCK_RECORD
  5
C1F
330
1
100
AcDbSymbolTableRecord
100
AcDbBlockTableRecord
  2
AMMA-6060-PRO
  0
ENDTAB
  0
ENDSEC
  0
SECTION
  2
BLOCKS
  0
BLOCK
  5
20
330
1F
100
AcDbEntity
  8
0
100
AcDbBlockBegin
  2
*MODEL_SPACE
 70
     0
 10
0.0
 20
0.0
 30
0.0
  3
*MODEL_SPACE
  1

  0
ENDBLK
  5
21
330
1F
100
AcDbEntity
  8
0
100
AcDbBlockEnd
  0
BLOCK
  5
1C
330
1B
100
AcDbEntity
 67
     1
  8
0
100
AcDbBlockBegin
  2
*PAPER_SPACE
 70
     0
 10
0.0
 20
0.0
 30
0.0
  3
*PAPER_SPACE
  1

  0
ENDBLK
  5
1D
330
1B
100
AcDbEntity
 67
     1
  8
0
100
AcDbBlockEnd
  0
BLOCK
  5
469
330
21E
100
AcDbEntity
  8
0
100
AcDbBlockBegin
  2
_FILLED
 70
     0
 10
0.0
 20
0.0
 30
0.0
  3
_FILLED
  1

  0
SOLID
  5
46A
330
21E
100
AcDbEntity
  8
0
  6
BYBLOCK
 62
     0
100
AcDbTrace
 10
0.0
 20
0.0
 30
0.0
 11
-1.0
 21
0.1666666667
 31
0.0
 12
-1.0
 22
-0.1666666667
 32
0.0
 13
-1.0
 23
-0.1666666667
 33
0.0
  0
ENDBLK
  5
46B
330
21E
100
AcDbEntity
  8
0
  6
BYBLOCK
 62
     0
100
AcDbBlockEnd
  0
BLOCK
  5
B55
330
B4A
100
AcDbEntity
  8
0
100
AcDbBlockBegin
  2
*D38
 70
     1
 10
0.0
 20
0.0
 30
0.0
  3
*D38
  1

  0
LINE
  5
B57
330
B4A
100
AcDbEntity
  8
CENTER
 62
     0
100
AcDbLine
 10
60.57463940746497
 20
115.1849255830939
 30
0.0
 11
63.25551213980146
 21
117.8645375866003
 31
0.0
  0
LINE
  5
B58
330
B4A
100
AcDbEntity
  8
CENTER
 62
     0
100
AcDbLine
 10
101.4301045554534
 20
74.31023837507833
 30
0.0
 11
104.1109772877899
 21
76.98985037858469
 31
0.0
  0
LINE
  5
B59
330
B4A
100
AcDbEntity
  8
CENTER
 62
     0
100
AcDbLine
 10
63.17163791754023
 20
117.515600106756
 30
0.0
 11
83.31439087160255
 21
97.36337020254779
 31
0.0
  0
LINE
  5
B5A
330
B4A
100
AcDbEntity
  8
CENTER
 62
     0
100
AcDbLine
 10
103.7620003939053
 20
76.90614029833958
 30
0.0
 11
83.61924743984298
 21
97.05837020254781
 31
0.0
  0
INSERT
  5
B5B
330
B4A
100
AcDbEntity
  8
CENTER
 62
     0
100
AcDbBlockReference
  2
_FILLED
 10
63.03908658172853
 20
117.6482138065556
 30
0.0
 41
0.1875
 42
0.1875
 43
0.1875
 50
134.986524644075
  0
INSERT
  5
B5C
330
B4A
100
AcDbEntity
  8
CENTER
 62
     0
100
AcDbBlockReference
  2
_FILLED
 10
103.8945517297169
 20
76.77352659853998
 30
0.0
 41
0.1875
 42
0.1875
 43
0.1875
 50
314.986524644075
  0
MTEXT
  5
B5D
330
B4A
100
AcDbEntity
  8
CENTER
 62
     0
100
AcDbMText
 10
83.46681915572276
 20
97.21087020254781
 30
0.0
 40
0.125
 41
0.0
 71
     5
 72
     1
  1
\A1;57.7919
1001
ACAD
1000
MTEXTBEGIN
1070
    73
1070
     1
1070
    44
1040
1.0
1070
    74
1070
     0
1000
MTEXTEND
  0
POINT
  5
B5E
330
B4A
100
AcDbEntity
  8
DEFPOINTS
 62
     0
100
AcDbPoint
 10
60.4994916442452
 20
115.1098131594673
 30
0.0
  0
POINT
  5
B5F
330
B4A
100
AcDbEntity
  8
DEFPOINTS
 62
     0
100
AcDbPoint
 10
101.3549567922336
 20
74.23512595145171
 30
0.0
  0
POINT
  5
B60
330
B4A
100
AcDbEntity
  8
DEFPOINTS
 62
     0
100
AcDbPoint
 10
103.8945517297169
 20
76.77352659853998
 30
0.0
  0
ENDBLK
  5
B56
330
B4A
100
AcDbEntity
  8
0
100
AcDbBlockEnd
  0
BLOCK
  5
B6D
330
B62
100
AcDbEntity
  8
0
100
AcDbBlockBegin
  2
*D39
 70
     1
 10
0.0
 20
0.0
 30
0.0
  3
*D39
  1

  0
LINE
  5
B6F
330
B62
100
AcDbEntity
  8
CENTER
 62
     0
100
AcDbLine
 10
20.37281792983365
 20
19.9774843874517
 30
0.0
 11
17.02618110484239
 21
19.9774843874517
 31
0.0
  0
LINE
  5
B70
330
B62
100
AcDbEntity
  8
CENTER
 62
     0
100
AcDbLine
 10
43.65321149063364
 20
-1.272515612548296
 30
0.0
 11
17.02618110484238
 21
-1.272515612548289
 31
0.0
  0
LINE
  5
B71
330
B62
100
AcDbEntity
  8
CENTER
 62
     0
100
AcDbLine
 10
17.33218110484239
 20
19.7899843874517
 30
0.0
 11
17.33218110484239
 21
9.504984387451706
 31
0.0
  0
LINE
  5
B72
330
B62
100
AcDbEntity
  8
CENTER
 62
     0
100
AcDbLine
 10
17.33218110484238
 20
-1.085015612548289
 30
0.0
 11
17.33218110484239
 21
9.199984387451706
 31
0.0
  0
INSERT
  5
B73
330
B62
100
AcDbEntity
  8
CENTER
 62
     0
100
AcDbBlockReference
  2
_FILLED
 10
17.33218110484239
 20
19.9774843874517
 30
0.0
 41
0.1875
 42
0.1875
 43
0.1875
 50
90.0
  0
INSERT
  5
B74
330
B62
100
AcDbEntity
  8
CENTER
 62
     0
100
AcDbBlockReference
  2
_FILLED
 10
17.33218110484238
 20
-1.272515612548289
 30
0.0
 41
0.1875
 42
0.1875
 43
0.1875
 50
270.0
  0
MTEXT
  5
B75
330
B62
100
AcDbEntity
  8
CENTER
 62
     0
100
AcDbMText
 10
17.33218110484238
 20
9.352484387451708
 30
0.0
 40
0.125
 41
0.0
 71
     5
 72
     1
  1
\A1;21.2500
1001
ACAD
1000
MTEXTBEGIN
1070
    73
1070
     1
1070
    44
1040
1.0
1070
    74
1070
     0
1000
MTEXTEND
  0
POINT
  5
B76
330
B62
100
AcDbEntity
  8
DEFPOINTS
 62
     0
100
AcDbPoint
 10
20.47906792983365
 20
19.9774843874517
 30
0.0
  0
POINT
  5
B77
330
B62
100
AcDbEntity
  8
DEFPOINTS
 62
     0
100
AcDbPoint
 10
43.75946149063365
 20
-1.272515612548296
 30
0.0
  0
POINT
  5
B78
330
B62
100
AcDbEntity
  8
DEFPOINTS
 62
     0
100
AcDbPoint
 10
17.33218110484238
 20
-1.272515612548289
 30
0.0
  0
ENDBLK
  5
B6E
330
B62
100
AcDbEntity
  8
0
100
AcDbBlockEnd
  0
BLOCK
  5
B85
330
B7A
100
AcDbEntity
  8
0
100
AcDbBlockBegin
  2
*D40
 70
     1
 10
0.0
 20
0.0
 30
0.0
  3
*D40
  1

  0
LINE
  5
B7B
330
B7A
100
AcDbEntity
  8
CENTER
 62
     0
100
AcDbLine
 10
60.84968300823365
 20
115.3602596178517
 30
0.0
 11
11.44799936662723
 21
115.3602596178517
 31
0.0
  0
LINE
  5
B7C
330
B7A
100
AcDbEntity
  8
CENTER
 62
     0
100
AcDbLine
 10
60.84968331863366
 20
53.18798206585171
 30
0.0
 11
11.44799936662722
 21
53.18798206585172
 31
0.0
  0
LINE
  5
B7D
330
B7A
100
AcDbEntity
  8
CENTER
 62
     0
100
AcDbLine
 10
11.75399936662723
 20
115.1727596178517
 30
0.0
 11
11.75399936662723
 21
84.42662084185172
 31
0.0
  0
LINE
  5
B7E
330
B7A
100
AcDbEntity
  8
CENTER
 62
     0
100
AcDbLine
 10
11.75399936662722
 20
53.37548206585172
 30
0.0
 11
11.75399936662723
 21
84.12162084185172
 31
0.0
  0
INSERT
  5
B7F
330
B7A
100
AcDbEntity
  8
CENTER
 62
     0
100
AcDbBlockReference
  2
_FILLED
 10
11.75399936662723
 20
115.3602596178517
 30
0.0
 41
0.1875
 42
0.1875
 43
0.1875
 50
90.0
  0
INSERT
  5
B80
330
B7A
100
AcDbEntity
  8
CENTER
 62
     0
100
AcDbBlockReference
  2
_FILLED
 10
11.75399936662722
 20
53.18798206585172
 30
0.0
 41
0.1875
 42
0.1875
 43
0.1875
 50
270.0
  0
MTEXT
  5
B81
330
B7A
100
AcDbEntity
  8
CENTER
 62
     0
100
AcDbMText
 10
11.75399936662721
 20
84.27412084185172
 30
0.0
 40
0.125
 41
0.0
 71
     5
 72
     1
  1
\A1;62.1723
1001
ACAD
1000
MTEXTBEGIN
1070
    73
1070
     1
1070
    44
1040
1.0
1070
    74
1070
     0
1000
MTEXTEND
  0
POINT
  5
B82
330
B7A
100
AcDbEntity
  8
DEFPOINTS
 62
     0
100
AcDbPoint
 10
60.95593300823365
 20
115.3602596178517
 30
0.0
  0
POINT
  5
B83
330
B7A
100
AcDbEntity
  8
DEFPOINTS
 62
     0
100
AcDbPoint
 10
60.95593331863367
 20
53.18798206585171
 30
0.0
  0
POINT
  5
B84
330
B7A
100
AcDbEntity
  8
DEFPOINTS
 62
     0
100
AcDbPoint
 10
11.75399936662722
 20
53.18798206585172
 30
0.0
  0
ENDBLK
  5
B86
330
B7A
100
AcDbEntity
  8
0
100
AcDbBlockEnd
  0
BLOCK
  5
B93
330
B88
100
AcDbEntity
  8
0
100
AcDbBlockBegin
  2
*D41
 70
     1
 10
0.0
 20
0.0
 30
0.0
  3
*D41
  1

  0
LINE
  5
B89
330
B88
100
AcDbEntity
  8
CENTER
 62
     0
100
AcDbLine
 10
119.5992994258336
 20
18.0837343874517
 30
0.0
 11
119.5992994258336
 21
28.34757571307871
 31
0.0
  0
LINE
  5
B8A
330
B88
100
AcDbEntity
  8
CENTER
 62
     0
100
AcDbLine
 10
181.7715769796316
 20
18.0837343874517
 30
0.0
 11
181.7715769796316
 21
28.34757571307871
 31
0.0
  0
LINE
  5
B8B
330
B88
100
AcDbEntity
  8
CENTER
 62
     0
100
AcDbLine
 10
119.7867994258336
 20
28.04157571307871
 30
0.0
 11
150.3121048693992
 21
28.04157571307871
 31
0.0
  0
LINE
  5
B8C
330
B88
100
AcDbEntity
  8
CENTER
 62
     0
100
AcDbLine
 10
181.5840769796316
 20
28.04157571307871
 30
0.0
 11
151.0587715360659
 21
28.04157571307871
 31
0.0
  0
INSERT
  5
B8D
330
B88
100
AcDbEntity
  8
CENTER
 62
     0
100
AcDbBlockReference
  2
_FILLED
 10
119.5992994258336
 20
28.04157571307871
 30
0.0
 41
0.1875
 42
0.1875
 43
0.1875
 50
180.0
  0
INSERT
  5
B8E
330
B88
100
AcDbEntity
  8
CENTER
 62
     0
100
AcDbBlockReference
  2
_FILLED
 10
181.7715769796316
 20
28.04157571307871
 30
0.0
 41
0.1875
 42
0.1875
 43
0.1875
  0
MTEXT
  5
B8F
330
B88
100
AcDbEntity
  8
CENTER
 62
     0
100
AcDbMText
 10
150.6854382027326
 20
28.04157571307871
 30
0.0
 40
0.125
 41
0.0
 71
     5
 72
     1
  1
\A1;62.1723
1001
ACAD
1000
MTEXTBEGIN
1070
    73
1070
     1
1070
    44
1040
1.0
1070
    74
1070
     0
1000
MTEXTEND
  0
POINT
  5
B90
330
B88
100
AcDbEntity
  8
DEFPOINTS
 62
     0
100
AcDbPoint
 10
119.5992994258336
 20
17.9774843874517
 30
0.0
  0
POINT
  5
B91
330
B88
100
AcDbEntity
  8
DEFPOINTS
 62
     0
100
AcDbPoint
 10
181.7715769796316
 20
17.9774843874517
 30
0.0
  0
POINT
  5
B92
330
B88
100
AcDbEntity
  8
DEFPOINTS
 62
     0
100
AcDbPoint
 10
181.7715769796316
 20
28.04157571307871
 30
0.0
  0
ENDBLK
  5
B94
330
B88
100
AcDbEntity
  8
0
100
AcDbBlockEnd
  0
BLOCK
  5
BA1
330
B96
100
AcDbEntity
  8
0
100
AcDbBlockBegin
  2
*D42
 70
     1
 10
0.0
 20
0.0
 30
0.0
  3
*D42
  1

  0
LINE
  5
BA3
330
B96
100
AcDbEntity
  8
CENTER
 62
     0
100
AcDbLine
 10
60.67906441147837
 20
115.2889673233234
 30
0.0
 11
64.42555590625321
 21
119.0146423514977
 31
0.0
  0
LINE
  5
BA4
330
B96
100
AcDbEntity
  8
CENTER
 62
     0
100
AcDbLine
 10
101.4302958978783
 20
74.31004645372349
 30
0.0
 11
105.1767873926531
 21
78.03572148189775
 31
0.0
  0
LINE
  5
BA5
330
B96
100
AcDbEntity
  8
CENTER
 62
     0
100
AcDbLine
 10
64.3407919330643
 20
118.6659199420526
 30
0.0
 11
84.43254235426712
 21
98.46191087015503
 31
0.0
  0
LINE
  5
BA6
330
B96
100
AcDbEntity
  8
CENTER
 62
     0
100
AcDbLine
 10
104.8275981173286
 20
77.95290179825745
 30
0.0
 11
84.73584769612577
 21
98.15691087015501
 31
0.0
  0
INSERT
  5
BA7
330
B96
100
AcDbEntity
  8
CENTER
 62
     0
100
AcDbBlockReference
  2
_FILLED
 10
64.20857928199644
 20
118.798871304955
 30
0.0
 41
0.1875
 42
0.1875
 43
0.1875
 50
134.8403819573062
  0
INSERT
  5
BA8
330
B96
100
AcDbEntity
  8
CENTER
 62
     0
100
AcDbBlockReference
  2
_FILLED
 10
104.9598107683964
 20
77.81995043535502
 30
0.0
 41
0.1875
 42
0.1875
 43
0.1875
 50
314.8403819573061
  0
MTEXT
  5
BA9
330
B96
100
AcDbEntity
  8
CENTER
 62
     0
100
AcDbMText
 10
84.58419502519644
 20
98.30941087015503
 30
0.0
 40
0.125
 41
0.0
 71
     5
 72
     1
  1
\A1;57.7922
1001
ACAD
1000
MTEXTBEGIN
1070
    73
1070
     1
1070
    44
1040
1.0
1070
    74
1070
     0
1000
MTEXTEND
  0
POINT
  5
BAA
330
B96
100
AcDbEntity
  8
DEFPOINTS
 62
     0
100
AcDbPoint
 10
60.60372530583366
 20
115.2140468210517
 30
0.0
  0
POINT
  5
BAB
330
B96
100
AcDbEntity
  8
DEFPOINTS
 62
     0
100
AcDbPoint
 10
101.3549567922336
 20
74.23512595145169
 30
0.0
  0
POINT
  5
BAC
330
B96
100
AcDbEntity
  8
DEFPOINTS
 62
     0
100
AcDbPoint
 10
104.9598107683964
 20
77.81995043535502
 30
0.0
  0
ENDBLK
  5
BA2
330
B96
100
AcDbEntity
  8
0
100
AcDbBlockEnd
  0
BLOCK
  5
D24
330
C1F
100
AcDbEntity
  8
0
100
AcDbBlockBegin
  2
AMMA-6060-PRO
 70
     0
 10
0.0
 20
0.0
 30
0.0
  3
AMMA-6060-PRO
  1

  0
MTEXT
  5
C20
330
C1F
100
AcDbEntity
  8
0
  6
CONTINUOUS
 62
     2
100
AcDbMText
 10
-124.3250833434336
 20
3.335015612548296
 30
0.0
 40
0.09375
 41
0.075
 71
     2
 72
     1
  1
 \P \P 
  7
TEXTSTYLE_1
1001
ACAD
1000
MTEXTBEGIN
1070
    73
1070
     1
1070
    44
1040
1.0
1070
    74
1070
     0
1000
MTEXTEND
1000
MTEXTBEGIN
1070
    73
1070
     1
1070
    44
1040
1.0
1070
    74
1070
     0
1000
MTEXTEND
  0
TEXT
  5
C21
330
C1F
100
AcDbEntity
  8
0
  6
CONTINUOUS
 62
     2
100
AcDbText
 10
-125.9250833434336
 20
3.210015612548296
 30
0.0
 40
0.09375
  1
 
 41
0.8
  7
TEXTSTYLE_1
 72
     1
 11
-125.8875833434336
 21
3.210015612548296
 31
0.0
100
AcDbText
  0
LWPOLYLINE
  5
C22
330
C1F
100
AcDbEntity
  8
0
  6
HIDDEN
 62
     8
100
AcDbPolyline
 90
        6
 70
     0
 43
0.0
 10
-1.932809101599985
 20
2.877680987199994
 10
-2.243168976800006
 20
2.871187755199997
 10
-2.511293139999992
 20
2.866337132799998
 10
-2.789403048800011
 20
2.862042503999994
 10
-3.076738627999986
 20
2.858324209599999
 10
-3.372630995999998
 20
2.855201025599996
  0
LWPOLYLINE
  5
C23
330
C1F
100
AcDbEntity
  8
0
  6
HIDDEN
 62
     8
100
AcDbPolyline
 90
       13
 70
     0
 43
0.0
 10
-0.0070339176000118
 20
2.893695031999996
 10
-0.1421669000000065
 20
2.893561038399994
 10
-0.308353786400005
 20
2.893130876799993
 10
-0.5020868823999934
 20
2.892354391999994
 10
-0.7196151944000065
 20
2.891176812799997
 10
-0.9483783512000059
 20
2.889603823999998
 10
-1.164802431200001
 20
2.887786711999993
 10
-1.354292738400005
 20
2.885904017599997
 10
-1.515829676000009
 20
2.884048697599993
 10
-1.651497760799998
 20
2.882275663999998
 10
-1.764614096799988
 20
2.880610083199997
 10
-1.858003731999986
 20
2.879067764799998
 10
-1.932809101599985
 20
2.877680987199994
  0
LWPOLYLINE
  5
C24
330
C1F
100
AcDbEntity
  8
0
  6
HIDDEN
 62
     8
100
AcDbPolyline
 90
        8
 70
     0
 43
0.0
 10
3.324749447199991
 20
2.856218983999994
 10
2.963586716000008
 20
2.860064273599995
 10
2.789507560799989
 20
2.862297148799996
 10
2.615431992800012
 20
2.864793023999993
 10
2.448499173599998
 20
2.867446489599998
 10
2.281570852000015
 20
2.870370137599998
 10
2.122874743200014
 20
2.873415982399997
 10
1.964184282399997
 20
2.8767401968
  0
LWPOLYLINE
  5
C25
330
C1F
100
AcDbEntity
  8
0
  6
HIDDEN
 62
     8
100
AcDbPolyline
 90
       14
 70
     0
 43
0.0
 10
1.964184282399997
 20
2.8767401968
 10
1.906807263199993
 20
2.877913790399993
 10
1.828830994399993
 20
2.879329617599999
 10
1.732342925599994
 20
2.880891566399995
 10
1.616379837599993
 20
2.882565455999994
 10
1.478660696800005
 20
2.884329838399999
 10
1.316476176799994
 20
2.886156318399997
 10
1.128026363999993
 20
2.887993295999997
 10
0.9143481384000153
 20
2.889754934399995
 10
0.689711853599988
 20
2.891272999999998
 10
0.4764638503999948
 20
2.892408140799993
 10
0.2868479079999986
 20
2.893155150399998
 10
0.125024693600011
 20
2.893566553599995
 10
-0.0070339176000118
 20
2.893695031999996
  0
LWPOLYLINE
  5
C26
330
C1F
100
AcDbEntity
  8
0
  6
HIDDEN
 62
     8
100
AcDbPolyline
 90
       62
 70
     0
 43
0.0
 10
-0.0070339176000118
 20
16.64140737919999
 10
0.0977466424000113
 20
16.63688818079999
 10
0.2071386872000005
 20
16.62290055039999
 10
0.3199022391999904
 20
16.59886820639999
 10
0.3767151543999887
 20
16.5830294752
 10
0.4328232471999911
 20
16.5648511168
 10
0.4885785511999928
 20
16.54419097279999
 10
0.5434183128000143
 20
16.52121061759999
 10
0.5967754936000063
 20
16.49615897119999
 10
0.6490213431999905
 20
16.46886636
 10
0.7462658007999892
 20
16.40997356639999
 10
0.8340903831999924
 20
16.34633893279999
 10
0.9146520440000074
 20
16.27750439519999
 10
0.991506221599991
 20
16.20054695999999
 10
1.067009058400003
 20
16.11181297119999
 10
1.105578323999992
 20
16.06048269119999
 10
1.142037859999987
 20
16.00763066879999
 10
1.180444915999999
 20
15.94682307199999
 10
1.216393627999991
 20
15.88452784479999
 10
1.253996660000012
 20
15.81304823199999
 10
1.288874778400014
 20
15.74019747359999
 10
1.324897984800003
 20
15.65742613919999
 10
1.3580805128
 20
15.57347338719999
 10
1.392206877599988
 20
15.47835580319999
 10
1.423477026400007
 20
15.3822595344
 10
1.455493399200008
 20
15.27374964319999
 10
1.484706528799989
 20
15.16445041599999
 10
1.514474861600007
 20
15.04146850719999
 10
1.541551527199999
 20
14.91786487039999
 10
1.569171832800009
 20
14.77854741439999
 10
1.594231362399995
 20
14.63874589599999
 10
1.619821924000007
 20
14.48081674239999
 10
1.6430008536
 20
14.3225149632
 10
1.666703800800007
 20
14.14365257919999
 10
1.688262479200005
 20
13.96451873279999
 10
1.731300973600014
 20
13.56005761439999
 10
1.775439299999987
 20
13.10642783679999
 10
1.827244365599995
 20
12.59826559519999
 10
1.859339892000008
 20
12.31695263519999
 10
1.8947455128
 20
12.03603591519999
 10
1.935167232800012
 20
11.74759255999999
 10
1.980092508000012
 20
11.45981815199999
 10
2.029160132000015
 20
11.17659554559999
 10
2.082854320800009
 20
10.89421283839999
 10
2.146471000800005
 20
10.58679848479999
 10
2.214519330400008
 20
10.28033228959999
 10
2.295328752800003
 20
9.936119900799994
 10
2.379148520800015
 20
9.592624897599996
 10
2.463928693599996
 20
9.253163353599994
 10
2.550750861599993
 20
8.914220646399996
 10
2.632010050399998
 20
8.606409292799995
 10
2.715957672799987
 20
8.299322678399995
 10
2.798694528800012
 20
8.007805692799998
 10
2.883860276000007
 20
7.716987156799994
 10
2.980547391199991
 20
7.395100559999995
 10
3.07886393679999
 20
7.073705988799993
 10
3.191193413599989
 20
6.711659083199997
 10
3.306110912799994
 20
6.350427428799996
 10
3.422625439200004
 20
5.997869409599999
 10
3.544581647200004
 20
5.6471523664
 10
3.657932871199989
 20
5.339787348799994
 10
3.777821840800015
 20
5.034937964799993
  0
LWPOLYLINE
  5
C27
330
C1F
100
AcDbEntity
  8
0
  6
HIDDEN
 62
     8
100
AcDbPolyline
 90
       53
 70
     0
 43
0.0
 10
-0.0070339176000118
 20
16.141789032
 10
0.0535201815999926
 20
16.1389881824
 10
0.1198823544000049
 20
16.13057154879999
 10
0.1908043271999986
 20
16.11644878079999
 10
0.2635346888000072
 20
16.09670326399999
 10
0.3356499527999972
 20
16.07131875839999
 10
0.4049152135999919
 20
16.04028009599999
 10
0.468593936800005
 20
16.0042891536
 10
0.5256217095999887
 20
15.9639913392
 10
0.5768530823999925
 20
15.91907739039999
 10
0.624710645600004
 20
15.86715406079999
 10
0.6705771336000055
 20
15.80535658239999
 10
0.6938538663999907
 20
15.76827841759999
 10
0.7152601191999964
 20
15.73008636639999
 10
0.7380501911999886
 20
15.68446747039999
 10
0.7587880119999966
 20
15.63787635199999
 10
0.7809797975999971
 20
15.58194345759999
 10
0.8010625880000077
 20
15.52521655039999
 10
0.8223843608000152
 20
15.45798389919999
 10
0.8417271607999907
 20
15.3901537952
 10
0.8809937048000051
 20
15.23087435359999
 10
0.9193886072000054
 20
15.04469663839999
 10
0.9569570344000055
 20
14.82983240639999
 10
0.9938450264000096
 20
14.58328651679999
 10
1.030093045600011
 20
14.30061520319999
 10
1.065320348
 20
13.9771561616
 10
1.099210941600006
 20
13.60709923679999
 10
1.132899735199998
 20
13.1832710992
 10
1.16980509359999
 20
12.70261225599999
 10
1.192647090400015
 20
12.43065295039999
 10
1.218065962400004
 20
12.15892253119999
 10
1.249965957600011
 20
11.85890003199999
 10
1.286397360800009
 20
11.55939251839999
 10
1.326876607200006
 20
11.2669582288
 10
1.372496786400006
 20
10.97528506719999
 10
1.423961100000013
 20
10.68188038079999
 10
1.480614693599989
 20
10.3894298528
 10
1.551073815199998
 20
10.05691802719999
 10
1.627055213599987
 20
9.725621284799998
 10
1.713755602399999
 20
9.372289670399993
 10
1.805518752799997
 20
9.020239057599994
 10
1.894895735200009
 20
8.694650950399996
 10
1.988305162399996
 20
8.370198803199997
 10
2.074918941600003
 20
8.082251875199993
 10
2.164757602400015
 20
7.795295847999994
 10
2.259839770399992
 20
7.503013535999997
 10
2.357834173599997
 20
7.211693507199996
 10
2.473254960800005
 20
6.8785403344
 10
2.591244416800009
 20
6.546286003199995
 10
2.722294932000011
 20
6.184941139199999
 10
2.856438797599992
 20
5.824732551999993
 10
2.986815288799988
 20
5.485751153599998
 10
3.121586733599997
 20
5.148503564799995
  0
LINE
  5
C28
330
C1F
100
AcDbEntity
  8
0
  6
HIDDEN
 62
     8
100
AcDbLine
 10
-13.7338880984
 20
15.85125191999999
 30
0.0
 11
-15.54015914159998
 21
16.25297515999999
 31
0.0
  0
LINE
  5
C29
330
C1F
100
AcDbEntity
  8
0
  6
HIDDEN
 62
     8
100
AcDbLine
 10
-13.35581317040001
 20
16.19479790879999
 30
0.0
 11
-12.86572747279999
 21
15.98979474239999
 31
0.0
  0
LINE
  5
C2A
330
C1F
100
AcDbEntity
  8
0
  6
HIDDEN
 62
     8
100
AcDbLine
 10
3.777821840800015
 20
5.034937964799993
 30
0.0
 11
3.876068339999989
 21
4.800574667199995
 31
0.0
  0
LWPOLYLINE
  5
C2B
330
C1F
100
AcDbEntity
  8
0
  6
HIDDEN
 62
     8
100
AcDbPolyline
 90
       49
 70
     0
 43
0.0
 10
-3.9331421368
 20
4.802977625599993
 10
-3.930081786399995
 20
4.729380500799997
 10
-3.926361941599992
 20
4.6558131488
 10
-3.922025764000011
 20
4.583100167999994
 10
-3.917023341599985
 20
4.510430158399998
 10
-3.911434299999996
 20
4.438937148799993
 10
-3.90516939119999
 20
4.367500166399999
 10
-3.898356367199994
 20
4.297556660799997
 10
-3.89085486479999
 20
4.227683678399998
 10
-3.882852551199988
 20
4.159611918399996
 10
-3.874145903200002
 20
4.091626684799997
 10
-3.864994668000008
 20
4.025739945599994
 10
-3.855119709599989
 20
3.959957823999999
 10
-3.844865453599993
 20
3.896558940799998
 10
-3.833864192800007
 20
3.833285457599998
 10
-3.822558192799988
 20
3.772665324799994
 10
-3.810477565599995
 20
3.712194865599997
 10
-3.798176279199992
 20
3.654630950399997
 10
-3.785067882399999
 20
3.597245532799995
 10
-3.771832744800008
 20
3.543000404799997
 10
-3.757752546399984
 20
3.488968574399997
 10
-3.743649727199994
 20
3.438288415999998
 10
-3.728657770399991
 20
3.387864273599994
 10
-3.713757871199987
 20
3.340977343999995
 10
-3.697917983199999
 20
3.294399772799998
 10
-3.682295643999992
 20
3.2515147728
 10
-3.665675215199996
 20
3.209006915199999
 10
-3.649408525599994
 20
3.170311175999998
 10
-3.632078444000001
 20
3.132080249599994
 10
-3.615247893599985
 20
3.097737636799998
 10
-3.59728290160001
 20
3.063975211199995
 10
-3.585866730399999
 20
3.044000710399998
 10
-3.573938461599993
 20
3.024328260799997
 10
-3.561449359199997
 20
3.005006471999998
 10
-3.549769715999985
 20
2.988078900799997
 10
-3.537551575199984
 20
2.971536750399998
 10
-3.524743381599989
 20
2.955446489599999
 10
-3.512843623199984
 20
2.941611716799997
 10
-3.500390250399988
 20
2.928274446399996
 10
-3.487334567200008
 20
2.915524252799997
 10
-3.475236973600004
 20
2.904808308799999
 10
-3.462600347999995
 20
2.894736863999995
 10
-3.449395762400001
 20
2.885424217599997
 10
-3.437099373600005
 20
2.877846734399994
 10
-3.424332799199987
 20
2.871091891199995
 10
-3.411102261600007
 20
2.865285459199995
 10
-3.398550186400001
 20
2.860891897599998
 10
-3.385697658400005
 20
2.857499308799994
 10
-3.372631000799998
 20
2.855201025599996
  0
LWPOLYLINE
  5
C2C
330
C1F
100
AcDbEntity
  8
0
  6
HIDDEN
 62
     8
100
AcDbPolyline
 90
       55
 70
     0
 43
0.0
 10
-3.164500839200002
 20
5.158310871999994
 10
-3.164376365599991
 20
5.082964135999993
 10
-3.162853760800004
 20
5.007629913599998
 10
-3.159936808800011
 20
4.932386943999993
 10
-3.15562236720001
 20
4.857211908799996
 10
-3.149931463200005
 20
4.782430335999997
 10
-3.142840922400012
 20
4.707768299199997
 10
-3.134407786400004
 20
4.633802175999996
 10
-3.124570160800004
 20
4.560009812799997
 10
-3.113439447199993
 20
4.487208723199998
 10
-3.1008967944
 20
4.414637606399999
 10
-3.08712590959999
 20
4.343344932799993
 10
-3.071933192800003
 20
4.272341743999994
 10
-3.055591973600002
 20
4.202893119999998
 10
-3.03781684239999
 20
4.133797691199994
 10
-3.018987172000009
 20
4.066519278399994
 10
-2.998709687200005
 20
3.999663099199999
 10
-2.97748503439999
 20
3.934869979199994
 10
-2.9547973608
 20
3.870574692799998
 10
-2.931282223199985
 20
3.808569283199993
 10
-2.9062883096
 20
3.747145238399994
 10
-2.880597557599998
 20
3.688215763199998
 10
-2.853412797599986
 20
3.629960644799993
 10
-2.825670911200006
 20
3.574379675199999
 10
-2.796421816800005
 20
3.519577172799998
 10
-2.766761995999985
 20
3.467600268799998
 10
-2.735585895199989
 20
3.416518801599998
 10
-2.704149019999988
 20
3.368383283199996
 10
-2.671193810399984
 20
3.321274739199999
 10
-2.638127260000004
 20
3.277198659199996
 10
-2.603551223199985
 20
3.234297097599998
 10
-2.580684592799997
 20
3.207609814399994
 10
-2.557165523999998
 20
3.181495921599996
 10
-2.532979224799987
 20
3.155998750399994
 10
-2.509227458400005
 20
3.132248963199998
 10
-2.484842176799986
 20
3.109150390399996
 10
-2.459812808799995
 20
3.086751371199994
 10
-2.435278667999995
 20
3.066042331199994
 10
-2.410142234399984
 20
3.046068958399999
 10
-2.384399288800011
 20
3.026883671999996
 10
-2.35918534640001
 20
3.009306111999997
 10
-2.333416280800008
 20
2.992553319999998
 10
-2.307096639200011
 20
2.976679836799995
 10
-2.281305314399986
 20
2.962313310399999
 10
-2.255025348000003
 20
2.948861630399996
 10
-2.228271807200002
 20
2.936378175999998
 10
-2.202004656799999
 20
2.925292598399998
 10
-2.175337775200006
 20
2.915207310399999
 10
-2.148298962399991
 20
2.906170001599996
 10
-2.121663061600003
 20
2.898427182399998
 10
-2.094737339999994
 20
2.891757945599998
 10
-2.067557727200011
 20
2.886198703999994
 10
-2.040652075999986
 20
2.881851759999996
 10
-2.01359150319999
 20
2.878631630399993
 10
-1.986431370399998
 20
2.876559087999993
  0
LINE
  5
C2D
330
C1F
100
AcDbEntity
  8
0
  6
HIDDEN
 62
     8
100
AcDbLine
 10
-13.46223543919998
 20
16.83164024799999
 30
0.0
 11
-13.54986835599999
 21
16.58637745439999
 31
0.0
  0
LINE
  5
C2E
330
C1F
100
AcDbEntity
  8
0
  6
HIDDEN
 62
     8
100
AcDbLine
 10
-12.29282794479999
 20
16.38466855839999
 30
0.0
 11
-12.383766068
 21
16.17222601919999
 31
0.0
  0
LWPOLYLINE
  5
C2F
330
C1F
100
AcDbEntity
  8
0
  6
HIDDEN
 62
     8
100
AcDbPolyline
 90
       55
 70
     0
 43
0.0
 10
3.121580335200007
 20
5.148503334399997
 10
3.121269979999993
 20
5.073379923199993
 10
3.119594500000005
 20
4.998271911999999
 10
3.116558159199996
 20
4.923274372799994
 10
3.112157031200013
 20
4.848345254399994
 10
3.10641369679999
 20
4.773829204799994
 10
3.099303119199987
 20
4.699431007999997
 10
3.090884509599987
 20
4.625746399999997
 10
3.081093412000001
 20
4.552231668799997
 10
3.070043821599995
 20
4.479724782399998
 10
3.057613836000001
 20
4.407441785599999
 10
3.043989917600015
 20
4.336452566399998
 10
3.028975178400003
 20
4.265744524799998
 10
3.012845644000009
 20
4.196605179199998
 10
2.995312571999988
 20
4.127808454399996
 10
2.976757819999988
 20
4.060841756799995
 10
2.956784850399998
 20
3.994284398399997
 10
2.935896512800013
 20
3.929802100799996
 10
2.913573807200009
 20
3.865802361599996
 10
2.890454212000008
 20
3.804103635199993
 10
2.865883327200009
 20
3.742968561599994
 10
2.840644861599997
 20
3.684338478399993
 10
2.8139384344
 20
3.626362566399997
 10
2.786702800800014
 20
3.571070657599996
 10
2.757984224799997
 20
3.516534556799996
 10
2.728881565600005
 20
3.464833460799994
 10
2.698284707999988
 20
3.4140027328
 10
2.667452591200003
 20
3.366126974399996
 10
2.635121572000002
 20
3.319250870399997
 10
2.602703808800015
 20
3.275415825599999
 10
2.5687928392
 20
3.232726039999995
 10
2.546383986400002
 20
3.206188644799993
 10
2.523328775200013
 20
3.180211054399997
 10
2.499611472800012
 20
3.154836487999993
 10
2.476342005600002
 20
3.1312208736
 10
2.452443362400003
 20
3.1082424656
 10
2.427903891999989
 20
3.085949723199995
 10
2.403873677599989
 20
3.065357483199996
 10
2.379243652000013
 20
3.045486887999999
 10
2.354008437600015
 20
3.026390771199999
 10
2.329316879200007
 20
3.008911067199996
 10
2.304070848799995
 20
2.992242596799997
 10
2.278273772000005
 20
2.976440651199993
 10
2.253019787999988
 20
2.962151631999994
 10
2.227276229599993
 20
2.948764951999997
 10
2.201057235999996
 20
2.936335041599996
 10
2.175338532000012
 20
2.925305524799995
 10
2.149218090400012
 20
2.915265270399999
 10
2.122723157600006
 20
2.906263174399995
 10
2.096642727199991
 20
2.898554355199998
 10
2.070270122399989
 20
2.891909772799998
 10
2.043641144800005
 20
2.886366934399994
 10
2.017293749600014
 20
2.882031915199995
 10
1.990789586400012
 20
2.878815849599995
 10
1.964184368800005
 20
2.876740201599993
  0
LWPOLYLINE
  5
C30
330
C1F
100
AcDbEntity
  8
0
  6
HIDDEN
 62
     8
100
AcDbPolyline
 90
       49
 70
     0
 43
0.0
 10
3.876068339999989
 20
4.800574667199995
 10
3.873031263200005
 20
4.727077214399997
 10
3.869346605600014
 20
4.653608790399999
 10
3.865057517600007
 20
4.581001126399996
 10
3.860114160800009
 20
4.508435239999997
 10
3.854595821600014
 20
4.437051940799996
 10
3.848413690400008
 20
4.365723038399998
 10
3.841694568799994
 20
4.295892412799993
 10
3.834299143200013
 20
4.226130203199993
 10
3.82641337199999
 20
4.158173267199998
 10
3.817835583200007
 20
4.090300235199997
 10
3.808822858399992
 20
4.024529059199998
 10
3.79909890799999
 20
3.958859307199993
 10
3.789004349599991
 20
3.895575555199997
 10
3.778175490400002
 20
3.832413359999996
 10
3.767049484000011
 20
3.771906787199995
 10
3.755161791200009
 20
3.711545307199997
 10
3.743059802400011
 20
3.654092297599994
 10
3.730163898400007
 20
3.596812348799993
 10
3.717146282399994
 20
3.542674446399999
 10
3.70329705360001
 20
3.488743399999997
 10
3.689428811999988
 20
3.438165839999996
 10
3.674685111200005
 20
3.387836659199997
 10
3.660035618400002
 20
3.341046833599996
 10
3.644459971999992
 20
3.294557303999994
 10
3.629102591199995
 20
3.251763142399994
 10
3.612760973599989
 20
3.209335350399996
 10
3.596772504800014
 20
3.170723511999995
 10
3.579734247200008
 20
3.132563668799996
 10
3.563193922399989
 20
3.098297443199996
 10
3.545532043999997
 20
3.064596175999994
 10
3.5343152744
 20
3.044669110399993
 10
3.522591615200013
 20
3.025036505599999
 10
3.510312035999987
 20
3.005746203199997
 10
3.498838591200012
 20
2.988860639999998
 10
3.486830866399998
 20
2.972351673599995
 10
3.474236584799996
 20
2.956285044799997
 10
3.46254944719999
 20
2.942486236799993
 10
3.450311266400007
 20
2.929175067199999
 10
3.437471999199999
 20
2.916440718399996
 10
3.425592978400004
 20
2.905753515199997
 10
3.413175183199996
 20
2.895700641599994
 10
3.400187762400008
 20
2.886396902399994
 10
3.388114715999989
 20
2.878838939199994
 10
3.375569261599991
 20
2.872094735999993
 10
3.362555751200005
 20
2.866292102399995
 10
3.350228314399998
 20
2.861907382399998
 10
3.337597396000006
 20
2.858517742399996
 10
3.324749445599991
 20
2.856218996799995
  0
LWPOLYLINE
  5
C31
330
C1F
100
AcDbEntity
  8
0
  6
HIDDEN
 62
     8
100
AcDbPolyline
 90
       61
 70
     0
 43
0.0
 10
-3.825762098399991
 20
5.058575195199999
 10
-3.70220023760001
 20
5.371936108799999
 10
-3.585131490399987
 20
5.687804231999997
 10
-3.458485541599998
 20
6.049399118399996
 10
-3.337297621599986
 20
6.412855649599997
 10
-3.218259613599997
 20
6.783424295999999
 10
-3.102001490399999
 20
7.154876105599996
 10
-2.996953538399992
 20
7.496190564799995
 10
-2.893832583200008
 20
7.838091219199995
 10
-2.799024199200005
 20
8.161037239999998
 10
-2.707167490399996
 20
8.484830863999995
 10
-2.614644189599999
 20
8.824532187199999
 10
-2.525036704799987
 20
9.165020446399999
 10
-2.433892559199989
 20
9.520477915199997
 10
-2.345131490400007
 20
9.876537889599994
 10
-2.265891250399988
 20
10.2054195152
 10
-2.190387378400004
 20
10.5351746256
 10
-2.12884240400001
 20
10.82277351839999
 10
-2.071812655200005
 20
11.11130003999999
 10
-2.021045605599994
 20
11.39339765759999
 10
-1.975046874399993
 20
11.67631297439999
 10
-1.932569183200001
 20
11.96781481279999
 10
-1.8944930392
 20
12.25992491359999
 10
-1.862210820000001
 20
12.5347867248
 10
-1.832644195999989
 20
12.80995332159999
 10
-1.7845299656
 20
13.29485650079999
 10
-1.741386445599999
 20
13.72391556479999
 10
-1.697670330400001
 20
14.10562191519999
 10
-1.675539843999985
 20
14.27454098079999
 10
-1.651187748000012
 20
14.44315366719999
 10
-1.627423557599996
 20
14.59228834079999
 10
-1.601267591199984
 20
14.74102148479999
 10
-1.575710506399985
 20
14.87281527839999
 10
-1.54764234000001
 20
15.00409634399999
 10
-1.520176381600009
 20
15.12070337759999
 10
-1.49008675440001
 20
15.23665992959999
 10
-1.460646285600006
 20
15.33971422719999
 10
-1.428496650400006
 20
15.4419543984
 10
-1.397200181599998
 20
15.53245253599999
 10
-1.363169335199984
 20
15.6219564608
 10
-1.330247963999994
 20
15.70077991359999
 10
-1.294648170399995
 20
15.77842815839999
 10
-1.260383674400003
 20
15.84658513279999
 10
-1.223596840799984
 20
15.91341196159999
 10
-1.188378957600008
 20
15.97192940639999
 10
-1.15089266000001
 20
16.02901795839999
 10
-1.114945367199993
 20
16.07927556799999
 10
-1.077021111199996
 20
16.12805654559999
 10
-1.002451114400003
 20
16.21298222879999
 10
-0.9260866440000086
 20
16.28726695999999
 10
-0.8453120936000004
 20
16.35438569119999
 10
-0.7573953991999929
 20
16.41635875839999
 10
-0.6606357176000018
 20
16.473423896
 10
-0.6085695031999876
 20
16.49993958719999
 10
-0.5554468855999915
 20
16.52427110399999
 10
-0.5007357687999843
 20
16.54665083999999
 10
-0.4451524568000025
 20
16.56676698719999
 10
-0.3324662295999872
 20
16.59994506079999
 10
-0.2201644632000068
 20
16.62336051519999
 10
-0.1112866135999866
 20
16.63699875359999
 10
-0.0070339176000118
 20
16.64140743039999
  0
LWPOLYLINE
  5
C32
330
C1F
100
AcDbEntity
  8
0
  6
HIDDEN
 62
     8
100
AcDbPolyline
 90
       53
 70
     0
 43
0.0
 10
-3.164538280800002
 20
5.1583074224
 10
-3.024529636000011
 20
5.506213478399999
 10
-2.88910264719999
 20
5.855938956799995
 10
-2.751047008799986
 20
6.224480543999995
 10
-2.616331675999987
 20
6.594255731199993
 10
-2.492703423199998
 20
6.941456942399995
 10
-2.371968392799999
 20
7.289673155199999
 10
-2.2655070152
 20
7.606694190399998
 10
-2.162602439199986
 20
7.924885148799994
 10
-2.062054269599997
 20
8.250003212799995
 10
-1.965765371999992
 20
8.576410964799997
 10
-1.866102621599992
 20
8.931765609599999
 10
-1.771416767200008
 20
9.288480052799997
 10
-1.68425153839999
 20
9.636610023999999
 10
-1.602431373600012
 20
9.986032723199997
 10
-1.535371253600004
 20
10.29460527679999
 10
-1.473536893599998
 20
10.60426410399999
 10
-1.421250428000007
 20
10.8930133008
 10
-1.374187067999997
 20
11.18265861119999
 10
-1.331102827999984
 20
11.48294071519999
 10
-1.293346175199985
 20
11.78394181439999
 10
-1.261226965600002
 20
12.07786181759999
 10
-1.233181912800006
 20
12.37219635199999
 10
-1.211152099999992
 20
12.63362981599999
 10
-1.190908112800002
 20
12.89520890879999
 10
-1.156761416800009
 20
13.35009595679999
 10
-1.123591743199995
 20
13.74821224319999
 10
-1.089069776799988
 20
14.09622011359999
 10
-1.052941527200005
 20
14.40026286239999
 10
-1.015808880799994
 20
14.6659359776
 10
-0.9780440231999989
 20
14.89792211679999
 10
-0.9396793015999946
 20
15.10001572799999
 10
-0.9006536951999919
 20
15.27501767359999
 10
-0.8608851191999917
 20
15.42466083999999
 10
-0.8414325496000003
 20
15.48807858079999
 10
-0.8200665976000038
 20
15.55087582079999
 10
-0.8000035512000067
 20
15.60386674399999
 10
-0.7779461464000122
 20
15.656056512
 10
-0.7572214967999856
 20
15.69993566879999
 10
-0.7345621752000114
 20
15.7428446896
 10
-0.7130568343999926
 20
15.7792654048
 10
-0.6897738071999982
 20
15.81457295199999
 10
-0.6437483736000047
 20
15.87384221279999
 10
-0.5954959432000067
 20
15.92408325599999
 10
-0.5433822599999872
 20
15.96802856799999
 10
-0.4857728503999966
 20
16.00726028319999
 10
-0.421778007200004
 20
16.0422245376
 10
-0.3520589192000045
 20
16.07252701759999
 10
-0.2793484167999907
 20
16.09742289599999
 10
-0.2060199960000091
 20
16.11683707359999
 10
-0.1346632295999939
 20
16.13072808319999
 10
-0.0679169064000007
 20
16.13902401759999
 10
-0.0070339176000118
 20
16.141789032
  0
LINE
  5
C33
330
C1F
100
AcDbEntity
  8
0
  6
HIDDEN
 62
     8
100
AcDbLine
 10
-3.9331421368
 20
4.802977625599993
 30
0.0
 11
-3.825762098399991
 21
5.058575195199999
 31
0.0
  0
LINE
  5
C34
330
C1F
100
AcDbEntity
  8
0
  6
HIDDEN
 62
     8
100
AcDbLine
 10
-13.11827800239999
 20
15.83123207839999
 30
0.0
 11
-12.61829231600001
 21
15.97520184159999
 31
0.0
  0
LWPOLYLINE
  5
C35
330
C1F
100
AcDbEntity
  8
0
  6
CONTINUOUS
 62
     7
100
AcDbPolyline
 90
        5
 70
     0
 43
0.0
 10
-20.39087488239999
 20
20.56371664639999
 10
-20.43141110479999
 20
20.21052750239999
 10
-20.47713750479999
 20
19.8103148624
 10
-20.52317690480001
 20
19.40646186079999
 10
-20.56953391760001
 20
19.0
  0
LINE
  5
C36
330
C1F
100
AcDbEntity
  8
0
  6
CONTINUOUS
 62
     7
100
AcDbLine
 10
-20.3718688216
 20
20.65630368639999
 30
0.0
 11
-20.3908783448
 21
20.56368399519999
 31
0.0
  0
LWPOLYLINE
  5
C37
330
C1F
100
AcDbEntity
  8
0
  6
CONTINUOUS
 62
     7
100
AcDbPolyline
 90
        3
 70
     0
 43
0.0
 10
-20.27984681199999
 20
20.83917224159999
 10
-20.33369297359999
 20
20.75181873439999
 10
-20.3718688216
 20
20.65630368639999
  0
LWPOLYLINE
  5
C38
330
C1F
100
AcDbEntity
  8
0
  6
CONTINUOUS
 62
     7
100
AcDbPolyline
 90
        4
 70
     0
 43
0.0
 10
-20.16799490959999
 20
20.9603635728
 10
-20.21237107280001
 20
20.91834358719999
 10
-20.2504497912
 20
20.87655466559999
 10
-20.2797772216
 20
20.83926740319999
  0
LINE
  5
C39
330
C1F
100
AcDbEntity
  8
0
  6
CONTINUOUS
 62
     7
100
AcDbLine
 10
-15.26461683599998
 20
12.39160213119999
 30
0.0
 11
-15.246062972
 21
12.1919865008
 31
0.0
  0
LINE
  5
C3A
330
C1F
100
AcDbEntity
  8
0
  6
CONTINUOUS
 62
     7
100
AcDbLine
 10
-15.2637190776
 20
12.38179931679999
 30
0.0
 11
-15.2550624408
 21
12.28824831839999
 31
0.0
  0
LINE
  5
C3B
330
C1F
100
AcDbEntity
  8
0
  6
CONTINUOUS
 62
     7
100
AcDbLine
 10
-15.2793722424
 20
12.55340283679999
 30
0.0
 11
-15.27182287599998
 21
12.4702421024
 31
0.0
  0
LINE
  5
C3C
330
C1F
100
AcDbEntity
  8
0
  6
CONTINUOUS
 62
     7
100
AcDbLine
 10
-15.28100028079998
 20
12.57149270399999
 30
0.0
 11
-15.2637190776
 21
12.38179931679999
 31
0.0
  0
LINE
  5
C3D
330
C1F
100
AcDbEntity
  8
0
  6
CONTINUOUS
 62
     7
100
AcDbLine
 10
-15.29496312239999
 20
12.7276078736
 30
0.0
 11
-15.28100028079998
 21
12.57149270399999
 31
0.0
  0
LINE
  5
C3E
330
C1F
100
AcDbEntity
  8
0
  6
HIDDEN
 62
     8
100
AcDbLine
 10
-15.62904787919998
 20
16.54449999199999
 30
0.0
 11
-15.6125941592
 21
16.35699999999999
 31
0.0
  0
LINE
  5
C3F
330
C1F
100
AcDbEntity
  8
0
  6
CONTINUOUS
 62
     7
100
AcDbLine
 10
-15.30527891439999
 20
12.84463356959999
 30
0.0
 11
-15.29496312239999
 21
12.7276078736
 31
0.0
  0
LINE
  5
C40
330
C1F
100
AcDbEntity
  8
0
  6
CONTINUOUS
 62
     7
100
AcDbLine
 10
-15.844100972
 20
19.0
 30
0.0
 11
-15.6291531624
 21
16.54449077599999
 31
0.0
  0
LINE
  5
C41
330
C1F
100
AcDbEntity
  8
0
  6
CONTINUOUS
 62
     7
100
AcDbLine
 10
-15.59632674159999
 20
16.16949007679999
 30
0.0
 11
-15.3052587688
 21
12.84440342239999
 31
0.0
  0
LINE
  5
C42
330
C1F
100
AcDbEntity
  8
0
  6
HIDDEN
 62
     8
100
AcDbLine
 10
-15.6125941592
 20
16.35699999999999
 30
0.0
 11
-15.59621329679998
 21
16.169500008
 31
0.0
  0
LINE
  5
C43
330
C1F
100
AcDbEntity
  8
0
  6
CONTINUOUS
 62
     7
100
AcDbLine
 10
-15.84323141359999
 20
19.0
 30
0.0
 11
-15.71156908879999
 21
17.49454863359999
 31
0.0
  0
LWPOLYLINE
  5
C44
330
C1F
100
AcDbEntity
  8
0
  6
CONTINUOUS
 62
     7
100
AcDbPolyline
 90
        3
 70
     0
 43
0.0
 10
-15.24606072239999
 20
12.19196282559999
 10
-15.2145271832
 20
12.0260358432
 10
-15.15323280719999
 20
11.86454452639999
  0
LINE
  5
C45
330
C1F
100
AcDbEntity
  8
0
  6
CONTINUOUS
 62
     7
100
AcDbLine
 10
-15.24606072399999
 20
12.19196283199999
 30
0.0
 11
-15.2144791128
 21
12.02586772319999
 31
0.0
  0
LINE
  5
C46
330
C1F
100
AcDbEntity
  8
0
  6
CONTINUOUS
 62
     7
100
AcDbLine
 10
-11.3028677096
 20
2.458736183999995
 30
0.0
 11
-11.28708118
 21
2.306100119999996
 31
0.0
  0
LINE
  5
C47
330
C1F
100
AcDbEntity
  8
0
  6
CONTINUOUS
 62
     7
100
AcDbLine
 10
-11.287094324
 20
2.306231663999994
 30
0.0
 11
-11.2724839608
 21
2.154912247999995
 31
0.0
  0
LWPOLYLINE
  5
C48
330
C1F
100
AcDbEntity
  8
0
  6
CONTINUOUS
 62
     7
100
AcDbPolyline
 90
        4
 70
     0
 43
0.0
 10
-12.70894686319999
 20
10.20368395039999
 10
-12.6128601032
 20
9.1619873888
 10
-12.40842923599998
 20
6.834172292799998
 10
-12.20818994960001
 20
4.499011921599993
  0
LINE
  5
C49
330
C1F
100
AcDbEntity
  8
0
  6
CONTINUOUS
 62
     7
100
AcDbLine
 10
-9.249451396000011
 20
0.529029131199998
 30
0.0
 11
-9.620958863200002
 21
0.9005365983999951
 31
0.0
  0
LWPOLYLINE
  5
C4A
330
C1F
100
AcDbEntity
  8
0
  6
CONTINUOUS
 62
     7
100
AcDbPolyline
 90
        3
 70
     0
 43
0.0
 10
-11.8020974904
 20
3.396500937599995
 10
-11.70790690800001
 20
3.273693404799999
 10
-11.6118844824
 20
3.164416732799999
  0
LINE
  5
C4B
330
C1F
100
AcDbEntity
  8
0
  6
CONTINUOUS
 62
     7
100
AcDbLine
 10
-11.80194578800001
 20
3.396288382399994
 30
0.0
 11
-11.707824068
 21
3.273592771199993
 31
0.0
  0
LINE
  5
C4C
330
C1F
100
AcDbEntity
  8
0
  6
CONTINUOUS
 62
     7
100
AcDbLine
 10
-11.89175832879999
 20
3.532326235199995
 30
0.0
 11
-11.80194578800001
 21
3.396288382399994
 31
0.0
  0
LINE
  5
C4D
330
C1F
100
AcDbEntity
  8
0
  6
CONTINUOUS
 62
     7
100
AcDbLine
 10
-15.153375828
 20
11.86484647359999
 30
0.0
 11
-15.0638652936
 21
11.70696472479999
 31
0.0
  0
LINE
  5
C4E
330
C1F
100
AcDbEntity
  8
0
  6
CONTINUOUS
 62
     7
100
AcDbLine
 10
-11.97428975439999
 20
3.680180851199999
 30
0.0
 11
-11.89154912879999
 21
3.531982827199996
 31
0.0
  0
LINE
  5
C4F
330
C1F
100
AcDbEntity
  8
0
  6
CONTINUOUS
 62
     7
100
AcDbLine
 10
-12.04733765840001
 20
3.838654483199995
 30
0.0
 11
-11.97404143919999
 21
3.679693519999993
 31
0.0
  0
LINE
  5
C50
330
C1F
100
AcDbEntity
  8
0
  6
CONTINUOUS
 62
     7
100
AcDbLine
 10
-12.1088747352
 20
4.005902915199996
 30
0.0
 11
-12.0470720088
 21
3.838013407999994
 31
0.0
  0
LINE
  5
C51
330
C1F
100
AcDbEntity
  8
0
  6
CONTINUOUS
 62
     7
100
AcDbLine
 10
-12.15733213199999
 20
4.179827132799999
 30
0.0
 11
-12.10861579120001
 21
4.005101756799994
 31
0.0
  0
LINE
  5
C52
330
C1F
100
AcDbEntity
  8
0
  6
CONTINUOUS
 62
     7
100
AcDbLine
 10
-12.19164505199998
 20
4.358242331199996
 30
0.0
 11
-12.15710537999999
 21
4.178864020799998
 31
0.0
  0
LWPOLYLINE
  5
C53
330
C1F
100
AcDbEntity
  8
0
  6
CONTINUOUS
 62
     7
100
AcDbPolyline
 90
       27
 70
     0
 43
0.0
 10
-11.26217009199999
 20
2.073728113599997
 10
-11.24720845999999
 20
1.994718993599995
 10
-11.2270616232
 20
1.916441022399993
 10
-11.20284945520001
 20
1.842184060799993
 10
-11.17504875759999
 20
1.772026679999996
 10
-11.14407804719999
 20
1.705960787199998
 10
-11.11032243919999
 20
1.643865524799998
 10
-11.0741759
 20
1.585671889599993
 10
-11.03607618960001
 20
1.531423492799994
 10
-10.99649668079999
 20
1.481199086399996
 10
-10.95589810479998
 20
1.435027726399994
 10
-10.9147094392
 20
1.392875673599995
 10
-10.87320822000001
 20
1.3545407744
 10
-10.8315967304
 20
1.319741987199996
 10
-10.79005740400001
 20
1.288226086399994
 10
-10.74885956079998
 20
1.259839598399999
 10
-10.7082544568
 20
1.2344242944
 10
-10.668436092
 20
1.211794502399996
 10
-10.62963149519998
 20
1.191790574399995
 10
-10.59205067599998
 20
1.174243065599995
 10
-10.55595691279998
 20
1.159000972799994
 10
-10.5218928264
 20
1.145991588799994
 10
-10.4902948856
 20
1.135055121599997
 10
-10.4610237848
 20
1.125845620799999
 10
-10.43338453519999
 20
1.117920886399993
 10
-10.40665136399999
 20
1.110928540799996
 10
-10.3807164616
 20
1.104735828799995
  0
LINE
  5
C54
330
C1F
100
AcDbEntity
  8
0
  6
CONTINUOUS
 62
     7
100
AcDbLine
 10
-11.35998847600001
 20
2.934009403199993
 30
0.0
 11
-11.34999092879999
 21
2.859158054399998
 31
0.0
  0
LWPOLYLINE
  5
C55
330
C1F
100
AcDbEntity
  8
0
  6
CONTINUOUS
 62
     7
100
AcDbPolyline
 90
       28
 70
     0
 43
0.0
 10
-11.2724665064
 20
2.154889175999997
 10
-11.261768748
 20
2.070564540799999
 10
-11.245307276
 20
1.986349487999994
 10
-11.2240515464
 20
1.906286223999998
 10
-11.19856064079999
 20
1.830493875199998
 10
-11.16934725199999
 20
1.759051385599995
 10
-11.13685551119999
 20
1.691921710399995
 10
-11.1015117464
 20
1.628981043199999
 10
-11.06374758000001
 20
1.570172788799993
 10
-11.0240586232
 20
1.515571086399994
 10
-10.9829578904
 20
1.465246185599994
 10
-10.94094241679999
 20
1.419212507199993
 10
-10.89843350480001
 20
1.377378313599997
 10
-10.8556760408
 20
1.339461302399996
 10
-10.8128743464
 20
1.305159446399997
 10
-10.7702542552
 20
1.274240556799995
 10
-10.72812263759999
 20
1.246554751999994
 10
-10.68672154
 20
1.221914358399999
 10
-10.64627048079998
 20
1.200127734399998
 10
-10.60703365359998
 20
1.181029467199998
 10
-10.56922842
 20
1.164426710399993
 10
-10.53335574159999
 20
1.150224862399994
 10
-10.49996851919999
 20
1.138291151999993
 10
-10.46920453359999
 20
1.128332972799995
 10
-10.4403976536
 20
1.119863063999993
 10
-10.4127284312
 20
1.112462148799998
 10
-10.38585038159999
 20
1.105917631999993
 10
-10.35578346799999
 20
1.099287972799999
  0
LINE
  5
C56
330
C1F
100
AcDbEntity
  8
0
  6
CONTINUOUS
 62
     7
100
AcDbLine
 10
-11.35002961999998
 20
2.859456651199998
 30
0.0
 11
-11.33444888720001
 21
2.735396598399994
 31
0.0
  0
LINE
  5
C57
330
C1F
100
AcDbEntity
  8
0
  6
CONTINUOUS
 62
     7
100
AcDbLine
 10
-12.2081870856
 20
4.498995092799994
 30
0.0
 11
-12.1914762472
 21
4.357119673599996
 31
0.0
  0
LINE
  5
C58
330
C1F
100
AcDbEntity
  8
0
  6
CONTINUOUS
 62
     7
100
AcDbLine
 10
-11.3344817224
 20
2.735666257599994
 30
0.0
 11
-11.31868792239998
 21
2.601775911999993
 31
0.0
  0
LINE
  5
C59
330
C1F
100
AcDbEntity
  8
0
  6
CONTINUOUS
 62
     7
100
AcDbLine
 10
-11.31871444559999
 20
2.602007999999997
 30
0.0
 11
-11.3028478056
 21
2.458550211199998
 31
0.0
  0
LWPOLYLINE
  5
C5A
330
C1F
100
AcDbEntity
  8
0
  6
CONTINUOUS
 62
     7
100
AcDbPolyline
 90
       19
 70
     0
 43
0.0
 10
-11.5165475448
 20
3.068591606399998
 10
-11.42269472399999
 20
2.984470636799997
 10
-11.32981410479999
 20
2.909727355199997
 10
-11.237424492
 20
2.842692214399995
 10
-11.1461549688
 20
2.782803652799998
 10
-11.05778259920001
 20
2.730180603199997
 10
-10.9737189688
 20
2.684538980799999
 10
-10.89430331119999
 20
2.645004135999997
 10
-10.8190474104
 20
2.610455068799993
 10
-10.7475342632
 20
2.580003614399998
 10
-10.67984122319998
 20
2.553101918399995
 10
-10.6161835144
 20
2.529327993599999
 10
-10.55633474000001
 20
2.508166983999998
 10
-10.4997820664
 20
2.489095131199995
 10
-10.44613752399999
 20
2.471713446399995
 10
-10.3948664936
 20
2.455640596799995
 10
-10.345792332
 20
2.440658604799999
 10
-10.29900007279999
 20
2.426655028799999
 10
-10.25468883759998
 20
2.413567585599999
  0
LWPOLYLINE
  5
C5B
330
C1F
100
AcDbEntity
  8
0
  6
CONTINUOUS
 62
     7
100
AcDbPolyline
 90
        3
 70
     0
 43
0.0
 10
-11.6118731816
 20
3.164404676799996
 10
-11.51648835279999
 20
3.068535542399999
 10
-11.42255319119999
 20
2.984350620799993
  0
LINE
  5
C5C
330
C1F
100
AcDbEntity
  8
0
  6
CONTINUOUS
 62
     7
100
AcDbLine
 10
-15.06407476719999
 20
11.70728169599999
 30
0.0
 11
-14.94183875760001
 21
11.54598399359999
 31
0.0
  0
LINE
  5
C5D
330
C1F
100
AcDbEntity
  8
0
  6
CONTINUOUS
 62
     7
100
AcDbLine
 10
-7.909795920800007
 20
0.1659880751999978
 30
0.0
 11
-8.006340290400004
 21
0.4375
 31
0.0
  0
LINE
  5
C5E
330
C1F
100
AcDbEntity
  8
CENTER
100
AcDbLine
 10
-7.757033917600011
 20
-2.186723513560913
 30
0.0
 11
-7.757033917600011
 21
3.851096118439087
 31
0.0
  0
LWPOLYLINE
  5
C5F
330
C1F
100
AcDbEntity
  8
0
  6
CONTINUOUS
 62
     7
100
AcDbPolyline
 90
       12
 70
     0
 43
0.0
 10
-10.34292864880001
 20
1.096702905599997
 10
-10.32698952719999
 20
1.089946919999995
 10
-10.30619126159999
 20
1.081474788799994
 10
-10.2824277368
 20
1.072246587199998
 10
-10.2554880312
 20
1.062367878399996
 10
-10.22515735120001
 20
1.051984127999993
 10
-10.19213838959998
 20
1.041558951999995
 10
-10.15685397359999
 20
1.031410769599993
 10
-10.11913844239998
 20
1.021673799999994
 10
-10.0788716968
 20
1.012520193599996
 10
-10.03587613359999
 20
1.004137150399998
 10
-9.98533275279999
 20
0.9960899551999986
  0
LWPOLYLINE
  5
C60
330
C1F
100
AcDbEntity
  8
0
  6
CONTINUOUS
 62
     7
100
AcDbPolyline
 90
       10
 70
     0
 43
0.0
 10
-14.94183875760001
 20
11.54598399359999
 10
-14.77688060239998
 20
11.37406258559999
 10
-14.5711328216
 20
11.19814953759999
 10
-14.34396567120001
 20
11.03274865919999
 10
-14.0955762664
 20
10.87401683839999
 10
-13.82363039599999
 20
10.71866612159999
 10
-13.52782472559999
 20
10.56574834079999
 10
-13.20820822959999
 20
10.41490112479999
 10
-12.8644566456
 20
10.26587904959999
 10
-12.7089469416
 20
10.20368479839999
  0
LWPOLYLINE
  5
C61
330
C1F
100
AcDbEntity
  8
0
  6
CONTINUOUS
 62
     7
100
AcDbPolyline
 90
       13
 70
     0
 43
0.0
 10
-14.94196860240001
 20
11.54613582079999
 10
-14.77666114319998
 20
11.37385627839999
 10
-14.5708326664
 20
11.19791417759999
 10
-14.34366791279998
 20
11.0325462928
 10
-14.09530260560001
 20
10.87385184159999
 10
-13.82337617199999
 20
10.71852818079999
 10
-13.5275853688
 20
10.56563022719999
 10
-13.2079878472
 20
10.41480150719999
 10
-12.8642656424
 20
10.26579955039999
 10
-12.49545137199999
 20
10.11830212799999
 10
-12.10010382479998
 20
9.972075379199999
 10
-11.67648050159999
 20
9.827028559999995
 10
-11.2562176904
 20
9.693479612799997
  0
LINE
  5
C62
330
C1F
100
AcDbEntity
  8
0
  6
CONTINUOUS
 62
     7
100
AcDbLine
 10
-9.817237381599994
 20
0.970036561599997
 30
0.0
 11
-9.720073487200011
 21
0.952445732799994
 31
0.0
  0
LWPOLYLINE
  5
C63
330
C1F
100
AcDbEntity
  8
0
  6
CONTINUOUS
 62
     7
100
AcDbPolyline
 90
        7
 70
     0
 43
0.0
 10
-10.36000190319998
 20
1.100176830399995
 10
-10.33524492079999
 20
1.095139483199993
 10
-10.31139873679998
 20
1.090667023999998
 10
-10.28801583919999
 20
1.086597039999993
 10
-10.26487309679998
 20
1.082831063999996
 10
-10.24169111599999
 20
1.079274724799994
 10
-10.22213625679998
 20
1.076410847999994
  0
LWPOLYLINE
  5
C64
330
C1F
100
AcDbEntity
  8
0
  6
CONTINUOUS
 62
     7
100
AcDbPolyline
 90
        3
 70
     0
 43
0.0
 10
-10.25468883759998
 20
2.413567585599999
 10
-10.17439371279999
 20
2.389991182399995
 10
-10.1401470408
 20
2.379861422399997
  0
LINE
  5
C65
330
C1F
100
AcDbEntity
  8
0
  6
CONTINUOUS
 62
     7
100
AcDbLine
 10
-7.674332290400002
 20
0.0
 30
0.0
 11
7.674332290400002
 21
0.0
 31
0.0
  0
LWPOLYLINE
  5
C66
330
C1F
100
AcDbEntity
  8
0
  6
CONTINUOUS
 62
     7
100
AcDbPolyline
 90
        6
 70
     0
 43
0.0
 10
1.025362330400014
 20
1.14168974983611
 10
1.136839258399987
 20
1.127189925836113
 10
1.239006072800009
 20
1.080311183436108
 10
1.322681208799991
 20
1.005266436236112
 10
1.380344917600012
 20
0.9087998362361133
 10
1.406815055200013
 20
0.7995806794361116
  0
LWPOLYLINE
  5
C67
330
C1F
100
AcDbEntity
  8
0
  6
CONTINUOUS
 62
     7
100
AcDbPolyline
 90
        6
 70
     0
 43
0.0
 10
-9.984358453600009
 20
0.9958341855999961
 10
-9.931816378399986
 20
0.9883320511999968
 10
-9.896872455199996
 20
0.9831100975999973
 10
-9.866300631200005
 20
0.9783228495999978
 10
-9.839977914400009
 20
0.9739821359999965
 10
-9.817237381599994
 20
0.970036561599997
  0
LINE
  5
C68
330
C1F
100
AcDbEntity
  8
0
  6
CONTINUOUS
 62
     7
100
AcDbLine
 10
-10.22158695760001
 20
1.076324398399997
 30
0.0
 11
-10.21988970160001
 21
1.076074327999997
 31
0.0
  0
LWPOLYLINE
  5
C69
330
C1F
100
AcDbEntity
  8
0
  6
CONTINUOUS
 62
     7
100
AcDbPolyline
 90
        6
 70
     0
 43
0.0
 10
3.024837842399989
 20
1.200129920571903
 10
2.917279492000005
 20
1.1817371797719
 10
2.819572076000014
 20
1.133163501371903
 10
2.739988968799991
 20
1.0585218613719
 10
2.685268869600008
 20
0.9641325397719029
 10
2.660045202399999
 20
0.8579879525719036
  0
LWPOLYLINE
  5
C6A
330
C1F
100
AcDbEntity
  8
0
  6
CONTINUOUS
 62
     7
100
AcDbPolyline
 90
       51
 70
     0
 43
0.0
 10
10.2097685656
 20
1.410588065599995
 10
10.21562449839999
 20
1.410922518399999
 10
10.22246092719998
 20
1.411351873599997
 10
10.22992534159999
 20
1.411869993599999
 10
10.23866513199999
 20
1.412543326399998
 10
10.24937616400001
 20
1.413467767999996
 10
10.26102455759999
 20
1.4145980256
 10
10.2729817096
 20
1.415894142399999
 10
10.28525085839999
 20
1.417367527999999
 10
10.29788631279998
 20
1.419037041599999
 10
10.31084816879999
 20
1.420910374399994
 10
10.32400538479999
 20
1.422978726399996
 10
10.3371844152
 20
1.425219382399994
 10
10.350438652
 20
1.4276438208
 10
10.3638160104
 20
1.430265311999995
 10
10.37732894480001
 20
1.433092175999995
 10
10.39098497840001
 20
1.436132500799999
 10
10.40478711919999
 20
1.439393940799995
 10
10.4187342504
 20
1.442883551999997
 10
10.432819628
 20
1.446607108799994
 10
10.447035188
 20
1.450569953599995
 10
10.4613710824
 20
1.454776771199995
 10
10.47581656400001
 20
1.459231731199999
 10
10.49038365679999
 20
1.463946275199994
 10
10.5050916168
 20
1.468935496
 10
10.51995561359998
 20
1.474214697599997
 10
10.53498952559999
 20
1.479800231999995
 10
10.55020593840001
 20
1.485709500799998
 10
10.56561697200001
 20
1.491961316799994
 10
10.5812476168
 20
1.498581185599995
 10
10.59711116880001
 20
1.505591025599997
 10
10.61321436240001
 20
1.513011495999997
 10
10.62956431279999
 20
1.520865025599995
 10
10.64616500880001
 20
1.529174227199995
 10
10.6630189368
 20
1.537962612799994
 10
10.68012734800001
 20
1.547254774399995
 10
10.69748906960001
 20
1.557075774399997
 10
10.71508379919998
 20
1.567441039999998
 10
10.73287605199999
 20
1.578356713599994
 10
10.7508297688
 20
1.589827279999994
 10
10.7689088312
 20
1.601855785599994
 10
10.7870771448
 20
1.614443803199996
 10
10.80529872880001
 20
1.627591422399994
 10
10.82353779600001
 20
1.641297243199993
 10
10.84175904880001
 20
1.6555585264
 10
10.8599395896
 20
1.670381089599999
 10
10.878074596
 20
1.685786254399999
 10
10.8961590632
 20
1.701797740799996
 10
10.91418574159999
 20
1.718440118399996
 10
10.93214829839999
 20
1.735741183999998
 10
10.9504840504
 20
1.754175147199994
  0
LINE
  5
C6B
330
C1F
100
AcDbEntity
  8
0
  6
CONTINUOUS
 62
     7
100
AcDbLine
 10
10.2009370872
 20
1.410138329599995
 30
0.0
 11
10.2097685656
 21
1.410588065599995
 31
0.0
  0
LINE
  5
C6C
330
C1F
100
AcDbEntity
  8
0
  6
CONTINUOUS
 62
     7
100
AcDbLine
 10
10.1911352312
 20
1.409705947199995
 30
0.0
 11
10.2009370872
 21
1.410138329599995
 31
0.0
  0
LINE
  5
C6D
330
C1F
100
AcDbEntity
  8
0
  6
CONTINUOUS
 62
     7
100
AcDbLine
 10
10.17972543120001
 20
1.409266387199998
 30
0.0
 11
10.1911352312
 21
1.409705947199995
 31
0.0
  0
LINE
  5
C6E
330
C1F
100
AcDbEntity
  8
0
  6
CONTINUOUS
 62
     7
100
AcDbLine
 10
10.1485004568
 20
1.408223471999995
 30
0.0
 11
10.17972543120001
 21
1.409266387199998
 31
0.0
  0
LINE
  5
C6F
330
C1F
100
AcDbEntity
  8
0
  6
CONTINUOUS
 62
     7
100
AcDbLine
 10
-4.750537810400004
 20
0.9710257391999945
 30
0.0
 11
-4.370549535525526
 21
0.8347818944262499
 31
0.0
  0
LINE
  5
C70
330
C1F
100
AcDbEntity
  8
0
  6
CONTINUOUS
 62
     7
100
AcDbLine
 10
-5.780987368799998
 20
0.9404689455999957
 30
0.0
 11
-2.447437720799996
 21
1.039321519999994
 31
0.0
  0
LINE
  5
C71
330
C1F
100
AcDbEntity
  8
0
  6
CONTINUOUS
 62
     7
100
AcDbLine
 10
10.09574759759999
 20
1.406627067199998
 30
0.0
 11
10.1485004568
 21
1.408223471999995
 31
0.0
  0
LINE
  5
C72
330
C1F
100
AcDbEntity
  8
0
  6
CONTINUOUS
 62
     7
100
AcDbLine
 10
-2.447437720799996
 20
1.039321519999994
 30
0.0
 11
-0.0070339176000118
 21
1.111515536381197
 31
0.0
  0
LINE
  5
C73
330
C1F
100
AcDbEntity
  8
0
  6
CONTINUOUS
 62
     7
100
AcDbLine
 10
-0.0107517207999877
 20
1.111406467199998
 30
0.0
 11
8.728443055199988
 21
1.366833468799995
 31
0.0
  0
LINE
  5
C74
330
C1F
100
AcDbEntity
  8
0
  6
CONTINUOUS
 62
     7
100
AcDbLine
 10
8.728443055199988
 20
1.366833468799995
 30
0.0
 11
10.09525633359999
 21
1.406612667199993
 31
0.0
  0
LINE
  5
C75
330
C1F
100
AcDbEntity
  8
0
  6
CONTINUOUS
 62
     7
100
AcDbLine
 10
-9.028480527200002
 20
0.4375
 30
0.0
 11
-6.485587307999992
 21
0.4375
 31
0.0
  0
LWPOLYLINE
  5
C76
330
C1F
100
AcDbEntity
  8
0
  6
CONTINUOUS
 62
     7
100
AcDbPolyline
 90
        6
 70
     0
 43
0.0
 10
6.550046783200002
 20
1.303163846790695
 10
6.662148482399999
 20
1.289316081990691
 10
6.765041256800003
 20
1.242715662790693
 10
6.849389903200005
 20
1.167590531590697
 10
6.907541674399993
 20
1.070756603590695
 10
6.934220607199989
 20
0.9609993827906961
  0
LINE
  5
C77
330
C1F
100
AcDbEntity
  8
0
  6
CONTINUOUS
 62
     7
100
AcDbLine
 10
1.429050218399993
 20
0.4564221279999999
 30
0.0
 11
1.406815055200013
 21
0.7995806794361116
 31
0.0
  0
LINE
  5
C78
330
C1F
100
AcDbEntity
  8
0
  6
CONTINUOUS
 62
     7
100
AcDbLine
 10
-11.0230422136
 20
9.624047540799999
 30
0.0
 11
-11.2562176904
 21
9.693479612799997
 31
0.0
  0
LINE
  5
C79
330
C1F
100
AcDbEntity
  8
0
  6
CONTINUOUS
 62
     7
100
AcDbLine
 10
-11.0230422136
 20
9.624047540799999
 30
0.0
 11
-10.7970778568
 21
9.553916641599997
 31
0.0
  0
LINE
  5
C7A
330
C1F
100
AcDbEntity
  8
0
  6
CONTINUOUS
 62
     7
100
AcDbLine
 10
-10.7970778568
 20
9.553916641599997
 30
0.0
 11
-10.64579589839999
 21
9.504439531199999
 31
0.0
  0
LINE
  5
C7B
330
C1F
100
AcDbEntity
  8
0
  6
CONTINUOUS
 62
     7
100
AcDbLine
 10
2.660045202399999
 20
0.8579879525719036
 30
0.0
 11
2.633913741599997
 21
0.4564221279999999
 31
0.0
  0
LINE
  5
C7C
330
C1F
100
AcDbEntity
  8
0
  6
CONTINUOUS
 62
     7
100
AcDbLine
 10
6.9675661144
 20
0.4564221279999999
 30
0.0
 11
6.934220607199989
 21
0.9609993827906961
 31
0.0
  0
LINE
  5
C7D
330
C1F
100
AcDbEntity
  8
0
  6
CONTINUOUS
 62
     7
100
AcDbLine
 10
-5.908011706400003
 20
0.8856338639999989
 30
0.0
 11
-6.264616439200011
 21
0.529029131199998
 31
0.0
  0
LINE
  5
C7E
330
C1F
100
AcDbEntity
  8
0
  6
CONTINUOUS
 62
     7
100
AcDbLine
 10
18.47359141519999
 20
11.82216835039999
 30
0.0
 11
18.59844959439999
 21
11.85289423039999
 31
0.0
  0
LWPOLYLINE
  5
C7F
330
C1F
100
AcDbEntity
  8
0
  6
CONTINUOUS
 62
     7
100
AcDbPolyline
 90
        9
 70
     0
 43
0.0
 10
18.59767280080001
 20
11.8527037104
 10
18.73240440239999
 20
11.88562967519999
 10
18.86581292240001
 20
11.91799790559999
 10
18.9986708248
 20
11.95000261119999
 10
19.1309738152
 20
11.98164744479999
 10
19.26271764079999
 20
12.01293600959999
 10
19.3938980888
 20
12.04387186719999
 10
19.5245109848
 20
12.07445853759999
 10
19.65455219759999
 20
12.10469950079999
  0
LWPOLYLINE
  5
C80
330
C1F
100
AcDbEntity
  8
0
  6
CONTINUOUS
 62
     7
100
AcDbPolyline
 90
        8
 70
     0
 43
0.0
 10
18.7308570968
 20
11.88525289599999
 10
18.8635014584
 20
11.91743906079999
 10
18.9956016296
 20
11.94926583519999
 10
19.12715339120001
 20
11.98073680639999
 10
19.25815256399999
 20
12.01185551839999
 10
19.38859500239999
 20
12.04262547359999
 10
19.5184766056
 20
12.0730501296
 10
19.64779331279999
 20
12.1031329104
  0
LINE
  5
C81
330
C1F
100
AcDbEntity
  8
0
  6
CONTINUOUS
 62
     7
100
AcDbLine
 10
8.211161385868052
 20
1.031337782716718
 30
0.0
 11
8.172429639200004
 21
0.4564221279999999
 31
0.0
  0
LWPOLYLINE
  5
C82
330
C1F
100
AcDbEntity
  8
0
  6
CONTINUOUS
 62
     7
100
AcDbPolyline
 90
        3
 70
     0
 43
0.0
 10
19.64779331279999
 20
12.1031329104
 10
19.78401764079998
 20
12.13459819199999
 10
19.9129032696
 20
12.16415801119999
  0
LINE
  5
C83
330
C1F
100
AcDbEntity
  8
0
  6
CONTINUOUS
 62
     7
100
AcDbLine
 10
19.7765411032
 20
12.13287719359999
 30
0.0
 11
19.90471600079999
 21
12.16228632159999
 31
0.0
  0
LINE
  5
C84
330
C1F
100
AcDbEntity
  8
0
  6
CONTINUOUS
 62
     7
100
AcDbLine
 10
19.90471600079999
 20
12.16228632159999
 30
0.0
 11
20.0412050344
 21
12.19338231039999
 31
0.0
  0
LINE
  5
C85
330
C1F
100
AcDbEntity
  8
0
  6
CONTINUOUS
 62
     7
100
AcDbLine
 10
20.032314044
 20
12.19136359359999
 30
0.0
 11
20.1689176536
 21
12.2222741808
 31
0.0
  0
LINE
  5
C86
330
C1F
100
AcDbEntity
  8
0
  6
CONTINUOUS
 62
     7
100
AcDbLine
 10
20.15933016240001
 20
12.2201120768
 30
0.0
 11
20.29603479920001
 21
12.25083647039999
 31
0.0
  0
LWPOLYLINE
  5
C87
330
C1F
100
AcDbEntity
  8
0
  6
CONTINUOUS
 62
     7
100
AcDbPolyline
 90
        5
 70
     0
 43
0.0
 10
20.28575814800001
 20
12.24853456959999
 10
20.42255026
 20
12.27907199519999
 10
20.54845796239999
 20
12.30698355519999
 10
20.67375197039999
 20
12.33457393119999
 10
20.7984264904
 20
12.36184588319999
  0
LWPOLYLINE
  5
C88
330
C1F
100
AcDbEntity
  8
0
  6
CONTINUOUS
 62
     7
100
AcDbPolyline
 90
        4
 70
     0
 43
0.0
 10
20.41159188399999
 20
12.27663384479999
 10
20.53682539120001
 20
12.30441265439999
 10
20.66145282319999
 20
12.33187373279999
 10
20.7854684744
 20
12.35901979679999
  0
LINE
  5
C89
330
C1F
100
AcDbEntity
  8
0
  6
CONTINUOUS
 62
     7
100
AcDbLine
 10
20.7854684744
 20
12.35901979679999
 30
0.0
 11
20.92247585839999
 21
12.38880215679999
 31
0.0
  0
LINE
  5
C8A
330
C1F
100
AcDbEntity
  8
0
  6
CONTINUOUS
 62
     7
100
AcDbLine
 10
20.90886676560001
 20
12.3858535424
 30
0.0
 11
21.0458945528
 21
12.41544547519999
 31
0.0
  0
LINE
  5
C8B
330
C1F
100
AcDbEntity
  8
0
  6
CONTINUOUS
 62
     7
100
AcDbLine
 10
21.03164225520001
 20
12.41237764799999
 30
0.0
 11
21.16867718
 21
12.44177854079999
 31
0.0
  0
LINE
  5
C8C
330
C1F
100
AcDbEntity
  8
0
  6
CONTINUOUS
 62
     7
100
AcDbLine
 10
21.15378962799999
 20
12.43859477439999
 30
0.0
 11
21.29081848079999
 21
12.46780404319999
 31
0.0
  0
LINE
  5
C8D
330
C1F
100
AcDbEntity
  8
0
  6
CONTINUOUS
 62
     7
100
AcDbLine
 10
21.27530369999999
 20
12.46450756479999
 30
0.0
 11
21.41231332399999
 21
12.49352465279999
 31
0.0
  0
LINE
  5
C8E
330
C1F
100
AcDbEntity
  8
0
  6
CONTINUOUS
 62
     7
100
AcDbLine
 10
21.3961794152
 20
12.49011864479999
 30
0.0
 11
21.53315347919999
 21
12.5189423008
 31
0.0
  0
LINE
  5
C8F
330
C1F
100
AcDbEntity
  8
0
  6
CONTINUOUS
 62
     7
100
AcDbLine
 10
21.51640964239999
 20
12.5154301392
 30
0.0
 11
21.65332748240001
 21
12.54405789599999
 31
0.0
  0
LINE
  5
C90
330
C1F
100
AcDbEntity
  8
0
  6
CONTINUOUS
 62
     7
100
AcDbLine
 10
21.6359823736
 20
12.54044283359999
 30
0.0
 11
21.77283101840001
 21
12.56887365919999
 31
0.0
  0
LINE
  5
C91
330
C1F
100
AcDbEntity
  8
0
  6
CONTINUOUS
 62
     7
100
AcDbLine
 10
21.75489295119999
 20
12.56515883519999
 30
0.0
 11
21.89166008719999
 21
12.59339184639999
 31
0.0
  0
LINE
  5
C92
330
C1F
100
AcDbEntity
  8
0
  6
CONTINUOUS
 62
     7
100
AcDbLine
 10
21.8731374376
 20
12.5895803568
 30
0.0
 11
22.00981077200001
 21
12.61761469119999
 31
0.0
  0
LINE
  5
C93
330
C1F
100
AcDbEntity
  8
0
  6
CONTINUOUS
 62
     7
100
AcDbLine
 10
21.99071196880001
 20
12.6137096032
 30
0.0
 11
22.12727922959999
 21
12.64154441759999
 31
0.0
  0
LINE
  5
C94
330
C1F
100
AcDbEntity
  8
0
  6
CONTINUOUS
 62
     7
100
AcDbLine
 10
22.107612756
 20
12.63754875839999
 30
0.0
 11
22.2440616744
 21
12.66518322559999
 31
0.0
  0
LWPOLYLINE
  5
C95
330
C1F
100
AcDbEntity
  8
0
  6
CONTINUOUS
 62
     7
100
AcDbPolyline
 90
       36
 70
     0
 43
0.0
 10
28.07706556400001
 20
13.69912088479999
 10
28.083657012
 20
13.70045259359999
 10
28.09136373839999
 20
13.70205603839999
 10
28.10062039920001
 20
13.70405216959999
 10
28.11186953680001
 20
13.70658588479999
 10
28.12554698639999
 20
13.70983161439999
 10
28.14186653359999
 20
13.7139477968
 10
28.1607071128
 20
13.71903690719999
 10
28.182088028
 20
13.7252593936
 10
28.20643511919999
 20
13.73293766239999
 10
28.23391792239999
 20
13.74238351999999
 10
28.26370344400001
 20
13.75358363199999
 10
28.29475827120001
 20
13.76636888159999
 10
28.3266498232
 20
13.78072707839999
 10
28.35922803119999
 20
13.79673473279999
 10
28.39235557200001
 20
13.81446761599999
 10
28.4258836136
 20
13.83399175199999
 10
28.45965343759999
 20
13.85536261919999
 10
28.49354422319999
 20
13.8786576384
 10
28.52740791920001
 20
13.90393817599999
 10
28.56108487919999
 20
13.93125709599999
 10
28.5944070024
 20
13.96066027039999
 10
28.62720370159999
 20
13.99218575519999
 10
28.65932268719999
 20
14.0258644496
 10
28.69060983279999
 20
14.061720576
 10
28.72090136560001
 20
14.09977100159999
 10
28.7500232168
 20
14.140024544
 10
28.7777904856
 20
14.18248132319999
 10
28.80400691919999
 20
14.22713213599999
 10
28.82846589039999
 20
14.27395631359999
 10
28.8509702952
 20
14.32290754719999
 10
28.8713312136
 20
14.3739213968
 10
28.88935209199999
 20
14.42691956799999
 10
28.90482783120001
 20
14.48180869599999
 10
28.91754447759998
 20
14.53847952799999
 10
28.92117123919999
 20
14.5579671088
  0
LINE
  5
C96
330
C1F
100
AcDbEntity
  8
0
  6
CONTINUOUS
 62
     7
100
AcDbLine
 10
22.22383608399999
 20
12.66109999199999
 30
0.0
 11
22.3601536056
 21
12.68853315679999
 31
0.0
  0
LINE
  5
C97
330
C1F
100
AcDbEntity
  8
0
  6
CONTINUOUS
 62
     7
100
AcDbLine
 10
22.3393777384
 20
12.68436535199999
 30
0.0
 11
22.47554971759999
 21
12.71159606879999
 31
0.0
  0
LINE
  5
C98
330
C1F
100
AcDbEntity
  8
0
  6
CONTINUOUS
 62
     7
100
AcDbLine
 10
22.45423254159999
 20
12.7073466768
 30
0.0
 11
22.59024486640001
 21
12.73437382399999
 31
0.0
  0
LINE
  5
C99
330
C1F
100
AcDbEntity
  8
0
  6
CONTINUOUS
 62
     7
100
AcDbLine
 10
22.5683953944
 20
12.7300457952
 30
0.0
 11
22.7042341208
 21
12.75686829759999
 31
0.0
  0
LINE
  5
C9A
330
C1F
100
AcDbEntity
  8
0
  6
CONTINUOUS
 62
     7
100
AcDbLine
 10
22.68186141359998
 20
12.75246454399999
 30
0.0
 11
22.81751275600001
 21
12.77908137439999
 31
0.0
  0
LINE
  5
C9B
330
C1F
100
AcDbEntity
  8
0
  6
CONTINUOUS
 62
     7
100
AcDbLine
 10
22.7946259192
 20
12.77460477759999
 30
0.0
 11
22.93007625839999
 21
12.80101495199999
 31
0.0
  0
LINE
  5
C9C
330
C1F
100
AcDbEntity
  8
0
  6
CONTINUOUS
 62
     7
100
AcDbLine
 10
22.9066844312
 20
12.79646835679999
 30
0.0
 11
23.04191623119999
 21
12.82266968479999
 31
0.0
  0
LINE
  5
C9D
330
C1F
100
AcDbEntity
  8
0
  6
CONTINUOUS
 62
     7
100
AcDbLine
 10
28.0659407832
 20
13.69694798879999
 30
0.0
 11
28.07706556400001
 21
13.69912088479999
 31
0.0
  0
LINE
  5
C9E
330
C1F
100
AcDbEntity
  8
0
  6
CONTINUOUS
 62
     7
100
AcDbLine
 10
23.01802994799999
 20
12.81805640479999
 30
0.0
 11
23.15303145999999
 21
12.8440456528
 31
0.0
  0
LINE
  5
C9F
330
C1F
100
AcDbEntity
  8
0
  6
CONTINUOUS
 62
     7
100
AcDbLine
 10
23.1286578968
 20
12.83936871039999
 30
0.0
 11
23.26342909359999
 21
12.86514410399999
 31
0.0
  0
LINE
  5
CA0
330
C1F
100
AcDbEntity
  8
0
  6
CONTINUOUS
 62
     7
100
AcDbLine
 10
23.23857499920001
 20
12.86040642559999
 30
0.0
 11
23.37311602959999
 21
12.88596631519999
 31
0.0
  0
LINE
  5
CA1
330
C1F
100
AcDbEntity
  8
0
  6
CONTINUOUS
 62
     7
100
AcDbLine
 10
23.3477880888
 20
12.8811708032
 30
0.0
 11
23.48209892080001
 21
12.90651359359999
 31
0.0
  0
LINE
  5
CA2
330
C1F
100
AcDbEntity
  8
0
  6
CONTINUOUS
 62
     7
100
AcDbLine
 10
28.05616693039999
 20
13.6951034672
 30
0.0
 11
28.0659407832
 21
13.69694798879999
 31
0.0
  0
LINE
  5
CA3
330
C1F
100
AcDbEntity
  8
0
  6
CONTINUOUS
 62
     7
100
AcDbLine
 10
23.45630375760001
 20
12.90166311839999
 30
0.0
 11
23.5903841704
 21
12.9267872768
 31
0.0
  0
LINE
  5
CA4
330
C1F
100
AcDbEntity
  8
0
  6
CONTINUOUS
 62
     7
100
AcDbLine
 10
23.5641283576
 20
12.92188467999999
 30
0.0
 11
23.6979784456
 21
12.94678883039999
 31
0.0
  0
LINE
  5
CA5
330
C1F
100
AcDbEntity
  8
0
  6
CONTINUOUS
 62
     7
100
AcDbLine
 10
23.67126800240001
 20
12.94183682239999
 30
0.0
 11
23.80489484399999
 21
12.96652264159999
 31
0.0
  0
LINE
  5
CA6
330
C1F
100
AcDbEntity
  8
0
  6
CONTINUOUS
 62
     7
100
AcDbLine
 10
23.77773529999998
 20
12.9615229872
 30
0.0
 11
23.91111576560001
 21
12.98599098239999
 31
0.0
  0
LINE
  5
CA7
330
C1F
100
AcDbEntity
  8
0
  6
CONTINUOUS
 62
     7
100
AcDbLine
 10
23.8835222824
 20
12.9809465664
 30
0.0
 11
24.016613148
 21
13.00519452639999
 31
0.0
  0
LINE
  5
CA8
330
C1F
100
AcDbEntity
  8
0
  6
CONTINUOUS
 62
     7
100
AcDbLine
 10
28.0417730984
 20
13.69246397279999
 30
0.0
 11
28.05616693039999
 21
13.6951034672
 31
0.0
  0
LINE
  5
CA9
330
C1F
100
AcDbEntity
  8
0
  6
CONTINUOUS
 62
     7
100
AcDbLine
 10
23.98860123919999
 20
13.00010823519999
 30
0.0
 11
24.12135956079998
 21
13.02413393439999
 31
0.0
  0
LINE
  5
CAA
330
C1F
100
AcDbEntity
  8
0
  6
CONTINUOUS
 62
     7
100
AcDbLine
 10
24.0929450488
 20
13.01900864159999
 30
0.0
 11
24.22532822959999
 21
13.04280984639999
 31
0.0
  0
LINE
  5
CAB
330
C1F
100
AcDbEntity
  8
0
  6
CONTINUOUS
 62
     7
100
AcDbLine
 10
24.1965272216
 20
13.03764842399999
 30
0.0
 11
24.32849304239999
 21
13.06122289919999
 31
0.0
  0
LINE
  5
CAC
330
C1F
100
AcDbEntity
  8
0
  6
CONTINUOUS
 62
     7
100
AcDbLine
 10
24.29932191919999
 20
13.05602820479999
 30
0.0
 11
24.43082909680001
 21
13.07937381759999
 31
0.0
  0
LINE
  5
CAD
330
C1F
100
AcDbEntity
  8
0
  6
CONTINUOUS
 62
     7
100
AcDbLine
 10
24.40130395759999
 20
13.07414860799999
 30
0.0
 11
24.5323373832
 21
13.097268944
 31
0.0
  0
LINE
  5
CAE
330
C1F
100
AcDbEntity
  8
0
  6
CONTINUOUS
 62
     7
100
AcDbLine
 10
27.99831511280001
 20
13.6847389872
 30
0.0
 11
28.0417730984
 21
13.69246397279999
 31
0.0
  0
LINE
  5
CAF
330
C1F
100
AcDbEntity
  8
0
  6
CONTINUOUS
 62
     7
100
AcDbLine
 10
24.50246505679999
 20
13.09201359679999
 30
0.0
 11
24.6329835864
 21
13.11491121119999
 31
0.0
  0
LINE
  5
CB0
330
C1F
100
AcDbEntity
  8
0
  6
CONTINUOUS
 62
     7
100
AcDbLine
 10
24.6027902456
 20
13.10962877439999
 30
0.0
 11
24.73271122959999
 21
13.13229987199999
 31
0.0
  0
LINE
  5
CB1
330
C1F
100
AcDbEntity
  8
0
  6
CONTINUOUS
 62
     7
100
AcDbLine
 10
24.70222406479999
 20
13.12699348319999
 30
0.0
 11
24.83146586320001
 21
13.14943426879999
 31
0.0
  0
LINE
  5
CB2
330
C1F
100
AcDbEntity
  8
0
  6
CONTINUOUS
 62
     7
100
AcDbLine
 10
24.80071239439999
 20
13.14410705279999
 30
0.0
 11
24.92919507440001
 21
13.16631385279999
 31
0.0
  0
LINE
  5
CB3
330
C1F
100
AcDbEntity
  8
0
  6
CONTINUOUS
 62
     7
100
AcDbLine
 10
27.81371950799999
 20
13.6526411264
 30
0.0
 11
27.99831511280001
 21
13.6847389872
 31
0.0
  0
LINE
  5
CB4
330
C1F
100
AcDbEntity
  8
0
  6
CONTINUOUS
 62
     7
100
AcDbLine
 10
24.89820310639998
 20
13.16096890879999
 30
0.0
 11
25.08999315919999
 21
13.19393568159999
 31
0.0
  0
LINE
  5
CB5
330
C1F
100
AcDbEntity
  8
0
  6
CONTINUOUS
 62
     7
100
AcDbLine
 10
27.6944451592
 20
13.63216999999999
 30
0.0
 11
27.88063565199999
 21
13.66421221919999
 31
0.0
  0
LINE
  5
CB6
330
C1F
100
AcDbEntity
  8
0
  6
CONTINUOUS
 62
     7
100
AcDbLine
 10
25.02584849679999
 20
13.1829381712
 30
0.0
 11
25.2157352104
 21
13.21541941119999
 31
0.0
  0
LINE
  5
CB7
330
C1F
100
AcDbEntity
  8
0
  6
CONTINUOUS
 62
     7
100
AcDbLine
 10
25.18419788240001
 20
13.21003987679999
 30
0.0
 11
25.36897604399999
 21
13.24148255519999
 31
0.0
  0
LINE
  5
CB8
330
C1F
100
AcDbEntity
  8
0
  6
CONTINUOUS
 62
     7
100
AcDbLine
 10
25.30886744880001
 20
13.23127369279999
 30
0.0
 11
25.491252484
 21
13.26219876479999
 31
0.0
  0
LINE
  5
CB9
330
C1F
100
AcDbEntity
  8
0
  6
CONTINUOUS
 62
     7
100
AcDbLine
 10
27.466618764
 20
13.59351519679999
 30
0.0
 11
27.7099118712
 21
13.63481447679999
 31
0.0
  0
LINE
  5
CBA
330
C1F
100
AcDbEntity
  8
0
  6
CONTINUOUS
 62
     7
100
AcDbLine
 10
25.45944865679999
 20
13.25681670559999
 30
0.0
 11
25.66815177999998
 21
13.29206693919999
 31
0.0
  0
LINE
  5
CBB
330
C1F
100
AcDbEntity
  8
0
  6
CONTINUOUS
 62
     7
100
AcDbLine
 10
25.63632884719999
 20
13.28670149599999
 30
0.0
 11
25.89086105519999
 21
13.32954785439999
 31
0.0
  0
LINE
  5
CBC
330
C1F
100
AcDbEntity
  8
0
  6
CONTINUOUS
 62
     7
100
AcDbLine
 10
25.8392262648
 20
13.32086662079999
 30
0.0
 11
26.00411822000001
 21
13.34857475519999
 31
0.0
  0
LINE
  5
CBD
330
C1F
100
AcDbEntity
  8
0
  6
CONTINUOUS
 62
     7
100
AcDbLine
 10
27.2784427736
 20
13.56189359999999
 30
0.0
 11
27.32352585039999
 21
13.56945789439999
 31
0.0
  0
LINE
  5
CBE
330
C1F
100
AcDbEntity
  8
0
  6
CONTINUOUS
 62
     7
100
AcDbLine
 10
25.9726503864
 20
13.34329023839999
 30
0.0
 11
26.13144067120001
 21
13.36994138559999
 31
0.0
  0
LWPOLYLINE
  5
CBF
330
C1F
100
AcDbEntity
  8
0
  6
CONTINUOUS
 62
     7
100
AcDbPolyline
 90
        3
 70
     0
 43
0.0
 10
27.25507955439999
 20
13.55797479679999
 10
27.30078317359999
 20
13.56564153599999
 10
27.48680741359999
 20
13.59691974719999
  0
LINE
  5
CC0
330
C1F
100
AcDbEntity
  8
0
  6
CONTINUOUS
 62
     7
100
AcDbLine
 10
27.1583472808
 20
13.54175793919999
 30
0.0
 11
27.20760569520001
 21
13.55001416479999
 31
0.0
  0
LINE
  5
CC1
330
C1F
100
AcDbEntity
  8
0
  6
CONTINUOUS
 62
     7
100
AcDbLine
 10
26.08415143760001
 20
13.36200831999999
 30
0.0
 11
26.2392870056
 21
13.38802146719999
 31
0.0
  0
LWPOLYLINE
  5
CC2
330
C1F
100
AcDbEntity
  8
0
  6
CONTINUOUS
 62
     7
100
AcDbPolyline
 90
        3
 70
     0
 43
0.0
 10
27.1324823912
 20
13.5374243248
 10
27.182942244
 20
13.54587982399999
 10
27.2784427736
 20
13.56189359999999
  0
LINE
  5
CC3
330
C1F
100
AcDbEntity
  8
0
  6
CONTINUOUS
 62
     7
100
AcDbLine
 10
26.20840066959999
 20
13.38284511679999
 30
0.0
 11
26.35736307600001
 21
13.40779864479999
 31
0.0
  0
LINE
  5
CC4
330
C1F
100
AcDbEntity
  8
0
  6
CONTINUOUS
 62
     7
100
AcDbLine
 10
27.0544535608
 20
13.52435802239999
 30
0.0
 11
27.1583472808
 21
13.54175793919999
 31
0.0
  0
LINE
  5
CC5
330
C1F
100
AcDbEntity
  8
0
  6
CONTINUOUS
 62
     7
100
AcDbLine
 10
26.3143534328
 20
13.40059681759999
 30
0.0
 11
26.38773168239998
 21
13.41288238239999
 31
0.0
  0
LWPOLYLINE
  5
CC6
330
C1F
100
AcDbEntity
  8
0
  6
CONTINUOUS
 62
     7
100
AcDbPolyline
 90
        4
 70
     0
 43
0.0
 10
26.35736307600001
 20
13.40779864479999
 10
26.49962183279999
 20
13.43160346079999
 10
26.568211628
 20
13.44307299679999
 10
26.63509193999999
 20
13.45425294879999
  0
LWPOLYLINE
  5
CC7
330
C1F
100
AcDbEntity
  8
0
  6
CONTINUOUS
 62
     7
100
AcDbPolyline
 90
        4
 70
     0
 43
0.0
 10
26.45940874960001
 20
13.42487680639999
 10
26.5293746808
 20
13.43657926079999
 10
26.59762000879999
 20
13.44798939199999
 10
26.66412925520001
 20
13.45910607679999
  0
LWPOLYLINE
  5
CC8
330
C1F
100
AcDbEntity
  8
0
  6
CONTINUOUS
 62
     7
100
AcDbPolyline
 90
        3
 70
     0
 43
0.0
 10
26.8852634584
 20
13.4960614432
 10
26.9434242696
 20
13.50578451679999
 10
26.99982181839999
 20
13.51521650719999
  0
LWPOLYLINE
  5
CC9
330
C1F
100
AcDbEntity
  8
0
  6
CONTINUOUS
 62
     7
100
AcDbPolyline
 90
        4
 70
     0
 43
0.0
 10
26.85311522000001
 20
13.49068819199999
 10
26.91256600720001
 20
13.50062537439999
 10
26.97023466319999
 20
13.5102677776
 10
27.0802082888
 20
13.52866952319999
  0
LINE
  5
CCA
330
C1F
100
AcDbEntity
  8
0
  6
CONTINUOUS
 62
     7
100
AcDbLine
 10
26.63509193999999
 20
13.45425294879999
 30
0.0
 11
26.8852634584
 21
13.4960614432
 31
0.0
  0
LINE
  5
CCB
330
C1F
100
AcDbEntity
  8
0
  6
CONTINUOUS
 62
     7
100
AcDbLine
 10
10.6951748552
 20
9.555669828799999
 30
0.0
 11
10.88103983120001
 21
9.619112319999999
 31
0.0
  0
LWPOLYLINE
  5
CCC
330
C1F
100
AcDbEntity
  8
0
  6
CONTINUOUS
 62
     7
100
AcDbPolyline
 90
        9
 70
     0
 43
0.0
 10
10.88103983120001
 20
9.619112319999999
 10
10.9588109224
 20
9.645484262399996
 10
11.0371038824
 20
9.671630401599998
 10
11.11393328880001
 20
9.696775750399993
 10
11.18767356879999
 20
9.720484435199999
 10
11.2584373752
 20
9.742847582399996
 10
11.32576164400001
 20
9.7633932512
 10
11.3919608248
 20
9.782437486399999
 10
11.44983262639999
 20
9.799295844799999
  0
LWPOLYLINE
  5
CCD
330
C1F
100
AcDbEntity
  8
0
  6
CONTINUOUS
 62
     7
100
AcDbPolyline
 90
        6
 70
     0
 43
0.0
 10
11.449880148
 20
9.799312779199993
 10
12.71038259279998
 20
10.18830312319999
 10
14.03474181359999
 20
10.59638572479999
 10
15.43100739120001
 20
11.00961599039999
 10
16.91288453519999
 20
11.42079167839999
 10
18.4736001704
 20
11.82218075679999
  0
LWPOLYLINE
  5
CCE
330
C1F
100
AcDbEntity
  8
0
  6
CONTINUOUS
 62
     7
100
AcDbPolyline
 90
        5
 70
     0
 43
0.0
 10
12.19412357359999
 20
4.499019646399993
 10
12.21643782640001
 20
4.760840686399994
 10
12.41012862479999
 20
7.016353607999995
 10
12.60744633199999
 20
9.258038201599994
 10
12.69284977359999
 20
10.18289250559999
  0
LINE
  5
CCF
330
C1F
100
AcDbEntity
  8
0
  6
CONTINUOUS
 62
     7
100
AcDbLine
 10
11.29193949360001
 20
2.487878038399998
 30
0.0
 11
11.3043529608
 21
2.599437049599998
 31
0.0
  0
LINE
  5
CD0
330
C1F
100
AcDbEntity
  8
0
  6
CONTINUOUS
 62
     7
100
AcDbLine
 10
11.3043265912
 20
2.599206033599998
 30
0.0
 11
11.32009771119999
 21
2.733068255999995
 31
0.0
  0
LINE
  5
CD1
330
C1F
100
AcDbEntity
  8
0
  6
CONTINUOUS
 62
     7
100
AcDbLine
 10
12.17740130480001
 20
4.357071859199997
 30
0.0
 11
12.1941216776
 21
4.499017014399996
 31
0.0
  0
LINE
  5
CD2
330
C1F
100
AcDbEntity
  8
0
  6
CONTINUOUS
 62
     7
100
AcDbLine
 10
11.32006505999999
 20
2.732799780799993
 30
0.0
 11
11.3356260264
 21
2.856863919999995
 31
0.0
  0
LINE
  5
CD3
330
C1F
100
AcDbEntity
  8
0
  6
CONTINUOUS
 62
     7
100
AcDbLine
 10
11.335587548
 20
2.856566567999998
 30
0.0
 11
11.34591652559999
 21
2.9340102512
 31
0.0
  0
LINE
  5
CD4
330
C1F
100
AcDbEntity
  8
0
  6
CONTINUOUS
 62
     7
100
AcDbLine
 10
12.14301927279999
 20
4.178788151999995
 30
0.0
 11
12.1775701448
 21
4.3581945488
 31
0.0
  0
LWPOLYLINE
  5
CD5
330
C1F
100
AcDbEntity
  8
0
  6
CONTINUOUS
 62
     7
100
AcDbPolyline
 90
       14
 70
     0
 43
0.0
 10
28.28891782959999
 20
13.76400950399999
 10
28.29115034
 20
13.76485189279999
 10
28.3709419944
 20
13.80285288799999
 10
28.4473058792
 20
13.84735678239999
 10
28.519725636
 20
13.89802865919999
 10
28.5876849608
 20
13.95453360639999
 10
28.65068413520001
 20
14.01651887999999
 10
28.70831547439999
 20
14.08353189439999
 10
28.76020312720001
 20
14.15508536639999
 10
28.8059712536
 20
14.23069191199999
 10
28.84526180239999
 20
14.3098550896
 10
28.8778338248
 20
14.39201765119999
 10
28.9034938952
 20
14.47659750079999
 10
28.92117123919999
 20
14.5579671088
  0
LINE
  5
CD6
330
C1F
100
AcDbEntity
  8
0
  6
CONTINUOUS
 62
     7
100
AcDbLine
 10
12.09451504079999
 20
4.005002308799994
 30
0.0
 11
12.14324608399999
 21
4.179751351999996
 31
0.0
  0
LINE
  5
CD7
330
C1F
100
AcDbEntity
  8
0
  6
CONTINUOUS
 62
     7
100
AcDbLine
 10
12.03295141839999
 20
3.837888511999999
 30
0.0
 11
12.09477402639999
 21
4.005803460799995
 31
0.0
  0
LINE
  5
CD8
330
C1F
100
AcDbEntity
  8
0
  6
CONTINUOUS
 62
     7
100
AcDbLine
 10
11.95989197840001
 20
3.679535478399998
 30
0.0
 11
12.03321702959999
 21
3.838529385599997
 31
0.0
  0
LINE
  5
CD9
330
C1F
100
AcDbEntity
  8
0
  6
CONTINUOUS
 62
     7
100
AcDbLine
 10
11.8773563656
 20
3.531779500799999
 30
0.0
 11
11.96014011919999
 21
3.680022371199996
 31
0.0
  0
LWPOLYLINE
  5
CDA
330
C1F
100
AcDbEntity
  8
0
  6
CONTINUOUS
 62
     7
100
AcDbPolyline
 90
       18
 70
     0
 43
0.0
 10
11.10553288720001
 20
1.950921876799995
 10
11.1215569896
 20
1.976935383999993
 10
11.13719860879999
 20
2.003812815999999
 10
11.15241140399999
 20
2.031555659199995
 10
11.16714751599999
 20
2.060163742399993
 10
11.1813576552
 20
2.089635321599999
 10
11.1949986136
 20
2.119981430399995
 10
11.2080308104
 20
2.151212775999994
 10
11.2204063256
 20
2.183318902399996
 10
11.23207657040001
 20
2.2162873312
 10
11.24299227439999
 20
2.250103537599997
 10
11.253102396
 20
2.284746817599994
 10
11.26235617200001
 20
2.320195055999995
 10
11.2707032712
 20
2.356426851199998
 10
11.27809265039999
 20
2.393418193599998
 10
11.2844726664
 20
2.431142761599993
 10
11.28979106479999
 20
2.469571911999999
 10
11.2919095336
 20
2.487873515199993
  0
LWPOLYLINE
  5
CDB
330
C1F
100
AcDbEntity
  8
0
  6
CONTINUOUS
 62
     7
100
AcDbPolyline
 90
       18
 70
     0
 43
0.0
 10
11.10517220880001
 20
1.950473691199995
 10
11.12119377039999
 20
1.976473939199998
 10
11.13683037679999
 20
2.003332660799998
 10
11.1520361592
 20
2.031050849599999
 10
11.1667638456
 20
2.059627900799995
 10
11.18096480720001
 20
2.089061607999994
 10
11.19459640880001
 20
2.119362311999999
 10
11.2076203016
 20
2.150541510399996
 10
11.21998944559999
 20
2.1825886576
 10
11.23165614000001
 20
2.215491103999994
 10
11.24257203760001
 20
2.249234115199996
 10
11.25268837199999
 20
2.283801668799995
 10
11.261956276
 20
2.319178267199994
 10
11.27032512720001
 20
2.355343206399993
 10
11.27774349040001
 20
2.392273156799994
 10
11.28415921359999
 20
2.429942471999993
 10
11.2895194312
 20
2.468323174399998
 10
11.29189516720001
 20
2.488767895999998
  0
LINE
  5
CDC
330
C1F
100
AcDbEntity
  8
0
  6
CONTINUOUS
 62
     7
100
AcDbLine
 10
11.0888088504
 20
1.925327438399996
 30
0.0
 11
11.10553288720001
 21
1.950921876799995
 31
0.0
  0
LINE
  5
CDD
330
C1F
100
AcDbEntity
  8
0
  6
CONTINUOUS
 62
     7
100
AcDbLine
 10
11.07214404239999
 20
1.901027627199994
 30
0.0
 11
11.08916952399999
 21
1.925766827199993
 31
0.0
  0
LINE
  5
CDE
330
C1F
100
AcDbEntity
  8
0
  6
CONTINUOUS
 62
     7
100
AcDbLine
 10
11.055216564
 20
1.877565775999997
 30
0.0
 11
11.072507268
 21
1.901461854399997
 31
0.0
  0
LINE
  5
CDF
330
C1F
100
AcDbEntity
  8
0
  6
CONTINUOUS
 62
     7
100
AcDbLine
 10
11.03806372720001
 20
1.854932595199997
 30
0.0
 11
11.05558485840001
 21
1.877997735999997
 31
0.0
  0
LWPOLYLINE
  5
CE0
330
C1F
100
AcDbEntity
  8
0
  6
CONTINUOUS
 62
     7
100
AcDbPolyline
 90
        3
 70
     0
 43
0.0
 10
11.6934975144
 20
3.273279287999997
 10
11.78769043119999
 20
3.396026915199996
 10
11.877565212
 20
3.5321222448
  0
LINE
  5
CE1
330
C1F
100
AcDbEntity
  8
0
  6
CONTINUOUS
 62
     7
100
AcDbLine
 10
11.02072142
 20
1.833118007999999
 30
0.0
 11
11.038439476
 21
1.855364473599998
 31
0.0
  0
LINE
  5
CE2
330
C1F
100
AcDbEntity
  8
0
  6
CONTINUOUS
 62
     7
100
AcDbLine
 10
11.00322409360001
 20
1.812111099199995
 30
0.0
 11
11.02110680239999
 21
1.833551324799998
 31
0.0
  0
LINE
  5
CE3
330
C1F
100
AcDbEntity
  8
0
  6
CONTINUOUS
 62
     7
100
AcDbLine
 10
10.98560005999999
 20
1.791894860799999
 30
0.0
 11
11.00362096239999
 21
1.812546697599998
 31
0.0
  0
LINE
  5
CE4
330
C1F
100
AcDbEntity
  8
0
  6
CONTINUOUS
 62
     7
100
AcDbLine
 10
10.96786872719999
 20
1.772444366399994
 30
0.0
 11
10.98600944719999
 21
1.792332470399998
 31
0.0
  0
LINE
  5
CE5
330
C1F
100
AcDbEntity
  8
0
  6
CONTINUOUS
 62
     7
100
AcDbLine
 10
10.9500466872
 20
1.753734623999996
 30
0.0
 11
10.96829156399999
 21
1.772883571199997
 31
0.0
  0
LWPOLYLINE
  5
CE6
330
C1F
100
AcDbEntity
  8
0
  6
CONTINUOUS
 62
     7
100
AcDbPolyline
 90
        4
 70
     0
 43
0.0
 10
11.50208524239999
 20
3.068218028799996
 10
11.5975012584
 20
3.164080643199994
 10
11.69357984239999
 20
3.273379262399998
 10
11.78784162159999
 20
3.396238691199997
  0
LWPOLYLINE
  5
CE7
330
C1F
100
AcDbEntity
  8
0
  6
CONTINUOUS
 62
     7
100
AcDbPolyline
 90
        3
 70
     0
 43
0.0
 10
11.34591716720001
 20
2.934015065599993
 10
11.40815547759999
 20
2.984070747199993
 10
11.50214456559999
 20
3.068274193599997
  0
LINE
  5
CE8
330
C1F
100
AcDbEntity
  8
0
  6
CONTINUOUS
 62
     7
100
AcDbLine
 10
10.12607970639999
 20
2.379861017599999
 30
0.0
 11
10.16020955600001
 21
2.389956430399998
 31
0.0
  0
LWPOLYLINE
  5
CE9
330
C1F
100
AcDbEntity
  8
0
  6
CONTINUOUS
 62
     7
100
AcDbPolyline
 90
       19
 70
     0
 43
0.0
 10
10.16020955600001
 20
2.389956430399998
 10
10.240487484
 20
2.4135284368
 10
10.28477520879999
 20
2.426608529599995
 10
10.33155600399999
 20
2.440607684799999
 10
10.38062936560001
 20
2.455588078399998
 10
10.43190975760001
 20
2.471662398399999
 10
10.485536948
 20
2.489036747199996
 10
10.54206338
 20
2.508096966399996
 10
10.60189255599999
 20
2.529247060799995
 10
10.66553763760001
 20
2.553011091199998
 10
10.73322700240001
 20
2.579905071999995
 10
10.80472899279999
 20
2.610344391999994
 10
10.87996393840001
 20
2.644874612799995
 10
10.95936143759999
 20
2.684388783999999
 10
11.04341286319999
 20
2.730009385599998
 10
11.13178092559999
 20
2.7826126
 10
11.2230464728
 20
2.842478375999995
 10
11.31542196719999
 20
2.909479639999993
 10
11.40829724080001
 20
2.984190911999995
  0
LWPOLYLINE
  5
CEA
330
C1F
100
AcDbEntity
  8
0
  6
CONTINUOUS
 62
     7
100
AcDbPolyline
 90
        8
 70
     0
 43
0.0
 10
32.22021327600001
 20
21.37173151039999
 10
31.92208355919999
 20
21.34563240959999
 10
31.57854765359999
 20
21.3154421104
 10
31.18860515119999
 20
21.28097752799999
 10
30.7516916232
 20
21.24200508159999
 10
30.26771006480001
 20
21.1982514976
 10
29.73712761679999
 20
21.14940680479999
 10
29.17495006160001
 20
21.09639897439999
  0
LINE
  5
CEB
330
C1F
100
AcDbEntity
  8
CENTER
100
AcDbLine
 10
-11.08445477199998
 20
17.89936867999999
 30
0.0
 11
-20.10291374959999
 21
17.11035575679999
 31
0.0
  0
LINE
  5
CEC
330
C1F
100
AcDbEntity
  8
0
  6
CONTINUOUS
 62
     7
100
AcDbLine
 10
32.68643421519999
 20
21.412342808
 30
0.0
 11
32.22021327600001
 21
21.37173151039999
 31
0.0
  0
LINE
  5
CED
330
C1F
100
AcDbEntity
  8
0
  6
CONTINUOUS
 62
     7
100
AcDbLine
 10
32.99328441360001
 20
21.43885889279999
 30
0.0
 11
32.68643421519999
 21
21.412342808
 31
0.0
  0
LINE
  5
CEE
330
C1F
100
AcDbEntity
  8
0
  6
CONTINUOUS
 62
     7
100
AcDbLine
 10
33.21363632719999
 20
21.45766873119999
 30
0.0
 11
32.99328441360001
 21
21.43885889279999
 31
0.0
  0
LWPOLYLINE
  5
CEF
330
C1F
100
AcDbEntity
  8
0
  6
CONTINUOUS
 62
     7
100
AcDbPolyline
 90
        6
 70
     0
 43
0.0
 10
30.11838311919999
 20
21.15333189439999
 10
29.76271862959999
 20
21.13012351359999
 10
29.07251147599998
 20
21.09052133119999
 10
28.32531610800001
 20
21.05609582719999
 10
27.52174314480001
 20
21.02929246079999
 10
26.6599984536
 20
21.01181137599999
  0
LINE
  5
CF0
330
C1F
100
AcDbEntity
  8
0
  6
CONTINUOUS
 62
     7
100
AcDbLine
 10
33.21363632719999
 20
21.45766873119999
 30
0.0
 11
33.35218916720001
 21
21.46358623519999
 31
0.0
  0
LINE
  5
CF1
330
C1F
100
AcDbEntity
  8
0
  6
CONTINUOUS
 62
     7
100
AcDbLine
 10
26.6599984536
 20
21.01181137599999
 30
0.0
 11
25.74530679119999
 21
21.00360658079999
 31
0.0
  0
LWPOLYLINE
  5
CF2
330
C1F
100
AcDbEntity
  8
0
  6
CONTINUOUS
 62
     7
100
AcDbPolyline
 90
        3
 70
     0
 43
0.0
 10
25.7453392584
 20
21.00361480319999
 10
25.46136913200001
 20
21.00256451359999
 10
25.1399848504
 20
21.00191121279999
  0
LINE
  5
CF3
330
C1F
100
AcDbEntity
  8
0
  6
CONTINUOUS
 62
     7
100
AcDbLine
 10
25.1399848504
 20
21.00191121279999
 30
0.0
 11
24.8015510296
 21
21.00167787039999
 31
0.0
  0
LINE
  5
CF4
330
C1F
100
AcDbEntity
  8
0
  6
CONTINUOUS
 62
     7
100
AcDbLine
 10
-20.56953391760001
 20
19.0
 30
0.0
 11
41.60274363600001
 21
19.0
 31
0.0
  0
LINE
  5
CF5
330
C1F
100
AcDbEntity
  8
0
  6
CONTINUOUS
 62
     7
100
AcDbLine
 10
-4.903889356000007
 20
21.0
 30
0.0
 11
41.13431393679999
 21
21.0
 31
0.0
  0
LWPOLYLINE
  5
CF6
330
C1F
100
AcDbEntity
  8
0
  6
CONTINUOUS
 62
     7
100
AcDbPolyline
 90
        3
 70
     0
 43
0.0
 10
24.8015764152
 20
21.00167784479999
 10
24.10316312079999
 20
21.0016684688
 10
23.3836369272
 20
21.00173960159999
  0
LINE
  5
CF7
330
C1F
100
AcDbEntity
  8
0
  6
CONTINUOUS
 62
     7
100
AcDbLine
 10
23.3836369272
 20
21.00173960159999
 30
0.0
 11
22.6642576824
 21
21.00195035839999
 31
0.0
  0
LWPOLYLINE
  5
CF8
330
C1F
100
AcDbEntity
  8
0
  6
CONTINUOUS
 62
     7
100
AcDbPolyline
 90
        3
 70
     0
 43
0.0
 10
22.66426722959999
 20
21.00195035839999
 10
21.96906987279999
 20
21.00235379519999
 10
21.25978544879998
 20
21.00298190239999
  0
LINE
  5
CF9
330
C1F
100
AcDbEntity
  8
0
  6
CONTINUOUS
 62
     7
100
AcDbLine
 10
21.25978544879998
 20
21.00298190239999
 30
0.0
 11
20.55679547759999
 21
21.00379013439999
 31
0.0
  0
LWPOLYLINE
  5
CFA
330
C1F
100
AcDbEntity
  8
0
  6
CONTINUOUS
 62
     7
100
AcDbPolyline
 90
       14
 70
     0
 43
0.0
 10
20.5567839192
 20
21.00379015199999
 10
20.215502796
 20
21.00597230559999
 10
19.83164382320001
 20
21.0134472544
 10
19.42304988079999
 20
21.02857156799999
 10
18.99511058639999
 20
21.05294291679999
 10
18.55141505520001
 20
21.087196448
 10
18.09428769199999
 20
21.1314948112
 10
17.6250995368
 20
21.18569908
 10
17.14459469039999
 20
21.249230032
 10
16.65323405519998
 20
21.32125048959999
 10
16.15119024239999
 20
21.40124014079999
 10
15.63817717200001
 20
21.48863084479999
 10
15.11373992080001
 20
21.58272557279999
 10
14.588266508
 20
21.68059257119999
  0
LWPOLYLINE
  5
CFB
330
C1F
100
AcDbEntity
  8
0
  6
CONTINUOUS
 62
     7
100
AcDbPolyline
 90
       34
 70
     0
 43
0.0
 10
-0.0070464327999957
 20
23.2499999984
 10
-1.164805024799989
 20
23.24201615359999
 10
-2.246348586399989
 20
23.22198301279999
 10
-3.257977015199998
 20
23.19403007679999
 10
-4.219087711199989
 20
23.15966547999999
 10
-5.149115324000007
 20
23.11934114399999
 10
-6.066685730399996
 20
23.07270633439999
 10
-6.982386269599999
 20
23.01937307039999
 10
-7.895226855200007
 20
22.95941031039999
 10
-8.803424403999997
 20
22.89303236799999
 10
-9.701046891999993
 20
22.82062886719999
 10
-10.576229428
 20
22.74305231679999
 10
-11.41730138479999
 20
22.66141602239999
 10
-12.2167063256
 20
22.57682830239999
 10
-12.97246634160001
 20
22.4899568416
 10
-13.6832761544
 20
22.40126938559999
 10
-14.3492191672
 20
22.31099417119999
 10
-14.9727840408
 20
22.21902069119999
 10
-15.5565815992
 20
22.12518979839999
 10
-16.1028146376
 20
22.0295492896
 10
-16.6142962632
 20
21.932536952
 10
-17.09366548559998
 20
21.83463002719999
 10
-17.54256985679998
 20
21.73674631199999
 10
-17.96119054159999
 20
21.64028119999999
 10
-18.34634831119998
 20
21.54757048
 10
-18.6950872136
 20
21.4611782896
 10
-19.006115996
 20
21.3829899088
 10
-19.2798521144
 20
21.31265592159999
 10
-19.51021100079998
 20
21.2494431824
 10
-19.69613854319999
 20
21.1925110496
 10
-19.8422610872
 20
21.14078778879999
 10
-19.95816124719999
 20
21.09202001919999
 10
-20.06138298159999
 20
21.03780522559999
 10
-20.167398932
 20
20.96088634879999
  0
LINE
  5
CFC
330
C1F
100
AcDbEntity
  8
0
  6
CONTINUOUS
 62
     7
100
AcDbLine
 10
33.35218916720001
 20
21.46358623519999
 30
0.0
 11
33.4906228488
 21
21.46358623519999
 31
0.0
  0
LINE
  5
CFD
330
C1F
100
AcDbEntity
  8
0
  6
CONTINUOUS
 62
     7
100
AcDbLine
 10
-0.0070339176000118
 20
23.25
 30
0.0
 11
0.2106236536000097
 21
23.24971114079999
 31
0.0
  0
LWPOLYLINE
  5
CFE
330
C1F
100
AcDbEntity
  8
0
  6
CONTINUOUS
 62
     7
100
AcDbPolyline
 90
       48
 70
     0
 43
0.0
 10
0.2106236536000097
 20
23.24971114079999
 10
0.4242392664000079
 20
23.24887922079999
 10
0.633990522400012
 20
23.24753172799999
 10
0.8401174088000118
 20
23.24569335199999
 10
1.042831373599995
 20
23.2433860656
 10
1.242366461599999
 20
23.24062701119999
 10
1.438928604000011
 20
23.23743011039999
 10
1.6327177
 20
23.23380698879999
 10
1.8239327016
 20
23.22976694239999
 10
2.012770290399998
 20
23.22531696639999
 10
2.199425210399994
 20
23.22046180639999
 10
2.384090364000002
 20
23.215203984
 10
2.566956775199997
 20
23.20954384959999
 10
2.748215584799993
 20
23.20347954719999
 10
2.928064394399996
 20
23.19700650399999
 10
3.106698597600001
 20
23.19011746559999
 10
3.284310847200003
 20
23.1828028864
 10
3.461095071199991
 20
23.17505079359999
 10
3.637246821600001
 20
23.16684673119999
 10
3.812964195999995
 20
23.15817365759999
 10
3.988448307999988
 20
23.14901183839999
 10
4.163889757600003
 20
23.13933984319999
 10
4.339482568800008
 20
23.1291352688
 10
4.515443567200009
 20
23.1183721456
 10
4.691998751200003
 20
23.10702083359999
 10
4.869383160799998
 20
23.09504779039999
 10
5.047842964000011
 20
23.0824151984
 10
5.227638251999991
 20
23.06908044319999
 10
5.409011823199989
 20
23.05499846719999
 10
5.592143552799996
 20
23.04012979359999
 10
5.777274360799992
 20
23.02442955359999
 10
5.964728173600008
 20
23.00784168959999
 10
6.15485817039999
 20
22.990302432
 10
6.348053333600006
 20
22.97173902079999
 10
6.544746002399989
 20
22.95206815839999
 10
6.745421503199992
 20
22.93119404319999
 10
6.950630570399994
 20
22.90900580959999
 10
7.161004871199992
 20
22.88537429279999
 10
7.377279676
 20
22.86014747679999
 10
7.600314447199991
 20
22.8331455616
 10
7.831280517599992
 20
22.80413383039999
 10
8.071730856800002
 20
22.77281406559999
 10
8.323497543200005
 20
22.73883327839999
 10
8.588842671200012
 20
22.70175072
 10
8.87081641200001
 20
22.66097772639999
 10
9.173724543199995
 20
22.6156927184
 10
9.503970610399989
 20
22.56468754239999
 10
9.872031224799997
 20
22.50601404799999
  0
LINE
  5
CFF
330
C1F
100
AcDbEntity
  8
0
  6
CONTINUOUS
 62
     7
100
AcDbLine
 10
0.8291016263999892
 20
23.2458098448
 30
0.0
 11
0.0108186504000116
 21
23.24999748799999
 31
0.0
  0
LINE
  5
D00
330
C1F
100
AcDbEntity
  8
0
  6
CONTINUOUS
 62
     7
100
AcDbLine
 10
1.612233901600006
 20
23.23428312319999
 30
0.0
 11
0.8291016263999892
 21
23.2458098448
 31
0.0
  0
LWPOLYLINE
  5
D01
330
C1F
100
AcDbEntity
  8
0
  6
CONTINUOUS
 62
     7
100
AcDbPolyline
 90
       13
 70
     0
 43
0.0
 10
9.980163783199998
 20
22.50727383679999
 10
9.241668842400002
 20
22.62204237119999
 10
8.506070237599999
 20
22.727844448
 10
7.782658474399994
 20
22.82232273439999
 10
7.071151205599988
 20
22.90520328319999
 10
6.372151983200012
 20
22.97679319839999
 10
5.686765317599991
 20
23.03765986239999
 10
5.016519367200004
 20
23.08848768959999
 10
4.358236792799999
 20
23.13048547519999
 10
3.701309120800004
 20
23.16519085279999
 10
3.033854815200015
 20
23.1937126192
 10
2.342318127200002
 20
23.21672072479999
 10
1.612233901600006
 20
23.23428312319999
  0
LWPOLYLINE
  5
D02
330
C1F
100
AcDbEntity
  8
0
  6
CONTINUOUS
 62
     7
100
AcDbPolyline
 90
       42
 70
     0
 43
0.0
 10
9.787315948000014
 20
22.45756502399999
 10
9.567929706400008
 20
22.497155944
 10
9.34798959119999
 20
22.53565834239999
 10
9.127426172000014
 20
22.57308822079999
 10
8.906154303199997
 20
22.60946212799999
 10
8.6848514184
 20
22.64467546399999
 10
8.464218928799994
 20
22.67863389119999
 10
8.2443491848
 20
22.7113459104
 10
8.025053762400006
 20
22.74286071519999
 10
7.806405173600012
 20
22.773187336
 10
7.588063362399992
 20
22.80238942079999
 10
7.370111908000012
 20
22.83047302399999
 10
7.1528223464
 20
22.85742735199999
 10
6.936356484000015
 20
22.88325846239999
 10
6.720827335199999
 20
22.90797954079999
 10
6.50619516399999
 20
22.93162094239999
 10
6.292411520799987
 20
22.95421178239999
 10
6.079424759200009
 20
22.97577951999999
 10
5.867165435999993
 20
22.99635150559999
 10
5.655589020000007
 20
23.01595055359999
 10
5.444622293599991
 20
23.0346002
 10
5.234118557599998
 20
23.05232789919999
 10
5.024195696800006
 20
23.06913922399999
 10
4.815395639200005
 20
23.08501532319999
 10
4.607900653600012
 20
23.09997115999999
 10
4.401707928799993
 20
23.11403576479999
 10
4.196614876000012
 20
23.12724956159999
 10
3.992675885599993
 20
23.13963382559999
 10
3.790015251999989
 20
23.15120635999999
 10
3.588765439199988
 20
23.16198789119999
 10
3.38907128400001
 20
23.17200022239999
 10
3.190936045600011
 20
23.18127262719999
 10
2.99418349359999
 20
23.18984104319999
 10
2.798750453600007
 20
23.19773395519999
 10
2.604608431200006
 20
23.2049770896
 10
2.411709637600012
 20
23.21159568959999
 10
2.219935115999987
 20
23.21761575839999
 10
2.029271858399994
 20
23.22305842399999
 10
1.839707749599995
 20
23.22794402719999
 10
1.651222068000009
 20
23.2322923344
 10
1.463801626399998
 20
23.23612204959999
 10
1.353791368799988
 20
23.23808707199999
  0
LWPOLYLINE
  5
D03
330
C1F
100
AcDbEntity
  8
0
  6
CONTINUOUS
 62
     7
100
AcDbPolyline
 90
        5
 70
     0
 43
0.0
 10
14.58821205839998
 20
21.68059867839999
 10
13.36224885359999
 20
21.91078277599999
 10
12.17661132879999
 20
22.1291252368
 10
11.04427017040001
 20
22.32976079839999
 10
9.980167668000007
 20
22.50727321439999
  0
LINE
  5
D04
330
C1F
100
AcDbEntity
  8
0
  6
CONTINUOUS
 62
     7
100
AcDbLine
 10
28.9211716424
 20
14.55796939199999
 30
0.0
 11
28.9220487544
 21
14.5630124992
 31
0.0
  0
LWPOLYLINE
  5
D05
330
C1F
100
AcDbEntity
  8
0
  6
CONTINUOUS
 62
     7
100
AcDbPolyline
 90
       10
 70
     0
 43
0.0
 10
28.9220490776
 20
14.56301014079999
 10
29.06699829359999
 20
15.3190992448
 10
29.2236671576
 20
15.97568068159999
 10
29.39058923920001
 20
16.54915006399999
 10
29.57016266159999
 20
17.06630383679999
 10
29.7652484232
 20
17.54584666399999
 10
29.97826231920001
 20
17.99908022559999
 10
30.2119353944
 20
18.43432819039999
 10
30.46949238639999
 20
18.85816104959999
 10
30.56634901999998
 20
19.0
  0
LINE
  5
D06
330
C1F
100
AcDbEntity
  8
0
  6
CONTINUOUS
 62
     7
100
AcDbLine
 10
41.60274363600001
 20
19.0000000016
 30
0.0
 11
41.38242206800001
 21
20.78069784319999
 31
0.0
  0
ARC
  5
D07
330
C1F
100
AcDbEntity
  8
0
  6
HIDDEN
 62
     8
100
AcDbCircle
 10
-7.331021679200006
 20
39.22689896159999
 30
0.0
 40
22.92397517119999
100
AcDbArc
 50
248.6351457125004
 51
254.4430021902997
  0
ARC
  5
D08
330
C1F
100
AcDbEntity
  8
0
  6
HIDDEN
 62
     8
100
AcDbCircle
 10
-13.26033095759999
 20
17.9287979936
 30
0.0
 40
0.8159265599999999
100
AcDbArc
 50
254.4430021902997
 51
290.0484829415007
  0
ARC
  5
D09
330
C1F
100
AcDbEntity
  8
0
  6
HIDDEN
 62
     8
100
AcDbCircle
 10
-12.89497101359998
 20
16.54662659199999
 30
0.0
 40
0.6216163200000001
100
AcDbArc
 50
12.38599826250009
 51
97.91955735080017
  0
ARC
  5
D0A
330
C1F
100
AcDbEntity
  8
0
  6
HIDDEN
 62
     8
100
AcDbCircle
 10
-12.9121485864
 20
16.54285425759999
 30
0.0
 40
0.6392032336
100
AcDbArc
 50
345.6719578753
 51
12.38599826250009
  0
ARC
  5
D0B
330
C1F
100
AcDbEntity
  8
0
  6
HIDDEN
 62
     8
100
AcDbCircle
 10
-12.71176378799998
 20
16.32456027199999
 30
0.0
 40
0.361646552
100
AcDbArc
 50
285.1137109541001
 51
335.0881041382996
  0
ARC
  5
D0C
330
C1F
100
AcDbEntity
  8
0
  6
HIDDEN
 62
     8
100
AcDbCircle
 10
-13.35991080720001
 20
17.87603848159999
 30
0.0
 40
2.059033665599999
100
AcDbArc
 50
259.5354241809995
 51
276.7393339204003
  0
ARC
  5
D0D
330
C1F
100
AcDbEntity
  8
0
  6
HIDDEN
 62
     8
100
AcDbCircle
 10
-12.860351468
 20
16.47829871519999
 30
0.0
 40
0.6979359232000001
100
AcDbArc
 50
112.2612531316992
 51
149.5845425570998
  0
ARC
  5
D0E
330
C1F
100
AcDbEntity
  8
0
  6
HIDDEN
 62
     8
100
AcDbCircle
 10
-13.21761584079999
 20
16.50715816319999
 30
0.0
 40
0.3415661424
100
AcDbArc
 50
166.5892993917999
 51
246.1339975577002
  0
ARC
  5
D0F
330
C1F
100
AcDbEntity
  8
0
  6
HIDDEN
 62
     8
100
AcDbCircle
 10
-12.721345404
 20
16.33288248959999
 30
0.0
 40
0.3722302848
100
AcDbArc
 50
247.1771175463994
 51
286.0724741610992
  0
ARC
  5
D10
330
C1F
100
AcDbEntity
  8
0
  6
CONTINUOUS
 62
     7
100
AcDbCircle
 10
-3.611368330400011
 20
0.5
 30
0.0
 40
0.5
100
AcDbArc
 50
184.9999999999999
 51
270.0
  0
ARC
  5
D11
330
C1F
100
AcDbEntity
  8
0
  6
CONTINUOUS
 62
     7
100
AcDbCircle
 10
-4.487838080800003
 20
0.4785959936000026
 30
0.0
 40
0.3749999984000127
100
AcDbArc
 50
5.000002300598694
 51
71.77378975193576
  0
ARC
  5
D12
330
C1F
100
AcDbEntity
  8
0
  6
CONTINUOUS
 62
     7
100
AcDbCircle
 10
2.135816392799995
 20
0.5
 30
0.0
 40
0.5
100
AcDbArc
 50
270.0
 51
354.9999999998999
  0
ARC
  5
D13
330
C1F
100
AcDbEntity
  8
0
  6
CONTINUOUS
 62
     7
100
AcDbCircle
 10
1.927147567199995
 20
0.5
 30
0.0
 40
0.5
100
AcDbArc
 50
185.0000000001
 51
270.0
  0
ARC
  5
D14
330
C1F
100
AcDbEntity
  8
0
  6
CONTINUOUS
 62
     7
100
AcDbCircle
 10
7.674332290400002
 20
0.5
 30
0.0
 40
0.5
100
AcDbArc
 50
270.0
 51
354.9999999998999
  0
ARC
  5
D15
330
C1F
100
AcDbEntity
  8
0
  6
CONTINUOUS
 62
     7
100
AcDbCircle
 10
7.465663464800002
 20
0.5
 30
0.0
 40
0.5
100
AcDbArc
 50
185.0000000001
 51
270.0
  0
ARC
  5
D16
330
C1F
100
AcDbEntity
  8
0
  6
CONTINUOUS
 62
     7
100
AcDbCircle
 10
8.584382976800014
 20
0.9948597884982177
 30
0.0
 40
0.375
100
AcDbArc
 50
103.0707055187999
 51
174.4177457642
  0
ARC
  5
D17
330
C1F
100
AcDbEntity
  8
0
  6
CONTINUOUS
 62
     7
100
AcDbCircle
 10
-7.674330728799986
 20
0.25
 30
0.0
 40
0.25
100
AcDbArc
 50
199.5725656785999
 51
269.9999999987998
  0
ARC
  5
D18
330
C1F
100
AcDbEntity
  8
0
  6
CONTINUOUS
 62
     7
100
AcDbCircle
 10
34.7012376904
 20
21.18749999999999
 30
0.0
 40
0.1874999584
100
AcDbArc
 50
228.0928473104
 51
269.9999974651006
  0
ARC
  5
D19
330
C1F
100
AcDbEntity
  8
0
  6
CONTINUOUS
 62
     7
100
AcDbCircle
 10
33.4906231912
 20
19.83858634559999
 30
0.0
 40
1.6249998912
100
AcDbArc
 50
48.09286046280027
 51
90.0000118883007
  0
ARC
  5
D1A
330
C1F
100
AcDbEntity
  8
0
  6
CONTINUOUS
 62
     7
100
AcDbCircle
 10
-6.485587307999992
 20
0.75
 30
0.0
 40
0.3125
100
AcDbArc
 50
270.0
 51
315.0000000000002
  0
ARC
  5
D1B
330
C1F
100
AcDbEntity
  8
0
  6
CONTINUOUS
 62
     7
100
AcDbCircle
 10
-9.028480527200002
 20
0.75
 30
0.0
 40
0.3125
100
AcDbArc
 50
224.9999999999997
 51
270.0
  0
ARC
  5
D1C
330
C1F
100
AcDbEntity
  8
0
  6
CONTINUOUS
 62
     7
100
AcDbCircle
 10
41.13431393679999
 20
20.75
 30
0.0
 40
0.25
100
AcDbArc
 50
7.053226971800043
 51
90.0
  0
ARC
  5
D1D
330
C1F
100
AcDbEntity
  8
0
  6
CONTINUOUS
 62
     7
100
AcDbCircle
 10
-9.753544749599996
 20
0.7679574543999977
 30
0.0
 40
0.1874999984
100
AcDbArc
 50
45.00000019770003
 51
79.72200888390055
  0
ARC
  5
D1E
330
C1F
100
AcDbEntity
  8
0
  6
CONTINUOUS
 62
     7
100
AcDbCircle
 10
-5.775429194400004
 20
0.7530513455999995
 30
0.0
 40
0.1874999984
100
AcDbArc
 50
91.69852660559943
 51
134.9999998039002
  0
LINE
  5
D1F
330
C1F
100
AcDbEntity
  8
0
  6
CONTINUOUS
 62
     7
100
AcDbLine
 10
-4.114265071921835
 20
0.5112794119910121
 30
0.0
 11
-4.109465679445889
 21
0.4564221286261727
 31
0.0
  0
LINE
  5
D20
330
C1F
100
AcDbEntity
  8
0
  6
CONTINUOUS
 62
     7
100
AcDbLine
 10
-2.447437720799996
 20
1.039321519999994
 30
0.0
 11
-2.852187125274497
 21
0.8347818944262499
 31
0.0
  0
ARC
  5
D21
330
C1F
100
AcDbEntity
  8
0
  6
CONTINUOUS
 62
     7
100
AcDbCircle
 10
-2.73489858000002
 20
0.4785959936000026
 30
0.0
 40
0.3749999984000127
100
AcDbArc
 50
108.2262102480642
 51
174.9999976994012
  0
ARC
  5
D22
330
C1F
100
AcDbEntity
  8
0
  6
CONTINUOUS
 62
     7
100
AcDbCircle
 10
-3.613235876705601
 20
0.5048023873579837
 30
0.0
 40
0.5048058418952017
100
AcDbArc
 50
270.2119681599516
 51
0.7351664136557228
  0
LINE
  5
D23
330
C1F
100
AcDbEntity
  8
0
  6
CONTINUOUS
 62
     7
100
AcDbLine
 10
-5.780986795567002
 20
0.9404689607520136
 30
0.0
 11
-9.720090200264479
 21
0.9524487618612361
 31
0.0
  0
ENDBLK
  5
D25
330
C1F
100
AcDbEntity
  8
0
100
AcDbBlockEnd
  0
ENDSEC
  0
SECTION
  2
ENTITIES
  0
MTEXT
  5
4E9
330
1F
100
AcDbEntity
  8
0
  6
CONTINUOUS
 62
     2
100
AcDbMText
 10
15.84375
 20
2.3125
 30
0.0
 40
0.09375
 41
0.075
 71
     2
 72
     1
  1
 \P \P 
  7
TEXTSTYLE_1
1001
ACAD
1000
MTEXTBEGIN
1070
    73
1070
     1
1070
    44
1040
1.0
1070
    74
1070
     0
1000
MTEXTEND
  0
TEXT
  5
4EA
330
1F
100
AcDbEntity
  8
0
  6
CONTINUOUS
 62
     2
100
AcDbText
 10
14.24375
 20
2.1875
 30
0.0
 40
0.09375
  1
 
 41
0.8
  7
TEXTSTYLE_1
 72
     1
 11
14.28125
 21
2.1875
 31
0.0
100
AcDbText
  0
LWPOLYLINE
  5
537
330
1F
100
AcDbEntity
  8
0
  6
HIDDEN
 62
     8
100
AcDbPolyline
 90
        6
 70
     0
 43
0.0
 10
138.2360242418336
 20
1.855165374651697
 10
137.9256643666336
 20
1.8486721426517
 10
137.6575402034336
 20
1.843821520251701
 10
137.3794302946336
 20
1.839526891451697
 10
137.0920947154336
 20
1.835808597051702
 10
136.7962023474336
 20
1.832685413051699
  0
LWPOLYLINE
  5
539
330
1F
100
AcDbEntity
  8
0
  6
HIDDEN
 62
     8
100
AcDbPolyline
 90
       13
 70
     0
 43
0.0
 10
140.1617994258336
 20
1.871179419451699
 10
140.0266664434336
 20
1.871045425851697
 10
139.8604795570336
 20
1.870615264251696
 10
139.6667464610336
 20
1.869838779451697
 10
139.4492181490336
 20
1.8686612002517
 10
139.2204549922336
 20
1.867088211451701
 10
139.0040309122336
 20
1.865271099451696
 10
138.8145406050336
 20
1.863388405051701
 10
138.6530036674336
 20
1.861533085051696
 10
138.5173355826336
 20
1.859760051451701
 10
138.4042192466336
 20
1.8580944706517
 10
138.3108296114336
 20
1.856552152251701
 10
138.2360242418336
 20
1.855165374651697
  0
LWPOLYLINE
  5
53E
330
1F
100
AcDbEntity
  8
0
  6
HIDDEN
 62
     8
100
AcDbPolyline
 90
        8
 70
     0
 43
0.0
 10
143.4935827906336
 20
1.833703371451697
 10
143.1324200594336
 20
1.837548661051698
 10
142.9583409042336
 20
1.839781536251699
 10
142.7842653362336
 20
1.842277411451696
 10
142.6173325170336
 20
1.844930877051702
 10
142.4504041954336
 20
1.847854525051701
 10
142.2917080866336
 20
1.8509003698517
 10
142.1330176258336
 20
1.854224584251703
  0
LWPOLYLINE
  5
53F
330
1F
100
AcDbEntity
  8
0
  6
HIDDEN
 62
     8
100
AcDbPolyline
 90
       14
 70
     0
 43
0.0
 10
142.1330176258336
 20
1.854224584251703
 10
142.0756406066336
 20
1.855398177851697
 10
141.9976643378336
 20
1.856814005051703
 10
141.9011762690336
 20
1.858375953851698
 10
141.7852131810336
 20
1.860049843451697
 10
141.6474940402336
 20
1.861814225851702
 10
141.4853095202336
 20
1.8636407058517
 10
141.2968597074336
 20
1.8654776834517
 10
141.0831814818336
 20
1.867239321851698
 10
140.8585451970336
 20
1.868757387451701
 10
140.6452971938336
 20
1.869892528251696
 10
140.4556812514336
 20
1.870639537851701
 10
140.2938580370336
 20
1.871050941051699
 10
140.1617994258336
 20
1.871179419451699
  0
LWPOLYLINE
  5
58C
330
1F
100
AcDbEntity
  8
0
  6
HIDDEN
 62
     8
100
AcDbPolyline
 90
       62
 70
     0
 43
0.0
 10
140.1617994258336
 20
15.6188917666517
 10
140.2665799858336
 20
15.6143725682517
 10
140.3759720306336
 20
15.6003849378517
 10
140.4887355826336
 20
15.5763525938517
 10
140.5455484978336
 20
15.5605138626517
 10
140.6016565906336
 20
15.5423355042517
 10
140.6574118946336
 20
15.52167536025169
 10
140.7122516562336
 20
15.4986950050517
 10
140.7656088370336
 20
15.4736433586517
 10
140.8178546866336
 20
15.4463507474517
 10
140.9150991442336
 20
15.3874579538517
 10
141.0029237266336
 20
15.32382332025169
 10
141.0834853874336
 20
15.2549887826517
 10
141.1603395650336
 20
15.1780313474517
 10
141.2358424018336
 20
15.08929735865169
 10
141.2744116674336
 20
15.03796707865169
 10
141.3108712034336
 20
14.9851150562517
 10
141.3492782594336
 20
14.92430745945169
 10
141.3852269714336
 20
14.8620122322517
 10
141.4228300034336
 20
14.7905326194517
 10
141.4577081218336
 20
14.7176818610517
 10
141.4937313282336
 20
14.6349105266517
 10
141.5269138562336
 20
14.5509577746517
 10
141.5610402210336
 20
14.4558401906517
 10
141.5923103698336
 20
14.3597439218517
 10
141.6243267426336
 20
14.2512340306517
 10
141.6535398722336
 20
14.14193480345169
 10
141.6833082050336
 20
14.01895289465169
 10
141.7103848706336
 20
13.89534925785169
 10
141.7380051762336
 20
13.75603180185169
 10
141.7630647058336
 20
13.6162302834517
 10
141.7886552674336
 20
13.45830112985169
 10
141.8118341970336
 20
13.2999993506517
 10
141.8355371442336
 20
13.12113696665169
 10
141.8570958226336
 20
12.94200312025169
 10
141.9001343170336
 20
12.53754200185169
 10
141.9442726434336
 20
12.08391222425169
 10
141.9960777090336
 20
11.5757499826517
 10
142.0281732354336
 20
11.29443702265169
 10
142.0635788562336
 20
11.0135203026517
 10
142.1040005762336
 20
10.72507694745169
 10
142.1489258514336
 20
10.4373025394517
 10
142.1979934754336
 20
10.15407993305169
 10
142.2516876642336
 20
9.871697225851697
 10
142.3153043442336
 20
9.564282872251702
 10
142.3833526738336
 20
9.2578166770517
 10
142.4641620962336
 20
8.913604288251697
 10
142.5479818642336
 20
8.570109285051699
 10
142.6327620370336
 20
8.230647741051697
 10
142.7195842050336
 20
7.8917050338517
 10
142.8008433938336
 20
7.583893680251698
 10
142.8847910162336
 20
7.276807065851699
 10
142.9675278722336
 20
6.985290080251701
 10
143.0526936194336
 20
6.694471544251697
 10
143.1493807346336
 20
6.372584947451699
 10
143.2476972802336
 20
6.051190376251696
 10
143.3600267570336
 20
5.6891434706517
 10
143.4749442562336
 20
5.327911816251699
 10
143.5914587826336
 20
4.975353797051702
 10
143.7134149906336
 20
4.624636753851703
 10
143.8267662146336
 20
4.317271736251697
 10
143.9466551842336
 20
4.012422352251697
  0
LWPOLYLINE
  5
590
330
1F
100
AcDbEntity
  8
0
  6
HIDDEN
 62
     8
100
AcDbPolyline
 90
       53
 70
     0
 43
0.0
 10
140.1617994258336
 20
15.1192734194517
 10
140.2223535250336
 20
15.1164725698517
 10
140.2887156978336
 20
15.1080559362517
 10
140.3596376706336
 20
15.0939331682517
 10
140.4323680322336
 20
15.0741876514517
 10
140.5044832962336
 20
15.0488031458517
 10
140.5737485570336
 20
15.0177644834517
 10
140.6374272802336
 20
14.9817735410517
 10
140.6944550530336
 20
14.9414757266517
 10
140.7456864258336
 20
14.8965617778517
 10
140.7935439890336
 20
14.8446384482517
 10
140.8394104770336
 20
14.78284096985169
 10
140.8626872098336
 20
14.74576280505169
 10
140.8840934626336
 20
14.70757075385169
 10
140.9068835346336
 20
14.66195185785169
 10
140.9276213554336
 20
14.6153607394517
 10
140.9498131410336
 20
14.5594278450517
 10
140.9698959314336
 20
14.5027009378517
 10
140.9912177042336
 20
14.43546828665169
 10
141.0105605042336
 20
14.3676381826517
 10
141.0498270482336
 20
14.20835874105169
 10
141.0882219506336
 20
14.0221810258517
 10
141.1257903778336
 20
13.80731679385169
 10
141.1626783698336
 20
13.56077090425169
 10
141.1989263890336
 20
13.27809959065169
 10
141.2341536914336
 20
12.9546405490517
 10
141.2680442850336
 20
12.58458362425169
 10
141.3017330786336
 20
12.1607554866517
 10
141.3386384370336
 20
11.68009664345169
 10
141.3614804338336
 20
11.40813733785169
 10
141.3868993058336
 20
11.1364069186517
 10
141.4187993010336
 20
10.83638441945169
 10
141.4552307042336
 20
10.53687690585169
 10
141.4957099506336
 20
10.2444426162517
 10
141.5413301298336
 20
9.952769454651701
 10
141.5927944434336
 20
9.659364768251698
 10
141.6494480370336
 20
9.366914240251702
 10
141.7199071586336
 20
9.034402414651701
 10
141.7958885570336
 20
8.703105672251702
 10
141.8825889458336
 20
8.349774057851696
 10
141.9743520962336
 20
7.997723445051697
 10
142.0637290786336
 20
7.672135337851699
 10
142.1571385058336
 20
7.3476831906517
 10
142.2437522850336
 20
7.059736262651696
 10
142.3335909458336
 20
6.772780235451698
 10
142.4286731138336
 20
6.4804979234517
 10
142.5266675170336
 20
6.189177894651699
 10
142.6420883042336
 20
5.856024721851703
 10
142.7600777602336
 20
5.523770390651698
 10
142.8911282754336
 20
5.162425526651702
 10
143.0252721410336
 20
4.802216939451696
 10
143.1556486322336
 20
4.463235541051702
 10
143.2904200770336
 20
4.125987952251698
  0
LINE
  5
5AB
330
1F
100
AcDbEntity
  8
0
  6
HIDDEN
 62
     8
100
AcDbLine
 10
126.4349452450336
 20
14.82873630745169
 30
0.0
 11
124.6286742018336
 21
15.2304595474517
 31
0.0
  0
LINE
  5
5C0
330
1F
100
AcDbEntity
  8
0
  6
HIDDEN
 62
     8
100
AcDbLine
 10
126.8130201730336
 20
15.1722822962517
 30
0.0
 11
127.3031058706336
 21
14.96727912985169
 31
0.0
  0
LINE
  5
5EE
330
1F
100
AcDbEntity
  8
0
  6
HIDDEN
 62
     8
100
AcDbLine
 10
143.9466551842336
 20
4.012422352251697
 30
0.0
 11
144.0449016834336
 21
3.778059054651699
 31
0.0
  0
LWPOLYLINE
  5
5F6
330
1F
100
AcDbEntity
  8
0
  6
HIDDEN
 62
     8
100
AcDbPolyline
 90
       49
 70
     0
 43
0.0
 10
136.2356912066336
 20
3.780462013051696
 10
136.2387515570336
 20
3.706864888251701
 10
136.2424714018336
 20
3.633297536251703
 10
136.2468075794336
 20
3.560584555451697
 10
136.2518100018336
 20
3.487914545851701
 10
136.2573990434336
 20
3.416421536251696
 10
136.2636639522336
 20
3.344984553851702
 10
136.2704769762336
 20
3.275041048251701
 10
136.2779784786336
 20
3.205168065851701
 10
136.2859807922336
 20
3.137096305851699
 10
136.2946874402336
 20
3.0691110722517
 10
136.3038386754336
 20
3.003224333051697
 10
136.3137136338336
 20
2.937442211451703
 10
136.3239678898336
 20
2.874043328251701
 10
136.3349691506336
 20
2.810769845051702
 10
136.3462751506336
 20
2.750149712251698
 10
136.3583557778336
 20
2.6896792530517
 10
136.3706570642336
 20
2.632115337851701
 10
136.3837654610336
 20
2.574729920251698
 10
136.3970005986336
 20
2.5204847922517
 10
136.4110807970336
 20
2.4664529618517
 10
136.4251836162336
 20
2.415772803451702
 10
136.4401755730336
 20
2.365348661051697
 10
136.4550754722336
 20
2.318461731451698
 10
136.4709153602336
 20
2.271884160251701
 10
136.4865376994336
 20
2.228999160251703
 10
136.5031581282336
 20
2.186491302651702
 10
136.5194248178336
 20
2.147795563451701
 10
136.5367548994336
 20
2.109564637051697
 10
136.5535854498336
 20
2.075222024251701
 10
136.5715504418336
 20
2.041459598651698
 10
136.5829666130336
 20
2.021485097851702
 10
136.5948948818336
 20
2.0018126482517
 10
136.6073839842336
 20
1.982490859451701
 10
136.6190636274336
 20
1.965563288251701
 10
136.6312817682336
 20
1.949021137851701
 10
136.6440899618336
 20
1.932930877051703
 10
136.6559897202336
 20
1.9190961042517
 10
136.6684430930336
 20
1.905758833851699
 10
136.6814987762336
 20
1.8930086402517
 10
136.6935963698336
 20
1.882292696251703
 10
136.7062329954336
 20
1.872221251451698
 10
136.7194375810336
 20
1.8629086050517
 10
136.7317339698336
 20
1.855331121851698
 10
136.7445005442336
 20
1.848576278651698
 10
136.7577310818336
 20
1.842769846651698
 10
136.7702831570336
 20
1.838376285051701
 10
136.7831356850336
 20
1.834983696251697
 10
136.7962023426336
 20
1.832685413051699
  0
LWPOLYLINE
  5
5F7
330
1F
100
AcDbEntity
  8
0
  6
HIDDEN
 62
     8
100
AcDbPolyline
 90
       55
 70
     0
 43
0.0
 10
137.0043325042336
 20
4.135795259451697
 10
137.0044569778336
 20
4.060448523451697
 10
137.0059795826336
 20
3.985114301051702
 10
137.0088965346336
 20
3.909871331451697
 10
137.0132109762336
 20
3.834696296251699
 10
137.0189018802336
 20
3.7599147234517
 10
137.0259924210336
 20
3.685252686651701
 10
137.0344255570336
 20
3.611286563451699
 10
137.0442631826336
 20
3.5374942002517
 10
137.0553938962336
 20
3.464693110651701
 10
137.0679365490336
 20
3.392121993851702
 10
137.0817074338336
 20
3.320829320251696
 10
137.0969001506336
 20
3.249826131451698
 10
137.1132413698336
 20
3.180377507451702
 10
137.1310165010336
 20
3.111282078651697
 10
137.1498461714336
 20
3.044003665851697
 10
137.1701236562336
 20
2.977147486651702
 10
137.1913483090336
 20
2.912354366651698
 10
137.2140359826336
 20
2.848059080251701
 10
137.2375511202336
 20
2.786053670651696
 10
137.2625450338336
 20
2.724629625851697
 10
137.2882357858336
 20
2.665700150651701
 10
137.3154205458336
 20
2.607445032251696
 10
137.3431624322336
 20
2.551864062651702
 10
137.3724115266336
 20
2.497061560251701
 10
137.4020713474336
 20
2.445084656251701
 10
137.4332474482336
 20
2.394003189051701
 10
137.4646843234336
 20
2.345867670651699
 10
137.4976395330336
 20
2.298759126651702
 10
137.5307060834336
 20
2.254683046651699
 10
137.5652821202336
 20
2.211781485051702
 10
137.5881487506336
 20
2.185094201851697
 10
137.6116678194336
 20
2.158980309051699
 10
137.6358541186336
 20
2.133483137851698
 10
137.6596058850336
 20
2.109733350651701
 10
137.6839911666336
 20
2.086634777851699
 10
137.7090205346336
 20
2.064235758651697
 10
137.7335546754336
 20
2.043526718651698
 10
137.7586911090336
 20
2.023553345851702
 10
137.7844340546336
 20
2.004368059451699
 10
137.8096479970336
 20
1.9867904994517
 10
137.8354170626336
 20
1.970037707451702
 10
137.8617367042336
 20
1.954164224251698
 10
137.8875280290336
 20
1.939797697851702
 10
137.9138079954336
 20
1.926346017851699
 10
137.9405615362336
 20
1.913862563451701
 10
137.9668286866336
 20
1.902776985851701
 10
137.9934955682336
 20
1.892691697851702
 10
138.0205343810336
 20
1.883654389051699
 10
138.0471702818336
 20
1.875911569851702
 10
138.0740960034336
 20
1.869242333051701
 10
138.1012756162336
 20
1.863683091451697
 10
138.1281812674336
 20
1.859336147451699
 10
138.1552418402336
 20
1.856116017851697
 10
138.1824019730336
 20
1.854043475451696
  0
LINE
  5
5FA
330
1F
100
AcDbEntity
  8
0
  6
HIDDEN
 62
     8
100
AcDbLine
 10
126.7065979042336
 20
15.8091246354517
 30
0.0
 11
126.6189649874336
 21
15.56386184185169
 31
0.0
  0
LINE
  5
5FB
330
1F
100
AcDbEntity
  8
0
  6
HIDDEN
 62
     8
100
AcDbLine
 10
127.8760053986336
 20
15.36215294585169
 30
0.0
 11
127.7850672754336
 21
15.14971040665169
 31
0.0
  0
LWPOLYLINE
  5
60A
330
1F
100
AcDbEntity
  8
0
  6
HIDDEN
 62
     8
100
AcDbPolyline
 90
       55
 70
     0
 43
0.0
 10
143.2904136786336
 20
4.1259877218517
 10
143.2901033234336
 20
4.050864310651697
 10
143.2884278434336
 20
3.975756299451703
 10
143.2853915026336
 20
3.900758760251697
 10
143.2809903746336
 20
3.825829641851697
 10
143.2752470402336
 20
3.751313592251698
 10
143.2681364626336
 20
3.6769153954517
 10
143.2597178530336
 20
3.6032307874517
 10
143.2499267554336
 20
3.5297160562517
 10
143.2388771650336
 20
3.457209169851701
 10
143.2264471794336
 20
3.384926173051702
 10
143.2128232610336
 20
3.313936953851701
 10
143.1978085218336
 20
3.243228912251701
 10
143.1816789874336
 20
3.174089566651701
 10
143.1641459154336
 20
3.105292841851699
 10
143.1455911634336
 20
3.038326144251698
 10
143.1256181938336
 20
2.971768785851701
 10
143.1047298562336
 20
2.907286488251699
 10
143.0824071506336
 20
2.843286749051699
 10
143.0592875554336
 20
2.781588022651696
 10
143.0347166706336
 20
2.720452949051697
 10
143.0094782050336
 20
2.661822865851696
 10
142.9827717778336
 20
2.6038469538517
 10
142.9555361442336
 20
2.548555045051699
 10
142.9268175682336
 20
2.494018944251699
 10
142.8977149090336
 20
2.442317848251697
 10
142.8671180514336
 20
2.391487120251703
 10
142.8362859346336
 20
2.343611361851699
 10
142.8039549154336
 20
2.2967352578517
 10
142.7715371522336
 20
2.252900213051702
 10
142.7376261826336
 20
2.210210427451698
 10
142.7152173298336
 20
2.183673032251697
 10
142.6921621186336
 20
2.1576954418517
 10
142.6684448162336
 20
2.132320875451696
 10
142.6451753490336
 20
2.108705261051703
 10
142.6212767058336
 20
2.085726853051703
 10
142.5967372354336
 20
2.063434110651698
 10
142.5727070210336
 20
2.042841870651699
 10
142.5480769954336
 20
2.022971275451702
 10
142.5228417810336
 20
2.003875158651702
 10
142.4981502226336
 20
1.986395454651699
 10
142.4729041922336
 20
1.9697269842517
 10
142.4471071154336
 20
1.953925038651696
 10
142.4218531314336
 20
1.939636019451697
 10
142.3961095730336
 20
1.9262493394517
 10
142.3698905794336
 20
1.913819429051699
 10
142.3441718754336
 20
1.902789912251698
 10
142.3180514338336
 20
1.892749657851702
 10
142.2915565010336
 20
1.883747561851699
 10
142.2654760706336
 20
1.876038742651701
 10
142.2391034658336
 20
1.869394160251701
 10
142.2124744882336
 20
1.863851321851697
 10
142.1861270930336
 20
1.859516302651698
 10
142.1596229298336
 20
1.856300237051698
 10
142.1330177122336
 20
1.854224589051696
  0
LWPOLYLINE
  5
60B
330
1F
100
AcDbEntity
  8
0
  6
HIDDEN
 62
     8
100
AcDbPolyline
 90
       49
 70
     0
 43
0.0
 10
144.0449016834336
 20
3.778059054651699
 10
144.0418646066336
 20
3.7045616018517
 10
144.0381799490336
 20
3.631093177851703
 10
144.0338908610336
 20
3.558485513851699
 10
144.0289475042336
 20
3.4859196274517
 10
144.0234291650336
 20
3.414536328251699
 10
144.0172470338336
 20
3.343207425851701
 10
144.0105279122336
 20
3.273376800251696
 10
144.0031324866336
 20
3.203614590651696
 10
143.9952467154336
 20
3.135657654651701
 10
143.9866689266336
 20
3.0677846226517
 10
143.9776562018336
 20
3.002013446651702
 10
143.9679322514336
 20
2.936343694651696
 10
143.9578376930336
 20
2.8730599426517
 10
143.9470088338336
 20
2.809897747451699
 10
143.9358828274336
 20
2.749391174651698
 10
143.9239951346336
 20
2.689029694651701
 10
143.9118931458336
 20
2.631576685051697
 10
143.8989972418336
 20
2.574296736251696
 10
143.8859796258336
 20
2.520158833851702
 10
143.8721303970336
 20
2.4662277874517
 10
143.8582621554336
 20
2.415650227451699
 10
143.8435184546336
 20
2.3653210466517
 10
143.8288689618336
 20
2.318531221051699
 10
143.8132933154336
 20
2.272041691451697
 10
143.7979359346336
 20
2.229247529851697
 10
143.7815943170336
 20
2.186819737851699
 10
143.7656058482336
 20
2.148207899451698
 10
143.7485675906336
 20
2.110048056251699
 10
143.7320272658336
 20
2.075781830651699
 10
143.7143653874336
 20
2.042080563451698
 10
143.7031486178336
 20
2.022153497851697
 10
143.6914249586336
 20
2.002520893051702
 10
143.6791453794336
 20
1.9832305906517
 10
143.6676719346336
 20
1.966345027451701
 10
143.6556642098336
 20
1.949836061051698
 10
143.6430699282336
 20
1.9337694322517
 10
143.6313827906336
 20
1.919970624251696
 10
143.6191446098336
 20
1.906659454651702
 10
143.6063053426336
 20
1.8939251058517
 10
143.5944263218336
 20
1.8832379026517
 10
143.5820085266336
 20
1.873185029051697
 10
143.5690211058336
 20
1.863881289851697
 10
143.5569480594336
 20
1.856323326651697
 10
143.5444026050336
 20
1.849579123451697
 10
143.5313890946336
 20
1.843776489851698
 10
143.5190616578336
 20
1.839391769851701
 10
143.5064307394336
 20
1.836002129851699
 10
143.4935827890336
 20
1.833703384251698
  0
LWPOLYLINE
  5
60C
330
1F
100
AcDbEntity
  8
0
  6
HIDDEN
 62
     8
100
AcDbPolyline
 90
       61
 70
     0
 43
0.0
 10
136.3430712450336
 20
4.036059582651702
 10
136.4666331058336
 20
4.349420496251703
 10
136.5837018530336
 20
4.6652886194517
 10
136.7103478018336
 20
5.026883505851699
 10
136.8315357218336
 20
5.3903400370517
 10
136.9505737298336
 20
5.760908683451702
 10
137.0668318530336
 20
6.132360493051699
 10
137.1718798050336
 20
6.473674952251698
 10
137.2750007602336
 20
6.815575606651698
 10
137.3698091442336
 20
7.138521627451702
 10
137.4616658530336
 20
7.462315251451698
 10
137.5541891538336
 20
7.802016574651702
 10
137.6437966386336
 20
8.142504833851702
 10
137.7349407842336
 20
8.4979623026517
 10
137.8237018530336
 20
8.854022277051697
 10
137.9029420930336
 20
9.182903902651702
 10
137.9784459650336
 20
9.512659013051703
 10
138.0399909394336
 20
9.800257905851701
 10
138.0970206882336
 20
10.0887844274517
 10
138.1477877378336
 20
10.3708820450517
 10
138.1937864690336
 20
10.6537973618517
 10
138.2362641602336
 20
10.94529920025169
 10
138.2743403042336
 20
11.23740930105169
 10
138.3066225234336
 20
11.5122711122517
 10
138.3361891474336
 20
11.7874377090517
 10
138.3843033778336
 20
12.27234088825169
 10
138.4274468978336
 20
12.70139995225169
 10
138.4711630130336
 20
13.0831063026517
 10
138.4932934994336
 20
13.2520253682517
 10
138.5176455954336
 20
13.42063805465169
 10
138.5414097858336
 20
13.5697727282517
 10
138.5675657522336
 20
13.71850587225169
 10
138.5931228370336
 20
13.8502996658517
 10
138.6211910034336
 20
13.9815807314517
 10
138.6486569618336
 20
14.09818776505169
 10
138.6787465890336
 20
14.21414431705169
 10
138.7081870578336
 20
14.3171986146517
 10
138.7403366930336
 20
14.4194387858517
 10
138.7716331618336
 20
14.50993692345169
 10
138.8056640082336
 20
14.5994408482517
 10
138.8385853794336
 20
14.67826430105169
 10
138.8741851730336
 20
14.7559125458517
 10
138.9084496690336
 20
14.82406952025169
 10
138.9452365026336
 20
14.8908963490517
 10
138.9804543858336
 20
14.94941379385169
 10
139.0179406834336
 20
15.0065023458517
 10
139.0538879762336
 20
15.0567599554517
 10
139.0918122322336
 20
15.10554093305169
 10
139.1663822290336
 20
15.19046661625169
 10
139.2427466994336
 20
15.2647513474517
 10
139.3235212498336
 20
15.33187007865169
 10
139.4114379442336
 20
15.39384314585169
 10
139.5081976258336
 20
15.4509082834517
 10
139.5602638402336
 20
15.4774239746517
 10
139.6133864578336
 20
15.50175549145169
 10
139.6680975746336
 20
15.5241352274517
 10
139.7236808866336
 20
15.5442513746517
 10
139.8363671138336
 20
15.5774294482517
 10
139.9486688802336
 20
15.6008449026517
 10
140.0575467298336
 20
15.61448314105169
 10
140.1617994258336
 20
15.61889181785169
  0
LWPOLYLINE
  5
60D
330
1F
100
AcDbEntity
  8
0
  6
HIDDEN
 62
     8
100
AcDbPolyline
 90
       53
 70
     0
 43
0.0
 10
137.0042950626336
 20
4.135791809851703
 10
137.1443037074336
 20
4.483697865851702
 10
137.2797306962336
 20
4.833423344251698
 10
137.4177863346336
 20
5.201964931451698
 10
137.5525016674336
 20
5.571740118651696
 10
137.6761299202336
 20
5.918941329851698
 10
137.7968649506336
 20
6.267157542651702
 10
137.9033263282336
 20
6.584178577851702
 10
138.0062309042336
 20
6.902369536251697
 10
138.1067790738336
 20
7.227487600251699
 10
138.2030679714336
 20
7.5538953522517
 10
138.3027307218336
 20
7.909249997051702
 10
138.3974165762336
 20
8.2659644402517
 10
138.4845818050336
 20
8.614094411451702
 10
138.5664019698336
 20
8.9635171106517
 10
138.6334620898336
 20
9.272089664251701
 10
138.6952964498336
 20
9.581748491451698
 10
138.7475829154336
 20
9.870497688251703
 10
138.7946462754336
 20
10.1601429986517
 10
138.8377305154336
 20
10.46042510265169
 10
138.8754871682336
 20
10.76142620185169
 10
138.9076063778336
 20
11.05534620505169
 10
138.9356514306336
 20
11.34968073945169
 10
138.9576812434336
 20
11.6111142034517
 10
138.9779252306336
 20
11.87269329625169
 10
139.0120719266336
 20
12.3275803442517
 10
139.0452416002336
 20
12.72569663065169
 10
139.0797635666336
 20
13.0737045010517
 10
139.1158918162336
 20
13.3777472498517
 10
139.1530244626336
 20
13.6434203650517
 10
139.1907893202336
 20
13.8754065042517
 10
139.2291540418336
 20
14.0775001154517
 10
139.2681796482336
 20
14.2525020610517
 10
139.3079482242336
 20
14.40214522745169
 10
139.3274007938336
 20
14.4655629682517
 10
139.3487667458336
 20
14.52836020825169
 10
139.3688297922336
 20
14.58135113145169
 10
139.3908871970336
 20
14.6335408994517
 10
139.4116118466336
 20
14.67742005625169
 10
139.4342711682336
 20
14.7203290770517
 10
139.4557765090336
 20
14.7567497922517
 10
139.4790595362336
 20
14.7920573394517
 10
139.5250849698336
 20
14.8513266002517
 10
139.5733374002336
 20
14.9015676434517
 10
139.6254510834336
 20
14.94551295545169
 10
139.6830604930336
 20
14.9847446706517
 10
139.7470553362336
 20
15.0197089250517
 10
139.8167744242336
 20
15.0500114050517
 10
139.8894849266336
 20
15.0749072834517
 10
139.9628133474336
 20
15.0943214610517
 10
140.0341701138336
 20
15.1082124706517
 10
140.1009164370336
 20
15.11650840505169
 10
140.1617994258336
 20
15.1192734194517
  0
LINE
  5
60E
330
1F
100
AcDbEntity
  8
0
  6
HIDDEN
 62
     8
100
AcDbLine
 10
136.2356912066336
 20
3.780462013051696
 30
0.0
 11
136.3430712450336
 21
4.036059582651702
 31
0.0
  0
LINE
  5
60F
330
1F
100
AcDbEntity
  8
0
  6
HIDDEN
 62
     8
100
AcDbLine
 10
127.0505553410336
 20
14.8087164658517
 30
0.0
 11
127.5505410274336
 21
14.9526862290517
 31
0.0
  0
LWPOLYLINE
  5
98E
330
1F
100
AcDbEntity
  8
0
  6
CONTINUOUS
 62
     7
100
AcDbPolyline
 90
        5
 70
     0
 43
0.0
 10
119.7779584610336
 20
19.5412010338517
 10
119.7374222386336
 20
19.1880118898517
 10
119.6916958386336
 20
18.7877992498517
 10
119.6456564386336
 20
18.38394624825169
 10
119.5992994258336
 20
17.9774843874517
  0
LINE
  5
98F
330
1F
100
AcDbEntity
  8
0
  6
CONTINUOUS
 62
     7
100
AcDbLine
 10
119.7969645218336
 20
19.63378807385169
 30
0.0
 11
119.7779549986336
 21
19.54116838265169
 31
0.0
  0
LWPOLYLINE
  5
990
330
1F
100
AcDbEntity
  8
0
  6
CONTINUOUS
 62
     7
100
AcDbPolyline
 90
        3
 70
     0
 43
0.0
 10
119.8889865314336
 20
19.8166566290517
 10
119.8351403698336
 20
19.7293031218517
 10
119.7969645218336
 20
19.63378807385169
  0
LWPOLYLINE
  5
991
330
1F
100
AcDbEntity
  8
0
  6
CONTINUOUS
 62
     7
100
AcDbPolyline
 90
        4
 70
     0
 43
0.0
 10
120.0008384338336
 20
19.9378479602517
 10
119.9564622706336
 20
19.8958279746517
 10
119.9183835522336
 20
19.8540390530517
 10
119.8890561218336
 20
19.8167517906517
  0
LINE
  5
992
330
1F
100
AcDbEntity
  8
0
  6
CONTINUOUS
 62
     7
100
AcDbLine
 10
124.9042165074336
 20
11.36908651865169
 30
0.0
 11
124.9227703714336
 21
11.1694708882517
 31
0.0
  0
LINE
  5
993
330
1F
100
AcDbEntity
  8
0
  6
CONTINUOUS
 62
     7
100
AcDbLine
 10
124.9051142658336
 20
11.3592837042517
 30
0.0
 11
124.9137709026336
 21
11.26573270585169
 31
0.0
  0
LINE
  5
994
330
1F
100
AcDbEntity
  8
0
  6
CONTINUOUS
 62
     7
100
AcDbLine
 10
124.8894611010336
 20
11.5308872242517
 30
0.0
 11
124.8970104674336
 21
11.4477264898517
 31
0.0
  0
LINE
  5
995
330
1F
100
AcDbEntity
  8
0
  6
CONTINUOUS
 62
     7
100
AcDbLine
 10
124.8878330626336
 20
11.54897709145169
 30
0.0
 11
124.9051142658336
 21
11.3592837042517
 31
0.0
  0
LINE
  5
996
330
1F
100
AcDbEntity
  8
0
  6
CONTINUOUS
 62
     7
100
AcDbLine
 10
124.8738702210336
 20
11.7050922610517
 30
0.0
 11
124.8878330626336
 21
11.54897709145169
 31
0.0
  0
LINE
  5
997
330
1F
100
AcDbEntity
  8
0
  6
HIDDEN
 62
     8
100
AcDbLine
 10
124.5397854642336
 20
15.5219843794517
 30
0.0
 11
124.5562391842336
 21
15.3344843874517
 31
0.0
  0
LINE
  5
998
330
1F
100
AcDbEntity
  8
0
  6
CONTINUOUS
 62
     7
100
AcDbLine
 10
124.8635544290336
 20
11.8221179570517
 30
0.0
 11
124.8738702210336
 21
11.7050922610517
 31
0.0
  0
LINE
  5
999
330
1F
100
AcDbEntity
  8
0
  6
CONTINUOUS
 62
     7
100
AcDbLine
 10
124.3247323714336
 20
17.9774843874517
 30
0.0
 11
124.5396801810336
 21
15.52197516345169
 31
0.0
  0
LINE
  5
99A
330
1F
100
AcDbEntity
  8
0
  6
CONTINUOUS
 62
     7
100
AcDbLine
 10
124.5725066018336
 20
15.14697446425169
 30
0.0
 11
124.8635745746336
 21
11.8218878098517
 31
0.0
  0
LINE
  5
99C
330
1F
100
AcDbEntity
  8
0
  6
HIDDEN
 62
     8
100
AcDbLine
 10
124.5562391842336
 20
15.3344843874517
 30
0.0
 11
124.5726200466336
 21
15.1469843954517
 31
0.0
  0
LINE
  5
99D
330
1F
100
AcDbEntity
  8
0
  6
CONTINUOUS
 62
     7
100
AcDbLine
 10
124.3256019298336
 20
17.9774843874517
 30
0.0
 11
124.4572642546336
 21
16.4720330210517
 31
0.0
  0
LWPOLYLINE
  5
99F
330
1F
100
AcDbEntity
  8
0
  6
CONTINUOUS
 62
     7
100
AcDbPolyline
 90
        3
 70
     0
 43
0.0
 10
124.9227726210336
 20
11.16944721305169
 10
124.9543061602336
 20
11.0035202306517
 10
125.0156005362336
 20
10.8420289138517
  0
LINE
  5
9A0
330
1F
100
AcDbEntity
  8
0
  6
CONTINUOUS
 62
     7
100
AcDbLine
 10
124.9227726194336
 20
11.16944721945169
 30
0.0
 11
124.9543542306336
 21
11.00335211065169
 31
0.0
  0
LINE
  5
9A1
330
1F
100
AcDbEntity
  8
0
  6
CONTINUOUS
 62
     7
100
AcDbLine
 10
128.8659656338336
 20
1.436220571451698
 30
0.0
 11
128.8817521634336
 21
1.283584507451699
 31
0.0
  0
LINE
  5
9A2
330
1F
100
AcDbEntity
  8
0
  6
CONTINUOUS
 62
     7
100
AcDbLine
 10
128.8817390194336
 20
1.283716051451698
 30
0.0
 11
128.8963493826336
 21
1.132396635451698
 31
0.0
  0
LWPOLYLINE
  5
9A3
330
1F
100
AcDbEntity
  8
0
  6
CONTINUOUS
 62
     7
100
AcDbPolyline
 90
        4
 70
     0
 43
0.0
 10
127.4598864802336
 20
9.181168337851701
 10
127.5559732402336
 20
8.139471776251703
 10
127.7604041074336
 20
5.811656680251701
 10
127.9606433938336
 20
3.476496309051697
  0
LINE
  5
9A4
330
1F
100
AcDbEntity
  8
0
  6
CONTINUOUS
 62
     7
100
AcDbLine
 10
130.9193819474336
 20
-0.4934864813482989
 30
0.0
 11
130.5478744802336
 21
-0.1219790141483017
 31
0.0
  0
LWPOLYLINE
  5
9A5
330
1F
100
AcDbEntity
  8
0
  6
CONTINUOUS
 62
     7
100
AcDbPolyline
 90
        3
 70
     0
 43
0.0
 10
128.3667358530336
 20
2.373985325051698
 10
128.4609264354336
 20
2.251177792251702
 10
128.5569488610336
 20
2.141901120251702
  0
LINE
  5
9A6
330
1F
100
AcDbEntity
  8
0
  6
CONTINUOUS
 62
     7
100
AcDbLine
 10
128.3668875554336
 20
2.373772769851697
 30
0.0
 11
128.4610092754336
 21
2.251077158651696
 31
0.0
  0
LINE
  5
9A7
330
1F
100
AcDbEntity
  8
0
  6
CONTINUOUS
 62
     7
100
AcDbLine
 10
128.2770750146336
 20
2.509810622651698
 30
0.0
 11
128.3668875554336
 21
2.373772769851697
 31
0.0
  0
LINE
  5
9A8
330
1F
100
AcDbEntity
  8
0
  6
CONTINUOUS
 62
     7
100
AcDbLine
 10
125.0154575154336
 20
10.8423308610517
 30
0.0
 11
125.1049680498336
 21
10.68444911225169
 31
0.0
  0
LINE
  5
9A9
330
1F
100
AcDbEntity
  8
0
  6
CONTINUOUS
 62
     7
100
AcDbLine
 10
128.1945435890336
 20
2.657665238651702
 30
0.0
 11
128.2772842146336
 21
2.509467214651699
 31
0.0
  0
LINE
  5
9AA
330
1F
100
AcDbEntity
  8
0
  6
CONTINUOUS
 62
     7
100
AcDbLine
 10
128.1214956850336
 20
2.816138870651698
 30
0.0
 11
128.1947919042336
 21
2.657177907451696
 31
0.0
  0
LINE
  5
9AB
330
1F
100
AcDbEntity
  8
0
  6
CONTINUOUS
 62
     7
100
AcDbLine
 10
128.0599586082336
 20
2.983387302651699
 30
0.0
 11
128.1217613346336
 21
2.815497795451697
 31
0.0
  0
LINE
  5
9AC
330
1F
100
AcDbEntity
  8
0
  6
CONTINUOUS
 62
     7
100
AcDbLine
 10
128.0115012114336
 20
3.157311520251703
 30
0.0
 11
128.0602175522336
 21
2.982586144251698
 31
0.0
  0
LINE
  5
9AD
330
1F
100
AcDbEntity
  8
0
  6
CONTINUOUS
 62
     7
100
AcDbLine
 10
127.9771882914336
 20
3.335726718651699
 30
0.0
 11
128.0117279634336
 21
3.156348408251702
 31
0.0
  0
LWPOLYLINE
  5
9AE
330
1F
100
AcDbEntity
  8
0
  6
CONTINUOUS
 62
     7
100
AcDbPolyline
 90
       27
 70
     0
 43
0.0
 10
128.9066632514336
 20
1.051212501051701
 10
128.9216248834336
 20
0.972203381051699
 10
128.9417717202336
 20
0.8939254098516968
 10
128.9659838882336
 20
0.8196684482516971
 10
128.9937845858336
 20
0.7495110674516994
 10
129.0247552962336
 20
0.6834451746517019
 10
129.0585109042336
 20
0.6213499122517021
 10
129.0946574434336
 20
0.5631562770516965
 10
129.1327571538336
 20
0.508907880251698
 10
129.1723366626336
 20
0.4586834738516999
 10
129.2129352386336
 20
0.4125121138516974
 10
129.2541239042336
 20
0.3703600610516986
 10
129.2956251234336
 20
0.3320251618517034
 10
129.3372366130336
 20
0.2972263746517001
 10
129.3787759394336
 20
0.2657104738516978
 10
129.4199737826336
 20
0.2373239858517024
 10
129.4605788866336
 20
0.2119086818517033
 10
129.5003972514336
 20
0.1892788898516997
 10
129.5392018482336
 20
0.1692749618516984
 10
129.5767826674336
 20
0.1517274530516985
 10
129.6128764306336
 20
0.1364853602516973
 10
129.6469405170336
 20
0.1234759762516973
 10
129.6785384578336
 20
0.1125395090517003
 10
129.7078095586336
 20
0.103330008251703
 10
129.7354488082336
 20
0.0954052738516964
 10
129.7621819794336
 20
0.0884129282516995
 10
129.7881168818336
 20
0.0822202162516988
  0
LINE
  5
9AF
330
1F
100
AcDbEntity
  8
0
  6
CONTINUOUS
 62
     7
100
AcDbLine
 10
128.8088448674336
 20
1.911493790651697
 30
0.0
 11
128.8188424146336
 21
1.836642441851701
 31
0.0
  0
LWPOLYLINE
  5
9B0
330
1F
100
AcDbEntity
  8
0
  6
CONTINUOUS
 62
     7
100
AcDbPolyline
 90
       28
 70
     0
 43
0.0
 10
128.8963668370336
 20
1.1323735634517
 10
128.9070645954336
 20
1.048048928251702
 10
128.9235260674336
 20
0.9638338754516979
 10
128.9447817970336
 20
0.8837706114517018
 10
128.9702727026336
 20
0.8079782626517015
 10
128.9994860914336
 20
0.7365357730516991
 10
129.0319778322336
 20
0.6694060978516987
 10
129.0673215970336
 20
0.6064654306517028
 10
129.1050857634336
 20
0.5476571762516969
 10
129.1447747202336
 20
0.4930554738516975
 10
129.1858754530336
 20
0.4427305730516978
 10
129.2278909266336
 20
0.3966968946516971
 10
129.2703998386336
 20
0.3548627010517009
 10
129.3131573026336
 20
0.3169456898516998
 10
129.3559589970336
 20
0.2826438338517008
 10
129.3985790882336
 20
0.2517249442516984
 10
129.4407107058336
 20
0.2240391394516976
 10
129.4821118034336
 20
0.1993987458517026
 10
129.5225628626336
 20
0.1776121218517019
 10
129.5617996898336
 20
0.1585138546517015
 10
129.5996049234336
 20
0.1419110978516969
 10
129.6354776018336
 20
0.1277092498516978
 10
129.6688648242336
 20
0.1157755394516968
 10
129.6996288098336
 20
0.1058173602516987
 10
129.7284356898336
 20
0.0973474514516966
 10
129.7561049122336
 20
0.089946536251702
 10
129.7829829618336
 20
0.0834020194516967
 10
129.8130498754336
 20
0.0767723602517023
  0
LINE
  5
9B1
330
1F
100
AcDbEntity
  8
0
  6
CONTINUOUS
 62
     7
100
AcDbLine
 10
128.8188037234336
 20
1.836941038651701
 30
0.0
 11
128.8343844562336
 21
1.712880985851697
 31
0.0
  0
LINE
  5
9B2
330
1F
100
AcDbEntity
  8
0
  6
CONTINUOUS
 62
     7
100
AcDbLine
 10
127.9606462578336
 20
3.476479480251697
 30
0.0
 11
127.9773570962336
 21
3.334604061051699
 31
0.0
  0
LINE
  5
9B3
330
1F
100
AcDbEntity
  8
0
  6
CONTINUOUS
 62
     7
100
AcDbLine
 10
128.8343516210336
 20
1.713150645051698
 30
0.0
 11
128.8501454210336
 21
1.579260299451696
 31
0.0
  0
LINE
  5
9B4
330
1F
100
AcDbEntity
  8
0
  6
CONTINUOUS
 62
     7
100
AcDbLine
 10
128.8501188978336
 20
1.579492387451701
 30
0.0
 11
128.8659855378336
 21
1.436034598651701
 31
0.0
  0
LWPOLYLINE
  5
9B5
330
1F
100
AcDbEntity
  8
0
  6
CONTINUOUS
 62
     7
100
AcDbPolyline
 90
       19
 70
     0
 43
0.0
 10
128.6522857986336
 20
2.046075993851701
 10
128.7461386194336
 20
1.9619550242517
 10
128.8390192386336
 20
1.8872117426517
 10
128.9314088514336
 20
1.820176601851699
 10
129.0226783746336
 20
1.760288040251701
 10
129.1110507442336
 20
1.7076649906517
 10
129.1951143746336
 20
1.662023368251702
 10
129.2745300322336
 20
1.6224885234517
 10
129.3497859330336
 20
1.587939456251696
 10
129.4212990802336
 20
1.557488001851702
 10
129.4889921202336
 20
1.530586305851699
 10
129.5526498290336
 20
1.506812381051702
 10
129.6124986034336
 20
1.485651371451702
 10
129.6690512770336
 20
1.466579518651698
 10
129.7226958194336
 20
1.449197833851698
 10
129.7739668498336
 20
1.433124984251698
 10
129.8230410114336
 20
1.418142992251702
 10
129.8698332706336
 20
1.404139416251702
 10
129.9141445058336
 20
1.391051973051702
  0
LWPOLYLINE
  5
9B6
330
1F
100
AcDbEntity
  8
0
  6
CONTINUOUS
 62
     7
100
AcDbPolyline
 90
        3
 70
     0
 43
0.0
 10
128.5569601618336
 20
2.141889064251699
 10
128.6523449906336
 20
2.046019929851702
 10
128.7462801522336
 20
1.961835008251696
  0
LINE
  5
9B7
330
1F
100
AcDbEntity
  8
0
  6
CONTINUOUS
 62
     7
100
AcDbLine
 10
125.1047585762336
 20
10.68476608345169
 30
0.0
 11
125.2269945858336
 21
10.52346838105169
 31
0.0
  0
LINE
  5
9B8
330
1F
100
AcDbEntity
  8
0
  6
CONTINUOUS
 62
     7
100
AcDbLine
 10
132.2590374226336
 20
-0.856527537348299
 30
0.0
 11
132.1624930530336
 21
-0.5850156125482969
 31
0.0
  0
LINE
  5
9B9
330
1F
100
AcDbEntity
  8
CENTER
100
AcDbLine
 10
132.4117994258336
 20
-3.20923912610921
 30
0.0
 11
132.4117994258336
 21
2.828580505890791
 31
0.0
  0
LWPOLYLINE
  5
9BA
330
1F
100
AcDbEntity
  8
0
  6
CONTINUOUS
 62
     7
100
AcDbPolyline
 90
       12
 70
     0
 43
0.0
 10
129.8259046946336
 20
0.0741872930517005
 10
129.8418438162336
 20
0.0674313074516988
 10
129.8626420818336
 20
0.0589591762516975
 10
129.8864056066336
 20
0.0497309746517019
 10
129.9133453122336
 20
0.0398522658516996
 10
129.9436759922336
 20
0.0294685154516969
 10
129.9766949538336
 20
0.0190433394516987
 10
130.0119793698336
 20
0.0088951570516969
 10
130.0496949010336
 20
-0.0008418125483018
 10
130.0899616466336
 20
-0.0099954189483
 10
130.1329572098336
 20
-0.0183784621482985
 10
130.1835005906336
 20
-0.0264256573482982
  0
LWPOLYLINE
  5
9BC
330
1F
100
AcDbEntity
  8
0
  6
CONTINUOUS
 62
     7
100
AcDbPolyline
 90
       10
 70
     0
 43
0.0
 10
125.2269945858336
 20
10.52346838105169
 10
125.3919527410336
 20
10.35154697305169
 10
125.5977005218336
 20
10.17563392505169
 10
125.8248676722336
 20
10.01023304665169
 10
126.0732570770336
 20
9.851501225851698
 10
126.3452029474336
 20
9.696150509051697
 10
126.6410086178336
 20
9.543232728251702
 10
126.9606251138336
 20
9.392385512251699
 10
127.3043766978336
 20
9.243363437051698
 10
127.4598864018336
 20
9.1811691858517
  0
LWPOLYLINE
  5
9BD
330
1F
100
AcDbEntity
  8
0
  6
CONTINUOUS
 62
     7
100
AcDbPolyline
 90
       13
 70
     0
 43
0.0
 10
125.2268647410336
 20
10.5236202082517
 10
125.3921722002336
 20
10.3513406658517
 10
125.5980006770336
 20
10.1753985650517
 10
125.8251654306336
 20
10.0100306802517
 10
126.0735307378336
 20
9.851336229051696
 10
126.3454571714336
 20
9.696012568251703
 10
126.6412479746336
 20
9.543114614651699
 10
126.9608454962336
 20
9.392285894651699
 10
127.3045677010336
 20
9.2432839378517
 10
127.6733819714336
 20
9.095786515451699
 10
128.0687295186336
 20
8.949559766651702
 10
128.4923528418336
 20
8.804512947451698
 10
128.9126156530336
 20
8.6709640002517
  0
LINE
  5
9C2
330
1F
100
AcDbEntity
  8
0
  6
CONTINUOUS
 62
     7
100
AcDbLine
 10
130.3515959618336
 20
-0.0524790509482998
 30
0.0
 11
130.4487598562336
 21
-0.0700698797483028
 31
0.0
  0
LWPOLYLINE
  5
9C3
330
1F
100
AcDbEntity
  8
0
  6
CONTINUOUS
 62
     7
100
AcDbPolyline
 90
        7
 70
     0
 43
0.0
 10
129.8088314402336
 20
0.0776612178516985
 10
129.8335884226336
 20
0.0726238706516966
 10
129.8574346066336
 20
0.0681514114517015
 10
129.8808175042336
 20
0.064081427451697
 10
129.9039602466336
 20
0.0603154514517002
 10
129.9271422274336
 20
0.0567591122516973
 10
129.9466970866336
 20
0.053895235451698
  0
LWPOLYLINE
  5
9C4
330
1F
100
AcDbEntity
  8
0
  6
CONTINUOUS
 62
     7
100
AcDbPolyline
 90
        3
 70
     0
 43
0.0
 10
129.9141445058336
 20
1.391051973051702
 10
129.9944396306336
 20
1.367475569851698
 10
130.0286863026336
 20
1.3573458098517
  0
LINE
  5
9C8
330
1F
100
AcDbEntity
  8
0
  6
CONTINUOUS
 62
     7
100
AcDbLine
 10
132.4945010530336
 20
-1.022515612548296
 30
0.0
 11
147.8431656338336
 21
-1.022515612548296
 31
0.0
  0
LWPOLYLINE
  5
9C9
330
1F
100
AcDbEntity
  8
0
  6
CONTINUOUS
 62
     7
100
AcDbPolyline
 90
        6
 70
     0
 43
0.0
 10
141.1941956738336
 20
0.1191741372878141
 10
141.3056726018336
 20
0.1046743132878163
 10
141.4078394162336
 20
0.0577955708878122
 10
141.4915145522336
 20
-0.017249176312184
 10
141.5491782610336
 20
-0.1137157763121834
 10
141.5756483986336
 20
-0.2229349331121853
  0
LWPOLYLINE
  5
9CA
330
1F
100
AcDbEntity
  8
0
  6
CONTINUOUS
 62
     7
100
AcDbPolyline
 90
        6
 70
     0
 43
0.0
 10
130.1844748898336
 20
-0.0266814269483007
 10
130.2370169650336
 20
-0.0341835613482999
 10
130.2719608882336
 20
-0.0394055149482995
 10
130.3025327122336
 20
-0.044192762948299
 10
130.3288554290336
 20
-0.0485334765483003
 10
130.3515959618336
 20
-0.0524790509482998
  0
LINE
  5
9CB
330
1F
100
AcDbEntity
  8
0
  6
CONTINUOUS
 62
     7
100
AcDbLine
 10
129.9472463858336
 20
0.0538087858517002
 30
0.0
 11
129.9489436418336
 21
0.0535587154517003
 31
0.0
  0
LWPOLYLINE
  5
9D7
330
1F
100
AcDbEntity
  8
0
  6
CONTINUOUS
 62
     7
100
AcDbPolyline
 90
        6
 70
     0
 43
0.0
 10
143.1936711858336
 20
0.1776143080236068
 10
143.0861128354336
 20
0.1592215672236037
 10
142.9884054194336
 20
0.1106478888236069
 10
142.9088223122336
 20
0.0360062488236039
 10
142.8541022130336
 20
-0.0583830727763939
 10
142.8288785458336
 20
-0.1645276599763932
  0
LWPOLYLINE
  5
9EA
330
1F
100
AcDbEntity
  8
0
  6
CONTINUOUS
 62
     7
100
AcDbPolyline
 90
       51
 70
     0
 43
0.0
 10
150.3786019090336
 20
0.3880724530516986
 10
150.3844578418336
 20
0.3884069058517028
 10
150.3912942706336
 20
0.3888362610517006
 10
150.3987586850336
 20
0.389354381051703
 10
150.4074984754336
 20
0.3900277138517012
 10
150.4182095074336
 20
0.3909521554516999
 10
150.4298579010336
 20
0.3920824130517033
 10
150.4418150530336
 20
0.3933785298517023
 10
150.4540842018336
 20
0.3948519154517029
 10
150.4667196562336
 20
0.3965214290517025
 10
150.4796815122336
 20
0.3983947618516979
 10
150.4928387282336
 20
0.4004631138516999
 10
150.5060177586336
 20
0.4027037698516978
 10
150.5192719954336
 20
0.4051282082517034
 10
150.5326493538336
 20
0.4077496994516992
 10
150.5461622882336
 20
0.4105765634516985
 10
150.5598183218336
 20
0.4136168882517027
 10
150.5736204626336
 20
0.4168783282516984
 10
150.5875675938336
 20
0.4203679394517011
 10
150.6016529714336
 20
0.4240914962516982
 10
150.6158685314336
 20
0.4280543410516984
 10
150.6302044258336
 20
0.4322611586516985
 10
150.6446499074336
 20
0.4367161186517024
 10
150.6592170002336
 20
0.4414306626516975
 10
150.6739249602336
 20
0.4464198834517035
 10
150.6887889570336
 20
0.4516990850517005
 10
150.7038228690336
 20
0.4572846194516984
 10
150.7190392818336
 20
0.463193888251702
 10
150.7344503154336
 20
0.4694457042516973
 10
150.7500809602336
 20
0.4760655730516988
 10
150.7659445122336
 20
0.4830754130517008
 10
150.7820477058336
 20
0.4904958834517004
 10
150.7983976562336
 20
0.4983494130516988
 10
150.8149983522336
 20
0.5066586146516983
 10
150.8318522802336
 20
0.5154470002516974
 10
150.8489606914336
 20
0.5247391618516986
 10
150.8663224130336
 20
0.5345601618517009
 10
150.8839171426336
 20
0.5449254274517017
 10
150.9017093954336
 20
0.5558411010516977
 10
150.9196631122336
 20
0.5673116674516976
 10
150.9377421746336
 20
0.5793401730516976
 10
150.9559104882336
 20
0.5919281906517
 10
150.9741320722336
 20
0.605075809851698
 10
150.9923711394336
 20
0.6187816306516965
 10
151.0105923922336
 20
0.6330429138517033
 10
151.0287729330336
 20
0.6478654770517025
 10
151.0469079394336
 20
0.6632706418517032
 10
151.0649924066336
 20
0.6792821282516997
 10
151.0830190850336
 20
0.6959245058516999
 10
151.1009816418336
 20
0.7132255714517016
 10
151.1193173938336
 20
0.7316595346516977
  0
LINE
  5
9ED
330
1F
100
AcDbEntity
  8
0
  6
CONTINUOUS
 62
     7
100
AcDbLine
 10
150.3697704306336
 20
0.3876227170516984
 30
0.0
 11
150.3786019090336
 21
0.3880724530516986
 31
0.0
  0
LINE
  5
9F0
330
1F
100
AcDbEntity
  8
0
  6
CONTINUOUS
 62
     7
100
AcDbLine
 10
150.3599685746336
 20
0.3871903346516987
 30
0.0
 11
150.3697704306336
 21
0.3876227170516984
 31
0.0
  0
LINE
  5
9F3
330
1F
100
AcDbEntity
  8
0
  6
CONTINUOUS
 62
     7
100
AcDbLine
 10
150.3485587746336
 20
0.386750774651702
 30
0.0
 11
150.3599685746336
 21
0.3871903346516987
 31
0.0
  0
LINE
  5
9F5
330
1F
100
AcDbEntity
  8
0
  6
CONTINUOUS
 62
     7
100
AcDbLine
 10
150.3173338002336
 20
0.3857078594516991
 30
0.0
 11
150.3485587746336
 21
0.386750774651702
 31
0.0
  0
LINE
  5
9F6
330
1F
100
AcDbEntity
  8
0
  6
CONTINUOUS
 62
     7
100
AcDbLine
 10
135.4182955330336
 20
-0.0514898733483023
 30
0.0
 11
135.7982838079081
 21
-0.1877337181220469
 31
0.0
  0
LINE
  5
9F7
330
1F
100
AcDbEntity
  8
0
  6
CONTINUOUS
 62
     7
100
AcDbLine
 10
134.3878459746336
 20
-0.0820466669483011
 30
0.0
 11
137.7213956226336
 21
0.0168059074516975
 31
0.0
  0
LINE
  5
9F9
330
1F
100
AcDbEntity
  8
0
  6
CONTINUOUS
 62
     7
100
AcDbLine
 10
150.2645809410336
 20
0.3841114546517019
 30
0.0
 11
150.3173338002336
 21
0.3857078594516991
 31
0.0
  0
LINE
  5
9FA
330
1F
100
AcDbEntity
  8
0
  6
CONTINUOUS
 62
     7
100
AcDbLine
 10
137.7213956226336
 20
0.0168059074516975
 30
0.0
 11
140.1617994258336
 21
0.0889999238329011
 31
0.0
  0
LINE
  5
9FF
330
1F
100
AcDbEntity
  8
0
  6
CONTINUOUS
 62
     7
100
AcDbLine
 10
140.1580816226336
 20
0.0888908546517016
 30
0.0
 11
148.8972763986336
 21
0.3443178562516991
 31
0.0
  0
LINE
  5
A01
330
1F
100
AcDbEntity
  8
0
  6
CONTINUOUS
 62
     7
100
AcDbLine
 10
148.8972763986336
 20
0.3443178562516991
 30
0.0
 11
150.2640896770336
 21
0.3840970546516971
 31
0.0
  0
LINE
  5
A0C
330
1F
100
AcDbEntity
  8
0
  6
CONTINUOUS
 62
     7
100
AcDbLine
 10
131.1403528162336
 20
-0.5850156125482969
 30
0.0
 11
133.6832460354336
 21
-0.5850156125482969
 31
0.0
  0
LWPOLYLINE
  5
A13
330
1F
100
AcDbEntity
  8
0
  6
CONTINUOUS
 62
     7
100
AcDbPolyline
 90
        6
 70
     0
 43
0.0
 10
146.7188801266336
 20
0.280648234242399
 10
146.8309818258336
 20
0.2668004694423942
 10
146.9338746002336
 20
0.2202000502423971
 10
147.0182232466336
 20
0.1450749190424005
 10
147.0763750178336
 20
0.0482409910423982
 10
147.1030539506336
 20
-0.0615162297576006
  0
LINE
  5
A1B
330
1F
100
AcDbEntity
  8
0
  6
CONTINUOUS
 62
     7
100
AcDbLine
 10
141.5978835618336
 20
-0.566093484548297
 30
0.0
 11
141.5756483986336
 21
-0.2229349331121853
 31
0.0
  0
LINE
  5
A26
330
1F
100
AcDbEntity
  8
0
  6
CONTINUOUS
 62
     7
100
AcDbLine
 10
129.1457911298336
 20
8.601531928251702
 30
0.0
 11
128.9126156530336
 21
8.6709640002517
 31
0.0
  0
LINE
  5
A27
330
1F
100
AcDbEntity
  8
0
  6
CONTINUOUS
 62
     7
100
AcDbLine
 10
129.1457911298336
 20
8.601531928251702
 30
0.0
 11
129.3717554866336
 21
8.5314010290517
 31
0.0
  0
LINE
  5
A28
330
1F
100
AcDbEntity
  8
0
  6
CONTINUOUS
 62
     7
100
AcDbLine
 10
129.3717554866336
 20
8.5314010290517
 30
0.0
 11
129.5230374450336
 21
8.481923918651702
 31
0.0
  0
LINE
  5
A2F
330
1F
100
AcDbEntity
  8
0
  6
CONTINUOUS
 62
     7
100
AcDbLine
 10
142.8288785458336
 20
-0.1645276599763932
 30
0.0
 11
142.8027470850336
 21
-0.566093484548297
 31
0.0
  0
LINE
  5
A32
330
1F
100
AcDbEntity
  8
0
  6
CONTINUOUS
 62
     7
100
AcDbLine
 10
147.1363994578336
 20
-0.566093484548297
 30
0.0
 11
147.1030539506336
 21
-0.0615162297576006
 31
0.0
  0
LINE
  5
A39
330
1F
100
AcDbEntity
  8
0
  6
CONTINUOUS
 62
     7
100
AcDbLine
 10
134.2608216370336
 20
-0.1368817485482978
 30
0.0
 11
133.9042169042336
 21
-0.4934864813482989
 31
0.0
  0
LINE
  5
A3A
330
1F
100
AcDbEntity
  8
0
  6
CONTINUOUS
 62
     7
100
AcDbLine
 10
158.6424247586336
 20
10.7996527378517
 30
0.0
 11
158.7672829378336
 21
10.8303786178517
 31
0.0
  0
LWPOLYLINE
  5
A3B
330
1F
100
AcDbEntity
  8
0
  6
CONTINUOUS
 62
     7
100
AcDbPolyline
 90
        9
 70
     0
 43
0.0
 10
158.7665061442336
 20
10.8301880978517
 10
158.9012377458336
 20
10.86311406265169
 10
159.0346462658336
 20
10.89548229305169
 10
159.1675041682336
 20
10.9274869986517
 10
159.2998071586336
 20
10.9591318322517
 10
159.4315509842336
 20
10.9904203970517
 10
159.5627314322336
 20
11.02135625465169
 10
159.6933443282336
 20
11.05194292505169
 10
159.8233855410336
 20
11.08218388825169
  0
LWPOLYLINE
  5
A3C
330
1F
100
AcDbEntity
  8
0
  6
CONTINUOUS
 62
     7
100
AcDbPolyline
 90
        8
 70
     0
 43
0.0
 10
158.8996904402336
 20
10.8627372834517
 10
159.0323348018336
 20
10.8949234482517
 10
159.1644349730336
 20
10.92675022265169
 10
159.2959867346336
 20
10.9582211938517
 10
159.4269859074336
 20
10.9893399058517
 10
159.5574283458336
 20
11.0201098610517
 10
159.6873099490336
 20
11.0505345170517
 10
159.8166266562336
 20
11.0806172978517
  0
LINE
  5
A42
330
1F
100
AcDbEntity
  8
0
  6
CONTINUOUS
 62
     7
100
AcDbLine
 10
148.3799947293016
 20
0.0088221701684219
 30
0.0
 11
148.3412629826336
 21
-0.566093484548297
 31
0.0
  0
LWPOLYLINE
  5
A45
330
1F
100
AcDbEntity
  8
0
  6
CONTINUOUS
 62
     7
100
AcDbPolyline
 90
        3
 70
     0
 43
0.0
 10
159.8166266562336
 20
11.0806172978517
 10
159.9528509842336
 20
11.1120825794517
 10
160.0817366130336
 20
11.14164239865169
  0
LINE
  5
A46
330
1F
100
AcDbEntity
  8
0
  6
CONTINUOUS
 62
     7
100
AcDbLine
 10
159.9453744466336
 20
11.11036158105169
 30
0.0
 11
160.0735493442336
 21
11.1397707090517
 31
0.0
  0
LINE
  5
A47
330
1F
100
AcDbEntity
  8
0
  6
CONTINUOUS
 62
     7
100
AcDbLine
 10
160.0735493442336
 20
11.1397707090517
 30
0.0
 11
160.2100383778336
 21
11.1708666978517
 31
0.0
  0
LINE
  5
A48
330
1F
100
AcDbEntity
  8
0
  6
CONTINUOUS
 62
     7
100
AcDbLine
 10
160.2011473874336
 20
11.16884798105169
 30
0.0
 11
160.3377509970336
 21
11.1997585682517
 31
0.0
  0
LINE
  5
A49
330
1F
100
AcDbEntity
  8
0
  6
CONTINUOUS
 62
     7
100
AcDbLine
 10
160.3281635058336
 20
11.1975964642517
 30
0.0
 11
160.4648681426336
 21
11.22832085785169
 31
0.0
  0
LWPOLYLINE
  5
A4A
330
1F
100
AcDbEntity
  8
0
  6
CONTINUOUS
 62
     7
100
AcDbPolyline
 90
        5
 70
     0
 43
0.0
 10
160.4545914914336
 20
11.22601895705169
 10
160.5913836034336
 20
11.2565563826517
 10
160.7172913058336
 20
11.2844679426517
 10
160.8425853138336
 20
11.3120583186517
 10
160.9672598338336
 20
11.3393302706517
  0
LWPOLYLINE
  5
A4B
330
1F
100
AcDbEntity
  8
0
  6
CONTINUOUS
 62
     7
100
AcDbPolyline
 90
        4
 70
     0
 43
0.0
 10
160.5804252274336
 20
11.25411823225169
 10
160.7056587346336
 20
11.2818970418517
 10
160.8302861666336
 20
11.3093581202517
 10
160.9543018178336
 20
11.3365041842517
  0
LINE
  5
A4C
330
1F
100
AcDbEntity
  8
0
  6
CONTINUOUS
 62
     7
100
AcDbLine
 10
160.9543018178336
 20
11.3365041842517
 30
0.0
 11
161.0913092018336
 21
11.3662865442517
 31
0.0
  0
LINE
  5
A4D
330
1F
100
AcDbEntity
  8
0
  6
CONTINUOUS
 62
     7
100
AcDbLine
 10
161.0777001090336
 20
11.3633379298517
 30
0.0
 11
161.2147278962336
 21
11.39292986265169
 31
0.0
  0
LINE
  5
A4E
330
1F
100
AcDbEntity
  8
0
  6
CONTINUOUS
 62
     7
100
AcDbLine
 10
161.2004755986336
 20
11.38986203545169
 30
0.0
 11
161.3375105234336
 21
11.41926292825169
 31
0.0
  0
LINE
  5
A4F
330
1F
100
AcDbEntity
  8
0
  6
CONTINUOUS
 62
     7
100
AcDbLine
 10
161.3226229714336
 20
11.41607916185169
 30
0.0
 11
161.4596518242336
 21
11.4452884306517
 31
0.0
  0
LINE
  5
A50
330
1F
100
AcDbEntity
  8
0
  6
CONTINUOUS
 62
     7
100
AcDbLine
 10
161.4441370434336
 20
11.44199195225169
 30
0.0
 11
161.5811466674336
 21
11.4710090402517
 31
0.0
  0
LINE
  5
A51
330
1F
100
AcDbEntity
  8
0
  6
CONTINUOUS
 62
     7
100
AcDbLine
 10
161.5650127586336
 20
11.4676030322517
 30
0.0
 11
161.7019868226336
 21
11.4964266882517
 31
0.0
  0
LINE
  5
A52
330
1F
100
AcDbEntity
  8
0
  6
CONTINUOUS
 62
     7
100
AcDbLine
 10
161.6852429858336
 20
11.4929145266517
 30
0.0
 11
161.8221608258336
 21
11.5215422834517
 31
0.0
  0
LINE
  5
A53
330
1F
100
AcDbEntity
  8
0
  6
CONTINUOUS
 62
     7
100
AcDbLine
 10
161.8048157170336
 20
11.5179272210517
 30
0.0
 11
161.9416643618336
 21
11.54635804665169
 31
0.0
  0
LINE
  5
A54
330
1F
100
AcDbEntity
  8
0
  6
CONTINUOUS
 62
     7
100
AcDbLine
 10
161.9237262946336
 20
11.54264322265169
 30
0.0
 11
162.0604934306336
 21
11.57087623385169
 31
0.0
  0
LINE
  5
A55
330
1F
100
AcDbEntity
  8
0
  6
CONTINUOUS
 62
     7
100
AcDbLine
 10
162.0419707810336
 20
11.5670647442517
 30
0.0
 11
162.1786441154336
 21
11.5950990786517
 31
0.0
  0
LINE
  5
A56
330
1F
100
AcDbEntity
  8
0
  6
CONTINUOUS
 62
     7
100
AcDbLine
 10
162.1595453122336
 20
11.5911939906517
 30
0.0
 11
162.2961125730336
 21
11.61902880505169
 31
0.0
  0
LINE
  5
A57
330
1F
100
AcDbEntity
  8
0
  6
CONTINUOUS
 62
     7
100
AcDbLine
 10
162.2764460994336
 20
11.61503314585169
 30
0.0
 11
162.4128950178336
 21
11.6426676130517
 31
0.0
  0
LWPOLYLINE
  5
A58
330
1F
100
AcDbEntity
  8
0
  6
CONTINUOUS
 62
     7
100
AcDbPolyline
 90
       36
 70
     0
 43
0.0
 10
168.2458989074336
 20
12.67660527225169
 10
168.2524903554336
 20
12.6779369810517
 10
168.2601970818336
 20
12.67954042585169
 10
168.2694537426336
 20
12.6815365570517
 10
168.2807028802336
 20
12.6840702722517
 10
168.2943803298336
 20
12.68731600185169
 10
168.3106998770336
 20
12.6914321842517
 10
168.3295404562336
 20
12.6965212946517
 10
168.3509213714336
 20
12.7027437810517
 10
168.3752684626336
 20
12.7104220498517
 10
168.4027512658336
 20
12.7198679074517
 10
168.4325367874336
 20
12.73106801945169
 10
168.4635916146336
 20
12.74385326905169
 10
168.4954831666336
 20
12.7582114658517
 10
168.5280613746336
 20
12.7742191202517
 10
168.5611889154336
 20
12.79195200345169
 10
168.5947169570336
 20
12.8114761394517
 10
168.6284867810336
 20
12.83284700665169
 10
168.6623775666336
 20
12.8561420258517
 10
168.6962412626336
 20
12.8814225634517
 10
168.7299182226336
 20
12.9087414834517
 10
168.7632403458336
 20
12.9381446578517
 10
168.7960370450336
 20
12.9696701426517
 10
168.8281560306336
 20
13.0033488370517
 10
168.8594431762336
 20
13.0392049634517
 10
168.8897347090336
 20
13.0772553890517
 10
168.9188565602336
 20
13.1175089314517
 10
168.9466238290336
 20
13.15996571065169
 10
168.9728402626336
 20
13.20461652345169
 10
168.9972992338336
 20
13.25144070105169
 10
169.0198036386336
 20
13.3003919346517
 10
169.0401645570336
 20
13.3514057842517
 10
169.0581854354336
 20
13.4044039554517
 10
169.0736611746336
 20
13.45929308345169
 10
169.0863778210336
 20
13.5159639154517
 10
169.0900045826336
 20
13.5354514962517
  0
LINE
  5
A59
330
1F
100
AcDbEntity
  8
0
  6
CONTINUOUS
 62
     7
100
AcDbLine
 10
162.3926694274336
 20
11.63858437945169
 30
0.0
 11
162.5289869490336
 21
11.6660175442517
 31
0.0
  0
LINE
  5
A5A
330
1F
100
AcDbEntity
  8
0
  6
CONTINUOUS
 62
     7
100
AcDbLine
 10
162.5082110818336
 20
11.66184973945169
 30
0.0
 11
162.6443830610336
 21
11.6890804562517
 31
0.0
  0
LINE
  5
A5B
330
1F
100
AcDbEntity
  8
0
  6
CONTINUOUS
 62
     7
100
AcDbLine
 10
162.6230658850336
 20
11.6848310642517
 30
0.0
 11
162.7590782098336
 21
11.71185821145169
 31
0.0
  0
LINE
  5
A5C
330
1F
100
AcDbEntity
  8
0
  6
CONTINUOUS
 62
     7
100
AcDbLine
 10
162.7372287378336
 20
11.7075301826517
 30
0.0
 11
162.8730674642336
 21
11.73435268505169
 31
0.0
  0
LINE
  5
A5D
330
1F
100
AcDbEntity
  8
0
  6
CONTINUOUS
 62
     7
100
AcDbLine
 10
162.8506947570336
 20
11.7299489314517
 30
0.0
 11
162.9863460994336
 21
11.75656576185169
 31
0.0
  0
LINE
  5
A5E
330
1F
100
AcDbEntity
  8
0
  6
CONTINUOUS
 62
     7
100
AcDbLine
 10
162.9634592626336
 20
11.7520891650517
 30
0.0
 11
163.0989096018336
 21
11.7784993394517
 31
0.0
  0
LINE
  5
A5F
330
1F
100
AcDbEntity
  8
0
  6
CONTINUOUS
 62
     7
100
AcDbLine
 10
163.0755177746336
 20
11.7739527442517
 30
0.0
 11
163.2107495746336
 21
11.8001540722517
 31
0.0
  0
LINE
  5
A60
330
1F
100
AcDbEntity
  8
0
  6
CONTINUOUS
 62
     7
100
AcDbLine
 10
168.2347741266336
 20
12.6744323762517
 30
0.0
 11
168.2458989074336
 21
12.67660527225169
 31
0.0
  0
LINE
  5
A61
330
1F
100
AcDbEntity
  8
0
  6
CONTINUOUS
 62
     7
100
AcDbLine
 10
163.1868632914336
 20
11.79554079225169
 30
0.0
 11
163.3218648034336
 21
11.8215300402517
 31
0.0
  0
LINE
  5
A62
330
1F
100
AcDbEntity
  8
0
  6
CONTINUOUS
 62
     7
100
AcDbLine
 10
163.2974912402336
 20
11.81685309785169
 30
0.0
 11
163.4322624370336
 21
11.84262849145169
 31
0.0
  0
LINE
  5
A63
330
1F
100
AcDbEntity
  8
0
  6
CONTINUOUS
 62
     7
100
AcDbLine
 10
163.4074083426336
 20
11.8378908130517
 30
0.0
 11
163.5419493730336
 21
11.86345070265169
 31
0.0
  0
LINE
  5
A64
330
1F
100
AcDbEntity
  8
0
  6
CONTINUOUS
 62
     7
100
AcDbLine
 10
163.5166214322336
 20
11.8586551906517
 30
0.0
 11
163.6509322642336
 21
11.88399798105169
 31
0.0
  0
LINE
  5
A65
330
1F
100
AcDbEntity
  8
0
  6
CONTINUOUS
 62
     7
100
AcDbLine
 10
168.2250002738336
 20
12.6725878546517
 30
0.0
 11
168.2347741266336
 21
12.6744323762517
 31
0.0
  0
LINE
  5
A66
330
1F
100
AcDbEntity
  8
0
  6
CONTINUOUS
 62
     7
100
AcDbLine
 10
163.6251371010336
 20
11.87914750585169
 30
0.0
 11
163.7592175138336
 21
11.9042716642517
 31
0.0
  0
LINE
  5
A67
330
1F
100
AcDbEntity
  8
0
  6
CONTINUOUS
 62
     7
100
AcDbLine
 10
163.7329617010336
 20
11.8993690674517
 30
0.0
 11
163.8668117890336
 21
11.92427321785169
 31
0.0
  0
LINE
  5
A68
330
1F
100
AcDbEntity
  8
0
  6
CONTINUOUS
 62
     7
100
AcDbLine
 10
163.8401013458336
 20
11.9193212098517
 30
0.0
 11
163.9737281874336
 21
11.94400702905169
 31
0.0
  0
LINE
  5
A69
330
1F
100
AcDbEntity
  8
0
  6
CONTINUOUS
 62
     7
100
AcDbLine
 10
163.9465686434336
 20
11.9390073746517
 30
0.0
 11
164.0799491090336
 21
11.9634753698517
 31
0.0
  0
LINE
  5
A6A
330
1F
100
AcDbEntity
  8
0
  6
CONTINUOUS
 62
     7
100
AcDbLine
 10
164.0523556258336
 20
11.9584309538517
 30
0.0
 11
164.1854464914336
 21
11.9826789138517
 31
0.0
  0
LINE
  5
A6B
330
1F
100
AcDbEntity
  8
0
  6
CONTINUOUS
 62
     7
100
AcDbLine
 10
168.2106064418336
 20
12.6699483602517
 30
0.0
 11
168.2250002738336
 21
12.6725878546517
 31
0.0
  0
LINE
  5
A6C
330
1F
100
AcDbEntity
  8
0
  6
CONTINUOUS
 62
     7
100
AcDbLine
 10
164.1574345826336
 20
11.97759262265169
 30
0.0
 11
164.2901929042336
 21
12.0016183218517
 31
0.0
  0
LINE
  5
A6D
330
1F
100
AcDbEntity
  8
0
  6
CONTINUOUS
 62
     7
100
AcDbLine
 10
164.2617783922336
 20
11.9964930290517
 30
0.0
 11
164.3941615730336
 21
12.0202942338517
 31
0.0
  0
LINE
  5
A6E
330
1F
100
AcDbEntity
  8
0
  6
CONTINUOUS
 62
     7
100
AcDbLine
 10
164.3653605650336
 20
12.0151328114517
 30
0.0
 11
164.4973263858336
 21
12.0387072866517
 31
0.0
  0
LINE
  5
A6F
330
1F
100
AcDbEntity
  8
0
  6
CONTINUOUS
 62
     7
100
AcDbLine
 10
164.4681552626336
 20
12.03351259225169
 30
0.0
 11
164.5996624402336
 21
12.05685820505169
 31
0.0
  0
LINE
  5
A70
330
1F
100
AcDbEntity
  8
0
  6
CONTINUOUS
 62
     7
100
AcDbLine
 10
164.5701373010336
 20
12.05163299545169
 30
0.0
 11
164.7011707266336
 21
12.0747533314517
 31
0.0
  0
LINE
  5
A71
330
1F
100
AcDbEntity
  8
0
  6
CONTINUOUS
 62
     7
100
AcDbLine
 10
168.1671484562336
 20
12.6622233746517
 30
0.0
 11
168.2106064418336
 21
12.6699483602517
 31
0.0
  0
LINE
  5
A72
330
1F
100
AcDbEntity
  8
0
  6
CONTINUOUS
 62
     7
100
AcDbLine
 10
164.6712984002336
 20
12.06949798425169
 30
0.0
 11
164.8018169298336
 21
12.09239559865169
 31
0.0
  0
LINE
  5
A73
330
1F
100
AcDbEntity
  8
0
  6
CONTINUOUS
 62
     7
100
AcDbLine
 10
164.7716235890336
 20
12.08711316185169
 30
0.0
 11
164.9015445730336
 21
12.1097842594517
 31
0.0
  0
LINE
  5
A74
330
1F
100
AcDbEntity
  8
0
  6
CONTINUOUS
 62
     7
100
AcDbLine
 10
164.8710574082336
 20
12.10447787065169
 30
0.0
 11
165.0002992066336
 21
12.12691865625169
 31
0.0
  0
LINE
  5
A75
330
1F
100
AcDbEntity
  8
0
  6
CONTINUOUS
 62
     7
100
AcDbLine
 10
164.9695457378336
 20
12.12159144025169
 30
0.0
 11
165.0980284178336
 21
12.14379824025169
 31
0.0
  0
LINE
  5
A76
330
1F
100
AcDbEntity
  8
0
  6
CONTINUOUS
 62
     7
100
AcDbLine
 10
167.9825528514336
 20
12.6301255138517
 30
0.0
 11
168.1671484562336
 21
12.6622233746517
 31
0.0
  0
LINE
  5
A77
330
1F
100
AcDbEntity
  8
0
  6
CONTINUOUS
 62
     7
100
AcDbLine
 10
165.0670364498336
 20
12.13845329625169
 30
0.0
 11
165.2588265026336
 21
12.17142006905169
 31
0.0
  0
LINE
  5
A78
330
1F
100
AcDbEntity
  8
0
  6
CONTINUOUS
 62
     7
100
AcDbLine
 10
167.8632785026336
 20
12.60965438745169
 30
0.0
 11
168.0494689954336
 21
12.6416966066517
 31
0.0
  0
LINE
  5
A79
330
1F
100
AcDbEntity
  8
0
  6
CONTINUOUS
 62
     7
100
AcDbLine
 10
165.1946818402336
 20
12.1604225586517
 30
0.0
 11
165.3845685538336
 21
12.19290379865169
 31
0.0
  0
LINE
  5
A7A
330
1F
100
AcDbEntity
  8
0
  6
CONTINUOUS
 62
     7
100
AcDbLine
 10
165.3530312258336
 20
12.1875242642517
 30
0.0
 11
165.5378093874336
 21
12.21896694265169
 31
0.0
  0
LINE
  5
A7B
330
1F
100
AcDbEntity
  8
0
  6
CONTINUOUS
 62
     7
100
AcDbLine
 10
165.4777007922336
 20
12.20875808025169
 30
0.0
 11
165.6600858274336
 21
12.2396831522517
 31
0.0
  0
LINE
  5
A7C
330
1F
100
AcDbEntity
  8
0
  6
CONTINUOUS
 62
     7
100
AcDbLine
 10
167.6354521074336
 20
12.5709995842517
 30
0.0
 11
167.8787452146336
 21
12.61229886425169
 31
0.0
  0
LINE
  5
A7D
330
1F
100
AcDbEntity
  8
0
  6
CONTINUOUS
 62
     7
100
AcDbLine
 10
165.6282820002336
 20
12.23430109305169
 30
0.0
 11
165.8369851234336
 21
12.2695513266517
 31
0.0
  0
LINE
  5
A7E
330
1F
100
AcDbEntity
  8
0
  6
CONTINUOUS
 62
     7
100
AcDbLine
 10
165.8051621906336
 20
12.2641858834517
 30
0.0
 11
166.0596943986336
 21
12.3070322418517
 31
0.0
  0
LINE
  5
A7F
330
1F
100
AcDbEntity
  8
0
  6
CONTINUOUS
 62
     7
100
AcDbLine
 10
166.0080596082336
 20
12.2983510082517
 30
0.0
 11
166.1729515634336
 21
12.3260591426517
 31
0.0
  0
LINE
  5
A80
330
1F
100
AcDbEntity
  8
0
  6
CONTINUOUS
 62
     7
100
AcDbLine
 10
167.4472761170336
 20
12.5393779874517
 30
0.0
 11
167.4923591938336
 21
12.5469422818517
 31
0.0
  0
LINE
  5
A81
330
1F
100
AcDbEntity
  8
0
  6
CONTINUOUS
 62
     7
100
AcDbLine
 10
166.1414837298336
 20
12.32077462585169
 30
0.0
 11
166.3002740146336
 21
12.34742577305169
 31
0.0
  0
LWPOLYLINE
  5
A82
330
1F
100
AcDbEntity
  8
0
  6
CONTINUOUS
 62
     7
100
AcDbPolyline
 90
        3
 70
     0
 43
0.0
 10
167.4239128978336
 20
12.5354591842517
 10
167.4696165170336
 20
12.54312592345169
 10
167.6556407570336
 20
12.5744041346517
  0
LINE
  5
A83
330
1F
100
AcDbEntity
  8
0
  6
CONTINUOUS
 62
     7
100
AcDbLine
 10
167.3271806242336
 20
12.5192423266517
 30
0.0
 11
167.3764390386336
 21
12.5274985522517
 31
0.0
  0
LINE
  5
A84
330
1F
100
AcDbEntity
  8
0
  6
CONTINUOUS
 62
     7
100
AcDbLine
 10
166.2529847810336
 20
12.33949270745169
 30
0.0
 11
166.4081203490336
 21
12.3655058546517
 31
0.0
  0
LWPOLYLINE
  5
A85
330
1F
100
AcDbEntity
  8
0
  6
CONTINUOUS
 62
     7
100
AcDbPolyline
 90
        3
 70
     0
 43
0.0
 10
167.3013157346336
 20
12.5149087122517
 10
167.3517755874336
 20
12.52336421145169
 10
167.4472761170336
 20
12.5393779874517
  0
LINE
  5
A86
330
1F
100
AcDbEntity
  8
0
  6
CONTINUOUS
 62
     7
100
AcDbLine
 10
166.3772340130336
 20
12.3603295042517
 30
0.0
 11
166.5261964194336
 21
12.38528303225169
 31
0.0
  0
LINE
  5
A87
330
1F
100
AcDbEntity
  8
0
  6
CONTINUOUS
 62
     7
100
AcDbLine
 10
167.2232869042336
 20
12.50184240985169
 30
0.0
 11
167.3271806242336
 21
12.5192423266517
 31
0.0
  0
LINE
  5
A88
330
1F
100
AcDbEntity
  8
0
  6
CONTINUOUS
 62
     7
100
AcDbLine
 10
166.4831867762336
 20
12.3780812050517
 30
0.0
 11
166.5565650258336
 21
12.3903667698517
 31
0.0
  0
LWPOLYLINE
  5
A89
330
1F
100
AcDbEntity
  8
0
  6
CONTINUOUS
 62
     7
100
AcDbPolyline
 90
        4
 70
     0
 43
0.0
 10
166.5261964194336
 20
12.38528303225169
 10
166.6684551762336
 20
12.4090878482517
 10
166.7370449714336
 20
12.4205573842517
 10
166.8039252834336
 20
12.4317373362517
  0
LWPOLYLINE
  5
A8A
330
1F
100
AcDbEntity
  8
0
  6
CONTINUOUS
 62
     7
100
AcDbPolyline
 90
        4
 70
     0
 43
0.0
 10
166.6282420930336
 20
12.40236119385169
 10
166.6982080242336
 20
12.41406364825169
 10
166.7664533522336
 20
12.4254737794517
 10
166.8329625986336
 20
12.4365904642517
  0
LWPOLYLINE
  5
A8B
330
1F
100
AcDbEntity
  8
0
  6
CONTINUOUS
 62
     7
100
AcDbPolyline
 90
        3
 70
     0
 43
0.0
 10
167.0540968018336
 20
12.4735458306517
 10
167.1122576130336
 20
12.4832689042517
 10
167.1686551618336
 20
12.49270089465169
  0
LWPOLYLINE
  5
A8C
330
1F
100
AcDbEntity
  8
0
  6
CONTINUOUS
 62
     7
100
AcDbPolyline
 90
        4
 70
     0
 43
0.0
 10
167.0219485634336
 20
12.46817257945169
 10
167.0813993506336
 20
12.47810976185169
 10
167.1390680066336
 20
12.4877521650517
 10
167.2490416322336
 20
12.50615391065169
  0
LINE
  5
A8D
330
1F
100
AcDbEntity
  8
0
  6
CONTINUOUS
 62
     7
100
AcDbLine
 10
166.8039252834336
 20
12.4317373362517
 30
0.0
 11
167.0540968018336
 21
12.4735458306517
 31
0.0
  0
LINE
  5
A8F
330
1F
100
AcDbEntity
  8
0
  6
CONTINUOUS
 62
     7
100
AcDbLine
 10
150.8640081986336
 20
8.533154216251702
 30
0.0
 11
151.0498731746336
 21
8.596596707451702
 31
0.0
  0
LWPOLYLINE
  5
A90
330
1F
100
AcDbEntity
  8
0
  6
CONTINUOUS
 62
     7
100
AcDbPolyline
 90
        9
 70
     0
 43
0.0
 10
151.0498731746336
 20
8.596596707451702
 10
151.1276442658336
 20
8.622968649851699
 10
151.2059372258336
 20
8.649114789051701
 10
151.2827666322336
 20
8.674260137851696
 10
151.3565069122336
 20
8.697968822651702
 10
151.4272707186336
 20
8.720331969851699
 10
151.4945949874336
 20
8.740877638651703
 10
151.5607941682336
 20
8.759921873851702
 10
151.6186659698336
 20
8.776780232251702
  0
LWPOLYLINE
  5
A91
330
1F
100
AcDbEntity
  8
0
  6
CONTINUOUS
 62
     7
100
AcDbPolyline
 90
        6
 70
     0
 43
0.0
 10
151.6187134914336
 20
8.776797166651697
 10
152.8792159362336
 20
9.165787510651696
 10
154.2035751570336
 20
9.573870112251697
 10
155.5998407346336
 20
9.987100377851696
 10
157.0817178786336
 20
10.39827606585169
 10
158.6424335138336
 20
10.79966514425169
  0
LWPOLYLINE
  5
A92
330
1F
100
AcDbEntity
  8
0
  6
CONTINUOUS
 62
     7
100
AcDbPolyline
 90
        5
 70
     0
 43
0.0
 10
152.3629569170336
 20
3.476504033851696
 10
152.3852711698336
 20
3.738325073851697
 10
152.5789619682336
 20
5.993837995451698
 10
152.7762796754336
 20
8.235522589051697
 10
152.8616831170336
 20
9.160376893051697
  0
LINE
  5
A93
330
1F
100
AcDbEntity
  8
0
  6
CONTINUOUS
 62
     7
100
AcDbLine
 10
151.4607728370336
 20
1.465362425851701
 30
0.0
 11
151.4731863042336
 21
1.576921437051701
 31
0.0
  0
LINE
  5
A94
330
1F
100
AcDbEntity
  8
0
  6
CONTINUOUS
 62
     7
100
AcDbLine
 10
151.4731599346336
 20
1.576690421051701
 30
0.0
 11
151.4889310546336
 21
1.710552643451698
 31
0.0
  0
LINE
  5
A95
330
1F
100
AcDbEntity
  8
0
  6
CONTINUOUS
 62
     7
100
AcDbLine
 10
152.3462346482336
 20
3.3345562466517
 30
0.0
 11
152.3629550210336
 21
3.476501401851699
 31
0.0
  0
LINE
  5
A96
330
1F
100
AcDbEntity
  8
0
  6
CONTINUOUS
 62
     7
100
AcDbLine
 10
151.4888984034336
 20
1.710284168251696
 30
0.0
 11
151.5044593698336
 21
1.834348307451698
 31
0.0
  0
LINE
  5
A97
330
1F
100
AcDbEntity
  8
0
  6
CONTINUOUS
 62
     7
100
AcDbLine
 10
151.5044208914336
 20
1.834050955451701
 30
0.0
 11
151.5147498690336
 21
1.911494638651703
 31
0.0
  0
LINE
  5
A98
330
1F
100
AcDbEntity
  8
0
  6
CONTINUOUS
 62
     7
100
AcDbLine
 10
152.3118526162336
 20
3.156272539451698
 30
0.0
 11
152.3464034882336
 21
3.335678936251703
 31
0.0
  0
LWPOLYLINE
  5
A9F
330
1F
100
AcDbEntity
  8
0
  6
CONTINUOUS
 62
     7
100
AcDbPolyline
 90
       14
 70
     0
 43
0.0
 10
168.4577511730336
 20
12.74149389145169
 10
168.4599836834336
 20
12.7423362802517
 10
168.5397753378336
 20
12.7803372754517
 10
168.6161392226336
 20
12.8248411698517
 10
168.6885589794336
 20
12.87551304665169
 10
168.7565183042336
 20
12.9320179938517
 10
168.8195174786336
 20
12.9940032674517
 10
168.8771488178336
 20
13.0610162818517
 10
168.9290364706336
 20
13.13256975385169
 10
168.9748045970336
 20
13.2081762994517
 10
169.0140951458336
 20
13.2873394770517
 10
169.0466671682336
 20
13.3695020386517
 10
169.0723272386336
 20
13.4540818882517
 10
169.0900045826336
 20
13.5354514962517
  0
LINE
  5
AA0
330
1F
100
AcDbEntity
  8
0
  6
CONTINUOUS
 62
     7
100
AcDbLine
 10
152.2633483842336
 20
2.982486696251697
 30
0.0
 11
152.3120794274336
 21
3.157235739451699
 31
0.0
  0
LINE
  5
AA1
330
1F
100
AcDbEntity
  8
0
  6
CONTINUOUS
 62
     7
100
AcDbLine
 10
152.2017847618336
 20
2.815372899451702
 30
0.0
 11
152.2636073698336
 21
2.983287848251698
 31
0.0
  0
LINE
  5
AA2
330
1F
100
AcDbEntity
  8
0
  6
CONTINUOUS
 62
     7
100
AcDbLine
 10
152.1287253218336
 20
2.657019865851701
 30
0.0
 11
152.2020503730336
 21
2.8160137730517
 31
0.0
  0
LINE
  5
AA3
330
1F
100
AcDbEntity
  8
0
  6
CONTINUOUS
 62
     7
100
AcDbLine
 10
152.0461897090336
 20
2.509263888251702
 30
0.0
 11
152.1289734626336
 21
2.657506758651699
 31
0.0
  0
LWPOLYLINE
  5
AA4
330
1F
100
AcDbEntity
  8
0
  6
CONTINUOUS
 62
     7
100
AcDbPolyline
 90
       18
 70
     0
 43
0.0
 10
151.2743662306336
 20
0.9284062642516985
 10
151.2903903330336
 20
0.9544197714516968
 10
151.3060319522336
 20
0.9812972034517031
 10
151.3212447474336
 20
1.009040046651698
 10
151.3359808594336
 20
1.037648129851696
 10
151.3501909986336
 20
1.067119709051702
 10
151.3638319570336
 20
1.097465817851698
 10
151.3768641538336
 20
1.128697163451697
 10
151.3892396690336
 20
1.160803289851699
 10
151.4009099138336
 20
1.193771718651703
 10
151.4118256178336
 20
1.2275879250517
 10
151.4219357394336
 20
1.262231205051698
 10
151.4311895154336
 20
1.297679443451698
 10
151.4395366146336
 20
1.333911238651701
 10
151.4469259938336
 20
1.370902581051701
 10
151.4533060098336
 20
1.408627149051696
 10
151.4586244082336
 20
1.447056299451702
 10
151.4607428770336
 20
1.465357902651696
  0
LWPOLYLINE
  5
AA5
330
1F
100
AcDbEntity
  8
0
  6
CONTINUOUS
 62
     7
100
AcDbPolyline
 90
       18
 70
     0
 43
0.0
 10
151.2740055522336
 20
0.9279580786516987
 10
151.2900271138336
 20
0.9539583266517013
 10
151.3056637202336
 20
0.9808170482517013
 10
151.3208695026336
 20
1.008535237051702
 10
151.3355971890336
 20
1.037112288251698
 10
151.3497981506336
 20
1.066545995451697
 10
151.3634297522336
 20
1.096846699451702
 10
151.3764536450336
 20
1.128025897851699
 10
151.3888227890336
 20
1.160073045051703
 10
151.4004894834336
 20
1.192975491451697
 10
151.4114053810336
 20
1.226718502651699
 10
151.4215217154336
 20
1.261286056251698
 10
151.4307896194336
 20
1.296662654651697
 10
151.4391584706336
 20
1.332827593851696
 10
151.4465768338336
 20
1.369757544251697
 10
151.4529925570336
 20
1.407426859451696
 10
151.4583527746336
 20
1.445807561851701
 10
151.4607285106336
 20
1.466252283451701
  0
LINE
  5
AA6
330
1F
100
AcDbEntity
  8
0
  6
CONTINUOUS
 62
     7
100
AcDbLine
 10
151.2576421938336
 20
0.9028118258516997
 30
0.0
 11
151.2743662306336
 21
0.9284062642516985
 31
0.0
  0
LINE
  5
AA7
330
1F
100
AcDbEntity
  8
0
  6
CONTINUOUS
 62
     7
100
AcDbLine
 10
151.2409773858336
 20
0.8785120146516973
 30
0.0
 11
151.2580028674336
 21
0.9032512146516964
 31
0.0
  0
LINE
  5
AAB
330
1F
100
AcDbEntity
  8
0
  6
CONTINUOUS
 62
     7
100
AcDbLine
 10
151.2240499074336
 20
0.8550501634517004
 30
0.0
 11
151.2413406114336
 21
0.8789462418517004
 31
0.0
  0
LINE
  5
AAC
330
1F
100
AcDbEntity
  8
0
  6
CONTINUOUS
 62
     7
100
AcDbLine
 10
151.2068970706336
 20
0.8324169826517007
 30
0.0
 11
151.2244182018336
 21
0.8554821234517007
 31
0.0
  0
LWPOLYLINE
  5
AAD
330
1F
100
AcDbEntity
  8
0
  6
CONTINUOUS
 62
     7
100
AcDbPolyline
 90
        3
 70
     0
 43
0.0
 10
151.8623308578336
 20
2.2507636754517
 10
151.9565237746336
 20
2.373511302651699
 10
152.0463985554336
 20
2.509606632251703
  0
LINE
  5
AAE
330
1F
100
AcDbEntity
  8
0
  6
CONTINUOUS
 62
     7
100
AcDbLine
 10
151.1895547634336
 20
0.8106023954517027
 30
0.0
 11
151.2072728194336
 21
0.8328488610517013
 31
0.0
  0
LINE
  5
AAF
330
1F
100
AcDbEntity
  8
0
  6
CONTINUOUS
 62
     7
100
AcDbLine
 10
151.1720574370336
 20
0.7895954866516988
 30
0.0
 11
151.1899401458336
 21
0.8110357122517015
 31
0.0
  0
LINE
  5
AB0
330
1F
100
AcDbEntity
  8
0
  6
CONTINUOUS
 62
     7
100
AcDbLine
 10
151.1544334034336
 20
0.7693792482517026
 30
0.0
 11
151.1724543058336
 21
0.7900310850517016
 31
0.0
  0
LINE
  5
AB1
330
1F
100
AcDbEntity
  8
0
  6
CONTINUOUS
 62
     7
100
AcDbLine
 10
151.1367020706336
 20
0.7499287538516981
 30
0.0
 11
151.1548427906336
 21
0.7698168578517013
 31
0.0
  0
LINE
  5
AB2
330
1F
100
AcDbEntity
  8
0
  6
CONTINUOUS
 62
     7
100
AcDbLine
 10
151.1188800306336
 20
0.7312190114516995
 30
0.0
 11
151.1371249074336
 21
0.750367958651701
 31
0.0
  0
LWPOLYLINE
  5
AB3
330
1F
100
AcDbEntity
  8
0
  6
CONTINUOUS
 62
     7
100
AcDbPolyline
 90
        4
 70
     0
 43
0.0
 10
151.6709185858336
 20
2.0457024162517
 10
151.7663346018336
 20
2.141565030651698
 10
151.8624131858336
 20
2.250863649851702
 10
151.9566749650336
 20
2.3737230786517
  0
LWPOLYLINE
  5
AB4
330
1F
100
AcDbEntity
  8
0
  6
CONTINUOUS
 62
     7
100
AcDbPolyline
 90
        3
 70
     0
 43
0.0
 10
151.5147505106336
 20
1.911499453051696
 10
151.5769888210336
 20
1.961555134651696
 10
151.6709779090336
 20
2.0457585810517
  0
LINE
  5
AB6
330
1F
100
AcDbEntity
  8
0
  6
CONTINUOUS
 62
     7
100
AcDbLine
 10
150.2949130498336
 20
1.357345405051702
 30
0.0
 11
150.3290428994336
 21
1.367440817851701
 31
0.0
  0
LWPOLYLINE
  5
AB7
330
1F
100
AcDbEntity
  8
0
  6
CONTINUOUS
 62
     7
100
AcDbPolyline
 90
       19
 70
     0
 43
0.0
 10
150.3290428994336
 20
1.367440817851701
 10
150.4093208274336
 20
1.391012824251703
 10
150.4536085522336
 20
1.404092917051698
 10
150.5003893474336
 20
1.418092072251702
 10
150.5494627090336
 20
1.433072465851701
 10
150.6007431010336
 20
1.449146785851702
 10
150.6543702914336
 20
1.466521134651699
 10
150.7108967234336
 20
1.485581353851699
 10
150.7707258994336
 20
1.506731448251699
 10
150.8343709810336
 20
1.530495478651701
 10
150.9020603458336
 20
1.557389459451698
 10
150.9735623362336
 20
1.587828779451697
 10
151.0487972818336
 20
1.622359000251698
 10
151.1281947810336
 20
1.661873171451702
 10
151.2122462066336
 20
1.707493773051702
 10
151.3006142690336
 20
1.760096987451703
 10
151.3918798162336
 20
1.819962763451698
 10
151.4842553106336
 20
1.886964027451696
 10
151.5771305842336
 20
1.961675299451698
  0
LWPOLYLINE
  5
AB8
330
1F
100
AcDbEntity
  8
0
  6
CONTINUOUS
 62
     7
100
AcDbPolyline
 90
        8
 70
     0
 43
0.0
 10
172.3890466194336
 20
20.3492158978517
 10
172.0909169026336
 20
20.3231167970517
 10
171.7473809970336
 20
20.2929264978517
 10
171.3574384946336
 20
20.25846191545169
 10
170.9205249666336
 20
20.2194894690517
 10
170.4365434082336
 20
20.17573588505169
 10
169.9059609602336
 20
20.12689119225169
 10
169.3437834050336
 20
20.0738833618517
  0
LINE
  5
AB9
330
1F
100
AcDbEntity
  8
CENTER
100
AcDbLine
 10
129.0843785714336
 20
16.87685306745169
 30
0.0
 11
120.0659195938336
 21
16.0878401442517
 31
0.0
  0
LINE
  5
ABA
330
1F
100
AcDbEntity
  8
0
  6
CONTINUOUS
 62
     7
100
AcDbLine
 10
172.8552675586336
 20
20.3898271954517
 30
0.0
 11
172.3890466194336
 21
20.3492158978517
 31
0.0
  0
LINE
  5
ABB
330
1F
100
AcDbEntity
  8
0
  6
CONTINUOUS
 62
     7
100
AcDbLine
 10
173.1621177570336
 20
20.4163432802517
 30
0.0
 11
172.8552675586336
 21
20.3898271954517
 31
0.0
  0
LINE
  5
ABC
330
1F
100
AcDbEntity
  8
0
  6
CONTINUOUS
 62
     7
100
AcDbLine
 10
173.3824696706336
 20
20.43515311865169
 30
0.0
 11
173.1621177570336
 21
20.4163432802517
 31
0.0
  0
LWPOLYLINE
  5
ABD
330
1F
100
AcDbEntity
  8
0
  6
CONTINUOUS
 62
     7
100
AcDbPolyline
 90
        6
 70
     0
 43
0.0
 10
170.2872164626336
 20
20.1308162818517
 10
169.9315519730336
 20
20.1076079010517
 10
169.2413448194336
 20
20.0680057186517
 10
168.4941494514336
 20
20.0335802146517
 10
167.6905764882336
 20
20.00677684825169
 10
166.8288317970336
 20
19.9892957634517
  0
LINE
  5
ABE
330
1F
100
AcDbEntity
  8
0
  6
CONTINUOUS
 62
     7
100
AcDbLine
 10
173.3824696706336
 20
20.43515311865169
 30
0.0
 11
173.5210225106336
 21
20.4410706226517
 31
0.0
  0
LINE
  5
ABF
330
1F
100
AcDbEntity
  8
0
  6
CONTINUOUS
 62
     7
100
AcDbLine
 10
166.8288317970336
 20
19.9892957634517
 30
0.0
 11
165.9141401346336
 21
19.98109096825169
 31
0.0
  0
LWPOLYLINE
  5
AC0
330
1F
100
AcDbEntity
  8
0
  6
CONTINUOUS
 62
     7
100
AcDbPolyline
 90
        3
 70
     0
 43
0.0
 10
165.9141726018336
 20
19.98109919065169
 10
165.6302024754336
 20
19.9800489010517
 10
165.3088181938336
 20
19.97939560025169
  0
LINE
  5
AC1
330
1F
100
AcDbEntity
  8
0
  6
CONTINUOUS
 62
     7
100
AcDbLine
 10
165.3088181938336
 20
19.97939560025169
 30
0.0
 11
164.9703843730336
 21
19.97916225785169
 31
0.0
  0
LINE
  5
AC2
330
1F
100
AcDbEntity
  8
0
  6
CONTINUOUS
 62
     7
100
AcDbLine
 10
119.5992994258336
 20
17.9774843874517
 30
0.0
 11
181.7715769794336
 21
17.9774843874517
 31
0.0
  0
LINE
  5
AC3
330
1F
100
AcDbEntity
  8
0
  6
CONTINUOUS
 62
     7
100
AcDbLine
 10
135.2649439874336
 20
19.9774843874517
 30
0.0
 11
181.3031472802336
 21
19.9774843874517
 31
0.0
  0
LWPOLYLINE
  5
AC4
330
1F
100
AcDbEntity
  8
0
  6
CONTINUOUS
 62
     7
100
AcDbPolyline
 90
        3
 70
     0
 43
0.0
 10
164.9704097586336
 20
19.9791622322517
 10
164.2719964642336
 20
19.9791528562517
 10
163.5524702706336
 20
19.97922398905169
  0
LINE
  5
AC5
330
1F
100
AcDbEntity
  8
0
  6
CONTINUOUS
 62
     7
100
AcDbLine
 10
163.5524702706336
 20
19.97922398905169
 30
0.0
 11
162.8330910258336
 21
19.97943474585169
 31
0.0
  0
LWPOLYLINE
  5
AC6
330
1F
100
AcDbEntity
  8
0
  6
CONTINUOUS
 62
     7
100
AcDbPolyline
 90
        3
 70
     0
 43
0.0
 10
162.8331005730336
 20
19.97943474585169
 10
162.1379032162336
 20
19.97983818265169
 10
161.4286187922336
 20
19.98046628985169
  0
LINE
  5
AC7
330
1F
100
AcDbEntity
  8
0
  6
CONTINUOUS
 62
     7
100
AcDbLine
 10
161.4286187922336
 20
19.98046628985169
 30
0.0
 11
160.7256288210336
 21
19.9812745218517
 31
0.0
  0
LWPOLYLINE
  5
AC8
330
1F
100
AcDbEntity
  8
0
  6
CONTINUOUS
 62
     7
100
AcDbPolyline
 90
       14
 70
     0
 43
0.0
 10
160.7256172626336
 20
19.98127453945169
 10
160.3843361394336
 20
19.98345669305169
 10
160.0004771666336
 20
19.9909316418517
 10
159.5918832242336
 20
20.0060559554517
 10
159.1639439298336
 20
20.0304273042517
 10
158.7202483986336
 20
20.0646808354517
 10
158.2631210354336
 20
20.1089791986517
 10
157.7939328802336
 20
20.1631834674517
 10
157.3134280338336
 20
20.2267144194517
 10
156.8220673986336
 20
20.2987348770517
 10
156.3200235858336
 20
20.3787245282517
 10
155.8070105154336
 20
20.4661152322517
 10
155.2825732642336
 20
20.56020996025169
 10
154.7570998514336
 20
20.65807695865169
  0
LWPOLYLINE
  5
AC9
330
1F
100
AcDbEntity
  8
0
  6
CONTINUOUS
 62
     7
100
AcDbPolyline
 90
       34
 70
     0
 43
0.0
 10
140.1617869106336
 20
22.2274843858517
 10
139.0040283186336
 20
22.2195005410517
 10
137.9224847570336
 20
22.19946740025169
 10
136.9108563282336
 20
22.1715144642517
 10
135.9497456322336
 20
22.13714986745169
 10
135.0197180194336
 20
22.0968255314517
 10
134.1021476130336
 20
22.05019072185169
 10
133.1864470738336
 20
21.99685745785169
 10
132.2736064882336
 20
21.93689469785169
 10
131.3654089394336
 20
21.8705167554517
 10
130.4677864514336
 20
21.7981132546517
 10
129.5926039154336
 20
21.7205367042517
 10
128.7515319586336
 20
21.6389004098517
 10
127.9521270178336
 20
21.55431268985169
 10
127.1963670018336
 20
21.4674412290517
 10
126.4855571890336
 20
21.37875377305169
 10
125.8196141762336
 20
21.28847855865169
 10
125.1960493026336
 20
21.19650507865169
 10
124.6122517442336
 20
21.10267418585169
 10
124.0660187058336
 20
21.0070336770517
 10
123.5545370802336
 20
20.9100213394517
 10
123.0751678578336
 20
20.8121144146517
 10
122.6262634866336
 20
20.71423069945169
 10
122.2076428018336
 20
20.6177655874517
 10
121.8224850322336
 20
20.52505486745169
 10
121.4737461298336
 20
20.4386626770517
 10
121.1627173474336
 20
20.3604742962517
 10
120.8889812290336
 20
20.2901403090517
 10
120.6586223426336
 20
20.2269275698517
 10
120.4726948002336
 20
20.1699954370517
 10
120.3265722562336
 20
20.1182721762517
 10
120.2106720962336
 20
20.0695044066517
 10
120.1074503618336
 20
20.0152896130517
 10
120.0014344114336
 20
19.9383707362517
  0
LINE
  5
ACA
330
1F
100
AcDbEntity
  8
0
  6
CONTINUOUS
 62
     7
100
AcDbLine
 10
173.5210225106336
 20
20.4410706226517
 30
0.0
 11
173.6594561922336
 21
20.4410706226517
 31
0.0
  0
LINE
  5
ACB
330
1F
100
AcDbEntity
  8
0
  6
CONTINUOUS
 62
     7
100
AcDbLine
 10
140.1617994258336
 20
22.2274843874517
 30
0.0
 11
140.3794569970336
 21
22.22719552825169
 31
0.0
  0
LWPOLYLINE
  5
ACC
330
1F
100
AcDbEntity
  8
0
  6
CONTINUOUS
 62
     7
100
AcDbPolyline
 90
       48
 70
     0
 43
0.0
 10
140.3794569970336
 20
22.22719552825169
 10
140.5930726098336
 20
22.2263636082517
 10
140.8028238658336
 20
22.2250161154517
 10
141.0089507522336
 20
22.2231777394517
 10
141.2116647170336
 20
22.2208704530517
 10
141.4111998050336
 20
22.2181113986517
 10
141.6077619474336
 20
22.2149144978517
 10
141.8015510434336
 20
22.2112913762517
 10
141.9927660450336
 20
22.2072513298517
 10
142.1816036338336
 20
22.20280135385169
 10
142.3682585538336
 20
22.1979461938517
 10
142.5529237074336
 20
22.1926883714517
 10
142.7357901186336
 20
22.18702823705169
 10
142.9170489282336
 20
22.1809639346517
 10
143.0968977378336
 20
22.17449089145169
 10
143.2755319410336
 20
22.1676018530517
 10
143.4531441906336
 20
22.16028727385169
 10
143.6299284146336
 20
22.15253518105169
 10
143.8060801650336
 20
22.1443311186517
 10
143.9817975394336
 20
22.1356580450517
 10
144.1572816514336
 20
22.1264962258517
 10
144.3327231010336
 20
22.1168242306517
 10
144.5083159122336
 20
22.1066196562517
 10
144.6842769106336
 20
22.0958565330517
 10
144.8608320946336
 20
22.0845052210517
 10
145.0382165042336
 20
22.0725321778517
 10
145.2166763074336
 20
22.0598995858517
 10
145.3964715954336
 20
22.04656483065169
 10
145.5778451666336
 20
22.03248285465169
 10
145.7609768962336
 20
22.01761418105169
 10
145.9461077042336
 20
22.00191394105169
 10
146.1335615170336
 20
21.9853260770517
 10
146.3236915138336
 20
21.9677868194517
 10
146.5168866770336
 20
21.94922340825169
 10
146.7135793458336
 20
21.92955254585169
 10
146.9142548466336
 20
21.9086784306517
 10
147.1194639138336
 20
21.8864901970517
 10
147.3298382146336
 20
21.86285868025169
 10
147.5461130194336
 20
21.83763186425169
 10
147.7691477906336
 20
21.8106299490517
 10
148.0001138610336
 20
21.7816182178517
 10
148.2405642002336
 20
21.75029845305169
 10
148.4923308866336
 20
21.71631766585169
 10
148.7576760146336
 20
21.6792351074517
 10
149.0396497554336
 20
21.6384621138517
 10
149.3425578866336
 20
21.5931771058517
 10
149.6728039538336
 20
21.54217192985169
 10
150.0408645682336
 20
21.4834984354517
  0
LINE
  5
ACD
330
1F
100
AcDbEntity
  8
0
  6
CONTINUOUS
 62
     7
100
AcDbLine
 10
140.9979349698336
 20
22.2232942322517
 30
0.0
 11
140.1796519938336
 21
22.2274818754517
 31
0.0
  0
LINE
  5
ACE
330
1F
100
AcDbEntity
  8
0
  6
CONTINUOUS
 62
     7
100
AcDbLine
 10
141.7810672450336
 20
22.21176751065169
 30
0.0
 11
140.9979349698336
 21
22.2232942322517
 31
0.0
  0
LWPOLYLINE
  5
ACF
330
1F
100
AcDbEntity
  8
0
  6
CONTINUOUS
 62
     7
100
AcDbPolyline
 90
       13
 70
     0
 43
0.0
 10
150.1489971266336
 20
21.4847582242517
 10
149.4105021858336
 20
21.5995267586517
 10
148.6749035810336
 20
21.7053288354517
 10
147.9514918178336
 20
21.79980712185169
 10
147.2399845490336
 20
21.88268767065169
 10
146.5409853266336
 20
21.95427758585169
 10
145.8555986610336
 20
22.0151442498517
 10
145.1853527106336
 20
22.06597207705169
 10
144.5270701362336
 20
22.1079698626517
 10
143.8701424642336
 20
22.14267524025169
 10
143.2026881586336
 20
22.1711970066517
 10
142.5111514706336
 20
22.1942051122517
 10
141.7810672450336
 20
22.21176751065169
  0
LWPOLYLINE
  5
AD0
330
1F
100
AcDbEntity
  8
0
  6
CONTINUOUS
 62
     7
100
AcDbPolyline
 90
       42
 70
     0
 43
0.0
 10
149.9561492914336
 20
21.4350494114517
 10
149.7367630498336
 20
21.4746403314517
 10
149.5168229346336
 20
21.5131427298517
 10
149.2962595154336
 20
21.5505726082517
 10
149.0749876466336
 20
21.58694651545169
 10
148.8536847618336
 20
21.6221598514517
 10
148.6330522722336
 20
21.65611827865169
 10
148.4131825282336
 20
21.6888302978517
 10
148.1938871058336
 20
21.7203451026517
 10
147.9752385170336
 20
21.7506717234517
 10
147.7568967058336
 20
21.77987380825169
 10
147.5389452514336
 20
21.8079574114517
 10
147.3216556898336
 20
21.83491173945169
 10
147.1051898274336
 20
21.86074284985169
 10
146.8896606786336
 20
21.8854639282517
 10
146.6750285074336
 20
21.90910532985169
 10
146.4612448642336
 20
21.93169616985169
 10
146.2482581026336
 20
21.9532639074517
 10
146.0359987794336
 20
21.97383589305169
 10
145.8244223634336
 20
21.9934349410517
 10
145.6134556370336
 20
22.0120845874517
 10
145.4029519010336
 20
22.02981228665169
 10
145.1930290402336
 20
22.0466236114517
 10
144.9842289826336
 20
22.0624997106517
 10
144.7767339970336
 20
22.07745554745169
 10
144.5705412722336
 20
22.09152015225169
 10
144.3654482194336
 20
22.10473394905169
 10
144.1615092290336
 20
22.11711821305169
 10
143.9588485954336
 20
22.1286907474517
 10
143.7575987826336
 20
22.1394722786517
 10
143.5579046274336
 20
22.14948460985169
 10
143.3597693890336
 20
22.15875701465169
 10
143.1630168370336
 20
22.1673254306517
 10
142.9675837970336
 20
22.17521834265169
 10
142.7734417746336
 20
22.1824614770517
 10
142.5805429810336
 20
22.1890800770517
 10
142.3887684594336
 20
22.19510014585169
 10
142.1981052018336
 20
22.2005428114517
 10
142.0085410930336
 20
22.2054284146517
 10
141.8200554114336
 20
22.2097767218517
 10
141.6326349698336
 20
22.2136064370517
 10
141.5226247122336
 20
22.2155714594517
  0
LWPOLYLINE
  5
AD1
330
1F
100
AcDbEntity
  8
0
  6
CONTINUOUS
 62
     7
100
AcDbPolyline
 90
        5
 70
     0
 43
0.0
 10
154.7570454018336
 20
20.65808306585169
 10
153.5310821970336
 20
20.8882671634517
 10
152.3454446722336
 20
21.1066096242517
 10
151.2131035138336
 20
21.30724518585169
 10
150.1490010114336
 20
21.48475760185169
  0
LINE
  5
AD3
330
1F
100
AcDbEntity
  8
0
  6
CONTINUOUS
 62
     7
100
AcDbLine
 10
169.0900049858336
 20
13.5354537794517
 30
0.0
 11
169.0908820978336
 21
13.5404968866517
 31
0.0
  0
LWPOLYLINE
  5
AD4
330
1F
100
AcDbEntity
  8
0
  6
CONTINUOUS
 62
     7
100
AcDbPolyline
 90
       10
 70
     0
 43
0.0
 10
169.0908824210336
 20
13.5404945282517
 10
169.2358316370336
 20
14.2965836322517
 10
169.3925005010336
 20
14.9531650690517
 10
169.5594225826336
 20
15.52663445145169
 10
169.7389960050336
 20
16.0437882242517
 10
169.9340817666336
 20
16.52333105145169
 10
170.1470956626336
 20
16.9765646130517
 10
170.3807687378336
 20
17.4118125778517
 10
170.6383257298336
 20
17.8356454370517
 10
170.7351823634336
 20
17.9774843874517
  0
LINE
  5
AD5
330
1F
100
AcDbEntity
  8
0
  6
CONTINUOUS
 62
     7
100
AcDbLine
 10
181.7715769794336
 20
17.9774843890517
 30
0.0
 11
181.5512554114336
 21
19.7581822306517
 31
0.0
  0
ARC
  5
AD9
330
1F
100
AcDbEntity
  8
0
  6
HIDDEN
 62
     8
100
AcDbCircle
 10
132.8378116642336
 20
38.2043833490517
 30
0.0
 40
22.92397517119999
100
AcDbArc
 50
248.6351457125
 51
254.4430021903
  0
ARC
  5
ADA
330
1F
100
AcDbEntity
  8
0
  6
HIDDEN
 62
     8
100
AcDbCircle
 10
126.9085023858336
 20
16.9062823810517
 30
0.0
 40
0.8159265599999999
100
AcDbArc
 50
254.4430021903
 51
290.0484829415
  0
ARC
  5
ADB
330
1F
100
AcDbEntity
  8
0
  6
HIDDEN
 62
     8
100
AcDbCircle
 10
127.2738623298336
 20
15.52411097945169
 30
0.0
 40
0.6216163200000001
100
AcDbArc
 50
12.38599826249999
 51
97.91955735080001
  0
ARC
  5
ADC
330
1F
100
AcDbEntity
  8
0
  6
HIDDEN
 62
     8
100
AcDbCircle
 10
127.2566847570336
 20
15.5203386450517
 30
0.0
 40
0.6392032336
100
AcDbArc
 50
345.6719578752999
 51
12.38599826249999
  0
ARC
  5
ADD
330
1F
100
AcDbEntity
  8
0
  6
HIDDEN
 62
     8
100
AcDbCircle
 10
127.4570695554336
 20
15.3020446594517
 30
0.0
 40
0.361646552
100
AcDbArc
 50
285.1137109540999
 51
335.0881041383
  0
ARC
  5
ADE
330
1F
100
AcDbEntity
  8
0
  6
HIDDEN
 62
     8
100
AcDbCircle
 10
126.8089225362336
 20
16.8535228690517
 30
0.0
 40
2.059033665599999
100
AcDbArc
 50
259.5354241809999
 51
276.7393339203999
  0
ARC
  5
ADF
330
1F
100
AcDbEntity
  8
0
  6
HIDDEN
 62
     8
100
AcDbCircle
 10
127.3084818754336
 20
15.4557831026517
 30
0.0
 40
0.6979359232000001
100
AcDbArc
 50
112.2612531317
 51
149.5845425571
  0
ARC
  5
AE0
330
1F
100
AcDbEntity
  8
0
  6
HIDDEN
 62
     8
100
AcDbCircle
 10
126.9512175026336
 20
15.48464255065169
 30
0.0
 40
0.3415661424
100
AcDbArc
 50
166.5892993918
 51
246.1339975576999
  0
ARC
  5
AE1
330
1F
100
AcDbEntity
  8
0
  6
HIDDEN
 62
     8
100
AcDbCircle
 10
127.4474879394336
 20
15.31036687705169
 30
0.0
 40
0.3722302848
100
AcDbArc
 50
247.1771175464
 51
286.0724741610999
  0
ARC
  5
B09
330
1F
100
AcDbEntity
  8
0
  6
CONTINUOUS
 62
     7
100
AcDbCircle
 10
136.5574650130336
 20
-0.5225156125482969
 30
0.0
 40
0.5
100
AcDbArc
 50
185.0
 51
270.0
  0
ARC
  5
B0B
330
1F
100
AcDbEntity
  8
0
  6
CONTINUOUS
 62
     7
100
AcDbCircle
 10
135.6809952626336
 20
-0.5439196189482943
 30
0.0
 40
0.3749999984000127
100
AcDbArc
 50
5.000002300598758
 51
71.77378975193541
  0
ARC
  5
B0E
330
1F
100
AcDbEntity
  8
0
  6
CONTINUOUS
 62
     7
100
AcDbCircle
 10
142.3046497362336
 20
-0.5225156125482969
 30
0.0
 40
0.5
100
AcDbArc
 50
270.0
 51
354.9999999999
  0
ARC
  5
B0F
330
1F
100
AcDbEntity
  8
0
  6
CONTINUOUS
 62
     7
100
AcDbCircle
 10
142.0959809106336
 20
-0.5225156125482969
 30
0.0
 40
0.5
100
AcDbArc
 50
185.0000000000999
 51
270.0
  0
ARC
  5
B10
330
1F
100
AcDbEntity
  8
0
  6
CONTINUOUS
 62
     7
100
AcDbCircle
 10
147.8431656338336
 20
-0.5225156125482969
 30
0.0
 40
0.5
100
AcDbArc
 50
270.0
 51
354.9999999999
  0
ARC
  5
B11
330
1F
100
AcDbEntity
  8
0
  6
CONTINUOUS
 62
     7
100
AcDbCircle
 10
147.6344968082336
 20
-0.5225156125482969
 30
0.0
 40
0.5
100
AcDbArc
 50
185.0000000000999
 51
270.0
  0
ARC
  5
B14
330
1F
100
AcDbEntity
  8
0
  6
CONTINUOUS
 62
     7
100
AcDbCircle
 10
148.7532163202336
 20
-0.0276558240500791
 30
0.0
 40
0.375
100
AcDbArc
 50
103.0707055187999
 51
174.4177457641999
  0
ARC
  5
B15
330
1F
100
AcDbEntity
  8
0
  6
CONTINUOUS
 62
     7
100
AcDbCircle
 10
132.4945026146336
 20
-0.7725156125482969
 30
0.0
 40
0.25
100
AcDbArc
 50
199.5725656786
 51
269.9999999987999
  0
ARC
  5
B16
330
1F
100
AcDbEntity
  8
0
  6
CONTINUOUS
 62
     7
100
AcDbCircle
 10
174.8700710338336
 20
20.1649843874517
 30
0.0
 40
0.1874999584
100
AcDbArc
 50
228.0928473104
 51
269.9999974651
  0
ARC
  5
B17
330
1F
100
AcDbEntity
  8
0
  6
CONTINUOUS
 62
     7
100
AcDbCircle
 10
173.6594565346336
 20
18.8160707330517
 30
0.0
 40
1.6249998912
100
AcDbArc
 50
48.0928604628
 51
90.00001188830001
  0
ARC
  5
B18
330
1F
100
AcDbEntity
  8
0
  6
CONTINUOUS
 62
     7
100
AcDbCircle
 10
133.6832460354336
 20
-0.2725156125482968
 30
0.0
 40
0.3125
100
AcDbArc
 50
270.0
 51
315.0
  0
ARC
  5
B19
330
1F
100
AcDbEntity
  8
0
  6
CONTINUOUS
 62
     7
100
AcDbCircle
 10
131.1403528162336
 20
-0.2725156125482968
 30
0.0
 40
0.3125
100
AcDbArc
 50
225.0
 51
270.0
  0
ARC
  5
B1A
330
1F
100
AcDbEntity
  8
0
  6
CONTINUOUS
 62
     7
100
AcDbCircle
 10
181.3031472802336
 20
19.7274843874517
 30
0.0
 40
0.25
100
AcDbArc
 50
7.053226971799999
 51
90.0
  0
ARC
  5
B1B
330
1F
100
AcDbEntity
  8
0
  6
CONTINUOUS
 62
     7
100
AcDbCircle
 10
130.4152885938336
 20
-0.2545581581482992
 30
0.0
 40
0.1874999984
100
AcDbArc
 50
45.00000019769999
 51
79.7220088839
  0
ARC
  5
B1C
330
1F
100
AcDbEntity
  8
0
  6
CONTINUOUS
 62
     7
100
AcDbCircle
 10
134.3934041490336
 20
-0.2694642669482974
 30
0.0
 40
0.1874999984
100
AcDbArc
 50
91.6985266056
 51
134.9999998039
  0
LINE
  5
B26
330
1F
100
AcDbEntity
  8
0
  6
CONTINUOUS
 62
     7
100
AcDbLine
 10
136.0545682715118
 20
-0.5112362005572848
 30
0.0
 11
136.0593676639877
 21
-0.5660934839221241
 31
0.0
  0
LINE
  5
B27
330
1F
100
AcDbEntity
  8
0
  6
CONTINUOUS
 62
     7
100
AcDbLine
 10
137.7213956226336
 20
0.0168059074516975
 30
0.0
 11
137.3166462181591
 21
-0.1877337181220469
 31
0.0
  0
ARC
  5
B28
330
1F
100
AcDbEntity
  8
0
  6
CONTINUOUS
 62
     7
100
AcDbCircle
 10
137.4339347634336
 20
-0.5439196189482943
 30
0.0
 40
0.3749999984000127
100
AcDbArc
 50
108.2262102480646
 51
174.9999976994012
  0
ARC
  5
B29
330
1F
100
AcDbEntity
  8
0
  6
CONTINUOUS
 62
     7
100
AcDbCircle
 10
136.555597466728
 20
-0.5177132251903132
 30
0.0
 40
0.5048058418952017
100
AcDbArc
 50
270.2119681599521
 51
0.7351664136557206
  0
LINE
  5
B47
330
1F
100
AcDbEntity
  8
0
  6
CONTINUOUS
 62
     7
100
AcDbLine
 10
134.3878465478666
 20
-0.0820466517962832
 30
0.0
 11
130.4487431431691
 21
-0.0700668506870606
 31
0.0
  0
ENDSEC
  0
SECTION
  2
OBJECTS
  0
DICTIONARY
  5
C
330
0
100
AcDbDictionary
  3
ACAD_GROUP
350
D
  3
ACAD_LAYOUT
350
1A
  3
ACAD_MLINESTYLE
350
17
  3
ACAD_PLOTSETTINGS
350
19
  3
ACAD_PLOTSTYLENAME
350
E
  3
ACDBHEADERROUNDTRIPXREC
350
D27
  0
DICTIONARY
  5
D4A
330
1F
100
AcDbDictionary
280
     1
  3
ACAD_LAYOUTSELFREF
360
D4B
  0
DICTIONARY
  5
D48
330
1B
100
AcDbDictionary
280
     1
  3
ACAD_LAYOUTSELFREF
360
D49
  0
DICTIONARY
  5
D
102
{ACAD_REACTORS
330
C
102
}
330
C
100
AcDbDictionary
  0
DICTIONARY
  5
1A
102
{ACAD_REACTORS
330
C
102
}
330
C
100
AcDbDictionary
  0
DICTIONARY
  5
17
102
{ACAD_REACTORS
330
C
102
}
330
C
100
AcDbDictionary
  3
STANDARD
350
18
  0
DICTIONARY
  5
19
102
{ACAD_REACTORS
330
C
102
}
330
C
100
AcDbDictionary
  0
ACDBDICTIONARYWDFLT
  5
E
102
{ACAD_REACTORS
330
C
102
}
330
C
100
AcDbDictionary
281
     1
  3
Normal
350
F
100
AcDbDictionaryWithDefault
340
F
  0
DICTIONARY
  5
D27
102
{ACAD_REACTORS
330
C
102
}
330
C
100
AcDbDictionary
  3
CEPSNTYPE
350
D31
  3
DIMSTYLEDATA
350
D35
  3
FINGERPRINTGUID
350
D32
  3
HYPERLINKBASE
350
D2A
  3
INSUNITS
350
D30
  3
LAYOUTDICT
350
D2C
  3
LWETCUNION
350
D2F
  3
PLOTSETDICT
350
D2D
  3
PLOTSTYLNAMDICT
350
D2E
  3
PSVPSCALE
350
D34
  3
PUCSBASE
350
D38
  3
PUCSORGBACK
350
D3E
  3
PUCSORGBOTTOM
350
D3A
  3
PUCSORGFRONT
350
D3D
  3
PUCSORGLEFT
350
D3B
  3
PUCSORGRIGHT
350
D3C
  3
PUCSORGTOP
350
D39
  3
PUCSORTHOREF
350
D36
  3
PUCSORTHOVIEW
350
D37
  3
STYLESHEET
350
D2B
  3
TSTACKALIGN
350
D28
  3
TSTACKSIZE
350
D29
  3
UCSBASE
350
D41
  3
UCSORGBACK
350
D47
  3
UCSORGBOTTOM
350
D43
  3
UCSORGFRONT
350
D46
  3
UCSORGLEFT
350
D44
  3
UCSORGRIGHT
350
D45
  3
UCSORGTOP
350
D42
  3
UCSORTHOREF
350
D3F
  3
UCSORTHOVIEW
350
D40
  3
VERSIONGUID
350
D33
  0
XRECORD
  5
D4B
102
{ACAD_REACTORS
330
D4A
102
}
330
D4A
100
AcDbXrecord
340
1F
  0
XRECORD
  5
D49
102
{ACAD_REACTORS
330
D48
102
}
330
D48
100
AcDbXrecord
340
1B
  0
MLINESTYLE
  5
18
102
{ACAD_REACTORS
330
17
102
}
330
17
100
AcDbMlineStyle
  2
STANDARD
 70
     0
  3

 62
   256
 51
90.0
 52
90.0
 71
     2
 49
0.5
 62
   256
  6
BYLAYER
 49
-0.5
 62
   256
  6
BYLAYER
  0
ACDBPLACEHOLDER
  5
F
102
{ACAD_REACTORS
330
E
102
}
330
0
100
AcDbPlaceHolder
280
     0
  0
XRECORD
  5
D31
102
{ACAD_REACTORS
330
D27
102
}
330
D27
100
AcDbXrecord
 90
        0
  0
XRECORD
  5
D35
102
{ACAD_REACTORS
330
D27
102
}
330
D27
100
AcDbXrecord
1000
DSTYLE
1002
{
1070
   278
 70
     0
1070
   342
340
21E
1070
   371
 70
     0
1070
   372
 70
     0
1002
}
  0
XRECORD
  5
D32
102
{ACAD_REACTORS
330
D27
102
}
330
D27
100
AcDbXrecord
  1

  0
XRECORD
  5
D2A
102
{ACAD_REACTORS
330
D27
102
}
330
D27
100
AcDbXrecord
  1

  0
XRECORD
  5
D30
102
{ACAD_REACTORS
330
D27
102
}
330
D27
100
AcDbXrecord
 90
        1
  0
XRECORD
  5
D2C
102
{ACAD_REACTORS
330
D27
102
}
330
D27
100
AcDbXrecord
340
1A
  0
XRECORD
  5
D2F
102
{ACAD_REACTORS
330
D27
102
}
330
D27
100
AcDbXrecord
 90
    10752
  0
XRECORD
  5
D2D
102
{ACAD_REACTORS
330
D27
102
}
330
D27
100
AcDbXrecord
340
19
  0
XRECORD
  5
D2E
102
{ACAD_REACTORS
330
D27
102
}
330
D27
100
AcDbXrecord
340
E
  0
XRECORD
  5
D34
102
{ACAD_REACTORS
330
D27
102
}
330
D27
100
AcDbXrecord
 40
0.0
  0
XRECORD
  5
D38
102
{ACAD_REACTORS
330
D27
102
}
330
D27
100
AcDbXrecord
340
0
  0
XRECORD
  5
D3E
102
{ACAD_REACTORS
330
D27
102
}
330
D27
100
AcDbXrecord
 10
0.0
 20
0.0
 30
0.0
  0
XRECORD
  5
D3A
102
{ACAD_REACTORS
330
D27
102
}
330
D27
100
AcDbXrecord
 10
0.0
 20
0.0
 30
0.0
  0
XRECORD
  5
D3D
102
{ACAD_REACTORS
330
D27
102
}
330
D27
100
AcDbXrecord
 10
0.0
 20
0.0
 30
0.0
  0
XRECORD
  5
D3B
102
{ACAD_REACTORS
330
D27
102
}
330
D27
100
AcDbXrecord
 10
0.0
 20
0.0
 30
0.0
  0
XRECORD
  5
D3C
102
{ACAD_REACTORS
330
D27
102
}
330
D27
100
AcDbXrecord
 10
0.0
 20
0.0
 30
0.0
  0
XRECORD
  5
D39
102
{ACAD_REACTORS
330
D27
102
}
330
D27
100
AcDbXrecord
 10
0.0
 20
0.0
 30
0.0
  0
XRECORD
  5
D36
102
{ACAD_REACTORS
330
D27
102
}
330
D27
100
AcDbXrecord
340
0
  0
XRECORD
  5
D37
102
{ACAD_REACTORS
330
D27
102
}
330
D27
100
AcDbXrecord
 70
     0
  0
XRECORD
  5
D2B
102
{ACAD_REACTORS
330
D27
102
}
330
D27
100
AcDbXrecord
  1

  0
XRECORD
  5
D28
102
{ACAD_REACTORS
330
D27
102
}
330
D27
100
AcDbXrecord
 90
        1
  0
XRECORD
  5
D29
102
{ACAD_REACTORS
330
D27
102
}
330
D27
100
AcDbXrecord
 90
       70
  0
XRECORD
  5
D41
102
{ACAD_REACTORS
330
D27
102
}
330
D27
100
AcDbXrecord
340
0
  0
XRECORD
  5
D47
102
{ACAD_REACTORS
330
D27
102
}
330
D27
100
AcDbXrecord
 10
0.0
 20
0.0
 30
0.0
  0
XRECORD
  5
D43
102
{ACAD_REACTORS
330
D27
102
}
330
D27
100
AcDbXrecord
 10
0.0
 20
0.0
 30
0.0
  0
XRECORD
  5
D46
102
{ACAD_REACTORS
330
D27
102
}
330
D27
100
AcDbXrecord
 10
0.0
 20
0.0
 30
0.0
  0
XRECORD
  5
D44
102
{ACAD_REACTORS
330
D27
102
}
330
D27
100
AcDbXrecord
 10
0.0
 20
0.0
 30
0.0
  0
XRECORD
  5
D45
102
{ACAD_REACTORS
330
D27
102
}
330
D27
100
AcDbXrecord
 10
0.0
 20
0.0
 30
0.0
  0
XRECORD
  5
D42
102
{ACAD_REACTORS
330
D27
102
}
330
D27
100
AcDbXrecord
 10
0.0
 20
0.0
 30
0.0
  0
XRECORD
  5
D3F
102
{ACAD_REACTORS
330
D27
102
}
330
D27
100
AcDbXrecord
340
0
  0
XRECORD
  5
D40
102
{ACAD_REACTORS
330
D27
102
}
330
D27
100
AcDbXrecord
 70
     0
  0
XRECORD
  5
D33
102
{ACAD_REACTORS
330
D27
102
}
330
D27
100
AcDbXrecord
  1
{C96D26A4-2C0B-4599-AAB5-A5BB875E2489}
  0
ENDSEC
  0
EOF
