  0
SECTION
  2
HEADER
  9
$ACADVER
  1
AC1014
  9
$ACADMAINTVER
 70
     9
  9
$DWGCODEPAGE
  3
ANSI_1252
  9
$INSBASE
 10
60.95593331863366
 20
73.62627733993702
 30
0.0
  9
$EXTMIN
 10
19.97155256023365
 20
53.18798206585171
 30
0.0
  9
$EXTMAX
 10
101.9403140770336
 20
115.3602596178517
 30
0.0
  9
$LIMMIN
 10
0.0
 20
0.0
  9
$LIMMAX
 10
17.0
 20
11.0
  9
$ORTHOMODE
 70
     1
  9
$REGENMODE
 70
     1
  9
$FILLMODE
 70
     1
  9
$QTEXTMODE
 70
     0
  9
$MIRRTEXT
 70
     1
  9
$DRAGMODE
 70
     2
  9
$LTSCALE
 40
0.9350000000000001
  9
$OSMODE
 70
  3071
  9
$ATTMODE
 70
     1
  9
$TEXTSIZE
 40
0.2
  9
$TRACEWID
 40
0.05
  9
$TEXTSTYLE
  7
STANDARD
  9
$CLAYER
  8
DEFPOINTS
  9
$CELTYPE
  6
BYLAYER
  9
$CECOLOR
 62
   256
  9
$CELTSCALE
 40
1.0
  9
$DELOBJ
 70
     1
  9
$DISPSILH
 70
     0
  9
$DIMSCALE
 40
1.0
  9
$DIMASZ
 40
0.1875
  9
$DIMEXO
 40
0.10625
  9
$DIMDLI
 40
0.646
  9
$DIMRND
 40
0.0
  9
$DIMDLE
 40
0.0
  9
$DIMEXE
 40
0.306
  9
$DIMTP
 40
0.0
  9
$DIMTM
 40
0.0
  9
$DIMTXT
 40
0.125
  9
$DIMCEN
 40
0.153
  9
$DIMTSZ
 40
0.0
  9
$DIMTOL
 70
     0
  9
$DIMLIM
 70
     0
  9
$DIMTIH
 70
     1
  9
$DIMTOH
 70
     1
  9
$DIMSE1
 70
     0
  9
$DIMSE2
 70
     0
  9
$DIMTAD
 70
     0
  9
$DIMZIN
 70
     0
  9
$DIMBLK
  1
_FILLED
  9
$DIMASO
 70
     1
  9
$DIMSHO
 70
     1
  9
$DIMPOST
  1

  9
$DIMAPOST
  1

  9
$DIMALT
 70
     0
  9
$DIMALTD
 70
     2
  9
$DIMALTF
 40
25.4
  9
$DIMLFAC
 40
1.0
  9
$DIMTOFL
 70
     0
  9
$DIMTVP
 40
0.0
  9
$DIMTIX
 70
     0
  9
$DIMSOXD
 70
     0
  9
$DIMSAH
 70
     0
  9
$DIMBLK1
  1

  9
$DIMBLK2
  1

  9
$DIMSTYLE
  2
STANDARD
  9
$DIMCLRD
 70
     0
  9
$DIMCLRE
 70
     0
  9
$DIMCLRT
 70
     0
  9
$DIMTFAC
 40
1.0
  9
$DIMGAP
 40
0.09
  9
$DIMJUST
 70
     0
  9
$DIMSD1
 70
     0
  9
$DIMSD2
 70
     0
  9
$DIMTOLJ
 70
     1
  9
$DIMTZIN
 70
     0
  9
$DIMALTZ
 70
     0
  9
$DIMALTTZ
 70
     0
  9
$DIMFIT
 70
     3
  9
$DIMUPT
 70
     0
  9
$DIMUNIT
 70
     2
  9
$DIMDEC
 70
     4
  9
$DIMTDEC
 70
     4
  9
$DIMALTU
 70
     2
  9
$DIMALTTD
 70
     2
  9
$DIMTXSTY
  7
STANDARD
  9
$DIMAUNIT
 70
     0
  9
$LUNITS
 70
     2
  9
$LUPREC
 70
     4
  9
$SKETCHINC
 40
0.1
  9
$FILLETRAD
 40
0.5
  9
$AUNITS
 70
     0
  9
$AUPREC
 70
     0
  9
$MENU
  1
acad
  9
$ELEVATION
 40
0.0
  9
$PELEVATION
 40
0.0
  9
$THICKNESS
 40
0.0
  9
$LIMCHECK
 70
     0
  9
$BLIPMODE
 70
     0
  9
$CHAMFERA
 40
0.0
  9
$CHAMFERB
 40
0.0
  9
$CHAMFERC
 40
0.0
  9
$CHAMFERD
 40
0.0
  9
$SKPOLY
 70
     0
  9
$TDCREATE
 40
2453887.512139004
  9
$TDUPDATE
 40
2453887.621503946
  9
$TDINDWG
 40
0.1057269213
  9
$TDUSRTIMER
 40
0.1057269213
  9
$USRTIMER
 70
     1
  9
$ANGBASE
 50
0.0
  9
$ANGDIR
 70
     0
  9
$PDMODE
 70
     3
  9
$PDSIZE
 40
0.03125
  9
$PLINEWID
 40
0.0
  9
$COORDS
 70
     1
  9
$SPLFRAME
 70
     0
  9
$SPLINETYPE
 70
     6
  9
$SPLINESEGS
 70
     8
  9
$ATTDIA
 70
     0
  9
$ATTREQ
 70
     1
  9
$HANDLING
 70
-16383
  9
$HANDSEED
  5
C22
  9
$SURFTAB1
 70
     6
  9
$SURFTAB2
 70
     6
  9
$SURFTYPE
 70
     6
  9
$SURFU
 70
     6
  9
$SURFV
 70
     6
  9
$UCSNAME
  2

  9
$UCSORG
 10
0.0
 20
0.0
 30
0.0
  9
$UCSXDIR
 10
1.0
 20
0.0
 30
0.0
  9
$UCSYDIR
 10
0.0
 20
1.0
 30
0.0
  9
$PUCSNAME
  2

  9
$PUCSORG
 10
0.0
 20
0.0
 30
0.0
  9
$PUCSXDIR
 10
1.0
 20
0.0
 30
0.0
  9
$PUCSYDIR
 10
0.0
 20
1.0
 30
0.0
  9
$USERI1
 70
     0
  9
$USERI2
 70
     0
  9
$USERI3
 70
     0
  9
$USERI4
 70
     0
  9
$USERI5
 70
     0
  9
$USERR1
 40
0.0
  9
$USERR2
 40
0.0
  9
$USERR3
 40
0.0
  9
$USERR4
 40
0.0
  9
$USERR5
 40
0.0
  9
$WORLDVIEW
 70
     1
  9
$SHADEDGE
 70
     3
  9
$SHADEDIF
 70
    70
  9
$TILEMODE
 70
     1
  9
$MAXACTVP
 70
    16
  9
$PINSBASE
 10
0.0
 20
0.0
 30
0.0
  9
$PLIMCHECK
 70
     0
  9
$PEXTMIN
 10
1.000000000000000E+20
 20
1.000000000000000E+20
 30
1.000000000000000E+20
  9
$PEXTMAX
 10
-1.000000000000000E+20
 20
-1.000000000000000E+20
 30
-1.000000000000000E+20
  9
$PLIMMIN
 10
0.0
 20
0.0
  9
$PLIMMAX
 10
12.0
 20
9.0
  9
$UNITMODE
 70
     0
  9
$VISRETAIN
 70
     0
  9
$PLINEGEN
 70
     1
  9
$PSLTSCALE
 70
     0
  9
$TREEDEPTH
 70
  3020
  9
$PICKSTYLE
 70
     1
  9
$CMLSTYLE
  2
STANDARD
  9
$CMLJUST
 70
     0
  9
$CMLSCALE
 40
1.0
  9
$PROXYGRAPHICS
 70
     0
  9
$MEASUREMENT
 70
     0
  0
ENDSEC
  0
SECTION
  2
CLASSES
  0
CLASS
  1
ACDBDICTIONARYWDFLT
  2
AcDbDictionaryWithDefault
  3
AutoCAD 2000
 90
        0
280
     0
281
     0
  0
CLASS
  1
ACDBPLACEHOLDER
  2
AcDbPlaceHolder
  3
AutoCAD 2000
 90
        0
280
     0
281
     0
  0
CLASS
  1
LAYOUT
  2
AcDbLayout
  3
AutoCAD 2000
 90
        0
280
     0
281
     0
  0
CLASS
  1
LWPOLYLINE
  2
AcDbPolyline
  3
AutoCAD 2000
 90
        0
280
     0
281
     1
  0
CLASS
  1
IMAGE
  2
AcDbRasterImage
  3
ISM
 90
      127
280
     0
281
     1
  0
CLASS
  1
OLE2FRAME
  2
AcDbOle2Frame
  3
AutoCAD 2000
 90
        0
280
     0
281
     1
  0
CLASS
  1
HATCH
  2
AcDbHatch
  3
AutoCAD 2000
 90
        0
280
     0
281
     1
  0
CLASS
  1
DICTIONARYVAR
  2
AcDbDictionaryVar
  3
AutoCAD 2000
 90
        0
280
     0
281
     0
  0
CLASS
  1
RASTERVARIABLES
  2
AcDbRasterVariables
  3
ISM
 90
        0
280
     0
281
     0
  0
CLASS
  1
IMAGEDEF
  2
AcDbRasterImageDef
  3
ISM
 90
        0
280
     0
281
     0
  0
CLASS
  1
IMAGEDEF_REACTOR
  2
AcDbRasterImageDefReactor
  3
ISM
 90
        1
280
     0
281
     0
  0
CLASS
  1
IDBUFFER
  2
AcDbIdBuffer
  3
AutoCAD 2000
 90
        0
280
     0
281
     0
  0
CLASS
  1
SPATIAL_FILTER
  2
AcDbSpatialFilter
  3
AutoCAD 2000
 90
        0
280
     0
281
     0
  0
CLASS
  1
XRECORD
  2
AcDbXrecord
  3
AutoCAD 2000
 90
        0
280
     0
281
     0
  0
CLASS
  1
SORTENTSTABLE
  2
AcDbSortentsTable
  3
AutoCAD 2000
 90
        0
280
     0
281
     0
  0
CLASS
  1
LAYER_INDEX
  2
AcDbLayerIndex
  3
AutoCAD 2000
 90
        0
280
     0
281
     0
  0
CLASS
  1
SPATIAL_INDEX
  2
AcDbSpatialIndex
  3
AutoCAD 2000
 90
        0
280
     0
281
     0
  0
CLASS
  1
OBJECT_PTR
  2
CAseDLPNTableRecord
  3
ASE-LPNTableRecord
 90
        1
280
     0
281
     0
  0
CLASS
  1
PLOTSETTINGS
  2
AcDbPlotSettings
  3
AutoCAD 2000
 90
        0
280
     0
281
     0
  0
CLASS
  1
VBA_PROJECT
  2
AcDbVbaProject
  3
acadvba
 90
        0
280
     0
281
     0
  0
CLASS
  1
WIPEOUT
  2
AcDbWipeout
  3
WipeOut|AutoCAD Express Tool|expresstools@autodesk.com
 90
      127
280
     0
281
     1
  0
CLASS
  1
WIPEOUTVARIABLES
  2
AcDbWipeoutVariables
  3
WipeOut|AutoCAD Express Tool|expresstools@autodesk.com
 90
        0
280
     0
281
     0
  0
CLASS
  1
RTEXT
  2
RText
  3
RText|AutoCAD Express Tool|expresstools@autodesk.com
 90
        0
280
     0
281
     1
  0
CLASS
  1
ARCALIGNEDTEXT
  2
AcDbArcAlignedText
  3
ATEXT|AutoCAD Express Tool|expresstools@autodesk.com
 90
        0
280
     0
281
     1
  0
CLASS
  1
LONG_TRANSACTION
  2
AcDbLongTransaction
  3
AutoCAD 2000
 90
        0
280
     0
281
     0
  0
CLASS
  1
LWPOLYLINE
  2
AcDbPolyline
  3
AutoCAD 2000
 90
        0
280
     0
281
     1
  0
CLASS
  1
HATCH
  2
AcDbHatch
  3
AutoCAD 2000
 90
        0
280
     0
281
     1
  0
CLASS
  1
XRECORD
  2
AcDbXrecord
  3
AutoCAD 2000
 90
        0
280
     0
281
     0
  0
ENDSEC
  0
SECTION
  2
TABLES
  0
TABLE
  2
VPORT
  5
8
330
0
100
AcDbSymbolTable
 70
     3
  0
VPORT
  5
BFC
330
8
100
AcDbSymbolTableRecord
100
AcDbViewportTableRecord
  2
*ACTIVE
 70
     0
 10
0.0
 20
0.0
 11
1.0
 21
1.0
 12
77.22989994804308
 22
75.23370037561746
 13
0.0
 23
0.0
 14
1.0
 24
1.0
 15
0.0
 25
0.0
 16
0.0
 26
0.0
 36
1.0
 17
0.0
 27
0.0
 37
0.0
 40
129.4914164360582
 41
1.781954887218045
 42
50.0
 43
0.0
 44
0.0
 50
0.0
 51
0.0
 71
     0
 72
   100
 73
     1
 74
     1
 75
     0
 76
     0
 77
     0
 78
     0
  0
ENDTAB
  0
TABLE
  2
LTYPE
  5
5
330
0
100
AcDbSymbolTable
 70
     5
  0
LTYPE
  5
14
330
5
100
AcDbSymbolTableRecord
100
AcDbLinetypeTableRecord
  2
BYBLOCK
 70
     0
  3

 72
    65
 73
     0
 40
0.0
  0
LTYPE
  5
15
330
5
100
AcDbSymbolTableRecord
100
AcDbLinetypeTableRecord
  2
BYLAYER
 70
     0
  3

 72
    65
 73
     0
 40
0.0
  0
LTYPE
  5
16
330
5
100
AcDbSymbolTableRecord
100
AcDbLinetypeTableRecord
  2
CONTINUOUS
 70
     0
  3
Solid line
 72
    65
 73
     0
 40
0.0
  0
LTYPE
  5
1F5
330
5
100
AcDbSymbolTableRecord
100
AcDbLinetypeTableRecord
  2
CENTER
 70
     0
  3
____ _ ____ _ ____ _ ____ _ ____ _ ____ _ ____
 72
    65
 73
     4
 40
0.6
 49
0.375
 74
     0
 49
-0.075
 74
     0
 49
0.075
 74
     0
 49
-0.075
 74
     0
  0
LTYPE
  5
1F6
330
5
100
AcDbSymbolTableRecord
100
AcDbLinetypeTableRecord
  2
HIDDEN
 70
     0
  3
- - - - - - - - - - - - - - - - - - - -
 72
    65
 73
     2
 40
0.2
 49
0.1
 74
     0
 49
-0.1
 74
     0
  0
LTYPE
  5
1F7
330
5
100
AcDbSymbolTableRecord
100
AcDbLinetypeTableRecord
  2
PHANTOM
 70
     0
  3
_____ _ _ _____ _ _ _____ _ _ _____
 72
    65
 73
     6
 40
0.8
 49
0.45
 74
     0
 49
-0.05
 74
     0
 49
0.1
 74
     0
 49
-0.05
 74
     0
 49
0.1
 74
     0
 49
-0.05
 74
     0
  0
LTYPE
  5
B44
330
5
100
AcDbSymbolTableRecord
100
AcDbLinetypeTableRecord
  2
CENTERX2
 70
     0
  3
Center (2x) ________  __  ________  __  _____
 72
    65
 73
     4
 40
4.0
 49
2.5
 74
     0
 49
-0.5
 74
     0
 49
0.5
 74
     0
 49
-0.5
 74
     0
  0
ENDTAB
  0
TABLE
  2
LAYER
  5
2
330
0
100
AcDbSymbolTable
 70
     3
  0
LAYER
  5
10
330
2
100
AcDbSymbolTableRecord
100
AcDbLayerTableRecord
  2
0
 70
     0
 62
     7
  6
CONTINUOUS
  0
LAYER
  5
B41
330
2
100
AcDbSymbolTableRecord
100
AcDbLayerTableRecord
  2
CENTER
 70
     0
 62
     1
  6
CENTERX2
  0
LAYER
  5
B49
330
2
100
AcDbSymbolTableRecord
100
AcDbLayerTableRecord
  2
DEFPOINTS
 70
     0
 62
     7
  6
CONTINUOUS
  0
ENDTAB
  0
TABLE
  2
STYLE
  5
3
330
0
100
AcDbSymbolTable
 70
     3
  0
STYLE
  5
11
330
3
100
AcDbSymbolTableRecord
100
AcDbTextStyleTableRecord
  2
STANDARD
 70
     0
 40
0.0
 41
0.8
 50
0.0
 71
     0
 42
0.2
  3
txt
  4

  0
STYLE
  5
219
330
3
100
AcDbSymbolTableRecord
100
AcDbTextStyleTableRecord
  2
TEXTSTYLE_1
 70
     0
 40
0.0
 41
0.8
 50
0.0
 71
     0
 42
0.2
  3
txt
  4

  0
STYLE
  5
B43
330
3
100
AcDbSymbolTableRecord
100
AcDbTextStyleTableRecord
  2

 70
     1
 40
0.0
 41
1.0
 50
0.0
 71
     0
 42
0.2
  3
ltypeshp.shx
  4

  0
ENDTAB
  0
TABLE
  2
VIEW
  5
6
330
0
100
AcDbSymbolTable
 70
     0
  0
ENDTAB
  0
TABLE
  2
UCS
  5
7
330
0
100
AcDbSymbolTable
 70
     0
  0
ENDTAB
  0
TABLE
  2
APPID
  5
9
330
0
100
AcDbSymbolTable
 70
     2
  0
APPID
  5
21D
330
9
100
AcDbSymbolTableRecord
100
AcDbRegAppTableRecord
  2
ACAD
 70
     0
  0
APPID
  5
B23
330
9
100
AcDbSymbolTableRecord
100
AcDbRegAppTableRecord
  2
DCO15
 70
     0
  0
ENDTAB
  0
TABLE
  2
DIMSTYLE
  5
A
330
0
100
AcDbSymbolTable
 70
     1
  0
DIMSTYLE
105
244
330
A
100
AcDbSymbolTableRecord
100
AcDbDimStyleTableRecord
  2
STANDARD
 70
     0
  3

  4

  5
_FILLED
  6
_FILLED
  7
_FILLED
 40
1.0
 41
0.1875
 42
0.0625
 43
0.38
 44
0.18
 45
0.0
 46
0.0
 47
0.00001
 48
0.00001
140
0.125
141
0.09
142
0.0
143
25.4
144
1.0
145
0.0
146
1.0
147
0.09
 71
     0
 72
     0
 73
     1
 74
     1
 75
     0
 76
     0
 77
     0
 78
     4
170
     0
171
     2
172
     0
173
     0
174
     0
175
     0
176
     0
177
     0
178
     0
270
     2
271
     5
272
     5
273
     2
274
     2
340
11
275
     0
280
     0
281
     0
282
     0
283
     1
284
     4
285
     0
286
     0
287
     3
288
     0
  0
ENDTAB
  0
TABLE
  2
BLOCK_RECORD
  5
1
330
0
100
AcDbSymbolTable
 70
     6
  0
BLOCK_RECORD
  5
1F
102
{ACAD_XDICTIONARY
360
C20
102
}
330
1
100
AcDbSymbolTableRecord
100
AcDbBlockTableRecord
  2
*MODEL_SPACE
  0
BLOCK_RECORD
  5
1B
102
{ACAD_XDICTIONARY
360
C1E
102
}
330
1
100
AcDbSymbolTableRecord
100
AcDbBlockTableRecord
  2
*PAPER_SPACE
  0
BLOCK_RECORD
  5
21E
330
1
100
AcDbSymbolTableRecord
100
AcDbBlockTableRecord
  2
_FILLED
  0
ENDTAB
  0
ENDSEC
  0
SECTION
  2
BLOCKS
  0
BLOCK
  5
20
330
1F
100
AcDbEntity
  8
0
100
AcDbBlockBegin
  2
*MODEL_SPACE
 70
     0
 10
0.0
 20
0.0
 30
0.0
  3
*MODEL_SPACE
  1

  0
ENDBLK
  5
21
330
1F
100
AcDbEntity
  8
0
100
AcDbBlockEnd
  0
BLOCK
  5
1C
330
1B
100
AcDbEntity
 67
     1
  8
0
100
AcDbBlockBegin
  2
*PAPER_SPACE
 70
     0
 10
0.0
 20
0.0
 30
0.0
  3
*PAPER_SPACE
  1

  0
ENDBLK
  5
1D
330
1B
100
AcDbEntity
 67
     1
  8
0
100
AcDbBlockEnd
  0
BLOCK
  5
469
330
21E
100
AcDbEntity
  8
0
100
AcDbBlockBegin
  2
_FILLED
 70
     0
 10
0.0
 20
0.0
 30
0.0
  3
_FILLED
  1

  0
SOLID
  5
46A
330
21E
100
AcDbEntity
  8
0
  6
BYBLOCK
 62
     0
100
AcDbTrace
 10
0.0
 20
0.0
 30
0.0
 11
-1.0
 21
0.1666666667
 31
0.0
 12
-1.0
 22
-0.1666666667
 32
0.0
 13
-1.0
 23
-0.1666666667
 33
0.0
  0
ENDBLK
  5
46B
330
21E
100
AcDbEntity
  8
0
  6
BYBLOCK
 62
     0
100
AcDbBlockEnd
  0
ENDSEC
  0
SECTION
  2
ENTITIES
  0
MTEXT
  5
4E9
330
1F
100
AcDbEntity
  8
0
  6
CONTINUOUS
 62
     2
100
AcDbMText
 10
15.84375
 20
2.3125
 30
0.0
 40
0.09375
 41
0.075
 71
     2
 72
     1
  1
 \P \P 
  7
TEXTSTYLE_1
1001
ACAD
1000
MTEXTBEGIN
1070
    73
1070
     1
1070
    44
1040
1.0
1070
    74
1070
     0
1000
MTEXTEND
  0
TEXT
  5
4EA
330
1F
100
AcDbEntity
  8
0
  6
CONTINUOUS
 62
     2
100
AcDbText
 10
14.24375
 20
2.1875
 30
0.0
 40
0.09375
  1
 
 41
0.8
  7
TEXTSTYLE_1
 72
     1
 11
14.28125
 21
2.1875
 31
0.0
100
AcDbText
  0
LWPOLYLINE
  5
7E8
330
1F
100
AcDbEntity
  8
0
  6
CONTINUOUS
 62
     7
100
AcDbPolyline
 90
       27
 70
     0
 43
0.0
 10
28.28829735383365
 20
66.16203212505169
 10
28.56190388023366
 20
65.4505277874517
 10
28.95274049463365
 20
64.5456874050517
 10
29.38145895383366
 20
63.6665587058517
 10
29.84644845143366
 20
62.8150282594517
 10
30.34670594903365
 20
61.99176741305169
 10
30.88011111223365
 20
61.19922382425169
 10
31.44441305783365
 20
60.4395166258517
 10
32.03822036823366
 20
59.71337118905171
 10
32.66032574103365
 20
59.0213260178517
 10
33.30817764503366
 20
58.3653338402517
 10
33.97958950903365
 20
57.7465756466517
 10
34.67389448503365
 20
57.16483191225171
 10
35.38928288983365
 20
56.6209232050517
 10
36.12320216343365
 20
56.1160832706517
 10
36.87372107703366
 20
55.6508302178517
 10
37.64069484503365
 20
55.2246733138517
 10
38.42191478423366
 20
54.8383524194517
 10
39.21493089463365
 20
54.49254373145169
 10
40.01827654103365
 20
54.18730470265169
 10
40.83203282743365
 20
53.9222370306517
 10
41.65388427223366
 20
53.6978193218517
 10
42.48149838903365
 20
53.5143275074517
 10
43.31398278743365
 20
53.37162540025169
 10
44.15129743703365
 20
53.2695590402517
 10
44.99107276183365
 20
53.20835276345171
 10
45.83093331863365
 20
53.18798206585171
  0
LINE
  5
7E9
330
1F
100
AcDbEntity
  8
0
  6
CONTINUOUS
 62
     7
100
AcDbLine
 10
28.21045964503365
 20
66.3790963810517
 30
0.0
 11
28.28829735383365
 21
66.16203212505169
 31
0.0
  0
LINE
  5
7EA
330
1F
100
AcDbEntity
  8
0
  6
CONTINUOUS
 62
     7
100
AcDbLine
 10
28.19570043223365
 20
66.4206228818517
 30
0.0
 11
28.21054041463365
 21
66.37881896185169
 31
0.0
  0
LINE
  5
7EB
330
1F
100
AcDbEntity
  8
0
  6
CONTINUOUS
 62
     7
100
AcDbLine
 10
28.19571822903366
 20
66.42062923865172
 30
0.0
 11
28.21047545623366
 21
66.37905156985169
 31
0.0
  0
LWPOLYLINE
  5
7EC
330
1F
100
AcDbEntity
  8
0
  6
CONTINUOUS
 62
     7
100
AcDbPolyline
 90
        7
 70
     0
 43
0.0
 10
26.88314018103365
 20
73.75048231225171
 10
26.89875869303365
 20
72.87977344505171
 10
26.94456765463366
 20
72.03227348825169
 10
27.01942298103365
 20
71.2072343602517
 10
27.12222625303366
 20
70.4036963490517
 10
27.25215266103365
 20
69.62001651705171
 10
27.40876922903366
 20
68.85362662265169
  0
LWPOLYLINE
  5
7ED
330
1F
100
AcDbEntity
  8
0
  6
CONTINUOUS
 62
     7
100
AcDbPolyline
 90
      113
 70
     0
 43
0.0
 10
28.68449880823365
 20
73.75048206585171
 10
28.68599166583365
 20
73.55579289465168
 10
28.69049494903365
 20
73.3595646098517
 10
28.69805741943365
 20
73.1616135090517
 10
28.70872898423366
 20
72.96192614585169
 10
28.72255200183365
 20
72.76061017945171
 10
28.73957065783365
 20
72.5576915250517
 10
28.75984125783365
 20
72.35307709465169
 10
28.78342192983366
 20
72.14671474425171
 10
28.81032201303365
 20
71.93894328345169
 10
28.84053439383365
 20
71.73013730425171
 10
28.87408068823365
 20
71.52040093785169
 10
28.91098836503365
 20
71.30976871225169
 10
28.95127933783365
 20
71.09830580665169
 10
28.99497443063365
 20
70.88607652825169
 10
29.04212376983366
 20
70.6730133042517
 10
29.09273161783366
 20
70.4592668674517
 10
29.14678909623365
 20
70.2450167138517
 10
29.20428768183365
 20
70.03042027225169
 10
29.26521610583366
 20
69.8156306930517
 10
29.32956787383365
 20
69.60075827545171
 10
29.39733434583365
 20
69.3859090242517
 10
29.46856445303366
 20
69.17100991865169
 10
29.54318980663365
 20
68.9563415666517
 10
29.62113349783365
 20
68.74216886905171
 10
29.70236200343365
 20
68.5286101506517
 10
29.78683567863365
 20
68.3157880450517
 10
29.87454865143365
 20
68.10374470105171
 10
29.96553676343365
 20
67.89243294905171
 10
30.05973488983365
 20
67.6820419762517
 10
30.15711650423365
 20
67.47265988505171
 10
30.25770432823366
 20
67.26426971225169
 10
30.36151827543365
 20
67.05687014905169
 10
30.46858057783365
 20
66.85046354265171
 10
30.57891903703366
 20
66.64504609305168
 10
30.69260610103365
 20
66.4405286562517
 10
30.80952529783365
 20
66.23716065305169
 10
30.92966216503365
 20
66.0349969298517
 10
31.05300911223365
 20
65.83408024185169
 10
31.17956972823366
 20
65.6344365010517
 10
31.30935677143365
 20
65.43608002425171
 10
31.44242976983365
 20
65.23895484825169
 10
31.57883560183365
 20
65.04303276345169
 10
31.71843293463365
 20
64.84855542105171
 10
31.86118006583365
 20
64.6556106802517
 10
32.00703261623365
 20
64.46428626105171
 10
32.15594210423365
 20
64.27467135545168
 10
32.30789154263365
 20
64.0868128578517
 10
32.46302361943365
 20
63.90056346745169
 10
32.62131442583365
 20
63.71598427705169
 10
32.78271884983365
 20
63.5331614770517
 10
32.94721707223365
 20
63.3521489090517
 10
33.11479014743365
 20
63.1729982610517
 10
33.28535734583365
 20
62.99582348665169
 10
33.45899017463365
 20
62.8205789922517
 10
33.63577532503365
 20
62.6472109522517
 10
33.81573412983366
 20
62.4757319826517
 10
33.99887677943365
 20
62.30616883225169
 10
34.18515270583366
 20
62.13860480185171
 10
34.37449563383365
 20
61.9731331778517
 10
34.56689286103365
 20
61.8097975954517
 10
34.76235482103365
 20
61.64862332825169
 10
34.96080845783366
 20
61.48969914745169
 10
35.16218656343365
 20
61.33310580505169
 10
35.36634487383365
 20
61.17898138745171
 10
35.57317958103365
 20
61.0274228882517
 10
35.78281458423365
 20
60.8783598738517
 10
35.99521577783365
 20
60.7318408498517
 10
36.21030374583365
 20
60.5879415362517
 10
36.42794053143365
 20
60.4467669186517
 10
36.64792524343365
 20
60.3084527202517
 10
36.86984219223365
 20
60.17324969625169
 10
37.09355678743365
 20
60.0412158418517
 10
37.31898550103366
 20
59.9123733426517
 10
37.54604453943366
 20
59.7867414818517
 10
37.77467639543365
 20
59.6643272562517
 10
38.00488660823365
 20
59.5451127618517
 10
38.23666164343365
 20
59.4290895058517
 10
38.46992970263365
 20
59.3162770482517
 10
38.70462726583365
 20
59.2066880626517
 10
38.94069206903365
 20
59.10033236825171
 10
39.17809321303365
 20
58.9972052290517
 10
39.41723840503366
 20
58.8971345858517
 10
39.65825106423365
 20
58.8000849218517
 10
39.90112488983365
 20
58.7060738306517
 10
40.14584972343365
 20
58.6151207026517
 10
40.39240878103366
 20
58.52724759705171
 10
40.64073208503365
 20
58.44249443385169
 10
40.89089992343366
 20
58.3608500706517
 10
41.14298247223366
 20
58.2823077314517
 10
41.39695993143365
 20
58.20688707065169
 10
41.65281099223366
 20
58.1346077874517
 10
41.91049855383365
 20
58.0654938322517
 10
42.16996890583365
 20
57.9995727074517
 10
42.43118951223364
 20
57.93686555545169
 10
42.69413683223366
 20
57.87738706265169
 10
42.95876137303365
 20
57.82115285305169
 10
43.22500719223365
 20
57.76817998745169
 10
43.49278264183364
 20
57.7184900178517
 10
43.76200358263366
 20
57.6720979858517
 10
44.03262328023365
 20
57.6290111826517
 10
44.30459803383365
 20
57.5892365906517
 10
44.57794044663365
 20
57.5527711810517
 10
44.85262733303366
 20
57.5196174770517
 10
45.12853007383365
 20
57.48978980505169
 10
45.40554824663365
 20
57.4632956818517
 10
45.68360066423365
 20
57.44013827225169
 10
45.96260880023366
 20
57.42031938425171
 10
46.24245217623366
 20
57.4038438402517
 10
46.52298677623366
 20
57.3907142514517
 10
46.80413148983365
 20
57.38092648025169
 10
47.08580698583364
 20
57.3744751042517
 10
47.36793344663364
 20
57.3713515042517
  0
LWPOLYLINE
  5
7EE
330
1F
100
AcDbEntity
  8
0
  6
CONTINUOUS
 62
     7
100
AcDbPolyline
 90
       49
 70
     0
 43
0.0
 10
28.59948237783365
 20
73.75048206585171
 10
28.60101601303366
 20
73.9681396354517
 10
28.60549615383365
 20
74.1817552498517
 10
28.61282244663366
 20
74.39150650585171
 10
28.62291966903365
 20
74.59763339225171
 10
28.63571827863365
 20
74.80034735545169
 10
28.65114729143366
 20
74.99988244505169
 10
28.66913818263365
 20
75.19644458585171
 10
28.68963133783365
 20
75.39023368345169
 10
28.71257638103365
 20
75.5814486834517
 10
28.73793199223365
 20
75.77028627225169
 10
28.76566583223366
 20
75.95694119225169
 10
28.79575444983366
 20
76.1416063458517
 10
28.82818317143366
 20
76.32447275705169
 10
28.86294626743366
 20
76.50573156665169
 10
28.90004529623365
 20
76.68558037785169
 10
28.93948737783365
 20
76.86421457945169
 10
28.98128789623365
 20
77.0418268290517
 10
29.02547136183366
 20
77.21861105305169
 10
29.07207152503366
 20
77.3947628050517
 10
29.12113164503365
 20
77.57048017785169
 10
29.17270472023365
 20
77.74596428985171
 10
29.22685250903365
 20
77.9214057394517
 10
29.28365069143366
 20
78.0969985522517
 10
29.34318975223365
 20
78.27295955065171
 10
29.40557269303365
 20
78.4495147330517
 10
29.47091545943365
 20
78.62689914265169
 10
29.53934819543365
 20
78.80535894585171
 10
29.61101688983365
 20
78.98515423545169
 10
29.68607788343365
 20
79.16652780505168
 10
29.76468817943365
 20
79.34965953625169
 10
29.84703604663365
 20
79.53479034425169
 10
29.93335888823365
 20
79.7222441554517
 10
30.02392314743365
 20
79.91237415385168
 10
30.11902938903365
 20
80.10556931545171
 10
30.21901837143365
 20
80.30226198425168
 10
30.32427875543365
 20
80.50293748665168
 10
30.43525700983365
 20
80.70814655225168
 10
30.55246993783365
 20
80.91852085465168
 10
30.67652236023365
 20
81.13479565785169
 10
30.80812514263365
 20
81.35783042905169
 10
30.94822778583365
 20
81.58879649945168
 10
31.09810556663365
 20
81.8292468402517
 10
31.25927888823365
 20
82.0810135250517
 10
31.43364289463365
 20
82.3463586530517
 10
31.62373779863365
 20
82.62833239545171
 10
31.83312430263365
 20
82.93124052665168
 10
32.06706249783365
 20
83.26148659225172
 10
32.33408173943365
 20
83.6295472082517
  0
LWPOLYLINE
  5
7EF
330
1F
100
AcDbEntity
  8
0
  6
CONTINUOUS
 62
     7
100
AcDbPolyline
 90
      115
 70
     0
 43
0.0
 10
76.32892224023365
 20
53.9376374386517
 10
76.69209707863365
 20
53.95185671065171
 10
77.01674247543365
 20
53.9686891682517
 10
77.32060552823364
 20
53.9883456354517
 10
77.60872547863366
 20
54.01080681625169
 10
77.88112323863365
 20
54.0357570610517
 10
78.13854829943366
 20
54.0629117538517
 10
78.38103605623365
 20
54.0919083890517
 10
78.60872086583365
 20
54.1224290626517
 10
78.82370668983364
 20
54.15443863705171
 10
79.02826886903366
 20
54.1880061138517
 10
79.22469728983364
 20
54.22329905625169
 10
79.41477636023364
 20
54.26047339705171
 10
79.59813490743366
 20
54.2992987058517
 10
79.77503532343366
 20
54.3396554546517
 10
79.94812587223364
 20
54.38203310425169
 10
80.11945096663366
 20
54.4269014082517
 10
80.29077410743367
 20
54.4747060994517
 10
80.46268916503365
 20
54.5256457426517
 10
80.63490942103365
 20
54.5796750178517
 10
80.80654230903366
 20
54.6365233522517
 10
80.98383326263364
 20
54.69837260025169
 10
81.16937023703366
 20
54.7663512466517
 10
81.36429325143366
 20
54.84115212025169
 10
81.56964143543365
 20
54.92345922905169
 10
81.78396869303364
 20
55.0129384178517
 10
82.00243619063366
 20
55.1078015010517
 10
82.22309813143366
 20
55.20735626905169
 10
82.44596174423364
 20
55.3117050210517
 10
82.67018723223364
 20
55.4205467714517
 10
82.89450803383365
 20
55.5333753714517
 10
83.11772436823366
 20
55.6496518418517
 10
83.33881785943365
 20
55.7688537042517
 10
83.55867933943367
 20
55.8914635970517
 10
83.77729667223366
 20
56.0174982482517
 10
83.99441847063366
 20
56.1468311490517
 10
84.20965284983365
 20
56.27923706905169
 10
84.42246596983366
 20
56.41438553145171
 10
84.63282034103366
 20
56.5522386210517
 10
84.84068653143365
 20
56.6927622066517
 10
85.04602915543364
 20
56.8359166418517
 10
85.24884417143367
 20
56.9816833810517
 10
85.44904917463364
 20
57.1299862402517
 10
85.64639494583365
 20
57.28061456505169
 10
85.84062503383364
 20
57.4333421362517
 10
86.03170460663367
 20
57.5881033858517
 10
86.21965156023364
 20
57.74487302585169
 10
86.40401466263364
 20
57.9032222210517
 10
86.58445037463366
 20
58.06278147705169
 10
86.76089766103364
 20
58.22340624985169
 10
86.93378811223366
 20
58.3854092898517
 10
87.10455502903366
 20
58.5500871554517
 10
87.27383125303365
 20
58.71805042905169
 10
87.44174881303365
 20
58.8894640338517
 10
87.60833976823366
 20
59.06440288025169
 10
87.77384368823366
 20
59.2431594818517
 10
87.93851498583364
 20
59.42606647065169
 10
88.10227307863366
 20
59.61310506745171
 10
88.26503927543365
 20
59.8042537666517
 10
88.42676828983366
 20
59.9995268978517
 10
88.58740746903364
 20
60.1989358754517
 10
88.74686686903364
 20
60.4024407426517
 10
88.90469965463365
 20
60.6095319186517
 10
89.06075847383366
 20
60.8200609458517
 10
89.21500140983367
 20
61.0340114434517
 10
89.36738395383367
 20
61.2513627522517
 10
89.51785725303366
 20
61.47208658905171
 10
89.66636936503366
 20
61.6961448226517
 10
89.81277146903366
 20
61.92333868505169
 10
89.95692076503365
 20
62.15347036825169
 10
90.09873707383366
 20
62.3864297074517
 10
90.23815091543367
 20
62.6221145122517
 10
90.37512505143366
 20
62.8604704482517
 10
90.50961440023366
 20
63.10142487545171
 10
90.64157639223365
 20
63.34490963545171
 10
90.77095491063365
 20
63.59083071545169
 10
90.89767108503366
 20
63.8390347746517
 10
91.02169651543366
 20
64.0894578594517
 10
91.14300233303366
 20
64.34203200345169
 10
91.26156263703364
 20
64.59669234425169
 10
91.37734351863366
 20
64.8533530706517
 10
91.49017058263366
 20
65.11160623065169
 10
91.59981920183367
 20
65.37090565625169
 10
91.70615332983365
 20
65.63086370105171
 10
91.80901583383365
 20
65.8909970546517
 10
91.90736001303367
 20
66.1485053650517
 10
92.00104501303366
 20
66.4027689026517
 10
92.09024217943365
 20
66.65397107705169
 10
92.17558666423366
 20
66.90366344825171
 10
92.25756490583364
 20
67.1530949682517
 10
92.33619134423367
 20
67.40219844825171
 10
92.41148316183364
 20
67.6509149346517
 10
92.48346260343366
 20
67.89920244185172
 10
92.55214117943365
 20
68.14698148505169
 10
92.61764168503365
 20
68.3945989666517
 10
92.68031011703365
 20
68.64334208345169
 10
92.74028239703367
 20
68.89378475065169
 10
92.79761865143365
 20
69.14628548665169
 10
92.85232090903367
 20
69.40102968825169
 10
92.90429120503365
 20
69.65776194265169
 10
92.95350073463366
 20
69.91655974425171
 10
92.99992350743366
 20
70.17756741945169
 10
93.04362089303365
 20
70.4415285938517
 10
93.08465152663364
 20
70.7094780370517
 10
93.12288182103364
 20
70.98147347865171
 10
93.15816469943365
 20
71.2575639570517
 10
93.19036096183365
 20
71.53798414745171
 10
93.21922217463365
 20
71.82205705945171
 10
93.24439000183366
 20
72.10738443065171
 10
93.26555638263366
 20
72.39058488185171
 10
93.28262425463364
 20
72.66936813625171
 10
93.29573031383365
 20
72.9441846834517
 10
93.30500006263367
 20
73.21585642425171
 10
93.31051081463366
 20
73.4845718210517
 10
93.31233419703366
 20
73.75048206585171
  0
LWPOLYLINE
  5
7F0
330
1F
100
AcDbEntity
  8
0
  6
CONTINUOUS
 62
     7
100
AcDbPolyline
 90
       27
 70
     0
 43
0.0
 10
76.08093331863367
 20
53.18798206585171
 10
76.92079387543365
 20
53.20835276345171
 10
77.76056920023364
 20
53.2695590402517
 10
78.59788384983366
 20
53.37162540025169
 10
79.43036824823366
 20
53.5143275074517
 10
80.25798236503366
 20
53.6978193218517
 10
81.07983380983364
 20
53.9222370306517
 10
81.89359009623364
 20
54.18730470265169
 10
82.69693574263365
 20
54.49254373145169
 10
83.48995185303365
 20
54.8383524194517
 10
84.27117179223364
 20
55.2246733138517
 10
85.03814556023366
 20
55.6508302178517
 10
85.78866447383365
 20
56.1160832706517
 10
86.52258374743366
 20
56.6209232050517
 10
87.23797215223365
 20
57.16483191225171
 10
87.93227712823366
 20
57.7465756466517
 10
88.60368899223365
 20
58.3653338402517
 10
89.25154089623365
 20
59.0213260178517
 10
89.87364626903366
 20
59.71337118905171
 10
90.46745357943365
 20
60.4395166258517
 10
91.03175552503364
 20
61.19922382425169
 10
91.56516068823364
 20
61.99176741305169
 10
92.06541818583366
 20
62.8150282594517
 10
92.53040768343366
 20
63.6665587058517
 10
92.95912614263366
 20
64.5456874050517
 10
93.34996275703366
 20
65.4505277874517
 10
93.62356928823365
 20
66.16203212345169
  0
LWPOLYLINE
  5
7F1
330
1F
100
AcDbEntity
  8
0
  6
CONTINUOUS
 62
     7
100
AcDbPolyline
 90
        4
 70
     0
 43
0.0
 10
74.54393330423366
 20
53.89868501465169
 10
75.20792370423365
 20
53.90915310585169
 10
75.79833344343365
 20
53.9221371570517
 10
76.32892224023365
 20
53.9376374386517
  0
LINE
  5
7F3
330
1F
100
AcDbEntity
  8
0
  6
CONTINUOUS
 62
     7
100
AcDbLine
 10
45.83093331863365
 20
53.18798206585171
 30
0.0
 11
76.08093331863367
 21
53.18798206585171
 31
0.0
  0
LINE
  5
7F4
330
1F
100
AcDbEntity
  8
0
  6
CONTINUOUS
 62
     7
100
AcDbLine
 10
74.54393330423366
 20
53.89868501465169
 30
0.0
 11
47.36793333303365
 21
53.89868501465169
 31
0.0
  0
LWPOLYLINE
  5
7F6
330
1F
100
AcDbEntity
  8
0
  6
CONTINUOUS
 62
     7
100
AcDbPolyline
 90
        4
 70
     0
 43
0.0
 10
47.36793333303365
 20
53.89868501465169
 10
46.70394293303365
 20
53.90915310585169
 10
46.11353319383365
 20
53.9221371570517
 10
45.58294439703365
 20
53.9376374386517
  0
LWPOLYLINE
  5
7F7
330
1F
100
AcDbEntity
  8
0
  6
CONTINUOUS
 62
     7
100
AcDbPolyline
 90
      115
 70
     0
 43
0.0
 10
45.58294439703365
 20
53.9376374386517
 10
45.21976955863364
 20
53.95185671065171
 10
44.89512416183365
 20
53.9686891682517
 10
44.59126110903365
 20
53.9883456354517
 10
44.30314115863366
 20
54.01080681625169
 10
44.03074339863365
 20
54.0357570610517
 10
43.77331833783364
 20
54.0629117538517
 10
43.53083058103366
 20
54.0919083890517
 10
43.30314577143365
 20
54.1224290626517
 10
43.08815994743365
 20
54.15443863705171
 10
42.88359776823365
 20
54.1880061138517
 10
42.68716934743365
 20
54.22329905625169
 10
42.49709027703366
 20
54.26047339705171
 10
42.31373172983365
 20
54.2992987058517
 10
42.13683131383366
 20
54.3396554546517
 10
41.96374076503365
 20
54.38203310425169
 10
41.79241567063365
 20
54.4269014082517
 10
41.62109252983365
 20
54.4747060994517
 10
41.44917747223365
 20
54.5256457426517
 10
41.27695721623365
 20
54.5796750178517
 10
41.10532432823365
 20
54.6365233522517
 10
40.92803337463365
 20
54.69837260025169
 10
40.74249640023365
 20
54.7663512466517
 10
40.54757338583366
 20
54.84115212025169
 10
40.34222520183365
 20
54.92345922905169
 10
40.12789794423365
 20
55.0129384178517
 10
39.90943044663366
 20
55.1078015010517
 10
39.68876850583365
 20
55.20735626905169
 10
39.46590489303365
 20
55.3117050210517
 10
39.24167940503366
 20
55.4205467714517
 10
39.01735860343365
 20
55.5333753714517
 10
38.79414226903366
 20
55.6496518418517
 10
38.57304877783365
 20
55.7688537042517
 10
38.35318729783365
 20
55.8914635970517
 10
38.13456996503365
 20
56.0174982482517
 10
37.91744816663365
 20
56.1468311490517
 10
37.70221378743365
 20
56.27923706905169
 10
37.48940066743365
 20
56.41438553145171
 10
37.27904629623365
 20
56.5522386210517
 10
37.07118010583365
 20
56.6927622066517
 10
36.86583748183366
 20
56.8359166418517
 10
36.66302246583365
 20
56.9816833810517
 10
36.46281746263365
 20
57.1299862402517
 10
36.26547169143365
 20
57.28061456505169
 10
36.07124160343365
 20
57.4333421362517
 10
35.88016203063365
 20
57.5881033858517
 10
35.69221507703366
 20
57.74487302585169
 10
35.50785197463365
 20
57.9032222210517
 10
35.32741626263365
 20
58.06278147705169
 10
35.15096897623365
 20
58.22340624985169
 10
34.97807852503366
 20
58.3854092898517
 10
34.80731160823365
 20
58.5500871554517
 10
34.63803538423365
 20
58.71805042905169
 10
34.47011782423365
 20
58.8894640338517
 10
34.30352686903365
 20
59.06440288025169
 10
34.13802294903365
 20
59.2431594818517
 10
33.97335165143365
 20
59.42606647065169
 10
33.80959355863366
 20
59.61310506745171
 10
33.64682736183365
 20
59.8042537666517
 10
33.48509834743365
 20
59.9995268978517
 10
33.32445916823365
 20
60.1989358754517
 10
33.16499976823365
 20
60.4024407426517
 10
33.00716698263365
 20
60.6095319186517
 10
32.85110816343365
 20
60.8200609458517
 10
32.69686522743365
 20
61.0340114434517
 10
32.54448268343365
 20
61.2513627522517
 10
32.39400938423365
 20
61.47208658905171
 10
32.24549727223365
 20
61.6961448226517
 10
32.09909516823365
 20
61.92333868505169
 10
31.95494587223365
 20
62.15347036825169
 10
31.81312956343365
 20
62.3864297074517
 10
31.67371572183366
 20
62.6221145122517
 10
31.53674158583365
 20
62.8604704482517
 10
31.40225223703366
 20
63.10142487545171
 10
31.27029024503365
 20
63.34490963545171
 10
31.14091172663365
 20
63.59083071545169
 10
31.01419555223365
 20
63.8390347746517
 10
30.89017012183365
 20
64.0894578594517
 10
30.76886430423366
 20
64.34203200345169
 10
30.65030400023365
 20
64.59669234425169
 10
30.53452311863365
 20
64.8533530706517
 10
30.42169605463366
 20
65.11160623065169
 10
30.31204743543365
 20
65.37090565625169
 10
30.20571330743365
 20
65.63086370105171
 10
30.10285080343365
 20
65.8909970546517
 10
30.00450662423365
 20
66.1485053650517
 10
29.91082162423365
 20
66.4027689026517
 10
29.82162445783366
 20
66.65397107705169
 10
29.73627997303365
 20
66.90366344825171
 10
29.65430173143365
 20
67.1530949682517
 10
29.57567529303365
 20
67.40219844825171
 10
29.50038347543365
 20
67.6509149346517
 10
29.42840403383366
 20
67.89920244185172
 10
29.35972545783365
 20
68.14698148505169
 10
29.29422495223365
 20
68.3945989666517
 10
29.23155652023365
 20
68.64334208345169
 10
29.17158424023365
 20
68.89378475065169
 10
29.11424798583365
 20
69.14628548665169
 10
29.05954572823366
 20
69.40102968825169
 10
29.00757543223365
 20
69.65776194265169
 10
28.95836590263366
 20
69.91655974425171
 10
28.91194312983365
 20
70.17756741945169
 10
28.86824574423365
 20
70.4415285938517
 10
28.82721511063365
 20
70.7094780370517
 10
28.78898481623366
 20
70.98147347865171
 10
28.75370193783365
 20
71.2575639570517
 10
28.72150567543365
 20
71.53798414745171
 10
28.69264446263366
 20
71.82205705945171
 10
28.66747663543366
 20
72.10738443065171
 10
28.64631025463365
 20
72.39058488185171
 10
28.62924238263365
 20
72.66936813625171
 10
28.61613632343365
 20
72.9441846834517
 10
28.60686657463365
 20
73.21585642425171
 10
28.60135582263366
 20
73.4845718210517
 10
28.59953244023365
 20
73.75048206585171
  0
LWPOLYLINE
  5
7F9
330
1F
100
AcDbEntity
  8
0
  6
CONTINUOUS
 62
     7
100
AcDbPolyline
 90
       17
 70
     0
 43
0.0
 10
20.23801780663365
 20
73.93545597145169
 10
20.18771653143365
 20
73.96582934905168
 10
20.14142264183365
 20
74.00175140665169
 10
20.09974497943365
 20
74.0427100034517
 10
20.06322266103365
 20
74.08813324505169
 10
20.03232165783365
 20
74.13739838745169
 10
20.00743169463365
 20
74.18984126905169
 10
19.98886469463365
 20
74.2447646114517
 10
19.97685381943365
 20
74.30144533785171
 10
19.97155256023365
 20
74.35914158265169
 10
19.97303381303366
 20
74.4170992866517
 10
19.98128881783365
 20
74.47455878265171
 10
19.99622596023366
 20
74.53076176985169
 10
20.01766953303365
 20
74.58495854585169
 10
20.04535875703365
 20
74.6364164130517
 10
20.07894794583365
 20
74.68442957305168
 10
20.11800714583365
 20
74.72832866265171
  0
LWPOLYLINE
  5
7FA
330
1F
100
AcDbEntity
  8
0
  6
CONTINUOUS
 62
     7
100
AcDbPolyline
 90
       74
 70
     0
 43
0.0
 10
38.51496100343365
 20
65.85867504665171
 10
38.62169037623365
 20
65.6950382322517
 10
38.73450977943365
 20
65.53324535545169
 10
38.85348643863366
 20
65.37337962585169
 10
38.97886701463365
 20
65.2153126018517
 10
39.11093581143365
 20
65.0588891474517
 10
39.24994824343365
 20
64.9040590242517
 10
39.34660742103365
 20
64.80171142425169
 10
39.44656098583365
 20
64.70004913305169
 10
39.54990695223365
 20
64.59905998745171
 10
39.65674294423365
 20
64.49873584825169
 10
39.76716500663365
 20
64.39908466105169
 10
39.88126879063365
 20
64.3001183970517
 10
39.99915480343365
 20
64.2018485986517
 10
40.12094298423366
 20
64.10428510265169
 10
40.24675812343366
 20
64.00743731225171
 10
40.37672145143365
 20
63.9113204546517
 10
40.51093992503365
 20
63.8159730338517
 10
40.64951693623365
 20
63.7214393762517
 10
40.79256235223366
 20
63.6277626930517
 10
40.94021193303365
 20
63.5349817378517
 10
41.09260791383365
 20
63.44313415545169
 10
41.24988601303365
 20
63.3522642210517
 10
41.41215589623365
 20
63.26244274745169
 10
41.57952071543365
 20
63.1737471762517
 10
41.75208960183365
 20
63.08625458105169
 10
41.92999560343365
 20
63.00004053305169
 10
42.11337775223365
 20
62.91518023545169
 10
42.30235956663366
 20
62.8317572514517
 10
42.49700252343365
 20
62.7498886002517
 10
42.69735259223365
 20
62.6696996690517
 10
42.90346326583366
 20
62.5913138786517
 10
43.11541816023365
 20
62.5148468050517
 10
43.33330841783365
 20
62.44041205785169
 10
43.55721201943365
 20
62.3681284546517
 10
43.78715431063366
 20
62.29813562425171
 10
44.02314747863365
 20
62.2305784002517
 10
44.26519135703364
 20
62.1656059394517
 10
44.51323638903366
 20
62.1033847010517
 10
44.76722066263365
 20
62.0440854690517
 10
45.02699262583365
 20
61.98788665145169
 10
45.29204213943365
 20
61.9349971570517
 10
45.56176942103365
 20
61.8856335202517
 10
45.83576345623366
 20
61.8399814050517
 10
46.11436830583365
 20
61.79810301625169
 10
46.39811679703366
 20
61.76002968665169
 10
46.61458201783366
 20
61.7340009810517
 10
46.83421189623365
 20
61.7102056978517
 10
47.05727652343365
 20
61.6887031490517
 10
47.28523978423366
 20
61.66948810105171
 10
47.51917012663366
 20
61.6525809858517
 10
47.75736044663366
 20
61.63816944185169
 10
47.99792672663365
 20
61.6264506882517
 10
48.24105288503366
 20
61.6174930786517
 10
48.48695286103365
 20
61.61130905785171
 10
48.73389276823365
 20
61.6078163378517
 10
48.97965176343365
 20
61.60690894265171
 10
49.22200900343366
 20
61.6084809010517
 10
49.45931259543365
 20
61.6124029570517
 10
49.69218646583365
 20
61.6184527250517
 10
49.92141442263365
 20
61.62638482585169
 10
50.14614401303365
 20
61.63595502265169
 10
50.36546025783366
 20
61.6469412498517
 10
50.57983434903365
 20
61.6592089906517
 10
50.79008402103365
 20
61.6726456178517
 10
50.99702700823365
 20
61.6871385042517
 10
51.26906066263366
 20
61.7079355474517
 10
51.53764805943366
 20
61.73029194745169
 10
51.80376774103366
 20
61.7540894946517
 10
52.20014992983365
 20
61.7922298770517
 10
52.59461851863366
 20
61.83295086905169
 10
52.98837707863365
 20
61.8758424930517
 10
53.38169533623365
 20
61.9204388866517
 10
54.16784816183366
 20
62.01293774425169
  0
LWPOLYLINE
  5
7FB
330
1F
100
AcDbEntity
  8
0
  6
CONTINUOUS
 62
     7
100
AcDbPolyline
 90
       28
 70
     0
 43
0.0
 10
35.62279055383365
 20
73.75048206585171
 10
35.62291169463366
 20
73.7192453730517
 10
35.62327701143365
 20
73.68739401145169
 10
35.62388935383365
 20
73.6549261010517
 10
35.62475156823365
 20
73.6218397554517
 10
35.62586649943365
 20
73.58813309305171
 10
35.62723699863365
 20
73.5538042322517
 10
35.62886590903366
 20
73.51885128825171
 10
35.63075632503366
 20
73.4832736306517
 10
35.63291232343365
 20
73.44707564665171
 10
35.63533822583365
 20
73.41026297305169
 10
35.63803835543366
 20
73.37284124665169
 10
35.64101703543365
 20
73.3348161074517
 10
35.64427858583365
 20
73.2961931922517
 10
35.64782733143365
 20
73.25697813945168
 10
35.65117212663365
 20
73.2221805106517
 10
35.65474694583365
 20
73.18691871385169
 10
35.65855862103365
 20
73.15117761945169
 10
35.66261398103366
 20
73.1149420978517
 10
35.66691985783365
 20
73.07819701945169
 10
35.67148308343365
 20
73.04092725305171
 10
35.67631048823365
 20
73.00311767065171
 10
35.68140890423365
 20
72.96475314265169
 10
35.68593008983365
 20
72.93191956185168
 10
35.69065793463365
 20
72.8986668530517
 10
35.69560105783365
 20
72.86498222585169
 10
35.70076807863365
 20
72.83085288985171
 10
35.70616761623365
 20
72.79626605465171
  0
LWPOLYLINE
  5
7FC
330
1F
100
AcDbEntity
  8
0
  6
CONTINUOUS
 62
     7
100
AcDbPolyline
 90
       35
 70
     0
 43
0.0
 10
33.26608412023365
 20
73.75048206585171
 10
33.26723614263365
 20
73.80922348025169
 10
33.27090695063366
 20
73.87382116185171
 10
33.27737171383366
 20
73.94303496665171
 10
33.28666588823365
 20
74.01412705785171
 10
33.29867050263365
 20
74.08467172505169
 10
33.31312619383365
 20
74.1524363490517
 10
33.32940923223365
 20
74.21469619865169
 10
33.34699401303366
 20
74.2703725602517
 10
33.36585720983365
 20
74.3202869394517
 10
33.38686082903365
 20
74.36681797785169
 10
33.41101040663366
 20
74.41136747705169
 10
33.43955983383365
 20
74.45473230425171
 10
33.47372789143365
 20
74.49695336825169
 10
33.51484386103365
 20
74.53796950105169
 10
33.56381352183365
 20
74.57747861145171
 10
33.62161717463365
 20
74.6156742274517
 10
33.68953920183365
 20
74.65307102905168
 10
33.76837455703365
 20
74.68976398425169
 10
33.85917807063365
 20
74.72596958905168
 10
33.96320220823365
 20
74.76166549305171
 10
34.08127105623365
 20
74.79629362585169
 10
34.21423004023365
 20
74.82968529305171
 10
34.36289376663365
 20
74.86293476505171
 10
34.52603147223365
 20
74.89930212185169
 10
34.70401152823365
 20
74.9469744514517
 10
34.89236286583365
 20
75.0146476770517
 10
35.06765624983365
 20
75.10007497945171
 10
35.23495667063365
 20
75.20759280665169
 10
35.41334420663365
 20
75.35339923385169
 10
35.58834719383365
 20
75.53132304185169
 10
35.73754398743365
 20
75.7137186722517
 10
35.86373044823365
 20
75.88989205945171
 10
35.99027379063366
 20
76.0827290082517
 10
36.08100400983365
 20
76.2279777954517
  0
LWPOLYLINE
  5
7FD
330
1F
100
AcDbEntity
  8
0
  6
CONTINUOUS
 62
     7
100
AcDbPolyline
 90
       18
 70
     0
 43
0.0
 10
20.55243006423365
 20
74.59132427865171
 10
20.53404143223365
 20
74.57080776505171
 10
20.51802479543365
 20
74.5484337410517
 10
20.50457348663365
 20
74.52447592345169
 10
20.49384677303365
 20
74.4992233026517
 10
20.48596999543365
 20
74.47297832345171
 10
20.48103467223365
 20
74.44605366585171
 10
20.47909793303365
 20
74.4187707154517
 10
20.48018156183365
 20
74.3914537602517
 10
20.48427206583365
 20
74.3644276306517
 10
20.49132110263365
 20
74.3380126914517
 10
20.50124548183365
 20
74.31252381465171
 10
20.51392828983365
 20
74.28826477625171
 10
20.52921977303365
 20
74.2655256978517
 10
20.54694002743365
 20
74.2445780786517
 10
20.56687966423365
 20
74.22567382425168
 10
20.58880093463365
 20
74.20904192345171
 10
20.61243539543365
 20
74.19488793305169
  0
LWPOLYLINE
  5
7FE
330
1F
100
AcDbEntity
  8
0
  6
CONTINUOUS
 62
     7
100
AcDbPolyline
 90
       17
 70
     0
 43
0.0
 10
72.53307421303365
 20
58.92087626745169
 10
73.25932010103366
 20
58.94834583065169
 10
73.96094059703367
 20
59.0074458866517
 10
74.63744331543364
 20
59.0965813650517
 10
75.28841475543365
 20
59.2141587746517
 10
75.91584160023365
 20
59.3591447858517
 10
76.52100793783365
 20
59.5306109730517
 10
77.10455094263366
 20
59.7276633186517
 10
77.66708581303365
 20
59.9495493970517
 10
78.20919534743365
 20
60.19568821785171
 10
78.73251402103367
 20
60.46616670265169
 10
79.23842756183365
 20
60.7612840226517
 10
79.72786751383364
 20
61.0814046546517
 10
80.20221974103364
 20
61.4275044050517
 10
80.66233140983365
 20
61.8005458914517
 10
81.10922476023365
 20
62.20202236985169
 10
81.53995396663365
 20
62.6298266450517
  0
LWPOLYLINE
  5
7FF
330
1F
100
AcDbEntity
  8
0
  6
CONTINUOUS
 62
     7
100
AcDbPolyline
 90
       21
 70
     0
 43
0.0
 10
71.43599586103366
 20
58.1538300354517
 10
71.48353008983367
 20
58.15466919545169
 10
71.52843367223366
 20
58.1557496466517
 10
71.57070478743367
 20
58.1570521698517
 10
71.61041908823367
 20
58.1585616114517
 10
71.64753390583365
 20
58.1602599058517
 10
71.68217313463364
 20
58.16213780825171
 10
71.71431519703364
 20
58.1641810146517
 10
71.74402500343365
 20
58.1663817362517
 10
71.77134183863365
 20
58.1687333938517
 10
71.79622912343365
 20
58.1712244898517
 10
71.81874761943365
 20
58.1738549650517
 10
71.83885555223366
 20
58.1766167714517
 10
71.85652894423364
 20
58.1795053714517
 10
71.87174847383366
 20
58.1825207586517
 10
71.88443338263366
 20
58.1856544354517
 10
71.89452965783366
 20
58.18890666105169
 10
71.90194499543366
 20
58.1922725714517
 10
71.90657353463365
 20
58.1957443634517
 10
71.90830700983366
 20
58.1993195266517
 10
71.90740103383365
 20
58.20245017465169
  0
LWPOLYLINE
  5
800
330
1F
100
AcDbEntity
  8
0
  6
CONTINUOUS
 62
     7
100
AcDbPolyline
 90
        4
 70
     0
 43
0.0
 10
71.43599586103366
 20
58.1538300354517
 10
70.54979859223365
 20
58.1414733410517
 10
69.66226665943366
 20
58.13021082745169
 10
68.77353235703364
 20
58.1200434978517
  0
LWPOLYLINE
  5
801
330
1F
100
AcDbEntity
  8
0
  6
CONTINUOUS
 62
     7
100
AcDbPolyline
 90
       15
 70
     0
 43
0.0
 10
60.95593331863366
 20
58.1494915810517
 10
60.84576297463365
 20
58.1490447778517
 10
60.73626694263365
 20
58.1477037154517
 10
60.62870296823366
 20
58.14548075865169
 10
60.52393974583365
 20
58.14239381465171
 10
60.42324310423365
 20
58.1384843842517
 10
60.32730436823366
 20
58.1337867954517
 10
60.23718509783365
 20
58.1283632466517
 10
60.15335757143365
 20
58.1222536434517
 10
60.07664347703366
 20
58.1155292962517
 10
60.00736955383366
 20
58.10822884505171
 10
59.94616405943366
 20
58.1004250610517
 10
59.89329625463366
 20
58.09215365465171
 10
59.84923799703366
 20
58.0834788962517
 10
59.82455753783366
 20
58.0770922178517
  0
LWPOLYLINE
  5
802
330
1F
100
AcDbEntity
  8
0
  6
CONTINUOUS
 62
     7
100
AcDbPolyline
 90
        3
 70
     0
 43
0.0
 10
74.54393319063365
 20
57.3713515042517
 10
74.49014631543366
 20
57.3711469842517
 10
74.43636578423365
 20
57.3710758066517
  0
LINE
  5
803
330
1F
100
AcDbEntity
  8
0
  6
CONTINUOUS
 62
     7
100
AcDbLine
 10
47.70593331863365
 20
57.36889012025169
 30
0.0
 11
74.20593331863367
 21
57.36889012025169
 31
0.0
  0
LWPOLYLINE
  5
804
330
1F
100
AcDbEntity
  8
0
  6
CONTINUOUS
 62
     7
100
AcDbPolyline
 90
        9
 70
     0
 43
0.0
 10
74.43636578423365
 20
57.3710758066517
 10
73.38503689783365
 20
57.3710595650517
 10
72.19946096983367
 20
57.3708999922517
 10
70.84380024823366
 20
57.37054816985169
 10
69.29509752983367
 20
57.3699975362517
 10
67.53709569623365
 20
57.36932093945171
 10
65.56887189623364
 20
57.3686464098517
 10
63.39771824183365
 20
57.36815277465169
 10
60.95593331863366
 20
57.3679661410517
  0
LWPOLYLINE
  5
805
330
1F
100
AcDbEntity
  8
0
  6
CONTINUOUS
 62
     7
100
AcDbPolyline
 90
        9
 70
     0
 43
0.0
 10
47.47550085303365
 20
57.3710758066517
 10
48.52682973943366
 20
57.3710595650517
 10
49.71240566743365
 20
57.3708999922517
 10
51.06806638903365
 20
57.37054816985169
 10
52.61676910743366
 20
57.3699975362517
 10
54.37477094103365
 20
57.36932093945171
 10
56.34299474103365
 20
57.3686464098517
 10
58.51414839543366
 20
57.36815277465169
 10
60.95593331863366
 20
57.3679661554517
  0
LWPOLYLINE
  5
806
330
1F
100
AcDbEntity
  8
0
  6
CONTINUOUS
 62
     7
100
AcDbPolyline
 90
        3
 70
     0
 43
0.0
 10
47.36793344663364
 20
57.3713515042517
 10
47.42172032183365
 20
57.3711469842517
 10
47.47550085303365
 20
57.3710758066517
  0
LWPOLYLINE
  5
807
330
1F
100
AcDbEntity
  8
0
  6
CONTINUOUS
 62
     7
100
AcDbPolyline
 90
       18
 70
     0
 43
0.0
 10
60.95593331863366
 20
58.00475885945171
 10
60.84737129623365
 20
58.0051918418517
 10
60.73912985623366
 20
58.00649668665169
 10
60.63242885143365
 20
58.00866968665169
 10
60.52815669143366
 20
58.0117009154517
 10
60.42758776823365
 20
58.01555732025169
 10
60.33142287063365
 20
58.0202134370517
 10
60.24073154103366
 20
58.0256176034517
 10
60.15606149943366
 20
58.0317372834517
 10
60.07835042903366
 20
58.0385048626517
 10
60.00807021623366
 20
58.0458794226517
 10
59.94600993623365
 20
58.0537779762517
 10
59.89254355223366
 20
58.06215221465169
 10
59.84821317143365
 20
58.0709193762517
 10
59.81334120023365
 20
58.08001907545169
 10
59.78834767863366
 20
58.0893356274517
 10
59.77338096983366
 20
58.09877148825171
 10
59.76843331863366
 20
58.10820906425171
  0
LWPOLYLINE
  5
808
330
1F
100
AcDbEntity
  8
0
  6
CONTINUOUS
 62
     7
100
AcDbPolyline
 90
       18
 70
     0
 43
0.0
 10
60.95593331863366
 20
58.2117537490517
 10
61.06611359543365
 20
58.21130686585171
 10
61.17560033303365
 20
58.20996587385169
 10
61.28317294263366
 20
58.20774269465171
 10
61.38793118903365
 20
58.20465583705169
 10
61.48863210583365
 20
58.2007461778517
 10
61.58456812023366
 20
58.19604864505169
 10
61.67468877143366
 20
58.1906249362517
 10
61.75851616183366
 20
58.18451524505171
 10
61.83522916983366
 20
58.1777908882517
 10
61.90450369463365
 20
58.1704902498517
 10
61.96570645143365
 20
58.1626866850517
 10
62.01857632183365
 20
58.15441478585171
 10
62.06263240183366
 20
58.1457402242517
 10
62.09755618263366
 20
58.1367025794517
 10
62.12287479223365
 20
58.12738579385169
 10
62.13826084663365
 20
58.11785900345171
 10
62.14343331863366
 20
58.10820906425171
  0
LWPOLYLINE
  5
809
330
1F
100
AcDbEntity
  8
0
  6
CONTINUOUS
 62
     7
100
AcDbPolyline
 90
       23
 70
     0
 43
0.0
 10
53.13833428023365
 20
58.1200434978517
 10
53.18114503703365
 20
58.1197255010517
 10
53.22399716663365
 20
58.11969382265171
 10
53.26686805143365
 20
58.1199461298517
 10
53.30976651543366
 20
58.1204837842517
 10
53.35269347223366
 20
58.1213120082517
 10
53.39567266743365
 20
58.1224407826517
 10
53.43849552343365
 20
58.1238767442517
 10
53.48092517623366
 20
58.1256242562517
 10
53.52288128023365
 20
58.12769437465171
 10
53.56423497463365
 20
58.1300992898517
 10
53.60458365783365
 20
58.1328350770517
 10
53.64352997143366
 20
58.1358917074517
 10
53.68090100983366
 20
58.13927362745169
 10
53.71635670103366
 20
58.1429709906517
 10
53.74946912663366
 20
58.14695866585171
 10
53.77990278103366
 20
58.15121388345169
 10
53.80736908343365
 20
58.1557154114517
 10
53.83143250743366
 20
58.16040744665169
 10
53.85176396343366
 20
58.1652292466517
 10
53.86822282743366
 20
58.1701436018517
 10
53.88064866263365
 20
58.1750902162517
 10
53.88897063063366
 20
58.1799982738517
  0
LWPOLYLINE
  5
80A
330
1F
100
AcDbEntity
  8
0
  6
CONTINUOUS
 62
     7
100
AcDbPolyline
 90
        4
 70
     0
 43
0.0
 10
53.13833428023365
 20
58.1200434978517
 10
52.24959997783366
 20
58.13021082745169
 10
51.36206804663366
 20
58.1414733410517
 10
50.47587077463365
 20
58.1538300354517
  0
LWPOLYLINE
  5
80B
330
1F
100
AcDbEntity
  8
0
  6
CONTINUOUS
 62
     7
100
AcDbPolyline
 90
       17
 70
     0
 43
0.0
 10
49.37879242423366
 20
58.92087626745169
 10
48.65254653623365
 20
58.94834583065169
 10
47.95092604023365
 20
59.0074458866517
 10
47.27442332183366
 20
59.0965813650517
 10
46.62345188183365
 20
59.2141587746517
 10
45.99602503703365
 20
59.3591447858517
 10
45.39085869943366
 20
59.5306109730517
 10
44.80731569463364
 20
59.7276633186517
 10
44.24478082423365
 20
59.9495493970517
 10
43.70267128983365
 20
60.19568821785171
 10
43.17935261623365
 20
60.46616670265169
 10
42.67343907543366
 20
60.7612840226517
 10
42.18399912343365
 20
61.0814046546517
 10
41.70964689623366
 20
61.4275044050517
 10
41.24953522743365
 20
61.8005458914517
 10
40.80264187703366
 20
62.20202236985169
 10
40.37191267063366
 20
62.6298266450517
  0
LINE
  5
80C
330
1F
100
AcDbEntity
  8
0
  6
CONTINUOUS
 62
     7
100
AcDbLine
 10
20.23801780663365
 20
73.93545597145169
 30
0.0
 11
22.92225785943365
 21
72.52106206585171
 31
0.0
  0
LINE
  5
80D
330
1F
100
AcDbEntity
  8
0
  6
CONTINUOUS
 62
     7
100
AcDbLine
 10
20.61243539543365
 20
74.19488793305169
 30
0.0
 11
23.09275361943365
 21
72.8879455954517
 31
0.0
  0
LWPOLYLINE
  5
80E
330
1F
100
AcDbEntity
  8
0
  6
CONTINUOUS
 62
     7
100
AcDbPolyline
 90
       20
 70
     0
 43
0.0
 10
40.37191267063366
 20
62.6298266450517
 10
40.87177045783366
 20
62.3580953874517
 10
41.42378734263365
 20
62.0947778754517
 10
42.03223980663365
 20
61.8421167010517
 10
42.70056654103366
 20
61.6030728082517
 10
43.43115384663366
 20
61.38118205785169
 10
44.22381900343365
 20
61.1807361170517
 10
45.07485633463366
 20
61.0065430050517
 10
45.97516488983365
 20
60.8637023810517
 10
46.90879512343365
 20
60.75692607545169
 10
47.77646634743366
 20
60.6936005250517
 10
48.62723120663366
 20
60.6645183890517
 10
49.58304758903366
 20
60.6696335714517
 10
50.67635296503365
 20
60.71967037465171
 10
51.89677881143365
 20
60.8193114226517
 10
53.01462663703365
 20
60.9359828578517
 10
53.99429268823364
 20
61.04601896025169
 10
54.86508477303365
 20
61.14218059705169
 10
55.67481394903365
 20
61.22553148345169
 10
56.34643788023366
 20
61.28745278105171
  0
LWPOLYLINE
  5
80F
330
1F
100
AcDbEntity
  8
0
  6
CONTINUOUS
 62
     7
100
AcDbPolyline
 90
       12
 70
     0
 43
0.0
 10
23.09275361943365
 20
72.8879455954517
 10
23.56620643863365
 20
72.62365571865169
 10
24.02721250423365
 20
72.3362065778517
 10
24.47420377463366
 20
72.02642905145168
 10
24.90573534743365
 20
71.69525662105169
 10
25.32047261783366
 20
71.3437217378517
 10
25.71744792983365
 20
70.97269573785169
 10
26.09587582423365
 20
70.58295246745169
 10
26.45500729143365
 20
70.1752681250517
 10
26.79410653623365
 20
69.75044296505169
 10
27.11233769623365
 20
69.30946982745169
 10
27.40876922903366
 20
68.85362662265169
  0
LWPOLYLINE
  5
810
330
1F
100
AcDbEntity
  8
0
  6
CONTINUOUS
 62
     7
100
AcDbPolyline
 90
       15
 70
     0
 43
0.0
 10
22.92225900983365
 20
72.52106146105169
 10
23.43456734903365
 20
72.23336054745169
 10
23.93171247863365
 20
71.91808380665171
 10
24.41154733463365
 20
71.57649933145169
 10
24.87239209463365
 20
71.20983061945171
 10
25.31403620183366
 20
70.81817169625171
 10
25.73483234743365
 20
70.4027998018517
 10
26.13300327543365
 20
69.9654152498517
 10
26.50783542103365
 20
69.50676695385169
 10
26.85863092663366
 20
69.02750327705169
 10
27.18381673143365
 20
68.52956986265169
 10
27.48219428183365
 20
68.0147778802517
 10
27.75355298743365
 20
67.48332130745168
 10
27.99679868823365
 20
66.93697972185171
 10
28.19570043223365
 20
66.4206228818517
  0
LWPOLYLINE
  5
811
330
1F
100
AcDbEntity
  8
0
  6
CONTINUOUS
 62
     7
100
AcDbPolyline
 90
       34
 70
     0
 43
0.0
 10
35.98940901783366
 20
71.4189641426517
 10
35.85031041303365
 20
71.6280822834517
 10
35.70494375863365
 20
71.8245652978517
 10
35.53642560663365
 20
72.01844272665169
 10
35.35703584023365
 20
72.1868342818517
 10
35.18622025143365
 20
72.3150958482517
 10
35.01754931863365
 20
72.4138438274517
 10
34.83375318583366
 20
72.49398412825169
 10
34.64605255063365
 20
72.55349011705169
 10
34.47262334903365
 20
72.5951301298517
 10
34.31626400663366
 20
72.6287205186517
 10
34.17496947863365
 20
72.6614101058517
 10
34.04857893303365
 20
72.69533598745169
 10
33.93642081143365
 20
72.73086782265171
 10
33.83766824023365
 20
72.76740081785169
 10
33.75136210423365
 20
72.8044042722517
 10
33.67640822263365
 20
72.8418352978517
 10
33.61181263063365
 20
72.87983556505171
 10
33.55677880503366
 20
72.91850983705169
 10
33.51029788663366
 20
72.9581510530517
 10
33.47121382903365
 20
72.99900854425169
 10
33.43840093783365
 20
73.04108844665171
 10
33.41059323543365
 20
73.08455603225169
 10
33.38688518743365
 20
73.1292625122517
 10
33.36605898583365
 20
73.17618407545168
 10
33.34712712663366
 20
73.22696887065169
 10
33.32955622103365
 20
73.28322081305171
 10
33.31332107223365
 20
73.34579341625169
 10
33.29884425143365
 20
73.4140032130517
 10
33.28677868663365
 20
73.48513055225168
 10
33.27742738743365
 20
73.55680792025172
 10
33.27093160983365
 20
73.62644709305169
 10
33.26724204663365
 20
73.69142023385169
 10
33.26608412023365
 20
73.75048206585171
  0
LINE
  5
812
330
1F
100
AcDbEntity
  8
0
  6
CONTINUOUS
 62
     7
100
AcDbLine
 10
36.02167512023365
 20
71.36822839545169
 30
0.0
 11
35.98940901783366
 21
71.4189641426517
 31
0.0
  0
LWPOLYLINE
  5
813
330
1F
100
AcDbEntity
  8
0
  6
CONTINUOUS
 62
     7
100
AcDbPolyline
 90
        3
 70
     0
 43
0.0
 10
36.31926219863366
 20
70.87446920345169
 10
36.13735659863365
 20
71.1821262162517
 10
36.02183649623365
 20
71.36796416985169
  0
LINE
  5
814
330
1F
100
AcDbEntity
  8
0
  6
CONTINUOUS
 62
     7
100
AcDbLine
 10
36.51045001143365
 20
70.52627012825169
 30
0.0
 11
36.31926219863366
 21
70.87446920345169
 31
0.0
  0
LWPOLYLINE
  5
815
330
1F
100
AcDbEntity
  8
0
  6
CONTINUOUS
 62
     7
100
AcDbPolyline
 90
       13
 70
     0
 43
0.0
 10
36.53619962103365
 20
70.47680322265171
 10
36.54560395863365
 20
70.45959793145169
 10
36.55490080823365
 20
70.4422983586517
 10
36.56408925143365
 20
70.42490552985171
 10
36.57316837143365
 20
70.40742047225169
 10
36.58213725143365
 20
70.3898442098517
 10
36.59104509303365
 20
70.37207688665171
 10
36.59984030263366
 20
70.35421778105169
 10
36.60852266743365
 20
70.33626630905169
 10
36.61709197943365
 20
70.31822189305171
 10
36.62554803063366
 20
70.3000839522517
 10
36.63389060663365
 20
70.28185190585171
 10
36.64211950263365
 20
70.2635251762517
  0
LINE
  5
816
330
1F
100
AcDbEntity
  8
0
  6
CONTINUOUS
 62
     7
100
AcDbLine
 10
36.57486001143365
 20
70.4023495266517
 30
0.0
 11
36.51045001143365
 21
70.52627012825169
 31
0.0
  0
LWPOLYLINE
  5
817
330
1F
100
AcDbEntity
  8
0
  6
CONTINUOUS
 62
     7
100
AcDbPolyline
 90
       15
 70
     0
 43
0.0
 10
36.64211961783365
 20
70.2635252290517
 10
36.65036939543365
 20
70.2447470898517
 10
36.65844412023365
 20
70.2259045986517
 10
36.66634441303365
 20
70.2069963202517
 10
36.67407089623365
 20
70.18802081145171
 10
36.68162418743365
 20
70.16897663385171
 10
36.68900491063365
 20
70.14986234905169
 10
36.69621332983365
 20
70.13067750265171
 10
36.70324829143365
 20
70.11142558425169
 10
36.71010828823365
 20
70.09211107065169
 10
36.71679180823366
 20
70.0727384354517
 10
36.72329734423366
 20
70.05331215385169
 10
36.72962338903365
 20
70.03383670265171
 10
36.73352081623365
 20
70.0215284562517
 10
36.73734635543365
 20
70.0092020530517
  0
LWPOLYLINE
  5
818
330
1F
100
AcDbEntity
  8
0
  6
CONTINUOUS
 62
     7
100
AcDbPolyline
 90
       14
 70
     0
 43
0.0
 10
36.02210874743365
 20
71.5288485538517
 10
36.03599102263366
 20
71.48989809945169
 10
36.05013502263365
 20
71.45107717625169
 10
36.06454419223365
 20
71.41239067385169
 10
36.07922297783366
 20
71.3738413842517
 10
36.09417987223365
 20
71.3354237314517
 10
36.10942437943365
 20
71.29713004505169
 10
36.12496606103365
 20
71.25895360985168
 10
36.14081471383365
 20
71.22089154265172
 10
36.15698019863365
 20
71.18294191385169
 10
36.17347280023365
 20
71.14510278745169
 10
36.19030452183365
 20
71.10737218585168
 10
36.20748779543365
 20
71.06974812185169
 10
36.22141114103365
 20
71.03990480025169
  0
LWPOLYLINE
  5
819
330
1F
100
AcDbEntity
  8
0
  6
CONTINUOUS
 62
     7
100
AcDbPolyline
 90
        9
 70
     0
 43
0.0
 10
36.73734635543365
 20
70.0092020530517
 10
36.74087322263365
 20
69.99761064825171
 10
36.74433692663365
 20
69.9860025954517
 10
36.74773757143365
 20
69.9743775842517
 10
36.75107526423365
 20
69.9627353074517
 10
36.75435011543365
 20
69.95107545305168
 10
36.75756222903365
 20
69.93939771385169
 10
36.76071171383366
 20
69.92770178105169
 10
36.81246355543366
 20
69.7340232018517
  0
LWPOLYLINE
  5
81A
330
1F
100
AcDbEntity
  8
0
  6
CONTINUOUS
 62
     7
100
AcDbPolyline
 90
       24
 70
     0
 43
0.0
 10
36.81246355543366
 20
69.7340232018517
 10
36.86332358583365
 20
69.55309810105169
 10
36.91637405943366
 20
69.37319991065169
 10
36.97160955543365
 20
69.19431630905169
 10
37.02902332343365
 20
69.0164419026517
 10
37.08860328823365
 20
68.83959897625169
 10
37.15033604823365
 20
68.6638167394517
 10
37.21420820183365
 20
68.48912439865171
 10
37.28020617143365
 20
68.31554941465171
 10
37.34831568983365
 20
68.1431122610517
 10
37.41852231863365
 20
67.9718316626517
 10
37.49081161463365
 20
67.8017263474517
 10
37.56516890743366
 20
67.63281459385169
 10
37.64157859383365
 20
67.4651129138517
 10
37.72002483703365
 20
67.29863736985169
 10
37.80049180343366
 20
67.13340402745169
 10
37.88296293463365
 20
66.96943067865169
 10
37.96741877783365
 20
66.80674202585169
 10
38.05383915543366
 20
66.64536449785169
 10
38.14220389303365
 20
66.48532452345171
 10
38.23249684663366
 20
66.3266423810517
 10
38.32471800343366
 20
66.1693137410517
 10
38.41887138263365
 20
66.01332812345169
 10
38.51496100343365
 20
65.85867504665171
  0
LINE
  5
81B
330
1F
100
AcDbEntity
  8
0
  6
CONTINUOUS
 62
     7
100
AcDbLine
 10
35.72610551543366
 20
72.67665297465168
 30
0.0
 11
35.73341163543365
 21
72.63552072825169
 31
0.0
  0
LWPOLYLINE
  5
81C
330
1F
100
AcDbEntity
  8
0
  6
CONTINUOUS
 62
     7
100
AcDbPolyline
 90
       22
 70
     0
 43
0.0
 10
35.72592001303366
 20
72.67771436185171
 10
35.73341163543365
 20
72.63552072825169
 10
35.74152489463365
 20
72.5912742562517
 10
35.75002929143365
 20
72.54635574905171
 10
35.75892353623366
 20
72.50083328185169
 10
35.76820634103365
 20
72.45477492185171
 10
35.77787641623365
 20
72.40824874265169
 10
35.78793247543365
 20
72.36132281625168
 10
35.79837322743365
 20
72.31406521145169
 10
35.80919738743365
 20
72.26654400185172
 10
35.82421582103365
 20
72.20289742905169
 10
35.83986276183365
 20
72.13910922265171
 10
35.85608739063365
 20
72.07538536825168
 10
35.87283889463366
 20
72.01193184825169
 10
35.89006645783365
 20
71.94895464505171
 10
35.90771926583365
 20
71.88665974585169
 10
35.92575756343365
 20
71.8252072738517
 10
35.94418583863365
 20
71.7645739362517
 10
35.96301963863365
 20
71.70469058105169
 10
35.98227451223365
 20
71.6454880546517
 10
36.00196600823366
 20
71.58689720505171
 10
36.02210967383365
 20
71.5288488802517
  0
LINE
  5
81D
330
1F
100
AcDbEntity
  8
0
  6
CONTINUOUS
 62
     7
100
AcDbLine
 10
35.71878400983365
 20
72.71923206585171
 30
0.0
 11
35.72610551543366
 21
72.67665297465168
 31
0.0
  0
LWPOLYLINE
  5
81E
330
1F
100
AcDbEntity
  8
0
  6
CONTINUOUS
 62
     7
100
AcDbPolyline
 90
        3
 70
     0
 43
0.0
 10
35.70616761623365
 20
72.79626605465171
 10
35.71249557943366
 20
72.75700772025169
 10
35.71913752183366
 20
72.7171426658517
  0
LWPOLYLINE
  5
81F
330
1F
100
AcDbEntity
  8
0
  6
CONTINUOUS
 62
     7
100
AcDbPolyline
 90
       28
 70
     0
 43
0.0
 10
35.70616547223365
 20
74.7046831442517
 10
35.70073355543366
 20
74.66988594905169
 10
35.69553697463365
 20
74.63555188505171
 10
35.69056698103365
 20
74.60166798905169
 10
35.68581482103366
 20
74.5682212978517
 10
35.68127174583365
 20
74.53519884665169
 10
35.67618596023365
 20
74.49689044505169
 10
35.67137042583365
 20
74.45913570105171
 10
35.66681833623365
 20
74.42191947865168
 10
35.66252288023366
 20
74.38522664025168
 10
35.65847725463366
 20
74.3490420514517
 10
35.65467464983365
 20
74.31335057465171
 10
35.65110825943365
 20
74.27813707545169
 10
35.64777127543365
 20
74.24338641625169
 10
35.64423073143366
 20
74.20422342265169
 10
35.64097663383365
 20
74.16565090105169
 10
35.63800469143366
 20
74.12767456825171
 10
35.63531060823366
 20
74.09030013785169
 10
35.63289009303366
 20
74.05353332505169
 10
35.63073884983365
 20
74.01737984825169
 10
35.62885258583365
 20
73.9818454194517
 10
35.62722724983366
 20
73.94693448665171
 10
35.62585975703365
 20
73.9126464098517
 10
35.62474726903365
 20
73.87897928025171
 10
35.62388694583365
 20
73.84593119065169
 10
35.62327594583365
 20
73.8135002306517
 10
35.62291142903365
 20
73.7816844914517
 10
35.62279055383365
 20
73.75048206585171
  0
LINE
  5
820
330
1F
100
AcDbEntity
  8
0
  6
CONTINUOUS
 62
     7
100
AcDbLine
 10
36.72836856823365
 20
77.52626875225169
 30
0.0
 11
36.72440359543365
 21
77.51138904025168
 31
0.0
  0
LINE
  5
821
330
1F
100
AcDbEntity
  8
0
  6
CONTINUOUS
 62
     7
100
AcDbLine
 10
36.72440359543365
 20
77.51138904025168
 30
0.0
 11
36.72033725623365
 21
77.4965384482517
 31
0.0
  0
LWPOLYLINE
  5
822
330
1F
100
AcDbEntity
  8
0
  6
CONTINUOUS
 62
     7
100
AcDbPolyline
 90
       17
 70
     0
 43
0.0
 10
36.72033725623365
 20
77.4965384482517
 10
36.71498200663365
 20
77.4775639298517
 10
36.70945975543365
 20
77.4586347938517
 10
36.70377005783366
 20
77.43974971225171
 10
36.69791246903365
 20
77.4209073570517
 10
36.69153746583365
 20
77.40103433945171
 10
36.68497592023365
 20
77.3812122930517
 10
36.67822941143365
 20
77.36144592985169
 10
36.67129952023365
 20
77.34173996025169
 10
36.66418782903365
 20
77.32209909305169
 10
36.65689591543365
 20
77.3025280370517
 10
36.64942499223365
 20
77.28303046745171
 10
36.64177478583365
 20
77.2636059010517
 10
36.63394465623365
 20
77.2442528194517
 10
36.62593396023365
 20
77.22496970425169
 10
36.61774205623366
 20
77.20575503705169
 10
36.60936830263365
 20
77.1866072962517
  0
LWPOLYLINE
  5
823
330
1F
100
AcDbEntity
  8
0
  6
CONTINUOUS
 62
     7
100
AcDbPolyline
 90
       25
 70
     0
 43
0.0
 10
36.02111373303365
 20
75.96928772345171
 10
36.00100351863366
 20
75.91124477785169
 10
35.98134749943365
 20
75.85266790105169
 10
35.96213005943365
 20
75.79348852345171
 10
35.94333558743366
 20
75.73363807705169
 10
35.92494846423365
 20
75.67304799065169
 10
35.90695307863365
 20
75.61164969465171
 10
35.88934478743365
 20
75.54942013465171
 10
35.87216283543365
 20
75.48651831705169
 10
35.85545744503365
 20
75.4231487570517
 10
35.83927883223365
 20
75.35951597625168
 10
35.82367721783365
 20
75.2958244930517
 10
35.80870281943365
 20
75.23227882425169
 10
35.79791051703365
 20
75.1848351746517
 10
35.78750050583365
 20
75.13765613785171
 10
35.77747401943365
 20
75.0908092658517
 10
35.76783228983365
 20
75.04436210745168
 10
35.75857655223365
 20
74.99838221465171
 10
35.74970803703365
 20
74.9529371378517
 10
35.74122798103365
 20
74.90809442745169
 10
35.73313761623365
 20
74.8639216338517
 10
35.72590894263365
 20
74.8231840066517
 10
35.71901183543365
 20
74.78307661465169
 10
35.71243458263365
 20
74.74358211065169
 10
35.70616547223365
 20
74.7046831442517
  0
LWPOLYLINE
  5
824
330
1F
100
AcDbEntity
  8
0
  6
CONTINUOUS
 62
     7
100
AcDbPolyline
 90
       12
 70
     0
 43
0.0
 10
32.33408167383366
 20
83.6295472258517
 10
32.60943506263366
 20
84.0007812146517
 10
32.90068200503366
 20
84.3850714530517
 10
33.21063008503365
 20
84.78546542425169
 10
33.53845889143365
 20
85.2002114706517
 10
33.88138538583365
 20
85.6252668226517
 10
34.23678382903365
 20
86.0570492658517
 10
34.60262629303366
 20
86.4928858754517
 10
34.97635556823365
 20
86.9295890274517
 10
35.35672214103366
 20
87.36562622905172
 10
35.74274160983366
 20
87.79983931065169
 10
36.13017783383365
 20
88.22753257465169
  0
LWPOLYLINE
  5
825
330
1F
100
AcDbEntity
  8
0
  6
CONTINUOUS
 62
     7
100
AcDbPolyline
 90
       49
 70
     0
 43
0.0
 10
32.65108075543365
 20
83.54483192985171
 10
32.47170422743365
 20
83.3254456882517
 10
32.29655968183365
 20
83.10550557465168
 10
32.12558244183365
 20
82.88494215545171
 10
31.95870101623365
 20
82.6636702866517
 10
31.79639812183365
 20
82.4423674002517
 10
31.63911463063366
 20
82.22173491225168
 10
31.48681822743366
 20
82.00186516665169
 10
31.33928350103365
 20
81.7825697458517
 10
31.19646853623365
 20
81.56392115545171
 10
31.05807053783365
 20
81.34557934585169
 10
30.92406308663365
 20
81.1276278898517
 10
30.79453868983366
 20
80.9103383282517
 10
30.66951796663365
 20
80.6938724658517
 10
30.54898510743365
 20
80.47834331865169
 10
30.43283728983365
 20
80.26371114745169
 10
30.32097352663365
 20
80.04992750425172
 10
30.21329581943365
 20
79.8369407410517
 10
30.10970067703365
 20
79.62468141785169
 10
30.01010251223366
 20
79.41310500345171
 10
29.91440727063365
 20
79.20213827705168
 10
29.82249483703366
 20
78.9916345394517
 10
29.73436064023365
 20
78.7817116802517
 10
29.65017533303365
 20
78.5729116210517
 10
29.56994938423365
 20
78.36541663705171
 10
29.49361509143365
 20
78.15922391225169
 10
29.42103724983365
 20
77.9541308594517
 10
29.35218062263365
 20
77.75019186905169
 10
29.28702989783365
 20
77.54753123385168
 10
29.22556776183366
 20
77.34628142105171
 10
29.16777654583365
 20
77.1465872674517
 10
29.11359294583366
 20
76.9484520274517
 10
29.06291050743366
 20
76.75169947545168
 10
29.01566158583365
 20
76.5562664370517
 10
28.97179034903365
 20
76.3621244130517
 10
28.93123634903365
 20
76.16922561945171
 10
28.89392716823365
 20
75.97745109785171
 10
28.85981801623365
 20
75.78678784025169
 10
28.82886704183365
 20
75.59722373145169
 10
28.80103172023366
 20
75.40873805145171
 10
28.77627262583365
 20
75.22131760985169
 10
28.75455180023365
 20
75.03494067065171
 10
28.73583276023365
 20
74.8495822802517
 10
28.72007389943366
 20
74.66513486265171
 10
28.70722817303365
 20
74.4813116082517
 10
28.69726503863365
 20
74.2979566850517
 10
28.69016605463365
 20
74.11505335065169
 10
28.68591496823365
 20
73.9325706498517
 10
28.68449882103366
 20
73.75048206585171
  0
LWPOLYLINE
  5
826
330
1F
100
AcDbEntity
  8
0
  6
CONTINUOUS
 62
     7
100
AcDbPolyline
 90
        3
 70
     0
 43
0.0
 10
32.84505797463365
 20
83.77586838425171
 10
32.74741086263365
 20
83.66036421625171
 10
32.65108071063365
 20
83.54483194265171
  0
LWPOLYLINE
  5
827
330
1F
100
AcDbEntity
  8
0
  6
CONTINUOUS
 62
     7
100
AcDbPolyline
 90
       22
 70
     0
 43
0.0
 10
36.13017783383365
 20
88.22753257465169
 10
36.71315801783365
 20
88.8638773922517
 10
37.25597468183365
 20
89.4578324706517
 10
37.73634215863365
 20
89.98678375225171
 10
38.16434440983365
 20
90.4622715026517
 10
38.55244143223366
 20
90.89805246105171
 10
38.89675926263366
 20
91.2892595746517
 10
39.20845380343365
 20
91.64783066905171
 10
39.50349808663365
 20
91.9911973266517
 10
39.77761644183365
 20
92.31329610745172
 10
40.01777074263365
 20
92.59738476505171
 10
40.22825919543365
 20
92.84709825625171
 10
40.41523102743365
 20
93.0683969714517
 10
40.58038112503365
 20
93.26237550585171
 10
40.72863056503365
 20
93.43430955865171
 10
40.86412033623365
 20
93.58862517945169
 10
40.98502024503365
 20
93.72304412665171
 10
41.09338868023366
 20
93.84014016345171
 10
41.19188569943365
 20
93.9432812642517
 10
41.28302263063365
 20
94.03561399065171
 10
41.36926926263366
 20
94.12007776985172
 10
41.45286287383366
 20
94.19917219545169
  0
LWPOLYLINE
  5
828
330
1F
100
AcDbEntity
  8
0
  6
CONTINUOUS
 62
     7
100
AcDbPolyline
 90
        4
 70
     0
 43
0.0
 10
45.70714150903365
 20
98.4157900450517
 10
46.00365601143365
 20
98.7294064610517
 10
46.30929591863366
 20
99.0468577986517
 10
46.62456818583366
 20
99.3677189762517
  0
LWPOLYLINE
  5
829
330
1F
100
AcDbEntity
  8
0
  6
CONTINUOUS
 62
     7
100
AcDbPolyline
 90
       26
 70
     0
 43
0.0
 10
46.42917705143366
 20
99.56771912665169
 10
44.92468464503366
 20
97.98005321945172
 10
43.16454436183366
 20
96.19434452505172
 10
41.15248751223365
 20
94.23644376665171
 10
39.12472854903365
 20
92.3082367202517
 10
37.33125742263365
 20
90.60113857625172
 10
35.76164177463366
 20
89.07865206905171
 10
34.38738982103366
 20
87.70349508345171
 10
33.19372889463366
 20
86.46087666265172
 10
32.16210079543365
 20
85.33649727865171
 10
31.27386444503366
 20
84.31737664665169
 10
30.51465976503365
 20
83.3923984050517
 10
29.87694026743365
 20
82.55362931545169
 10
29.34790289943365
 20
81.7922558322517
 10
28.90512192983365
 20
81.0887025986517
 10
28.52792838583365
 20
80.42175629785168
 10
28.20304234263366
 20
79.77679796345171
 10
27.92207574423366
 20
79.14384072345169
 10
27.67946525623365
 20
78.51524693785171
 10
27.47143078743365
 20
77.88447749625169
 10
27.29564328503365
 20
77.24603211865169
 10
27.15076907703366
 20
76.59465830585171
 10
27.03616069143365
 20
75.92388596345171
 10
26.95234236503365
 20
75.2283454418517
 10
26.90073234903365
 20
74.5047859858517
 10
26.88314018103365
 20
73.75048231225171
  0
LINE
  5
82A
330
1F
100
AcDbEntity
  8
0
  6
CONTINUOUS
 62
     7
100
AcDbLine
 10
60.60372530583365
 20
115.2140468210517
 30
0.0
 11
20.11800714583365
 21
74.72832866265171
 31
0.0
  0
LINE
  5
82B
330
1F
100
AcDbEntity
  8
0
  6
CONTINUOUS
 62
     7
100
AcDbLine
 10
60.77982931223365
 20
114.8187235266517
 30
0.0
 11
20.55243006423365
 21
74.59132427865171
 31
0.0
  0
LWPOLYLINE
  5
82C
330
1F
100
AcDbEntity
  8
0
  6
CONTINUOUS
 62
     7
100
AcDbPolyline
 90
       62
 70
     0
 43
0.0
 10
46.62456818583366
 20
99.3677189762517
 10
46.96761837783365
 20
99.7092936194517
 10
47.31984401143365
 20
100.0522395362517
 10
47.68400771223365
 20
100.3990312274517
 10
48.06431017143365
 20
100.7533677442516
 10
48.45058719543366
 20
101.1056062642517
 10
48.83536574903367
 20
101.4489718242517
 10
49.21565166903365
 20
101.7809950738516
 10
49.58862645463366
 20
102.0994823906516
 10
49.95233974263366
 20
102.4031019330517
 10
50.30583039863365
 20
102.6914306578516
 10
50.64857737303365
 20
102.9644510786517
 10
50.97973122743365
 20
103.2219198434517
 10
51.29835762743365
 20
103.4636035474516
 10
51.60336708823366
 20
103.6892369250517
 10
51.89647020023365
 20
103.9006345314517
 10
52.17915157623366
 20
104.0993306818517
 10
52.45241174583365
 20
104.2864557618516
 10
52.71716175063366
 20
104.4630087794517
 10
52.97424401143366
 20
104.6298921714517
 10
53.22443964343366
 20
104.7879188354517
 10
53.46837215383366
 20
104.9377475042517
 10
53.70642905303365
 20
105.0798626306517
 10
53.93908133303366
 20
105.2147740690517
 10
54.16678985463366
 20
105.3429563202517
 10
54.38983982263366
 20
105.4647615442517
 10
54.60855833943365
 20
105.5805476642516
 10
54.82323507543365
 20
105.6906347618516
 10
55.03413871063366
 20
105.7953153954517
 10
55.24150257143364
 20
105.8948487842517
 10
55.44556644503366
 20
105.9894834530517
 10
55.64655145303365
 20
106.0794497730517
 10
55.84467401623366
 20
106.1649649762516
 10
56.04009794423365
 20
106.2462111122516
 10
56.23297555223366
 20
106.3233598466517
 10
56.42345289943366
 20
106.3965712434517
 10
56.61166292663365
 20
106.4659887346517
 10
56.79784648343365
 20
106.5317861874516
 10
56.98213872183366
 20
106.5940901058517
 10
57.16467341303366
 20
106.6530187442517
 10
57.34555755223365
 20
106.7086748930516
 10
57.52488298903365
 20
106.7611539234517
 10
57.70272219223365
 20
106.8105395922517
 10
57.87922064663366
 20
106.8569292850517
 10
58.05459730743366
 20
106.9004334722517
 10
58.22892606903366
 20
106.9411180194516
 10
58.40226837783365
 20
106.9790400338517
 10
58.57474488823366
 20
107.0142673650517
 10
58.74650780023365
 20
107.0468693378517
 10
58.91766498743366
 20
107.0768970802517
 10
59.08825262743365
 20
107.1043854322517
 10
59.25831940023365
 20
107.1293731986517
 10
59.42805245143365
 20
107.1519129858517
 10
59.59757676983366
 20
107.1720395842516
 10
59.76689857463365
 20
107.1897739938517
 10
59.93602908343365
 20
107.2051361170516
 10
60.10510235223365
 20
107.2181525858517
 10
60.27433267223366
 20
107.2288495906517
 10
60.44397047223365
 20
107.2372477522516
 10
60.61411152343366
 20
107.2432956002517
 10
60.78474784503366
 20
107.2469272562516
 10
60.95593331863366
 20
107.2481388338516
  0
LWPOLYLINE
  5
82D
330
1F
100
AcDbEntity
  8
0
  6
CONTINUOUS
 62
     7
100
AcDbPolyline
 90
       12
 70
     0
 43
0.0
 10
43.61977013623365
 20
96.27565303545171
 10
43.91910013623365
 20
96.57318629465173
 10
44.18580667063365
 20
96.84081212825171
 10
44.42700045783364
 20
97.08497213945172
 10
44.64627060343365
 20
97.30873425145171
 10
44.84393921143365
 20
97.5119281186517
 10
45.02263147223366
 20
97.69682494905172
 10
45.18471692183366
 20
97.86553464665169
 10
45.33231417463365
 20
98.01998958265171
 10
45.46743425463365
 20
98.16207770265172
 10
45.59208910263365
 20
98.29374542745171
 10
45.70714824183365
 20
98.41578153625171
  0
LWPOLYLINE
  5
82E
330
1F
100
AcDbEntity
  8
0
  6
CONTINUOUS
 62
     7
100
AcDbPolyline
 90
        5
 70
     0
 43
0.0
 10
41.45286233943365
 20
94.19917269465171
 10
42.05069656663365
 20
94.7602439490517
 10
42.60511096823365
 20
95.28792004985172
 10
43.12482011543365
 20
95.7899829266517
 10
43.61977013623365
 20
96.27565303545171
  0
LWPOLYLINE
  5
82F
330
1F
100
AcDbEntity
  8
0
  6
CONTINUOUS
 62
     7
100
AcDbPolyline
 90
       18
 70
     0
 43
0.0
 10
55.68608131223366
 20
59.74055309785169
 10
56.29975816983366
 20
59.8517694162517
 10
56.91770662743365
 20
59.9495883474517
 10
57.53690007383365
 20
60.0334527954517
 10
58.15714560503366
 20
60.1033533778517
 10
58.77824735863366
 20
60.1592820114517
 10
59.40001072503366
 20
60.2012325522517
 10
60.02224373463366
 20
60.22920076025169
 10
60.64475834743365
 20
60.24318405465169
 10
61.26736680663365
 20
60.2431811506517
 10
61.88988137143365
 20
60.2291920482517
 10
62.51211430743365
 20
60.20121802905169
 10
63.13387758903365
 20
60.1592616690517
 10
63.75497921623366
 20
60.10332720665171
 10
64.37522452023364
 20
60.0334207922517
 10
64.99441756503364
 20
59.9495505234517
 10
65.61236540663364
 20
59.85172579385171
 10
66.22578532503365
 20
59.74055309785169
  0
LWPOLYLINE
  5
830
330
1F
100
AcDbEntity
  8
0
  6
CONTINUOUS
 62
     7
100
AcDbPolyline
 90
        3
 70
     0
 43
0.0
 10
71.37933623703367
 20
58.9045070802517
 10
71.55589212183366
 20
58.9068203042517
 10
72.53307421303365
 20
58.92087626745169
  0
LWPOLYLINE
  5
831
330
1F
100
AcDbEntity
  8
0
  6
CONTINUOUS
 62
     7
100
AcDbPolyline
 90
       10
 70
     0
 43
0.0
 10
60.95593331863366
 20
58.8341157682517
 10
61.64086756343365
 20
58.8342620114517
 10
62.32766412663366
 20
58.8352018210517
 10
63.02446798583366
 20
58.8367901122517
 10
63.73925710103365
 20
58.8389904082517
 10
64.48029681143364
 20
58.84191081945171
 10
65.25813492343366
 20
58.84583024825169
 10
66.09588633143366
 20
58.85091039225169
 10
67.02190812983366
 20
58.8576111154517
 10
67.66164215543366
 20
58.86309224345169
  0
LINE
  5
832
330
1F
100
AcDbEntity
  8
0
  6
CONTINUOUS
 62
     7
100
AcDbLine
 10
60.94888464023365
 20
61.13268126905169
 30
0.0
 11
60.95609085303365
 21
61.13268181145169
 31
0.0
  0
LWPOLYLINE
  5
833
330
1F
100
AcDbEntity
  8
0
  6
CONTINUOUS
 62
     7
100
AcDbPolyline
 90
       10
 70
     0
 43
0.0
 10
60.95593331863366
 20
58.8341171874517
 10
60.27099907543366
 20
58.8342620114517
 10
59.58420251063365
 20
58.8352018210517
 10
58.88739865143365
 20
58.8367901122517
 10
58.17260953623366
 20
58.8389904082517
 10
57.43156982583365
 20
58.84191081945171
 10
56.65373171383365
 20
58.84583024825169
 10
55.81598030583365
 20
58.85091039225169
 10
54.88995850903365
 20
58.8576111154517
 10
54.25022800503366
 20
58.86309221305169
  0
LWPOLYLINE
  5
834
330
1F
100
AcDbEntity
  8
0
  6
CONTINUOUS
 62
     7
100
AcDbPolyline
 90
        3
 70
     0
 43
0.0
 10
50.53253373303365
 20
58.9045070354517
 10
50.35597451543365
 20
58.9068203042517
 10
49.37879242423366
 20
58.92087626745169
  0
LWPOLYLINE
  5
836
330
1F
100
AcDbEntity
  8
0
  6
CONTINUOUS
 62
     7
100
AcDbPolyline
 90
       22
 70
     0
 43
0.0
 10
66.22578532343365
 20
59.74055308345169
 10
66.34249246743365
 20
59.71508275225169
 10
66.46046357943365
 20
59.6831435922517
 10
66.57662020503366
 20
59.6453570274517
 10
66.69061904183365
 20
59.6018385522517
 10
66.80212347223366
 20
59.5527216786517
 10
66.91080440983364
 20
59.4981574978517
 10
67.01634113463365
 20
59.4383142130517
 10
67.11842228663366
 20
59.37337657465169
 10
67.21674655383364
 20
59.30354545465171
 10
67.31102377143367
 20
59.2290371330517
 10
67.40097616503366
 20
59.1500823218517
 10
67.48634136663366
 20
59.06692309305171
 10
67.56687260343366
 20
58.9798114514517
 10
67.64233697303365
 20
58.88901021785169
 10
67.71251651383366
 20
58.7947913954517
 10
67.77720985303367
 20
58.6974329698517
 10
67.83623069303366
 20
58.59721960025169
 10
67.88940763543365
 20
58.49444211065169
 10
67.93658379703365
 20
58.38939783865169
 10
67.97761716823365
 20
58.28239008185169
 10
68.00657005623367
 20
58.19346614105169
  0
LWPOLYLINE
  5
837
330
1F
100
AcDbEntity
  8
0
  6
CONTINUOUS
 62
     7
100
AcDbPolyline
 90
       15
 70
     0
 43
0.0
 10
62.08729707223366
 20
58.0770948770517
 10
62.06269804663365
 20
58.0834633394517
 10
62.01867958743366
 20
58.0921345618517
 10
61.96584820183366
 20
58.1004045378517
 10
61.90468285943365
 20
58.1082073298517
 10
61.83544121783365
 20
58.1155083410517
 10
61.75875321463365
 20
58.12223411225169
 10
61.67493986903366
 20
58.1283461090517
 10
61.58482023863366
 20
58.13377275065169
 10
61.48887144983365
 20
58.1384735266517
 10
61.38814322903365
 20
58.1423864418517
 10
61.28334489943365
 20
58.1454762242517
 10
61.17572117143366
 20
58.1477017202517
 10
61.06617615703366
 20
58.1490441874517
 10
60.95593331863366
 20
58.1494915810517
  0
LWPOLYLINE
  5
838
330
1F
100
AcDbEntity
  8
0
  6
CONTINUOUS
 62
     7
100
AcDbPolyline
 90
       14
 70
     0
 43
0.0
 10
36.60936821303365
 20
77.18660733625171
 10
36.60042524823365
 20
77.16662257145171
 10
36.59134712983366
 20
77.14675088185169
 10
36.58213401623365
 20
77.12699132665171
 10
36.57278606103365
 20
77.10734296825169
 10
36.56330342263366
 20
77.08780486425169
 10
36.55368625783365
 20
77.06837608025171
 10
36.54393496183365
 20
77.04905614745169
 10
36.53405089783365
 20
77.02984648985171
 10
36.52403566423366
 20
77.01074900985171
 10
36.51389086423366
 20
76.99176560505171
 10
36.50361809943365
 20
76.9728981730517
 10
36.49321896983365
 20
76.9541486130517
 10
36.48484394423365
 20
76.93929528985171
  0
LWPOLYLINE
  5
839
330
1F
100
AcDbEntity
  8
0
  6
CONTINUOUS
 62
     7
100
AcDbPolyline
 90
       15
 70
     0
 43
0.0
 10
36.22642694423365
 20
76.47167134905169
 10
36.21255823383365
 20
76.44214968825171
 10
36.19893960983366
 20
76.41261047865168
 10
36.18246192503365
 20
76.3761221906517
 10
36.16634052983365
 20
76.33960552345169
 10
36.15055620823365
 20
76.30304459545169
 10
36.13509053623365
 20
76.26642379065168
 10
36.11992825943366
 20
76.22972855865168
 10
36.10505491703365
 20
76.1929446130517
 10
36.09045591863365
 20
76.1560555362517
 10
36.07611616023365
 20
76.1190363810517
 10
36.06202040183365
 20
76.08186006265171
 10
36.04815594903366
 20
76.0445058178517
 10
36.03452025143365
 20
76.00697814905169
 10
36.02111330263365
 20
75.9692878754517
  0
LWPOLYLINE
  5
83A
330
1F
100
AcDbEntity
  8
0
  6
CONTINUOUS
 62
     7
100
AcDbPolyline
 90
       20
 70
     0
 43
0.0
 10
37.76034789303365
 20
80.29797332985168
 10
37.69218837943366
 20
80.15894459705169
 10
37.62591372023365
 20
80.0200764994517
 10
37.56148491863365
 20
79.88132511545169
 10
37.49599199383365
 20
79.7361908146517
 10
37.43245060503365
 20
79.5911073554517
 10
37.37083315703365
 20
79.44604583865171
 10
37.31111205143365
 20
79.30097736665169
 10
37.25325887223366
 20
79.1558679586517
 10
37.19724190903365
 20
79.0106633042517
 10
37.14302863383366
 20
78.86530401145171
 10
37.09058651383365
 20
78.7197306834517
 10
37.03988511223365
 20
78.57388396345169
 10
36.99090235543365
 20
78.4277046210517
 10
36.94361826583365
 20
78.28113346105169
 10
36.89801286103365
 20
78.13411129145169
 10
36.85407012983366
 20
77.98659218905169
 10
36.81178993303365
 20
77.8385833362517
 10
36.77117609623365
 20
77.69010519065171
 10
36.72836856823365
 20
77.52626875225169
  0
LINE
  5
83B
330
1F
100
AcDbEntity
  8
0
  6
CONTINUOUS
 62
     7
100
AcDbLine
 10
36.36968196183365
 20
76.7223079490517
 30
0.0
 11
36.54236951063365
 21
77.0477698610517
 31
0.0
  0
LINE
  5
83C
330
1F
100
AcDbEntity
  8
0
  6
CONTINUOUS
 62
     7
100
AcDbLine
 10
36.19954801143365
 20
76.42454423225169
 30
0.0
 11
36.36968196183365
 21
76.7223079490517
 31
0.0
  0
LINE
  5
83D
330
1F
100
AcDbEntity
  8
0
  6
CONTINUOUS
 62
     7
100
AcDbLine
 10
36.08124444183365
 20
76.22838559065169
 30
0.0
 11
36.19954801143365
 21
76.42454423225169
 31
0.0
  0
LINE
  5
83E
330
1F
100
AcDbEntity
  8
0
  6
CONTINUOUS
 62
     7
100
AcDbLine
 10
36.08100400983365
 20
76.2279777954517
 30
0.0
 11
36.08188989143365
 21
76.2294192466517
 31
0.0
  0
LWPOLYLINE
  5
83F
330
1F
100
AcDbEntity
  8
0
  6
CONTINUOUS
 62
     7
100
AcDbPolyline
 90
       15
 70
     0
 43
0.0
 10
38.51496575863365
 20
81.64229706585169
 10
38.45322427863365
 20
81.54307263065168
 10
38.39255714423365
 20
81.4440027746517
 10
38.33296060823365
 20
81.3450975554517
 10
38.27443092663365
 20
81.24636703545169
 10
38.21696435223365
 20
81.14782127545169
 10
38.16055713943365
 20
81.04947033305169
 10
38.10520348663365
 20
80.95132037145168
 10
38.05088936183365
 20
80.85336196665171
 10
37.99759867383365
 20
80.75558179545168
 10
37.94531533623365
 20
80.6579665346517
 10
37.89402325943366
 20
80.5605028626517
 10
37.84370635223365
 20
80.46317745625172
 10
37.80168460023365
 20
80.38053482425169
 10
37.76034789303365
 20
80.29797332985168
  0
LINE
  5
840
330
1F
100
AcDbEntity
  8
0
  6
CONTINUOUS
 62
     7
100
AcDbLine
 10
46.96583248343364
 20
96.82450682745169
 30
0.0
 11
46.89899521303365
 21
96.75278660825171
 31
0.0
  0
LINE
  5
841
330
1F
100
AcDbEntity
  8
0
  6
CONTINUOUS
 62
     7
100
AcDbLine
 10
46.89899521303365
 20
96.75278660825171
 30
0.0
 11
46.81987348983366
 21
96.66814157945172
 31
0.0
  0
LWPOLYLINE
  5
842
330
1F
100
AcDbEntity
  8
0
  6
CONTINUOUS
 62
     7
100
AcDbPolyline
 90
       16
 70
     0
 43
0.0
 10
46.81987348983366
 20
96.66814157945172
 10
46.72448388663365
 20
96.56645007385172
 10
46.66982827543365
 20
96.5083647138517
 10
46.61031111863365
 20
96.4452665538517
 10
46.54573042743366
 20
96.37698530105172
 10
46.47567067063365
 20
96.30313346585172
 10
46.39961639703366
 20
96.22323037945172
 10
46.31700136343365
 20
96.1367573650517
 10
46.22679977623366
 20
96.04273625145172
 10
46.12761254743364
 20
95.93983333785169
 10
46.01801777143365
 20
95.82673626905171
 10
45.89642858583365
 20
95.70201958745171
 10
45.76084668663366
 20
95.5639132210517
 10
45.61273405623365
 20
95.4142327490517
 10
45.44867788983365
 20
95.2499339698517
 10
45.26252263863366
 20
95.06547327705169
  0
LINE
  5
843
330
1F
100
AcDbEntity
  8
0
  6
CONTINUOUS
 62
     7
100
AcDbLine
 10
45.26252263863366
 20
95.06547327705169
 30
0.0
 11
45.04385107863366
 21
94.85157209465171
 31
0.0
  0
LWPOLYLINE
  5
844
330
1F
100
AcDbEntity
  8
0
  6
CONTINUOUS
 62
     7
100
AcDbPolyline
 90
        9
 70
     0
 43
0.0
 10
45.04385107863366
 20
94.85157209465171
 10
44.78266364823365
 20
94.5994325826517
 10
44.52636079863365
 20
94.3549764338517
 10
44.27332357143366
 20
94.1165783442517
 10
44.02320050263365
 20
93.8838431074517
 10
43.76202517783365
 20
93.64387770265171
 10
43.47771566423364
 20
93.38525484025172
 10
43.18534850583365
 20
93.12179178745171
 10
42.88948085943365
 20
92.8577594818517
  0
LWPOLYLINE
  5
846
330
1F
100
AcDbEntity
  8
0
  6
CONTINUOUS
 62
     7
100
AcDbPolyline
 90
       31
 70
     0
 43
0.0
 10
42.88948400343365
 20
92.85775654585171
 10
42.61504858583365
 20
92.61454731225171
 10
42.32448599223365
 20
92.35769681785171
 10
42.01436983223366
 20
92.0844852434517
 10
41.68157853783365
 20
91.79252330585171
 10
41.32098035223365
 20
91.47761934265171
 10
40.92597931863365
 20
91.13439284825171
 10
40.49481118103365
 20
90.76162812665172
 10
40.02039166903365
 20
90.35341560505171
 10
39.48316127863366
 20
89.89292284665168
 10
38.88119725943365
 20
89.3778813410517
 10
38.27688652343365
 20
88.86011246585169
 10
37.74119949463365
 20
88.3987554034517
 10
37.27010612343365
 20
87.9896515922517
 10
36.84638135223365
 20
87.6194833570517
 10
36.43910031223365
 20
87.2630250434517
 10
36.06499579063365
 20
86.93385276185171
 10
35.72277428503365
 20
86.63018658105171
 10
35.40741295223365
 20
86.3472804514517
 10
35.11665199863365
 20
86.08295898905168
 10
34.84805221943365
 20
85.83497955065169
 10
34.59707302743366
 20
85.59925345305169
 10
34.36053097623365
 20
85.3729176962517
 10
34.13570056023365
 20
85.15350045465169
 10
33.92157747383365
 20
84.94011945465169
 10
33.71888133943365
 20
84.73357199385171
 10
33.52549903703365
 20
84.53183646905172
 10
33.34050002423365
 20
84.33404569465171
 10
33.16450487863365
 20
84.14091996505169
 10
32.99891933303365
 20
83.95421382105169
 10
32.84505797463365
 20
83.77586838425171
  0
LWPOLYLINE
  5
847
330
1F
100
AcDbEntity
  8
0
  6
CONTINUOUS
 62
     7
100
AcDbPolyline
 90
       21
 70
     0
 43
0.0
 10
54.06792378103366
 20
60.9844233602517
 10
53.81990026583366
 20
60.9262940754517
 10
53.57109137783366
 20
60.8575449106517
 10
53.32509446263365
 20
60.7789685154517
 10
53.08235282103366
 20
60.6907056034517
 10
52.84331079863366
 20
60.5929201298517
 10
52.60840266743366
 20
60.4857956034517
 10
52.37805347863365
 20
60.36953486905169
 10
52.15267970103365
 20
60.2443601842517
 10
51.93268876183365
 20
60.11051301305169
 10
51.71847683703365
 20
59.9682527074517
 10
51.51042832823365
 20
59.8178559650517
 10
51.30891559383365
 20
59.6596165554517
 10
51.11429756023365
 20
59.49384422265169
 10
50.92691902903366
 20
59.3208639762517
 10
50.74711028503365
 20
59.1410157010517
 10
50.57518607223365
 20
58.9546531922517
 10
50.41144487703365
 20
58.7621434274517
 10
50.25616815063366
 20
58.5638657186517
 10
50.10961882743366
 20
58.36020983545171
 10
50.00446772023366
 20
58.20245016345169
  0
LWPOLYLINE
  5
848
330
1F
100
AcDbEntity
  8
0
  6
CONTINUOUS
 62
     7
100
AcDbPolyline
 90
       13
 70
     0
 43
0.0
 10
56.58300732663366
 20
62.32920870905171
 10
56.71534951543365
 20
62.3512146578517
 10
56.83979467863366
 20
62.3729413986517
 10
56.95627756983365
 20
62.39441656665171
 10
57.06466211063365
 20
62.4156763858517
 10
57.16359056663365
 20
62.4365171458517
 10
57.25118735543365
 20
62.4565556626517
 10
57.32631672823366
 20
62.4754530354517
 10
57.38912866423365
 20
62.4930817458517
 10
57.44062228023366
 20
62.5095132994517
 10
57.48181654583365
 20
62.5248551394517
 10
57.51356951383365
 20
62.5392085266517
 10
57.53656529303365
 20
62.5526647298517
  0
LINE
  5
849
330
1F
100
AcDbEntity
  8
0
  6
CONTINUOUS
 62
     7
100
AcDbLine
 10
56.23347989303365
 20
62.2841029458517
 30
0.0
 11
56.29310936503365
 21
62.2938323074517
 31
0.0
  0
LINE
  5
84A
330
1F
100
AcDbEntity
  8
0
  6
CONTINUOUS
 62
     7
100
AcDbLine
 10
56.17052766743365
 20
62.2739525202517
 30
0.0
 11
56.23347989303365
 21
62.2841029458517
 31
0.0
  0
LINE
  5
84B
330
1F
100
AcDbEntity
  8
0
  6
CONTINUOUS
 62
     7
100
AcDbLine
 10
56.29310936503365
 20
62.2938323074517
 30
0.0
 11
56.32171260343366
 21
62.2983961554517
 31
0.0
  0
LINE
  5
84C
330
1F
100
AcDbEntity
  8
0
  6
CONTINUOUS
 62
     7
100
AcDbLine
 10
56.10640351383366
 20
62.2638041506517
 30
0.0
 11
56.17052766743365
 21
62.2739525202517
 31
0.0
  0
LINE
  5
84D
330
1F
100
AcDbEntity
  8
0
  6
CONTINUOUS
 62
     7
100
AcDbLine
 10
56.32171260343366
 20
62.2983961554517
 30
0.0
 11
56.35029977623366
 21
62.3028662802517
 31
0.0
  0
LINE
  5
84E
330
1F
100
AcDbEntity
  8
0
  6
CONTINUOUS
 62
     7
100
AcDbLine
 10
56.04115688823365
 20
62.2536654114517
 30
0.0
 11
56.10640351383366
 21
62.2638041506517
 31
0.0
  0
LWPOLYLINE
  5
84F
330
1F
100
AcDbEntity
  8
0
  6
CONTINUOUS
 62
     7
100
AcDbPolyline
 90
        4
 70
     0
 43
0.0
 10
54.53190618263366
 20
61.0670118066517
 10
54.37785838103366
 20
61.04324841945169
 10
54.22114598903365
 20
61.0153574178517
 10
54.06792378103366
 20
60.9844233634517
  0
LINE
  5
850
330
1F
100
AcDbEntity
  8
0
  6
CONTINUOUS
 62
     7
100
AcDbLine
 10
56.35029977623366
 20
62.3028662802517
 30
0.0
 11
56.37885814583365
 21
62.30724127385169
 31
0.0
  0
LINE
  5
851
330
1F
100
AcDbEntity
  8
0
  6
CONTINUOUS
 62
     7
100
AcDbLine
 10
55.97488473783365
 20
62.2435507922517
 30
0.0
 11
56.04115688823365
 21
62.2536654114517
 31
0.0
  0
LINE
  5
852
330
1F
100
AcDbEntity
  8
0
  6
CONTINUOUS
 62
     7
100
AcDbLine
 10
55.90769352343365
 20
62.2334761666517
 30
0.0
 11
55.97488473783365
 21
62.2435507922517
 31
0.0
  0
LINE
  5
853
330
1F
100
AcDbEntity
  8
0
  6
CONTINUOUS
 62
     7
100
AcDbLine
 10
56.37885814583365
 20
62.30724127385169
 30
0.0
 11
56.42163186903365
 21
62.3136309474517
 31
0.0
  0
LINE
  5
854
330
1F
100
AcDbEntity
  8
0
  6
CONTINUOUS
 62
     7
100
AcDbLine
 10
55.83963529783366
 20
62.2234493938517
 30
0.0
 11
55.90769352343365
 21
62.2334761666517
 31
0.0
  0
LINE
  5
855
330
1F
100
AcDbEntity
  8
0
  6
CONTINUOUS
 62
     7
100
AcDbLine
 10
56.42163186903365
 20
62.3136309474517
 30
0.0
 11
56.45135200823366
 21
62.31796098585171
 31
0.0
  0
LINE
  5
856
330
1F
100
AcDbEntity
  8
0
  6
CONTINUOUS
 62
     7
100
AcDbLine
 10
55.77070769623365
 20
62.21347031705169
 30
0.0
 11
55.83963529783366
 21
62.2234493938517
 31
0.0
  0
LINE
  5
857
330
1F
100
AcDbEntity
  8
0
  6
CONTINUOUS
 62
     7
100
AcDbLine
 10
56.45135200823366
 20
62.31796098585171
 30
0.0
 11
56.48625264503365
 21
62.3229391842517
 31
0.0
  0
LINE
  5
858
330
1F
100
AcDbEntity
  8
0
  6
CONTINUOUS
 62
     7
100
AcDbLine
 10
55.70092550903366
 20
62.20354128185171
 30
0.0
 11
55.77070769623365
 21
62.21347031705169
 31
0.0
  0
LINE
  5
859
330
1F
100
AcDbEntity
  8
0
  6
CONTINUOUS
 62
     7
100
AcDbLine
 10
55.63038159223365
 20
62.19367603865169
 30
0.0
 11
55.70092550903366
 21
62.20354128185171
 31
0.0
  0
LINE
  5
85A
330
1F
100
AcDbEntity
  8
0
  6
CONTINUOUS
 62
     7
100
AcDbLine
 10
56.48625264503365
 20
62.3229391842517
 30
0.0
 11
56.52108126743365
 21
62.3278027554517
 31
0.0
  0
LINE
  5
85B
330
1F
100
AcDbEntity
  8
0
  6
CONTINUOUS
 62
     7
100
AcDbLine
 10
55.55918693463365
 20
62.1838909762517
 30
0.0
 11
55.63038159223365
 21
62.19367603865169
 31
0.0
  0
LINE
  5
85C
330
1F
100
AcDbEntity
  8
0
  6
CONTINUOUS
 62
     7
100
AcDbLine
 10
56.52108126743365
 20
62.3278027554517
 30
0.0
 11
56.56351389463365
 21
62.33360438425169
 31
0.0
  0
LINE
  5
85D
330
1F
100
AcDbEntity
  8
0
  6
CONTINUOUS
 62
     7
100
AcDbLine
 10
55.48742081623366
 20
62.17419775225169
 30
0.0
 11
55.55918693463365
 21
62.1838909762517
 31
0.0
  0
LINE
  5
85E
330
1F
100
AcDbEntity
  8
0
  6
CONTINUOUS
 62
     7
100
AcDbLine
 10
56.56351389463365
 20
62.33360438425169
 30
0.0
 11
56.60581388983366
 21
62.3392764898517
 31
0.0
  0
LINE
  5
85F
330
1F
100
AcDbEntity
  8
0
  6
CONTINUOUS
 62
     7
100
AcDbLine
 10
55.39015909303365
 20
62.1613266866517
 30
0.0
 11
55.48742081623366
 21
62.17419775225169
 31
0.0
  0
LINE
  5
860
330
1F
100
AcDbEntity
  8
0
  6
CONTINUOUS
 62
     7
100
AcDbLine
 10
56.60581388983366
 20
62.3392764898517
 30
0.0
 11
56.66899643383366
 21
62.3476013026517
 31
0.0
  0
LWPOLYLINE
  5
861
330
1F
100
AcDbEntity
  8
0
  6
CONTINUOUS
 62
     7
100
AcDbPolyline
 90
        3
 70
     0
 43
0.0
 10
56.66899643383366
 20
62.3476013026517
 10
56.71093791223365
 20
62.35307315705171
 10
56.73184995223365
 20
62.35579684985171
  0
LINE
  5
862
330
1F
100
AcDbEntity
  8
0
  6
CONTINUOUS
 62
     7
100
AcDbLine
 10
56.73184995223365
 20
62.35579684985171
 30
0.0
 11
56.80720909143365
 21
62.36561490585169
 31
0.0
  0
LINE
  5
863
330
1F
100
AcDbEntity
  8
0
  6
CONTINUOUS
 62
     7
100
AcDbLine
 10
55.28952833463365
 20
62.14829684185169
 30
0.0
 11
55.39015909303365
 21
62.1613266866517
 31
0.0
  0
LINE
  5
864
330
1F
100
AcDbEntity
  8
0
  6
CONTINUOUS
 62
     7
100
AcDbLine
 10
56.80720909143365
 20
62.36561490585169
 30
0.0
 11
56.87516497943366
 21
62.3742709410517
 31
0.0
  0
LINE
  5
865
330
1F
100
AcDbEntity
  8
0
  6
CONTINUOUS
 62
     7
100
AcDbLine
 10
55.18782445623365
 20
62.1354103906517
 30
0.0
 11
55.28952833463365
 21
62.14829684185169
 31
0.0
  0
LINE
  5
866
330
1F
100
AcDbEntity
  8
0
  6
CONTINUOUS
 62
     7
100
AcDbLine
 10
56.87516497943366
 20
62.3742709410517
 30
0.0
 11
56.94388327223365
 21
62.3827837122517
 31
0.0
  0
LINE
  5
867
330
1F
100
AcDbEntity
  8
0
  6
CONTINUOUS
 62
     7
100
AcDbLine
 10
55.08521344983365
 20
62.1226966738517
 30
0.0
 11
55.18782445623365
 21
62.1354103906517
 31
0.0
  0
LINE
  5
868
330
1F
100
AcDbEntity
  8
0
  6
CONTINUOUS
 62
     7
100
AcDbLine
 10
56.94388327223365
 20
62.3827837122517
 30
0.0
 11
57.01331066423365
 21
62.39114128505169
 31
0.0
  0
LWPOLYLINE
  5
869
330
1F
100
AcDbEntity
  8
0
  6
CONTINUOUS
 62
     7
100
AcDbPolyline
 90
        3
 70
     0
 43
0.0
 10
54.16784816183366
 20
62.01293774425169
 10
54.98186563063366
 20
62.1101860130517
 10
55.08521344983365
 20
62.1226966738517
  0
LINE
  5
86A
330
1F
100
AcDbEntity
  8
0
  6
CONTINUOUS
 62
     7
100
AcDbLine
 10
57.01331066423365
 20
62.39114128505169
 30
0.0
 11
57.08340076983365
 21
62.39933268185169
 31
0.0
  0
LINE
  5
86B
330
1F
100
AcDbEntity
  8
0
  6
CONTINUOUS
 62
     7
100
AcDbLine
 10
57.08340076983365
 20
62.39933268185169
 30
0.0
 11
57.15410820983366
 21
62.4073470962517
 31
0.0
  0
LINE
  5
86C
330
1F
100
AcDbEntity
  8
0
  6
CONTINUOUS
 62
     7
100
AcDbLine
 10
57.15410820983366
 20
62.4073470962517
 30
0.0
 11
57.22537095383366
 21
62.41517223385169
 31
0.0
  0
LINE
  5
86D
330
1F
100
AcDbEntity
  8
0
  6
CONTINUOUS
 62
     7
100
AcDbLine
 10
57.22537095383366
 20
62.41517223385169
 30
0.0
 11
57.29711031383367
 21
62.4227943058517
 31
0.0
  0
LWPOLYLINE
  5
86E
330
1F
100
AcDbEntity
  8
0
  6
CONTINUOUS
 62
     7
100
AcDbPolyline
 90
       10
 70
     0
 43
0.0
 10
57.29711031383367
 20
62.4227943058517
 10
57.36925176663365
 20
62.4302001346517
 10
57.40545580023366
 20
62.43381864505169
 10
57.44174035863366
 20
62.43737925465169
 10
57.47809918583365
 20
62.44088074105171
 10
57.51452572183366
 20
62.4443218642517
 10
57.55101221303365
 20
62.4477013330517
 10
57.58755060343366
 20
62.4510178386517
 10
57.62413283543367
 20
62.4542700754517
 10
57.66075085463366
 20
62.45745673145171
  0
LWPOLYLINE
  5
86F
330
1F
100
AcDbEntity
  8
0
  6
CONTINUOUS
 62
     7
100
AcDbPolyline
 90
        8
 70
     0
 43
0.0
 10
57.66075085463366
 20
62.45745673145171
 10
57.82937428343366
 20
62.47169849945169
 10
57.99683757623365
 20
62.4852867538517
 10
58.16315259863365
 20
62.4982126610517
 10
58.32833121303366
 20
62.5104673858517
 10
58.49238528663366
 20
62.5220420946517
 10
58.65532668503365
 20
62.53292795385171
 10
58.81716726903365
 20
62.5431161314517
  0
LWPOLYLINE
  5
870
330
1F
100
AcDbEntity
  8
0
  6
CONTINUOUS
 62
     7
100
AcDbPolyline
 90
        3
 70
     0
 43
0.0
 10
58.81716726903365
 20
62.5431161314517
 10
58.95875194263366
 20
62.5515024882517
 10
59.09946985463366
 20
62.5593399746517
  0
LINE
  5
871
330
1F
100
AcDbEntity
  8
0
  6
CONTINUOUS
 62
     7
100
AcDbLine
 10
59.09938141463366
 20
62.5593352066517
 30
0.0
 11
59.23929837943365
 21
62.5666274018517
 31
0.0
  0
LINE
  5
872
330
1F
100
AcDbEntity
  8
0
  6
CONTINUOUS
 62
     7
100
AcDbLine
 10
59.23916657303365
 20
62.5666207714517
 30
0.0
 11
59.37821489143365
 21
62.5733635794517
 31
0.0
  0
LINE
  5
873
330
1F
100
AcDbEntity
  8
0
  6
CONTINUOUS
 62
     7
100
AcDbLine
 10
59.37804031223365
 20
62.5733554322517
 30
0.0
 11
59.45612894583366
 21
62.5769181330517
 31
0.0
  0
LWPOLYLINE
  5
874
330
1F
100
AcDbEntity
  8
0
  6
CONTINUOUS
 62
     7
100
AcDbPolyline
 90
       39
 70
     0
 43
0.0
 10
60.95593331863366
 20
64.18075129305171
 10
61.09444282103366
 20
64.18683305625169
 10
61.23958460823365
 20
64.2059385570517
 10
61.38910660823365
 20
64.23874290745169
 10
61.53189617303365
 20
64.28248919225168
 10
61.66703577783366
 20
64.33567780185168
 10
61.79732449943365
 20
64.3988896994517
 10
61.92321841303366
 20
64.47254824985171
 10
62.04387591223365
 20
64.55656998745169
 10
62.15803199063365
 20
64.6504331282517
 10
62.26478012023366
 20
64.75372145465169
 10
62.36329295543366
 20
64.86600749625171
 10
62.45253738423365
 20
64.98644704825171
 10
62.53174629303366
 20
65.1142818946517
 10
62.60025685463364
 20
65.2487372690517
 10
62.65731913463365
 20
65.3885719042517
 10
62.70244182423365
 20
65.53269910745169
 10
62.73531996183366
 20
65.6802746626517
 10
62.75568069623366
 20
65.8302801442517
 10
62.76334877463366
 20
65.98156556185171
 10
62.75829698103366
 20
66.1327518722517
 10
62.74067972183365
 20
66.28249440025169
 10
62.71069148823365
 20
66.43001664505169
 10
62.66859131383365
 20
66.57436311225168
 10
62.61469206743366
 20
66.7146258354517
 10
62.54934125783365
 20
66.84995663865169
 10
62.47320048823365
 20
66.9790901282517
 10
62.38666089143365
 20
67.10144833305171
 10
62.29027204503365
 20
67.21624794425171
 10
62.18469066903365
 20
67.32269392345171
 10
62.07057584663365
 20
67.42010136985169
 10
61.94886225783366
 20
67.50766987545171
 10
61.82028989303365
 20
67.58486645625168
 10
61.68570355863366
 20
67.65116356985169
 10
61.54598680823365
 20
67.7061000930517
 10
61.40216179543365
 20
67.7492535842517
 10
61.25520256503365
 20
67.7803135106517
 10
61.10610251543366
 20
67.79904891545169
 10
60.95593331863366
 20
67.8053101042517
  0
LINE
  5
875
330
1F
100
AcDbEntity
  8
0
  6
CONTINUOUS
 62
     7
100
AcDbLine
 10
59.45612894583366
 20
62.5769181330517
 30
0.0
 11
59.53391505463366
 21
62.5803042114517
 31
0.0
  0
LWPOLYLINE
  5
876
330
1F
100
AcDbEntity
  8
0
  6
CONTINUOUS
 62
     7
100
AcDbPolyline
 90
       13
 70
     0
 43
0.0
 10
59.53391505463366
 20
62.5803042114517
 10
59.66270177943365
 20
62.5855478482517
 10
59.79062028343366
 20
62.5903006098517
 10
59.91765173783366
 20
62.59456150265169
 10
60.03614356183366
 20
62.59811539865169
 10
60.15384144983365
 20
62.6012380226517
 10
60.27075060343366
 20
62.6039328946517
 10
60.38687622103365
 20
62.60620352505171
 10
60.50222350583366
 20
62.6080534322517
 10
60.61679765783365
 20
62.6094861314517
 10
60.73060387703365
 20
62.61050513465169
 10
60.84364736343365
 20
62.61111395865171
 10
60.95593331863366
 20
62.61131612025169
  0
LWPOLYLINE
  5
877
330
1F
100
AcDbEntity
  8
0
  6
CONTINUOUS
 62
     7
100
AcDbPolyline
 90
       13
 70
     0
 43
0.0
 10
60.95593331863366
 20
62.61131612025169
 10
61.06822684663366
 20
62.61111393465171
 10
61.18127736983366
 20
62.6105050402517
 10
61.29509012023365
 20
62.60948592185169
 10
61.40967033463365
 20
62.6080530690517
 10
61.52502324503366
 20
62.6062029714517
 10
61.64115408663366
 20
62.60393211225171
 10
61.75806809303365
 20
62.60123698425171
 10
61.87577049943365
 20
62.5981140738517
 10
61.99426653783365
 20
62.5945598674517
 10
62.12128161143365
 20
62.5902993442517
 10
62.24918302423365
 20
62.58554710425169
 10
62.37795183863365
 20
62.58030414745171
  0
LWPOLYLINE
  5
878
330
1F
100
AcDbEntity
  8
0
  6
CONTINUOUS
 62
     7
100
AcDbPolyline
 90
       40
 70
     0
 43
0.0
 10
60.95593331863366
 20
64.18074960665169
 10
60.82106365783365
 20
64.18651921465169
 10
60.67984364983365
 20
64.20463046745169
 10
60.53405758583366
 20
64.23580373465171
 10
60.39427301303366
 20
64.27754625785169
 10
60.26187699383366
 20
64.32830202105171
 10
60.13431065143366
 20
64.3884893218517
 10
60.01088506263365
 20
64.45856004185171
 10
59.89224570743365
 20
64.53851652825171
 10
59.77955352023365
 20
64.62791967545169
 10
59.67370655383366
 20
64.72636012985171
 10
59.57546039703366
 20
64.83347556185171
 10
59.48575425783365
 20
64.9485646226517
 10
59.40536649623366
 20
65.0708946434517
 10
59.33491950743366
 20
65.19978896185171
 10
59.27510544983365
 20
65.33422173305169
 10
59.22647229463366
 20
65.47310309785169
 10
59.18935321623366
 20
65.61558739865171
 10
59.16401359063365
 20
65.76081803065171
 10
59.15066186263366
 20
65.90778977785169
 10
59.14939571223366
 20
66.05531642425171
 10
59.16015140983365
 20
66.20209146265171
 10
59.18275166743366
 20
66.3471290402517
 10
59.21699862903366
 20
66.48967262905171
 10
59.26262807223366
 20
66.62884133465169
 10
59.31934512183365
 20
66.76383762105169
 10
59.38672874903366
 20
66.89372157305169
 10
59.46421118263366
 20
67.01749825785171
 10
59.55142225303365
 20
67.13462834905169
 10
59.64781679863366
 20
67.24436704025169
 10
59.75278287063366
 20
67.34600351065171
 10
59.86566357943365
 20
67.4388852802517
 10
59.98560077463366
 20
67.5223058034517
 10
60.11191307383366
 20
67.5957879826517
 10
60.24380893303366
 20
67.6588510258517
 10
60.38045848343365
 20
67.71107425625169
 10
60.52091085143366
 20
67.75207563865169
 10
60.66426693143365
 20
67.78157577145171
 10
60.80960570103365
 20
67.7993656754517
 10
60.95593331863366
 20
67.8053101026517
  0
LINE
  5
879
330
1F
100
AcDbEntity
  8
0
  6
CONTINUOUS
 62
     7
100
AcDbLine
 10
62.37795183863365
 20
62.58030414745171
 30
0.0
 11
62.45573776663365
 21
62.57691807065169
 31
0.0
  0
LINE
  5
87A
330
1F
100
AcDbEntity
  8
0
  6
CONTINUOUS
 62
     7
100
AcDbLine
 10
62.45573776663365
 20
62.57691807065169
 30
0.0
 11
62.53382594423366
 21
62.5733553890517
 31
0.0
  0
LWPOLYLINE
  5
87B
330
1F
100
AcDbEntity
  8
0
  6
CONTINUOUS
 62
     7
100
AcDbPolyline
 90
       12
 70
     0
 43
0.0
 10
62.53382594423366
 20
62.5733553890517
 10
62.67271749623365
 20
62.5666198354517
 10
62.81251962583365
 20
62.5593333074517
 10
62.95320957143365
 20
62.55149701145169
 10
63.09476457303365
 20
62.5431121538517
 10
63.25660108503366
 20
62.5329240098517
 10
63.41953654103366
 20
62.5220383394517
 10
63.58358287543365
 20
62.51046398905169
 10
63.74875202903366
 20
62.4982098066517
 10
63.91505593943365
 20
62.4852846386517
 10
64.08250654423366
 20
62.4716973314517
 10
64.25111578263366
 20
62.45745673145171
  0
LWPOLYLINE
  5
87C
330
1F
100
AcDbEntity
  8
0
  6
CONTINUOUS
 62
     7
100
AcDbPolyline
 90
        8
 70
     0
 43
0.0
 10
64.25111578263366
 20
62.45745673145171
 10
64.28772698263364
 20
62.4542706738517
 10
64.32430277303365
 20
62.4510190306517
 10
64.36083507703367
 20
62.44770310585169
 10
64.39731581783366
 20
62.4443242114517
 10
64.43373692023365
 20
62.4408836530517
 10
64.47009062263365
 20
62.43738272185169
 10
64.50637042263366
 20
62.4338226498517
  0
LINE
  5
87D
330
1F
100
AcDbEntity
  8
0
  6
CONTINUOUS
 62
     7
100
AcDbLine
 10
64.50637042263366
 20
62.4338226498517
 30
0.0
 11
64.57868357143365
 21
62.42652993145171
 31
0.0
  0
LINE
  5
87E
330
1F
100
AcDbEntity
  8
0
  6
CONTINUOUS
 62
     7
100
AcDbLine
 10
64.57868357143365
 20
62.42652993145171
 30
0.0
 11
64.65062625143366
 21
62.41901529465169
 31
0.0
  0
LINE
  5
87F
330
1F
100
AcDbEntity
  8
0
  6
CONTINUOUS
 62
     7
100
AcDbLine
 10
64.65062625143366
 20
62.41901529465169
 30
0.0
 11
64.72213415703365
 21
62.4112904898517
 31
0.0
  0
LINE
  5
880
330
1F
100
AcDbEntity
  8
0
  6
CONTINUOUS
 62
     7
100
AcDbLine
 10
64.72213415703365
 20
62.4112904898517
 30
0.0
 11
64.79312877463366
 21
62.4033692226517
 31
0.0
  0
LINE
  5
881
330
1F
100
AcDbEntity
  8
0
  6
CONTINUOUS
 62
     7
100
AcDbLine
 10
64.79312877463366
 20
62.4033692226517
 30
0.0
 11
64.86353680983365
 21
62.3952647586517
 31
0.0
  0
LWPOLYLINE
  5
882
330
1F
100
AcDbEntity
  8
0
  6
CONTINUOUS
 62
     7
100
AcDbPolyline
 90
       49
 70
     0
 43
0.0
 10
67.74353390583366
 20
62.0129955666517
 10
68.52924144343365
 20
61.92054601945169
 10
68.92233809463366
 20
61.8759707394517
 10
69.31586658743364
 20
61.83309771705169
 10
69.71009129143365
 20
61.7923923730517
 10
70.10621519063366
 20
61.75426340345169
 10
70.37215559703366
 20
61.7304703218517
 10
70.64056151223366
 20
61.70811506265169
 10
70.91241541303364
 20
61.6873150530517
 10
71.11922703383365
 20
61.6728167906517
 10
71.32934988983365
 20
61.6593717778517
 10
71.54360308023365
 20
61.6470923874517
 10
71.76280570903364
 20
61.6360909890517
 10
71.98743035543365
 20
61.6265019090517
 10
72.21656350903365
 20
61.6185473154517
 10
72.44935399863365
 20
61.6124715602517
 10
72.68658610743367
 20
61.6085199442517
 10
72.92888449463365
 20
61.6069148946517
 10
73.17459986103367
 20
61.60778644825169
 10
73.42151441783366
 20
61.6112415410517
 10
73.66741037943365
 20
61.61738710425169
 10
73.91055555063366
 20
61.6263063282517
 10
74.15116011063367
 20
61.63798740505169
 10
74.38940385463365
 20
61.6523626226517
 10
74.62340269143365
 20
61.66923564505171
 10
74.85144943543367
 20
61.6884196098517
 10
75.07460845143365
 20
61.7098941906517
 10
75.29433860663366
 20
61.7336644738517
 10
75.51090527863365
 20
61.75967069145169
 10
75.79478442583365
 20
61.79771708505169
 10
76.07351226903364
 20
61.8395712194517
 10
76.34762014103364
 20
61.8852009362517
 10
76.61745145143365
 20
61.9345434338517
 10
76.88259793943365
 20
61.9874133410517
 10
77.14246342263365
 20
62.0435946418517
 10
77.39654079223365
 20
62.1028788866517
 10
77.64467924823364
 20
62.16508789305169
 10
77.88681705783367
 20
62.2300510370517
 10
78.12290460023366
 20
62.2976019314517
 10
78.35294068343364
 20
62.36759110265169
 10
78.57693622423366
 20
62.4398733074517
 10
78.79491548663366
 20
62.51430854105169
 10
79.00695613943367
 20
62.5907777570517
 10
79.21314920183366
 20
62.66916714265169
 10
79.41357822423364
 20
62.7493609586517
 10
79.60829688023366
 20
62.83123573305171
 10
79.79735137623364
 20
62.9146660674517
 10
79.92534197623365
 20
62.97345818425171
 10
80.05066964983365
 20
63.0329148514517
  0
LINE
  5
883
330
1F
100
AcDbEntity
  8
0
  6
CONTINUOUS
 62
     7
100
AcDbLine
 10
64.86353680983365
 20
62.3952647586517
 30
0.0
 11
64.93330827543366
 21
62.38698826265171
 31
0.0
  0
LINE
  5
884
330
1F
100
AcDbEntity
  8
0
  6
CONTINUOUS
 62
     7
100
AcDbLine
 10
66.85243120183367
 20
62.11954835225171
 30
0.0
 11
67.74353390583366
 21
62.0129955666517
 31
0.0
  0
LINE
  5
885
330
1F
100
AcDbEntity
  8
0
  6
CONTINUOUS
 62
     7
100
AcDbLine
 10
64.93330827543366
 20
62.38698826265171
 30
0.0
 11
65.00239878263366
 21
62.3785504034517
 31
0.0
  0
LINE
  5
886
330
1F
100
AcDbEntity
  8
0
  6
CONTINUOUS
 62
     7
100
AcDbLine
 10
66.74962197783367
 20
62.13221391225169
 30
0.0
 11
66.85243120183367
 21
62.11954835225171
 31
0.0
  0
LINE
  5
887
330
1F
100
AcDbEntity
  8
0
  6
CONTINUOUS
 62
     7
100
AcDbLine
 10
65.00239878263366
 20
62.3785504034517
 30
0.0
 11
65.07075854743366
 21
62.3699625906517
 31
0.0
  0
LINE
  5
888
330
1F
100
AcDbEntity
  8
0
  6
CONTINUOUS
 62
     7
100
AcDbLine
 10
66.64767516343366
 20
62.1450600130517
 30
0.0
 11
66.74962197783367
 21
62.13221391225169
 31
0.0
  0
LINE
  5
889
330
1F
100
AcDbEntity
  8
0
  6
CONTINUOUS
 62
     7
100
AcDbLine
 10
66.54675846903365
 20
62.15805698585169
 30
0.0
 11
66.64767516343366
 21
62.1450600130517
 31
0.0
  0
LINE
  5
88A
330
1F
100
AcDbEntity
  8
0
  6
CONTINUOUS
 62
     7
100
AcDbLine
 10
65.07075854743366
 20
62.3699625906517
 30
0.0
 11
65.13833238903365
 21
62.3612369698517
 31
0.0
  0
LINE
  5
88B
330
1F
100
AcDbEntity
  8
0
  6
CONTINUOUS
 62
     7
100
AcDbLine
 10
65.13833240343365
 20
62.36123708985171
 30
0.0
 11
65.28496069303367
 21
62.3420715410517
 31
0.0
  0
LINE
  5
88C
330
1F
100
AcDbEntity
  8
0
  6
CONTINUOUS
 62
     7
100
AcDbLine
 10
66.46052822903365
 20
62.1693877538517
 30
0.0
 11
66.54675846903365
 21
62.15805698585169
 31
0.0
  0
LWPOLYLINE
  5
88D
330
1F
100
AcDbEntity
  8
0
  6
CONTINUOUS
 62
     7
100
AcDbPolyline
 90
       17
 70
     0
 43
0.0
 10
67.37996045463365
 20
61.0670118066517
 10
66.58122550103366
 20
61.1737372066517
 10
65.77875283863367
 20
61.2665864322517
 10
64.97575048343364
 20
61.3451282274517
 10
64.17231287703365
 20
61.4093736258517
 10
63.36853541783366
 20
61.4593318962517
 10
62.56451181943365
 20
61.4950107586517
 10
61.76032756503365
 20
61.51641638585171
 10
60.95606302263365
 20
61.52355269465171
 10
60.15179843063365
 20
61.5164209874517
 10
59.34761406423366
 20
61.4950199586517
 10
58.54359035223366
 20
61.45934569625169
 10
57.73981279383366
 20
61.40939203065169
 10
56.93637507223365
 20
61.3451512402517
 10
56.13337253463366
 20
61.26661405145171
 10
55.33089959223365
 20
61.1737694274517
 10
54.53190618263366
 20
61.0670118066517
  0
LINE
  5
88E
330
1F
100
AcDbEntity
  8
0
  6
CONTINUOUS
 62
     7
100
AcDbLine
 10
65.28496069303367
 20
62.3420715410517
 30
0.0
 11
65.32717868343365
 21
62.3364559138517
 31
0.0
  0
LINE
  5
88F
330
1F
100
AcDbEntity
  8
0
  6
CONTINUOUS
 62
     7
100
AcDbLine
 10
66.38849438903367
 20
62.17903244025169
 30
0.0
 11
66.46052822903365
 21
62.1693877538517
 31
0.0
  0
LINE
  5
890
330
1F
100
AcDbEntity
  8
0
  6
CONTINUOUS
 62
     7
100
AcDbLine
 10
65.32717868343365
 20
62.3364559138517
 30
0.0
 11
65.36953352663366
 21
62.3307240722517
 31
0.0
  0
LINE
  5
891
330
1F
100
AcDbEntity
  8
0
  6
CONTINUOUS
 62
     7
100
AcDbLine
 10
66.31700753783366
 20
62.18877252345169
 30
0.0
 11
66.38849438903367
 21
62.17903244025169
 31
0.0
  0
LINE
  5
892
330
1F
100
AcDbEntity
  8
0
  6
CONTINUOUS
 62
     7
100
AcDbLine
 10
65.36953352663366
 20
62.3307240722517
 30
0.0
 11
65.40816980343365
 21
62.3253874818517
 31
0.0
  0
LINE
  5
893
330
1F
100
AcDbEntity
  8
0
  6
CONTINUOUS
 62
     7
100
AcDbLine
 10
66.24612489303365
 20
62.19859964825169
 30
0.0
 11
66.31700753783366
 21
62.18877252345169
 31
0.0
  0
LINE
  5
894
330
1F
100
AcDbEntity
  8
0
  6
CONTINUOUS
 62
     7
100
AcDbLine
 10
66.17594779543364
 20
62.2084988626517
 30
0.0
 11
66.24612489303365
 21
62.19859964825169
 31
0.0
  0
LINE
  5
895
330
1F
100
AcDbEntity
  8
0
  6
CONTINUOUS
 62
     7
100
AcDbLine
 10
65.40816980343365
 20
62.3253874818517
 30
0.0
 11
65.44304834263366
 21
62.3204661410517
 31
0.0
  0
LINE
  5
896
330
1F
100
AcDbEntity
  8
0
  6
CONTINUOUS
 62
     7
100
AcDbLine
 10
66.10658617303366
 20
62.21845392505169
 30
0.0
 11
66.17594779543364
 21
62.2084988626517
 31
0.0
  0
LINE
  5
897
330
1F
100
AcDbEntity
  8
0
  6
CONTINUOUS
 62
     7
100
AcDbLine
 10
65.44304834263366
 20
62.3204661410517
 30
0.0
 11
65.47595135063366
 21
62.3157228354517
 31
0.0
  0
LINE
  5
898
330
1F
100
AcDbEntity
  8
0
  6
CONTINUOUS
 62
     7
100
AcDbLine
 10
66.03809384983364
 20
62.22845678745169
 30
0.0
 11
66.10658617303366
 21
62.21845392505169
 31
0.0
  0
LINE
  5
899
330
1F
100
AcDbEntity
  8
0
  6
CONTINUOUS
 62
     7
100
AcDbLine
 10
65.97046853783365
 20
62.2385075970517
 30
0.0
 11
66.03809384983364
 21
62.22845678745169
 31
0.0
  0
LINE
  5
89A
330
1F
100
AcDbEntity
  8
0
  6
CONTINUOUS
 62
     7
100
AcDbLine
 10
65.47595135063366
 20
62.3157228354517
 30
0.0
 11
65.51869577143367
 21
62.3094006914517
 31
0.0
  0
LINE
  5
89B
330
1F
100
AcDbEntity
  8
0
  6
CONTINUOUS
 62
     7
100
AcDbLine
 10
65.90372443543365
 20
62.2486040722517
 30
0.0
 11
65.97046853783365
 21
62.2385075970517
 31
0.0
  0
LINE
  5
89C
330
1F
100
AcDbEntity
  8
0
  6
CONTINUOUS
 62
     7
100
AcDbLine
 10
65.51869577143367
 20
62.3094006914517
 30
0.0
 11
65.54724048503365
 21
62.30507219385169
 31
0.0
  0
LINE
  5
89D
330
1F
100
AcDbEntity
  8
0
  6
CONTINUOUS
 62
     7
100
AcDbLine
 10
65.83795144343366
 20
62.25873277945169
 30
0.0
 11
65.90372443543365
 21
62.2486040722517
 31
0.0
  0
LINE
  5
89E
330
1F
100
AcDbEntity
  8
0
  6
CONTINUOUS
 62
     7
100
AcDbLine
 10
65.54724048503365
 20
62.30507219385169
 30
0.0
 11
65.57582138263365
 21
62.30064872825169
 31
0.0
  0
LINE
  5
89F
330
1F
100
AcDbEntity
  8
0
  6
CONTINUOUS
 62
     7
100
AcDbLine
 10
65.77325690423364
 20
62.2688777138517
 30
0.0
 11
65.83795144343366
 21
62.25873277945169
 31
0.0
  0
LINE
  5
8A0
330
1F
100
AcDbEntity
  8
0
  6
CONTINUOUS
 62
     7
100
AcDbLine
 10
65.57582138263365
 20
62.30064872825169
 30
0.0
 11
65.60442990743365
 21
62.29612972825171
 31
0.0
  0
LINE
  5
8A1
330
1F
100
AcDbEntity
  8
0
  6
CONTINUOUS
 62
     7
100
AcDbLine
 10
65.70971401783364
 20
62.27902784185169
 30
0.0
 11
65.77325690423364
 21
62.2688777138517
 31
0.0
  0
LINE
  5
8A2
330
1F
100
AcDbEntity
  8
0
  6
CONTINUOUS
 62
     7
100
AcDbLine
 10
65.60442990743365
 20
62.29612972825171
 30
0.0
 11
65.63305117303366
 21
62.2915174642517
 31
0.0
  0
LINE
  5
8A3
330
1F
100
AcDbEntity
  8
0
  6
CONTINUOUS
 62
     7
100
AcDbLine
 10
65.63305117303366
 20
62.2915174642517
 30
0.0
 11
65.70971401783364
 21
62.27902784185169
 31
0.0
  0
LWPOLYLINE
  5
8A4
330
1F
100
AcDbEntity
  8
0
  6
CONTINUOUS
 62
     7
100
AcDbPolyline
 90
       13
 70
     0
 43
0.0
 10
65.32885931063365
 20
62.32920870905171
 10
65.19651712183367
 20
62.3512146578517
 10
65.07207195863364
 20
62.3729413986517
 10
64.95558906743366
 20
62.39441656665171
 10
64.84720452663364
 20
62.4156763858517
 10
64.74827607063367
 20
62.4365171458517
 10
64.66067928183367
 20
62.4565556626517
 10
64.58554990903365
 20
62.4754530354517
 10
64.52273797303366
 20
62.4930817458517
 10
64.47124435703367
 20
62.5095132994517
 10
64.43005009143366
 20
62.5248551394517
 10
64.39829712343365
 20
62.5392085266517
 10
64.37530134423366
 20
62.5526647298517
  0
LWPOLYLINE
  5
8A5
330
1F
100
AcDbEntity
  8
0
  6
CONTINUOUS
 62
     7
100
AcDbPolyline
 90
        4
 70
     0
 43
0.0
 10
67.84394285623367
 20
60.9844233634517
 10
67.69098219223366
 20
61.01530771385171
 10
67.53427085783366
 20
61.04320482905169
 10
67.37996045463365
 20
61.0670118066517
  0
LWPOLYLINE
  5
8A7
330
1F
100
AcDbEntity
  8
0
  6
CONTINUOUS
 62
     7
100
AcDbPolyline
 90
       23
 70
     0
 43
0.0
 10
56.48201945943365
 20
62.75653500665169
 10
56.52797421303365
 20
62.7350139106517
 10
56.57458170103366
 20
62.7145000210517
 10
56.62154876503366
 20
62.6951338882517
 10
56.66879647063366
 20
62.6769456354517
 10
56.71630295543366
 20
62.6599393186517
 10
56.76404351543366
 20
62.6441192130517
 10
56.81199366423366
 20
62.6294886130517
 10
56.86012785463365
 20
62.6160504018517
 10
56.90841971383366
 20
62.6038068594517
 10
56.95684177143365
 20
62.59275964185171
 10
57.00536548023365
 20
62.58290963705171
 10
57.05396115063366
 20
62.5742568562517
 10
57.10259790743365
 20
62.56680029625171
 10
57.15124366743365
 20
62.5605378002517
 10
57.19986517463365
 20
62.55546589785169
 10
57.24842786583366
 20
62.55157966105169
 10
57.29689649303365
 20
62.5488725090517
 10
57.34523339703366
 20
62.5473361410517
 10
57.39340411543366
 20
62.5469602370517
 10
57.44136334903366
 20
62.54773243225169
 10
57.48908264023365
 20
62.5496384114517
 10
57.53656550903365
 20
62.55266490585171
  0
LWPOLYLINE
  5
8A8
330
1F
100
AcDbEntity
  8
0
  6
CONTINUOUS
 62
     7
100
AcDbPolyline
 90
       10
 70
     0
 43
0.0
 10
56.48201232023366
 20
62.7565395266517
 10
56.32669483543365
 20
62.8358436242517
 10
56.17835053463366
 20
62.92756048185171
 10
56.03798138103365
 20
63.03107104185169
 10
55.90653294103365
 20
63.1456780258517
 10
55.78489068823365
 20
63.2706094082517
 10
55.67387403863366
 20
63.4050236178517
 10
55.57423083383365
 20
63.5480152018517
 10
55.48663229623365
 20
63.69862092825171
 10
55.41166851703366
 20
63.85582627225169
  0
LWPOLYLINE
  5
8A9
330
1F
100
AcDbEntity
  8
0
  6
CONTINUOUS
 62
     7
100
AcDbPolyline
 90
       23
 70
     0
 43
0.0
 10
68.02289600663366
 20
58.1799982738517
 10
68.03121797463365
 20
58.1750902162517
 10
68.04364380983367
 20
58.1701436018517
 10
68.06010267383365
 20
58.1652292466517
 10
68.08043412983366
 20
58.16040744665169
 10
68.10449755383365
 20
58.1557154114517
 10
68.13196385623365
 20
58.15121388345169
 10
68.16239751063367
 20
58.14695866585171
 10
68.19550993623366
 20
58.1429709906517
 10
68.23096562743365
 20
58.13927362745169
 10
68.26833666583365
 20
58.1358917074517
 10
68.30728297943366
 20
58.1328350770517
 10
68.34763166263366
 20
58.1300992898517
 10
68.38898535703364
 20
58.12769437465171
 10
68.43094146103365
 20
58.1256242562517
 10
68.47337111383365
 20
58.1238767442517
 10
68.51619396983366
 20
58.1224407826517
 10
68.55917316503365
 20
58.1213120082517
 10
68.60210012183364
 20
58.1204837842517
 10
68.64499858583366
 20
58.1199461298517
 10
68.68786947063364
 20
58.11969382265171
 10
68.73072160023366
 20
58.1197255010517
 10
68.77353235703364
 20
58.1200434978517
  0
LWPOLYLINE
  5
8AA
330
1F
100
AcDbEntity
  8
0
  6
CONTINUOUS
 62
     7
100
AcDbPolyline
 90
       12
 70
     0
 43
0.0
 10
47.94488295703366
 20
92.08228329465171
 10
47.04696951863365
 20
91.19687061145171
 10
46.20526278903366
 20
90.37340194105169
 10
45.42216991703365
 20
89.61265214425171
 10
44.69873100983366
 20
88.91396870105168
 10
44.03728929303365
 20
88.2784777042517
 10
43.41452010423365
 20
87.6823054226517
 10
42.82004194263365
 20
87.11230408345171
 10
42.25724555703366
 20
86.5688809666517
 10
41.72833128503365
 20
86.0520437602517
 10
41.23421031223365
 20
85.56144937145168
 10
40.76834336023366
 20
85.08943538105169
  0
LINE
  5
8AB
330
1F
100
AcDbEntity
  8
CENTER
100
AcDbLine
 10
65.04616472317024
 20
66.00048206585171
 30
0.0
 11
57.48093331863366
 21
66.00048206585171
 31
0.0
  0
LWPOLYLINE
  5
8AD
330
1F
100
AcDbEntity
  8
0
  6
CONTINUOUS
 62
     7
100
AcDbPolyline
 90
        3
 70
     0
 43
0.0
 10
68.02289600663366
 20
58.1799982738517
 10
68.01654128983367
 20
58.1848025570517
 10
68.00991813943366
 20
58.18957961145169
  0
LWPOLYLINE
  5
8AF
330
1F
100
AcDbEntity
  8
0
  6
CONTINUOUS
 62
     7
100
AcDbPolyline
 90
       19
 70
     0
 43
0.0
 10
55.18311605303365
 20
62.1365279074517
 10
55.17457890423366
 20
62.1567562114517
 10
55.16442525303366
 20
62.1913897490517
 10
55.15272527223366
 20
62.24018916985169
 10
55.13955982103365
 20
62.3028172194517
 10
55.12501988183366
 20
62.3788410722517
 10
55.10920594263366
 20
62.46773532825169
 10
55.09222728983365
 20
62.5688856354517
 10
55.07420126423365
 20
62.6815929442517
 10
55.05525244183365
 20
62.8050783282517
 10
55.03551177783365
 20
62.9384883794517
 10
55.01511569783366
 20
63.0809010994517
 10
54.99420515863365
 20
63.2313322674517
 10
54.97292467063365
 20
63.38874225305169
 10
54.95142130423365
 20
63.55204319065169
 10
54.92984366743365
 20
63.7201065042517
 10
54.90834088023365
 20
63.8917707058517
 10
54.88706154903365
 20
64.06584942105169
 10
54.86615273303365
 20
64.2411395842517
  0
LWPOLYLINE
  5
8B0
330
1F
100
AcDbEntity
  8
0
  6
CONTINUOUS
 62
     7
100
AcDbPolyline
 90
       11
 70
     0
 43
0.0
 10
53.61254736183365
 20
73.75048206585171
 10
53.63450442423366
 20
72.5822219634517
 10
53.70035116503366
 20
71.42313684345168
 10
53.80830059863366
 20
70.28840810425169
 10
53.95536628023365
 20
69.19232775385172
 10
54.13795774423365
 20
68.1446363778517
 10
54.35154642743365
 20
67.1530306914517
 10
54.59096837623365
 20
66.22445157785171
 10
54.85093582103365
 20
65.36382352185171
 10
55.12616363863365
 20
64.5742025026517
 10
55.41166845943365
 20
63.8558261762517
  0
LWPOLYLINE
  5
8B1
330
1F
100
AcDbEntity
  8
0
  6
CONTINUOUS
 62
     7
100
AcDbPolyline
 90
       11
 70
     0
 43
0.0
 10
53.25212554103366
 20
73.75048206585171
 10
53.27123021463365
 20
72.65371917945171
 10
53.32873891383365
 20
71.5623684818517
 10
53.42334093783365
 20
70.49008339545171
 10
53.55232960023365
 20
69.45198122265171
 10
53.71294880023365
 20
68.45473618585169
 10
53.90236881303366
 20
67.50169773465171
 10
54.11683248983366
 20
66.5986181906517
 10
54.35169215543366
 20
65.7524980114517
 10
54.60253420343366
 20
64.96701502425171
 10
54.86615426903365
 20
64.24114108505171
  0
LWPOLYLINE
  5
8B3
330
1F
100
AcDbEntity
  8
0
  6
CONTINUOUS
 62
     7
100
AcDbPolyline
 90
       37
 70
     0
 43
0.0
 10
41.86119432503366
 20
84.46804799385171
 10
41.76604322903366
 20
84.42161489465169
 10
41.67243616983365
 20
84.37481088825169
 10
41.58035158103365
 20
84.3276476466517
 10
41.45430503383365
 20
84.26122689625172
 10
41.33114017463365
 20
84.19416147225168
 10
41.21081350263366
 20
84.12648409625168
 10
41.09328151543365
 20
84.05822748985171
 10
40.97849795703365
 20
83.98942156505171
 10
40.86640553623365
 20
83.9200850226517
 10
40.75694420183365
 20
83.85023375385172
 10
40.65005390423365
 20
83.77988365625171
 10
40.54567732823366
 20
83.70905109145169
 10
40.44376809943365
 20
83.63775430745169
 10
40.34428257463365
 20
83.56601202425171
 10
40.24717711383366
 20
83.49384296025169
 10
40.15240656663365
 20
83.42126337625169
 10
40.05991975703365
 20
83.3482797010517
 10
39.96966399543365
 20
83.27489590585171
 10
39.88158659863365
 20
83.20111596025171
 10
39.79563693143365
 20
83.1269440210517
 10
39.71177257143365
 20
83.05238496345168
 10
39.62995314743365
 20
82.9774438498517
 10
39.55013828823365
 20
82.90212574265169
 10
39.47228745303366
 20
82.8264340050517
 10
39.39635943863365
 20
82.75036520985171
 10
39.32231286583366
 20
82.67391422905168
 10
39.25010636023365
 20
82.5970759410517
 10
39.15662590903366
 20
82.4940143746517
 10
39.06626950423365
 20
82.39024794265171
 10
38.97896351543365
 20
82.28576944025169
 10
38.89463221303365
 20
82.1805639602517
 10
38.81319146583365
 20
82.0745858098517
 10
38.73455504183366
 20
81.9677815938517
 10
38.65864990743365
 20
81.86011341785169
 10
38.58545582423365
 20
81.75160537625169
 10
38.51496575863365
 20
81.64229706585169
  0
LWPOLYLINE
  5
8B8
330
1F
100
AcDbEntity
  8
0
  6
CONTINUOUS
 62
     7
100
AcDbPolyline
 90
       12
 70
     0
 43
0.0
 10
55.12846239863365
 20
82.9329204418517
 10
55.13062608823366
 20
82.94154681145171
 10
55.13331969143366
 20
82.95171625785171
 10
55.13653502903366
 20
82.96294098745169
 10
55.14023200023366
 20
82.9747456210517
 10
55.14448294743365
 20
82.98711209625171
 10
55.14920855863366
 20
82.99964204825171
 10
55.15419456343366
 20
83.01175728025169
 10
55.15918210903365
 20
83.02297142105169
 10
55.16410065303364
 20
83.03332270585171
 10
55.16871806103365
 20
83.04253828985171
 10
55.17272473943365
 20
83.0502550130517
  0
LWPOLYLINE
  5
8B9
330
1F
100
AcDbEntity
  8
0
  6
CONTINUOUS
 62
     7
100
AcDbPolyline
 90
       21
 70
     0
 43
0.0
 10
50.00446560503365
 20
58.20245017465169
 10
50.00355963063365
 20
58.1993195266517
 10
50.00529310583365
 20
58.1957443634517
 10
50.00992164343365
 20
58.1922725714517
 10
50.01733698103365
 20
58.18890666105169
 10
50.02743325623366
 20
58.1856544354517
 10
50.04011816503365
 20
58.1825207586517
 10
50.05533769303365
 20
58.1795053714517
 10
50.07301108503366
 20
58.1766167714517
 10
50.09311901783365
 20
58.1738549650517
 10
50.11563751223365
 20
58.1712244914517
 10
50.14052479703366
 20
58.1687333938517
 10
50.16784163223365
 20
58.1663817362517
 10
50.19755144023366
 20
58.1641810146517
 10
50.22969350423366
 20
58.16213780825171
 10
50.26433273303366
 20
58.1602599058517
 10
50.30144755063366
 20
58.1585616114517
 10
50.34116185143366
 20
58.1570521682517
 10
50.38343296663366
 20
58.1557496466517
 10
50.42833654743365
 20
58.15466919545169
 10
50.47587077463365
 20
58.1538300354517
  0
LWPOLYLINE
  5
8BA
330
1F
100
AcDbEntity
  8
0
  6
CONTINUOUS
 62
     7
100
AcDbPolyline
 90
       11
 70
     0
 43
0.0
 10
55.12846214423365
 20
82.93292053625169
 10
54.87983161463365
 20
82.22530969465172
 10
54.64313636663366
 20
81.4599034050517
 10
54.42222862103366
 20
80.6387109762517
 10
54.22098208983366
 20
79.7649779202517
 10
54.04323401943366
 20
78.84333142265169
 10
53.89255436183365
 20
77.87910610585169
 10
53.77194725943365
 20
76.87844935865169
 10
53.68387659543365
 20
75.8495030690517
 10
53.63035230423366
 20
74.8031679682517
 10
53.61254736183365
 20
73.75048206585171
  0
LWPOLYLINE
  5
8BB
330
1F
100
AcDbEntity
  8
0
  6
CONTINUOUS
 62
     7
100
AcDbPolyline
 90
       11
 70
     0
 43
0.0
 10
54.86615428663365
 20
83.25982304505169
 10
54.60253447703365
 20
82.53394990905169
 10
54.35169237783365
 20
81.74846686265169
 10
54.11683266263366
 20
80.90234661145169
 10
53.90236893943365
 20
79.9992669794517
 10
53.71294888663366
 20
79.04622841945169
 10
53.55232964983366
 20
78.04898325945169
 10
53.42334096023365
 20
77.01088095225171
 10
53.32873891863365
 20
75.9385957154517
 10
53.27123021143365
 20
74.84724487545171
 10
53.25212554103366
 20
73.75048206585171
  0
LWPOLYLINE
  5
8BC
330
1F
100
AcDbEntity
  8
0
  6
CONTINUOUS
 62
     7
100
AcDbPolyline
 90
        3
 70
     0
 43
0.0
 10
55.41166845943365
 20
83.64513795225169
 10
55.29152100343365
 20
83.35378576665169
 10
55.17272453943365
 20
83.0502550882517
  0
LWPOLYLINE
  5
8BD
330
1F
100
AcDbEntity
  8
0
  6
CONTINUOUS
 62
     7
100
AcDbPolyline
 90
       19
 70
     0
 43
0.0
 10
55.18311900023365
 20
85.36446180345169
 10
55.17458190903365
 20
85.34423303705171
 10
55.16442826423365
 20
85.3095987890517
 10
55.15272824023365
 20
85.2607984242517
 10
55.13956269783366
 20
85.19816921465169
 10
55.12502262743366
 20
85.1221440066517
 10
55.10920851863366
 20
85.0332482274517
 10
55.09222966423365
 20
84.93209625785169
 10
55.07420340983365
 20
84.81938717945169
 10
55.05525433623365
 20
84.69589995065168
 10
55.03551340663366
 20
84.5624880098517
 10
55.01511704823365
 20
84.4200733890517
 10
54.99420622743365
 20
84.26964033305171
 10
54.97292545623366
 20
84.1122285026517
 10
54.95142181143365
 20
83.94892578585171
 10
54.92984390423366
 20
83.78086077625169
 10
54.90834085943365
 20
83.6091949826517
 10
54.88706128823366
 20
83.43511479385171
 10
54.86615225143365
 20
83.25982328665171
  0
LWPOLYLINE
  5
8BE
330
1F
100
AcDbEntity
  8
0
  6
CONTINUOUS
 62
     7
100
AcDbPolyline
 90
        4
 70
     0
 43
0.0
 10
55.62508402903365
 20
84.02903758905171
 10
55.54515992183365
 20
83.9060408354517
 10
55.47390777463365
 20
83.77787208665171
 10
55.41166840183366
 20
83.64514413145171
  0
LWPOLYLINE
  5
8BF
330
1F
100
AcDbEntity
  8
0
  6
CONTINUOUS
 62
     7
100
AcDbPolyline
 90
       21
 70
     0
 43
0.0
 10
71.90739891863365
 20
58.20245016505169
 10
71.80239625943366
 20
58.3599944002517
 10
71.65585625303364
 20
58.5636556050517
 10
71.50058864663364
 20
58.76193897785171
 10
71.33685631063366
 20
58.9544548098517
 10
71.16494063863365
 20
59.14082381305171
 10
70.98514005623366
 20
59.3206790386517
 10
70.79776923543366
 20
59.4936667090517
 10
70.60315844823364
 20
59.6594468978517
 10
70.40165260343366
 20
59.81769446585169
 10
70.19361076023367
 20
59.96809955385169
 10
69.97940538583364
 20
60.1103683298517
 10
69.75942080823364
 20
60.2442241554517
 10
69.53405307063366
 20
60.36940775705169
 10
69.30370945463366
 20
60.48567772985169
 10
69.06880628183365
 20
60.5928118450517
 10
68.82976844823367
 20
60.69060726585171
 10
68.58703006263366
 20
60.77888047385169
 10
68.34103520983365
 20
60.85746750585169
 10
68.09222730263366
 20
60.92622750585171
 10
67.84394285463367
 20
60.9844233586517
  0
LINE
  5
8C2
330
1F
100
AcDbEntity
  8
CENTER
100
AcDbLine
 10
60.94888464023365
 20
61.39001870942006
 30
0.0
 11
60.95375568488712
 21
54.84272031044561
 31
0.0
  0
LWPOLYLINE
  5
8C7
330
1F
100
AcDbEntity
  8
0
  6
CONTINUOUS
 62
     7
100
AcDbPolyline
 90
        3
 70
     0
 43
0.0
 10
68.00657078423364
 20
58.19346614265169
 10
68.00689749463365
 20
58.1926770082517
 10
68.00991813943366
 20
58.18957961145169
  0
LWPOLYLINE
  5
8C8
330
1F
100
AcDbEntity
  8
0
  6
CONTINUOUS
 62
     7
100
AcDbPolyline
 90
       22
 70
     0
 43
0.0
 10
53.90529658103366
 20
58.19346614105169
 10
53.93432576023365
 20
58.2826071058517
 10
53.97537168503365
 20
58.3896113794517
 10
54.02256016343366
 20
58.49465157305171
 10
54.07574914583366
 20
58.5974243810517
 10
54.13478171063365
 20
58.6976324562517
 10
54.19948641783366
 20
58.79498497145171
 10
54.26967692343366
 20
58.8891972722517
 10
54.34515181303366
 20
58.9799913842517
 10
54.42569311863366
 20
59.06709535225171
 10
54.51106793943365
 20
59.15024640985169
 10
54.60102951543365
 20
59.2291925986517
 10
54.69531545943365
 20
59.3036918594517
 10
54.79364794103366
 20
59.37351347225169
 10
54.89573673943365
 20
59.43844115545171
 10
55.00128048343365
 20
59.49827404985169
 10
55.10996778903365
 20
59.55282743865169
 10
55.22147791703366
 20
59.60193315545169
 10
55.33548176823366
 20
59.6454401506517
 10
55.45164271383366
 20
59.68321495225169
 10
55.56961744183364
 20
59.7151421042517
 10
55.68608131383366
 20
59.74055308345169
  0
LINE
  5
8CB
330
1F
100
AcDbEntity
  8
0
  6
CONTINUOUS
 62
     7
100
AcDbLine
 10
65.70971411863365
 20
85.22193630425169
 30
0.0
 11
65.63306031383365
 21
85.20944815385169
 31
0.0
  0
LINE
  5
8CC
330
1F
100
AcDbEntity
  8
0
  6
CONTINUOUS
 62
     7
100
AcDbLine
 10
65.63306031383365
 20
85.20944815385169
 30
0.0
 11
65.60445456503365
 21
85.20483833145169
 31
0.0
  0
LINE
  5
8CD
330
1F
100
AcDbEntity
  8
0
  6
CONTINUOUS
 62
     7
100
AcDbLine
 10
65.77325710743366
 20
85.23208644825169
 30
0.0
 11
65.70971411863365
 21
85.22193630425169
 31
0.0
  0
LINE
  5
8CE
330
1F
100
AcDbEntity
  8
0
  6
CONTINUOUS
 62
     7
100
AcDbLine
 10
65.60445456503365
 20
85.20483833145169
 30
0.0
 11
65.57585751863365
 21
85.20032104985171
 31
0.0
  0
LINE
  5
8CF
330
1F
100
AcDbEntity
  8
0
  6
CONTINUOUS
 62
     7
100
AcDbLine
 10
65.83795175383366
 20
85.24223139865171
 30
0.0
 11
65.77325710743366
 21
85.23208644825169
 31
0.0
  0
LINE
  5
8D0
330
1F
100
AcDbEntity
  8
0
  6
CONTINUOUS
 62
     7
100
AcDbLine
 10
65.57585751863365
 20
85.20032104985171
 30
0.0
 11
65.54728365303365
 21
85.19589855225168
 31
0.0
  0
LINE
  5
8D1
330
1F
100
AcDbEntity
  8
0
  6
CONTINUOUS
 62
     7
100
AcDbLine
 10
65.90372485623365
 20
85.25236012185169
 30
0.0
 11
65.83795175383366
 21
85.24223139865171
 31
0.0
  0
LINE
  5
8D2
330
1F
100
AcDbEntity
  8
0
  6
CONTINUOUS
 62
     7
100
AcDbLine
 10
65.97046907063367
 20
85.26245661305171
 30
0.0
 11
65.90372485623365
 21
85.25236012185169
 31
0.0
  0
LINE
  5
8D3
330
1F
100
AcDbEntity
  8
0
  6
CONTINUOUS
 62
     7
100
AcDbLine
 10
65.54728365303365
 20
85.19589855225168
 30
0.0
 11
65.50448370263365
 21
85.18944059225171
 31
0.0
  0
LINE
  5
8D4
330
1F
100
AcDbEntity
  8
0
  6
CONTINUOUS
 62
     7
100
AcDbLine
 10
66.03809449783367
 20
85.2725074386517
 30
0.0
 11
65.97046907063367
 21
85.26245661305171
 31
0.0
  0
LINE
  5
8D5
330
1F
100
AcDbEntity
  8
0
  6
CONTINUOUS
 62
     7
100
AcDbLine
 10
66.10658693783367
 20
85.2825103154517
 30
0.0
 11
66.03809449783367
 21
85.2725074386517
 31
0.0
  0
LINE
  5
8D6
330
1F
100
AcDbEntity
  8
0
  6
CONTINUOUS
 62
     7
100
AcDbLine
 10
65.50448370263365
 20
85.18944059225171
 30
0.0
 11
65.46051462903367
 21
85.1830031442517
 31
0.0
  0
LINE
  5
8D7
330
1F
100
AcDbEntity
  8
0
  6
CONTINUOUS
 62
     7
100
AcDbLine
 10
66.17594867863366
 20
85.29246539225169
 30
0.0
 11
66.10658693783367
 21
85.2825103154517
 31
0.0
  0
LINE
  5
8D8
330
1F
100
AcDbEntity
  8
0
  6
CONTINUOUS
 62
     7
100
AcDbLine
 10
65.46051462903367
 20
85.1830031442517
 30
0.0
 11
65.42561399223365
 21
85.17802494585168
 31
0.0
  0
LINE
  5
8D9
330
1F
100
AcDbEntity
  8
0
  6
CONTINUOUS
 62
     7
100
AcDbLine
 10
66.24612589783365
 20
85.3023646226517
 30
0.0
 11
66.17594867863366
 21
85.29246539225169
 31
0.0
  0
LINE
  5
8DA
330
1F
100
AcDbEntity
  8
0
  6
CONTINUOUS
 62
     7
100
AcDbLine
 10
65.42561399223365
 20
85.17802494585168
 30
0.0
 11
65.39078536983365
 21
85.1731613746517
 31
0.0
  0
LINE
  5
8DB
330
1F
100
AcDbEntity
  8
0
  6
CONTINUOUS
 62
     7
100
AcDbLine
 10
66.31700866423367
 20
85.31219176025169
 30
0.0
 11
66.24612589783365
 21
85.3023646226517
 31
0.0
  0
LINE
  5
8DC
330
1F
100
AcDbEntity
  8
0
  6
CONTINUOUS
 62
     7
100
AcDbLine
 10
65.39078536983365
 20
85.1731613746517
 30
0.0
 11
65.34835274263366
 21
85.16735974585172
 31
0.0
  0
LINE
  5
8DD
330
1F
100
AcDbEntity
  8
0
  6
CONTINUOUS
 62
     7
100
AcDbLine
 10
66.38849563863366
 20
85.32193185945169
 30
0.0
 11
66.31700866423367
 21
85.31219176025169
 31
0.0
  0
LINE
  5
8DE
330
1F
100
AcDbEntity
  8
0
  6
CONTINUOUS
 62
     7
100
AcDbLine
 10
65.34835274263366
 20
85.16735974585172
 30
0.0
 11
65.30605274743365
 21
85.1616876402517
 31
0.0
  0
LINE
  5
8DF
330
1F
100
AcDbEntity
  8
0
  6
CONTINUOUS
 62
     7
100
AcDbLine
 10
66.46052960503365
 20
85.33157655865171
 30
0.0
 11
66.38849563863366
 21
85.32193185945169
 31
0.0
  0
LINE
  5
8E0
330
1F
100
AcDbEntity
  8
0
  6
CONTINUOUS
 62
     7
100
AcDbLine
 10
65.30605274743365
 20
85.1616876402517
 30
0.0
 11
65.24287020343365
 21
85.1533628274517
 31
0.0
  0
LINE
  5
8E1
330
1F
100
AcDbEntity
  8
0
  6
CONTINUOUS
 62
     7
100
AcDbLine
 10
65.24287020343365
 20
85.1533628274517
 30
0.0
 11
65.20092872503366
 21
85.14789097305168
 31
0.0
  0
LINE
  5
8E2
330
1F
100
AcDbEntity
  8
0
  6
CONTINUOUS
 62
     7
100
AcDbLine
 10
66.57188017783366
 20
85.34616870905171
 30
0.0
 11
66.46052960503365
 21
85.33157655865171
 31
0.0
  0
LINE
  5
8E3
330
1F
100
AcDbEntity
  8
0
  6
CONTINUOUS
 62
     7
100
AcDbLine
 10
65.20092872503366
 20
85.14789097305168
 30
0.0
 11
65.07077834263364
 21
85.1310040594517
 31
0.0
  0
LINE
  5
8E4
330
1F
100
AcDbEntity
  8
0
  6
CONTINUOUS
 62
     7
100
AcDbLine
 10
66.67306705943366
 20
85.35913033145169
 30
0.0
 11
66.57188017783366
 21
85.34616870905171
 31
0.0
  0
LINE
  5
8E5
330
1F
100
AcDbEntity
  8
0
  6
CONTINUOUS
 62
     7
100
AcDbLine
 10
65.07077834263364
 20
85.1310040594517
 30
0.0
 11
65.00243437143365
 21
85.1224181346517
 31
0.0
  0
LINE
  5
8E6
330
1F
100
AcDbEntity
  8
0
  6
CONTINUOUS
 62
     7
100
AcDbLine
 10
66.77524556343366
 20
85.3719341522517
 30
0.0
 11
66.67306705943366
 21
85.35913033145169
 31
0.0
  0
LINE
  5
8E7
330
1F
100
AcDbEntity
  8
0
  6
CONTINUOUS
 62
     7
100
AcDbLine
 10
66.87824579543366
 20
85.3845501026517
 30
0.0
 11
66.77524556343366
 21
85.3719341522517
 31
0.0
  0
LINE
  5
8E8
330
1F
100
AcDbEntity
  8
0
  6
CONTINUOUS
 62
     7
100
AcDbLine
 10
65.00243437143365
 20
85.1224181346517
 30
0.0
 11
64.93335529943365
 21
85.1139815298517
 31
0.0
  0
LINE
  5
8E9
330
1F
100
AcDbEntity
  8
0
  6
CONTINUOUS
 62
     7
100
AcDbLine
 10
67.74395765463364
 20
85.48801912985169
 30
0.0
 11
66.87824579543366
 21
85.3845501026517
 31
0.0
  0
LINE
  5
8EA
330
1F
100
AcDbEntity
  8
0
  6
CONTINUOUS
 62
     7
100
AcDbLine
 10
64.93335529943365
 20
85.1139815298517
 30
0.0
 11
64.86359096823367
 21
85.10570570265171
 31
0.0
  0
LINE
  5
8EB
330
1F
100
AcDbEntity
  8
0
  6
CONTINUOUS
 62
     7
100
AcDbLine
 10
64.86359096823367
 20
85.10570570265171
 30
0.0
 11
64.79318625303367
 21
85.0976014226517
 31
0.0
  0
LINE
  5
8EC
330
1F
100
AcDbEntity
  8
0
  6
CONTINUOUS
 62
     7
100
AcDbLine
 10
64.79318625303367
 20
85.0976014226517
 30
0.0
 11
64.72219159703366
 21
85.08967994745171
 31
0.0
  0
LINE
  5
8ED
330
1F
100
AcDbEntity
  8
0
  6
CONTINUOUS
 62
     7
100
AcDbLine
 10
64.72219159703366
 20
85.08967994745171
 30
0.0
 11
64.65068061943364
 21
85.08195461145168
 31
0.0
  0
LINE
  5
8EE
330
1F
100
AcDbEntity
  8
0
  6
CONTINUOUS
 62
     7
100
AcDbLine
 10
64.65068061943364
 20
85.08195461145168
 30
0.0
 11
64.57873212023367
 21
85.0744391826517
 31
0.0
  0
LWPOLYLINE
  5
8EF
330
1F
100
AcDbEntity
  8
0
  6
CONTINUOUS
 62
     7
100
AcDbPolyline
 90
        9
 70
     0
 43
0.0
 10
64.57873212023367
 20
85.0744391826517
 10
64.50641083863366
 20
85.0671454850517
 10
64.47012628023364
 20
85.0635848754517
 10
64.43376745303365
 20
85.0600833890517
 10
64.39734091543366
 20
85.05664226585171
 10
64.36085442423365
 20
85.05326279705171
 10
64.32431603383367
 20
85.04994629145171
 10
64.28773380183367
 20
85.0466940562517
 10
64.25111578263366
 20
85.04350739865172
  0
LWPOLYLINE
  5
8F0
330
1F
100
AcDbEntity
  8
0
  6
CONTINUOUS
 62
     7
100
AcDbPolyline
 90
       12
 70
     0
 43
0.0
 10
64.25111578263366
 20
85.04350739865172
 10
64.08249129143365
 20
85.02926554265171
 10
63.91502703863366
 20
85.01567721465169
 10
63.74871115863366
 20
85.0027512498517
 10
63.58353178103365
 20
84.99049648025168
 10
63.41947704183365
 20
84.97892173945169
 10
63.25653507223365
 20
84.96803585785171
 10
63.09469400663365
 20
84.95784767225169
 10
62.95315509463365
 20
84.9494639650517
 10
62.81248244183366
 20
84.9416287746517
 10
62.67269865943365
 20
84.93434329145172
 10
62.53382635863365
 20
84.9276087010517
  0
LWPOLYLINE
  5
8F1
330
1F
100
AcDbEntity
  8
0
  6
CONTINUOUS
 62
     7
100
AcDbPolyline
 90
       48
 70
     0
 43
0.0
 10
64.44937214103365
 20
84.98363334425169
 10
64.49734668823364
 20
84.9863497138517
 10
64.54545811063366
 20
84.98787553945168
 10
64.59360368183365
 20
84.9882012258517
 10
64.64174704983367
 20
84.9873233330517
 10
64.68987096183366
 20
84.98523916985169
 10
64.73794554583367
 20
84.98194696825169
 10
64.78594636823365
 20
84.97744553465171
 10
64.83384721303366
 20
84.97173452185169
 10
64.88162269943365
 20
84.96481424025171
 10
64.92924748343367
 20
84.9566856914517
 10
64.97669655383365
 20
84.94735051865168
 10
65.02394525943365
 20
84.9368109538517
 10
65.07096912503365
 20
84.92506983065169
 10
65.11774373303365
 20
84.91213059225172
 10
65.16424504183365
 20
84.89799717945169
 10
65.21044990583366
 20
84.88267382425169
 10
65.25633528023366
 20
84.86616523065169
 10
65.30187967703366
 20
84.84847599385171
 10
65.34706405623365
 20
84.8296100594517
 10
65.39186814103365
 20
84.80957217625169
 10
65.43627105623366
 20
84.78836753945172
 10
65.48025381623364
 20
84.76600066105168
 10
65.52379908823366
 20
84.74247521945171
 10
65.56688985943364
 20
84.71779459705169
 10
65.60951368663364
 20
84.69195919225169
 10
65.65165602103366
 20
84.6649701522517
 10
65.69331314903365
 20
84.63682085145169
 10
65.73451381463366
 20
84.60748127065171
 10
65.77526893623366
 20
84.57693627545168
 10
65.81551747063366
 20
84.54522669945168
 10
65.85524843223365
 20
84.51235834105171
 10
65.89391979863364
 20
84.4788086034517
 10
65.93053655383366
 20
84.44556320665171
 10
65.96500125943364
 20
84.41289966905172
 10
65.99761781783366
 20
84.38070752185168
 10
66.02855104983365
 20
84.3489749442517
 10
66.05795124183365
 20
84.31768135385169
 10
66.08593658103365
 20
84.28682012345168
 10
66.11260747863366
 20
84.25638851385171
 10
66.13804814743367
 20
84.22638868985169
 10
66.16233147543366
 20
84.1968246402517
 10
66.18551936983365
 20
84.16770420025171
 10
66.20767310583366
 20
84.13902751385169
 10
66.22883377143364
 20
84.11081358745169
 10
66.24906860823364
 20
84.08303969625169
 10
66.26841001623365
 20
84.05572354905169
 10
66.28678260823367
 20
84.02903758905171
  0
LINE
  5
8F2
330
1F
100
AcDbEntity
  8
0
  6
CONTINUOUS
 62
     7
100
AcDbLine
 10
62.53382635863365
 20
84.9276087010517
 30
0.0
 11
62.45573768183366
 21
84.92404600025171
 31
0.0
  0
LINE
  5
8F3
330
1F
100
AcDbEntity
  8
0
  6
CONTINUOUS
 62
     7
100
AcDbLine
 10
62.45573768183366
 20
84.92404600025171
 30
0.0
 11
62.37795156023366
 21
84.92065992025169
 31
0.0
  0
LWPOLYLINE
  5
8F4
330
1F
100
AcDbEntity
  8
0
  6
CONTINUOUS
 62
     7
100
AcDbPolyline
 90
       13
 70
     0
 43
0.0
 10
62.37795156023366
 20
84.92065992025169
 10
62.24916278583365
 20
84.91541620345172
 10
62.12124234743366
 20
84.9106633810517
 10
61.99420907703365
 20
84.9064024418517
 10
61.87571757783366
 20
84.90284857625169
 10
61.75802009783366
 20
84.89972597945168
 10
61.64111143543365
 20
84.89703113785171
 10
61.52498638743365
 20
84.89476053145171
 10
61.40963975383365
 20
84.8929106482517
 10
61.29506633143365
 20
84.8914779698517
 10
61.18126091863366
 20
84.89045898265169
 10
61.06821831543366
 20
84.88985016665171
 10
60.95593331863366
 20
84.8896480098517
  0
LWPOLYLINE
  5
8F5
330
1F
100
AcDbEntity
  8
0
  6
CONTINUOUS
 62
     7
100
AcDbPolyline
 90
       25
 70
     0
 43
0.0
 10
60.95593331863366
 20
86.0074821394517
 10
61.71907306103366
 20
86.01297047705172
 10
62.47575256823365
 20
86.02951989145172
 10
63.22849415223366
 20
86.05717451865169
 10
63.98042033463365
 20
86.09598155225169
 10
64.73568572823364
 20
86.1459911890517
 10
65.50069209783365
 20
86.20731097305171
 10
66.28535895063365
 20
86.2801795826517
 10
67.10507100823367
 20
86.3650549282517
 10
67.98977636183366
 20
86.4630791842517
 10
68.98724912983365
 20
86.57489865785169
 10
70.12488889623364
 20
86.6920722994517
 10
71.34626656823366
 20
86.7882699122517
 10
72.43421385303367
 20
86.83376827545169
 10
73.38262641303365
 20
86.8347445890517
 10
74.23445710903365
 20
86.8018602242517
 10
75.12344175383365
 20
86.73254593305172
 10
76.06331518903366
 20
86.61960468345171
 10
76.96501447543366
 20
86.4707479362517
 10
77.81509511703365
 20
86.29070061625171
 10
78.60483811703367
 20
86.0847370690517
 10
79.33119505783366
 20
85.8577018946517
 10
79.99443955863364
 20
85.61389817465169
 10
80.59736176823367
 20
85.35681583385169
 10
81.14352327703366
 20
85.08943538105169
  0
LWPOLYLINE
  5
8F7
330
1F
100
AcDbEntity
  8
0
  6
CONTINUOUS
 62
     7
100
AcDbPolyline
 90
       13
 70
     0
 43
0.0
 10
60.95593331863366
 20
84.8896480098517
 10
60.84363885143366
 20
84.88985019865168
 10
60.73058746263366
 20
84.8904591026517
 10
60.61677392023366
 20
84.8914782370517
 10
60.50219298903365
 20
84.8929111090517
 10
60.38683943703365
 20
84.89476123065172
 10
60.27070803063365
 20
84.89703211385171
 10
60.15379353463366
 20
84.8997272706517
 10
60.03609071703365
 20
84.90285021145169
 10
59.91759434583365
 20
84.90640444505169
 10
59.79058106743366
 20
84.91066492505169
 10
59.66268156663366
 20
84.9154171058517
 10
59.53391477623365
 20
84.9206599810517
  0
LWPOLYLINE
  5
8FA
330
1F
100
AcDbEntity
  8
0
  6
CONTINUOUS
 62
     7
100
AcDbPolyline
 90
       25
 70
     0
 43
0.0
 10
60.95593331863366
 20
86.0074821426517
 10
60.19279357623366
 20
86.01297047705172
 10
59.43611406903365
 20
86.02951989145172
 10
58.68337248503365
 20
86.05717451865169
 10
57.93144630263365
 20
86.09598155225169
 10
57.17618090903365
 20
86.1459911890517
 10
56.41117453943365
 20
86.20731097305171
 10
55.62650768663365
 20
86.2801795826517
 10
54.80679562903365
 20
86.3650549282517
 10
53.92209027543366
 20
86.4630791842517
 10
52.92461750743366
 20
86.57489865785169
 10
51.78697774103365
 20
86.6920722994517
 10
50.56560006903366
 20
86.7882699122517
 10
49.47765278423366
 20
86.83376827545169
 10
48.52924022423366
 20
86.8347445890517
 10
47.67740952823365
 20
86.8018602242517
 10
46.78842488343366
 20
86.73254593305172
 10
45.84855144823365
 20
86.61960468345171
 10
44.94685216183365
 20
86.4707479362517
 10
44.09677152023365
 20
86.29070061625171
 10
43.30702852023365
 20
86.0847370690517
 10
42.58067157943366
 20
85.8577018946517
 10
41.91742707863365
 20
85.61389817465169
 10
41.31450486903365
 20
85.35681583385169
 10
40.76834336023366
 20
85.08943538105169
  0
LINE
  5
8FB
330
1F
100
AcDbEntity
  8
0
  6
CONTINUOUS
 62
     7
100
AcDbLine
 10
59.53391477623365
 20
84.9206599810517
 30
0.0
 11
59.45612886103365
 21
84.92404605785171
 31
0.0
  0
LINE
  5
8FC
330
1F
100
AcDbEntity
  8
0
  6
CONTINUOUS
 62
     7
100
AcDbLine
 10
59.45612886103365
 20
84.92404605785171
 30
0.0
 11
59.37804072503364
 21
84.9276087378517
 31
0.0
  0
LWPOLYLINE
  5
8FD
330
1F
100
AcDbEntity
  8
0
  6
CONTINUOUS
 62
     7
100
AcDbPolyline
 90
       12
 70
     0
 43
0.0
 10
59.37804072503364
 20
84.9276087378517
 10
59.23914770583365
 20
84.93434436505168
 10
59.09934417463365
 20
84.9416309746517
 10
58.95865288823365
 20
84.9494673602517
 10
58.81709660503366
 20
84.9578523090517
 10
58.65526056503365
 20
84.96804044505172
 10
58.49232568343365
 20
84.97892609465171
 10
58.32828002263365
 20
84.99050041145171
 10
58.16311164503366
 20
85.00275454905169
 10
57.99680861623365
 20
85.0156796578517
 10
57.82935899863366
 20
85.02926688985169
 10
57.66075085463366
 20
85.04350739865172
  0
LWPOLYLINE
  5
8FE
330
1F
100
AcDbEntity
  8
0
  6
CONTINUOUS
 62
     7
100
AcDbPolyline
 90
       48
 70
     0
 43
0.0
 10
57.46249449623365
 20
84.98363334425169
 10
57.41451994903365
 20
84.9863497138517
 10
57.36640852663366
 20
84.98787553945168
 10
57.31826295543366
 20
84.9882012258517
 10
57.27011958743366
 20
84.9873233330517
 10
57.22199567543365
 20
84.98523916985169
 10
57.17392109143366
 20
84.98194696825169
 10
57.12592026903365
 20
84.97744553465171
 10
57.07801942423365
 20
84.97173452185169
 10
57.03024393783366
 20
84.96481424025171
 10
56.98261915383366
 20
84.9566856914517
 10
56.93517008343365
 20
84.94735051865168
 10
56.88792137783366
 20
84.9368109538517
 10
56.84089751223366
 20
84.92506983065169
 10
56.79412290423365
 20
84.91213059225172
 10
56.74762159543365
 20
84.89799717945169
 10
56.70141673143366
 20
84.88267382425169
 10
56.65553135703365
 20
84.86616523065169
 10
56.60998696023366
 20
84.84847599385171
 10
56.56480258103365
 20
84.8296100594517
 10
56.51999849623366
 20
84.80957217625169
 10
56.47559558103365
 20
84.78836753945172
 10
56.43161282103366
 20
84.76600066105168
 10
56.38806754903366
 20
84.74247521945171
 10
56.34497677783365
 20
84.71779459705169
 10
56.30235295063365
 20
84.69195919225169
 10
56.26021061623365
 20
84.6649701522517
 10
56.21855348823366
 20
84.63682085145169
 10
56.17735282263366
 20
84.60748127065171
 10
56.13659770103366
 20
84.57693627545168
 10
56.09634916663365
 20
84.54522669945168
 10
56.05661820503365
 20
84.51235834105171
 10
56.01794683863365
 20
84.4788086034517
 10
55.98133008343365
 20
84.44556320665171
 10
55.94686537783365
 20
84.41289966905172
 10
55.91424881943366
 20
84.38070752185168
 10
55.88331558743365
 20
84.3489749442517
 10
55.85391539543365
 20
84.31768135385169
 10
55.82593005623365
 20
84.28682012345168
 10
55.79925915863365
 20
84.25638851385171
 10
55.77381848983365
 20
84.22638868985169
 10
55.74953516183366
 20
84.1968246402517
 10
55.72634726743366
 20
84.16770420025171
 10
55.70419353143365
 20
84.13902751385169
 10
55.68303286583366
 20
84.11081358745169
 10
55.66279802903366
 20
84.08303969625169
 10
55.64345662103366
 20
84.05572354905169
 10
55.62508402903365
 20
84.02903758905171
  0
LWPOLYLINE
  5
900
330
1F
100
AcDbEntity
  8
0
  6
CONTINUOUS
 62
     7
100
AcDbPolyline
 90
        8
 70
     0
 43
0.0
 10
57.66075085463366
 20
85.04350739865172
 10
57.62413965463366
 20
85.04669345625169
 10
57.58756386423365
 20
85.04994510105168
 10
57.55103156183366
 20
85.0532610242517
 10
57.51455082103365
 20
85.05663991865171
 10
57.47812972023366
 20
85.0600804770517
 10
57.44177601783365
 20
85.0635814082517
 10
57.40549621783365
 20
85.06714148025171
  0
LINE
  5
901
330
1F
100
AcDbEntity
  8
0
  6
CONTINUOUS
 62
     7
100
AcDbLine
 10
57.40549621783365
 20
85.06714148025171
 30
0.0
 11
57.33318307063366
 21
85.07443419865168
 31
0.0
  0
LINE
  5
902
330
1F
100
AcDbEntity
  8
0
  6
CONTINUOUS
 62
     7
100
AcDbLine
 10
57.33318307063366
 20
85.07443419865168
 30
0.0
 11
57.26124039063365
 21
85.0819488354517
 31
0.0
  0
LINE
  5
903
330
1F
100
AcDbEntity
  8
0
  6
CONTINUOUS
 62
     7
100
AcDbLine
 10
57.26124039063365
 20
85.0819488354517
 30
0.0
 11
57.18973248503365
 21
85.08967364025171
 31
0.0
  0
LINE
  5
904
330
1F
100
AcDbEntity
  8
0
  6
CONTINUOUS
 62
     7
100
AcDbLine
 10
57.18973248503365
 20
85.08967364025171
 30
0.0
 11
57.11873786583366
 21
85.09759490745171
 31
0.0
  0
LINE
  5
905
330
1F
100
AcDbEntity
  8
0
  6
CONTINUOUS
 62
     7
100
AcDbLine
 10
57.11873786583366
 20
85.09759490745171
 30
0.0
 11
57.04832983063365
 21
85.10569937145168
 31
0.0
  0
LWPOLYLINE
  5
906
330
1F
100
AcDbEntity
  8
0
  6
CONTINUOUS
 62
     7
100
AcDbPolyline
 90
       49
 70
     0
 43
0.0
 10
55.80527969943366
 20
85.2825103154517
 10
53.38250922583365
 20
85.58043147225168
 10
52.98938408823365
 20
85.62500948025169
 10
52.59582668663365
 20
85.6678848418517
 10
52.20157240503365
 20
85.70859204665168
 10
51.80541834583365
 20
85.74672225145169
 10
51.53945763223365
 20
85.77051572505169
 10
51.27103149623366
 20
85.79287095865169
 10
50.99915773303366
 20
85.81367046105169
 10
50.79233158903366
 20
85.8281679858517
 10
50.58219454263365
 20
85.84161192665169
 10
50.36792746903365
 20
85.85388988185171
 10
50.14871124823366
 20
85.86488945625168
 10
49.92407338263365
 20
85.87447629625168
 10
49.69492789303366
 20
85.8824282226517
 10
49.46212652663366
 20
85.88850086585171
 10
49.22488546423366
 20
85.89244892505169
 10
48.98258044343365
 20
85.8940499826517
 10
48.73686102903366
 20
85.8931741218517
 10
48.48994523863366
 20
85.88971453945168
 10
48.24405109303365
 20
85.88356443705169
 10
48.00091084823365
 20
85.8746407554517
 10
47.76031370263366
 20
85.8629553826517
 10
47.52207910263366
 20
85.84857609465169
 10
47.28809052983366
 20
85.83169927385171
 10
47.06005467863366
 20
85.81251181465171
 10
46.83690706743365
 20
85.7910340610517
 10
46.61718869143366
 20
85.76726092345168
 10
46.40063364343365
 20
85.74125210425169
 10
46.11676896343364
 20
85.70320250745169
 10
45.83805446903365
 20
85.66134543705169
 10
45.56395911383365
 20
85.6157130258517
 10
45.29413974583365
 20
85.56636806265169
 10
45.02900483863366
 20
85.5134959458517
 10
44.76915076023365
 20
85.4573127314517
 10
44.51508477303366
 20
85.39802689785171
 10
44.26695768023365
 20
85.33581663385168
 10
44.02483116983365
 20
85.27085255225172
 10
43.78875481783365
 20
85.20330103385168
 10
43.55872973783365
 20
85.13331152025171
 10
43.33474492663365
 20
85.06102922425171
 10
43.11677604823365
 20
84.98659411705171
 10
42.90474541143366
 20
84.91012522745169
 10
42.69856199383365
 20
84.8317363474517
 10
42.49814224343365
 20
84.75154320345168
 10
42.30343249303365
 20
84.6696692530517
 10
42.11438655063366
 20
84.5862398930517
 10
41.98646027543365
 20
84.5274758850517
 10
41.86119432503366
 20
84.46804799385171
  0
LINE
  5
908
330
1F
100
AcDbEntity
  8
0
  6
CONTINUOUS
 62
     7
100
AcDbLine
 10
57.04832983063365
 20
85.10569937145168
 30
0.0
 11
56.97855836343365
 21
85.1139758674517
 31
0.0
  0
LINE
  5
90A
330
1F
100
AcDbEntity
  8
0
  6
CONTINUOUS
 62
     7
100
AcDbLine
 10
56.97855836343365
 20
85.1139758674517
 30
0.0
 11
56.90946785623365
 21
85.12241372665171
 31
0.0
  0
LINE
  5
90C
330
1F
100
AcDbEntity
  8
0
  6
CONTINUOUS
 62
     7
100
AcDbLine
 10
56.90946785623365
 20
85.12241372665171
 30
0.0
 11
56.84110809143366
 21
85.13100153945169
 31
0.0
  0
LINE
  5
90F
330
1F
100
AcDbEntity
  8
0
  6
CONTINUOUS
 62
     7
100
AcDbLine
 10
56.84110809143366
 20
85.13100153945169
 30
0.0
 11
56.77353424823365
 21
85.1397271602517
 31
0.0
  0
LINE
  5
910
330
1F
100
AcDbEntity
  8
0
  6
CONTINUOUS
 62
     7
100
AcDbLine
 10
56.77353423543365
 20
85.13972704025169
 30
0.0
 11
56.64796232183365
 21
85.15611952025171
 31
0.0
  0
LINE
  5
912
330
1F
100
AcDbEntity
  8
0
  6
CONTINUOUS
 62
     7
100
AcDbLine
 10
56.64796232183365
 20
85.15611952025171
 30
0.0
 11
56.58468795543366
 21
85.1645082162517
 31
0.0
  0
LINE
  5
914
330
1F
100
AcDbEntity
  8
0
  6
CONTINUOUS
 62
     7
100
AcDbLine
 10
56.58468795543366
 20
85.1645082162517
 30
0.0
 11
56.54233311063365
 21
85.17024005785168
 31
0.0
  0
LINE
  5
916
330
1F
100
AcDbEntity
  8
0
  6
CONTINUOUS
 62
     7
100
AcDbLine
 10
56.54233311063365
 20
85.17024005785168
 30
0.0
 11
56.50369683383365
 21
85.1755766482517
 31
0.0
  0
LINE
  5
919
330
1F
100
AcDbEntity
  8
0
  6
CONTINUOUS
 62
     7
100
AcDbLine
 10
56.50369683383365
 20
85.1755766482517
 30
0.0
 11
56.46881829623366
 21
85.1804979906517
 31
0.0
  0
LINE
  5
91B
330
1F
100
AcDbEntity
  8
0
  6
CONTINUOUS
 62
     7
100
AcDbLine
 10
56.46881829623366
 20
85.1804979906517
 30
0.0
 11
56.43591528823365
 21
85.18524129465168
 31
0.0
  0
LINE
  5
91C
330
1F
100
AcDbEntity
  8
0
  6
CONTINUOUS
 62
     7
100
AcDbLine
 10
55.87377213943366
 20
85.2725074386517
 30
0.0
 11
55.80527969943366
 21
85.2825103154517
 31
0.0
  0
LINE
  5
91D
330
1F
100
AcDbEntity
  8
0
  6
CONTINUOUS
 62
     7
100
AcDbLine
 10
55.94139756663366
 20
85.26245661305171
 30
0.0
 11
55.87377213943366
 21
85.2725074386517
 31
0.0
  0
LINE
  5
91E
330
1F
100
AcDbEntity
  8
0
  6
CONTINUOUS
 62
     7
100
AcDbLine
 10
56.43591528823365
 20
85.18524129465168
 30
0.0
 11
56.39317086743366
 21
85.19156343865171
 31
0.0
  0
LINE
  5
91F
330
1F
100
AcDbEntity
  8
0
  6
CONTINUOUS
 62
     7
100
AcDbLine
 10
56.00814178103365
 20
85.25236012185169
 30
0.0
 11
55.94139756663366
 21
85.26245661305171
 31
0.0
  0
LINE
  5
920
330
1F
100
AcDbEntity
  8
0
  6
CONTINUOUS
 62
     7
100
AcDbLine
 10
56.39317086743366
 20
85.19156343865171
 30
0.0
 11
56.36462615383366
 21
85.1958919362517
 31
0.0
  0
LINE
  5
921
330
1F
100
AcDbEntity
  8
0
  6
CONTINUOUS
 62
     7
100
AcDbLine
 10
56.07391488343365
 20
85.24223139865171
 30
0.0
 11
56.00814178103365
 21
85.25236012185169
 31
0.0
  0
LINE
  5
922
330
1F
100
AcDbEntity
  8
0
  6
CONTINUOUS
 62
     7
100
AcDbLine
 10
56.36462615383366
 20
85.1958919362517
 30
0.0
 11
56.33604525463365
 21
85.2003154018517
 31
0.0
  0
LINE
  5
923
330
1F
100
AcDbEntity
  8
0
  6
CONTINUOUS
 62
     7
100
AcDbLine
 10
56.13860952983365
 20
85.23208644825169
 30
0.0
 11
56.07391488343365
 21
85.24223139865171
 31
0.0
  0
LINE
  5
924
330
1F
100
AcDbEntity
  8
0
  6
CONTINUOUS
 62
     7
100
AcDbLine
 10
56.33604525463365
 20
85.2003154018517
 30
0.0
 11
56.30743673143366
 21
85.20483440185172
 31
0.0
  0
LINE
  5
925
330
1F
100
AcDbEntity
  8
0
  6
CONTINUOUS
 62
     7
100
AcDbLine
 10
56.20215251863366
 20
85.22193630425169
 30
0.0
 11
56.13860952983365
 21
85.23208644825169
 31
0.0
  0
LWPOLYLINE
  5
926
330
1F
100
AcDbEntity
  8
0
  6
CONTINUOUS
 62
     7
100
AcDbPolyline
 90
        3
 70
     0
 43
0.0
 10
56.30743673143366
 20
85.20483440185172
 10
56.27881546423365
 20
85.20944666745169
 10
56.20215251863366
 20
85.22193630425169
  0
LWPOLYLINE
  5
928
330
1F
100
AcDbEntity
  8
0
  6
CONTINUOUS
 62
     7
100
AcDbPolyline
 90
        4
 70
     0
 43
0.0
 10
66.28678260823367
 20
84.02903758905171
 10
66.36670671543365
 20
83.9060408354517
 10
66.43795886263365
 20
83.77787208665171
 10
66.50019823543366
 20
83.64514413145171
  0
LWPOLYLINE
  5
929
330
1F
100
AcDbEntity
  8
0
  6
CONTINUOUS
 62
     7
100
AcDbPolyline
 90
       11
 70
     0
 43
0.0
 10
66.73914189783366
 20
83.0502550130517
 10
66.74358782743365
 20
83.0416788482517
 10
66.74873705943366
 20
83.0313272818517
 10
66.75417023063366
 20
83.0197139874517
 10
66.75968118263364
 20
83.00699599865168
 10
66.76506815223365
 20
82.9933946466517
 10
66.77000100983367
 20
82.97963674265171
 10
66.77427041783366
 20
82.96644184825169
 10
66.77794320023366
 20
82.9538983106517
 10
66.78099440023365
 20
82.94250501625169
 10
66.78340423863367
 20
82.9329204418517
  0
LWPOLYLINE
  5
92A
330
1F
100
AcDbEntity
  8
0
  6
CONTINUOUS
 62
     7
100
AcDbPolyline
 90
       19
 70
     0
 43
0.0
 10
66.72874763703365
 20
85.36446180345169
 10
66.73728472823365
 20
85.34423303705171
 10
66.74743837303364
 20
85.3095987890517
 10
66.75913839703366
 20
85.2607984242517
 10
66.77230393943367
 20
85.19816921465169
 10
66.78684400983366
 20
85.1221440066517
 10
66.80265811863364
 20
85.0332482274517
 10
66.81963697303365
 20
84.93209625785169
 10
66.83766322743366
 20
84.81938717945169
 10
66.85661230103367
 20
84.69589995065168
 10
66.87635323063367
 20
84.5624880098517
 10
66.89674958903364
 20
84.4200733890517
 10
66.91766040983364
 20
84.26964033305171
 10
66.93894118103367
 20
84.1122285026517
 10
66.96044482583366
 20
83.94892578585171
 10
66.98202273303365
 20
83.78086077625169
 10
67.00352577783366
 20
83.6091949826517
 10
67.02480534903367
 20
83.43511479385171
 10
67.04571438583366
 20
83.25982328665171
  0
LWPOLYLINE
  5
92B
330
1F
100
AcDbEntity
  8
0
  6
CONTINUOUS
 62
     7
100
AcDbPolyline
 90
        3
 70
     0
 43
0.0
 10
66.50019817783365
 20
83.64513795225169
 10
66.62034563383366
 20
83.35378576665169
 10
66.73914209783365
 20
83.0502550882517
  0
LWPOLYLINE
  5
92C
330
1F
100
AcDbEntity
  8
0
  6
CONTINUOUS
 62
     7
100
AcDbPolyline
 90
       11
 70
     0
 43
0.0
 10
67.04571235063366
 20
83.25982304505169
 10
67.30933216023365
 20
82.53394990905169
 10
67.56017425943366
 20
81.74846686265169
 10
67.79503397463367
 20
80.90234661145169
 10
68.00949769783366
 20
79.9992669794517
 10
68.19891775063365
 20
79.04622841945169
 10
68.35953698743364
 20
78.04898325945169
 10
68.48852567703366
 20
77.01088095225171
 10
68.58312771863364
 20
75.9385957154517
 10
68.64063642583366
 20
74.84724487545171
 10
68.65974109623365
 20
73.75048206585171
  0
LWPOLYLINE
  5
92D
330
1F
100
AcDbEntity
  8
0
  6
CONTINUOUS
 62
     7
100
AcDbPolyline
 90
       11
 70
     0
 43
0.0
 10
66.78340449303366
 20
82.93292053625169
 10
67.03203502263367
 20
82.22530969465172
 10
67.26873027063366
 20
81.4599034050517
 10
67.48963801623367
 20
80.6387109762517
 10
67.69088454743365
 20
79.7649779202517
 10
67.86863261783366
 20
78.84333142265169
 10
68.01931227543366
 20
77.87910610585169
 10
68.13991937783365
 20
76.87844935865169
 10
68.22799004183366
 20
75.8495030690517
 10
68.28151433303367
 20
74.8031679682517
 10
68.29931927543364
 20
73.75048206585171
  0
LWPOLYLINE
  5
92E
330
1F
100
AcDbEntity
  8
0
  6
CONTINUOUS
 62
     7
100
AcDbPolyline
 90
       11
 70
     0
 43
0.0
 10
68.65974109623365
 20
73.75048206585171
 10
68.64063642263366
 20
72.65371917945171
 10
68.58312772343365
 20
71.5623684818517
 10
68.48852569943367
 20
70.49008339545171
 10
68.35953703703364
 20
69.45198122265171
 10
68.19891783703366
 20
68.45473618585169
 10
68.00949782423365
 20
67.50169773465171
 10
67.79503414743365
 20
66.5986181906517
 10
67.56017448183365
 20
65.7524980114517
 10
67.30933243383365
 20
64.96701502425171
 10
67.04571236823366
 20
64.24114108505171
  0
LWPOLYLINE
  5
92F
330
1F
100
AcDbEntity
  8
0
  6
CONTINUOUS
 62
     7
100
AcDbPolyline
 90
       11
 70
     0
 43
0.0
 10
68.29931927543364
 20
73.75048206585171
 10
68.27736221303365
 20
72.5822219634517
 10
68.21151547223365
 20
71.42313684345168
 10
68.10356603863366
 20
70.28840810425169
 10
67.95650035703366
 20
69.19232775385172
 10
67.77390889303365
 20
68.1446363778517
 10
67.56032020983366
 20
67.1530306914517
 10
67.32089826103365
 20
66.22445157785171
 10
67.06093081623365
 20
65.36382352185171
 10
66.78570299863366
 20
64.5742025026517
 10
66.50019817783365
 20
63.8558261762517
  0
LWPOLYLINE
  5
930
330
1F
100
AcDbEntity
  8
0
  6
CONTINUOUS
 62
     7
100
AcDbPolyline
 90
       18
 70
     0
 43
0.0
 10
59.76843331863366
 20
58.10820906425171
 10
59.77360331223366
 20
58.11785669625169
 10
59.78897934903366
 20
58.1273800146517
 10
59.81428035703366
 20
58.13669341465169
 10
59.84917422583365
 20
58.1457267730517
 10
59.89319650583365
 20
58.1543983842517
 10
59.94602753303365
 20
58.16266798905171
 10
60.00719723863365
 20
58.17047105785171
 10
60.07643979863365
 20
58.17777189145171
 10
60.15313005783365
 20
58.1844976130517
 10
60.23694431543365
 20
58.1906094434517
 10
60.32706269463366
 20
58.1960358082517
 10
60.42301381783365
 20
58.2007365122517
 10
60.52373664983366
 20
58.2046490626517
 10
60.62853833463365
 20
58.2077388082517
 10
60.73615123383365
 20
58.20996398425169
 10
60.84570308503366
 20
58.2113064594517
 10
60.95593331863366
 20
58.2117537490517
  0
LWPOLYLINE
  5
933
330
1F
100
AcDbEntity
  8
0
  6
CONTINUOUS
 62
     7
100
AcDbPolyline
 90
       19
 70
     0
 43
0.0
 10
66.72875058423366
 20
62.1365279074517
 10
66.73728773303366
 20
62.1567562114517
 10
66.74744138423367
 20
62.1913897490517
 10
66.75914136503365
 20
62.24018916985169
 10
66.77230681623365
 20
62.3028172194517
 10
66.78684675543365
 20
62.3788410722517
 10
66.80266069463366
 20
62.46773532825169
 10
66.81963934743365
 20
62.5688856354517
 10
66.83766537303364
 20
62.6815929442517
 10
66.85661419543365
 20
62.8050783282517
 10
66.87635485943366
 20
62.9384883794517
 10
66.89675093943364
 20
63.0809010994517
 10
66.91766147863365
 20
63.2313322674517
 10
66.93894196663364
 20
63.38874225305169
 10
66.96044533303364
 20
63.55204319065169
 10
66.98202296983365
 20
63.7201065042517
 10
67.00352575703366
 20
63.8917707058517
 10
67.02480508823365
 20
64.06584942105169
 10
67.04571390423365
 20
64.2411395842517
  0
LWPOLYLINE
  5
934
330
1F
100
AcDbEntity
  8
0
  6
CONTINUOUS
 62
     7
100
AcDbPolyline
 90
       18
 70
     0
 43
0.0
 10
62.14343331863366
 20
58.10820906425171
 10
62.13854386583366
 20
58.0988270418517
 10
62.12372920503366
 20
58.0894346738517
 10
62.09893892983366
 20
58.0801466514517
 10
62.06427350903366
 20
58.0710595250517
 10
62.02009756983366
 20
58.06228821785169
 10
61.96673084663366
 20
58.0539012866517
 10
61.90475422423364
 20
58.04599012825169
 10
61.83456187543366
 20
58.0386049058517
 10
61.75692031863365
 20
58.03182591225169
 10
61.67229944503365
 20
58.0256942066517
 10
61.58165516343366
 20
58.02027875545171
 10
61.48552128983364
 20
58.0156111490517
 10
61.38492587703366
 20
58.0117418690517
 10
61.28051873303365
 20
58.0086963842517
 10
61.17356814103366
 20
58.0065101554517
 10
61.06493969463365
 20
58.0051954018517
 10
60.95593331863366
 20
58.00475885945171
  0
LWPOLYLINE
  5
935
330
1F
100
AcDbEntity
  8
0
  6
CONTINUOUS
 62
     7
100
AcDbPolyline
 90
        3
 70
     0
 43
0.0
 10
53.90194849783365
 20
58.18957961145169
 10
53.90496907063366
 20
58.1926768738517
 10
53.90529584183365
 20
58.19346614265169
  0
LWPOLYLINE
  5
93C
330
1F
100
AcDbEntity
  8
0
  6
CONTINUOUS
 62
     7
100
AcDbPolyline
 90
        3
 70
     0
 43
0.0
 10
53.90194849783365
 20
58.18957961145169
 10
53.89532534903366
 20
58.1848025570517
 10
53.88897063063366
 20
58.1799982738517
  0
LWPOLYLINE
  5
93D
330
1F
100
AcDbEntity
  8
0
  6
CONTINUOUS
 62
     7
100
AcDbPolyline
 90
       12
 70
     0
 43
0.0
 10
73.96698368023365
 20
92.08228329465171
 10
74.86489711863365
 20
91.19687061145171
 10
75.70660384823367
 20
90.37340194105169
 10
76.48969672023366
 20
89.61265214425171
 10
77.21313562743365
 20
88.91396870105168
 10
77.87457734423364
 20
88.2784777042517
 10
78.49734653303366
 20
87.6823054226517
 10
79.09182469463366
 20
87.11230408345171
 10
79.65462108023365
 20
86.5688809666517
 10
80.18353535223367
 20
86.0520437602517
 10
80.67765632503366
 20
85.56144937145168
 10
81.14352327703366
 20
85.08943538105169
  0
LINE
  5
93E
330
1F
100
AcDbEntity
  8
0
  6
CONTINUOUS
 62
     7
100
AcDbLine
 10
85.83051368023365
 20
76.22854552505168
 30
0.0
 11
85.82997674583365
 21
76.2294192466517
 31
0.0
  0
LWPOLYLINE
  5
944
330
1F
100
AcDbEntity
  8
0
  6
CONTINUOUS
 62
     7
100
AcDbPolyline
 90
       10
 70
     0
 43
0.0
 10
65.42985431703366
 20
62.7565395266517
 10
65.58517180183367
 20
62.8358436242517
 10
65.73351610263364
 20
62.92756048185171
 10
65.87388525623365
 20
63.03107104185169
 10
66.00533369623367
 20
63.1456780258517
 10
66.12697594903366
 20
63.2706094082517
 10
66.23799259863367
 20
63.4050236178517
 10
66.33763580343364
 20
63.5480152018517
 10
66.42523434103364
 20
63.69862092825171
 10
66.50019812023365
 20
63.85582627225169
  0
LWPOLYLINE
  5
945
330
1F
100
AcDbEntity
  8
0
  6
CONTINUOUS
 62
     7
100
AcDbPolyline
 90
       23
 70
     0
 43
0.0
 10
65.42984717783366
 20
62.75653500665169
 10
65.38389242423367
 20
62.7350139106517
 10
65.33728493623366
 20
62.7145000210517
 10
65.29031787223366
 20
62.6951338882517
 10
65.24307016663366
 20
62.6769456354517
 10
65.19556368183365
 20
62.6599393186517
 10
65.14782312183365
 20
62.6441192130517
 10
65.09987297303365
 20
62.6294886130517
 10
65.05173878263367
 20
62.6160504018517
 10
65.00344692343364
 20
62.6038068594517
 10
64.95502486583365
 20
62.59275964185171
 10
64.90650115703366
 20
62.58290963705171
 10
64.85790548663366
 20
62.5742568562517
 10
64.80926872983366
 20
62.56680029625171
 10
64.76062296983366
 20
62.5605378002517
 10
64.71200146263365
 20
62.55546589785169
 10
64.66343877143365
 20
62.55157966105169
 10
64.61497014423366
 20
62.5488725090517
 10
64.56663324023364
 20
62.5473361410517
 10
64.51846252183367
 20
62.5469602370517
 10
64.47050328823365
 20
62.54773243225169
 10
64.42278399703366
 20
62.5496384114517
 10
64.37530112823364
 20
62.55266490585171
  0
LWPOLYLINE
  5
946
330
1F
100
AcDbEntity
  8
0
  6
CONTINUOUS
 62
     7
100
AcDbPolyline
 90
       25
 70
     0
 43
0.0
 10
60.95593331863366
 20
101.7020716770517
 10
60.54192422263366
 20
101.6924787410516
 10
60.12209723863365
 20
101.6628677442517
 10
59.70328069623366
 20
101.6121808930517
 10
59.29222592503365
 20
101.5402641394516
 10
58.89403894583365
 20
101.4478094386517
 10
58.50254281463365
 20
101.3334680690517
 10
58.12094770743365
 20
101.1986426178516
 10
57.75468948343366
 20
101.0462166274517
 10
57.39755652183365
 20
100.8749856194517
 10
57.04779208503365
 20
100.6849320306517
 10
56.69488363543366
 20
100.4704712930517
 10
56.33204716983365
 20
100.2264957554517
 10
55.95157223703365
 20
99.94583145465171
 10
55.54449756823366
 20
99.6186736466517
 10
55.09527443863365
 20
99.22797251705171
 10
54.59472415863366
 20
98.76220348185171
 10
54.03959157943365
 20
98.21982760665171
 10
53.42415782263365
 20
97.60348300665171
 10
52.73605987543366
 20
96.90952274265171
 10
51.96474781143366
 20
96.1290169026517
 10
51.10025953303366
 20
95.25217902745172
 10
50.12998166423366
 20
94.26971477305171
 10
49.02950868983365
 20
93.16233596345171
 10
47.94488295703366
 20
92.08228329465171
  0
LWPOLYLINE
  5
947
330
1F
100
AcDbEntity
  8
0
  6
CONTINUOUS
 62
     7
100
AcDbPolyline
 90
       25
 70
     0
 43
0.0
 10
60.95593331863366
 20
101.7020716738517
 10
61.36994241463366
 20
101.6924787410516
 10
61.78976939863366
 20
101.6628677442517
 10
62.20858594103365
 20
101.6121808930517
 10
62.61964071223365
 20
101.5402641394516
 10
63.01782769143366
 20
101.4478094386517
 10
63.40932382263366
 20
101.3334680690517
 10
63.79091892983366
 20
101.1986426178516
 10
64.15717715383365
 20
101.0462166274517
 10
64.51431011543366
 20
100.8749856194517
 10
64.86407455223366
 20
100.6849320306517
 10
65.21698300183365
 20
100.4704712930517
 10
65.57981946743365
 20
100.2264957554517
 10
65.96029440023366
 20
99.94583145465171
 10
66.36736906903365
 20
99.6186736466517
 10
66.81659219863366
 20
99.22797251705171
 10
67.31714247863365
 20
98.76220348185171
 10
67.87227505783366
 20
98.21982760665171
 10
68.48770881463366
 20
97.60348300665171
 10
69.17580676183366
 20
96.90952274265171
 10
69.94711882583366
 20
96.1290169026517
 10
70.81160710423365
 20
95.25217902745172
 10
71.78188497303366
 20
94.26971477305171
 10
72.88235794743366
 20
93.16233596345171
 10
73.96698368023365
 20
92.08228329465171
  0
LWPOLYLINE
  5
948
330
1F
100
AcDbEntity
  8
0
  6
CONTINUOUS
 62
     7
100
AcDbPolyline
 90
       31
 70
     0
 43
0.0
 10
79.02238263383364
 20
92.85775654585171
 10
79.29681805143366
 20
92.61454731225171
 10
79.58738064503364
 20
92.35769681785171
 10
79.89749680503365
 20
92.0844852434517
 10
80.23028809943367
 20
91.79252330585171
 10
80.59088628503365
 20
91.47761934265171
 10
80.98588731863364
 20
91.13439284825171
 10
81.41705545623366
 20
90.76162812665172
 10
81.89147496823366
 20
90.35341560505171
 10
82.42870535863366
 20
89.89292284665168
 10
83.03066937783365
 20
89.3778813410517
 10
83.63498011383365
 20
88.86011246585169
 10
84.17066714263365
 20
88.3987554034517
 10
84.64176051383365
 20
87.9896515922517
 10
85.06548528503364
 20
87.6194833570517
 10
85.47276632503367
 20
87.2630250434517
 10
85.84687084663366
 20
86.93385276185171
 10
86.18909235223364
 20
86.63018658105171
 10
86.50445368503367
 20
86.3472804514517
 10
86.79521463863366
 20
86.08295898905168
 10
87.06381441783367
 20
85.83497955065169
 10
87.31479360983366
 20
85.59925345305169
 10
87.55133566103365
 20
85.3729176962517
 10
87.77616607703365
 20
85.15350045465169
 10
87.99028916343365
 20
84.94011945465169
 10
88.19298529783365
 20
84.73357199385171
 10
88.38636760023366
 20
84.53183646905172
 10
88.57136661303366
 20
84.33404569465171
 10
88.74736175863365
 20
84.14091996505169
 10
88.91294730423366
 20
83.95421382105169
 10
89.06680866263366
 20
83.77586838425171
  0
LWPOLYLINE
  5
949
330
1F
100
AcDbEntity
  8
0
  6
CONTINUOUS
 62
     7
100
AcDbPolyline
 90
        8
 70
     0
 43
0.0
 10
77.12920298903364
 20
94.5994325826517
 10
77.38550583863366
 20
94.3549764338517
 10
77.63854306583366
 20
94.1165783442517
 10
77.88866613463366
 20
93.8838431074517
 10
78.14984145943364
 20
93.64387770265171
 10
78.43415097303367
 20
93.38525484025172
 10
78.72651813143367
 20
93.12179178745171
 10
79.02238577783364
 20
92.8577594818517
  0
LINE
  5
94A
330
1F
100
AcDbEntity
  8
0
  6
CONTINUOUS
 62
     7
100
AcDbLine
 10
76.86397729463365
 20
94.8554943266517
 30
0.0
 11
77.12920298903364
 21
94.5994325826517
 31
0.0
  0
LWPOLYLINE
  5
94B
330
1F
100
AcDbEntity
  8
0
  6
CONTINUOUS
 62
     7
100
AcDbPolyline
 90
       16
 70
     0
 43
0.0
 10
75.18738275063364
 20
96.56645007385172
 10
75.24203836183366
 20
96.5083647138517
 10
75.30155551863365
 20
96.4452665538517
 10
75.36613620983366
 20
96.37698530105172
 10
75.43619596663365
 20
96.30313346585172
 10
75.51225024023366
 20
96.22323037945172
 10
75.59486527383365
 20
96.1367573650517
 10
75.68506686103365
 20
96.04273625145172
 10
75.78425408983367
 20
95.93983333785169
 10
75.89384886583366
 20
95.82673626905171
 10
76.01543805143364
 20
95.70201958745171
 10
76.15101995063366
 20
95.5639132210517
 10
76.29913258103366
 20
95.4142327490517
 10
76.46318874743366
 20
95.2499339698517
 10
76.64934399863366
 20
95.06547327705169
 10
76.86397729463365
 20
94.8554943266517
  0
LINE
  5
94C
330
1F
100
AcDbEntity
  8
0
  6
CONTINUOUS
 62
     7
100
AcDbLine
 10
75.09199314743367
 20
96.66814157945172
 30
0.0
 11
75.18738275063364
 21
96.56645007385172
 31
0.0
  0
LINE
  5
94D
330
1F
100
AcDbEntity
  8
0
  6
CONTINUOUS
 62
     7
100
AcDbLine
 10
75.01287142423365
 20
96.75278660825171
 30
0.0
 11
75.09199314743367
 21
96.66814157945172
 31
0.0
  0
LINE
  5
94E
330
1F
100
AcDbEntity
  8
0
  6
CONTINUOUS
 62
     7
100
AcDbLine
 10
74.94603415383366
 20
96.82450682745169
 30
0.0
 11
75.01287142423365
 21
96.75278660825171
 31
0.0
  0
LWPOLYLINE
  5
94F
330
1F
100
AcDbEntity
  8
0
  6
CONTINUOUS
 62
     7
100
AcDbPolyline
 90
       74
 70
     0
 43
0.0
 10
83.39690087863365
 20
81.64229706585169
 10
83.29016932183364
 20
81.8059365442517
 10
83.17734774263366
 20
81.9677314274517
 10
83.05836787703364
 20
82.12760042905172
 10
82.93298337463367
 20
82.28567138265171
 10
82.80091043703365
 20
82.44209843705169
 10
82.66189359863366
 20
82.59693189625171
 10
82.56523125303365
 20
82.69928171385169
 10
82.46527432183365
 20
82.80094622585171
 10
82.36192478583365
 20
82.9019375730517
 10
82.25508502583366
 20
83.00226388185169
 10
82.14465899223364
 20
83.10191719545171
 10
82.03055102903366
 20
83.20088554425169
 10
81.91266061943366
 20
83.29915738425171
 10
81.79086781303366
 20
83.3967228818517
 10
81.66504780023364
 20
83.4935726322517
 10
81.53507933783364
 20
83.5896914082517
 10
81.40085546583364
 20
83.68504069785169
 10
81.26227278903366
 20
83.7795761650517
 10
81.11922143863365
 20
83.8732545890517
 10
80.97156563703364
 20
83.96603721305169
 10
80.81916312983366
 20
84.05788639225169
 10
80.66187818103363
 20
84.1487578498517
 10
80.49960112823365
 20
84.23858075865169
 10
80.33222882583364
 20
84.32727765785172
 10
80.15965214903365
 20
84.41477146265169
 10
79.98173803863366
 20
84.5009865906517
 10
79.79834745143364
 20
84.58584783225168
 10
79.60935685943366
 20
84.6692716194517
 10
79.41470477303366
 20
84.75114092025169
 10
79.21434521463365
 20
84.8313303442517
 10
79.00822467863367
 20
84.90971645785169
 10
78.79625955703366
 20
84.98618367065171
 10
78.57835871223366
 20
85.06061835225171
 10
78.35444418103364
 20
85.1329016658517
 10
78.12449069623366
 20
85.20289395225171
 10
77.88848616183367
 20
85.27045034425171
 10
77.64643082423365
 20
85.33542165305169
 10
77.39837429143367
 20
85.3976414098517
 10
77.14437851383365
 20
85.45693882585169
 10
76.88459504983365
 20
85.51313549625168
 10
76.61953387703366
 20
85.5660225458517
 10
76.34979458103365
 20
85.6153834802517
 10
76.07578796503367
 20
85.66103266585171
 10
75.79716969303365
 20
85.7029078850517
 10
75.51340664343365
 20
85.74097778105169
 10
75.29692971063366
 20
85.7670037090517
 10
75.07728796663366
 20
85.7907959650517
 10
74.85421186583366
 20
85.81229516185169
 10
74.62623765143366
 20
85.83150653305171
 10
74.39229700343367
 20
85.8484096626517
 10
74.15409752983364
 20
85.86281695065171
 10
73.91352387383367
 20
85.87453121945172
 10
73.67039289943367
 20
85.88348418585169
 10
73.42449130743367
 20
85.8896634866517
 10
73.17755291863367
 20
85.8931515410517
 10
72.93179834103367
 20
85.89405446265169
 10
72.68944817623367
 20
85.89247836665169
 10
72.45215404343366
 20
85.8885526226517
 10
72.21929160663364
 20
85.8824996322517
 10
71.99007657943366
 20
85.8745647698517
 10
71.76536081143365
 20
85.86499225785169
 10
71.54605875863365
 20
85.85400414745169
 10
71.33169913943365
 20
85.8417349250517
 10
71.12146424503364
 20
85.82829719225172
 10
70.91453635863365
 20
85.81380354905169
 10
70.64252332983366
 20
85.79300598585168
 10
70.37395689783366
 20
85.77064956345171
 10
70.10785824503367
 20
85.7468524226517
 10
69.71150723223366
 20
85.70871331385168
 10
69.31706918583365
 20
85.66799424345168
 10
68.92334046263366
 20
85.62510503385169
 10
68.53005160343366
 20
85.58051145305171
 10
67.74395765463364
 20
85.48801912985169
  0
LWPOLYLINE
  5
950
330
1F
100
AcDbEntity
  8
0
  6
CONTINUOUS
 62
     7
100
AcDbPolyline
 90
        3
 70
     0
 43
0.0
 10
85.54426040663367
 20
76.71854532505171
 10
85.71564729783366
 20
76.41891649785171
 10
85.83027424663365
 20
76.22895203225169
  0
LWPOLYLINE
  5
951
330
1F
100
AcDbEntity
  8
0
  6
CONTINUOUS
 62
     7
100
AcDbPolyline
 90
       14
 70
     0
 43
0.0
 10
85.42744352823365
 20
76.9385545986517
 10
85.41864766743364
 20
76.9541486114517
 10
85.40824853783366
 20
76.9728981730517
 10
85.39797577303366
 20
76.99176560505171
 10
85.38783097303365
 20
77.01074900985171
 10
85.37781573943366
 20
77.02984648985171
 10
85.36793167543365
 20
77.04905614745169
 10
85.35818037943366
 20
77.06837608025171
 10
85.34856321463365
 20
77.08780486585169
 10
85.33908057623367
 20
77.10734296825169
 10
85.32973262103366
 20
77.12699132665171
 10
85.32051950743365
 20
77.14675088185169
 10
85.31144138903366
 20
77.16662257145171
 10
85.30249842423364
 20
77.18660733625171
  0
LINE
  5
952
330
1F
100
AcDbEntity
  8
0
  6
CONTINUOUS
 62
     7
100
AcDbLine
 10
85.36950087063365
 20
77.04776252985169
 30
0.0
 11
85.54426040663367
 21
76.71854532505171
 31
0.0
  0
LWPOLYLINE
  5
953
330
1F
100
AcDbEntity
  8
0
  6
CONTINUOUS
 62
     7
100
AcDbPolyline
 90
       15
 70
     0
 43
0.0
 10
84.15151869783366
 20
80.29797340025169
 10
84.11018244023365
 20
80.38053401145168
 10
84.06816116983364
 20
80.46317572665172
 10
84.01784437783366
 20
80.56050096665169
 10
83.96655242423367
 20
80.65796446105171
 10
83.91426919223366
 20
80.7555795714517
 10
83.86097856823367
 20
80.85335966265171
 10
83.80666443863365
 20
80.9513180978517
 10
83.75131068823364
 20
81.04946823865171
 10
83.69490327383365
 20
81.14781953145168
 10
83.63743642903367
 20
81.24636575225171
 10
83.57890646263365
 20
81.34509675865169
 10
83.51930967703365
 20
81.44400240665168
 10
83.45864238103365
 20
81.54307255705168
 10
83.39690087863365
 20
81.64229706585169
  0
LWPOLYLINE
  5
954
330
1F
100
AcDbEntity
  8
0
  6
CONTINUOUS
 62
     7
100
AcDbPolyline
 90
       17
 70
     0
 43
0.0
 10
85.30249833463367
 20
77.1866072962517
 10
85.29412458103365
 20
77.20575503705169
 10
85.28593267703366
 20
77.22496970425169
 10
85.27792198103364
 20
77.2442528194517
 10
85.27009185143365
 20
77.2636059010517
 10
85.26244164503365
 20
77.28303046745171
 10
85.25497072183364
 20
77.3025280370517
 10
85.24767880823365
 20
77.32209909305169
 10
85.24056711703366
 20
77.34173996025169
 10
85.23363722583367
 20
77.36144592985169
 10
85.22689071703366
 20
77.3812122930517
 10
85.22032917143366
 20
77.40103433945171
 10
85.21395416823366
 20
77.4209073570517
 10
85.20809656503365
 20
77.43974975865168
 10
85.20240685463367
 20
77.45863488665171
 10
85.19688459063365
 20
77.47756406905171
 10
85.19152932983365
 20
77.49653863545171
  0
LWPOLYLINE
  5
955
330
1F
100
AcDbEntity
  8
0
  6
CONTINUOUS
 62
     7
100
AcDbPolyline
 90
       15
 70
     0
 43
0.0
 10
85.89075333463364
 20
75.9692878754517
 10
85.87732840663367
 20
76.0070284498517
 10
85.86365788823366
 20
76.04465005145169
 10
85.84973812343367
 20
76.08214823385171
 10
85.83556470423365
 20
76.1195203874517
 10
85.82113020663365
 20
76.15677127705168
 10
85.80642645623365
 20
76.19390750425171
 10
85.79144519063365
 20
76.2309348194517
 10
85.77617778423364
 20
76.26785555065168
 10
85.76061552343364
 20
76.3046711666517
 10
85.74474928823367
 20
76.3413832274517
 10
85.72856833783365
 20
76.3779936386517
 10
85.71206151863364
 20
76.4145043874517
 10
85.69866332023366
 20
76.4435360402517
 10
85.68504468183366
 20
76.47250492505171
  0
LWPOLYLINE
  5
959
330
1F
100
AcDbEntity
  8
0
  6
CONTINUOUS
 62
     7
100
AcDbPolyline
 90
       62
 70
     0
 43
0.0
 10
60.95593331863366
 20
107.1097051506517
 10
60.83651494423366
 20
107.1087998514517
 10
60.71453852983365
 20
107.1060156866517
 10
60.59005797783366
 20
107.1012508482517
 10
60.46313600023365
 20
107.0943897378517
 10
60.33384336023365
 20
107.0852771298516
 10
60.20229182263366
 20
107.0738160866516
 10
60.06916329143366
 20
107.0599842370517
 10
59.93469627543365
 20
107.0437455186517
 10
59.79846008663366
 20
107.0249814642517
 10
59.66031553623366
 20
107.0035900594517
 10
59.52029854743366
 20
106.9794896002516
 10
59.37845872503366
 20
106.9526007602517
 10
59.23511610423366
 20
106.9229047426516
 10
59.09078124023366
 20
106.8904506866517
 10
58.94546328343366
 20
106.8551959986517
 10
58.79917021943366
 20
106.8170964322517
 10
58.65190035863366
 20
106.7761033122517
 10
58.50361282423366
 20
106.7321536482517
 10
58.35408527223365
 20
106.6851245362517
 10
58.20317493943366
 20
106.6349090818517
 10
58.05092041943366
 20
106.5814533554517
 10
57.89733349783364
 20
106.5246926626517
 10
57.74240754743365
 20
106.4645540738517
 10
57.58628806583365
 20
106.4010252130517
 10
57.42887642903365
 20
106.3339950482516
 10
57.27004846743366
 20
106.2633302498517
 10
57.10972001303366
 20
106.1889103778516
 10
56.94778811063366
 20
106.1106030290517
 10
56.78412037943365
 20
106.0282497522516
 10
56.61874201303366
 20
105.9417622322517
 10
56.45185770263365
 20
105.8511499314517
 10
56.28337454903366
 20
105.7562641746517
 10
56.11307121783365
 20
105.6568685794516
 10
55.94053163383365
 20
105.5525967234516
 10
55.76540947543365
 20
105.4431045266516
 10
55.58755171063365
 20
105.3281466706517
 10
55.40686867703365
 20
105.2075082866517
 10
55.22297900023366
 20
105.0807661394516
 10
55.03555537463365
 20
104.9475022850517
 10
54.84447558903365
 20
104.8074237906517
 10
54.64950486583365
 20
104.6601438306517
 10
54.45031704663365
 20
104.5051869234516
 10
54.24651876663364
 20
104.3419995778517
 10
54.03733193783365
 20
104.1696797490517
 10
53.82154342903366
 20
103.9868997026516
 10
53.59704379703366
 20
103.7914840018516
 10
53.36205836023365
 20
103.5814116578517
 10
53.11422108023365
 20
103.3540052306517
 10
52.84995066263365
 20
103.1052952146517
 10
52.56335974263365
 20
102.8288637074517
 10
52.24600068663366
 20
102.5154145682517
 10
51.88686160663365
 20
102.1526441250516
 10
51.48253856663366
 20
101.7355190530517
 10
51.02553312183365
 20
101.2550329874517
 10
50.51850957783366
 20
100.7129852882516
 10
49.95180828663365
 20
100.0980627970517
 10
49.31885817143365
 20
99.40343497785171
 10
48.62160333623365
 20
98.63382047865171
 10
47.99414439863365
 20
97.94238269625171
 10
47.44587654263366
 20
97.34311413625171
 10
46.96581447863365
 20
96.82452960025171
  0
LWPOLYLINE
  5
95A
330
1F
100
AcDbEntity
  8
0
  6
CONTINUOUS
 62
     7
100
AcDbPolyline
 90
       62
 70
     0
 43
0.0
 10
60.95593331863366
 20
107.1097051506517
 10
61.07535169303366
 20
107.1087998514517
 10
61.19732810743365
 20
107.1060156866517
 10
61.32180865943364
 20
107.1012508482517
 10
61.44873063703365
 20
107.0943897378517
 10
61.57802327703365
 20
107.0852771298516
 10
61.70957481463366
 20
107.0738160866516
 10
61.84270334583366
 20
107.0599842370517
 10
61.97717036183365
 20
107.0437455186517
 10
62.11340655063366
 20
107.0249814642517
 10
62.25155110103366
 20
107.0035900594517
 10
62.39156808983366
 20
106.9794896002516
 10
62.53340791223365
 20
106.9526007602517
 10
62.67675053303366
 20
106.9229047426516
 10
62.82108539703366
 20
106.8904506866517
 10
62.96640335383366
 20
106.8551959986517
 10
63.11269641783365
 20
106.8170964322517
 10
63.25996627863366
 20
106.7761033122517
 10
63.40825381303366
 20
106.7321536482517
 10
63.55778136503365
 20
106.6851245362517
 10
63.70869169783365
 20
106.6349090818517
 10
63.86094621783365
 20
106.5814533554517
 10
64.01453313943367
 20
106.5246926626517
 10
64.16945908983365
 20
106.4645540738517
 10
64.32557857143365
 20
106.4010252130517
 10
64.48299020823364
 20
106.3339950482516
 10
64.64181816983367
 20
106.2633302498517
 10
64.80214662423364
 20
106.1889103778516
 10
64.96407852663364
 20
106.1106030290517
 10
65.12774625783364
 20
106.0282497522516
 10
65.29312462423366
 20
105.9417622322517
 10
65.46000893463366
 20
105.8511499314517
 10
65.62849208823365
 20
105.7562641746517
 10
65.79879541943364
 20
105.6568685794516
 10
65.97133500343367
 20
105.5525967234516
 10
66.14645716183367
 20
105.4431045266516
 10
66.32431492663366
 20
105.3281466706517
 10
66.50499796023365
 20
105.2075082866517
 10
66.68888763703364
 20
105.0807661394516
 10
66.87631126263366
 20
104.9475022850517
 10
67.06739104823364
 20
104.8074237906517
 10
67.26236177143366
 20
104.6601438306517
 10
67.46154959063367
 20
104.5051869234516
 10
67.66534787063367
 20
104.3419995778517
 10
67.87453469943367
 20
104.1696797490517
 10
68.09032320823366
 20
103.9868997026516
 10
68.31482284023365
 20
103.7914840018516
 10
68.54980827703366
 20
103.5814116578517
 10
68.79764555703366
 20
103.3540052306517
 10
69.06191597463365
 20
103.1052952146517
 10
69.34850689463366
 20
102.8288637074517
 10
69.66586595063365
 20
102.5154145682517
 10
70.02500503063365
 20
102.1526441250516
 10
70.42932807063365
 20
101.7355190530517
 10
70.88633351543364
 20
101.2550329874517
 10
71.39335705943366
 20
100.7129852882516
 10
71.96005835063366
 20
100.0980627970517
 10
72.59300846583366
 20
99.40343497785171
 10
73.29026330103366
 20
98.63382047865171
 10
73.91772223863364
 20
97.94238269625171
 10
74.46599009463366
 20
97.34311413625171
 10
74.94605215863365
 20
96.82452960025171
  0
LWPOLYLINE
  5
95B
330
1F
100
AcDbEntity
  8
0
  6
CONTINUOUS
 62
     7
100
AcDbPolyline
 90
       15
 70
     0
 43
0.0
 10
61.30814133143365
 20
115.2140468210517
 10
61.26629607223365
 20
115.2514501842516
 10
61.22061494743365
 20
115.2838792482517
 10
61.17167549943365
 20
115.3109466498517
 10
61.12008956183366
 20
115.3323328658516
 10
61.06649603703365
 20
115.3477879266517
 10
61.01155339703366
 20
115.3571327330517
 10
60.95593300823365
 20
115.3602596178517
 10
60.90031265143366
 20
115.3571326658517
 10
60.84537009943366
 20
115.3477878114516
 10
60.79177670263366
 20
115.3323327346517
 10
60.74019090103365
 20
115.3109465362517
 10
60.69125157303366
 20
115.2838791746517
 10
60.64557053143365
 20
115.2514501586517
 10
60.60372530583365
 20
115.2140468210517
  0
LWPOLYLINE
  5
95C
330
1F
100
AcDbEntity
  8
0
  6
CONTINUOUS
 62
     7
100
AcDbPolyline
 90
       15
 70
     0
 43
0.0
 10
61.13203732503365
 20
114.8187235266517
 10
61.11116448343366
 20
114.8373855058516
 10
61.08835363543366
 20
114.8535896562516
 10
61.06389673303365
 20
114.8671289074516
 10
61.03809976823366
 20
114.8778355810516
 10
61.01128315703365
 20
114.8855784210517
 10
60.98377951223366
 20
114.8902624002517
 10
60.95593113783365
 20
114.8918299186517
 10
60.92808344023366
 20
114.8902619698517
 10
60.90058132983365
 20
114.8855779026517
 10
60.87376608343365
 20
114.8778352674517
 10
60.84797029143366
 20
114.8671290562517
 10
60.82351432663365
 20
114.8535904306517
 10
60.80070400823366
 20
114.8373869650517
 10
60.77982931223365
 20
114.8187235266517
  0
LWPOLYLINE
  5
95D
330
1F
100
AcDbEntity
  8
0
  6
CONTINUOUS
 62
     7
100
AcDbPolyline
 90
        5
 70
     0
 43
0.0
 10
80.45900429783364
 20
94.19917269465171
 10
79.86117007063365
 20
94.7602439490517
 10
79.30675566903366
 20
95.28792004985172
 10
78.78704652183365
 20
95.7899829266517
 10
78.29209650103365
 20
96.27565303545171
  0
LWPOLYLINE
  5
95E
330
1F
100
AcDbEntity
  8
0
  6
CONTINUOUS
 62
     7
100
AcDbPolyline
 90
       12
 70
     0
 43
0.0
 10
78.29209650103365
 20
96.27565303545171
 10
77.99276650103365
 20
96.57318629465173
 10
77.72605996663364
 20
96.84081212825171
 10
77.48486617943365
 20
97.08497213945172
 10
77.26559603383364
 20
97.30873425145171
 10
77.06792742583366
 20
97.5119281186517
 10
76.88923516503365
 20
97.69682494905172
 10
76.72714971543365
 20
97.86553464665169
 10
76.57955246263364
 20
98.01998958265171
 10
76.44443238263367
 20
98.16207770265172
 10
76.31977753463366
 20
98.29374542745171
 10
76.20471839543364
 20
98.41578153625171
  0
LWPOLYLINE
  5
95F
330
1F
100
AcDbEntity
  8
0
  6
CONTINUOUS
 62
     7
100
AcDbPolyline
 90
       62
 70
     0
 43
0.0
 10
75.28729845143366
 20
99.3677189762517
 10
74.94424825943366
 20
99.7092936194517
 10
74.59202262583366
 20
100.0522395362517
 10
74.22785892503364
 20
100.3990312274517
 10
73.84755646583366
 20
100.7533677442516
 10
73.46127944183365
 20
101.1056062642517
 10
73.07650088823365
 20
101.4489718242517
 10
72.69621496823365
 20
101.7809950738516
 10
72.32324018263367
 20
102.0994823906516
 10
71.95952689463365
 20
102.4031019330517
 10
71.60603623863366
 20
102.6914306578516
 10
71.26328926423366
 20
102.9644510786517
 10
70.93213540983365
 20
103.2219198434517
 10
70.61350900983365
 20
103.4636035474516
 10
70.30849954903366
 20
103.6892369250517
 10
70.01539643703364
 20
103.9006345314517
 10
69.73271506103364
 20
104.0993306818517
 10
69.45945489143366
 20
104.2864557618516
 10
69.19470488663364
 20
104.4630087794517
 10
68.93762262583365
 20
104.6298921714517
 10
68.68742699383367
 20
104.7879188354517
 10
68.44349448343365
 20
104.9377475042517
 10
68.20543758423366
 20
105.0798626306517
 10
67.97278530423366
 20
105.2147740690517
 10
67.74507678263365
 20
105.3429563202517
 10
67.52202681463365
 20
105.4647615442517
 10
67.30330829783366
 20
105.5805476642516
 10
67.08863156183366
 20
105.6906347618516
 10
66.87772792663366
 20
105.7953153954517
 10
66.67036406583367
 20
105.8948487842517
 10
66.46630019223366
 20
105.9894834530517
 10
66.26531518423366
 20
106.0794497730517
 10
66.06719262103365
 20
106.1649649762516
 10
65.87176869303366
 20
106.2462111122516
 10
65.67889108503365
 20
106.3233598466517
 10
65.48841373783367
 20
106.3965712434517
 10
65.30020371063367
 20
106.4659887346517
 10
65.11402015383365
 20
106.5317861874516
 10
64.92972791543365
 20
106.5940901058517
 10
64.74719322423365
 20
106.6530187442517
 10
64.56630908503365
 20
106.7086748930516
 10
64.38698364823366
 20
106.7611539234517
 10
64.20914444503364
 20
106.8105395922517
 10
64.03264599063366
 20
106.8569292850517
 10
63.85726932983365
 20
106.9004334722517
 10
63.68294056823366
 20
106.9411180194516
 10
63.50959825943365
 20
106.9790400338517
 10
63.33712174903364
 20
107.0142673650517
 10
63.16535883703366
 20
107.0468693378517
 10
62.99420164983366
 20
107.0768970802517
 10
62.82361400983365
 20
107.1043854322517
 10
62.65354723703365
 20
107.1293731986517
 10
62.48381418583366
 20
107.1519129858517
 10
62.31428986743365
 20
107.1720395842516
 10
62.14496806263365
 20
107.1897739938517
 10
61.97583755383365
 20
107.2051361170516
 10
61.80676428503366
 20
107.2181525858517
 10
61.63753396503366
 20
107.2288495906517
 10
61.46789616503365
 20
107.2372477522516
 10
61.29775511383365
 20
107.2432956002517
 10
61.12711879223365
 20
107.2469272562516
 10
60.95593331863366
 20
107.2481388306516
  0
LINE
  5
960
330
1F
100
AcDbEntity
  8
0
  6
CONTINUOUS
 62
     7
100
AcDbLine
 10
101.3594365730336
 20
74.59132427865171
 30
0.0
 11
61.13203732503365
 21
114.8187235266517
 31
0.0
  0
LINE
  5
961
330
1F
100
AcDbEntity
  8
0
  6
CONTINUOUS
 62
     7
100
AcDbLine
 10
61.30814133143365
 20
115.2140468210517
 30
0.0
 11
101.7938594914336
 21
74.72832866265171
 31
0.0
  0
LWPOLYLINE
  5
962
330
1F
100
AcDbEntity
  8
0
  6
CONTINUOUS
 62
     7
100
AcDbPolyline
 90
       26
 70
     0
 43
0.0
 10
75.48268958583367
 20
99.56771912665169
 10
76.98718199223364
 20
97.98005321945172
 10
78.74732227543365
 20
96.19434452505172
 10
80.75937912503366
 20
94.23644376665171
 10
82.78713808823367
 20
92.3082367202517
 10
84.58060921463365
 20
90.60113857625172
 10
86.15022486263365
 20
89.07865206905171
 10
87.52447681623365
 20
87.70349508345171
 10
88.71813774263364
 20
86.46087666265172
 10
89.74976584183366
 20
85.33649727865171
 10
90.63800219223365
 20
84.31737664665169
 10
91.39720687223364
 20
83.3923984050517
 10
92.03492636983368
 20
82.55362931545169
 10
92.56396373783365
 20
81.7922558322517
 10
93.00674470743365
 20
81.0887025986517
 10
93.38393825143365
 20
80.42175629785168
 10
93.70882429463364
 20
79.77679796345171
 10
93.98979089303365
 20
79.14384072345169
 10
94.23240138103366
 20
78.51524693785171
 10
94.44043584983365
 20
77.88447749625169
 10
94.61622335223365
 20
77.24603211865169
 10
94.76109756023365
 20
76.59465830585171
 10
94.87570594583365
 20
75.92388596345171
 10
94.95952427223366
 20
75.2283454418517
 10
95.01113428823364
 20
74.5047859858517
 10
95.02872645623364
 20
73.75048231225171
  0
LWPOLYLINE
  5
963
330
1F
100
AcDbEntity
  8
0
  6
CONTINUOUS
 62
     7
100
AcDbPolyline
 90
        4
 70
     0
 43
0.0
 10
76.20472512823366
 20
98.4157900450517
 10
75.90821062583365
 20
98.7294064610517
 10
75.60257071863365
 20
99.0468577986517
 10
75.28729845143366
 20
99.3677189762517
  0
LWPOLYLINE
  5
964
330
1F
100
AcDbEntity
  8
0
  6
CONTINUOUS
 62
     7
100
AcDbPolyline
 90
       22
 70
     0
 43
0.0
 10
85.78168880343367
 20
88.22753257465169
 10
85.19870861943365
 20
88.8638773922517
 10
84.65589195543364
 20
89.4578324706517
 10
84.17552447863366
 20
89.98678375225171
 10
83.74752222743365
 20
90.4622715026517
 10
83.35942520503365
 20
90.89805246105171
 10
83.01510737463365
 20
91.2892595746517
 10
82.70341283383364
 20
91.64783066905171
 10
82.40836855063367
 20
91.9911973266517
 10
82.13425019543365
 20
92.31329610745172
 10
81.89409589463366
 20
92.59738476505171
 10
81.68360744183365
 20
92.84709825625171
 10
81.49663560983364
 20
93.0683969714517
 10
81.33148551223365
 20
93.26237550585171
 10
81.18323607223365
 20
93.43430955865171
 10
81.04774630103367
 20
93.58862517945169
 10
80.92684639223364
 20
93.72304412665171
 10
80.81847795703366
 20
93.84014016345171
 10
80.71998093783367
 20
93.9432812642517
 10
80.62884400663364
 20
94.03561399065171
 10
80.54259737463366
 20
94.12007776985172
 10
80.45900376343366
 20
94.19917219545169
  0
LWPOLYLINE
  5
965
330
1F
100
AcDbEntity
  8
0
  6
CONTINUOUS
 62
     7
100
AcDbPolyline
 90
        3
 70
     0
 43
0.0
 10
89.06680866263366
 20
83.77586838425171
 10
89.16445577463367
 20
83.66036421625171
 10
89.26078592663364
 20
83.54483194265171
  0
LWPOLYLINE
  5
966
330
1F
100
AcDbEntity
  8
0
  6
CONTINUOUS
 62
     7
100
AcDbPolyline
 90
       49
 70
     0
 43
0.0
 10
89.26078588183367
 20
83.54483192985171
 10
89.44016240983364
 20
83.3254456882517
 10
89.61530695543364
 20
83.10550557465168
 10
89.78628419543367
 20
82.88494215545171
 10
89.95316562103367
 20
82.6636702866517
 10
90.11546851543366
 20
82.4423674002517
 10
90.27275200663366
 20
82.22173491225168
 10
90.42504840983367
 20
82.00186516665169
 10
90.57258313623364
 20
81.7825697458517
 10
90.71539810103365
 20
81.56392115545171
 10
90.85379609943364
 20
81.34557934585169
 10
90.98780355063366
 20
81.1276278898517
 10
91.11732794743366
 20
80.9103383282517
 10
91.24234867063364
 20
80.6938724658517
 10
91.36288152983366
 20
80.47834331865169
 10
91.47902934743365
 20
80.26371114745169
 10
91.59089311063366
 20
80.04992750425172
 10
91.69857081783366
 20
79.8369407410517
 10
91.80216596023365
 20
79.62468141785169
 10
91.90176412503365
 20
79.41310500345171
 10
91.99745936663365
 20
79.20213827705168
 10
92.08937180023367
 20
78.9916345394517
 10
92.17750599703364
 20
78.7817116802517
 10
92.26169130423366
 20
78.5729116210517
 10
92.34191725303364
 20
78.36541663705171
 10
92.41825154583366
 20
78.15922391225169
 10
92.49082938743365
 20
77.9541308594517
 10
92.55968601463365
 20
77.75019186905169
 10
92.62483673943364
 20
77.54753123385168
 10
92.68629887543367
 20
77.34628142105171
 10
92.74409009143367
 20
77.1465872674517
 10
92.79827369143365
 20
76.9484520274517
 10
92.84895612983365
 20
76.75169947545168
 10
92.89620505143366
 20
76.5562664370517
 10
92.94007628823365
 20
76.3621244130517
 10
92.98063028823367
 20
76.16922561945171
 10
93.01793946903364
 20
75.97745109785171
 10
93.05204862103366
 20
75.78678784025169
 10
93.08299959543365
 20
75.59722373145169
 10
93.11083491703366
 20
75.40873805145171
 10
93.13559401143365
 20
75.22131760985169
 10
93.15731483703364
 20
75.03494067065171
 10
93.17603387703366
 20
74.8495822802517
 10
93.19179273783365
 20
74.66513486265171
 10
93.20463846423365
 20
74.4813116082517
 10
93.21460159863367
 20
74.2979566850517
 10
93.22170058263365
 20
74.11505335065169
 10
93.22595166903367
 20
73.9325706498517
 10
93.22736781623365
 20
73.75048206585171
  0
LWPOLYLINE
  5
967
330
1F
100
AcDbEntity
  8
0
  6
CONTINUOUS
 62
     7
100
AcDbPolyline
 90
       12
 70
     0
 43
0.0
 10
89.57778496343365
 20
83.6295472258517
 10
89.30243157463365
 20
84.0007812146517
 10
89.01118463223367
 20
84.3850714530517
 10
88.70123655223366
 20
84.78546542425169
 10
88.37340774583365
 20
85.2002114706517
 10
88.03048125143366
 20
85.6252668226517
 10
87.67508280823367
 20
86.0570492658517
 10
87.30924034423365
 20
86.4928858754517
 10
86.93551106903365
 20
86.9295890274517
 10
86.55514449623366
 20
87.36562622905172
 10
86.16912502743366
 20
87.79983931065169
 10
85.78168880343367
 20
88.22753257465169
  0
LWPOLYLINE
  5
968
330
1F
100
AcDbEntity
  8
0
  6
CONTINUOUS
 62
     7
100
AcDbPolyline
 90
       19
 70
     0
 43
0.0
 10
85.14069056503364
 20
77.6901051026517
 10
85.10007675383366
 20
77.83858316185169
 10
85.05779658263364
 20
77.98659192665169
 10
85.01385388183365
 20
78.13411094265169
 10
84.96824851063365
 20
78.28113302585169
 10
84.92096445303365
 20
78.42770409945169
 10
84.87198173303367
 20
78.5738833554517
 10
84.82128036823366
 20
78.7197299922517
 10
84.76883828503366
 20
78.8653032386517
 10
84.71462504983364
 20
79.0106624498517
 10
84.65860813303365
 20
79.1558670178517
 10
84.60075500343364
 20
79.3009763346517
 10
84.54103395543365
 20
79.4460447090517
 10
84.47941656503365
 20
79.5911061298517
 10
84.41587523063365
 20
79.73618950425171
 10
84.35038234903364
 20
79.88132373945169
 10
84.28595332503366
 20
80.02007561945168
 10
84.21967843223365
 20
80.15894420985171
 10
84.15151869783366
 20
80.29797340025169
  0
LINE
  5
969
330
1F
100
AcDbEntity
  8
0
  6
CONTINUOUS
 62
     7
100
AcDbLine
 10
85.19152932983365
 20
77.49653863545171
 30
0.0
 11
85.18746300823366
 21
77.51138916345169
 31
0.0
  0
LINE
  5
96A
330
1F
100
AcDbEntity
  8
0
  6
CONTINUOUS
 62
     7
100
AcDbLine
 10
85.18746300823366
 20
77.51138916345169
 30
0.0
 11
85.18349805303364
 21
77.5262688146517
 31
0.0
  0
LINE
  5
96B
330
1F
100
AcDbEntity
  8
0
  6
CONTINUOUS
 62
     7
100
AcDbLine
 10
85.18349805303364
 20
77.5262688146517
 30
0.0
 11
85.14069056503364
 21
77.6901051026517
 31
0.0
  0
LWPOLYLINE
  5
96C
330
1F
100
AcDbEntity
  8
0
  6
CONTINUOUS
 62
     7
100
AcDbPolyline
 90
       25
 70
     0
 43
0.0
 10
86.20570024823365
 20
74.7046848290517
 10
86.19941840183367
 20
74.74366216985169
 10
86.19282761143365
 20
74.78323522585171
 10
86.18591623703366
 20
74.82342060185169
 10
86.17867263703365
 20
74.8642349026517
 10
86.17057888183365
 20
74.90841653945171
 10
86.16209607223366
 20
74.95326362265169
 10
86.15322549783366
 20
74.9987088050517
 10
86.14396845463366
 20
75.0446847442517
 10
86.13432623223365
 20
75.09112409465169
 10
86.12430012343365
 20
75.13795951065171
 10
86.11389141943366
 20
75.1851236482517
 10
86.10310141463363
 20
75.2325491634517
 10
86.08813161943364
 20
75.29606618905169
 10
86.07253599863367
 20
75.3597254498517
 10
86.05636429943364
 20
75.4233242338517
 10
86.03966627223366
 20
75.48665983065169
 10
86.02249166263366
 20
75.5495295314517
 10
86.00489021783365
 20
75.61173062265169
 10
85.98690080343365
 20
75.67310550265171
 10
85.96851874263364
 20
75.7336769970517
 10
85.94972848183365
 20
75.7935130338517
 10
85.93051445943364
 20
75.85268154585171
 10
85.91086112023365
 20
75.91125046585171
 10
85.89075290423366
 20
75.96928772345171
  0
LWPOLYLINE
  5
96D
330
1F
100
AcDbEntity
  8
0
  6
CONTINUOUS
 62
     7
100
AcDbPolyline
 90
       35
 70
     0
 43
0.0
 10
88.64578251703367
 20
73.75048206585171
 10
88.64463049463365
 20
73.80922348025169
 10
88.64095968663367
 20
73.87382116185171
 10
88.63449492343367
 20
73.94303496665171
 10
88.62520074903367
 20
74.01412705785171
 10
88.61319613463365
 20
74.08467172505169
 10
88.59874044343365
 20
74.1524363490517
 10
88.58245740503367
 20
74.21469619865169
 10
88.56487262423366
 20
74.2703725602517
 10
88.54600942743365
 20
74.3202869394517
 10
88.52500580823365
 20
74.36681797785169
 10
88.50085623063364
 20
74.41136747705169
 10
88.47230680343367
 20
74.45473230425171
 10
88.43813874583366
 20
74.49695336825169
 10
88.39702277623365
 20
74.53796950105169
 10
88.34805311543366
 20
74.57747861145171
 10
88.29024946263364
 20
74.6156742274517
 10
88.22232743543366
 20
74.65307102905168
 10
88.14349208023363
 20
74.68976398425169
 10
88.05268856663365
 20
74.72596958905168
 10
87.94866442903368
 20
74.76166549305171
 10
87.83059558103365
 20
74.79629362585169
 10
87.69763659703366
 20
74.82968529305171
 10
87.54897287063366
 20
74.86293476505171
 10
87.38583516503366
 20
74.89930212185169
 10
87.20785510903366
 20
74.9469744514517
 10
87.01950377143365
 20
75.0146476770517
 10
86.84421038743366
 20
75.10007497945171
 10
86.67690996663365
 20
75.20759280665169
 10
86.49852243063364
 20
75.35339923385169
 10
86.32351944343367
 20
75.53132304185169
 10
86.17432264983367
 20
75.7137186722517
 10
86.04813618903367
 20
75.88989205945171
 10
85.92159284663365
 20
76.0827290082517
 10
85.83051368023365
 20
76.22854552505168
  0
LWPOLYLINE
  5
96E
330
1F
100
AcDbEntity
  8
0
  6
CONTINUOUS
 62
     7
100
AcDbPolyline
 90
       28
 70
     0
 43
0.0
 10
86.28907608343366
 20
73.75048206585171
 10
86.28895517943366
 20
73.7816896514517
 10
86.28859056663364
 20
73.81351068985171
 10
86.28797939063366
 20
73.84594715065171
 10
86.28711879863365
 20
73.87900100185169
 10
86.28600593943366
 20
73.9126742130517
 10
86.28463795703366
 20
73.94696875225171
 10
86.28301200183367
 20
73.98188658905169
 10
86.28112498263366
 20
74.0174283826517
 10
86.27897287063365
 20
74.05358954585171
 10
86.27655140343364
 20
74.09036418425171
 10
86.27385631223365
 20
74.12774640185171
 10
86.27088333463365
 20
74.16573030105169
 10
86.26762820343364
 20
74.20430998905169
 10
86.26408665623364
 20
74.2434795650517
 10
86.26074882583365
 20
74.2782354690517
 10
86.25718154423365
 20
74.31345411865169
 10
86.25337791703364
 20
74.34915114425169
 10
86.24933104823364
 20
74.3853421714517
 10
86.24503404023366
 20
74.42204282585169
 10
86.24047999703364
 20
74.45926873465168
 10
86.23566202263365
 20
74.4970355250517
 10
86.23057322263367
 20
74.53535882425168
 10
86.22603360663365
 20
74.56834977625169
 10
86.22128512023365
 20
74.60176555705169
 10
86.21631914583366
 20
74.63561846265171
 10
86.21112706103366
 20
74.6699207874517
 10
86.20570024823365
 20
74.7046848290517
  0
LWPOLYLINE
  5
96F
330
1F
100
AcDbEntity
  8
0
  6
CONTINUOUS
 62
     7
100
AcDbPolyline
 90
       28
 70
     0
 43
0.0
 10
86.20569989303366
 20
72.79626784185168
 10
86.21110422903365
 20
72.83088584665171
 10
86.21627548663367
 20
72.86504506105169
 10
86.22122240343363
 20
72.89875887545171
 10
86.22595371863367
 20
72.9320406850517
 10
86.23047816983364
 20
72.96490388345171
 10
86.23557376823365
 20
73.00325453145169
 10
86.24039888823364
 20
73.04105285465169
 10
86.24496027863367
 20
73.0783135330517
 10
86.24926468983366
 20
73.11505124345169
 10
86.25331887063365
 20
73.15128066745169
 10
86.25712956983367
 20
73.18701648665168
 10
86.26070353943365
 20
73.22227337785171
 10
86.26404752503365
 20
73.25706602265171
 10
86.26759531863365
 20
73.2962748482517
 10
86.27085589303366
 20
73.3348910098517
 10
86.27383359543363
 20
73.3729090338517
 10
86.27653277623366
 20
73.41032344665169
 10
86.27895778263365
 20
73.4471287730517
 10
86.28111296503366
 20
73.48331953945171
 10
86.28300267223366
 20
73.51889027225169
 10
86.28463099863365
 20
73.55383671225169
 10
86.28600103383366
 20
73.58815947385171
 10
86.28711561303365
 20
73.6218603810517
 10
86.28797757143365
 20
73.6549412674517
 10
86.28858974583366
 20
73.68740395705171
 10
86.28895497143366
 20
73.71925028025171
 10
86.28907608343366
 20
73.75048206585171
  0
LWPOLYLINE
  5
970
330
1F
100
AcDbEntity
  8
0
  6
CONTINUOUS
 62
     7
100
AcDbPolyline
 90
       10
 70
     0
 43
0.0
 10
86.17732083543364
 20
72.64284313625172
 10
86.13516970423365
 20
72.4225943234517
 10
86.08344671863367
 20
72.19130278905169
 10
86.02792020343366
 20
71.9745411378517
 10
85.97021493783364
 20
71.77467856185169
 10
85.91130208983367
 20
71.5914378130517
 10
85.85175456663364
 20
71.4236309122517
 10
85.79167337943365
 20
71.26929408505171
 10
85.73073243703365
 20
71.12609070745171
 10
85.69312046903366
 20
71.04444530425169
  0
LWPOLYLINE
  5
971
330
1F
100
AcDbEntity
  8
0
  6
CONTINUOUS
 62
     7
100
AcDbPolyline
 90
        8
 70
     0
 43
0.0
 10
85.15115492343367
 20
69.92770178105169
 10
85.15430440823365
 20
69.93939771385169
 10
85.15751652183366
 20
69.95107545305168
 10
85.16079137303364
 20
69.9627353074517
 10
85.16412906583367
 20
69.9743775842517
 10
85.16752971063366
 20
69.9860025954517
 10
85.17099341463364
 20
69.99761064825171
 10
85.17452028183365
 20
70.0092020530517
  0
LWPOLYLINE
  5
972
330
1F
100
AcDbEntity
  8
0
  6
CONTINUOUS
 62
     7
100
AcDbPolyline
 90
       15
 70
     0
 43
0.0
 10
85.17452028183365
 20
70.0092020530517
 10
85.17834582103365
 20
70.0215284562517
 10
85.18224324823364
 20
70.03383670265171
 10
85.18856929303366
 20
70.05331215385169
 10
85.19507482903364
 20
70.0727384354517
 10
85.20175834903367
 20
70.09211107065169
 10
85.20861834583365
 20
70.11142558425169
 10
85.21565330743365
 20
70.13067750265171
 10
85.22286172663365
 20
70.14986234905169
 10
85.23024244983366
 20
70.16897663385171
 10
85.23779574103366
 20
70.18802081145171
 10
85.24552222423366
 20
70.2069963202517
 10
85.25342251703367
 20
70.2259045986517
 10
85.26149724183367
 20
70.2447470898517
 10
85.26974701943364
 20
70.2635252290517
  0
LWPOLYLINE
  5
973
330
1F
100
AcDbEntity
  8
0
  6
CONTINUOUS
 62
     7
100
AcDbPolyline
 90
       25
 70
     0
 43
0.0
 10
85.88975696343366
 20
71.5288488802517
 10
85.90990290423366
 20
71.58690370585171
 10
85.92959724023364
 20
71.64550303225169
 10
85.94885557303365
 20
71.70471660505168
 10
85.96769351063366
 20
71.76461416345171
 10
85.98612665623367
 20
71.82526545465171
 10
86.00417061463366
 20
71.88674022105169
 10
86.02182984823366
 20
71.94906196985169
 10
86.03906425143364
 20
72.01206927225169
 10
86.05582257623366
 20
72.07555446425169
 10
86.07205357143365
 20
72.13930988185168
 10
86.08770598903365
 20
72.20312785945171
 10
86.10272858103366
 20
72.26680073145169
 10
86.11355476983366
 20
72.3143384674517
 10
86.12399662583365
 20
72.3616095298517
 10
86.13405291703363
 20
72.4085456770517
 10
86.14372241463366
 20
72.45507867225168
 10
86.15300389143365
 20
72.50114027065169
 10
86.16189611383365
 20
72.54666223225169
 10
86.17039785623365
 20
72.5915763186517
 10
86.17850788663366
 20
72.63581428665171
 10
86.18579998263365
 20
72.67687462585169
 10
86.19275458743365
 20
72.71729125945171
 10
86.19938384503365
 20
72.7570827970517
 10
86.20569989303366
 20
72.79626784185168
  0
LWPOLYLINE
  5
974
330
1F
100
AcDbEntity
  8
0
  6
CONTINUOUS
 62
     7
100
AcDbPolyline
 90
       13
 70
     0
 43
0.0
 10
85.26974713463365
 20
70.2635251762517
 10
85.27797603223365
 20
70.28185191065171
 10
85.28631860823365
 20
70.3000839586517
 10
85.29477465783363
 20
70.31822189945168
 10
85.30334396983366
 20
70.33626631705169
 10
85.31202633943365
 20
70.35421779545169
 10
85.32082155543367
 20
70.37207691545169
 10
85.32972941143365
 20
70.3898442626517
 10
85.33873449143365
 20
70.40749083545171
 10
85.34785069463366
 20
70.4250454706517
 10
85.35707708823366
 20
70.44250712505169
 10
85.36641274103365
 20
70.45987474905169
 10
85.37585671863366
 20
70.4771472962517
  0
LWPOLYLINE
  5
975
330
1F
100
AcDbEntity
  8
0
  6
CONTINUOUS
 62
     7
100
AcDbPolyline
 90
       14
 70
     0
 43
0.0
 10
85.69042844823366
 20
71.03984805305171
 10
85.70515156503365
 20
71.0714212114517
 10
85.72230659703365
 20
71.10902191545171
 10
85.73908391543367
 20
71.14666801305171
 10
85.75550299543365
 20
71.18437344985171
 10
85.77158253303366
 20
71.2221519906517
 10
85.78733810903367
 20
71.26001669305171
 10
85.80278452183364
 20
71.29798043705171
 10
85.81793669623365
 20
71.3360581570517
 10
85.83281006743366
 20
71.37427302585169
 10
85.84742019383364
 20
71.41265027225171
 10
85.86178008983365
 20
71.4512092018517
 10
85.87589256663367
 20
71.48994540665171
 10
85.88975788983365
 20
71.5288485538517
  0
LWPOLYLINE
  5
976
330
1F
100
AcDbEntity
  8
0
  6
CONTINUOUS
 62
     7
100
AcDbPolyline
 90
        3
 70
     0
 43
0.0
 10
85.59483150263366
 20
70.8783629634517
 10
85.40268968663367
 20
70.52868488825168
 10
85.33700955863366
 20
70.40235524665169
  0
LINE
  5
977
330
1F
100
AcDbEntity
  8
0
  6
CONTINUOUS
 62
     7
100
AcDbLine
 10
85.77746283863366
 20
71.18696159065169
 30
0.0
 11
85.59483150263366
 21
70.8783629634517
 31
0.0
  0
LWPOLYLINE
  5
978
330
1F
100
AcDbEntity
  8
0
  6
CONTINUOUS
 62
     7
100
AcDbPolyline
 90
       25
 70
     0
 43
0.0
 10
83.39690563383365
 20
65.85867504665171
 10
83.49299525463365
 20
66.01332812345169
 10
83.58714863383367
 20
66.1693137410517
 10
83.67936979063363
 20
66.3266423810517
 10
83.76966274423365
 20
66.48532452345171
 10
83.85802748183365
 20
66.64536449785169
 10
83.94444785943367
 20
66.80674202585169
 10
84.02890370263367
 20
66.96943067865169
 10
84.11137483383365
 20
67.13340402745169
 10
84.19184180023364
 20
67.29863736985169
 10
84.27028804343365
 20
67.4651129138517
 10
84.34669772983367
 20
67.63281459385169
 10
84.42105502263364
 20
67.8017263474517
 10
84.49334431863366
 20
67.9718316626517
 10
84.56355094743367
 20
68.1431122610517
 10
84.63166046583365
 20
68.31554941465171
 10
84.69765843543365
 20
68.48912439865171
 10
84.76153058903367
 20
68.6638167394517
 10
84.82326334903365
 20
68.83959897625169
 10
84.88284331383367
 20
69.0164419026517
 10
84.94025708183366
 20
69.19431630905169
 10
84.99549257783366
 20
69.37319991065169
 10
85.04854305143366
 20
69.55309810105169
 10
85.09940308183365
 20
69.7340232018517
 10
85.15115492343367
 20
69.92770178105169
  0
LINE
  5
979
330
1F
100
AcDbEntity
  8
0
  6
CONTINUOUS
 62
     7
100
AcDbLine
 10
85.88970011703366
 20
71.36744229145171
 30
0.0
 11
85.77746283863366
 21
71.18696159065169
 31
0.0
  0
LWPOLYLINE
  5
97A
330
1F
100
AcDbEntity
  8
0
  6
CONTINUOUS
 62
     7
100
AcDbPolyline
 90
       35
 70
     0
 43
0.0
 10
85.88986331703365
 20
71.36770883705171
 10
85.92245761943365
 20
71.4189641426517
 10
86.06155622423367
 20
71.6280822834517
 10
86.20692287863366
 20
71.8245652978517
 10
86.37544103063365
 20
72.01844272665169
 10
86.55483079703364
 20
72.1868342818517
 10
86.72564638583367
 20
72.3150958482517
 10
86.89431731863365
 20
72.4138438274517
 10
87.07811345143367
 20
72.49398412825169
 10
87.26581408663367
 20
72.55349011705169
 10
87.43924328823366
 20
72.5951301298517
 10
87.59560263063367
 20
72.6287205186517
 10
87.73689715863367
 20
72.6614101058517
 10
87.86328770423365
 20
72.69533598745169
 10
87.97544582583364
 20
72.73086782265171
 10
88.07419839703365
 20
72.76740081785169
 10
88.16050453303365
 20
72.8044042722517
 10
88.23545841463365
 20
72.8418352978517
 10
88.30005400663365
 20
72.87983556505171
 10
88.35508783223366
 20
72.91850983705169
 10
88.40156875063366
 20
72.9581510530517
 10
88.44065280823366
 20
72.99900854425169
 10
88.47346569943367
 20
73.04108844665171
 10
88.50127340183366
 20
73.08455603225169
 10
88.52498144983366
 20
73.1292625122517
 10
88.54580765143365
 20
73.17618407545168
 10
88.56473951063364
 20
73.22696887065169
 10
88.58231041623367
 20
73.28322081305171
 10
88.59854556503364
 20
73.34579341625169
 10
88.61302238583366
 20
73.4140032130517
 10
88.62508795063366
 20
73.48513055225168
 10
88.63443924983366
 20
73.55680792025172
 10
88.64093502743363
 20
73.62644709305169
 10
88.64462459063366
 20
73.69142023385169
 10
88.64578251703367
 20
73.75048206585171
  0
LWPOLYLINE
  5
97D
330
1F
100
AcDbEntity
  8
0
  6
CONTINUOUS
 62
     7
100
AcDbPolyline
 90
       17
 70
     0
 43
0.0
 10
101.6738488306336
 20
73.93545597145169
 10
101.7241501058336
 20
73.96582934905168
 10
101.7704439954336
 20
74.00175140665169
 10
101.8121216578336
 20
74.0427100034517
 10
101.8486439762336
 20
74.08813324505169
 10
101.8795449794336
 20
74.13739838745169
 10
101.9044349426336
 20
74.18984126905169
 10
101.9230019426336
 20
74.2447646114517
 10
101.9350128178336
 20
74.30144533785171
 10
101.9403140770336
 20
74.35914158265169
 10
101.9388328242336
 20
74.4170992866517
 10
101.9305778194336
 20
74.47455878265171
 10
101.9156406770336
 20
74.53076176985169
 10
101.8941971042336
 20
74.58495854585169
 10
101.8665078802336
 20
74.6364164130517
 10
101.8329186914336
 20
74.68442957305168
 10
101.7938594914336
 20
74.72832866265171
  0
LWPOLYLINE
  5
97E
330
1F
100
AcDbEntity
  8
0
  6
CONTINUOUS
 62
     7
100
AcDbPolyline
 90
       18
 70
     0
 43
0.0
 10
101.2994312418336
 20
74.19488793305169
 10
101.3230657026336
 20
74.20904192345171
 10
101.3449869730336
 20
74.22567382425168
 10
101.3649266114336
 20
74.2445780786517
 10
101.3826468658336
 20
74.2655256978517
 10
101.3979383474336
 20
74.28826477625171
 10
101.4106211554336
 20
74.31252381465171
 10
101.4205455346336
 20
74.3380126930517
 10
101.4275945714336
 20
74.3644276322517
 10
101.4316850754336
 20
74.3914537602517
 10
101.4327687042336
 20
74.4187707154517
 10
101.4308319650336
 20
74.44605366585171
 10
101.4258966402336
 20
74.47297832505171
 10
101.4180198642336
 20
74.4992233042517
 10
101.4072931506336
 20
74.52447592345169
 10
101.3938418402336
 20
74.5484337410517
 10
101.3778252050336
 20
74.57080776665171
 10
101.3594365730336
 20
74.59132427865171
  0
LWPOLYLINE
  5
97F
330
1F
100
AcDbEntity
  8
0
  6
CONTINUOUS
 62
     7
100
AcDbPolyline
 90
       20
 70
     0
 43
0.0
 10
81.53995396663365
 20
62.6298266450517
 10
81.04009617943365
 20
62.3580953874517
 10
80.48807929463364
 20
62.0947778754517
 10
79.87962683063367
 20
61.8421167010517
 10
79.21130009623365
 20
61.6030728082517
 10
78.48071279063365
 20
61.38118205785169
 10
77.68804763383366
 20
61.1807361170517
 10
76.83701030263364
 20
61.0065430050517
 10
75.93670174743365
 20
60.8637023810517
 10
75.00307151383364
 20
60.75692607545169
 10
74.13540028983366
 20
60.6936005250517
 10
73.28463543063364
 20
60.6645183890517
 10
72.32881904823367
 20
60.6696335714517
 10
71.23551367223365
 20
60.71967037465171
 10
70.01508782583366
 20
60.8193114226517
 10
68.89724000023367
 20
60.9359828578517
 10
67.91757394903365
 20
61.04601896025169
 10
67.04678186423365
 20
61.14218059705169
 10
66.23705268823366
 20
61.22553148345169
 10
65.56523548823367
 20
61.2874706002517
  0
LINE
  5
980
330
1F
100
AcDbEntity
  8
0
  6
CONTINUOUS
 62
     7
100
AcDbLine
 10
98.81911301783365
 20
72.8879455954517
 30
0.0
 11
101.2994312418336
 21
74.19488793305169
 31
0.0
  0
LINE
  5
981
330
1F
100
AcDbEntity
  8
0
  6
CONTINUOUS
 62
     7
100
AcDbLine
 10
101.6738488306336
 20
73.93545597145169
 30
0.0
 11
98.98960877783366
 21
72.52106206585171
 31
0.0
  0
LWPOLYLINE
  5
982
330
1F
100
AcDbEntity
  8
0
  6
CONTINUOUS
 62
     7
100
AcDbPolyline
 90
       37
 70
     0
 43
0.0
 10
80.05066964983365
 20
63.0329148514517
 10
80.14578546583365
 20
63.0793304946517
 10
80.23935840183368
 20
63.1261167730517
 10
80.33141000183366
 20
63.17326203225171
 10
80.45746201463364
 20
63.2396838850517
 10
80.58063216663365
 20
63.3067504706517
 10
80.70096395543364
 20
63.3744290610517
 10
80.81850087543363
 20
63.4426869298517
 10
80.93328918743365
 20
63.51149415545169
 10
81.04538618903365
 20
63.5808320386517
 10
81.15485193623365
 20
63.65068468505169
 10
81.26174648983365
 20
63.72103620185169
 10
81.36612717143364
 20
63.7918702242517
 10
81.46804035863366
 20
63.8631684978517
 10
81.56752969303367
 20
63.9349123026517
 10
81.66463881463366
 20
64.00708291225169
 10
81.75941287703366
 20
64.07966406265169
 10
81.85190306263365
 20
64.1526493282517
 10
81.94216206743366
 20
64.2260347378517
 10
82.03024258423367
 20
64.29981632505169
 10
82.11619525303365
 20
64.37398993465169
 10
82.20006249623367
 20
64.44855068345171
 10
82.28188468663365
 20
64.52349350585169
 10
82.36170219383366
 20
64.59881333305171
 10
82.43955555543365
 20
64.67450679705169
 10
82.51548599063367
 20
64.7505773378517
 10
82.58953488503365
 20
64.82703009145168
 10
82.66174362583365
 20
64.9038702002517
 10
82.75522693303367
 20
65.00693426105169
 10
82.84558601143364
 20
65.11070318745169
 10
82.93289443863367
 20
65.2151840802517
 10
83.01722793623367
 20
65.32039181945169
 10
83.09867080343366
 20
65.42637240025169
 10
83.17730948023365
 20
65.53317960025172
 10
83.25321710743365
 20
65.64085150425171
 10
83.32641361463364
 20
65.7493634402517
 10
83.39690563383365
 20
65.85867504665171
  0
LWPOLYLINE
  5
983
330
1F
100
AcDbEntity
  8
0
  6
CONTINUOUS
 62
     7
100
AcDbPolyline
 90
       20
 70
     0
 43
0.0
 10
60.95593331863366
 20
108.4587536642517
 10
60.36537556663365
 20
108.4439044082517
 10
59.77379834583366
 20
108.3990260594517
 10
59.18139376983365
 20
108.3236698322517
 10
58.58807720983365
 20
108.2173911842517
 10
57.99189006903365
 20
108.0792744850517
 10
57.38891570423366
 20
107.9074124882517
 10
56.77577815543365
 20
107.6992844642517
 10
56.14980556823365
 20
107.4519548722517
 10
55.50774266423365
 20
107.1616435698517
 10
54.84517696343365
 20
106.8232484866517
 10
54.15680060023365
 20
106.4301651858517
 10
53.43625830423365
 20
105.9739327826517
 10
52.67483434743365
 20
105.4430091730517
 10
51.85894547383365
 20
104.8201625794517
 10
50.96987719703366
 20
104.0809686194517
 10
49.99059324983366
 20
103.1993600642517
 10
48.91300838423365
 20
102.1578740194516
 10
47.72967521623365
 20
100.9467799826517
 10
46.42917705143366
 20
99.56771912665169
  0
LWPOLYLINE
  5
984
330
1F
100
AcDbEntity
  8
0
  6
CONTINUOUS
 62
     7
100
AcDbPolyline
 90
       20
 70
     0
 43
0.0
 10
60.95593331863366
 20
108.4587536642517
 10
61.54649107063366
 20
108.4439044082517
 10
62.13806829143366
 20
108.3990260594517
 10
62.73047286743365
 20
108.3236698322517
 10
63.32378942743366
 20
108.2173911842517
 10
63.91997656823366
 20
108.0792744850517
 10
64.52295093303366
 20
107.9074124882517
 10
65.13608848183366
 20
107.6992844642517
 10
65.76206106903365
 20
107.4519548722517
 10
66.40412397303364
 20
107.1616435698517
 10
67.06668967383365
 20
106.8232484866517
 10
67.75506603703366
 20
106.4301651858517
 10
68.47560833303365
 20
105.9739327826517
 10
69.23703228983365
 20
105.4430091730517
 10
70.05292116343366
 20
104.8201625794517
 10
70.94198944023367
 20
104.0809686194517
 10
71.92127338743365
 20
103.1993600642517
 10
72.99885825303366
 20
102.1578740194516
 10
74.18219142103365
 20
100.9467799826517
 10
75.48268958583367
 20
99.56771912665169
  0
LWPOLYLINE
  5
986
330
1F
100
AcDbEntity
  8
0
  6
CONTINUOUS
 62
     7
100
AcDbPolyline
 90
       49
 70
     0
 43
0.0
 10
93.31238425943366
 20
73.75048206585171
 10
93.31085062423367
 20
73.9681396354517
 10
93.30637048343366
 20
74.1817552498517
 10
93.29904419063366
 20
74.39150650585171
 10
93.28894696823367
 20
74.59763339225171
 10
93.27614835863366
 20
74.80034735545169
 10
93.26071934583366
 20
74.99988244505169
 10
93.24272845463367
 20
75.19644458585171
 10
93.22223529943366
 20
75.39023368345169
 10
93.19929025623366
 20
75.5814486834517
 10
93.17393464503366
 20
75.77028627225169
 10
93.14620080503365
 20
75.95694119225169
 10
93.11611218743365
 20
76.1416063458517
 10
93.08368346583364
 20
76.32447275705169
 10
93.04892036983366
 20
76.50573156665169
 10
93.01182134103365
 20
76.68558037785169
 10
92.97237925943367
 20
76.86421457945169
 10
92.93057874103366
 20
77.0418268290517
 10
92.88639527543365
 20
77.21861105305169
 10
92.83979511223364
 20
77.3947628050517
 10
92.79073499223366
 20
77.57048017785169
 10
92.73916191703367
 20
77.74596428985171
 10
92.68501412823367
 20
77.9214057394517
 10
92.62821594583366
 20
78.0969985522517
 10
92.56867688503366
 20
78.27295955065171
 10
92.50629394423365
 20
78.4495147330517
 10
92.44095117783365
 20
78.62689914265169
 10
92.37251844183365
 20
78.80535894585171
 10
92.30084974743366
 20
78.98515423545169
 10
92.22578875383366
 20
79.16652780505168
 10
92.14717845783367
 20
79.34965953625169
 10
92.06483059063364
 20
79.53479034425169
 10
91.97850774903367
 20
79.7222441554517
 10
91.88794348983364
 20
79.91237415385168
 10
91.79283724823367
 20
80.10556931545171
 10
91.69284826583364
 20
80.30226198425168
 10
91.58758788183366
 20
80.50293748665168
 10
91.47660962743364
 20
80.70814655225168
 10
91.35939669943367
 20
80.91852085465168
 10
91.23534427703365
 20
81.13479565785169
 10
91.10374149463366
 20
81.35783042905169
 10
90.96363885143365
 20
81.58879649945168
 10
90.81376107063366
 20
81.8292468402517
 10
90.65258774903364
 20
82.0810135250517
 10
90.47822374263365
 20
82.3463586530517
 10
90.28812883863366
 20
82.62833239545171
 10
90.07874233463367
 20
82.93124052665168
 10
89.84480413943364
 20
83.26148659225172
 10
89.57778489783365
 20
83.6295472082517
  0
LWPOLYLINE
  5
987
330
1F
100
AcDbEntity
  8
0
  6
CONTINUOUS
 62
     7
100
AcDbPolyline
 90
      113
 70
     0
 43
0.0
 10
93.22736782903366
 20
73.75048206585171
 10
93.22587497143365
 20
73.55579289465168
 10
93.22137168823365
 20
73.3595646098517
 10
93.21380921783363
 20
73.1616135090517
 10
93.20313765303366
 20
72.96192614585169
 10
93.18931463543364
 20
72.76061017945171
 10
93.17229597943365
 20
72.5576915250517
 10
93.15202537943367
 20
72.35307709465169
 10
93.12844470743366
 20
72.14671474425171
 10
93.10154462423367
 20
71.93894328345169
 10
93.07133224343365
 20
71.73013730425171
 10
93.03778594903366
 20
71.52040093785169
 10
93.00087827223364
 20
71.30976871225169
 10
92.96058729943366
 20
71.09830580665169
 10
92.91689220663366
 20
70.88607652825169
 10
92.86974286743364
 20
70.6730133042517
 10
92.81913501943364
 20
70.4592668674517
 10
92.76507754103366
 20
70.2450167138517
 10
92.70757895543367
 20
70.03042027225169
 10
92.64665053143366
 20
69.8156306930517
 10
92.58229876343367
 20
69.60075827545171
 10
92.51453229143365
 20
69.3859090242517
 10
92.44330218423366
 20
69.17100991865169
 10
92.36867683063366
 20
68.9563415666517
 10
92.29073313943365
 20
68.74216886905171
 10
92.20950463383365
 20
68.5286101506517
 10
92.12503095863366
 20
68.3157880450517
 10
92.03731798583365
 20
68.10374470105171
 10
91.94632987383366
 20
67.89243294905171
 10
91.85213174743365
 20
67.6820419762517
 10
91.75475013303367
 20
67.47265988505171
 10
91.65416230903366
 20
67.26426971225169
 10
91.55034836183364
 20
67.05687014905169
 10
91.44328605943366
 20
66.85046354265171
 10
91.33294760023366
 20
66.64504609305168
 10
91.21926053623367
 20
66.4405286562517
 10
91.10234133943365
 20
66.23716065305169
 10
90.98220447223367
 20
66.0349969298517
 10
90.85885752503363
 20
65.83408024185169
 10
90.73229690903366
 20
65.6344365010517
 10
90.60250986583367
 20
65.43608002425171
 10
90.46943686743365
 20
65.23895484825169
 10
90.33303103543365
 20
65.04303276345169
 10
90.19343370263365
 20
64.84855542105171
 10
90.05068657143366
 20
64.6556106802517
 10
89.90483402103365
 20
64.46428626105171
 10
89.75592453303367
 20
64.27467135545168
 10
89.60397509463366
 20
64.0868128578517
 10
89.44884301783366
 20
63.90056346745169
 10
89.29055221143366
 20
63.71598427705169
 10
89.12914778743365
 20
63.5331614770517
 10
88.96464956503365
 20
63.3521489090517
 10
88.79707648983364
 20
63.1729982610517
 10
88.62650929143365
 20
62.99582348665169
 10
88.45287646263367
 20
62.8205789922517
 10
88.27609131223367
 20
62.6472109522517
 10
88.09613250743366
 20
62.4757319826517
 10
87.91298985783365
 20
62.30616883225169
 10
87.72671393143367
 20
62.13860480185171
 10
87.53737100343366
 20
61.9731331778517
 10
87.34497377623364
 20
61.8097975954517
 10
87.14951181623366
 20
61.64862332825169
 10
86.95105817943366
 20
61.48969914745169
 10
86.74968007383364
 20
61.33310580505169
 10
86.54552176343367
 20
61.17898138745171
 10
86.33868705623365
 20
61.0274228882517
 10
86.12905205303366
 20
60.8783598738517
 10
85.91665085943365
 20
60.7318408498517
 10
85.70156289143367
 20
60.5879415362517
 10
85.48392610583366
 20
60.4467669186517
 10
85.26394139383365
 20
60.3084527202517
 10
85.04202444503366
 20
60.17324969625169
 10
84.81830984983366
 20
60.0412158418517
 10
84.59288113623363
 20
59.9123733426517
 10
84.36582209783365
 20
59.7867414818517
 10
84.13719024183365
 20
59.6643272562517
 10
83.90698002903366
 20
59.5451127618517
 10
83.67520499383365
 20
59.4290895058517
 10
83.44193693463365
 20
59.3162770482517
 10
83.20723937143364
 20
59.2066880626517
 10
82.97117456823366
 20
59.10033236825171
 10
82.73377342423364
 20
58.9972052290517
 10
82.49462823223366
 20
58.8971345858517
 10
82.25361557303363
 20
58.8000849218517
 10
82.01074174743366
 20
58.7060738306517
 10
81.76601691383366
 20
58.6151207026517
 10
81.51945785623366
 20
58.52724759705171
 10
81.27113455223366
 20
58.44249443385169
 10
81.02096671383364
 20
58.3608500706517
 10
80.76888416503365
 20
58.2823077314517
 10
80.51490670583365
 20
58.20688707065169
 10
80.25905564503366
 20
58.1346077874517
 10
80.00136808343365
 20
58.0654938322517
 10
79.74189773143365
 20
57.9995727074517
 10
79.48067712503365
 20
57.93686555545169
 10
79.21772980503366
 20
57.87738706265169
 10
78.95310526423364
 20
57.82115285305169
 10
78.68685944503366
 20
57.76817998745169
 10
78.41908399543365
 20
57.7184900178517
 10
78.14986305463367
 20
57.6720979858517
 10
77.87924335703365
 20
57.6290111826517
 10
77.60726860343365
 20
57.5892365906517
 10
77.33392619063366
 20
57.5527711810517
 10
77.05923930423364
 20
57.5196174770517
 10
76.78333656343366
 20
57.48978980505169
 10
76.50631839063365
 20
57.4632956818517
 10
76.22826597303364
 20
57.44013827225169
 10
75.94925783703366
 20
57.42031938425171
 10
75.66941446103365
 20
57.4038438402517
 10
75.38887986103365
 20
57.3907142514517
 10
75.10773514743366
 20
57.38092648025169
 10
74.82605965143367
 20
57.3744751042517
 10
74.54393319063365
 20
57.3713515042517
  0
LWPOLYLINE
  5
988
330
1F
100
AcDbEntity
  8
0
  6
CONTINUOUS
 62
     7
100
AcDbPolyline
 90
        7
 70
     0
 43
0.0
 10
95.02872645623364
 20
73.75048231225171
 10
95.01310794423366
 20
72.87977345785171
 10
94.96729898583366
 20
72.03227351385169
 10
94.89244366103367
 20
71.2072344002517
 10
94.78964039223365
 20
70.4036964002517
 10
94.65971398743366
 20
69.62001657945169
 10
94.50309740983366
 20
68.85362662585169
  0
LINE
  5
989
330
1F
100
AcDbEntity
  8
0
  6
CONTINUOUS
 62
     7
100
AcDbLine
 10
93.62358618423366
 20
66.1620259634517
 30
0.0
 11
93.70047132023364
 21
66.37648645145171
 31
0.0
  0
LINE
  5
98A
330
1F
100
AcDbEntity
  8
0
  6
CONTINUOUS
 62
     7
100
AcDbLine
 10
93.70047132023364
 20
66.37648645145171
 30
0.0
 11
93.71616620663365
 21
66.4206228802517
 31
0.0
  0
LINE
  5
98B
330
1F
100
AcDbEntity
  8
0
  6
CONTINUOUS
 62
     7
100
AcDbLine
 10
93.62356928823365
 20
66.16203212345169
 30
0.0
 11
93.70132605783366
 21
66.37881849305171
 31
0.0
  0
LWPOLYLINE
  5
98C
330
1F
100
AcDbEntity
  8
0
  6
CONTINUOUS
 62
     7
100
AcDbPolyline
 90
       15
 70
     0
 43
0.0
 10
93.71616620663365
 20
66.4206228802517
 10
93.91506771863365
 20
66.93697916665169
 10
94.15831332023364
 20
67.48332061785169
 10
94.42967253463365
 20
68.01477820985169
 10
94.72805006743366
 20
68.52957012345169
 10
95.05323535863366
 20
69.0275027698517
 10
95.40403116183364
 20
69.50676688185168
 10
95.77886375703366
 20
69.96541570745171
 10
96.17703425783368
 20
70.4027997682517
 10
96.59783008823366
 20
70.81817136985171
 10
97.03947495383367
 20
71.2098309650517
 10
97.50031986583366
 20
71.57649975545169
 10
97.98015384983367
 20
71.91808359865169
 10
98.47729931063367
 20
72.2333605618517
 10
98.98960762743366
 20
72.52106146105169
  0
LWPOLYLINE
  5
98D
330
1F
100
AcDbEntity
  8
0
  6
CONTINUOUS
 62
     7
100
AcDbPolyline
 90
       12
 70
     0
 43
0.0
 10
94.50309740983366
 20
68.85362662585169
 10
94.79953188183364
 20
69.30947412345171
 10
95.11776361783365
 20
69.7504475986517
 10
95.45686245303366
 20
70.17527183225169
 10
95.81599479863365
 20
70.58295677465171
 10
96.19442489463366
 20
70.97270180345171
 10
96.59140390263367
 20
71.34373052825171
 10
97.00614580503367
 20
71.69526832665169
 10
97.43767916503365
 20
72.02644093785171
 10
97.88466772983367
 20
72.33621552185169
 10
98.34566670583365
 20
72.6236595522517
 10
98.81911301783365
 20
72.8879455954517
  0
CIRCLE
  5
B02
330
1F
100
AcDbEntity
  8
0
  6
CONTINUOUS
 62
     7
100
AcDbCircle
 10
60.95593331863366
 20
66.00048206585171
 30
0.0
 40
1.0
  0
CIRCLE
  5
B03
330
1F
100
AcDbEntity
  8
0
  6
CONTINUOUS
 62
     7
100
AcDbCircle
 10
60.95593331863366
 20
66.00048206585171
 30
0.0
 40
1.2714466096
  0
LINE
  5
B45
330
1F
100
AcDbEntity
  8
CENTER
100
AcDbLine
 10
60.95593331863366
 20
63.36949307042999
 30
0.0
 11
60.95593331863366
 21
68.58583179028659
 31
0.0
  0
ENDSEC
  0
SECTION
  2
OBJECTS
  0
DICTIONARY
  5
C
330
0
100
AcDbDictionary
  3
ACAD_GROUP
350
D
  3
ACAD_LAYOUT
350
1A
  3
ACAD_MLINESTYLE
350
17
  3
ACAD_PLOTSETTINGS
350
19
  3
ACAD_PLOTSTYLENAME
350
E
  3
ACDBHEADERROUNDTRIPXREC
350
BFD
  0
DICTIONARY
  5
C20
330
1F
100
AcDbDictionary
280
     1
  3
ACAD_LAYOUTSELFREF
360
C21
  0
DICTIONARY
  5
C1E
330
1B
100
AcDbDictionary
280
     1
  3
ACAD_LAYOUTSELFREF
360
C1F
  0
DICTIONARY
  5
D
102
{ACAD_REACTORS
330
C
102
}
330
C
100
AcDbDictionary
  0
DICTIONARY
  5
1A
102
{ACAD_REACTORS
330
C
102
}
330
C
100
AcDbDictionary
  0
DICTIONARY
  5
17
102
{ACAD_REACTORS
330
C
102
}
330
C
100
AcDbDictionary
  3
STANDARD
350
18
  0
DICTIONARY
  5
19
102
{ACAD_REACTORS
330
C
102
}
330
C
100
AcDbDictionary
  0
ACDBDICTIONARYWDFLT
  5
E
102
{ACAD_REACTORS
330
C
102
}
330
C
100
AcDbDictionary
281
     1
  3
Normal
350
F
100
AcDbDictionaryWithDefault
340
F
  0
DICTIONARY
  5
BFD
102
{ACAD_REACTORS
330
C
102
}
330
C
100
AcDbDictionary
  3
CEPSNTYPE
350
C07
  3
DIMSTYLEDATA
350
C0B
  3
FINGERPRINTGUID
350
C08
  3
HYPERLINKBASE
350
C00
  3
INSUNITS
350
C06
  3
LAYOUTDICT
350
C02
  3
LWETCUNION
350
C05
  3
PLOTSETDICT
350
C03
  3
PLOTSTYLNAMDICT
350
C04
  3
PSVPSCALE
350
C0A
  3
PUCSBASE
350
C0E
  3
PUCSORGBACK
350
C14
  3
PUCSORGBOTTOM
350
C10
  3
PUCSORGFRONT
350
C13
  3
PUCSORGLEFT
350
C11
  3
PUCSORGRIGHT
350
C12
  3
PUCSORGTOP
350
C0F
  3
PUCSORTHOREF
350
C0C
  3
PUCSORTHOVIEW
350
C0D
  3
STYLESHEET
350
C01
  3
TSTACKALIGN
350
BFE
  3
TSTACKSIZE
350
BFF
  3
UCSBASE
350
C17
  3
UCSORGBACK
350
C1D
  3
UCSORGBOTTOM
350
C19
  3
UCSORGFRONT
350
C1C
  3
UCSORGLEFT
350
C1A
  3
UCSORGRIGHT
350
C1B
  3
UCSORGTOP
350
C18
  3
UCSORTHOREF
350
C15
  3
UCSORTHOVIEW
350
C16
  3
VERSIONGUID
350
C09
  0
XRECORD
  5
C21
102
{ACAD_REACTORS
330
C20
102
}
330
C20
100
AcDbXrecord
340
1F
  0
XRECORD
  5
C1F
102
{ACAD_REACTORS
330
C1E
102
}
330
C1E
100
AcDbXrecord
340
1B
  0
MLINESTYLE
  5
18
102
{ACAD_REACTORS
330
17
102
}
330
17
100
AcDbMlineStyle
  2
STANDARD
 70
     0
  3

 62
   256
 51
90.0
 52
90.0
 71
     2
 49
0.5
 62
   256
  6
BYLAYER
 49
-0.5
 62
   256
  6
BYLAYER
  0
ACDBPLACEHOLDER
  5
F
102
{ACAD_REACTORS
330
E
102
}
330
0
100
AcDbPlaceHolder
280
     0
  0
XRECORD
  5
C07
102
{ACAD_REACTORS
330
BFD
102
}
330
BFD
100
AcDbXrecord
 90
        0
  0
XRECORD
  5
C0B
102
{ACAD_REACTORS
330
BFD
102
}
330
BFD
100
AcDbXrecord
1000
DSTYLE
1002
{
1070
   278
 70
     0
1070
   342
340
21E
1070
   371
 70
     0
1070
   372
 70
     0
1002
}
  0
XRECORD
  5
C08
102
{ACAD_REACTORS
330
BFD
102
}
330
BFD
100
AcDbXrecord
  1

  0
XRECORD
  5
C00
102
{ACAD_REACTORS
330
BFD
102
}
330
BFD
100
AcDbXrecord
  1

  0
XRECORD
  5
C06
102
{ACAD_REACTORS
330
BFD
102
}
330
BFD
100
AcDbXrecord
 90
        1
  0
XRECORD
  5
C02
102
{ACAD_REACTORS
330
BFD
102
}
330
BFD
100
AcDbXrecord
340
1A
  0
XRECORD
  5
C05
102
{ACAD_REACTORS
330
BFD
102
}
330
BFD
100
AcDbXrecord
 90
    10752
  0
XRECORD
  5
C03
102
{ACAD_REACTORS
330
BFD
102
}
330
BFD
100
AcDbXrecord
340
19
  0
XRECORD
  5
C04
102
{ACAD_REACTORS
330
BFD
102
}
330
BFD
100
AcDbXrecord
340
E
  0
XRECORD
  5
C0A
102
{ACAD_REACTORS
330
BFD
102
}
330
BFD
100
AcDbXrecord
 40
0.0
  0
XRECORD
  5
C0E
102
{ACAD_REACTORS
330
BFD
102
}
330
BFD
100
AcDbXrecord
340
0
  0
XRECORD
  5
C14
102
{ACAD_REACTORS
330
BFD
102
}
330
BFD
100
AcDbXrecord
 10
0.0
 20
0.0
 30
0.0
  0
XRECORD
  5
C10
102
{ACAD_REACTORS
330
BFD
102
}
330
BFD
100
AcDbXrecord
 10
0.0
 20
0.0
 30
0.0
  0
XRECORD
  5
C13
102
{ACAD_REACTORS
330
BFD
102
}
330
BFD
100
AcDbXrecord
 10
0.0
 20
0.0
 30
0.0
  0
XRECORD
  5
C11
102
{ACAD_REACTORS
330
BFD
102
}
330
BFD
100
AcDbXrecord
 10
0.0
 20
0.0
 30
0.0
  0
XRECORD
  5
C12
102
{ACAD_REACTORS
330
BFD
102
}
330
BFD
100
AcDbXrecord
 10
0.0
 20
0.0
 30
0.0
  0
XRECORD
  5
C0F
102
{ACAD_REACTORS
330
BFD
102
}
330
BFD
100
AcDbXrecord
 10
0.0
 20
0.0
 30
0.0
  0
XRECORD
  5
C0C
102
{ACAD_REACTORS
330
BFD
102
}
330
BFD
100
AcDbXrecord
340
0
  0
XRECORD
  5
C0D
102
{ACAD_REACTORS
330
BFD
102
}
330
BFD
100
AcDbXrecord
 70
     0
  0
XRECORD
  5
C01
102
{ACAD_REACTORS
330
BFD
102
}
330
BFD
100
AcDbXrecord
  1

  0
XRECORD
  5
BFE
102
{ACAD_REACTORS
330
BFD
102
}
330
BFD
100
AcDbXrecord
 90
        1
  0
XRECORD
  5
BFF
102
{ACAD_REACTORS
330
BFD
102
}
330
BFD
100
AcDbXrecord
 90
       70
  0
XRECORD
  5
C17
102
{ACAD_REACTORS
330
BFD
102
}
330
BFD
100
AcDbXrecord
340
0
  0
XRECORD
  5
C1D
102
{ACAD_REACTORS
330
BFD
102
}
330
BFD
100
AcDbXrecord
 10
0.0
 20
0.0
 30
0.0
  0
XRECORD
  5
C19
102
{ACAD_REACTORS
330
BFD
102
}
330
BFD
100
AcDbXrecord
 10
0.0
 20
0.0
 30
0.0
  0
XRECORD
  5
C1C
102
{ACAD_REACTORS
330
BFD
102
}
330
BFD
100
AcDbXrecord
 10
0.0
 20
0.0
 30
0.0
  0
XRECORD
  5
C1A
102
{ACAD_REACTORS
330
BFD
102
}
330
BFD
100
AcDbXrecord
 10
0.0
 20
0.0
 30
0.0
  0
XRECORD
  5
C1B
102
{ACAD_REACTORS
330
BFD
102
}
330
BFD
100
AcDbXrecord
 10
0.0
 20
0.0
 30
0.0
  0
XRECORD
  5
C18
102
{ACAD_REACTORS
330
BFD
102
}
330
BFD
100
AcDbXrecord
 10
0.0
 20
0.0
 30
0.0
  0
XRECORD
  5
C15
102
{ACAD_REACTORS
330
BFD
102
}
330
BFD
100
AcDbXrecord
340
0
  0
XRECORD
  5
C16
102
{ACAD_REACTORS
330
BFD
102
}
330
BFD
100
AcDbXrecord
 70
     0
  0
XRECORD
  5
C09
102
{ACAD_REACTORS
330
BFD
102
}
330
BFD
100
AcDbXrecord
  1
{F5876458-793D-48A8-8C1C-1261A8194E17}
  0
ENDSEC
  0
EOF
