  0
SECTION
  2
HEADER
  9
$ACADVER
  1
AC1014
  9
$ACADMAINTVER
 70
     9
  9
$DWGCODEPAGE
  3
ANSI_1252
  9
$INSBASE
 10
47.95454033000502
 20
95.58252980365038
 30
0.0
  9
$EXTMIN
 10
14.95454033000501
 20
2.997289082070836
 30
0.0
  9
$EXTMAX
 10
163.373868618005
 20
115.9778623214883
 30
0.0
  9
$LIMMIN
 10
0.0
 20
0.0
  9
$LIMMAX
 10
17.0
 20
11.0
  9
$ORTHOMODE
 70
     1
  9
$REGENMODE
 70
     1
  9
$FILLMODE
 70
     1
  9
$QTEXTMODE
 70
     0
  9
$MIRRTEXT
 70
     1
  9
$DRAGMODE
 70
     2
  9
$LTSCALE
 40
0.9350000000000001
  9
$OSMODE
 70
  3071
  9
$ATTMODE
 70
     1
  9
$TEXTSIZE
 40
0.2
  9
$TRACEWID
 40
0.05
  9
$TEXTSTYLE
  7
STANDARD
  9
$CLAYER
  8
CENTER
  9
$CELTYPE
  6
BYLAYER
  9
$CECOLOR
 62
   256
  9
$CELTSCALE
 40
1.0
  9
$DELOBJ
 70
     1
  9
$DISPSILH
 70
     0
  9
$DIMSCALE
 40
1.0
  9
$DIMASZ
 40
0.1875
  9
$DIMEXO
 40
0.0625
  9
$DIMDLI
 40
0.38
  9
$DIMRND
 40
0.0
  9
$DIMDLE
 40
0.0
  9
$DIMEXE
 40
0.18
  9
$DIMTP
 40
0.00001
  9
$DIMTM
 40
0.00001
  9
$DIMTXT
 40
0.125
  9
$DIMCEN
 40
0.09
  9
$DIMTSZ
 40
0.0
  9
$DIMTOL
 70
     0
  9
$DIMLIM
 70
     0
  9
$DIMTIH
 70
     1
  9
$DIMTOH
 70
     1
  9
$DIMSE1
 70
     0
  9
$DIMSE2
 70
     0
  9
$DIMTAD
 70
     0
  9
$DIMZIN
 70
     4
  9
$DIMBLK
  1
_FILLED
  9
$DIMASO
 70
     1
  9
$DIMSHO
 70
     1
  9
$DIMPOST
  1

  9
$DIMAPOST
  1

  9
$DIMALT
 70
     0
  9
$DIMALTD
 70
     2
  9
$DIMALTF
 40
25.4
  9
$DIMLFAC
 40
1.0
  9
$DIMTOFL
 70
     0
  9
$DIMTVP
 40
0.0
  9
$DIMTIX
 70
     0
  9
$DIMSOXD
 70
     0
  9
$DIMSAH
 70
     0
  9
$DIMBLK1
  1
_FILLED
  9
$DIMBLK2
  1
_FILLED
  9
$DIMSTYLE
  2
STANDARD
  9
$DIMCLRD
 70
     0
  9
$DIMCLRE
 70
     0
  9
$DIMCLRT
 70
     0
  9
$DIMTFAC
 40
1.0
  9
$DIMGAP
 40
0.09
  9
$DIMJUST
 70
     0
  9
$DIMSD1
 70
     0
  9
$DIMSD2
 70
     0
  9
$DIMTOLJ
 70
     1
  9
$DIMTZIN
 70
     4
  9
$DIMALTZ
 70
     0
  9
$DIMALTTZ
 70
     0
  9
$DIMFIT
 70
     3
  9
$DIMUPT
 70
     0
  9
$DIMUNIT
 70
     2
  9
$DIMDEC
 70
     5
  9
$DIMTDEC
 70
     5
  9
$DIMALTU
 70
     2
  9
$DIMALTTD
 70
     2
  9
$DIMTXSTY
  7
STANDARD
  9
$DIMAUNIT
 70
     0
  9
$LUNITS
 70
     2
  9
$LUPREC
 70
     4
  9
$SKETCHINC
 40
0.1
  9
$FILLETRAD
 40
0.5
  9
$AUNITS
 70
     0
  9
$AUPREC
 70
     0
  9
$MENU
  1
acad
  9
$ELEVATION
 40
0.0
  9
$PELEVATION
 40
0.0
  9
$THICKNESS
 40
0.0
  9
$LIMCHECK
 70
     0
  9
$BLIPMODE
 70
     0
  9
$CHAMFERA
 40
0.0
  9
$CHAMFERB
 40
0.0
  9
$CHAMFERC
 40
0.0
  9
$CHAMFERD
 40
0.0
  9
$SKPOLY
 70
     0
  9
$TDCREATE
 40
2453887.623736400
  9
$TDUPDATE
 40
2453887.674528379
  9
$TDINDWG
 40
0.0507959606
  9
$TDUSRTIMER
 40
0.0507959606
  9
$USRTIMER
 70
     1
  9
$ANGBASE
 50
0.0
  9
$ANGDIR
 70
     0
  9
$PDMODE
 70
     3
  9
$PDSIZE
 40
0.015625
  9
$PLINEWID
 40
0.0
  9
$COORDS
 70
     1
  9
$SPLFRAME
 70
     0
  9
$SPLINETYPE
 70
     6
  9
$SPLINESEGS
 70
     8
  9
$ATTDIA
 70
     0
  9
$ATTREQ
 70
     1
  9
$HANDLING
 70
-16383
  9
$HANDSEED
  5
E17
  9
$SURFTAB1
 70
     6
  9
$SURFTAB2
 70
     6
  9
$SURFTYPE
 70
     6
  9
$SURFU
 70
     6
  9
$SURFV
 70
     6
  9
$UCSNAME
  2

  9
$UCSORG
 10
0.0
 20
0.0
 30
0.0
  9
$UCSXDIR
 10
1.0
 20
0.0
 30
0.0
  9
$UCSYDIR
 10
0.0
 20
1.0
 30
0.0
  9
$PUCSNAME
  2

  9
$PUCSORG
 10
0.0
 20
0.0
 30
0.0
  9
$PUCSXDIR
 10
1.0
 20
0.0
 30
0.0
  9
$PUCSYDIR
 10
0.0
 20
1.0
 30
0.0
  9
$USERI1
 70
     0
  9
$USERI2
 70
     0
  9
$USERI3
 70
     0
  9
$USERI4
 70
     0
  9
$USERI5
 70
     0
  9
$USERR1
 40
0.0
  9
$USERR2
 40
0.0
  9
$USERR3
 40
0.0
  9
$USERR4
 40
0.0
  9
$USERR5
 40
0.0
  9
$WORLDVIEW
 70
     1
  9
$SHADEDGE
 70
     3
  9
$SHADEDIF
 70
    70
  9
$TILEMODE
 70
     1
  9
$MAXACTVP
 70
    16
  9
$PINSBASE
 10
0.0
 20
0.0
 30
0.0
  9
$PLIMCHECK
 70
     0
  9
$PEXTMIN
 10
31.45603069405575
 20
20.49090612880826
 30
0.0
  9
$PEXTMAX
 10
310.8560453806402
 20
188.1309110497677
 30
0.0
  9
$PLIMMIN
 10
-6.643958934736053
 20
-3.639094438627948
  9
$PLIMMAX
 10
348.9560471687795
 20
212.2609147166454
  9
$UNITMODE
 70
     0
  9
$VISRETAIN
 70
     0
  9
$PLINEGEN
 70
     1
  9
$PSLTSCALE
 70
     0
  9
$TREEDEPTH
 70
  3020
  9
$PICKSTYLE
 70
     1
  9
$CMLSTYLE
  2
STANDARD
  9
$CMLJUST
 70
     0
  9
$CMLSCALE
 40
1.0
  9
$PROXYGRAPHICS
 70
     0
  9
$MEASUREMENT
 70
     0
  0
ENDSEC
  0
SECTION
  2
CLASSES
  0
CLASS
  1
ACDBDICTIONARYWDFLT
  2
AcDbDictionaryWithDefault
  3
AutoCAD 2000
 90
        0
280
     0
281
     0
  0
CLASS
  1
ACDBPLACEHOLDER
  2
AcDbPlaceHolder
  3
AutoCAD 2000
 90
        0
280
     0
281
     0
  0
CLASS
  1
LAYOUT
  2
AcDbLayout
  3
AutoCAD 2000
 90
        0
280
     0
281
     0
  0
CLASS
  1
LWPOLYLINE
  2
AcDbPolyline
  3
AutoCAD 2000
 90
        0
280
     0
281
     1
  0
CLASS
  1
IMAGE
  2
AcDbRasterImage
  3
ISM
 90
      127
280
     0
281
     1
  0
CLASS
  1
OLE2FRAME
  2
AcDbOle2Frame
  3
AutoCAD 2000
 90
        0
280
     0
281
     1
  0
CLASS
  1
HATCH
  2
AcDbHatch
  3
AutoCAD 2000
 90
        0
280
     0
281
     1
  0
CLASS
  1
DICTIONARYVAR
  2
AcDbDictionaryVar
  3
AutoCAD 2000
 90
        0
280
     0
281
     0
  0
CLASS
  1
RASTERVARIABLES
  2
AcDbRasterVariables
  3
ISM
 90
        0
280
     0
281
     0
  0
CLASS
  1
IMAGEDEF
  2
AcDbRasterImageDef
  3
ISM
 90
        0
280
     0
281
     0
  0
CLASS
  1
IMAGEDEF_REACTOR
  2
AcDbRasterImageDefReactor
  3
ISM
 90
        1
280
     0
281
     0
  0
CLASS
  1
IDBUFFER
  2
AcDbIdBuffer
  3
AutoCAD 2000
 90
        0
280
     0
281
     0
  0
CLASS
  1
SPATIAL_FILTER
  2
AcDbSpatialFilter
  3
AutoCAD 2000
 90
        0
280
     0
281
     0
  0
CLASS
  1
XRECORD
  2
AcDbXrecord
  3
AutoCAD 2000
 90
        0
280
     0
281
     0
  0
CLASS
  1
SORTENTSTABLE
  2
AcDbSortentsTable
  3
AutoCAD 2000
 90
        0
280
     0
281
     0
  0
CLASS
  1
LAYER_INDEX
  2
AcDbLayerIndex
  3
AutoCAD 2000
 90
        0
280
     0
281
     0
  0
CLASS
  1
SPATIAL_INDEX
  2
AcDbSpatialIndex
  3
AutoCAD 2000
 90
        0
280
     0
281
     0
  0
CLASS
  1
OBJECT_PTR
  2
CAseDLPNTableRecord
  3
ASE-LPNTableRecord
 90
        1
280
     0
281
     0
  0
CLASS
  1
PLOTSETTINGS
  2
AcDbPlotSettings
  3
AutoCAD 2000
 90
        0
280
     0
281
     0
  0
CLASS
  1
VBA_PROJECT
  2
AcDbVbaProject
  3
acadvba
 90
        0
280
     0
281
     0
  0
CLASS
  1
WIPEOUT
  2
AcDbWipeout
  3
WipeOut|AutoCAD Express Tool|expresstools@autodesk.com
 90
      127
280
     0
281
     1
  0
CLASS
  1
WIPEOUTVARIABLES
  2
AcDbWipeoutVariables
  3
WipeOut|AutoCAD Express Tool|expresstools@autodesk.com
 90
        0
280
     0
281
     0
  0
CLASS
  1
RTEXT
  2
RText
  3
RText|AutoCAD Express Tool|expresstools@autodesk.com
 90
        0
280
     0
281
     1
  0
CLASS
  1
ARCALIGNEDTEXT
  2
AcDbArcAlignedText
  3
ATEXT|AutoCAD Express Tool|expresstools@autodesk.com
 90
        0
280
     0
281
     1
  0
CLASS
  1
LONG_TRANSACTION
  2
AcDbLongTransaction
  3
AutoCAD 2000
 90
        0
280
     0
281
     0
  0
CLASS
  1
LWPOLYLINE
  2
AcDbPolyline
  3
AutoCAD 2000
 90
        0
280
     0
281
     1
  0
CLASS
  1
HATCH
  2
AcDbHatch
  3
AutoCAD 2000
 90
        0
280
     0
281
     1
  0
CLASS
  1
XRECORD
  2
AcDbXrecord
  3
AutoCAD 2000
 90
        0
280
     0
281
     0
  0
ENDSEC
  0
SECTION
  2
TABLES
  0
TABLE
  2
VPORT
  5
8
330
0
100
AcDbSymbolTable
 70
    16
  0
VPORT
  5
DF1
330
8
100
AcDbSymbolTableRecord
100
AcDbViewportTableRecord
  2
*ACTIVE
 70
     0
 10
0.0
 20
0.0
 11
1.0
 21
1.0
 12
63.25694999904456
 22
88.47388788325591
 13
0.0
 23
0.0
 14
1.0
 24
1.0
 15
0.0
 25
0.0
 16
0.0
 26
0.0
 36
1.0
 17
0.0
 27
0.0
 37
0.0
 40
100.3504518268465
 41
1.877227722772277
 42
50.0
 43
0.0
 44
0.0
 50
0.0
 51
0.0
 71
     0
 72
   100
 73
     1
 74
     1
 75
     0
 76
     0
 77
     0
 78
     0
  0
ENDTAB
  0
TABLE
  2
LTYPE
  5
5
330
0
100
AcDbSymbolTable
 70
     7
  0
LTYPE
  5
14
330
5
100
AcDbSymbolTableRecord
100
AcDbLinetypeTableRecord
  2
BYBLOCK
 70
     0
  3

 72
    65
 73
     0
 40
0.0
  0
LTYPE
  5
15
330
5
100
AcDbSymbolTableRecord
100
AcDbLinetypeTableRecord
  2
BYLAYER
 70
     0
  3

 72
    65
 73
     0
 40
0.0
  0
LTYPE
  5
16
330
5
100
AcDbSymbolTableRecord
100
AcDbLinetypeTableRecord
  2
CONTINUOUS
 70
     0
  3
Solid line
 72
    65
 73
     0
 40
0.0
  0
LTYPE
  5
1F5
330
5
100
AcDbSymbolTableRecord
100
AcDbLinetypeTableRecord
  2
CENTER
 70
     0
  3
____ _ ____ _ ____ _ ____ _ ____ _ ____ _ ____
 72
    65
 73
     4
 40
0.6
 49
0.375
 74
     0
 49
-0.075
 74
     0
 49
0.075
 74
     0
 49
-0.075
 74
     0
  0
LTYPE
  5
1F6
330
5
100
AcDbSymbolTableRecord
100
AcDbLinetypeTableRecord
  2
HIDDEN
 70
     0
  3
- - - - - - - - - - - - - - - - - - - -
 72
    65
 73
     2
 40
0.2
 49
0.1
 74
     0
 49
-0.1
 74
     0
  0
LTYPE
  5
1F9
330
5
100
AcDbSymbolTableRecord
100
AcDbLinetypeTableRecord
  2
DASHED
 70
     0
  3
- - - - - - - - - - - - - - - - - - - -
 72
    65
 73
     2
 40
0.2
 49
0.1
 74
     0
 49
-0.1
 74
     0
  0
LTYPE
  5
DA6
330
5
100
AcDbSymbolTableRecord
100
AcDbLinetypeTableRecord
  2
CENTERX2
 70
     0
  3
Center (2x) ________  __  ________  __  _____
 72
    65
 73
     4
 40
4.0
 49
2.5
 74
     0
 49
-0.5
 74
     0
 49
0.5
 74
     0
 49
-0.5
 74
     0
  0
ENDTAB
  0
TABLE
  2
LAYER
  5
2
330
0
100
AcDbSymbolTable
 70
    53
  0
LAYER
  5
10
330
2
100
AcDbSymbolTableRecord
100
AcDbLayerTableRecord
  2
0
 70
     0
 62
     7
  6
CONTINUOUS
  0
LAYER
  5
C0F
330
2
100
AcDbSymbolTableRecord
100
AcDbLayerTableRecord
  2
DEFPOINTS
 70
     0
 62
     7
  6
CONTINUOUS
  0
LAYER
  5
DA7
330
2
100
AcDbSymbolTableRecord
100
AcDbLayerTableRecord
  2
CENTER
 70
     0
 62
     1
  6
CENTERX2
  0
ENDTAB
  0
TABLE
  2
STYLE
  5
3
330
0
100
AcDbSymbolTable
 70
     7
  0
STYLE
  5
11
330
3
100
AcDbSymbolTableRecord
100
AcDbTextStyleTableRecord
  2
STANDARD
 70
     0
 40
0.0
 41
0.8
 50
0.0
 71
     0
 42
0.2
  3
txt
  4

  0
STYLE
  5
DA5
330
3
100
AcDbSymbolTableRecord
100
AcDbTextStyleTableRecord
  2

 70
     1
 40
0.0
 41
1.0
 50
0.0
 71
     0
 42
0.2
  3
ltypeshp.shx
  4

  0
ENDTAB
  0
TABLE
  2
VIEW
  5
6
330
0
100
AcDbSymbolTable
 70
     0
  0
ENDTAB
  0
TABLE
  2
UCS
  5
7
330
0
100
AcDbSymbolTable
 70
     0
  0
ENDTAB
  0
TABLE
  2
APPID
  5
9
330
0
100
AcDbSymbolTable
 70
     2
  0
APPID
  5
232
330
9
100
AcDbSymbolTableRecord
100
AcDbRegAppTableRecord
  2
ACAD
 70
     0
  0
APPID
  5
BEB
330
9
100
AcDbSymbolTableRecord
100
AcDbRegAppTableRecord
  2
DCO15
 70
     0
  0
ENDTAB
  0
TABLE
  2
DIMSTYLE
  5
A
330
0
100
AcDbSymbolTable
 70
     5
  0
DIMSTYLE
105
259
330
A
100
AcDbSymbolTableRecord
100
AcDbDimStyleTableRecord
  2
STANDARD
 70
     0
  3

  4

  5
_FILLED
  6
_FILLED
  7
_FILLED
 40
1.0
 41
0.1875
 42
0.0625
 43
0.38
 44
0.18
 45
0.0
 46
0.0
 47
0.00001
 48
0.00001
140
0.125
141
0.09
142
0.0
143
25.4
144
1.0
145
0.0
146
1.0
147
0.09
 71
     0
 72
     0
 73
     1
 74
     1
 75
     0
 76
     0
 77
     0
 78
     4
170
     0
171
     2
172
     0
173
     0
174
     0
175
     0
176
     0
177
     0
178
     0
270
     2
271
     5
272
     5
273
     2
274
     2
340
11
275
     0
280
     0
281
     0
282
     0
283
     1
284
     4
285
     0
286
     0
287
     3
288
     0
  0
ENDTAB
  0
TABLE
  2
BLOCK_RECORD
  5
1
330
0
100
AcDbSymbolTable
 70
    40
  0
BLOCK_RECORD
  5
1F
102
{ACAD_XDICTIONARY
360
E15
102
}
330
1
100
AcDbSymbolTableRecord
100
AcDbBlockTableRecord
  2
*MODEL_SPACE
  0
BLOCK_RECORD
  5
1B
102
{ACAD_XDICTIONARY
360
E13
102
}
330
1
100
AcDbSymbolTableRecord
100
AcDbBlockTableRecord
  2
*PAPER_SPACE
  0
BLOCK_RECORD
  5
233
330
1
100
AcDbSymbolTableRecord
100
AcDbBlockTableRecord
  2
_FILLED
  0
ENDTAB
  0
ENDSEC
  0
SECTION
  2
BLOCKS
  0
BLOCK
  5
20
330
1F
100
AcDbEntity
  8
0
100
AcDbBlockBegin
  2
*MODEL_SPACE
 70
     0
 10
0.0
 20
0.0
 30
0.0
  3
*MODEL_SPACE
  1

  0
ENDBLK
  5
21
330
1F
100
AcDbEntity
  8
0
100
AcDbBlockEnd
  0
BLOCK
  5
1C
330
1B
100
AcDbEntity
 67
     1
  8
0
100
AcDbBlockBegin
  2
*PAPER_SPACE
 70
     0
 10
0.0
 20
0.0
 30
0.0
  3
*PAPER_SPACE
  1

  0
ENDBLK
  5
1D
330
1B
100
AcDbEntity
 67
     1
  8
0
100
AcDbBlockEnd
  0
BLOCK
  5
49B
330
233
100
AcDbEntity
  8
0
100
AcDbBlockBegin
  2
_FILLED
 70
     0
 10
0.0
 20
0.0
 30
0.0
  3
_FILLED
  1

  0
SOLID
  5
49C
330
233
100
AcDbEntity
  8
0
  6
BYBLOCK
 62
     0
100
AcDbTrace
 10
0.0
 20
0.0
 30
0.0
 11
-1.0
 21
0.1666666667
 31
0.0
 12
-1.0
 22
-0.1666666667
 32
0.0
 13
-1.0
 23
-0.1666666667
 33
0.0
  0
ENDBLK
  5
49D
330
233
100
AcDbEntity
  8
0
  6
BYBLOCK
 62
     0
100
AcDbBlockEnd
  0
ENDSEC
  0
SECTION
  2
ENTITIES
  0
LWPOLYLINE
  5
AD1
330
1F
100
AcDbEntity
  8
0
  6
CONTINUOUS
 62
     7
100
AcDbPolyline
 90
       16
 70
     0
 43
0.0
 10
15.31485611880501
 20
112.9731653396503
 10
15.316218875605
 20
112.9992719124503
 10
15.32029194280501
 20
113.0250717972503
 10
15.327029485205
 20
113.0502829300503
 10
15.33635676680501
 20
113.0746312868503
 10
15.348171677205
 20
113.0978545716503
 10
15.36234550280501
 20
113.1197022036503
 10
15.37872450600501
 20
113.1399386452503
 10
15.39713145640501
 20
113.1583455988503
 10
15.41736789480501
 20
113.1747246068503
 10
15.43921552040501
 20
113.1888984372503
 10
15.46243880040501
 20
113.2007133492503
 10
15.48678715560501
 20
113.2100406356503
 10
15.51199828040501
 20
113.2167781860503
 10
15.53779818440501
 20
113.2208512548503
 10
15.56390479400501
 20
113.2222140148503
  0
LINE
  5
AD2
330
1F
100
AcDbEntity
  8
0
  6
CONTINUOUS
 62
     7
100
AcDbLine
 10
14.95454033000501
 20
78.08062715245036
 30
0.0
 11
14.95454033000501
 21
113.0844324548503
 31
0.0
  0
LINE
  5
AD3
330
1F
100
AcDbEntity
  8
0
  6
CONTINUOUS
 62
     7
100
AcDbLine
 10
15.31485611880501
 20
78.19189426765035
 30
0.0
 11
15.31485611880501
 21
112.9731653396503
 31
0.0
  0
LWPOLYLINE
  5
AD4
330
1F
100
AcDbEntity
  8
0
  6
CONTINUOUS
 62
     7
100
AcDbPolyline
 90
       43
 70
     0
 43
0.0
 10
16.34626717480501
 20
95.58252980365038
 10
16.36395811400501
 20
96.41258616365036
 10
16.415972987605
 20
97.22002723885035
 10
16.50050611720501
 20
98.00155982925037
 10
16.61523795400501
 20
98.75264669165037
 10
16.75753533160501
 20
99.46921087405037
 10
16.92653890600501
 20
100.1567573236503
 10
17.12205594760501
 20
100.8206034164503
 10
17.342639285205
 20
101.4602886932503
 10
17.58588694440501
 20
102.0727096772503
 10
17.84987549960501
 20
102.6567662356503
 10
18.13360012840501
 20
103.2133895652503
 10
18.43970275560501
 20
103.7497852404503
 10
18.76741424840501
 20
104.2657065636503
 10
19.11526640680501
 20
104.7597920244503
 10
19.48325469960501
 20
105.2327743348503
 10
19.87347965800501
 20
105.6877273364503
 10
20.28461117320501
 20
106.1231359668503
 10
20.71498635880501
 20
106.5373579588503
 10
21.16659928840501
 20
106.9321862420503
 10
21.64106681640501
 20
107.3086633460503
 10
22.13655460680501
 20
107.6648080708503
 10
22.652350370005
 20
107.9996244116503
 10
23.19690792520501
 20
108.3175906164503
 10
23.77649525960501
 20
108.6206337764503
 10
24.39837045000501
 20
108.9101318964503
 10
25.06322838120501
 20
109.1837977732503
 10
25.74612760840501
 20
109.4299124548503
 10
26.42169426920501
 20
109.6405317124503
 10
27.06688812200501
 20
109.8109750884503
 10
27.72819818760501
 20
109.9546983460503
 10
28.42873553960501
 20
110.0744019044503
 10
29.16170525640501
 20
110.1659041780503
 10
29.96758937160501
 20
110.2306017332503
 10
30.79731940360501
 20
110.2634789172503
 10
31.52806717800501
 20
110.2692933588503
 10
32.17869264520501
 20
110.2601144772503
 10
32.76286113480501
 20
110.2422204292503
 10
33.28986491400501
 20
110.2193602932503
 10
33.76702519880501
 20
110.1938838852503
 10
34.20030601960501
 20
110.1673145172503
 10
34.59476534120502
 20
110.1406446052503
 10
34.95453497160501
 20
110.1145057204503
  0
LWPOLYLINE
  5
AD5
330
1F
100
AcDbEntity
  8
0
  6
CONTINUOUS
 62
     7
100
AcDbPolyline
 90
       31
 70
     0
 43
0.0
 10
21.77891135080501
 20
95.58252980365038
 10
21.78111824360501
 20
95.46812187085036
 10
21.787811462805
 20
95.35312700525038
 10
21.79904006760501
 20
95.23841936525036
 10
21.81476597480501
 20
95.12489954125035
 10
21.83486495880501
 20
95.01344684685037
 10
21.85922208200501
 20
94.90452719565036
 10
21.88782938120501
 20
94.79815381485037
 10
21.92075663560501
 20
94.69428825005037
 10
21.95816179080501
 20
94.59287579405037
 10
22.00019282280501
 20
94.49411172685035
 10
22.04701187720501
 20
94.39829350285036
 10
22.09941470440501
 20
94.30475546605036
 10
22.157518477205
 20
94.21442383885036
 10
22.22229049640501
 20
94.12705283725037
 10
22.29468072200501
 20
94.04290969005035
 10
22.37556359240501
 20
93.96268562125035
 10
22.46575297000501
 20
93.88731839725037
 10
22.56569461320501
 20
93.81800559085036
 10
22.675633112405
 20
93.75487706765037
 10
22.79594379080501
 20
93.69592179565035
 10
22.92628994120501
 20
93.63927443885035
 10
23.06717135560501
 20
93.58479084365034
 10
23.21832931080501
 20
93.53190645325037
 10
23.37881073000501
 20
93.47917514925034
 10
23.54844346120501
 20
93.42311391245036
 10
23.72813045480501
 20
93.35745233805036
 10
23.91843232360501
 20
93.27141688685037
 10
24.11840839400501
 20
93.15200116845037
 10
24.33578487400501
 20
92.98938898925035
 10
24.54592831400501
 20
92.80009303405035
  0
LWPOLYLINE
  5
AD6
330
1F
100
AcDbEntity
  8
0
  6
CONTINUOUS
 62
     7
100
AcDbPolyline
 90
       31
 70
     0
 43
0.0
 10
21.77891135080501
 20
95.58252980365038
 10
21.78111824360501
 20
95.69693773805036
 10
21.787811462805
 20
95.81193260205035
 10
21.79904006760501
 20
95.92664024205035
 10
21.81476597480501
 20
96.04016006605036
 10
21.83486495880501
 20
96.15161276045036
 10
21.85922208200501
 20
96.26053241165037
 10
21.88782938120501
 20
96.36690579245035
 10
21.92075663560501
 20
96.47077135725036
 10
21.95816179080501
 20
96.57218381325035
 10
22.00019282280501
 20
96.67094788045037
 10
22.04701187720501
 20
96.76676610445037
 10
22.09941470440501
 20
96.86030414125037
 10
22.157518477205
 20
96.95063576845036
 10
22.22229049640501
 20
97.03800677005038
 10
22.29468072200501
 20
97.12214991725037
 10
22.37556359240501
 20
97.20237398605036
 10
22.46575297000501
 20
97.27774121005035
 10
22.56569461320501
 20
97.34705401645037
 10
22.675633112405
 20
97.41018253965036
 10
22.79594379080501
 20
97.46913781165037
 10
22.92628994120501
 20
97.52578516845037
 10
23.06717135560501
 20
97.58026876365036
 10
23.21832931080501
 20
97.63315315565035
 10
23.37881073000501
 20
97.68588445805036
 10
23.54844346120501
 20
97.74194569485036
 10
23.72813045480501
 20
97.80760726925036
 10
23.91843232360501
 20
97.89364272045038
 10
24.11840839400501
 20
98.01305843885035
 10
24.33578487400501
 20
98.17567061965036
 10
24.54592831400501
 20
98.36496657325037
  0
LWPOLYLINE
  5
AD7
330
1F
100
AcDbEntity
  8
0
  6
CONTINUOUS
 62
     7
100
AcDbPolyline
 90
       31
 70
     0
 43
0.0
 10
24.14705397480501
 20
95.58252980365038
 10
24.14786113640501
 20
95.49499051565035
 10
24.15028769000501
 20
95.40716200525038
 10
24.15434124680501
 20
95.31906721165034
 10
24.16003095400501
 20
95.23071378285036
 10
24.16737212680501
 20
95.14204818445037
 10
24.17638161480501
 20
95.05300158285036
 10
24.18424510760501
 20
94.98592385805038
 10
24.19307205160501
 20
94.91855603725037
 10
24.20287799240501
 20
94.85086105165036
 10
24.21367847240501
 20
94.78280183725036
 10
24.22548980360501
 20
94.71434336045035
 10
24.23833137160501
 20
94.64545873165036
 10
24.25222333160501
 20
94.57612309805037
 10
24.26718583400501
 20
94.50631160045038
 10
24.28323933160501
 20
94.43600082765035
 10
24.30040544840501
 20
94.36517312845035
 10
24.31870610600501
 20
94.29381229645036
 10
24.33816322920501
 20
94.22190212045036
 10
24.35880042600501
 20
94.14942341965035
 10
24.38064805160501
 20
94.07634513325035
 10
24.40373815080501
 20
94.00263322125036
 10
24.42810276680501
 20
93.92825364845036
 10
24.45377417000501
 20
93.85317487245036
 10
24.48078554600501
 20
93.77737531085037
 10
24.50917030760501
 20
93.70083587565037
 10
24.53896186760501
 20
93.62353747725036
 10
24.57019096520501
 20
93.54546741325036
 10
24.60287765000501
 20
93.46663851565038
 10
24.63703929640501
 20
93.38707000365037
 10
24.67269328200501
 20
93.30678109805035
  0
LWPOLYLINE
  5
AD8
330
1F
100
AcDbEntity
  8
0
  6
CONTINUOUS
 62
     7
100
AcDbPolyline
 90
        7
 70
     0
 43
0.0
 10
26.08739627080501
 20
103.6176532308503
 10
26.33105167880501
 20
104.0530020132503
 10
26.58617618920501
 20
104.4700555124503
 10
26.85002735560501
 20
104.8657523716503
 10
27.12001339880501
 20
105.2375614116503
 10
27.39229482920501
 20
105.5820523412503
 10
27.662424067605
 20
105.8959512436503
  0
LWPOLYLINE
  5
AD9
330
1F
100
AcDbEntity
  8
0
  6
CONTINUOUS
 62
     7
100
AcDbPolyline
 90
       19
 70
     0
 43
0.0
 10
25.32857709800501
 20
99.26913981325036
 10
25.32108861320501
 20
99.24068852525037
 10
25.313287917205
 20
99.21231770605036
 10
25.30517399720501
 20
99.18402515245038
 10
25.29674584200501
 20
99.15580865485038
 10
25.28800244200501
 20
99.12766601005035
 10
25.27894278440501
 20
99.09959501325037
 10
25.26956637480501
 20
99.07159496685038
 10
25.25987477480501
 20
99.04367122605036
 10
25.24987006120501
 20
99.01583065325036
 10
25.23955431080501
 20
98.98808010925035
 10
25.22892960040501
 20
98.96042646125037
 10
25.21799800680501
 20
98.93287657165036
 10
25.20676103240501
 20
98.90543583085037
 10
25.19521788040501
 20
98.87810375245036
 10
25.18336717960501
 20
98.85087837165038
 10
25.17120756040501
 20
98.82375773005037
 10
25.15873765000501
 20
98.79673986445036
 10
25.14595608040501
 20
98.76982281805036
  0
LWPOLYLINE
  5
ADA
330
1F
100
AcDbEntity
  8
0
  6
CONTINUOUS
 62
     7
100
AcDbPolyline
 90
       31
 70
     0
 43
0.0
 10
24.67269328200501
 20
97.85827850925038
 10
24.63703929640501
 20
97.77798960365036
 10
24.60287765000501
 20
97.69842109165038
 10
24.57019096520501
 20
97.61959219405037
 10
24.53896186760501
 20
97.54152213005037
 10
24.50917030760501
 20
97.46422373165035
 10
24.48078554600501
 20
97.38768429645038
 10
24.45377417000501
 20
97.31188473485037
 10
24.42810276680501
 20
97.23680595885037
 10
24.40373815080501
 20
97.16242638605036
 10
24.38064805160501
 20
97.08871447565037
 10
24.35880042600501
 20
97.01563618765035
 10
24.33816322920501
 20
96.94315748845037
 10
24.31870610600501
 20
96.87124731085035
 10
24.30040544840501
 20
96.79988647885037
 10
24.28323933160501
 20
96.72905877965035
 10
24.26718583400501
 20
96.65874800685038
 10
24.25222333160501
 20
96.58893651085037
 10
24.23833137160501
 20
96.51960087565036
 10
24.22548980360501
 20
96.45071624685037
 10
24.21367847240501
 20
96.38225777005036
 10
24.20287799240501
 20
96.31419855565036
 10
24.19307205160501
 20
96.24650357005036
 10
24.18424510760501
 20
96.17913574925035
 10
24.17638161480501
 20
96.11205802445036
 10
24.16737212680501
 20
96.02301142285037
 10
24.16003095400501
 20
95.93434582445036
 10
24.15434124680501
 20
95.84599239565037
 10
24.15028769000501
 20
95.75789760205035
 10
24.14786113640501
 20
95.67006909165035
 10
24.14705397480501
 20
95.58252980365038
  0
LWPOLYLINE
  5
ADB
330
1F
100
AcDbEntity
  8
0
  6
CONTINUOUS
 62
     7
100
AcDbPolyline
 90
       12
 70
     0
 43
0.0
 10
25.14595608200501
 20
98.76982281645036
 10
25.13780549800501
 20
98.75303485005037
 10
25.12954271560501
 20
98.73628985805035
 10
25.12116734760501
 20
98.71958736845037
 10
25.112679008405
 20
98.70292690765035
 10
25.10407748840501
 20
98.68630835565037
 10
25.09536330440501
 20
98.66973300365035
 10
25.08653715080501
 20
98.65320249645035
 10
25.07759972200501
 20
98.63671847565036
 10
25.06855153480501
 20
98.62028223565037
 10
25.059392403605
 20
98.60389365485037
 10
25.05012196520501
 20
98.58755226285035
  0
LWPOLYLINE
  5
ADD
330
1F
100
AcDbEntity
  8
0
  6
CONTINUOUS
 62
     7
100
AcDbPolyline
 90
        3
 70
     0
 43
0.0
 10
26.50603073000501
 20
103.6235743300503
 10
26.48936727080501
 20
103.5938854276503
 10
26.47360693320501
 20
103.5648212052503
  0
LWPOLYLINE
  5
ADE
330
1F
100
AcDbEntity
  8
0
  6
CONTINUOUS
 62
     7
100
AcDbPolyline
 90
       18
 70
     0
 43
0.0
 10
25.05012196520501
 20
98.58755226285035
 10
25.01681696680501
 20
98.52975129485038
 10
24.99332235560501
 20
98.48846268365036
 10
24.97025452840501
 20
98.44739714605035
 10
24.94761199400501
 20
98.40656007565037
 10
24.92539325640501
 20
98.36595686125036
 10
24.90359682280501
 20
98.32559289645036
 10
24.88222004200501
 20
98.28547122445037
 10
24.86125564040501
 20
98.24558550605036
 10
24.84069518120501
 20
98.20592705165035
 10
24.82053023240501
 20
98.16648717645037
 10
24.80075236360501
 20
98.12725719085037
 10
24.78135313640501
 20
98.08822841005037
 10
24.75856405160501
 20
98.04165110125035
 10
24.73630578920501
 20
97.99535923885038
 10
24.714576070805
 20
97.94936104685035
 10
24.69337261640501
 20
97.90366474925036
 10
24.67269314440501
 20
97.85827857165038
  0
LWPOLYLINE
  5
ADF
330
1F
100
AcDbEntity
  8
0
  6
CONTINUOUS
 62
     7
100
AcDbPolyline
 90
       11
 70
     0
 43
0.0
 10
26.50603073000501
 20
103.6235743300503
 10
26.59444919880501
 20
103.7672231124503
 10
26.70470336040501
 20
103.9234425204503
 10
26.84042515560501
 20
104.0928943348503
 10
27.00498559720501
 20
104.2752205988503
 10
27.19987387400501
 20
104.4677399188503
 10
27.42524388840501
 20
104.6667233508503
 10
27.68253555240501
 20
104.8699615508503
 10
27.97227933480501
 20
105.0747748356503
 10
28.29220099560501
 20
105.2767681508503
 10
28.64057991880501
 20
105.4724731604503
  0
LWPOLYLINE
  5
AE0
330
1F
100
AcDbEntity
  8
0
  6
CONTINUOUS
 62
     7
100
AcDbPolyline
 90
       42
 70
     0
 43
0.0
 10
27.29177337640501
 20
103.5386777236503
 10
27.22516900040501
 20
103.4502190324503
 10
27.15871845640501
 20
103.3594583540503
 10
27.09249695400501
 20
103.2664277556503
 10
27.02657970280501
 20
103.1711593012503
 10
26.961014451605
 20
103.0736463092503
 10
26.89573911560501
 20
102.9737270996503
 10
26.83066414280501
 20
102.8712012436503
 10
26.76569998920501
 20
102.7658683092503
 10
26.71374925160501
 20
102.6794380836503
 10
26.66177212520501
 20
102.5909318756503
 10
26.60972860520501
 20
102.5001985092503
 10
26.55757869000501
 20
102.4070868036503
 10
26.50528237640501
 20
102.3114455812503
 10
26.46158544680501
 20
102.2297521940503
 10
26.41788008040501
 20
102.1464035236503
 10
26.37428728360501
 20
102.0616058804503
 10
26.33089266600501
 20
101.9754858148503
 10
26.28764024200501
 20
101.8878508260503
 10
26.24443863080501
 20
101.7984286564503
 10
26.19262852520501
 20
101.6886126260503
 10
26.14116262120501
 20
101.5767585156503
 10
26.09044354280501
 20
101.4637938452503
 10
26.04087391720501
 20
101.3506461284503
 10
25.99285636680501
 20
101.2382428852503
 10
25.95425548680501
 20
101.1456898884503
 10
25.91687098440501
 20
101.0541058740503
 10
25.88056181000501
 20
100.9632987172503
 10
25.82790604520501
 20
100.8283138228503
 10
25.77747819400501
 20
100.6951331524503
 10
25.72936858600501
 20
100.5641779524503
 10
25.68352567240501
 20
100.4356001876503
 10
25.63986243880501
 20
100.3094845028503
 10
25.59829186920501
 20
100.1859155428503
 10
25.55872154920501
 20
100.0649097252503
 10
25.52103745000501
 20
99.94621057005037
 10
25.485120144405
 20
99.82949337005036
 10
25.45085020360501
 20
99.71443341485036
 10
25.41811957640501
 20
99.60078203405036
 10
25.38686570920501
 20
99.48859469485036
 10
25.35703743080501
 20
99.37800289805037
 10
25.32858356200501
 20
99.26913814925036
  0
LWPOLYLINE
  5
AE1
330
1F
100
AcDbEntity
  8
0
  6
CONTINUOUS
 62
     7
100
AcDbPolyline
 90
        7
 70
     0
 43
0.0
 10
27.662424067605
 20
85.26910836365036
 10
27.39229482920501
 20
85.58300726605036
 10
27.12001339880501
 20
85.92749819565035
 10
26.85002735560501
 20
86.29930723565037
 10
26.58617618920501
 20
86.69500409485037
 10
26.33105167880501
 20
87.11205759405036
 10
26.08739627080501
 20
87.54740637645037
  0
LWPOLYLINE
  5
AE2
330
1F
100
AcDbEntity
  8
0
  6
CONTINUOUS
 62
     7
100
AcDbPolyline
 90
      101
 70
     0
 43
0.0
 10
27.29177309480501
 20
87.62638225325035
 10
27.37494006120501
 20
87.52080533485036
 10
27.46347728360501
 20
87.41548242285036
 10
27.52555573160501
 20
87.34546491725037
 10
27.59013213000501
 20
87.27564041485036
 10
27.65725569000501
 20
87.20603706765036
 10
27.72697340360501
 20
87.13668535885036
 10
27.79932336200501
 20
87.06762511565036
 10
27.87434143560501
 20
86.99889849325037
 10
27.95206455240501
 20
86.93054717325036
 10
28.03253386920501
 20
86.86261091565036
 10
28.11579160200501
 20
86.79512899725036
 10
28.20186673320501
 20
86.72815254925037
 10
28.29073531720501
 20
86.66178008845035
 10
28.38236017480501
 20
86.59612198605037
 10
28.47671773800501
 20
86.53127707085037
 10
28.57383887080501
 20
86.46729801645035
 10
28.67376805320501
 20
86.40422596045036
 10
28.77655104520501
 20
86.34210240205035
 10
28.882238758805
 20
86.28097032525037
 10
28.99088338760501
 20
86.22087307725037
 10
29.10254619720501
 20
86.16185171885035
 10
29.21732471880501
 20
86.10393815405037
 10
29.33532555400501
 20
86.04716199725036
 10
29.45664443720501
 20
85.99155888365036
 10
29.58133364360501
 20
85.93718851245036
 10
29.70943458120501
 20
85.88411660045036
 10
29.84103293960501
 20
85.83239684525036
 10
29.97639150600501
 20
85.78203483885037
 10
30.115817346005
 20
85.73302415405036
 10
30.25962163240501
 20
85.68536516845036
 10
30.40813193800501
 20
85.63908548525036
 10
30.56167994280501
 20
85.59421951405036
 10
30.68034665480501
 20
85.56151942765037
 10
30.80217471400501
 20
85.52965409005036
 10
30.92730519720501
 20
85.49864368365035
 10
31.05587917640501
 20
85.46850839085037
 10
31.18803512040501
 20
85.43927341325035
 10
31.32390108040501
 20
85.41098403885035
 10
31.46360250280501
 20
85.38369057645036
 10
31.60726483400501
 20
85.35744333325036
 10
31.75496623240501
 20
85.33229979245035
 10
31.90659569800501
 20
85.30834613005037
 10
32.06199493960501
 20
85.28567569805035
 10
32.22100566920501
 20
85.26438184365035
 10
32.38348144360501
 20
85.24454833485036
 10
32.54932322120501
 20
85.22622058765035
 10
32.71844380840501
 20
85.20943443565036
 10
32.89075601000501
 20
85.19422571085035
 10
33.03091090760501
 20
85.18321538125036
 10
33.17340260040501
 20
85.17323681645036
 10
33.31858105320501
 20
85.16428929645035
 10
33.46679623080501
 20
85.15637210125035
 10
33.61839809960502
 20
85.14948450925036
 10
33.74750258600501
 20
85.14453559565037
 10
33.87898484840501
 20
85.14032934445037
 10
34.01262776360501
 20
85.13689391885035
 10
34.14828775560501
 20
85.13425426445037
 10
34.28611542600501
 20
85.13242247245036
 10
34.42633492200501
 20
85.13140742125036
 10
34.56908739560501
 20
85.13121877325037
 10
34.71418200360501
 20
85.13186935405036
 10
34.86134490120501
 20
85.13337277325035
 10
35.08481273000501
 20
85.13722332845036
 10
35.30934407400501
 20
85.14291218605036
 10
35.536258776405
 20
85.15045582925036
 10
35.76480061800501
 20
85.15973114925037
 10
35.99337350600501
 20
85.17056930125036
 10
36.22038134760501
 20
85.18280144205036
 10
36.44512877960501
 20
85.19629672525036
 10
36.66899298280501
 20
85.21099194925035
 10
36.81614686280501
 20
85.22129090765035
 10
36.96083983240501
 20
85.23188585805035
 10
37.10271178600502
 20
85.24270065965037
 10
37.241509250005
 20
85.25366936845037
 10
37.37740523880501
 20
85.26476683085036
 10
37.51067939880501
 20
85.27597808685035
 10
37.64147541480501
 20
85.28727724205037
 10
37.76939313000501
 20
85.29859465005037
 10
37.89389643400501
 20
85.30984972685036
 10
38.014641371605
 20
85.32098064365035
 10
38.132052624405
 20
85.33200060685036
 10
38.24674702920501
 20
85.34294157645035
 10
38.41475045000501
 20
85.35925384365036
 10
38.57835008840501
 20
85.37544222125037
 10
38.737934365205
 20
85.39149724525037
 10
38.89416042440501
 20
85.40744386445036
 10
39.04784551560501
 20
85.42332814445037
 10
39.200178552405
 20
85.43924617805037
 10
39.50384176520501
 20
85.47140757645037
 10
39.65510273960501
 20
85.48760238925035
 10
39.80678594600501
 20
85.50393283725036
 10
40.01091099560501
 20
85.52601812525036
 10
40.21666041000502
 20
85.54837687885036
 10
40.42305933160501
 20
85.57087861805035
 10
41.04072548040501
 20
85.63842045005037
 10
41.65583552040501
 20
85.70550504365035
 10
42.27121064840502
 20
85.77170691245035
 10
42.88776896040501
 20
85.83638117645035
 10
43.50507206600501
 20
85.89877053805036
 10
44.12264803560501
 20
85.95817430285036
  0
LWPOLYLINE
  5
AE3
330
1F
100
AcDbEntity
  8
0
  6
CONTINUOUS
 62
     7
100
AcDbPolyline
 90
       11
 70
     0
 43
0.0
 10
26.50603073000501
 20
87.54148527725035
 10
26.59444919880501
 20
87.39783649485037
 10
26.70470336040501
 20
87.24161708685036
 10
26.84042515560501
 20
87.07216527245035
 10
27.00498559720501
 20
86.88983900845036
 10
27.19987387400501
 20
86.69731968845036
 10
27.42524388840501
 20
86.49833625645035
 10
27.68253555240501
 20
86.29509805805035
 10
27.97227933480501
 20
86.09028477165036
 10
28.29220099560501
 20
85.88829145645036
 10
28.64057991880501
 20
85.69258644685035
  0
LWPOLYLINE
  5
AE4
330
1F
100
AcDbEntity
  8
0
  6
CONTINUOUS
 62
     7
100
AcDbPolyline
 90
       13
 70
     0
 43
0.0
 10
25.01681697640501
 20
92.63530829485038
 10
25.05012196520501
 20
92.57750734445037
 10
25.059392403605
 20
92.56116595245035
 10
25.06855153480501
 20
92.54477737165036
 10
25.07759972200501
 20
92.52834113165036
 10
25.08653715080501
 20
92.51185711085037
 10
25.09536330440501
 20
92.49532660365037
 10
25.10407748840501
 20
92.47875125165036
 10
25.112679008405
 20
92.46213269965037
 10
25.12116734760501
 20
92.44547223885035
 10
25.12954271560501
 20
92.42876974925037
 10
25.13780549800501
 20
92.41202475725035
 10
25.14595608200501
 20
92.39523679085037
  0
LWPOLYLINE
  5
AE6
330
1F
100
AcDbEntity
  8
0
  6
CONTINUOUS
 62
     7
100
AcDbPolyline
 90
        3
 70
     0
 43
0.0
 10
26.47360693320501
 20
87.60023840205036
 10
26.48936727080501
 20
87.57117417965035
 10
26.50603073000501
 20
87.54148527725035
  0
LWPOLYLINE
  5
AE7
330
1F
100
AcDbEntity
  8
0
  6
CONTINUOUS
 62
     7
100
AcDbPolyline
 90
       19
 70
     0
 43
0.0
 10
25.14595608040501
 20
92.39523678925037
 10
25.15873765000501
 20
92.36831974285037
 10
25.17120756040501
 20
92.34130187725037
 10
25.18336717960501
 20
92.31418123565035
 10
25.19521788040501
 20
92.28695585485036
 10
25.20676103240501
 20
92.25962377645036
 10
25.21799800680501
 20
92.23218303565037
 10
25.22892960040501
 20
92.20463314605035
 10
25.23955431080501
 20
92.17697949805037
 10
25.24987006120501
 20
92.14922895565036
 10
25.25987477480501
 20
92.12138838125037
 10
25.26956637480501
 20
92.09346464045035
 10
25.27894278440501
 20
92.06546459565036
 10
25.28800244200501
 20
92.03739359725037
 10
25.29674584200501
 20
92.00925095245038
 10
25.30517399720501
 20
91.98103445645037
 10
25.313287917205
 20
91.95274190125036
 10
25.32108861320501
 20
91.92437108205036
 10
25.32857709800501
 20
91.89591979405037
  0
LWPOLYLINE
  5
AE8
330
1F
100
AcDbEntity
  8
0
  6
CONTINUOUS
 62
     7
100
AcDbPolyline
 90
       17
 70
     0
 43
0.0
 10
24.67269314440501
 20
93.30678103565038
 10
24.693372643605
 20
93.26139479565037
 10
24.71457612360501
 20
93.21569844845035
 10
24.73630586120501
 20
93.16970021805037
 10
24.75856413640501
 20
93.12340833005036
 10
24.781353230805
 20
93.07683100845038
 10
24.80075245640501
 20
93.03780222765036
 10
24.82053032360501
 20
92.99857225165036
 10
24.84069526440501
 20
92.95913239245036
 10
24.86125571400501
 20
92.91947395725037
 10
24.88222010760501
 20
92.87958825965034
 10
24.90359687720501
 20
92.83946660845035
 10
24.92539330120501
 20
92.79910266285037
 10
24.94761203080501
 20
92.75849946605035
 10
24.97025455720501
 20
92.71766241005037
 10
24.99332237480501
 20
92.67659689005034
 10
25.01681697640501
 20
92.63530829485038
  0
LWPOLYLINE
  5
AE9
330
1F
100
AcDbEntity
  8
0
  6
CONTINUOUS
 62
     7
100
AcDbPolyline
 90
       41
 70
     0
 43
0.0
 10
25.32858356200501
 20
91.89592145805036
 10
25.35696844360501
 20
91.78729661805036
 10
25.38681149160501
 20
91.67661716205037
 10
25.41821380040501
 20
91.56390185965035
 10
25.45127646440501
 20
91.44916948365036
 10
25.48608514920501
 20
91.33243956525037
 10
25.52266378120501
 20
91.21373467565035
 10
25.56102085960501
 20
91.09307815405037
 10
25.60116488360501
 20
90.97049333005037
 10
25.64312872520501
 20
90.84597613005035
 10
25.68704277480501
 20
90.71941284525037
 10
25.73306180200501
 20
90.59066235885037
 10
25.78134057320501
 20
90.45958355245037
 10
25.83197759400501
 20
90.32617007405036
 10
25.88484632200501
 20
90.19095463405035
 10
25.93986433640501
 20
90.05440101485035
 10
25.99735074760501
 20
89.91615820685035
 10
26.04530094920501
 20
89.80416507245037
 10
26.09472573480501
 20
89.69159238125035
 10
26.14525143880501
 20
89.57929666125037
 10
26.19650439240501
 20
89.46813445005036
 10
26.24811093000501
 20
89.35896227725036
 10
26.29116629320501
 20
89.27000043085035
 10
26.33428785320501
 20
89.18277214125037
 10
26.37755575720501
 20
89.09703418445037
 10
26.42101643080501
 20
89.01261818445036
 10
26.46458142920501
 20
88.92965517965036
 10
26.50812858760501
 20
88.84835106445036
 10
26.56023248840501
 20
88.75317974925037
 10
26.61218088520501
 20
88.66053347085037
 10
26.66401987560501
 20
88.57025198125036
 10
26.71579556200501
 20
88.48217503085036
 10
26.76755404520501
 20
88.39614237165035
 10
26.83229632040501
 20
88.29125401165036
 10
26.89716259240501
 20
88.18912733005037
 10
26.96223170440501
 20
88.08958018765036
 10
27.02758250280501
 20
87.99243045005036
 10
27.09326873320501
 20
87.89753065485035
 10
27.15924374280501
 20
87.80487206445036
 10
27.22543578120501
 20
87.71448061645036
 10
27.29177309480501
 20
87.62638225325035
  0
LWPOLYLINE
  5
AEA
330
1F
100
AcDbEntity
  8
0
  6
CONTINUOUS
 62
     7
100
AcDbPolyline
 90
        7
 70
     0
 43
0.0
 10
24.54593781000501
 20
98.36499843245036
 10
24.71449676840501
 20
98.53931661165034
 10
24.85830279720501
 20
98.69976679405036
 10
24.98271077000501
 20
98.84369334285038
 10
25.10214021960501
 20
98.98507870125037
 10
25.22404029960501
 20
99.13429899725038
 10
25.34450425960501
 20
99.29049736045037
  0
LWPOLYLINE
  5
AEB
330
1F
100
AcDbEntity
  8
0
  6
CONTINUOUS
 62
     7
100
AcDbPolyline
 90
        8
 70
     0
 43
0.0
 10
29.81187368200501
 20
107.5864996884503
 10
29.49163400520501
 20
107.4097042500503
 10
29.16964743400501
 20
107.2100649508503
 10
28.86238276360501
 20
106.9965410516503
 10
28.56528444680501
 20
106.7653267012503
 10
28.26764400840501
 20
106.5072941556503
 10
27.96709711080501
 20
106.2188310292503
 10
27.662424067605
 20
105.8959512436503
  0
LWPOLYLINE
  5
AEC
330
1F
100
AcDbEntity
  8
0
  6
CONTINUOUS
 62
     7
100
AcDbPolyline
 90
       30
 70
     0
 43
0.0
 10
29.81187368200501
 20
107.5864996868503
 10
30.20202638280501
 20
107.7756810564503
 10
30.62395205320501
 20
107.9530682772503
 10
31.08310968840501
 20
108.1183318116503
 10
31.58619762280501
 20
108.2707603588503
 10
32.14164641960501
 20
108.4092110644503
 10
32.73505453160501
 20
108.5275657300503
 10
33.325622712405
 20
108.6194402436503
 10
33.91277934920501
 20
108.6887502020503
 10
34.45326208680501
 20
108.7356482036503
 10
34.92745736840501
 20
108.7649980212503
 10
35.34630981800501
 20
108.7828025812503
 10
35.72148257640501
 20
108.7933981444503
 10
36.062354147605
 20
108.7993703284503
 10
36.37206498280501
 20
108.8021660676503
 10
36.65118428200502
 20
108.8027579252503
 10
36.90146574600501
 20
108.8018545524503
 10
37.125316842005
 20
108.7999639492503
 10
37.32526925160501
 20
108.7974450612503
 10
37.50375196840501
 20
108.7945508116503
 10
37.66302330760501
 20
108.7914584116503
 10
37.80513050920501
 20
108.7882913892503
 10
37.93191155400501
 20
108.7851348740503
 10
38.04501429160501
 20
108.7820461236503
 10
38.14589129960501
 20
108.7790625812503
 10
38.23580577320501
 20
108.7762076804503
 10
38.31585694280501
 20
108.7734941476503
 10
38.38698728520501
 20
108.7709260276503
 10
38.44996723400501
 20
108.7684986132503
 10
38.50534285160501
 20
108.7661892292503
  0
LINE
  5
AED
330
1F
100
AcDbEntity
  8
0
  6
CONTINUOUS
 62
     7
100
AcDbLine
 10
80.45644298120501
 20
77.58252980365035
 30
0.0
 11
15.45263767880501
 21
77.58252980365035
 31
0.0
  0
LWPOLYLINE
  5
AEE
330
1F
100
AcDbEntity
  8
0
  6
CONTINUOUS
 62
     7
100
AcDbPolyline
 90
       16
 70
     0
 43
0.0
 10
15.56390479400501
 20
77.94284559245037
 10
15.53779818440501
 20
77.94420835245036
 10
15.51199828040501
 20
77.94828142125036
 10
15.48678715560501
 20
77.95501897165036
 10
15.46243880040501
 20
77.96434625805035
 10
15.43921552040501
 20
77.97616117005036
 10
15.41736789480501
 20
77.99033500045036
 10
15.39713145640501
 20
78.00671400845036
 10
15.37872450600501
 20
78.02512096205036
 10
15.36234550280501
 20
78.04535740365036
 10
15.348171677205
 20
78.06720503565036
 10
15.33635676680501
 20
78.09042832045036
 10
15.327029485205
 20
78.11477667725036
 10
15.32029194280501
 20
78.13998781005036
 10
15.316218875605
 20
78.16578769485037
 10
15.31485611880501
 20
78.19189426765035
  0
LWPOLYLINE
  5
AEF
330
1F
100
AcDbEntity
  8
0
  6
CONTINUOUS
 62
     7
100
AcDbPolyline
 90
       16
 70
     0
 43
0.0
 10
15.45263767880501
 20
77.58252980365035
 10
15.40082481160501
 20
77.58562538125037
 10
15.34955543720501
 20
77.59409546125036
 10
15.29938642920501
 20
77.60785416365036
 10
15.25086381640501
 20
77.62675824205036
 10
15.20462741480501
 20
77.65054414125036
 10
15.161084486805
 20
77.67898218605036
 10
15.12068098120501
 20
77.71178358285036
 10
15.08385859560501
 20
77.74859893005036
 10
15.051021195605
 20
77.78903491725036
 10
15.02253047080501
 20
77.83265849005037
 10
14.99871472360501
 20
77.87897326125037
 10
14.979859888405
 20
77.92739041325036
 10
14.96611615880501
 20
77.97749849805036
 10
14.95764189160501
 20
78.02876096845036
 10
14.95454033000501
 20
78.08062715245036
  0
LWPOLYLINE
  5
AF0
330
1F
100
AcDbEntity
  8
0
  6
CONTINUOUS
 62
     7
100
AcDbPolyline
 90
        8
 70
     0
 43
0.0
 10
29.81187368200501
 20
83.57855991885037
 10
29.49163400520501
 20
83.75535535725036
 10
29.16964743400501
 20
83.95499465805036
 10
28.86238276360501
 20
84.16851855565036
 10
28.56528444680501
 20
84.39973290605037
 10
28.26764400840501
 20
84.65776545165036
 10
27.96709711080501
 20
84.94622857805037
 10
27.662424067605
 20
85.26910836365036
  0
LWPOLYLINE
  5
AF1
330
1F
100
AcDbEntity
  8
0
  6
CONTINUOUS
 62
     7
100
AcDbPolyline
 90
        7
 70
     0
 43
0.0
 10
24.54593781000501
 20
92.80006117485035
 10
24.71449676840501
 20
92.62574299565036
 10
24.85830279720501
 20
92.46529281325036
 10
24.98271077000501
 20
92.32136626445035
 10
25.10214021960501
 20
92.17998090605036
 10
25.22404029960501
 20
92.03076061005035
 10
25.34450425960501
 20
91.87456224685035
  0
LWPOLYLINE
  5
AF2
330
1F
100
AcDbEntity
  8
0
  6
CONTINUOUS
 62
     7
100
AcDbPolyline
 90
        6
 70
     0
 43
0.0
 10
28.64057991880501
 20
105.4724731604503
 10
28.97068058120501
 20
105.6378047316503
 10
29.32176656040501
 20
105.7947463428503
 10
29.69202950920501
 20
105.9413222548503
 10
30.07745254600501
 20
106.0750988756503
 10
30.47836081160501
 20
106.1952933892503
  0
LINE
  5
AF3
330
1F
100
AcDbEntity
  8
0
  6
CONTINUOUS
 62
     7
100
AcDbLine
 10
80.345175867605
 20
77.94284559245037
 30
0.0
 11
15.56390479400501
 21
77.94284559245037
 31
0.0
  0
LWPOLYLINE
  5
AF4
330
1F
100
AcDbEntity
  8
0
  6
CONTINUOUS
 62
     7
100
AcDbPolyline
 90
        6
 70
     0
 43
0.0
 10
28.64057991880501
 20
85.69258644685035
 10
28.97068058120501
 20
85.52725487565036
 10
29.32176656040501
 20
85.37031326445037
 10
29.69202950920501
 20
85.22373735245036
 10
30.07745254600501
 20
85.08996073165036
 10
30.47836081160501
 20
84.96976621805037
  0
LWPOLYLINE
  5
AF5
330
1F
100
AcDbEntity
  8
0
  6
CONTINUOUS
 62
     7
100
AcDbPolyline
 90
       42
 70
     0
 43
0.0
 10
34.95452202280501
 20
81.05055294605035
 10
34.58606168840501
 20
81.02380323085036
 10
34.181008059605
 20
80.99649828045036
 10
33.73469767080502
 20
80.96931865805036
 10
33.24123777320501
 20
80.94334705645037
 10
32.69332649800501
 20
80.92027703405035
 10
32.08168556520501
 20
80.90281677965036
 10
31.39414351240501
 20
80.89545189805036
 10
30.61394439880501
 20
80.90620297325036
 10
29.744920853205
 20
80.94886539565036
 10
28.94466021800501
 20
81.02281177325037
 10
28.20845954920501
 20
81.12480197485036
 10
27.50164837320501
 20
81.25614937965037
 10
26.83797076520501
 20
81.41109440845037
 10
26.17046858600501
 20
81.59906568365036
 10
25.46996807880501
 20
81.83056002285036
 10
24.77639326120501
 20
82.09506049005035
 10
24.11379070600501
 20
82.38312685965036
 10
23.49841340200501
 20
82.68555248685036
 10
22.92350987880501
 20
83.00281798765036
 10
22.38264450440501
 20
83.33616937645036
 10
21.86622653000501
 20
83.69012642605035
 10
21.37100250920501
 20
84.06616011245036
 10
20.898854861205
 20
84.46234086445036
 10
20.45050265320501
 20
84.87753918285035
 10
20.02225731400501
 20
85.31492451245036
 10
19.61527248520501
 20
85.77340317325036
 10
19.23118665960501
 20
86.25118472045036
 10
18.86926753640501
 20
86.74943800205037
 10
18.52794988040501
 20
87.27094035565036
 10
18.20883859080501
 20
87.81426190925037
 10
17.91325983560501
 20
88.37819375405036
 10
17.63883122440501
 20
88.96923495085037
 10
17.38570336200501
 20
89.59013062925036
 10
17.15591898760501
 20
90.23980462605036
 10
16.95191405320501
 20
90.91549113165035
 10
16.77559901160501
 20
91.61550489645035
 10
16.62718450600501
 20
92.34519497005036
 10
16.50747902280501
 20
93.11066727725037
 10
16.41915917320501
 20
93.90853143245037
 10
16.36477422440501
 20
94.73365707565037
 10
16.34626717480501
 20
95.58252980365038
  0
LINE
  5
AF6
330
1F
100
AcDbEntity
  8
0
  6
CONTINUOUS
 62
     7
100
AcDbLine
 10
37.995046624405
 20
81.21660877485036
 30
0.0
 11
37.43730012040501
 21
81.17632207885035
 31
0.0
  0
LINE
  5
AF7
330
1F
100
AcDbEntity
  8
0
  6
CONTINUOUS
 62
     7
100
AcDbLine
 10
37.43730012040501
 20
81.17632207885035
 30
0.0
 11
37.42116930760501
 21
81.17521448525037
 31
0.0
  0
LWPOLYLINE
  5
AF8
330
1F
100
AcDbEntity
  8
0
  6
CONTINUOUS
 62
     7
100
AcDbPolyline
 90
        4
 70
     0
 43
0.0
 10
37.995046624405
 20
81.21660877485036
 10
38.62287306760501
 20
81.25777725645036
 10
39.33295060520501
 20
81.30099149165037
 10
40.11609828040501
 20
81.34723100685036
  0
LINE
  5
AF9
330
1F
100
AcDbEntity
  8
0
  6
CONTINUOUS
 62
     7
100
AcDbLine
 10
37.42116930760501
 20
81.17521448525037
 30
0.0
 11
37.39300437320501
 21
81.17338958445037
 31
0.0
  0
LINE
  5
AFA
330
1F
100
AcDbEntity
  8
0
  6
CONTINUOUS
 62
     7
100
AcDbLine
 10
37.39300437320501
 20
81.17338958445037
 30
0.0
 11
37.35430238760502
 21
81.17099283245037
 31
0.0
  0
LINE
  5
AFB
330
1F
100
AcDbEntity
  8
0
  6
CONTINUOUS
 62
     7
100
AcDbLine
 10
37.35430238760502
 20
81.17099283245037
 30
0.0
 11
37.30095522280501
 21
81.16780077325037
 31
0.0
  0
LWPOLYLINE
  5
AFC
330
1F
100
AcDbEntity
  8
0
  6
CONTINUOUS
 62
     7
100
AcDbPolyline
 90
       11
 70
     0
 43
0.0
 10
40.11609828040501
 20
81.34723100685036
 10
51.52055966120501
 20
82.01979115405036
 10
53.55183692360501
 20
82.13953748525035
 10
55.84110176200501
 20
82.27384384365036
 10
58.41065658440502
 20
82.42258269165036
 10
60.90498475720501
 20
82.56364118765036
 10
63.10399986280501
 20
82.68424064205035
 10
65.10194339240502
 20
82.78998054925036
 10
66.95712399720502
 20
82.88429822445037
 10
68.70284254760502
 20
82.96916324685035
 10
70.36221588520501
 20
83.04592535405037
  0
LINE
  5
AFD
330
1F
100
AcDbEntity
  8
0
  6
CONTINUOUS
 62
     7
100
AcDbLine
 10
37.30095522280501
 20
81.16780077325037
 30
0.0
 11
37.24800793480501
 21
81.16471119565035
 31
0.0
  0
LINE
  5
AFE
330
1F
100
AcDbEntity
  8
0
  6
CONTINUOUS
 62
     7
100
AcDbLine
 10
37.24800793480501
 20
81.16471119565035
 30
0.0
 11
37.180508798805
 21
81.16084908525037
 31
0.0
  0
LWPOLYLINE
  5
AFF
330
1F
100
AcDbEntity
  8
0
  6
CONTINUOUS
 62
     7
100
AcDbPolyline
 90
        4
 70
     0
 43
0.0
 10
69.26088159720501
 20
83.98947137645036
 10
66.85452514440502
 20
83.85298290285035
 10
64.71552873960501
 20
83.73187248685036
 10
62.81067694120501
 20
83.62633803085037
  0
LINE
  5
B00
330
1F
100
AcDbEntity
  8
0
  6
CONTINUOUS
 62
     7
100
AcDbLine
 10
37.180508798805
 20
81.16084908525037
 30
0.0
 11
37.09432574600501
 21
81.15600795885036
 31
0.0
  0
LINE
  5
B01
330
1F
100
AcDbEntity
  8
0
  6
CONTINUOUS
 62
     7
100
AcDbLine
 10
37.09432574600501
 20
81.15600795885036
 30
0.0
 11
36.98403518280501
 21
81.14992166925036
 31
0.0
  0
LINE
  5
B02
330
1F
100
AcDbEntity
  8
0
  6
CONTINUOUS
 62
     7
100
AcDbLine
 10
57.36525010920501
 20
83.02844759405036
 30
0.0
 11
56.34228311080502
 21
82.97281826765036
 31
0.0
  0
LINE
  5
B03
330
1F
100
AcDbEntity
  8
0
  6
CONTINUOUS
 62
     7
100
AcDbLine
 10
48.83237849800501
 20
82.56442686125037
 30
0.0
 11
47.173604018005
 21
82.47422208685035
 31
0.0
  0
LWPOLYLINE
  5
B04
330
1F
100
AcDbEntity
  8
0
  6
CONTINUOUS
 62
     7
100
AcDbPolyline
 90
        3
 70
     0
 43
0.0
 10
62.81067694120501
 20
83.62633803085037
 10
59.15436397800501
 20
83.42722613965035
 10
57.79367275720502
 20
83.35469401485037
  0
LINE
  5
B05
330
1F
100
AcDbEntity
  8
0
  6
CONTINUOUS
 62
     7
100
AcDbLine
 10
36.98403518280501
 20
81.14992166925036
 30
0.0
 11
36.89365379880502
 21
81.14500578765037
 31
0.0
  0
LINE
  5
B06
330
1F
100
AcDbEntity
  8
0
  6
CONTINUOUS
 62
     7
100
AcDbLine
 10
36.89365379880502
 20
81.14500578765037
 30
0.0
 11
36.786736762005
 21
81.13925984365037
 31
0.0
  0
LWPOLYLINE
  5
B07
330
1F
100
AcDbEntity
  8
0
  6
CONTINUOUS
 62
     7
100
AcDbPolyline
 90
        4
 70
     0
 43
0.0
 10
55.69567344680502
 20
83.24285942605035
 10
55.59466272520501
 20
83.23747501325035
 10
52.13859905000501
 20
83.05734430285037
 10
49.58474900520501
 20
82.92732421805036
  0
LINE
  5
B08
330
1F
100
AcDbEntity
  8
0
  6
CONTINUOUS
 62
     7
100
AcDbLine
 10
36.786736762005
 20
81.13925984365037
 30
0.0
 11
36.66003930120501
 21
81.13253594125037
 31
0.0
  0
LINE
  5
B09
330
1F
100
AcDbEntity
  8
0
  6
CONTINUOUS
 62
     7
100
AcDbLine
 10
36.66003930120501
 20
81.13253594125037
 30
0.0
 11
36.509560386005
 21
81.12465839885036
 31
0.0
  0
LWPOLYLINE
  5
B0A
330
1F
100
AcDbEntity
  8
0
  6
CONTINUOUS
 62
     7
100
AcDbPolyline
 90
       26
 70
     0
 43
0.0
 10
47.173604018005
 20
82.47422208685035
 10
47.13093197960501
 20
82.47201342765036
 10
47.08993976680502
 20
82.47011137165037
 10
47.05068184040501
 20
82.46850608365036
 10
47.013103491605
 20
82.46718389805037
 10
46.977217200405
 20
82.46613502445036
 10
46.94298261960502
 20
82.46534910285037
 10
46.91044359560502
 20
82.46481869165036
 10
46.87954808200501
 20
82.46453535885036
 10
46.85032676360501
 20
82.46449284205036
 10
46.82277705640501
 20
82.46468517325036
 10
46.79688419720501
 20
82.46510775085036
 10
46.77269502760501
 20
82.46575586445036
 10
46.75018423080501
 20
82.46662744845037
 10
46.72941079720501
 20
82.46771874125036
 10
46.71038732840502
 20
82.46902855565037
 10
46.69314957800501
 20
82.47055584525035
 10
46.67776020200501
 20
82.47229767245036
 10
46.66424393000501
 20
82.47425626925036
 10
46.65267990280502
 20
82.47642794285036
 10
46.643115891605
 20
82.47881479565036
 10
46.63562689000501
 20
82.48141502765035
 10
46.63028810760501
 20
82.48422610285036
 10
46.62717031880501
 20
82.48724983885036
 10
46.62635645000501
 20
82.49048005165036
 10
46.626901770005
 20
82.49230988205036
  0
LWPOLYLINE
  5
B0B
330
1F
100
AcDbEntity
  8
0
  6
CONTINUOUS
 62
     7
100
AcDbPolyline
 90
       11
 70
     0
 43
0.0
 10
36.509560386005
 20
81.12465839885036
 10
36.33039015400501
 20
81.11542383885035
 10
36.22818441960501
 20
81.11022583725036
 10
36.11638134920501
 20
81.10459873965035
 10
35.99395231400501
 20
81.09850971085036
 10
35.859727573205
 20
81.09192551085035
 10
35.71235289320501
 20
81.08481303405035
 10
35.55022716520501
 20
81.07714025965035
 10
35.37145624680501
 20
81.06888003405037
 10
35.173791546005
 20
81.06001629005035
 10
34.95452202280501
 20
81.05055294605035
  0
LWPOLYLINE
  5
B0C
330
1F
100
AcDbEntity
  8
0
  6
CONTINUOUS
 62
     7
100
AcDbPolyline
 90
       22
 70
     0
 43
0.0
 10
56.34228311080502
 20
82.97281826765036
 10
56.31635493480501
 20
82.97149010925037
 10
56.29014428680502
 20
82.97031358445037
 10
56.26378576360501
 20
82.96930009965036
 10
56.23733018440501
 20
82.96845749165035
 10
56.21091623880501
 20
82.96779672365037
 10
56.18461336680501
 20
82.96732677325037
 10
56.15858264040501
 20
82.96705846925036
 10
56.13294579080501
 20
82.96700144365036
 10
56.10790641480502
 20
82.96716468205037
 10
56.08361239720501
 20
82.96755581965035
 10
56.060262894805
 20
82.96818060045037
 10
56.03810660520501
 20
82.96904014605036
 10
56.01737381480501
 20
82.97013111725036
 10
55.99819088200502
 20
82.97145215565036
 10
55.98075088840501
 20
82.97299545965037
 10
55.96528439560501
 20
82.97474210925036
 10
55.95196158440501
 20
82.97666688045037
 10
55.94082507560502
 20
82.97875239565035
 10
55.93189639080501
 20
82.98098185165036
 10
55.92520192840502
 20
82.98333067405037
 10
55.920728357205
 20
82.98577228845037
  0
LWPOLYLINE
  5
B0D
330
1F
100
AcDbEntity
  8
0
  6
CONTINUOUS
 62
     7
100
AcDbPolyline
 90
        5
 70
     0
 43
0.0
 10
46.78594355080501
 20
82.78742855405036
 10
45.860373717205
 20
82.74146161805036
 10
43.204016381205
 20
82.61343597005035
 10
40.782585355605
 20
82.50075507725036
 10
38.50534285000501
 20
82.39887041805037
  0
LWPOLYLINE
  5
B0E
330
1F
100
AcDbEntity
  8
0
  6
CONTINUOUS
 62
     7
100
AcDbPolyline
 90
       30
 70
     0
 43
0.0
 10
38.50534285160501
 20
82.39887037805036
 10
38.44996723400501
 20
82.39656099405037
 10
38.38698728520501
 20
82.39413357965036
 10
38.31585694280501
 20
82.39156545965036
 10
38.23580577320501
 20
82.38885192685037
 10
38.14589129960501
 20
82.38599702605036
 10
38.04501429160501
 20
82.38301348365036
 10
37.93191155400501
 20
82.37992473325036
 10
37.80513050920501
 20
82.37676821805036
 10
37.66302330760501
 20
82.37360119565037
 10
37.50375196840501
 20
82.37050879565037
 10
37.32526925160501
 20
82.36761454605035
 10
37.125316842005
 20
82.36509565805036
 10
36.90146574600501
 20
82.36320505485036
 10
36.65118428200502
 20
82.36230168205036
 10
36.37206498280501
 20
82.36289353965036
 10
36.062354147605
 20
82.36568927885036
 10
35.72148257640501
 20
82.37166146445035
 10
35.34630981800501
 20
82.38225702605037
 10
34.92745736840501
 20
82.40006158605035
 10
34.45326208680501
 20
82.42941140365037
 10
33.91277934920501
 20
82.47630940525036
 10
33.325622712405
 20
82.54561936365035
 10
32.73505453160501
 20
82.63749387725036
 10
32.14164641960501
 20
82.75584854285035
 10
31.58619762280501
 20
82.89429924845036
 10
31.08310968840501
 20
83.04672779565036
 10
30.62395205320501
 20
83.21199133005036
 10
30.20202638280501
 20
83.38937855085037
 10
29.81187368200501
 20
83.57855992205037
  0
LWPOLYLINE
  5
B0F
330
1F
100
AcDbEntity
  8
0
  6
CONTINUOUS
 62
     7
100
AcDbPolyline
 90
       39
 70
     0
 43
0.0
 10
30.85058352840501
 20
84.87418761005036
 10
31.42391101800501
 20
84.75476918605037
 10
32.07725578600501
 20
84.65153017805036
 10
32.78644649640501
 20
84.57202030285037
 10
33.52918238920501
 20
84.51863077645036
 10
34.30737258440501
 20
84.48977125965036
 10
35.12038060360501
 20
84.48416276045035
 10
35.95627699880501
 20
84.49993902605035
 10
36.816006125205
 20
84.53479187245035
 10
37.70961225000501
 20
84.58762881805036
 10
38.54380561160501
 20
84.64872379885035
 10
39.28460039880501
 20
84.70932833165035
 10
39.96660427880501
 20
84.76803025325036
 10
40.614012962005
 20
84.82445934445037
 10
41.242257062805
 20
84.87838145005035
 10
41.86395179400501
 20
84.93015595565037
 10
42.48122973800501
 20
84.97944309005037
 10
43.10489427240502
 20
85.02655201965037
 10
43.76644857000501
 20
85.07330322285035
 10
44.51051129640501
 20
85.12192708365036
 10
45.36062663720501
 20
85.17235044365035
 10
46.32253892680501
 20
85.22255286445036
 10
47.382249638805
 20
85.26874788525036
 10
48.38369877480501
 20
85.30251906925036
 10
49.251510018005
 20
85.32233954605036
 10
50.08215207560501
 20
85.33175215085035
 10
51.011649243605
 20
85.33039481645037
 10
51.94729337160501
 20
85.31595621325037
 10
52.77696796520501
 20
85.29333920685036
 10
53.51288014120502
 20
85.26685164685035
 10
54.21163324520501
 20
85.23711755245036
 10
54.94041998600501
 20
85.20234442125035
 10
55.75674743240501
 20
85.16007489485037
 10
56.69136386280502
 20
85.10860087245037
 10
57.749524744405
 20
85.04744713485036
 10
58.928937419605
 20
84.97715202445036
 10
60.24873904840501
 20
84.89772546765037
 10
61.56194403080501
 20
84.82015002445036
 10
62.705430390805
 20
84.75578822605035
  0
LWPOLYLINE
  5
B10
330
1F
100
AcDbEntity
  8
0
  6
CONTINUOUS
 62
     7
100
AcDbPolyline
 90
        3
 70
     0
 43
0.0
 10
30.47836081160501
 20
84.96976621805037
 10
30.66291385800501
 20
84.92053681645037
 10
30.85058322760501
 20
84.87418540205036
  0
LWPOLYLINE
  5
B11
330
1F
100
AcDbEntity
  8
0
  6
CONTINUOUS
 62
     7
100
AcDbPolyline
 90
       24
 70
     0
 43
0.0
 10
69.26088159720501
 20
84.60072103085037
 10
69.64193472360502
 20
84.62264920045036
 10
70.01134611720501
 20
84.65198869165035
 10
70.37323632680501
 20
84.68977345965036
 10
70.731061341205
 20
84.73744436045036
 10
71.08912552040502
 20
84.79711145165037
 10
71.45553028040501
 20
84.87235309165036
 10
71.84695259880502
 20
84.97042373005035
 10
72.28286161160501
 20
85.10229147405036
 10
72.72606573960501
 20
85.25955486925036
 10
73.10755998440502
 20
85.41570120365035
 10
73.44421396840501
 20
85.57460399405036
 10
73.75822912680501
 20
85.74472769325037
 10
74.054774571605
 20
85.92621136045037
 10
74.35824425320501
 20
86.13206628845036
 10
74.66952806920502
 20
86.36176578605036
 10
74.947010960405
 20
86.58055016365036
 10
75.18645886280501
 20
86.77993276045036
 10
75.39516844840502
 20
86.96264612045036
 10
75.57563501960501
 20
87.12895454925037
 10
75.72984323240501
 20
87.27965567405036
 10
75.867761461205
 20
87.42423631245037
 10
76.00447533800501
 20
87.58019527245037
 10
76.15035716840501
 20
87.76208262925036
  0
LWPOLYLINE
  5
B12
330
1F
100
AcDbEntity
  8
0
  6
CONTINUOUS
 62
     7
100
AcDbPolyline
 90
       33
 70
     0
 43
0.0
 10
51.458837101205
 20
85.17033648045035
 10
51.25689225480501
 20
85.17056741485037
 10
51.05286269640501
 20
85.16380897965035
 10
50.84905617640501
 20
85.15003646605036
 10
50.64591828680502
 20
85.12928446125036
 10
50.44389680520501
 20
85.10161326125036
 10
50.24343527240501
 20
85.06710864525036
 10
50.04497130440501
 20
85.02588171725035
 10
49.84893304040501
 20
84.97806822925037
 10
49.655719763605
 20
84.92382272685036
 10
49.46571222280501
 20
84.86331864365036
 10
49.27928114920502
 20
84.79675018605036
 10
49.09677878600501
 20
84.72432941165036
 10
48.91852320360502
 20
84.64627820845036
 10
48.74481606120501
 20
84.56283321645036
 10
48.57594550600501
 20
84.47424723405037
 10
48.41216108360502
 20
84.38077501805036
 10
48.25365825000502
 20
84.28265819245035
 10
48.10061785480501
 20
84.18014302125035
 10
47.95320987880501
 20
84.07348292365036
 10
47.81159697640501
 20
83.96294220045035
 10
47.67593492360501
 20
83.84879869165036
 10
47.54634953640501
 20
83.73132511405037
 10
47.42292426280501
 20
83.61077200685036
 10
47.30572478600501
 20
83.48738429165036
 10
47.19479476680501
 20
83.36139383565036
 10
47.09016834920501
 20
83.23303029485037
 10
46.99186657160502
 20
83.10251601005036
 10
46.89989149800502
 20
82.97005487885035
 10
46.814239483605
 20
82.83584685005036
 10
46.734902086805
 20
82.70008948045036
 10
46.66186490600501
 20
82.56297614925037
 10
46.62690175400501
 20
82.49230988205036
  0
LWPOLYLINE
  5
B13
330
1F
100
AcDbEntity
  8
0
  6
CONTINUOUS
 62
     7
100
AcDbPolyline
 90
        6
 70
     0
 43
0.0
 10
51.458837102805
 20
85.17033648365035
 10
52.08284615400501
 20
85.15586805485035
 10
52.70651426120501
 20
85.13521426765036
 10
53.32977372520502
 20
85.10837737005036
 10
53.95255665480501
 20
85.07536029005036
 10
54.57479537160501
 20
85.03616661805036
  0
LWPOLYLINE
  5
B14
330
1F
100
AcDbEntity
  8
0
  6
CONTINUOUS
 62
     7
100
AcDbPolyline
 90
        6
 70
     0
 43
0.0
 10
51.64384992040502
 20
83.94014626765036
 10
52.22127749640501
 20
83.92627151565035
 10
52.79834290280501
 20
83.90604624685037
 10
53.37496849800501
 20
83.87947318125036
 10
53.95107686440501
 20
83.84655587885037
 10
54.52659054120501
 20
83.80729876685036
  0
LWPOLYLINE
  5
B15
330
1F
100
AcDbEntity
  8
0
  6
CONTINUOUS
 62
     7
100
AcDbPolyline
 90
       21
 70
     0
 43
0.0
 10
54.52659054120501
 20
83.80729876685036
 10
54.60942695240501
 20
83.79930321005037
 10
54.69166920040501
 20
83.78758303885035
 10
54.77315380040501
 20
83.77215753965037
 10
54.85369343560501
 20
83.75305623405036
 10
54.93306577160502
 20
83.73032839725036
 10
55.01115345800501
 20
83.70400176045036
 10
55.08771361000501
 20
83.67415181645036
 10
55.16260040680501
 20
83.64083105005036
 10
55.23565344360502
 20
83.60410228045036
 10
55.30665982760502
 20
83.56406597325037
 10
55.37552322760501
 20
83.52076652205036
 10
55.44202020840501
 20
83.47433284045036
 10
55.50601774280501
 20
83.42484900845036
 10
55.56737426280502
 20
83.37241064205036
 10
55.62590461000501
 20
83.31716426285035
 10
55.68151995080501
 20
83.25917833965036
 10
55.73403421800501
 20
83.19862963725036
 10
55.78333438440501
 20
83.13563498925036
 10
55.82929977320501
 20
83.07033017485036
 10
55.860020246805
 20
83.02235811565036
  0
LINE
  5
B17
330
1F
100
AcDbEntity
  8
0
  6
CONTINUOUS
 62
     7
100
AcDbLine
 10
45.98917980200501
 20
86.20905537165036
 30
0.0
 11
46.06856812680502
 21
86.22719919885035
 31
0.0
  0
LWPOLYLINE
  5
B18
330
1F
100
AcDbEntity
  8
0
  6
CONTINUOUS
 62
     7
100
AcDbPolyline
 90
       24
 70
     0
 43
0.0
 10
46.06856812680502
 20
86.22719919885035
 10
46.11962451400501
 20
86.23864009805037
 10
46.17027867240501
 20
86.24968091725035
 10
46.220532069205
 20
86.26026583565035
 10
46.27039087240501
 20
86.27034716045036
 10
46.31985901000502
 20
86.27989042445035
 10
46.36893669480501
 20
86.28886732045037
 10
46.41761152520501
 20
86.29726100205036
 10
46.46587402920501
 20
86.30506139885035
 10
46.51373907240501
 20
86.31227412845035
 10
46.561227634005
 20
86.31891080045036
 10
46.60836085160501
 20
86.32499129165037
 10
46.65516253000501
 20
86.33053934765035
 10
46.70166700840501
 20
86.33558588845037
 10
46.74791454760501
 20
86.34016471085036
 10
46.79395856360502
 20
86.34431392205035
 10
46.83985465640501
 20
86.34807303725036
 10
46.88565399240501
 20
86.35148289485035
 10
46.93141182600501
 20
86.35458522445036
 10
46.97720421480501
 20
86.35742400045037
 10
47.02310962120501
 20
86.36004379885035
 10
47.06919534280501
 20
86.36248936045037
 10
47.11553208200501
 20
86.36480616365036
 10
47.16221537000501
 20
86.36704246925036
  0
LINE
  5
B19
330
1F
100
AcDbEntity
  8
0
  6
CONTINUOUS
 62
     7
100
AcDbLine
 10
45.961205262805
 20
86.20280956525036
 30
0.0
 11
45.98917980200501
 21
86.20905537165036
 31
0.0
  0
LINE
  5
B1A
330
1F
100
AcDbEntity
  8
0
  6
CONTINUOUS
 62
     7
100
AcDbLine
 10
45.93320796360501
 20
86.19668868365037
 30
0.0
 11
45.961205262805
 21
86.20280956525036
 31
0.0
  0
LWPOLYLINE
  5
B1B
330
1F
100
AcDbEntity
  8
0
  6
CONTINUOUS
 62
     7
100
AcDbPolyline
 90
        3
 70
     0
 43
0.0
 10
45.89117132200501
 20
86.18773215405036
 10
45.90518918120501
 20
86.19068109645036
 10
45.93320796360501
 20
86.19668868365037
  0
LWPOLYLINE
  5
B1C
330
1F
100
AcDbEntity
  8
0
  6
CONTINUOUS
 62
     7
100
AcDbPolyline
 90
       16
 70
     0
 43
0.0
 10
45.46986289960502
 20
86.11517547405036
 10
45.499333901205
 20
86.11943701645037
 10
45.52861835400501
 20
86.12376906605035
 10
45.557719965205
 20
86.12817528365036
 10
45.58664244200501
 20
86.13265933325036
 10
45.61538949320501
 20
86.13722487565036
 10
45.64396153640501
 20
86.14187512205036
 10
45.67234582600501
 20
86.14661146925035
 10
45.70052632520502
 20
86.15143486285036
 10
45.72848699880501
 20
86.15634624525036
 10
45.75621181000501
 20
86.16134656205035
 10
45.78368819880501
 20
86.16643689165035
 10
45.81091751720501
 20
86.17161885965037
 10
45.83790459240501
 20
86.17689421965037
 10
45.86465425160501
 20
86.18226473325035
 10
45.89117132200501
 20
86.18773215405036
  0
LWPOLYLINE
  5
B1D
330
1F
100
AcDbEntity
  8
0
  6
CONTINUOUS
 62
     7
100
AcDbPolyline
 90
       27
 70
     0
 43
0.0
 10
44.12264803560501
 20
85.95817430285036
 10
44.17585437000501
 20
85.96319081165036
 10
44.22868116040501
 20
85.96826192525035
 10
44.281117018005
 20
85.97338474925036
 10
44.33315055720501
 20
85.97855638925036
 10
44.38477276520501
 20
85.98377423085036
 10
44.43598412200501
 20
85.98903677325036
 10
44.48678748200501
 20
85.99434279245036
 10
44.53718570120502
 20
85.99969106765035
 10
44.58718298920501
 20
86.00508061165035
 10
44.63678898920501
 20
86.01051136845036
 10
44.68601470440501
 20
86.01598351885035
 10
44.73487113480501
 20
86.02149724685036
 10
44.78336722440501
 20
86.02705254925036
 10
44.831503694805
 20
86.03264870605036
 10
44.879279210005
 20
86.03828481805036
 10
44.92669243560501
 20
86.04395998285037
 10
44.97374408360501
 20
86.04967361645035
 10
45.02044305960501
 20
86.05542639725035
 10
45.06680032040501
 20
86.06121931725036
 10
45.11282681800501
 20
86.06705337005037
 10
45.17369779720501
 20
86.07489772845037
 10
45.23401359240501
 20
86.08281883085036
 10
45.293787570005
 20
86.09081852525035
 10
45.35302778120501
 20
86.09889796365036
 10
45.41172103240501
 20
86.10705549485036
 10
45.46984881800502
 20
86.11528877005035
  0
LWPOLYLINE
  5
B1E
330
1F
100
AcDbEntity
  8
0
  6
CONTINUOUS
 62
     7
100
AcDbPolyline
 90
       15
 70
     0
 43
0.0
 10
47.56078362920502
 20
86.38871627885036
 10
47.59259530280501
 20
86.39100993005035
 10
47.62459385480501
 20
86.39325679085036
 10
47.65677678920501
 20
86.39545580685036
 10
47.68914160840501
 20
86.39760592205036
 10
47.71516301640502
 20
86.39929011565035
 10
47.74129958600501
 20
86.40094190125036
 10
47.76755166920501
 20
86.40256084845036
 10
47.793919614805
 20
86.40414651885036
 10
47.82040377480501
 20
86.40569847885037
 10
47.847004184405
 20
86.40721627725035
 10
47.87371960200501
 20
86.40869938925035
 10
47.900548469205
 20
86.41014727245035
 10
47.92748923240501
 20
86.41155938605036
 10
47.95454033000502
 20
86.41293518605037
  0
LWPOLYLINE
  5
B1F
330
1F
100
AcDbEntity
  8
0
  6
CONTINUOUS
 62
     7
100
AcDbPolyline
 90
       25
 70
     0
 43
0.0
 10
47.95454033000502
 20
86.41293518605037
 10
48.29401023880501
 20
86.42936517805036
 10
48.62882621160501
 20
86.44447734925035
 10
48.95880874600502
 20
86.45834783885035
 10
49.28389540200502
 20
86.47105447565037
 10
49.60449197640501
 20
86.48268181965036
 10
49.921121323605
 20
86.49331611565036
 10
50.23427472040501
 20
86.50303871885036
 10
50.54431712840501
 20
86.51191141325035
 10
50.85158192840501
 20
86.51999109165037
 10
51.15641036680502
 20
86.52733255725037
 10
51.45917515240501
 20
86.53398225805036
 10
51.760256854805
 20
86.53998455405035
 10
52.20945372680501
 20
86.54786239725035
 10
52.65638992840502
 20
86.55448058285037
 10
53.10173173640501
 20
86.55993460845037
 10
53.54613065960501
 20
86.56431315245036
 10
54.43422273960502
 20
86.57017743725036
 10
55.32335805000501
 20
86.57269725325036
 10
56.21484817800501
 20
86.57249040525035
 10
57.108280051605
 20
86.57022131565035
 10
57.55496907720502
 20
86.56852872365035
 10
58.00040767400502
 20
86.56657505165036
 10
58.44387640040501
 20
86.56443783405036
 10
58.88675549480502
 20
86.56217981485037
  0
LWPOLYLINE
  5
B20
330
1F
100
AcDbEntity
  8
0
  6
CONTINUOUS
 62
     7
100
AcDbPolyline
 90
       10
 70
     0
 43
0.0
 10
47.16221537000501
 20
86.36704246925036
 10
47.25703488360501
 20
86.37147535725036
 10
47.30538232360501
 20
86.37377922925036
 10
47.35449149160501
 20
86.37621902605037
 10
47.38770606920501
 20
86.37795177805037
 10
47.42134773640501
 20
86.37979443725036
 10
47.45546040520501
 20
86.38176954765036
 10
47.49007761640501
 20
86.38389970925036
 10
47.525191450005
 20
86.38620773485035
 10
47.56078361320501
 20
86.38871648525036
  0
LWPOLYLINE
  5
B21
330
1F
100
AcDbEntity
  8
0
  6
CONTINUOUS
 62
     7
100
AcDbPolyline
 90
       93
 70
     0
 43
0.0
 10
62.68440666600501
 20
86.54729499725036
 10
62.84507377160501
 20
86.54720512685036
 10
63.00040861000501
 20
86.54718807405037
 10
63.15076821960501
 20
86.54724059405037
 10
63.29671350600502
 20
86.54736042285035
 10
63.43885633800501
 20
86.54754553805036
 10
63.577808586005
 20
86.54779392045035
 10
63.75919100200501
 20
86.54822199565037
 10
63.93754933320501
 20
86.54876601965035
 10
64.11444387400502
 20
86.54943305965035
 10
64.379953982805
 20
86.55068279245035
 10
64.64794580360501
 20
86.55226743885036
 10
64.91988627720501
 20
86.55422998925036
 10
65.194051797205
 20
86.55661646125036
 10
65.741850306005
 20
86.56299989005036
 10
66.01445167560502
 20
86.56729919725036
 10
66.28599441960502
 20
86.57255261805037
 10
66.55679403720501
 20
86.57893962605035
 10
66.82857168040502
 20
86.58670782605035
 10
67.01139433320502
 20
86.59279832685035
 10
67.19661121320502
 20
86.59978085645036
 10
67.38526073640501
 20
86.60781596205037
 10
67.52954265960501
 20
86.61462959725035
 10
67.67628226920502
 20
86.62219318125037
 10
67.82564930120502
 20
86.63059371885037
 10
67.97872155080502
 20
86.63999598285036
 10
68.13632837640501
 20
86.65055369005036
 10
68.29739735240501
 20
86.66229853805036
 10
68.46067224680502
 20
86.67525375405036
 10
68.62606341320502
 20
86.68953069485036
 10
68.84974844680501
 20
86.71079252525036
 10
69.07516787720502
 20
86.73459346605035
 10
69.299934734805
 20
86.76088576045037
 10
69.46675363080501
 20
86.78220700205036
 10
69.63150327720502
 20
86.80485742285036
 10
69.793824166805
 20
86.82879168205037
 10
69.95335679400501
 20
86.85396443725036
 10
70.10980611400501
 20
86.88033621805036
 10
70.263134936405
 20
86.90789104205036
 10
70.41337053480501
 20
86.93661879725036
 10
70.56054018280502
 20
86.96650937005037
 10
70.70466702280501
 20
86.99754543725036
 10
70.84575769640501
 20
87.02968082605037
 10
70.983814714005
 20
87.06286215245036
 10
71.11884058920501
 20
87.09703603085037
 10
71.29418639720501
 20
87.14405996685036
 10
71.46428639880501
 20
87.19266936685036
 10
71.629279027605
 20
87.24278006605036
 10
71.78930645320502
 20
87.29431579885035
 10
71.94452581480502
 20
87.34723191405036
 10
72.09509799080501
 20
87.40149165965036
 10
72.241161238805
 20
87.45704533165037
 10
72.38276332840502
 20
87.51379139405036
 10
72.51992941160501
 20
87.57161535885037
 10
72.65269380520502
 20
87.63040270925037
 10
72.78112752040501
 20
87.69003884365035
 10
72.90531073480501
 20
87.75040913165035
 10
73.025320048405
 20
87.81140688205036
 10
73.14121774600501
 20
87.87295715085036
 10
73.25306253480501
 20
87.93499293005035
 10
73.36095568200502
 20
87.99747738125036
 10
73.46516869160502
 20
88.06049435405036
 10
73.56601562920501
 20
88.12415786285036
 10
73.66383209480502
 20
88.18860158765037
 10
73.75903983080501
 20
88.25403782605036
 10
73.85208211080501
 20
88.32069853645036
 10
73.94339888040502
 20
88.38883691725035
 10
74.03341673800501
 20
88.45879111725036
 10
74.12255895560502
 20
88.53092052845036
 10
74.211112989205
 20
88.60547255405036
 10
74.29882304680501
 20
88.68224665005035
 10
74.38529752680501
 20
88.76093029005037
 10
74.47005148680502
 20
88.84106360845036
 10
74.55222660680501
 20
88.92159738925036
 10
74.63087122600501
 20
89.00133507565035
 10
74.70522925160501
 20
89.07925293325035
 10
74.77532688040501
 20
89.15501847725037
 10
74.84138588040501
 20
89.22847204525035
 10
74.90364799240501
 20
89.29951867245035
 10
74.96243486280501
 20
89.36832221805037
 10
75.01808811080501
 20
89.43511124365036
 10
75.07089662280501
 20
89.50007633005036
 10
75.12093834120502
 20
89.56325613165036
 10
75.16823846760501
 20
89.62465132365036
 10
75.21280990280501
 20
89.68424883085036
 10
75.254616317205
 20
89.74198058125036
 10
75.29360907560501
 20
89.79776475085037
 10
75.32991981800501
 20
89.85184125805036
 10
75.364401288405
 20
89.90573697805036
 10
75.39808651240502
 20
89.96130052205037
 10
75.43181175720501
 20
90.01995266445035
 10
75.46562629800501
 20
90.08140281965037
 10
75.49938265800502
 20
90.14493256205035
  0
LINE
  5
B22
330
1F
100
AcDbEntity
  8
0
  6
CONTINUOUS
 62
     7
100
AcDbLine
 10
62.46079694600502
 20
86.54753584685037
 30
0.0
 11
62.68440666600501
 21
86.54729499725036
 31
0.0
  0
LINE
  5
B23
330
1F
100
AcDbEntity
  8
0
  6
CONTINUOUS
 62
     7
100
AcDbLine
 10
62.22322100360502
 20
86.54793056205036
 30
0.0
 11
62.46079694600502
 21
86.54753584685037
 31
0.0
  0
LINE
  5
B24
330
1F
100
AcDbEntity
  8
0
  6
CONTINUOUS
 62
     7
100
AcDbLine
 10
61.97147513160501
 20
86.54848837325037
 30
0.0
 11
62.22322100360502
 21
86.54793056205036
 31
0.0
  0
LINE
  5
B25
330
1F
100
AcDbEntity
  8
0
  6
CONTINUOUS
 62
     7
100
AcDbLine
 10
61.70779273480501
 20
86.54921324205036
 30
0.0
 11
61.97147513160501
 21
86.54848837325037
 31
0.0
  0
LINE
  5
B26
330
1F
100
AcDbEntity
  8
0
  6
CONTINUOUS
 62
     7
100
AcDbLine
 10
61.429576520405
 20
86.55012237965037
 30
0.0
 11
61.70779273480501
 21
86.54921324205036
 31
0.0
  0
LINE
  5
B27
330
1F
100
AcDbEntity
  8
0
  6
CONTINUOUS
 62
     7
100
AcDbLine
 10
61.13783804680501
 20
86.55121022925035
 30
0.0
 11
61.429576520405
 21
86.55012237965037
 31
0.0
  0
LINE
  5
B28
330
1F
100
AcDbEntity
  8
0
  6
CONTINUOUS
 62
     7
100
AcDbLine
 10
60.83849941800501
 20
86.55244477805036
 30
0.0
 11
61.13783804680501
 21
86.55121022925035
 31
0.0
  0
LINE
  5
B29
330
1F
100
AcDbEntity
  8
0
  6
CONTINUOUS
 62
     7
100
AcDbLine
 10
60.46174288200501
 20
86.55414748685037
 30
0.0
 11
60.83849941800501
 21
86.55244477805036
 31
0.0
  0
LINE
  5
B2A
330
1F
100
AcDbEntity
  8
0
  6
CONTINUOUS
 62
     7
100
AcDbLine
 10
60.00438327240501
 20
86.55638168365035
 30
0.0
 11
60.46174288200501
 21
86.55414748685037
 31
0.0
  0
LWPOLYLINE
  5
B2B
330
1F
100
AcDbEntity
  8
0
  6
CONTINUOUS
 62
     7
100
AcDbPolyline
 90
        3
 70
     0
 43
0.0
 10
58.88675549480502
 20
86.56217981485037
 10
59.55311309640501
 20
86.55869840525037
 10
60.00438327240501
 20
86.55638168365035
  0
LWPOLYLINE
  5
B2C
330
1F
100
AcDbEntity
  8
0
  6
CONTINUOUS
 62
     7
100
AcDbPolyline
 90
       55
 70
     0
 43
0.0
 10
48.08671815720501
 20
86.59652657965036
 10
48.04151394920501
 20
86.59680548845036
 10
47.996206824405
 20
86.59812355245035
 10
47.95131118920501
 20
86.60046471245037
 10
47.90676142760502
 20
86.60381797165035
 10
47.86255922280502
 20
86.60817221805036
 10
47.81870118760501
 20
86.61351799405036
 10
47.77518038600502
 20
86.61984780685036
 10
47.73199134440502
 20
86.62715559245036
 10
47.68912871240501
 20
86.63543680845036
 10
47.646588557205
 20
86.64468811405036
 10
47.604366709205
 20
86.65490761805036
 10
47.56245975240502
 20
86.66609461485036
 10
47.52086720840501
 20
86.67824886125037
 10
47.47959077320501
 20
86.69137050765035
 10
47.43863429480501
 20
86.70545987725036
 10
47.398002069205
 20
86.72051787245036
 10
47.357700035605
 20
86.73654542925035
 10
47.31773752040502
 20
86.75354262125036
 10
47.27812588040501
 20
86.77150889645036
 10
47.23887824360502
 20
86.79044298445036
 10
47.20000710120501
 20
86.81034394925037
 10
47.16152645320501
 20
86.83121006765036
 10
47.123454024405
 20
86.85303745485036
 10
47.085809331605
 20
86.87582077805037
 10
47.048610374805
 20
86.89955522285037
 10
47.01188950440502
 20
86.92422580845036
 10
46.97552537320501
 20
86.94992537485036
 10
46.93931957160501
 20
86.97681383565036
 10
46.90327228200501
 20
87.00491773805037
 10
46.86745275400501
 20
87.03420908685037
 10
46.83190580200501
 20
87.06467405485035
 10
46.79666763880502
 20
87.09630323725036
 10
46.76175564200501
 20
87.12910161645035
 10
46.72719681960501
 20
87.16306414605035
 10
46.69301382120501
 20
87.19818985325035
 10
46.65921481480501
 20
87.23449274285036
 10
46.626186638805
 20
87.27155380685037
 10
46.59501462760501
 20
87.30804365645036
 10
46.56601877480501
 20
87.34337021325037
 10
46.53881973320501
 20
87.37777885485035
 10
46.513192154005
 20
87.41137556845037
 10
46.488951022805
 20
87.44425125325035
 10
46.46595741160502
 20
87.47646205805036
 10
46.44409920840501
 20
87.50804678925035
 10
46.42328681640501
 20
87.53902746605035
 10
46.403445779605
 20
87.56941567725036
 10
46.384511837205
 20
87.59921699405037
 10
46.366431784405
 20
87.62842969005037
 10
46.34916116520502
 20
87.65704543565036
 10
46.33266053320501
 20
87.68505409325035
 10
46.31689642760501
 20
87.71244129645037
 10
46.30183351080501
 20
87.73920139085035
 10
46.28744829160502
 20
87.76531356045037
 10
46.27371120840502
 20
87.79077316365036
  0
LWPOLYLINE
  5
B2D
330
1F
100
AcDbEntity
  8
0
  6
CONTINUOUS
 62
     7
100
AcDbPolyline
 90
       12
 70
     0
 43
0.0
 10
62.705430390805
 20
84.75578822605035
 10
63.61532147560502
 20
84.70738663245036
 10
64.42676372040501
 20
84.66794772365036
 10
65.16077299880501
 20
84.63621392045036
 10
65.83100727560502
 20
84.61137339565036
 10
66.44676179880502
 20
84.59288193965036
 10
67.01421702440502
 20
84.58037896205036
 10
67.53751899560501
 20
84.57361321645036
 10
68.02148620040501
 20
84.57237857485036
 10
68.46790598760501
 20
84.57653437485037
 10
68.87848934600501
 20
84.58593516525036
 10
69.26088159720501
 20
84.60072074765035
  0
LWPOLYLINE
  5
B2E
330
1F
100
AcDbEntity
  8
0
  6
CONTINUOUS
 62
     7
100
AcDbPolyline
 90
       25
 70
     0
 43
0.0
 10
54.57479537160501
 20
85.03616661805036
 10
54.74969722920501
 20
85.02096902765037
 10
54.92368647720501
 20
84.99922488045035
 10
55.09650105480502
 20
84.97096873325036
 10
55.26776935560501
 20
84.93626917485036
 10
55.43735508840502
 20
84.89516067565036
 10
55.604998542805
 20
84.84770565965035
 10
55.77031944840502
 20
84.79401899085036
 10
55.933201683605
 20
84.73414503085036
 10
56.09338477960502
 20
84.66817834605036
 10
56.25048855240502
 20
84.59628440685035
 10
56.404419440405
 20
84.51851466125036
 10
56.55493185640501
 20
84.43499255085036
 10
56.70166471080502
 20
84.34592898605037
 10
56.84454011720501
 20
84.25138141965035
 10
56.98333034600501
 20
84.15150026765036
 10
57.11770196680501
 20
84.04653752845035
 10
57.24758709000501
 20
83.93655808205037
 10
57.37278113640501
 20
83.82173529325035
 10
57.49298793160502
 20
83.70235407565036
 10
57.60814484360501
 20
83.57848989805036
 10
57.71807418920501
 20
83.45033411885037
 10
57.82252442120501
 20
83.31819364205037
 10
57.92143231400501
 20
83.18216265005036
 10
57.96815283560501
 20
83.11366338605036
  0
LWPOLYLINE
  5
B30
330
1F
100
AcDbEntity
  8
0
  6
CONTINUOUS
 62
     7
100
AcDbPolyline
 90
        3
 70
     0
 43
0.0
 10
55.86494622120501
 20
108.1464424468503
 10
55.86115050280501
 20
108.1440250532503
 10
55.86002054120502
 20
108.1427014740503
  0
LWPOLYLINE
  5
B31
330
1F
100
AcDbEntity
  8
0
  6
CONTINUOUS
 62
     7
100
AcDbPolyline
 90
        3
 70
     0
 43
0.0
 10
55.86494622120501
 20
108.1464424468503
 10
55.89499953800501
 20
108.1624500404503
 10
55.920728357205
 20
108.1792873188503
  0
LINE
  5
B32
330
1F
100
AcDbEntity
  8
0
  6
CONTINUOUS
 62
     7
100
AcDbLine
 10
78.47224234440502
 20
96.76783880685036
 30
0.0
 11
78.46691831880502
 21
96.76632941005037
 31
0.0
  0
LWPOLYLINE
  5
B33
330
1F
100
AcDbEntity
  8
0
  6
CONTINUOUS
 62
     7
100
AcDbPolyline
 90
        4
 70
     0
 43
0.0
 10
26.26042336360501
 20
87.58252968525036
 10
26.33133578120501
 20
87.58900244205035
 10
26.40235139400501
 20
87.59490112365035
 10
26.47360693320501
 20
87.60023840205036
  0
LWPOLYLINE
  5
B34
330
1F
100
AcDbEntity
  8
0
  6
CONTINUOUS
 62
     7
100
AcDbPolyline
 90
        3
 70
     0
 43
0.0
 10
55.86494622120501
 20
83.01861716045037
 10
55.89499953800501
 20
83.00260956685036
 10
55.920728357205
 20
82.98577228845037
  0
LWPOLYLINE
  5
B35
330
1F
100
AcDbEntity
  8
0
  6
CONTINUOUS
 62
     7
100
AcDbPolyline
 90
        3
 70
     0
 43
0.0
 10
55.86494622120501
 20
83.01861716045037
 10
55.86115050280501
 20
83.02103455405037
 10
55.86002054120502
 20
83.02235813325037
  0
LWPOLYLINE
  5
B38
330
1F
100
AcDbEntity
  8
0
  6
CONTINUOUS
 62
     7
100
AcDbPolyline
 90
       19
 70
     0
 43
0.0
 10
45.89854196360501
 20
105.0164635636503
 10
45.891970634005
 20
104.9820521492503
 10
45.88455223560501
 20
104.9352387540503
 10
45.87633163720501
 20
104.8763060964503
 10
45.867358544405
 20
104.8056100836503
 10
45.857687213205
 20
104.7235776612503
 10
45.84737611400501
 20
104.6307042468503
 10
45.836487578005
 20
104.5275507236503
 10
45.82508742600501
 20
104.4147400628503
 10
45.813244570005
 20
104.2929535556503
 10
45.80103059240501
 20
104.1629267044503
 10
45.78851931880501
 20
104.0254447716503
 10
45.77578637000501
 20
103.8813380500503
 10
45.76290870440501
 20
103.7314768356503
 10
45.74996415560501
 20
103.5767661828503
 10
45.737030957205
 20
103.4181404276503
 10
45.72418728040502
 20
103.2565575556503
 10
45.71151074920502
 20
103.0929934084503
 10
45.699077981205
 20
102.9284357924503
  0
LWPOLYLINE
  5
B39
330
1F
100
AcDbEntity
  8
0
  6
CONTINUOUS
 62
     7
100
AcDbPolyline
 90
       10
 70
     0
 43
0.0
 10
45.699078499605
 20
102.9284357492503
 10
45.509741779605
 20
102.2187121940503
 10
45.336179170005
 20
101.4741041028503
 10
45.18054245320501
 20
100.6969554676503
 10
45.04501431720501
 20
99.89111636845036
 10
44.93146861480501
 20
99.06074345805036
 10
44.841446802005
 20
98.21008978925036
 10
44.77618833320501
 20
97.34365506605037
 10
44.736624584405
 20
96.46623239885038
 10
44.72335408200502
 20
95.58253074125037
  0
LWPOLYLINE
  5
B3A
330
1F
100
AcDbEntity
  8
0
  6
CONTINUOUS
 62
     7
100
AcDbPolyline
 90
       10
 70
     0
 43
0.0
 10
46.08063776200501
 20
102.9378127364503
 10
45.88872170280501
 20
102.2324537044503
 10
45.71243778760501
 20
101.4906631476503
 10
45.55404706600501
 20
100.7146770276503
 10
45.41588308040501
 20
99.90843015725037
 10
45.29996937480501
 20
99.07628816205036
 10
45.20797251400501
 20
98.22274574445035
 10
45.14123104840502
 20
97.35256373485036
 10
45.10074760360502
 20
96.47079919725037
 10
45.08716745320501
 20
95.58252980365038
  0
LWPOLYLINE
  5
B40
330
1F
100
AcDbEntity
  8
0
  6
CONTINUOUS
 62
     7
100
AcDbPolyline
 90
        4
 70
     0
 43
0.0
 10
46.08063768360501
 20
102.9378147956503
 10
46.13354138920501
 20
103.0876600564503
 10
46.197908019605
 20
103.2332352052503
 10
46.27371120840502
 20
103.3742864436503
  0
LWPOLYLINE
  5
B41
330
1F
100
AcDbEntity
  8
0
  6
CONTINUOUS
 62
     7
100
AcDbPolyline
 90
        4
 70
     0
 43
0.0
 10
26.08739627080501
 20
87.54740637645037
 10
26.14995780520501
 20
87.56152754285036
 10
26.20670149160501
 20
87.57441776045036
 10
26.26042339240501
 20
87.58252963085036
  0
LWPOLYLINE
  5
B42
330
1F
100
AcDbEntity
  8
0
  6
CONTINUOUS
 62
     7
100
AcDbPolyline
 90
       35
 70
     0
 43
0.0
 10
72.45354586920502
 20
93.78049369005035
 10
72.50789996680501
 20
93.78155092045037
 10
72.55837499400501
 20
93.78399563725038
 10
72.61456814120501
 20
93.78837842605037
 10
72.67803084040501
 20
93.79546991245035
 10
72.75006877960501
 20
93.80632491885036
 10
72.83147083560502
 20
93.82224024845035
 10
72.91871637800501
 20
93.84369905005035
 10
72.99613304680502
 20
93.86667954765036
 10
73.06415527080502
 20
93.89005096205037
 10
73.12420394760501
 20
93.91325731405036
 10
73.17741657800501
 20
93.93592367565037
 10
73.22473675240501
 20
93.95780768045037
 10
73.266952787605
 20
93.97875937645038
 10
73.30472734280501
 20
93.99869329325037
 10
73.33862010280501
 20
94.01756867245035
 10
73.36910658600501
 20
94.03537593485035
 10
73.396592842005
 20
94.05212698925035
 10
73.42142725640501
 20
94.06784832685037
 10
73.44391030760501
 20
94.08257622445034
 10
73.46430134120502
 20
94.09635254765035
 10
73.48282625800502
 20
94.10922301965035
 10
73.49968263720501
 20
94.12123545965036
 10
73.51504297800501
 20
94.13243778445036
 10
73.52905881960501
 20
94.14287743725035
 10
73.54186369640501
 20
94.15260073005034
 10
73.553575731605
 20
94.16165246285036
 10
73.56429965000501
 20
94.17007559085035
 10
73.57412849320501
 20
94.17791103405036
 10
73.58314528840501
 20
94.18519771885035
 10
73.59142408520501
 20
94.19197237645036
 10
73.59903103880501
 20
94.19826949005036
 10
73.60602575240502
 20
94.20412166445036
 10
73.61246170920501
 20
94.20955938445036
 10
73.62384604840501
 20
94.21930436045036
  0
LWPOLYLINE
  5
B43
330
1F
100
AcDbEntity
  8
0
  6
CONTINUOUS
 62
     7
100
AcDbPolyline
 90
        4
 70
     0
 43
0.0
 10
46.08063768360501
 20
88.22724481165037
 10
46.13354138920501
 20
88.07739955085036
 10
46.197908019605
 20
87.93182440205036
 10
46.27371120840502
 20
87.79077316365036
  0
LWPOLYLINE
  5
B48
330
1F
100
AcDbEntity
  8
0
  6
CONTINUOUS
 62
     7
100
AcDbPolyline
 90
        9
 70
     0
 43
0.0
 10
46.08063776200501
 20
88.22724687085036
 10
45.865793701205
 20
89.02334030605036
 10
45.67108741800502
 20
89.86523572685035
 10
45.49975293640502
 20
90.74938633805036
 10
45.35503267880502
 20
91.66974042285037
 10
45.23957380680501
 20
92.62004549485036
 10
45.155484509205
 20
93.59370780845038
 10
45.10434493160501
 20
94.58362604365035
 10
45.08716745320501
 20
95.58252980365038
  0
LWPOLYLINE
  5
B49
330
1F
100
AcDbEntity
  8
0
  6
CONTINUOUS
 62
     7
100
AcDbPolyline
 90
        9
 70
     0
 43
0.0
 10
45.699078499605
 20
88.23662385805036
 10
45.48715611560502
 20
89.03748647085036
 10
45.29552594120501
 20
89.88220408205036
 10
45.127264858005
 20
90.76709209805036
 10
44.98539206600502
 20
91.68631286925036
 10
44.87235889960501
 20
92.63392516045035
 10
44.790118923605
 20
93.60367287565038
 10
44.74013761640501
 20
94.58882764525034
 10
44.72335408200502
 20
95.58253074125037
  0
LWPOLYLINE
  5
B4A
330
1F
100
AcDbEntity
  8
0
  6
CONTINUOUS
 62
     7
100
AcDbPolyline
 90
       19
 70
     0
 43
0.0
 10
45.89854196360501
 20
86.14859604365035
 10
45.891970634005
 20
86.18300745805035
 10
45.88455223560501
 20
86.22982085325036
 10
45.87633163720501
 20
86.28875351085035
 10
45.867358544405
 20
86.35944952365035
 10
45.857687213205
 20
86.44148194605035
 10
45.84737611400501
 20
86.53435536045035
 10
45.836487578005
 20
86.63750888365035
 10
45.82508742600501
 20
86.75031954445037
 10
45.813244570005
 20
86.87210605165036
 10
45.80103059240501
 20
87.00213290285036
 10
45.78851931880501
 20
87.13961483565036
 10
45.77578637000501
 20
87.28372155725036
 10
45.76290870440501
 20
87.43358277165036
 10
45.74996415560501
 20
87.58829342445036
 10
45.737030957205
 20
87.74691917965036
 10
45.72418728040502
 20
87.90850205165035
 10
45.71151074920502
 20
88.07206619885036
 10
45.699077981205
 20
88.23662381485036
  0
LINE
  5
B4D
330
1F
100
AcDbEntity
  8
CENTER
100
AcDbLine
 10
75.02402904806683
 20
95.58252980365038
 30
0.0
 11
81.73943159053008
 21
95.58252980365038
 31
0.0
  0
LWPOLYLINE
  5
B4F
330
1F
100
AcDbEntity
  8
0
  6
CONTINUOUS
 62
     7
100
AcDbPolyline
 90
       34
 70
     0
 43
0.0
 10
72.45354586920502
 20
97.38456591725038
 10
72.507899533205
 20
97.38350870285035
 10
72.55837411400502
 20
97.38106402605035
 10
72.61456665800501
 20
97.37668132045037
 10
72.67802860040501
 20
97.36958998605036
 10
72.75006560840501
 20
97.35873523245036
 10
72.83146665480501
 20
97.34282027725036
 10
72.918711619605
 20
97.32136185485035
 10
72.99612824520501
 20
97.29838160205037
 10
73.06415051400501
 20
97.27501038605035
 10
73.12419927400501
 20
97.25180419565035
 10
73.17741201320501
 20
97.22913796205038
 10
73.22473231880501
 20
97.20725405645035
 10
73.266948496405
 20
97.18630243085037
 10
73.30472320040501
 20
97.16636856205036
 10
73.338616115605
 20
97.14749321165037
 10
73.36910275720502
 20
97.12968595885037
 10
73.39658917160502
 20
97.11293489965036
 10
73.42142374120502
 20
97.09721354765036
 10
73.44390694440502
 20
97.08248562125035
 10
73.46429812840502
 20
97.06870926125034
 10
73.482823190805
 20
97.05583874765038
 10
73.49967971080501
 20
97.04382625805036
 10
73.515040189205
 20
97.03262387885036
 10
73.52905616200501
 20
97.02218417005036
 10
73.54186116680501
 20
97.01246081645036
 10
73.55357332360501
 20
97.00340902125034
 10
73.564297358805
 20
96.99498582925038
 10
73.57412631560501
 20
96.98715032205036
 10
73.583143216405
 20
96.97986357165035
 10
73.59142211880501
 20
96.97308885005037
 10
73.59902917000501
 20
96.96679167405036
 10
73.60602397800501
 20
96.96093943565038
 10
73.61246002440501
 20
96.95550165165037
  0
LWPOLYLINE
  5
B50
330
1F
100
AcDbEntity
  8
0
  6
CONTINUOUS
 62
     7
100
AcDbPolyline
 90
       27
 70
     0
 43
0.0
 10
57.96815422760501
 20
108.0513961332503
 10
57.96912926440501
 20
108.0543700548503
 10
57.96792170280501
 20
108.0577675508503
 10
57.96437380200501
 20
108.0612098500503
 10
57.95857546120501
 20
108.0646908948503
 10
57.95062451080501
 20
108.0681958404503
 10
57.940596653205
 20
108.0717196404503
 10
57.92857087080502
 20
108.0752530004503
 10
57.91462774280501
 20
108.0787859956503
 10
57.89880602920502
 20
108.0823178068503
 10
57.88118590440501
 20
108.0858365748503
 10
57.86178242760501
 20
108.0893429428503
 10
57.840644197205
 20
108.0928293492503
 10
57.81780777960502
 20
108.0962898660503
 10
57.79325846600501
 20
108.0997249156503
 10
57.76705159560501
 20
108.1031238068503
 10
57.73914617480501
 20
108.1064877428503
 10
57.70956382600501
 20
108.1098085924503
 10
57.67829379080501
 20
108.1130812612503
 10
57.64529683880501
 20
108.1163021988503
 10
57.61060603080501
 20
108.1194597396503
 10
57.57414800200502
 20
108.1225510564503
 10
57.53594954440501
 20
108.1255632468503
 10
57.49595316360501
 20
108.1284892228503
 10
57.45418258440501
 20
108.1313145332503
 10
57.41062051560501
 20
108.1340267620503
 10
57.36525010920501
 20
108.1366120132503
  0
LWPOLYLINE
  5
B51
330
1F
100
AcDbEntity
  8
0
  6
CONTINUOUS
 62
     7
100
AcDbPolyline
 90
        4
 70
     0
 43
0.0
 10
26.08739627080501
 20
103.6176532308503
 10
26.14995780520501
 20
103.6035320644503
 10
26.20670149160501
 20
103.5906418468503
 10
26.26042339240501
 20
103.5825299764503
  0
LWPOLYLINE
  5
B52
330
1F
100
AcDbEntity
  8
0
  6
CONTINUOUS
 62
     7
100
AcDbPolyline
 90
       33
 70
     0
 43
0.0
 10
46.62690175400501
 20
108.6727497268503
 10
46.66178765960501
 20
108.6022356836503
 10
46.73482292040501
 20
108.4651119412503
 10
46.81415921320501
 20
108.3293441396503
 10
46.89981094760502
 20
108.1951256948503
 10
46.99178657320501
 20
108.0626541924503
 10
47.090089746005
 20
107.9321296164503
 10
47.194718410005
 20
107.8037558980503
 10
47.305651530005
 20
107.6777554164503
 10
47.42285496680501
 20
107.5543578708503
 10
47.54628506120501
 20
107.4337951668503
 10
47.675876126805
 20
107.3163122708503
 10
47.811544709205
 20
107.2021597716503
 10
47.953164979605
 20
107.0916104340503
 10
48.10058113480501
 20
106.9849421572503
 10
48.253630494805
 20
106.8824192932503
 10
48.41214304520502
 20
106.7842953156503
 10
48.57593790440501
 20
106.6908165348503
 10
48.74481958120501
 20
106.6022246228503
 10
48.91853847880502
 20
106.5187743892503
 10
49.09680639560502
 20
106.4407186772503
 10
49.27932160680501
 20
106.3682941764503
 10
49.465765976405
 20
106.3017228148503
 10
49.65578718920501
 20
106.2412166868503
 10
49.84901442600501
 20
106.1869700372503
 10
50.04506685800501
 20
106.1391563204503
 10
50.24354511720502
 20
106.0979301060503
 10
50.44402096840501
 20
106.0634271636503
 10
50.64605670440501
 20
106.0357586020503
 10
50.84920868360502
 20
106.0150102036503
 10
51.05302903240501
 20
106.0012422564503
 10
51.25707207720501
 20
105.9944893348503
 10
51.458837101205
 20
105.9947231268503
  0
LWPOLYLINE
  5
B53
330
1F
100
AcDbEntity
  8
0
  6
CONTINUOUS
 62
     7
100
AcDbPolyline
 90
       27
 70
     0
 43
0.0
 10
57.96815422760501
 20
83.11366347405035
 10
57.96912926440501
 20
83.11068955245037
 10
57.96792170280501
 20
83.10729205645037
 10
57.96437380200501
 20
83.10384975725035
 10
57.95857546120501
 20
83.10036871245037
 10
57.95062451080501
 20
83.09686376685036
 10
57.940596653205
 20
83.09333996685037
 10
57.92857087080502
 20
83.08980660685035
 10
57.91462774280501
 20
83.08627361165035
 10
57.89880602920502
 20
83.08274180045037
 10
57.88118590440501
 20
83.07922303245035
 10
57.86178242760501
 20
83.07571666445037
 10
57.840644197205
 20
83.07223025805036
 10
57.81780777960502
 20
83.06876974125037
 10
57.79325846600501
 20
83.06533469165037
 10
57.76705159560501
 20
83.06193580045036
 10
57.73914617480501
 20
83.05857186445036
 10
57.70956382600501
 20
83.05525101485036
 10
57.67829379080501
 20
83.05197834605037
 10
57.64529683880501
 20
83.04875740845035
 10
57.61060603080501
 20
83.04559986765037
 10
57.57414800200502
 20
83.04250855085035
 10
57.53594954440501
 20
83.03949636045036
 10
57.49595316360501
 20
83.03657038445036
 10
57.45418258440501
 20
83.03374507405036
 10
57.41062051560501
 20
83.03103284525036
 10
57.36525010920501
 20
83.02844759405036
  0
LWPOLYLINE
  5
B54
330
1F
100
AcDbEntity
  8
0
  6
CONTINUOUS
 62
     7
100
AcDbPolyline
 90
       27
 70
     0
 43
0.0
 10
49.42696713320501
 20
82.67611487245035
 10
49.45482661640501
 20
82.72633467245036
 10
49.50778472840501
 20
82.81431901965035
 10
49.56479661480502
 20
82.90005001005036
 10
49.62569825640501
 20
82.98330038765035
 10
49.69039922920501
 20
83.06396491245036
 10
49.75878686280501
 20
83.14190943565035
 10
49.83068983400501
 20
83.21694596045036
 10
49.90596873640502
 20
83.28893889165035
 10
49.98450444680502
 20
83.35777821005036
 10
50.06611971720501
 20
83.42331043405037
 10
50.15062213480502
 20
83.48538769965037
 10
50.237890778005
 20
83.54392526765037
 10
50.32775041480501
 20
83.59880487405035
 10
50.41997046760501
 20
83.64988944205036
 10
50.51442034600501
 20
83.69710993645036
 10
50.61091223080501
 20
83.74037123885036
 10
50.70922458600501
 20
83.77957502445037
 10
50.80918180360502
 20
83.81465286445036
 10
50.91059216840502
 20
83.84553705165037
 10
51.01324760840501
 20
83.87216371565036
 10
51.11694330440501
 20
83.89447969005036
 10
51.22147679880502
 20
83.91244112365036
 10
51.32664382280501
 20
83.92601213965036
 10
51.43224291240501
 20
83.93516521965036
 10
51.53804887720501
 20
83.93987976685037
 10
51.64384992040502
 20
83.94014626765036
  0
LWPOLYLINE
  5
B55
330
1F
100
AcDbEntity
  8
0
  6
CONTINUOUS
 62
     7
100
AcDbPolyline
 90
        5
 70
     0
 43
0.0
 10
49.42696865800501
 20
82.67611495405036
 10
49.42675549000501
 20
82.67575887725035
 10
49.424245656405
 20
82.67328345005036
 10
49.41973647560501
 20
82.67061857325037
 10
49.41311167400501
 20
82.66776399725037
  0
LWPOLYLINE
  5
B56
330
1F
100
AcDbEntity
  8
0
  6
CONTINUOUS
 62
     7
100
AcDbPolyline
 90
        4
 70
     0
 43
0.0
 10
26.47360693320501
 20
103.5648212052503
 10
26.40235139400501
 20
103.5701584836503
 10
26.33133578120501
 20
103.5760571652503
 10
26.26042336360501
 20
103.5825299220503
  0
LWPOLYLINE
  5
B57
330
1F
100
AcDbEntity
  8
0
  6
CONTINUOUS
 62
     7
100
AcDbPolyline
 90
       20
 70
     0
 43
0.0
 10
78.46446101000501
 20
94.39502980365038
 10
78.45140173480501
 20
94.39873421805035
 10
78.43833025960501
 20
94.40991858765036
 10
78.42532539400501
 20
94.42866297325037
 10
78.41241576360501
 20
94.45513357805035
 10
78.39970064680501
 20
94.48938738445036
 10
78.38725160360501
 20
94.53151987085036
 10
78.375220845205
 20
94.58128532045035
 10
78.36375674280501
 20
94.63822754125036
 10
78.35295154760501
 20
94.70198070605036
 10
78.34292894440501
 20
94.77184342605037
 10
78.33373907400501
 20
94.84746951405037
 10
78.32546611880501
 20
94.92818588045038
 10
78.31815519080501
 20
95.01359072845037
 10
78.31187436360501
 20
95.10295917165036
 10
78.30667888840501
 20
95.19551764845036
 10
78.30260404360501
 20
95.29062508845035
 10
78.29968763240501
 20
95.38724848205035
 10
78.29793593320501
 20
95.48485477325035
 10
78.29735417640501
 20
95.58252980365038
  0
LINE
  5
B58
330
1F
100
AcDbEntity
  8
0
  6
CONTINUOUS
 62
     7
100
AcDbLine
 10
78.466736872405
 20
94.39883391725036
 30
0.0
 11
78.47222549640502
 21
94.39725617325036
 31
0.0
  0
LWPOLYLINE
  5
B59
330
1F
100
AcDbEntity
  8
0
  6
CONTINUOUS
 62
     7
100
AcDbPolyline
 90
        5
 70
     0
 43
0.0
 10
49.42696865800501
 20
108.4889446532503
 10
49.42675549000501
 20
108.4893007300503
 10
49.424245656405
 20
108.4917761572503
 10
49.41973647560501
 20
108.4944410340503
 10
49.41311167400501
 20
108.4972956100503
  0
LWPOLYLINE
  5
B5A
330
1F
100
AcDbEntity
  8
0
  6
CONTINUOUS
 62
     7
100
AcDbPolyline
 90
       27
 70
     0
 43
0.0
 10
49.42696713320501
 20
108.4889447348503
 10
49.45482661640501
 20
108.4387249348503
 10
49.50778472840501
 20
108.3507405876503
 10
49.56479661480502
 20
108.2650095972503
 10
49.62569825640501
 20
108.1817592196503
 10
49.69039922920501
 20
108.1010946948503
 10
49.75878686280501
 20
108.0231501716503
 10
49.83068983400501
 20
107.9481136468503
 10
49.90596873640502
 20
107.8761207156503
 10
49.98450444680502
 20
107.8072813972503
 10
50.06611971720501
 20
107.7417491748503
 10
50.15062213480502
 20
107.6796719076503
 10
50.237890778005
 20
107.6211343396503
 10
50.32775041480501
 20
107.5662547332503
 10
50.41997046760501
 20
107.5151701652503
 10
50.51442034600501
 20
107.4679496708503
 10
50.61091223080501
 20
107.4246883684503
 10
50.70922458600501
 20
107.3854845844503
 10
50.80918180360502
 20
107.3504067428503
 10
50.91059216840502
 20
107.3195225556503
 10
51.01324760840501
 20
107.2928958916503
 10
51.11694330440501
 20
107.2705799172503
 10
51.22147679880502
 20
107.2526184836503
 10
51.32664382280501
 20
107.2390474676503
 10
51.43224291240501
 20
107.2298943876503
 10
51.53804887720501
 20
107.2251798404503
 10
51.64384992040502
 20
107.2249133396503
  0
LINE
  5
B5B
330
1F
100
AcDbEntity
  8
0
  6
CONTINUOUS
 62
     7
100
AcDbLine
 10
78.477638514005
 20
94.39880828845037
 30
0.0
 11
78.46446101000501
 21
94.39502980365038
 31
0.0
  0
LWPOLYLINE
  5
B5C
330
1F
100
AcDbEntity
  8
0
  6
CONTINUOUS
 62
     7
100
AcDbPolyline
 90
       25
 70
     0
 43
0.0
 10
54.57479537160501
 20
106.1288929892503
 10
54.74969722920501
 20
106.1440905796503
 10
54.92368647720501
 20
106.1658347268503
 10
55.09650105480502
 20
106.1940908740503
 10
55.26776935560501
 20
106.2287904324503
 10
55.43735508840502
 20
106.2698989332503
 10
55.604998542805
 20
106.3173539476503
 10
55.77031944840502
 20
106.3710406164503
 10
55.933201683605
 20
106.4309145764503
 10
56.09338477960502
 20
106.4968812612503
 10
56.25048855240502
 20
106.5687752004503
 10
56.404419440405
 20
106.6465449460503
 10
56.55493185640501
 20
106.7300670564503
 10
56.70166471080502
 20
106.8191306212503
 10
56.84454011720501
 20
106.9136781876503
 10
56.98333034600501
 20
107.0135593396503
 10
57.11770196680501
 20
107.1185220788503
 10
57.24758709000501
 20
107.2285015252503
 10
57.37278113640501
 20
107.3433243140503
 10
57.49298793160502
 20
107.4627055316503
 10
57.60814484360501
 20
107.5865697092503
 10
57.71807418920501
 20
107.7147254884503
 10
57.82252442120501
 20
107.8468659652503
 10
57.92143231400501
 20
107.9828969572503
 10
57.96815283560501
 20
108.0513962212503
  0
LWPOLYLINE
  5
B5D
330
1F
100
AcDbEntity
  8
0
  6
CONTINUOUS
 62
     7
100
AcDbPolyline
 90
       39
 70
     0
 43
0.0
 10
62.705430390805
 20
106.4092713812503
 10
61.56194403080501
 20
106.3449095828503
 10
60.24873904840501
 20
106.2673341396503
 10
58.928937419605
 20
106.1879075828503
 10
57.749524744405
 20
106.1176124724503
 10
56.69136386280502
 20
106.0564587348503
 10
55.75674743240501
 20
106.0049847124503
 10
54.94041998600501
 20
105.9627151860503
 10
54.21163324520501
 20
105.9279420548503
 10
53.51288014120502
 20
105.8982079604503
 10
52.77696796520501
 20
105.8717204004503
 10
51.94729337160501
 20
105.8491033940503
 10
51.011649243605
 20
105.8346647908503
 10
50.08215207560501
 20
105.8333074564503
 10
49.251510018005
 20
105.8427200612503
 10
48.38369877480501
 20
105.8625405380503
 10
47.382249638805
 20
105.8963117220503
 10
46.32253892680501
 20
105.9425067428503
 10
45.36062663720501
 20
105.9927091636503
 10
44.51051129640501
 20
106.0431325236503
 10
43.76644857000501
 20
106.0917563844503
 10
43.10489427240502
 20
106.1385075876503
 10
42.48122973800501
 20
106.1856165172503
 10
41.86395179400501
 20
106.2349036516503
 10
41.242257062805
 20
106.2866781572503
 10
40.614012962005
 20
106.3406002628503
 10
39.96660427880501
 20
106.3970293540503
 10
39.28460039880501
 20
106.4557312756503
 10
38.54380561160501
 20
106.5163358084503
 10
37.70961225000501
 20
106.5774307892503
 10
36.816006125205
 20
106.6302677348503
 10
35.95627699880501
 20
106.6651205812503
 10
35.12038060360501
 20
106.6808968468503
 10
34.30737258440501
 20
106.6752883476503
 10
33.52918238920501
 20
106.6464288308503
 10
32.78644649640501
 20
106.5930393044503
 10
32.07725578600501
 20
106.5135294292503
 10
31.42391101800501
 20
106.4102904212503
 10
30.85058352840501
 20
106.2908719972503
  0
LWPOLYLINE
  5
B5E
330
1F
100
AcDbEntity
  8
0
  6
CONTINUOUS
 62
     7
100
AcDbPolyline
 90
        6
 70
     0
 43
0.0
 10
51.458837102805
 20
105.9947231236503
 10
52.08284615400501
 20
106.0091915524503
 10
52.70651426120501
 20
106.0298453396503
 10
53.32977372520502
 20
106.0566822372503
 10
53.95255665480501
 20
106.0896993172503
 10
54.57479537160501
 20
106.1288929892503
  0
LWPOLYLINE
  5
B5F
330
1F
100
AcDbEntity
  8
0
  6
CONTINUOUS
 62
     7
100
AcDbPolyline
 90
       55
 70
     0
 43
0.0
 10
48.08671815720501
 20
104.5685330276503
 10
48.04151394920501
 20
104.5682541188503
 10
47.996206824405
 20
104.5669360548503
 10
47.95131118920501
 20
104.5645948948503
 10
47.90676142760502
 20
104.5612416356503
 10
47.86255922280502
 20
104.5568873892503
 10
47.81870118760501
 20
104.5515416132503
 10
47.77518038600502
 20
104.5452118004503
 10
47.73199134440502
 20
104.5379040148503
 10
47.68912871240501
 20
104.5296227988503
 10
47.646588557205
 20
104.5203714932503
 10
47.604366709205
 20
104.5101519892503
 10
47.56245975240502
 20
104.4989649924503
 10
47.52086720840501
 20
104.4868107460503
 10
47.47959077320501
 20
104.4736890996503
 10
47.43863429480501
 20
104.4595997300503
 10
47.398002069205
 20
104.4445417348503
 10
47.357700035605
 20
104.4285141780503
 10
47.31773752040502
 20
104.4115169860503
 10
47.27812588040501
 20
104.3935507124503
 10
47.23887824360502
 20
104.3746166228503
 10
47.20000710120501
 20
104.3547156580503
 10
47.16152645320501
 20
104.3338495396503
 10
47.123454024405
 20
104.3120221524503
 10
47.085809331605
 20
104.2892388292503
 10
47.048610374805
 20
104.2655043844503
 10
47.01188950440502
 20
104.2408337988503
 10
46.97552537320501
 20
104.2151342324503
 10
46.93931957160501
 20
104.1882457716503
 10
46.90327228200501
 20
104.1601418692503
 10
46.86745275400501
 20
104.1308505204503
 10
46.83190580200501
 20
104.1003855524503
 10
46.79666763880502
 20
104.0687563700503
 10
46.76175564200501
 20
104.0359579908503
 10
46.72719681960501
 20
104.0019954612503
 10
46.69301382120501
 20
103.9668697556503
 10
46.65921481480501
 20
103.9305668660503
 10
46.626186638805
 20
103.8935058004503
 10
46.59501462760501
 20
103.8570159508503
 10
46.56601877480501
 20
103.8216893940503
 10
46.53881973320501
 20
103.7872807524503
 10
46.513192154005
 20
103.7536840388503
 10
46.488951022805
 20
103.7208083540503
 10
46.46595741160502
 20
103.6885975492503
 10
46.44409920840501
 20
103.6570128180503
 10
46.42328681640501
 20
103.6260321412503
 10
46.403445779605
 20
103.5956439300503
 10
46.384511837205
 20
103.5658426132503
 10
46.366431784405
 20
103.5366299172503
 10
46.34916116520502
 20
103.5080141716503
 10
46.33266053320501
 20
103.4800055140503
 10
46.31689642760501
 20
103.4526183108503
 10
46.30183351080501
 20
103.4258582164503
 10
46.28744829160502
 20
103.3997460468503
 10
46.27371120840502
 20
103.3742864436503
  0
LWPOLYLINE
  5
B60
330
1F
100
AcDbEntity
  8
0
  6
CONTINUOUS
 62
     7
100
AcDbPolyline
 90
       29
 70
     0
 43
0.0
 10
59.67439049000501
 20
104.6069909428503
 10
58.70184574120502
 20
104.6019269444503
 10
58.38357948360502
 20
104.6003227396503
 10
57.91022962600502
 20
104.5980707876503
 10
57.43966355400501
 20
104.5960651844503
 10
56.49988301640501
 20
104.5931030244503
 10
56.02988010600501
 20
104.5923355636503
 10
55.56071583880501
 20
104.5921773508503
 10
55.09331464200501
 20
104.5927270772503
 10
54.62749046440501
 20
104.5940703684503
 10
54.16268304840501
 20
104.5962912916503
 10
53.69794582760501
 20
104.5994807540503
 10
53.23251937960501
 20
104.6037298692503
 10
52.76677918600501
 20
104.6091237236503
 10
52.30138498280502
 20
104.6157408084503
 10
51.83699864040502
 20
104.6236392420503
 10
51.37371038600502
 20
104.6328889204503
 10
50.90932172200502
 20
104.6436272436503
 10
50.59777395720501
 20
104.6516926340503
 10
50.28383028200501
 20
104.6605537268503
 10
49.96681526760501
 20
104.6702760388503
 10
49.72660413320501
 20
104.6781760340503
 10
49.48383252680502
 20
104.6866470004503
 10
49.238047536405
 20
104.6957386228503
 10
48.98879624680501
 20
104.7055005828503
 10
48.735726845205
 20
104.7159806740503
 10
48.47889192680502
 20
104.7272191204503
 10
48.21844518920501
 20
104.7392542580503
 10
47.95454033000502
 20
104.7521244212503
  0
LWPOLYLINE
  5
B61
330
1F
100
AcDbEntity
  8
0
  6
CONTINUOUS
 62
     7
100
AcDbPolyline
 90
       15
 70
     0
 43
0.0
 10
47.95454033000502
 20
104.7521244212503
 10
47.92748998760501
 20
104.7535001828503
 10
47.90054987880501
 20
104.7549122596503
 10
47.87372156520501
 20
104.7563601108503
 10
47.84700660520501
 20
104.7578431940503
 10
47.82040656360502
 20
104.7593609668503
 10
47.79392268040502
 20
104.7609129076503
 10
47.76755491240502
 20
104.7624985620503
 10
47.74130289640502
 20
104.7641174980503
 10
47.71516626920501
 20
104.7657692836503
 10
47.68914466920501
 20
104.7674534852503
 10
47.65677940680501
 20
104.7696036244503
 10
47.62459581000501
 20
104.7718026820503
 10
47.59259638280501
 20
104.7740496004503
 10
47.56078362920502
 20
104.7763433284503
  0
LWPOLYLINE
  5
B62
330
1F
100
AcDbEntity
  8
0
  6
CONTINUOUS
 62
     7
100
AcDbPolyline
 90
       37
 70
     0
 43
0.0
 10
47.56078361320501
 20
104.7763431220503
 10
47.52493433960501
 20
104.7788693668503
 10
47.48959110440501
 20
104.7811908020503
 10
47.45477286920501
 20
104.7833310196503
 10
47.420487771605
 20
104.7853135252503
 10
47.38670067400501
 20
104.7871614948503
 10
47.35336562440501
 20
104.7888980244503
 10
47.30411853160501
 20
104.7913416308503
 10
47.25568057160501
 20
104.7936478868503
 10
47.207945942805
 20
104.7958769332503
 10
47.16080391880502
 20
104.7980837540503
 10
47.11414364680502
 20
104.8003212324503
 10
47.067858688405
 20
104.8026389796503
 10
47.021849957205
 20
104.8050850596503
 10
46.97604334760501
 20
104.8077046180503
 10
46.93036821000501
 20
104.8105420276503
 10
46.88474269640501
 20
104.8136414612503
 10
46.83908736840502
 20
104.8170464980503
 10
46.79334361800501
 20
104.8207985332503
 10
46.74745690600501
 20
104.8249381332503
 10
46.70136817480501
 20
104.8295047044503
 10
46.65502047240501
 20
104.8345363684503
 10
46.60836979880501
 20
104.8400672084503
 10
46.56137802760501
 20
104.8461285956503
 10
46.51401757640501
 20
104.8527450500503
 10
46.46626351560501
 20
104.8599373956503
 10
46.41809100360501
 20
104.8677185284503
 10
46.36948127880501
 20
104.8760955140503
 10
46.32043981480501
 20
104.8850600212503
 10
46.27097519880502
 20
104.8945969748503
 10
46.22108422760502
 20
104.9046797364503
 10
46.18758341320502
 20
104.9116892516503
 10
46.15388695240501
 20
104.9189136468503
 10
46.11999142440502
 20
104.9263383412503
 10
46.08589536360502
 20
104.9339471940503
 10
46.05160513800501
 20
104.9417178116503
 10
45.98917980200501
 20
104.9560042356503
  0
LWPOLYLINE
  5
B63
330
1F
100
AcDbEntity
  8
0
  6
CONTINUOUS
 62
     7
100
AcDbPolyline
 90
      101
 70
     0
 43
0.0
 10
44.12264803560501
 20
105.2068853044503
 10
43.50468135400501
 20
105.2663276692503
 10
42.88676644840501
 20
105.3287818596503
 10
42.269642254805
 20
105.3935196292503
 10
41.65400977640501
 20
105.4597527124503
 10
41.03898520360501
 20
105.5268295140503
 10
40.42145293160501
 20
105.5943563380503
 10
40.21508959720501
 20
105.6168536068503
 10
40.00936772040501
 20
105.6392086708503
 10
39.80525881320501
 20
105.6612915716503
 10
39.65358353960501
 20
105.6776206644503
 10
39.50235273320501
 20
105.6938109412503
 10
39.198714358805
 20
105.7259671780503
 10
39.04619800680501
 20
105.7419084500503
 10
38.892385610005
 20
105.7578080052503
 10
38.73627400520502
 20
105.7737368820503
 10
38.576860024405
 20
105.7897661108503
 10
38.41327733000501
 20
105.8059487588503
 10
38.245206882005
 20
105.8222660052503
 10
38.13048101960501
 20
105.8332081684503
 10
38.01305129640501
 20
105.8442272420503
 10
37.89228939720501
 20
105.8553566596503
 10
37.76776178920501
 20
105.8666107652503
 10
37.63981408680502
 20
105.8779275268503
 10
37.50898669000501
 20
105.8892258228503
 10
37.37568347880501
 20
105.9004355444503
 10
37.23976225320501
 20
105.9115306740503
 10
37.10094429320502
 20
105.9224962148503
 10
36.95905719400501
 20
105.9333069908503
 10
36.81435380360501
 20
105.9438971220503
 10
36.66719328680501
 20
105.9541905524503
 10
36.44332502600501
 20
105.9688763268503
 10
36.21858175720501
 20
105.9823608980503
 10
35.99158713640501
 20
105.9945810500503
 10
35.76303569640501
 20
106.0054061748503
 10
35.53452232040501
 20
106.0146677348503
 10
35.30764189320501
 20
106.0221971940503
 10
35.08315017000501
 20
106.0278717076503
 10
34.85972840520501
 20
106.0317078884503
 10
34.712598304405
 20
106.0332018740503
 10
34.56753802920501
 20
106.0338432308503
 10
34.42482180360501
 20
106.0336456260503
 10
34.28464065480501
 20
106.0326219364503
 10
34.14685283720501
 20
106.0307818452503
 10
34.01123340840502
 20
106.0281342452503
 10
33.87763097640501
 20
106.0246912340503
 10
33.74618834600501
 20
106.0204777332503
 10
33.61712187080501
 20
106.0155218740503
 10
33.46556267560501
 20
106.0086263076503
 10
33.31738711080501
 20
106.0007014836503
 10
33.172245595605
 20
105.9917466356503
 10
33.02978854760501
 20
105.9817609956503
 10
32.88966638920501
 20
105.9707438004503
 10
32.71739302440501
 20
105.9555267556503
 10
32.54830970280501
 20
105.9387326788503
 10
32.38250442920501
 20
105.9203975444503
 10
32.22006520360501
 20
105.9005573236503
 10
32.06109167080501
 20
105.8792575476503
 10
31.90573002920501
 20
105.8565819684503
 10
31.75413812520501
 20
105.8326238916503
 10
31.60647379560501
 20
105.8074766244503
 10
31.46284764680501
 20
105.7812262948503
 10
31.32318131880501
 20
105.7539303156503
 10
31.18734921960501
 20
105.7256389204503
 10
31.05522575240501
 20
105.6964023444503
 10
30.92668275240501
 20
105.6662658052503
 10
30.80158177960501
 20
105.6352544692503
 10
30.67978182120501
 20
105.6033884884503
 10
30.56114186920501
 20
105.5706880132503
 10
30.40762755240501
 20
105.5258218756503
 10
30.25914874600501
 20
105.4795424020503
 10
30.11537385480501
 20
105.4318839780503
 10
29.97597542440501
 20
105.3828741876503
 10
29.84064254440501
 20
105.3325134132503
 10
29.70906844520501
 20
105.2807952340503
 10
29.58099060040501
 20
105.2277252564503
 10
29.45632345160501
 20
105.1733571828503
 10
29.33502568520501
 20
105.1177567428503
 10
29.217045106005
 20
105.0609836420503
 10
29.102286010005
 20
105.0030734932503
 10
28.99064180680501
 20
104.9440558804503
 10
28.88201498440501
 20
104.8839626836503
 10
28.77634429960501
 20
104.8228349396503
 10
28.67357758120501
 20
104.7607159812503
 10
28.57366395080501
 20
104.6976487748503
 10
28.47655771240501
 20
104.6336748452503
 10
28.38221445480501
 20
104.5688353540503
 10
28.29060336840501
 20
104.5031829876503
 10
28.20174800520501
 20
104.4368165444503
 10
28.11568551400501
 20
104.3698463460503
 10
28.032439814805
 20
104.3023708740503
 10
27.95198192680501
 20
104.2344412308503
 10
27.87426964360501
 20
104.1660966724503
 10
27.79926181160501
 20
104.0973769380503
 10
27.72692150280501
 20
104.0283236772503
 10
27.65721283880501
 20
103.9589790164503
 10
27.59009773320501
 20
103.8893827620503
 10
27.52552924360501
 20
103.8195654292503
 10
27.46345821480501
 20
103.7495552132503
 10
27.37493126120501
 20
103.6442434740503
 10
27.29177337640501
 20
103.5386777236503
  0
LWPOLYLINE
  5
B64
330
1F
100
AcDbEntity
  8
0
  6
CONTINUOUS
 62
     7
100
AcDbPolyline
 90
       27
 70
     0
 43
0.0
 10
45.46984881800502
 20
105.0497708372503
 10
45.411678070805
 20
105.0580101396503
 10
45.35294641480501
 20
105.0661728452503
 10
45.29367254760501
 20
105.0742566212503
 10
45.23386979880501
 20
105.0822598404503
 10
45.17353003880501
 20
105.0901837028503
 10
45.11263976840502
 20
105.0980301140503
 10
45.066601790805
 20
105.1038652756503
 10
45.02023556520501
 20
105.1096589556503
 10
44.97353009640501
 20
105.1154121636503
 10
44.92647438920501
 20
105.1211259124503
 10
44.879059494805
 20
105.1268008980503
 10
44.83128464360501
 20
105.1324365540503
 10
44.783151109205
 20
105.1380319988503
 10
44.73466016520501
 20
105.1435863476503
 10
44.68581103400501
 20
105.1490988996503
 10
44.63659471560501
 20
105.1545696708503
 10
44.58700015400501
 20
105.1599988580503
 10
44.53701629800501
 20
105.1653866580503
 10
44.48663344040501
 20
105.1707330324503
 10
44.43584727080501
 20
105.1760370132503
 10
44.38465482120501
 20
105.1812973988503
 10
44.33305313000501
 20
105.1865129844503
 10
44.281041629205
 20
105.1916822868503
 10
44.22862933640501
 20
105.1968027012503
 10
44.175827667605
 20
105.2018713364503
 10
44.12264803560501
 20
105.2068853044503
  0
LWPOLYLINE
  5
B65
330
1F
100
AcDbEntity
  8
0
  6
CONTINUOUS
 62
     7
100
AcDbPolyline
 90
       16
 70
     0
 43
0.0
 10
45.89117135400501
 20
104.9773274468503
 10
45.864654283605
 20
104.9827948676503
 10
45.83790462920501
 20
104.9881653796503
 10
45.81091755880501
 20
104.9934407396503
 10
45.78368824520501
 20
104.9986227060503
 10
45.75621185640502
 20
105.0037130372503
 10
45.72848704360501
 20
105.0087133540503
 10
45.700526363605
 20
105.0136247380503
 10
45.67234585480501
 20
105.0184481316503
 10
45.64396155560501
 20
105.0231844804503
 10
45.61538950600501
 20
105.0278347284503
 10
45.58664244840501
 20
105.0324002740503
 10
45.557719968405
 20
105.0368843236503
 10
45.52861835560501
 20
105.0412905412503
 10
45.499333902805
 20
105.0456225908503
 10
45.46986289960502
 20
105.0498841332503
  0
LINE
  5
B66
330
1F
100
AcDbEntity
  8
0
  6
CONTINUOUS
 62
     7
100
AcDbLine
 10
45.90518920680501
 20
104.9743785044503
 30
0.0
 11
45.89117135400501
 21
104.9773274468503
 31
0.0
  0
LINE
  5
B67
330
1F
100
AcDbEntity
  8
0
  6
CONTINUOUS
 62
     7
100
AcDbLine
 10
45.93320796360501
 20
104.9683709236503
 30
0.0
 11
45.90518920680501
 21
104.9743785044503
 31
0.0
  0
LINE
  5
B68
330
1F
100
AcDbEntity
  8
0
  6
CONTINUOUS
 62
     7
100
AcDbLine
 10
45.961205259605
 20
104.9622500420503
 30
0.0
 11
45.93320796360501
 21
104.9683709236503
 31
0.0
  0
LINE
  5
B69
330
1F
100
AcDbEntity
  8
0
  6
CONTINUOUS
 62
     7
100
AcDbLine
 10
45.98917980200501
 20
104.9560042356503
 30
0.0
 11
45.961205259605
 21
104.9622500420503
 31
0.0
  0
LINE
  5
B6A
330
1F
100
AcDbEntity
  8
0
  6
CONTINUOUS
 62
     7
100
AcDbLine
 10
78.46446101000501
 20
96.77002980365038
 30
0.0
 11
78.47740201960501
 21
96.76638599245036
 31
0.0
  0
LWPOLYLINE
  5
B6B
330
1F
100
AcDbEntity
  8
0
  6
CONTINUOUS
 62
     7
100
AcDbPolyline
 90
        3
 70
     0
 43
0.0
 10
49.31184133000501
 20
82.62637855245037
 10
49.36113417000502
 20
82.64724027725035
 10
49.41311167400501
 20
82.66776399725037
  0
LWPOLYLINE
  5
B6C
330
1F
100
AcDbEntity
  8
0
  6
CONTINUOUS
 62
     7
100
AcDbPolyline
 90
       22
 70
     0
 43
0.0
 10
49.31184133000501
 20
82.62637855245037
 10
49.30398180840501
 20
82.62333229005035
 10
49.29387076680502
 20
82.62012828845035
 10
49.28147000200501
 20
82.61678193325037
 10
49.26680564840501
 20
82.61332078285036
 10
49.24998165160501
 20
82.60978202605036
 10
49.23107031880501
 20
82.60618912205037
 10
49.21022662440501
 20
82.60257711725037
 10
49.18764634120501
 20
82.59898195565035
 10
49.16350732520502
 20
82.59543178925035
 10
49.13797538920501
 20
82.59195019565035
 10
49.11136533160501
 20
82.58857709325036
 10
49.08394020360501
 20
82.58533991725036
 10
49.055940568405
 20
82.58225978925036
 10
49.02756685800501
 20
82.57935094445036
 10
48.99903275720501
 20
82.57662712205037
 10
48.97047645160501
 20
82.57409341965036
 10
48.94209151880501
 20
82.57175896365037
 10
48.91396912520502
 20
82.56962342925035
 10
48.886259531605
 20
82.56769079085037
 10
48.85901929480501
 20
82.56595802125037
 10
48.83237849800501
 20
82.56442686125037
  0
LWPOLYLINE
  5
B6D
330
1F
100
AcDbEntity
  8
0
  6
CONTINUOUS
 62
     7
100
AcDbPolyline
 90
       21
 70
     0
 43
0.0
 10
54.52659054120501
 20
107.3577608404503
 10
54.60942695240501
 20
107.3657563972503
 10
54.69166920040501
 20
107.3774765684503
 10
54.77315380040501
 20
107.3929020676503
 10
54.85369343560501
 20
107.4120033732503
 10
54.93306577160502
 20
107.4347312100503
 10
55.01115345800501
 20
107.4610578468503
 10
55.08771361000501
 20
107.4909077908503
 10
55.16260040680501
 20
107.5242285572503
 10
55.23565344360502
 20
107.5609573268503
 10
55.30665982760502
 20
107.6009936340503
 10
55.37552322760501
 20
107.6442930852503
 10
55.44202020840501
 20
107.6907267668503
 10
55.50601774280501
 20
107.7402105988503
 10
55.56737426280502
 20
107.7926489652503
 10
55.62590461000501
 20
107.8478953444503
 10
55.68151995080501
 20
107.9058812676503
 10
55.73403421800501
 20
107.9664299700503
 10
55.78333438440501
 20
108.0294246180503
 10
55.82929977320501
 20
108.0947294324503
 10
55.860020246805
 20
108.1427014916503
  0
LWPOLYLINE
  5
B6E
330
1F
100
AcDbEntity
  8
0
  6
CONTINUOUS
 62
     7
100
AcDbPolyline
 90
        6
 70
     0
 43
0.0
 10
51.64384992040502
 20
107.2249133396503
 10
52.22127749640501
 20
107.2387880932503
 10
52.79834290280501
 20
107.2590133604503
 10
53.37496849800501
 20
107.2855864260503
 10
53.95107686440501
 20
107.3185037284503
 10
54.52659054120501
 20
107.3577608404503
  0
LWPOLYLINE
  5
B6F
330
1F
100
AcDbEntity
  8
0
  6
CONTINUOUS
 62
     7
100
AcDbPolyline
 90
       12
 70
     0
 43
0.0
 10
69.26088159720501
 20
106.5643388596503
 10
68.87848934600501
 20
106.5791244420503
 10
68.46790598760501
 20
106.5885252324503
 10
68.02148620040501
 20
106.5926810324503
 10
67.53751899560501
 20
106.5914463908503
 10
67.01421702440502
 20
106.5846806452503
 10
66.44676179880502
 20
106.5721776676503
 10
65.83100727560502
 20
106.5536862116503
 10
65.16077299880501
 20
106.5288456868503
 10
64.42676372040501
 20
106.4971118836503
 10
63.61532147560502
 20
106.4576729748503
 10
62.705430390805
 20
106.4092713812503
  0
LWPOLYLINE
  5
B70
330
1F
100
AcDbEntity
  8
0
  6
CONTINUOUS
 62
     7
100
AcDbPolyline
 90
        5
 70
     0
 43
0.0
 10
38.50534285000501
 20
108.7661891892503
 10
40.782585355605
 20
108.6643045300503
 10
43.204016381205
 20
108.5516236388503
 10
45.860373717205
 20
108.4235979892503
 10
46.785942594005
 20
108.3776310996503
  0
LWPOLYLINE
  5
B71
330
1F
100
AcDbEntity
  8
0
  6
CONTINUOUS
 62
     7
100
AcDbPolyline
 90
        4
 70
     0
 43
0.0
 10
49.58474900520501
 20
108.2377353892503
 10
52.13859905000501
 20
108.1077153044503
 10
55.59466272520501
 20
107.9275845940503
 10
55.69567344680502
 20
107.9222001828503
  0
LWPOLYLINE
  5
B72
330
1F
100
AcDbEntity
  8
0
  6
CONTINUOUS
 62
     7
100
AcDbPolyline
 90
       22
 70
     0
 43
0.0
 10
56.34228311080502
 20
108.1922413396503
 10
56.31635493480501
 20
108.1935694980503
 10
56.29014428680502
 20
108.1947460228503
 10
56.26378576360501
 20
108.1957595092503
 10
56.23733018440501
 20
108.1966021156503
 10
56.21091623880501
 20
108.1972628836503
 10
56.18461336680501
 20
108.1977328340503
 10
56.15858264040501
 20
108.1980011380503
 10
56.13294579080501
 20
108.1980581636503
 10
56.10790641480502
 20
108.1978949252503
 10
56.08361239720501
 20
108.1975037876503
 10
56.060262894805
 20
108.1968790068503
 10
56.03810660520501
 20
108.1960194612503
 10
56.01737381480501
 20
108.1949284900503
 10
55.99819088200502
 20
108.1936074516503
 10
55.98075088840501
 20
108.1920641476503
 10
55.96528439560501
 20
108.1903174980503
 10
55.95196158440501
 20
108.1883927268503
 10
55.94082507560502
 20
108.1863072116503
 10
55.93189639080501
 20
108.1840777556503
 10
55.92520192840502
 20
108.1817289332503
 10
55.920728357205
 20
108.1792873188503
  0
LWPOLYLINE
  5
B73
330
1F
100
AcDbEntity
  8
0
  6
CONTINUOUS
 62
     7
100
AcDbPolyline
 90
       26
 70
     0
 43
0.0
 10
47.173604018005
 20
108.6908375204503
 10
47.13093197960501
 20
108.6930461796503
 10
47.08993976680502
 20
108.6949482356503
 10
47.05068184040501
 20
108.6965535236503
 10
47.013103491605
 20
108.6978757092503
 10
46.977217200405
 20
108.6989245828503
 10
46.94298261960502
 20
108.6997105044503
 10
46.91044359560502
 20
108.7002409156503
 10
46.87954808200501
 20
108.7005242484503
 10
46.85032676360501
 20
108.7005667652503
 10
46.82277705640501
 20
108.7003744340503
 10
46.79688419720501
 20
108.6999518564503
 10
46.77269502760501
 20
108.6993037444503
 10
46.75018423080501
 20
108.6984321588503
 10
46.72941079720501
 20
108.6973408660503
 10
46.71038732840502
 20
108.6960310532503
 10
46.69314957800501
 20
108.6945037620503
 10
46.67776020200501
 20
108.6927619348503
 10
46.66424393000501
 20
108.6908033380503
 10
46.65267990280502
 20
108.6886316644503
 10
46.643115891605
 20
108.6862448116503
 10
46.63562689000501
 20
108.6836445796503
 10
46.63028810760501
 20
108.6808335044503
 10
46.62717031880501
 20
108.6778097684503
 10
46.62635645000501
 20
108.6745795556503
 10
46.626901770005
 20
108.6727497252503
  0
LWPOLYLINE
  5
B74
330
1F
100
AcDbEntity
  8
0
  6
CONTINUOUS
 62
     7
100
AcDbPolyline
 90
        3
 70
     0
 43
0.0
 10
57.79367275720502
 20
107.8103655924503
 10
59.15436397800501
 20
107.7378334676503
 10
62.81067694120501
 20
107.5387215764503
  0
LINE
  5
B75
330
1F
100
AcDbEntity
  8
0
  6
CONTINUOUS
 62
     7
100
AcDbLine
 10
57.36525010920501
 20
108.1366120132503
 30
0.0
 11
56.34228311080502
 21
108.1922413396503
 31
0.0
  0
LINE
  5
B76
330
1F
100
AcDbEntity
  8
0
  6
CONTINUOUS
 62
     7
100
AcDbLine
 10
48.83237849800501
 20
108.6006327460503
 30
0.0
 11
47.173604018005
 21
108.6908375204503
 31
0.0
  0
LWPOLYLINE
  5
B77
330
1F
100
AcDbEntity
  8
0
  6
CONTINUOUS
 62
     7
100
AcDbPolyline
 90
        4
 70
     0
 43
0.0
 10
62.81067694120501
 20
107.5387215764503
 10
64.71552873960501
 20
107.4331871204503
 10
66.85452514440502
 20
107.3120767044503
 10
69.26088159720501
 20
107.1755882308503
  0
LWPOLYLINE
  5
B78
330
1F
100
AcDbEntity
  8
0
  6
CONTINUOUS
 62
     7
100
AcDbPolyline
 90
       18
 70
     0
 43
0.0
 10
69.26088159720501
 20
107.1755882308503
 10
69.67219037960501
 20
107.1408798436503
 10
70.13347671400501
 20
107.0775034852503
 10
70.63685474280501
 20
106.9822460020503
 10
71.16602086760501
 20
106.8548832036503
 10
71.69270444840501
 20
106.7007848644503
 10
72.16941223080501
 20
106.5362000932503
 10
72.59627899560502
 20
106.3661006452503
 10
72.99836420520501
 20
106.1844148708503
 10
73.39053991080501
 20
105.9855320164503
 10
73.77080612840501
 20
105.7681002532503
 10
74.12261996840502
 20
105.5412383252503
 10
74.46231139080501
 20
105.2958351828503
 10
74.80016563880501
 20
105.0234559044503
 10
75.144693086805
 20
104.7145011444503
 10
75.49817935080501
 20
104.3640410484503
 10
75.85069956360502
 20
103.9781848404503
 10
76.18950714280501
 20
103.5684217140503
  0
LWPOLYLINE
  5
B79
330
1F
100
AcDbEntity
  8
0
  6
CONTINUOUS
 62
     7
100
AcDbPolyline
 90
       22
 70
     0
 43
0.0
 10
49.31184133000501
 20
108.5386810548503
 10
49.30398180840501
 20
108.5417273172503
 10
49.29387076680502
 20
108.5449313188503
 10
49.28147000200501
 20
108.5482776740503
 10
49.26680564840501
 20
108.5517388244503
 10
49.24998165160501
 20
108.5552775812503
 10
49.23107031880501
 20
108.5588704852503
 10
49.21022662440501
 20
108.5624824900503
 10
49.18764634120501
 20
108.5660776516503
 10
49.16350732520502
 20
108.5696278180503
 10
49.13797538920501
 20
108.5731094132503
 10
49.11136533160501
 20
108.5764825140503
 10
49.08394020360501
 20
108.5797196900503
 10
49.055940568405
 20
108.5827998180503
 10
49.02756685800501
 20
108.5857086628503
 10
48.99903275720501
 20
108.5884324852503
 10
48.97047645160501
 20
108.5909661876503
 10
48.94209151880501
 20
108.5933006436503
 10
48.91396912520502
 20
108.5954361780503
 10
48.886259531605
 20
108.5973688180503
 10
48.85901929480501
 20
108.5991015860503
 10
48.83237849800501
 20
108.6006327460503
  0
LWPOLYLINE
  5
B7A
330
1F
100
AcDbEntity
  8
0
  6
CONTINUOUS
 62
     7
100
AcDbPolyline
 90
        3
 70
     0
 43
0.0
 10
49.31184133000501
 20
108.5386810548503
 10
49.36113417000502
 20
108.5178193300503
 10
49.41311167400501
 20
108.4972956100503
  0
LWPOLYLINE
  5
B7B
330
1F
100
AcDbEntity
  8
0
  6
CONTINUOUS
 62
     7
100
AcDbPolyline
 90
        3
 70
     0
 43
0.0
 10
30.47836081160501
 20
106.1952933892503
 10
30.66291385800501
 20
106.2445227908503
 10
30.85058322760501
 20
106.2908742052503
  0
LWPOLYLINE
  5
B7C
330
1F
100
AcDbEntity
  8
0
  6
CONTINUOUS
 62
     7
100
AcDbPolyline
 90
       10
 70
     0
 43
0.0
 10
70.36221588520501
 20
108.1191342532503
 10
68.70284254760502
 20
108.1958963604503
 10
66.95712399720502
 20
108.2807613828503
 10
65.10194339240502
 20
108.3750790580503
 10
63.10399986280501
 20
108.4808189652503
 10
60.90498475720501
 20
108.6014184196503
 10
58.41065658440502
 20
108.7424769156503
 10
55.84110176200501
 20
108.8912157636503
 10
53.55183692360501
 20
109.0255221220503
 10
51.52055966120501
 20
109.1452684532503
  0
LWPOLYLINE
  5
B7D
330
1F
100
AcDbEntity
  8
0
  6
CONTINUOUS
 62
     7
100
AcDbPolyline
 90
       10
 70
     0
 43
0.0
 10
36.33039559080501
 20
110.0496354900503
 10
36.22819051720501
 20
110.0548334628503
 10
36.11638819080501
 20
110.0604605268503
 10
35.99395999080501
 20
110.0665495172503
 10
35.85973619880501
 20
110.0731336772503
 10
35.71236259240501
 20
110.0802461092503
 10
35.55023809160501
 20
110.0879188372503
 10
35.371468581205
 20
110.0961790100503
 10
35.17380550280501
 20
110.1050427012503
 10
34.95453497160501
 20
110.1145057204503
  0
LINE
  5
B7E
330
1F
100
AcDbEntity
  8
0
  6
CONTINUOUS
 62
     7
100
AcDbLine
 10
36.50956471080501
 20
110.0404009828503
 30
0.0
 11
36.33039559080501
 21
110.0496354900503
 31
0.0
  0
LINE
  5
B7F
330
1F
100
AcDbEntity
  8
0
  6
CONTINUOUS
 62
     7
100
AcDbLine
 10
36.66004274280501
 20
110.0325234836503
 30
0.0
 11
36.50956471080501
 21
110.0404009828503
 31
0.0
  0
LINE
  5
B80
330
1F
100
AcDbEntity
  8
0
  6
CONTINUOUS
 62
     7
100
AcDbLine
 10
36.78673949640502
 20
110.0257996180503
 30
0.0
 11
36.66004274280501
 21
110.0325234836503
 31
0.0
  0
LINE
  5
B81
330
1F
100
AcDbEntity
  8
0
  6
CONTINUOUS
 62
     7
100
AcDbLine
 10
36.94073454440502
 20
110.0175003268503
 30
0.0
 11
36.78673949640502
 21
110.0257996180503
 31
0.0
  0
LINE
  5
B82
330
1F
100
AcDbEntity
  8
0
  6
CONTINUOUS
 62
     7
100
AcDbLine
 10
37.09432694760501
 20
110.0090515812503
 30
0.0
 11
36.94073454440502
 21
110.0175003268503
 31
0.0
  0
LINE
  5
B83
330
1F
100
AcDbEntity
  8
0
  6
CONTINUOUS
 62
     7
100
AcDbLine
 10
37.248008501205
 20
110.0003483780503
 30
0.0
 11
37.09432694760501
 21
110.0090515812503
 31
0.0
  0
LWPOLYLINE
  5
B84
330
1F
100
AcDbEntity
  8
0
  6
CONTINUOUS
 62
     7
100
AcDbPolyline
 90
        5
 70
     0
 43
0.0
 10
51.52055966120501
 20
109.1452684532503
 10
40.11609828040501
 20
109.8178286004503
 10
39.33295060520501
 20
109.8640681156503
 10
38.62287306760501
 20
109.9072823508503
 10
37.995046624405
 20
109.9484508324503
  0
LINE
  5
B85
330
1F
100
AcDbEntity
  8
0
  6
CONTINUOUS
 62
     7
100
AcDbLine
 10
37.375197813205
 20
109.9927842500503
 30
0.0
 11
37.248008501205
 21
110.0003483780503
 31
0.0
  0
LINE
  5
B86
330
1F
100
AcDbEntity
  8
0
  6
CONTINUOUS
 62
     7
100
AcDbLine
 10
37.42116935080501
 20
109.9898451204503
 30
0.0
 11
37.375197813205
 21
109.9927842500503
 31
0.0
  0
LINE
  5
B87
330
1F
100
AcDbEntity
  8
0
  6
CONTINUOUS
 62
     7
100
AcDbLine
 10
37.43730013480501
 20
109.9887375268503
 30
0.0
 11
37.42116935080501
 21
109.9898451204503
 31
0.0
  0
LINE
  5
B88
330
1F
100
AcDbEntity
  8
0
  6
CONTINUOUS
 62
     7
100
AcDbLine
 10
37.995046624405
 20
109.9484508324503
 30
0.0
 11
37.43730013480501
 21
109.9887375268503
 31
0.0
  0
LINE
  5
B89
330
1F
100
AcDbEntity
  8
0
  6
CONTINUOUS
 62
     7
100
AcDbLine
 10
73.67672083720501
 20
94.26668455885035
 30
0.0
 11
73.68788067720501
 21
94.27715192045036
 31
0.0
  0
LINE
  5
B8A
330
1F
100
AcDbEntity
  8
0
  6
CONTINUOUS
 62
     7
100
AcDbLine
 10
73.66711274120501
 20
94.25781313645035
 30
0.0
 11
73.67672083720501
 21
94.26668455885035
 31
0.0
  0
LINE
  5
B8B
330
1F
100
AcDbEntity
  8
0
  6
CONTINUOUS
 62
     7
100
AcDbLine
 10
73.65884700200502
 20
94.25028291085036
 30
0.0
 11
73.66711274120501
 21
94.25781313645035
 31
0.0
  0
LINE
  5
B8C
330
1F
100
AcDbEntity
  8
0
  6
CONTINUOUS
 62
     7
100
AcDbLine
 10
73.648478682005
 20
94.24095804205036
 30
0.0
 11
73.65884700200502
 21
94.25028291085036
 31
0.0
  0
LINE
  5
B8D
330
1F
100
AcDbEntity
  8
0
  6
CONTINUOUS
 62
     7
100
AcDbLine
 10
73.64171767560501
 20
94.23493578285036
 30
0.0
 11
73.648478682005
 21
94.24095804205036
 31
0.0
  0
LINE
  5
B8E
330
1F
100
AcDbEntity
  8
0
  6
CONTINUOUS
 62
     7
100
AcDbLine
 10
73.63350351880502
 20
94.22769999085037
 30
0.0
 11
73.64171767560501
 21
94.23493578285036
 31
0.0
  0
LINE
  5
B8F
330
1F
100
AcDbEntity
  8
0
  6
CONTINUOUS
 62
     7
100
AcDbLine
 10
73.62384604840501
 20
94.21930436045036
 30
0.0
 11
73.63350351880502
 21
94.22769999085037
 31
0.0
  0
LINE
  5
B90
330
1F
100
AcDbEntity
  8
0
  6
CONTINUOUS
 62
     7
100
AcDbLine
 10
15.56390479400501
 20
113.2222140148503
 30
0.0
 11
80.345175867605
 21
113.2222140148503
 31
0.0
  0
LINE
  5
B91
330
1F
100
AcDbEntity
  8
0
  6
CONTINUOUS
 62
     7
100
AcDbLine
 10
80.45644298120501
 20
113.5825298036503
 30
0.0
 11
15.45263767880501
 21
113.5825298036503
 31
0.0
  0
LINE
  5
B92
330
1F
100
AcDbEntity
  8
0
  6
CONTINUOUS
 62
     7
100
AcDbLine
 10
73.61246002440501
 20
96.95550165165037
 30
0.0
 11
73.62384453320501
 21
96.94575655405035
 31
0.0
  0
LINE
  5
B93
330
1F
100
AcDbEntity
  8
0
  6
CONTINUOUS
 62
     7
100
AcDbLine
 10
73.62384453320501
 20
96.94575655405035
 30
0.0
 11
73.63350215560501
 21
96.93736081005036
 31
0.0
  0
LINE
  5
B94
330
1F
100
AcDbEntity
  8
0
  6
CONTINUOUS
 62
     7
100
AcDbLine
 10
73.63350215560501
 20
96.93736081005036
 30
0.0
 11
73.64171648360501
 21
96.93012488045036
 31
0.0
  0
LINE
  5
B95
330
1F
100
AcDbEntity
  8
0
  6
CONTINUOUS
 62
     7
100
AcDbLine
 10
73.64171648360501
 20
96.93012488045036
 30
0.0
 11
73.64847755560501
 21
96.92410257485036
 31
0.0
  0
LINE
  5
B96
330
1F
100
AcDbEntity
  8
0
  6
CONTINUOUS
 62
     7
100
AcDbLine
 10
73.64847755560501
 20
96.92410257485036
 30
0.0
 11
73.65884560840502
 21
96.91477795725035
 31
0.0
  0
LINE
  5
B97
330
1F
100
AcDbEntity
  8
0
  6
CONTINUOUS
 62
     7
100
AcDbLine
 10
73.65884560840502
 20
96.91477795725035
 30
0.0
 11
73.66711104840502
 21
96.90724802285036
 31
0.0
  0
LINE
  5
B98
330
1F
100
AcDbEntity
  8
0
  6
CONTINUOUS
 62
     7
100
AcDbLine
 10
73.66711104840502
 20
96.90724802285036
 30
0.0
 11
73.67671878440501
 21
96.89837695725035
 31
0.0
  0
LWPOLYLINE
  5
B99
330
1F
100
AcDbEntity
  8
0
  6
CONTINUOUS
 62
     7
100
AcDbPolyline
 90
       42
 70
     0
 43
0.0
 10
73.67671878440501
 20
96.89837695725035
 10
73.68787819400501
 20
96.88791003565036
 10
73.694116904405
 20
96.88198061005037
 10
73.70084029960501
 20
96.87552694605038
 10
73.70808568680501
 20
96.86849728365036
 10
73.71589335880502
 20
96.86083363565035
 10
73.72430658920501
 20
96.85247107245036
 10
73.733371787605
 20
96.84333673805037
 10
73.74313864680501
 20
96.83334867085036
 10
73.75366033320502
 20
96.82241434765035
 10
73.76499360200501
 20
96.81042902605037
 10
73.77719889320501
 20
96.79727373005036
 10
73.790340338005
 20
96.78281285165036
 10
73.80448607880501
 20
96.76689082125037
 10
73.81970692520501
 20
96.74932984205037
 10
73.83607721800501
 20
96.72992418125037
 10
73.85367356200501
 20
96.70843549485036
 10
73.87257385640501
 20
96.68458609325037
 10
73.89285564200502
 20
96.65805063725038
 10
73.91459359560501
 20
96.62844564205038
 10
73.93785577480501
 20
96.59531603245037
 10
73.96269801160501
 20
96.55811775085036
 10
73.98915573640501
 20
96.51619473485036
 10
74.01723189160501
 20
96.46874513165037
 10
74.04686865960501
 20
96.41479519725036
 10
74.077926766805
 20
96.35313066285036
 10
74.110213981205
 20
96.28203330605035
 10
74.143361843605
 20
96.19916258925037
 10
74.17141323560501
 20
96.11796981325037
 10
74.19299526120501
 20
96.04520177005037
 10
74.20944632840501
 20
95.98049729005035
 10
74.22194847400501
 20
95.92298594125038
 10
74.23154862440501
 20
95.87120294925037
 10
74.23896587400502
 20
95.82412339885037
 10
74.24468429640501
 20
95.78121391725037
 10
74.24906009960501
 20
95.74226113965037
 10
74.25233864200501
 20
95.70701595725035
 10
74.25464422760502
 20
95.67569594765036
 10
74.256137920405
 20
95.64838544525036
 10
74.25702386120502
 20
95.62462237805036
 10
74.25748865960501
 20
95.60307159085036
 10
74.257633334805
 20
95.58252980365038
  0
LWPOLYLINE
  5
B9A
330
1F
100
AcDbEntity
  8
0
  6
CONTINUOUS
 62
     7
100
AcDbPolyline
 90
       41
 70
     0
 43
0.0
 10
73.68788067720501
 20
94.27715192045036
 10
73.69411963400501
 20
94.28308160365038
 10
73.70084329960501
 20
94.28953555565035
 10
73.708088982805
 20
94.29656553805036
 10
73.71589697640501
 20
94.30422954605035
 10
73.72431056040501
 20
94.31259250925036
 10
73.73337614280501
 20
94.32172729005035
 10
73.74314342280502
 20
94.33171585965036
 10
73.75366556840501
 20
94.34265074765036
 10
73.76499933960501
 20
94.35463670285036
 10
73.77720517640502
 20
94.36779271725034
 10
73.79034721640501
 20
94.38225440685036
 10
73.80449360200501
 20
94.39817735405037
 10
73.819715150805
 20
94.41573937805037
 10
73.83608620200501
 20
94.43514622925036
 10
73.85368336680501
 20
94.45663627565037
 10
73.87258454600502
 20
94.48048723885037
 10
73.89286728360501
 20
94.50702449325035
 10
73.91460625000501
 20
94.53663157005037
 10
73.93786950600501
 20
94.56976359885036
 10
73.96271287080501
 20
94.60696471085034
 10
73.98917176680502
 20
94.64889105485037
 10
74.01724910600501
 20
94.69634459885037
 10
74.04688703080501
 20
94.75029923085036
 10
74.07794622920501
 20
94.81196947725036
 10
74.11023439720501
 20
94.88307393965035
 10
74.14338101000502
 20
94.96594854605035
 10
74.17142888840501
 20
95.04713880685036
 10
74.19300740520501
 20
95.11990215565035
 10
74.20945568840501
 20
95.18460221325037
 10
74.221955712405
 20
95.24210978925035
 10
74.23155426920501
 20
95.29388973645035
 10
74.23897028200501
 20
95.34096668845036
 10
74.24468772360501
 20
95.38387375245036
 10
74.24906273640501
 20
95.42282420685035
 10
74.25234058440501
 20
95.45806701645037
 10
74.25464555400501
 20
95.48938448205035
 10
74.256138755605
 20
95.51669251085035
 10
74.25702433960501
 20
95.54045369485036
 10
74.25748887720501
 20
95.56200348045036
 10
74.25763352360501
 20
95.58252980365038
  0
LINE
  5
B9B
330
1F
100
AcDbEntity
  8
0
  6
CONTINUOUS
 62
     7
100
AcDbLine
 10
78.46691831880502
 20
96.76632941005037
 30
0.0
 11
78.453848894805
 21
96.75515148525036
 31
0.0
  0
LWPOLYLINE
  5
B9C
330
1F
100
AcDbEntity
  8
0
  6
CONTINUOUS
 62
     7
100
AcDbPolyline
 90
       16
 70
     0
 43
0.0
 10
15.45263767880501
 20
113.5825298036503
 10
15.40082481160501
 20
113.5794342260503
 10
15.34955543720501
 20
113.5709641460503
 10
15.29938642920501
 20
113.5572054436503
 10
15.25086381640501
 20
113.5383013652503
 10
15.20462741480501
 20
113.5145154660503
 10
15.161084486805
 20
113.4860774212503
 10
15.12068098120501
 20
113.4532760244503
 10
15.08385859560501
 20
113.4164606772503
 10
15.051021195605
 20
113.3760246900503
 10
15.02253047080501
 20
113.3324011172503
 10
14.99871472360501
 20
113.2860863460503
 10
14.979859888405
 20
113.2376691940503
 10
14.96611615880501
 20
113.1875611092503
 10
14.95764189160501
 20
113.1362986388503
 10
14.95454033000501
 20
113.0844324548503
  0
LWPOLYLINE
  5
B9D
330
1F
100
AcDbEntity
  8
0
  6
CONTINUOUS
 62
     7
100
AcDbPolyline
 90
       16
 70
     0
 43
0.0
 10
80.345175867605
 20
113.2222140148503
 10
80.371282438805
 20
113.2208512580503
 10
80.39708232360501
 20
113.2167781924503
 10
80.42229345640501
 20
113.2100406484503
 10
80.44664181320502
 20
113.2007133668503
 10
80.46986509800502
 20
113.1888984580503
 10
80.49171273000501
 20
113.1747246308503
 10
80.51194917160501
 20
113.1583456276503
 10
80.53035612520501
 20
113.1399386772503
 10
80.54673513320501
 20
113.1197022388503
 10
80.56090896360501
 20
113.0978546132503
 10
80.572723877205
 20
113.0746313332503
 10
80.58205116200502
 20
113.0502829780503
 10
80.58878871240501
 20
113.0250718532503
 10
80.59286178120501
 20
112.9992719492503
 10
80.594224541205
 20
112.9731653396503
  0
LWPOLYLINE
  5
B9E
330
1F
100
AcDbEntity
  8
0
  6
CONTINUOUS
 62
     7
100
AcDbPolyline
 90
       19
 70
     0
 43
0.0
 10
78.47740201960501
 20
96.76638599245036
 10
78.490384571605
 20
96.75532577965036
 10
78.50331828680501
 20
96.73669788845035
 10
78.51616161960501
 20
96.71028466605037
 10
78.52880146920501
 20
96.67599747885034
 10
78.54114988040501
 20
96.63373867405036
 10
78.553036424405
 20
96.58379862445038
 10
78.564301130005
 20
96.52670498765036
 10
78.574859600405
 20
96.46282651245037
 10
78.58460463560501
 20
96.39281068205036
 10
78.59349329960501
 20
96.31698984525037
 10
78.60144513160502
 20
96.23609189325037
 10
78.60842672360501
 20
96.15052630125035
 10
78.61439193800501
 20
96.06090440685036
 10
78.61930306600502
 20
95.96786823085038
 10
78.62312438600501
 20
95.87227111565036
 10
78.62582583720501
 20
95.77549457165037
 10
78.627421192405
 20
95.67847004205034
 10
78.62794064040501
 20
95.58252980365038
  0
LINE
  5
B9F
330
1F
100
AcDbEntity
  8
0
  6
CONTINUOUS
 62
     7
100
AcDbLine
 10
78.45347815720501
 20
94.41033583725035
 30
0.0
 11
78.466736872405
 21
94.39883391725036
 31
0.0
  0
LWPOLYLINE
  5
BA0
330
1F
100
AcDbEntity
  8
0
  6
CONTINUOUS
 62
     7
100
AcDbPolyline
 90
       22
 70
     0
 43
0.0
 10
70.65283218760502
 20
95.58252980365038
 10
70.65768938920502
 20
95.45026199085034
 10
70.67248887720501
 20
95.31696723245037
 10
70.69738426440501
 20
95.18407488365037
 10
70.73228001480501
 20
95.05299667085035
 10
70.77685133480501
 20
94.92505695565034
 10
70.83076643240501
 20
94.80105447245037
 10
70.89379166760501
 20
94.68144592525035
 10
70.96563280680502
 20
94.56681088525035
 10
71.04585866920501
 20
94.45786677645036
 10
71.13405840360501
 20
94.35519618605036
 10
71.22963551880501
 20
94.25950025485036
 10
71.33194716840501
 20
94.17138693485037
 10
71.44044985480501
 20
94.09128523245035
 10
71.55455180840501
 20
94.01961157325036
 10
71.67364531240501
 20
93.95674030925036
 10
71.79709416680501
 20
93.90301126605036
 10
71.92416171240501
 20
93.85874822765035
 10
72.05412113000502
 20
93.82420137805036
 10
72.18622283240501
 20
93.79956466125037
 10
72.31964293800501
 20
93.78497604045037
 10
72.45354586920502
 20
93.78049369005035
  0
LWPOLYLINE
  5
BA1
330
1F
100
AcDbEntity
  8
0
  6
CONTINUOUS
 62
     7
100
AcDbPolyline
 90
       23
 70
     0
 43
0.0
 10
70.65283215720501
 20
95.58252980365038
 10
70.65725520680501
 20
95.70875448845034
 10
70.67072742120501
 20
95.83597431725037
 10
70.693397253205
 20
95.96294504525037
 10
70.72520505800501
 20
96.08843260045038
 10
70.765887610005
 20
96.21124229485037
 10
70.81514691560501
 20
96.33059728685035
 10
70.87276582760501
 20
96.44606529645038
 10
70.93851391080502
 20
96.55718378125037
 10
71.01204983880501
 20
96.66334863405035
 10
71.093014682005
 20
96.76401805965037
 10
71.180962397205
 20
96.85862159085036
 10
71.27533728840501
 20
96.94657645645037
 10
71.37561855720502
 20
97.02743368845037
 10
71.48132457320501
 20
97.10083272045038
 10
71.59193325320501
 20
97.16642405325035
 10
71.70691041000501
 20
97.22389348845036
 10
71.82568052680501
 20
97.27294893165035
 10
71.94759675560502
 20
97.31332160045036
 10
72.07202579240501
 20
97.34480494125037
 10
72.19830897000502
 20
97.36723772365037
 10
72.32572467240501
 20
97.38050663085036
 10
72.45354586920502
 20
97.38456591725038
  0
LINE
  5
BA2
330
1F
100
AcDbEntity
  8
0
  6
CONTINUOUS
 62
     7
100
AcDbLine
 10
72.45391670440501
 20
93.72891582285035
 30
0.0
 11
72.45354586920502
 21
93.78049370605035
 31
0.0
  0
LINE
  5
BA3
330
1F
100
AcDbEntity
  8
0
  6
CONTINUOUS
 62
     7
100
AcDbLine
 10
72.45425584200501
 20
93.66886507885036
 30
0.0
 11
72.45391670440501
 21
93.72891582285035
 31
0.0
  0
LINE
  5
BA4
330
1F
100
AcDbEntity
  8
0
  6
CONTINUOUS
 62
     7
100
AcDbLine
 10
72.45454033000502
 20
93.60440542445036
 30
0.0
 11
72.45425584200501
 21
93.66886507885036
 31
0.0
  0
LINE
  5
BA5
330
1F
100
AcDbEntity
  8
CENTER
100
AcDbLine
 10
72.45454033000502
 20
100.9037681963728
 30
0.0
 11
72.45454033000502
 21
89.87465196138757
 31
0.0
  0
LINE
  5
BA9
330
1F
100
AcDbEntity
  8
0
  6
CONTINUOUS
 62
     7
100
AcDbLine
 10
76.18950714280501
 20
103.5684217140503
 30
0.0
 11
76.17936674760501
 21
103.5136286436503
 31
0.0
  0
LINE
  5
BAA
330
1F
100
AcDbEntity
  8
0
  6
CONTINUOUS
 62
     7
100
AcDbLine
 10
76.17934961480502
 20
103.5136513620503
 30
0.0
 11
76.15035716840501
 21
103.4029769780503
 31
0.0
  0
LWPOLYLINE
  5
BAB
330
1F
100
AcDbEntity
  8
0
  6
CONTINUOUS
 62
     7
100
AcDbPolyline
 90
       18
 70
     0
 43
0.0
 10
78.453848894805
 20
96.75515148525036
 10
78.44084522600501
 20
96.73641458445036
 10
78.42793591880502
 20
96.70995104205037
 10
78.41522157960501
 20
96.67570628365036
 10
78.40277366760502
 20
96.63358549485037
 10
78.39074234760501
 20
96.58382608045037
 10
78.37927867560501
 20
96.52689469485038
 10
78.36847346120501
 20
96.46315099405036
 10
78.35845018440501
 20
96.39329399085037
 10
78.34925956680502
 20
96.31767343885037
 10
78.34098515400501
 20
96.23695593965036
 10
78.33367352680501
 20
96.15155837005037
 10
78.32739092360501
 20
96.06218298605037
 10
78.32219431240502
 20
95.96962601965035
 10
78.31811787720501
 20
95.87450804685037
 10
78.31520000520502
 20
95.77786696525036
 10
78.31344729800502
 20
95.68024090445035
 10
78.31286507240502
 20
95.58252980365038
  0
LINE
  5
BAC
330
1F
100
AcDbEntity
  8
0
  6
CONTINUOUS
 62
     7
100
AcDbLine
 10
76.15035716840501
 20
87.76208262925036
 30
0.0
 11
76.17934961480502
 21
87.65140824525037
 31
0.0
  0
LINE
  5
BAD
330
1F
100
AcDbEntity
  8
0
  6
CONTINUOUS
 62
     7
100
AcDbLine
 10
76.17936674760501
 20
87.65143096365035
 30
0.0
 11
76.18950714280501
 21
87.59663789325037
 31
0.0
  0
LWPOLYLINE
  5
BAE
330
1F
100
AcDbEntity
  8
0
  6
CONTINUOUS
 62
     7
100
AcDbPolyline
 90
       69
 70
     0
 43
0.0
 10
76.43326570120501
 20
97.09407926125036
 10
76.43301099240502
 20
97.21075407245036
 10
76.432505246805
 20
97.32925687725037
 10
76.43157535880501
 20
97.45001189165035
 10
76.43088521960502
 20
97.51127510125037
 10
76.42995904680501
 20
97.57366825965036
 10
76.42871131560501
 20
97.63781161645036
 10
76.42705649960501
 20
97.70432542925036
 10
76.42490700520501
 20
97.77354550765037
 10
76.42216694760501
 20
97.84466989645038
 10
76.41872149640501
 20
97.91696213965037
 10
76.41438834440501
 20
97.99108552045035
 10
76.40899302760501
 20
98.06765986765036
 10
76.40245996360501
 20
98.14573141645036
 10
76.39480121960501
 20
98.22382954605036
 10
76.38628058920502
 20
98.29998981005036
 10
76.37715645320501
 20
98.37275180685038
 10
76.36741380360501
 20
98.44316514125038
 10
76.34583157960502
 20
98.58158114445036
 10
76.33398200360502
 20
98.64997812845036
 10
76.32156852200501
 20
98.71741417805035
 10
76.30875775560501
 20
98.78335536525037
 10
76.29571632520501
 20
98.84726776045036
 10
76.28258372680502
 20
98.90874995565036
 10
76.26939097800501
 20
98.96793059405036
 10
76.25614197160501
 20
99.02507083405035
 10
76.24284060680501
 20
99.08043183405036
 10
76.22504015240501
 20
99.15183131245036
 10
76.20721927720501
 20
99.22055780365036
 10
76.18944372040501
 20
99.28663712525036
 10
76.17177123240501
 20
99.35011861805037
 10
76.15422760520501
 20
99.41114569165037
 10
76.136830642005
 20
99.46988527885038
 10
76.11959820360501
 20
99.52649113165037
 10
76.10254838440501
 20
99.58106429005036
 10
76.08569933960501
 20
99.63369261645036
 10
76.06083721000501
 20
99.70917707725035
 10
76.03650059080502
 20
99.78075787885035
 10
76.012719765205
 20
99.84870049325037
 10
75.98951446440501
 20
99.91323417325038
 10
75.96689993800501
 20
99.97457362125036
 10
75.94488409000502
 20
100.0329115700503
 10
75.92347216840501
 20
100.0884309684503
 10
75.90266619400501
 20
100.1412976148503
 10
75.88246638600501
 20
100.1916693476503
 10
75.86286898920501
 20
100.2396893140503
 10
75.84386859240502
 20
100.2854936948503
 10
75.82545712040502
 20
100.3292055156503
 10
75.80762540200502
 20
100.3709417428503
 10
75.79036253320501
 20
100.4108082948503
 10
75.77365702920501
 20
100.4489061652503
 10
75.75749684520501
 20
100.4853276964503
 10
75.741869720405
 20
100.5201611172503
 10
75.72676313160501
 20
100.5534868276503
 10
75.71216417640501
 20
100.5853820852503
 10
75.69805872040501
 20
100.6159194132503
 10
75.68443248040501
 20
100.6451677620503
 10
75.67127181800501
 20
100.6731865284503
 10
75.65856291240502
 20
100.7000323028503
 10
75.64629060360501
 20
100.7257599812503
 10
75.63443993640501
 20
100.7504224628503
 10
75.62299816680502
 20
100.7740663140503
 10
75.601289560405
 20
100.8184789380503
 10
75.58106173320502
 20
100.8593463028503
 10
75.562239086805
 20
100.8969633332503
 10
75.544755565205
 20
100.9315850564503
 10
75.52860045960501
 20
100.9633287588503
 10
75.51357483720501
 20
100.9926585476503
 10
75.49938273640501
 20
101.0201268948503
  0
LINE
  5
BAF
330
1F
100
AcDbEntity
  8
0
  6
CONTINUOUS
 62
     7
100
AcDbLine
 10
76.43345597800501
 20
96.91051354125036
 30
0.0
 11
76.43326570120501
 21
97.09407926125036
 31
0.0
  0
LINE
  5
BB0
330
1F
100
AcDbEntity
  8
0
  6
CONTINUOUS
 62
     7
100
AcDbLine
 10
76.43353215400501
 20
94.52913623085036
 30
0.0
 11
76.43309238760501
 21
95.44732120365038
 31
0.0
  0
LINE
  5
BB1
330
1F
100
AcDbEntity
  8
0
  6
CONTINUOUS
 62
     7
100
AcDbLine
 10
76.43353222760501
 20
96.64789366445035
 30
0.0
 11
76.43345597800501
 21
96.91051354125036
 31
0.0
  0
LINE
  5
BB2
330
1F
100
AcDbEntity
  8
0
  6
CONTINUOUS
 62
     7
100
AcDbLine
 10
76.43309238760501
 20
95.44732120365038
 30
0.0
 11
76.43306442440501
 21
95.62546055885036
 31
0.0
  0
LINE
  5
BB3
330
1F
100
AcDbEntity
  8
0
  6
CONTINUOUS
 62
     7
100
AcDbLine
 10
76.43346537160501
 20
94.27072736685037
 30
0.0
 11
76.43353215400501
 21
94.52913623085036
 31
0.0
  0
LINE
  5
BB4
330
1F
100
AcDbEntity
  8
0
  6
CONTINUOUS
 62
     7
100
AcDbLine
 10
76.43306442440501
 20
95.62546055885036
 30
0.0
 11
76.43353222760501
 21
96.64789366445035
 31
0.0
  0
LWPOLYLINE
  5
BB5
330
1F
100
AcDbEntity
  8
0
  6
CONTINUOUS
 62
     7
100
AcDbPolyline
 90
       70
 70
     0
 43
0.0
 10
75.49938265800502
 20
90.14493256205035
 10
75.51359496680501
 20
90.17244023565035
 10
75.52864392040501
 20
90.20181594765036
 10
75.54482640680501
 20
90.23361425645036
 10
75.56234156040502
 20
90.26830007085036
 10
75.58119985000501
 20
90.30599073965035
 10
75.60146777160501
 20
90.34694289965036
 10
75.62322137640501
 20
90.39145297965037
 10
75.634687688405
 20
90.41515092845036
 10
75.646564350805
 20
90.43987142125036
 10
75.65886417320502
 20
90.46566128525036
 10
75.67160220360502
 20
90.49257374285037
 10
75.68479370600501
 20
90.52066404525035
 10
75.69845253800501
 20
90.54998913805036
 10
75.71259237320501
 20
90.58060878765036
 10
75.72722753320501
 20
90.61259233965037
 10
75.74237218760501
 20
90.64601273485036
 10
75.75803926440501
 20
90.68094770445036
 10
75.77424131560501
 20
90.71747815565036
 10
75.79099064840502
 20
90.75569288845036
 10
75.80829935880501
 20
90.79568486285037
 10
75.82617893480501
 20
90.83755576045035
 10
75.84464027400501
 20
90.88141223885036
 10
75.86369254920501
 20
90.92737213325035
 10
75.88334380520501
 20
90.97555938925037
 10
75.90359934600501
 20
91.02611121965036
 10
75.92446279880501
 20
91.07917185165035
 10
75.94593385320502
 20
91.13490032365035
 10
75.96801038440502
 20
91.19346369645036
 10
75.99068692200501
 20
91.25504633485036
 10
76.01395528680502
 20
91.31984255085036
 10
76.03779979240501
 20
91.38806913485035
 10
76.062200270805
 20
91.45995758445037
 10
76.08712609960502
 20
91.53577575565035
 10
76.10401764200502
 20
91.58864355725036
 10
76.12111127720502
 20
91.64347753645037
 10
76.13839038120501
 20
91.70037424365036
 10
76.15583798760501
 20
91.75944177165035
 10
76.17343578600501
 20
91.82083438925037
 10
76.19116513320502
 20
91.88471791085035
 10
76.20900055720501
 20
91.95124293965037
 10
76.22688929640502
 20
92.02049925005036
 10
76.24477177160501
 20
92.09256140685036
 10
76.25814778920501
 20
92.14853567725034
 10
76.27148632200501
 20
92.20641040205036
 10
76.28478692360501
 20
92.26646580365036
 10
76.29804914920502
 20
92.32898210605037
 10
76.311237429205
 20
92.39409201645036
 10
76.32417570600501
 20
92.46133819725036
 10
76.33665756040501
 20
92.53007777005036
 10
76.34849561800502
 20
92.59951576045038
 10
76.36981969000501
 20
92.73874081645036
 10
76.37937375240501
 20
92.80928426285035
 10
76.38829443880502
 20
92.88221354285036
 10
76.39660513640501
 20
92.95867300845035
 10
76.40404851720501
 20
93.03715366445036
 10
76.41036092360501
 20
93.11558113165038
 10
76.41553411880501
 20
93.19227284685036
 10
76.41965034440501
 20
93.26611141165036
 10
76.42289835560501
 20
93.33784826925038
 10
76.42547350600501
 20
93.40834060365038
 10
76.42749099720501
 20
93.47699970925035
 10
76.42904345800501
 20
93.54312607245034
 10
76.43021335880502
 20
93.60702284525036
 10
76.43108063560501
 20
93.66924384845034
 10
76.43172522280501
 20
93.73034289965037
 10
76.43258836840501
 20
93.85072088685035
 10
76.43305381160501
 20
93.96923969965035
 10
76.43328901960501
 20
94.08667518125037
 10
76.43346537160501
 20
94.27072736685037
  0
LWPOLYLINE
  5
BB6
330
1F
100
AcDbEntity
  8
0
  6
CONTINUOUS
 62
     7
100
AcDbPolyline
 90
       18
 70
     0
 43
0.0
 10
76.18950714280501
 20
87.59663789325037
 10
75.85069956360502
 20
87.18687476685037
 10
75.49817935080501
 20
86.80101855885036
 10
75.144693086805
 20
86.45055846285037
 10
74.80016563880501
 20
86.14160370285036
 10
74.46231139080501
 20
85.86922442445036
 10
74.12261996840502
 20
85.62382128205035
 10
73.77080612840501
 20
85.39695935405037
 10
73.39053991080501
 20
85.17952759085035
 10
72.99836420520501
 20
84.98064473645035
 10
72.59627899560502
 20
84.79895896205036
 10
72.16941223080501
 20
84.62885951405036
 10
71.69270444840501
 20
84.46427474285036
 10
71.16602086760501
 20
84.31017640365036
 10
70.63685474280501
 20
84.18281360525035
 10
70.13347671400501
 20
84.08755612205036
 10
69.67219037960501
 20
84.02417976365036
 10
69.26088159720501
 20
83.98947137645036
  0
LWPOLYLINE
  5
BB7
330
1F
100
AcDbEntity
  8
0
  6
CONTINUOUS
 62
     7
100
AcDbPolyline
 90
       24
 70
     0
 43
0.0
 10
76.15035716840501
 20
103.4029769780503
 10
76.00447533800501
 20
103.5848643348503
 10
75.867761461205
 20
103.7408232948503
 10
75.72984323240501
 20
103.8854039332503
 10
75.57563501960501
 20
104.0361050580503
 10
75.39516844840502
 20
104.2024134868503
 10
75.18645886280501
 20
104.3851268468503
 10
74.947010960405
 20
104.5845094436503
 10
74.66952806920502
 20
104.8032938212503
 10
74.35824425320501
 20
105.0329933188503
 10
74.054774571605
 20
105.2388482468503
 10
73.75822912680501
 20
105.4203319140503
 10
73.44421396840501
 20
105.5904556132503
 10
73.10755998440502
 20
105.7493584036503
 10
72.72606573960501
 20
105.9055047380503
 10
72.28286161160501
 20
106.0627681332503
 10
71.84695259880502
 20
106.1946358772503
 10
71.45553028040501
 20
106.2927065156503
 10
71.08912552040502
 20
106.3679481556503
 10
70.731061341205
 20
106.4276152468503
 10
70.37323632680501
 20
106.4752861476503
 10
70.01134611720501
 20
106.5130709156503
 10
69.64193472360502
 20
106.5424104068503
 10
69.26088159720501
 20
106.5643385764503
  0
LWPOLYLINE
  5
BB8
330
1F
100
AcDbEntity
  8
0
  6
CONTINUOUS
 62
     7
100
AcDbPolyline
 90
      105
 70
     0
 43
0.0
 10
75.49938273640501
 20
101.0201268948503
 10
75.46526540040502
 20
101.0843238484503
 10
75.43114866600501
 20
101.1462832388503
 10
75.39716671880501
 20
101.2053133172503
 10
75.363266560405
 20
101.2611396900503
 10
75.32864645000501
 20
101.3151573684503
 10
75.29231747080501
 20
101.3691787188503
 10
75.25345404040502
 20
101.4247147204503
 10
75.21188395240502
 20
101.4820708084503
 10
75.16759833800501
 20
101.5412510372503
 10
75.12058147720501
 20
101.6022619108503
 10
75.07079023080502
 20
101.6651197380503
 10
75.01817461000502
 20
101.7298432788503
 10
74.96265779400501
 20
101.7964632324503
 10
74.904055666005
 20
101.8650580500503
 10
74.84215728040502
 20
101.9357181204503
 10
74.77671613480501
 20
102.0085300580503
 10
74.70734350120501
 20
102.0835653732503
 10
74.63361509000501
 20
102.1608918004503
 10
74.55532851560501
 20
102.2403654404503
 10
74.47316897640501
 20
102.3209958692503
 10
74.38804357000501
 20
102.4015810276503
 10
74.30079668840502
 20
102.4810429172503
 10
74.212021918805
 20
102.5587997716503
 10
74.12225014120501
 20
102.6343938852503
 10
74.031857960405
 20
102.7075027620503
 10
73.94060485640501
 20
102.7783447460503
 10
73.84809603240501
 20
102.8472733924503
 10
73.75389236840502
 20
102.9146429636503
 10
73.65737745640501
 20
102.9808105556503
 10
73.55789056840501
 20
103.0461339716503
 10
73.45484891720501
 20
103.1109142868503
 10
73.34798148520501
 20
103.1752256708503
 10
73.23709520200501
 20
103.2390855668503
 10
73.12202011880501
 20
103.3024941972503
 10
73.002678786005
 20
103.3653828964503
 10
72.87901687880502
 20
103.4276657780503
 10
72.75102537000501
 20
103.4892334724503
 10
72.61887643400502
 20
103.5498826916503
 10
72.48278754440502
 20
103.6093866596503
 10
72.34287167400501
 20
103.6675663588503
 10
72.19882379880501
 20
103.7244337700503
 10
72.05023439720502
 20
103.7800486324503
 10
71.93555669320502
 20
103.8209716116503
 10
71.81786771560502
 20
103.8612361364503
 10
71.69694116200502
 20
103.9008547060503
 10
71.57255072360502
 20
103.9398398244503
 10
71.44451766920501
 20
103.9781850708503
 10
71.31285356200502
 20
104.0158083252503
 10
71.177617538005
 20
104.0526085428503
 10
71.03886873320501
 20
104.0884846820503
 10
70.89669052040502
 20
104.1233377892503
 10
70.751263221205
 20
104.1570772708503
 10
70.60279139240501
 20
104.1896146228503
 10
70.45147959080501
 20
104.2208613428503
 10
70.24564836680501
 20
104.2603951444503
 10
70.03550897480501
 20
104.2974601236503
 10
69.82143843080502
 20
104.3320392580503
 10
69.60382506280502
 20
104.3641234964503
 10
69.38310245800501
 20
104.3937356788503
 10
69.15971551880502
 20
104.4209066260503
 10
68.93410616040501
 20
104.4456776260503
 10
68.70670435080501
 20
104.4681318772503
 10
68.47793707560501
 20
104.4883630500503
 10
68.24808177320502
 20
104.5064737924503
 10
68.01681769800501
 20
104.5226026516503
 10
67.78367456200502
 20
104.5368971540503
 10
67.54826044040502
 20
104.5495000132503
 10
67.31049687880501
 20
104.5605346964503
 10
67.07038378760501
 20
104.5701198612503
 10
66.88860135240502
 20
104.5764337012503
 10
66.70456311400501
 20
104.5820780020503
 10
66.51744936840501
 20
104.5871251028503
 10
66.32689817320501
 20
104.5916204260503
 10
66.13256880040501
 20
104.5956046596503
 10
65.93374765320501
 20
104.5991265012503
 10
65.79825693640501
 20
104.6012424500503
 10
65.65987567720501
 20
104.6031898708503
 10
65.51806826760501
 20
104.6049832084503
 10
65.37244895240501
 20
104.6066362820503
 10
65.22323139880501
 20
104.6081604164503
 10
65.070779133205
 20
104.6095663060503
 10
64.91529763560501
 20
104.6108632100503
 10
64.75636023400501
 20
104.6120546228503
 10
64.59338221160502
 20
104.6131425988503
 10
64.42597321800501
 20
104.6141277684503
 10
64.25452036360501
 20
104.6150050372503
 10
64.079605130005
 20
104.6157678852503
 10
63.94657823240502
 20
104.6162613780503
 10
63.81266767240501
 20
104.6166863060503
 10
63.54374303720502
 20
104.6173328580503
 10
63.27175768520501
 20
104.6177239268503
 10
62.99552808360501
 20
104.6178720948503
 10
62.71850277480502
 20
104.6177897300503
 10
62.44416694120501
 20
104.6175002276503
 10
62.17248869320501
 20
104.6170286196503
 10
61.90297852840501
 20
104.6163959220503
 10
61.63544801480501
 20
104.6156225236503
 10
61.37047904680501
 20
104.6147302436503
 10
61.10866697000502
 20
104.6137399764503
 10
60.84989061480502
 20
104.6126674820503
 10
60.59384968680501
 20
104.6115272356503
 10
60.34024388680501
 20
104.6103337108503
 10
60.00547269320501
 20
104.6086832788503
 10
59.67439049000501
 20
104.6069909428503
  0
LWPOLYLINE
  5
BB9
330
1F
100
AcDbEntity
  8
0
  6
CONTINUOUS
 62
     7
100
AcDbPolyline
 90
       18
 70
     0
 43
0.0
 10
78.31286507240502
 20
95.58252980365038
 10
78.31343084360502
 20
95.48620808525035
 10
78.31513608840501
 20
95.38987126925036
 10
78.31798357000501
 20
95.29426085645036
 10
78.32197821640502
 20
95.19983467405035
 10
78.32709294600501
 20
95.10762720205036
 10
78.333297622805
 20
95.01836001005036
 10
78.34053849000501
 20
94.93288800525036
 10
78.34873862280502
 20
94.85207324685035
 10
78.357850674005
 20
94.77632788685037
 10
78.36778817800501
 20
94.70632881005036
 10
78.37850917160501
 20
94.64235865645036
 10
78.38991411240501
 20
94.58501772685037
 10
78.40192844360501
 20
94.53466598605036
 10
78.41442044040501
 20
94.49179893485036
 10
78.42723594280501
 20
94.45677691885036
 10
78.44029480360501
 20
94.42961037005037
 10
78.45347815720501
 20
94.41033583725035
  0
LWPOLYLINE
  5
BBA
330
1F
100
AcDbEntity
  8
0
  6
CONTINUOUS
 62
     7
100
AcDbPolyline
 90
      107
 70
     0
 43
0.0
 10
79.60650384840501
 20
95.58252980365038
 10
79.60678210920502
 20
95.22450047725035
 10
79.607553880405
 20
94.83738068045036
 10
79.60848523080501
 20
94.44336198765034
 10
79.60895380520502
 20
94.07168271085035
 10
79.60837009320501
 20
93.74567009165037
 10
79.60627838120501
 20
93.45310641805037
 10
79.60235378280501
 20
93.19164152525036
 10
79.59653416200501
 20
92.96020725485035
 10
79.58874486280501
 20
92.75200562125036
 10
79.57905033480502
 20
92.56242882765036
 10
79.56770580040501
 20
92.38951048525036
 10
79.55462229800501
 20
92.22682250285036
 10
79.53963549960501
 20
92.06993032525037
 10
79.52264022280501
 20
91.91654203725036
 10
79.50331527400502
 20
91.76334673485035
 10
79.48158429000502
 20
91.60982247085035
 10
79.457517354005
 20
91.45654512205036
 10
79.43114267240502
 20
91.30368673965035
 10
79.40246074600501
 20
91.15124383085037
 10
79.371509123605
 20
90.99940747725035
 10
79.338323109205
 20
90.84832247565037
 10
79.30293219560501
 20
90.69808652845036
 10
79.26537008680501
 20
90.54880229165036
 10
79.22567454120501
 20
90.40057449645036
 10
79.18388725160501
 20
90.25350805325036
 10
79.14005364200502
 20
90.10770647405037
 10
79.09421914600502
 20
89.96325994125035
 10
79.04640638120501
 20
89.82018111885036
 10
78.99663221960501
 20
89.67847039405036
 10
78.94499445480501
 20
89.53834809645035
 10
78.89157073320501
 20
89.39994953485037
 10
78.83638126600501
 20
89.26325018605036
 10
78.77914349000501
 20
89.12753378445037
 10
78.71935116200501
 20
88.99165601325035
 10
78.65650221160501
 20
88.85455687565036
 10
78.59027553960501
 20
88.71569011565036
 10
78.520612477205
 20
88.57511969005036
 10
78.44752553640501
 20
88.43304430925035
 10
78.37103275720501
 20
88.28965636045037
 10
78.29122815080501
 20
88.14526962125036
 10
78.20823283400502
 20
88.00021574605036
 10
78.12208869160501
 20
87.85466525645036
 10
78.03280394440502
 20
87.70872710925036
 10
77.94043215880501
 20
87.56258264685035
 10
77.845305886805
 20
87.41682820205037
 10
77.74771259720501
 20
87.27193854445037
 10
77.64777184680501
 20
87.12811022605036
 10
77.54556695720501
 20
86.98548369165036
 10
77.44149217800501
 20
86.84461520525037
 10
77.33613046600502
 20
86.70625787085036
 10
77.22972072520501
 20
86.57066162445037
 10
77.12228360680501
 20
86.43779646445036
 10
77.01410767080502
 20
86.30796738285036
 10
76.90606839240501
 20
86.18213332205035
 10
76.79906988520501
 20
86.06118297005037
 10
76.69367712520501
 20
85.94556416685035
 10
76.59029337000501
 20
85.83554695085036
 10
76.48891879560501
 20
85.73094703085036
 10
76.38924375240501
 20
85.63125548045036
 10
76.29085777640502
 20
85.53589366605036
 10
76.19321846440501
 20
85.44420088365036
 10
76.09578929960502
 20
85.35557653805035
 10
75.99827215080501
 20
85.26968269165037
 10
75.90051556680501
 20
85.18633328845035
 10
75.80237868680502
 20
85.10535916845036
 10
75.70359063560501
 20
85.02649500045036
 10
75.60359167560502
 20
84.94927600365036
 10
75.50191030920501
 20
84.87335023565035
 10
75.398312602005
 20
84.79857098125036
 10
75.29254728360502
 20
84.72479122125035
 10
75.18429086120502
 20
84.65182828525035
 10
75.07304651560501
 20
84.57940612845035
 10
74.95818439240501
 20
84.50719756205037
 10
74.839353976405
 20
84.43508150765037
 10
74.71626284200501
 20
84.36298265005035
 10
74.587841011605
 20
84.29039906125035
 10
74.45259997160501
 20
84.21667067245037
 10
74.31118864680501
 20
84.14232473645036
 10
74.16638967880501
 20
84.06891472365037
 10
74.02064188680501
 20
83.99772297005036
 10
73.87534128200501
 20
83.92942655885036
 10
73.73078560040501
 20
83.86410848685036
 10
73.586643709205
 20
83.80156624525035
 10
73.44256718920501
 20
83.74161555245036
 10
73.29865540360501
 20
83.68427088845036
 10
73.15487354920501
 20
83.62948624685037
 10
73.01111023880501
 20
83.57719093325036
 10
72.86744177000501
 20
83.52738951885035
 10
72.72405487400501
 20
83.48012006605037
 10
72.58098695240501
 20
83.43536560045036
 10
72.43827920200501
 20
83.39311045005036
 10
72.29598552040501
 20
83.35334210285036
 10
72.15416276040501
 20
83.31604750925036
 10
72.01285598760501
 20
83.28120912525035
 10
71.87208520040501
 20
83.24880271405035
 10
71.73186426280501
 20
83.21880313645037
 10
71.59220892840501
 20
83.19118619245037
 10
71.45313546760501
 20
83.16592811085035
 10
71.31465798120501
 20
83.14300506445036
 10
71.17678463080501
 20
83.12239274125037
 10
71.039511784405
 20
83.10406593645037
 10
70.90283276680501
 20
83.08800034605036
 10
70.76675565320501
 20
83.07417442285036
 10
70.63130353160501
 20
83.06256821805035
 10
70.49647605960501
 20
83.05315981005035
 10
70.36221588520501
 20
83.04592535405037
  0
LWPOLYLINE
  5
BBB
330
1F
100
AcDbEntity
  8
0
  6
CONTINUOUS
 62
     7
100
AcDbPolyline
 90
      108
 70
     0
 43
0.0
 10
79.60650384840501
 20
95.58252980365038
 10
79.60677685640501
 20
95.93696910925036
 10
79.60753630280501
 20
96.32026232365035
 10
79.60846221000501
 20
96.71083292045038
 10
79.60895235560501
 20
97.08018809805038
 10
79.60842805960502
 20
97.40482532845035
 10
79.60644324680501
 20
97.69629632525036
 10
79.60267049960501
 20
97.95716432525038
 10
79.59704065320501
 20
98.18830944045036
 10
79.58947910280501
 20
98.39621985645036
 10
79.580034850005
 20
98.58557799885037
 10
79.56895743080501
 20
98.75823017485036
 10
79.55618822120502
 20
98.92026303085035
 10
79.54156788520501
 20
99.07622912845036
 10
79.52499785160501
 20
99.22844420045036
 10
79.50617351880501
 20
99.38018238765037
 10
79.48498877800502
 20
99.53225179405036
 10
79.46150185320501
 20
99.68415001965036
 10
79.43574761800501
 20
99.83564983725038
 10
79.40772730120501
 20
99.98675120205035
 10
79.37747254280501
 20
100.1372900436503
 10
79.34501883080502
 20
100.2871144996503
 10
79.31039538120501
 20
100.4361241876503
 10
79.27363397800501
 20
100.5842208148503
 10
79.234770514005
 20
100.7313028084503
 10
79.19384469640501
 20
100.8772680724503
 10
79.15090010760501
 20
101.0220147908503
 10
79.105982517205
 20
101.1654474100503
 10
79.05911879560502
 20
101.3075382900503
 10
79.01032045160501
 20
101.4483022788503
 10
78.95966628040501
 20
101.5875653284503
 10
78.90724255080501
 20
101.7251599284503
 10
78.85310318280501
 20
101.8610242340503
 10
78.79706277000501
 20
101.9956615492503
 10
78.73867586440501
 20
102.1301037076503
 10
78.677431517205
 20
102.2654542484503
 10
78.61295108360501
 20
102.4024276260503
 10
78.545102312405
 20
102.5411258388503
 10
78.47388586280501
 20
102.6813730116503
 10
78.39931501960501
 20
102.8229842212503
 10
78.32145510600502
 20
102.9656941316503
 10
78.24042372680501
 20
103.1091693588503
 10
78.15629230600501
 20
103.2531846404503
 10
78.069073955605
 20
103.3976248708503
 10
77.97878337320502
 20
103.5423724340503
 10
77.88564430760501
 20
103.6869890484503
 10
77.78997909640501
 20
103.8309273044503
 10
77.69197097320502
 20
103.9738889332503
 10
77.59168627400502
 20
104.1157575684503
 10
77.48936307560502
 20
104.2561814308503
 10
77.38552613320502
 20
104.3944562516503
 10
77.28058508840502
 20
104.5300892660503
 10
77.17462246920502
 20
104.6630338340503
 10
77.06774462120501
 20
104.7932058660503
 10
76.96053686760501
 20
104.9199581076503
 10
76.85392018920501
 20
105.0423255732503
 10
76.74862622920501
 20
105.1596490196503
 10
76.64513134760501
 20
105.2715766996503
 10
76.54365085640501
 20
105.3780421716503
 10
76.44402979560502
 20
105.4793949140503
 10
76.34590990920502
 20
105.5761760852503
 10
76.248830336405
 20
105.6689906276503
 10
76.15224484040502
 20
105.7584755284503
 10
76.05571856360501
 20
105.8451143668503
 10
75.95903378600501
 20
105.9291598916503
 10
75.86206359400501
 20
106.0107714324503
 10
75.76463823240501
 20
106.0901380148503
 10
75.666380939605
 20
106.1675996996503
 10
75.56674596200501
 20
106.2435929012503
 10
75.46535919400501
 20
106.3183840116503
 10
75.36200825160502
 20
106.3920996948503
 10
75.25643207880502
 20
106.4648902548503
 10
75.14826487080501
 20
106.5369617076503
 10
75.03696372040501
 20
106.6086112052503
 10
74.92197994600501
 20
106.6801051892503
 10
74.80303283880501
 20
106.7515204548503
 10
74.67966063720502
 20
106.8230307156503
 10
74.55060549960501
 20
106.8952287092503
 10
74.41482127240501
 20
106.9685160548503
 10
74.27357471400501
 20
107.0420632196503
 10
74.12968011080501
 20
107.1143306596503
 10
73.985297630805
 20
107.1841946644503
 10
73.84151638760501
 20
107.2511511108503
 10
73.698434752405
 20
107.3152121860503
 10
73.55567575080501
 20
107.3765947780503
 10
73.41297358280501
 20
107.4354426404503
 10
73.27043616680501
 20
107.4917378948503
 10
73.12800725960501
 20
107.5455341668503
 10
72.98559713320502
 20
107.5968915716503
 10
72.84330748360502
 20
107.6457960884503
 10
72.70130932040501
 20
107.6922154004503
 10
72.55963027560501
 20
107.7361690468503
 10
72.41831186440501
 20
107.7776718564503
 10
72.27740756200501
 20
107.8167358420503
 10
72.13697198120501
 20
107.8533740596503
 10
71.99704645000501
 20
107.8876043236503
 10
71.85764873800501
 20
107.9194505764503
 10
71.71879214920501
 20
107.9489372404503
 10
71.58049212200501
 20
107.9760877796503
 10
71.44276440680501
 20
108.0009252916503
 10
71.30562241160501
 20
108.0234729636503
 10
71.16907346440502
 20
108.0437544820503
 10
71.03311355720501
 20
108.0617943524503
 10
70.89773642440501
 20
108.0776161172503
 10
70.76295053320501
 20
108.0912406276503
 10
70.62877841640501
 20
108.1026872788503
 10
70.49521903560502
 20
108.1119774196503
 10
70.36221588520501
 20
108.1191342532503
  0
LWPOLYLINE
  5
BBC
330
1F
100
AcDbEntity
  8
0
  6
CONTINUOUS
 62
     7
100
AcDbPolyline
 90
       19
 70
     0
 43
0.0
 10
78.62794064040501
 20
95.58252980365038
 10
78.62744016040501
 20
95.48835370925036
 10
78.62590185640501
 20
95.39303734445036
 10
78.62328694120501
 20
95.29763508685036
 10
78.61956762120501
 20
95.20295758765035
 10
78.61475976840501
 20
95.11038248685037
 10
78.60889026600502
 20
95.02085249485038
 10
78.60199747400502
 20
94.93516781165036
 10
78.59413828680501
 20
94.85411412525037
 10
78.58534963560501
 20
94.77811970445035
 10
78.57571251080502
 20
94.70789936045036
 10
78.56526120680502
 20
94.64371736365036
 10
78.55407635080502
 20
94.58610848045035
 10
78.54222025640502
 20
94.53542665165036
 10
78.52982936360501
 20
94.49223593165035
 10
78.51706961960501
 20
94.45695526605035
 10
78.50403721160501
 20
94.42962720685036
 10
78.49087109000501
 20
94.41029509165037
 10
78.477638514005
 20
94.39880828845037
  0
LWPOLYLINE
  5
BBD
330
1F
100
AcDbEntity
  8
0
  6
CONTINUOUS
 62
     7
100
AcDbPolyline
 90
       20
 70
     0
 43
0.0
 10
78.29735417640501
 20
95.58252980365038
 10
78.29792022920502
 20
95.67887870765037
 10
78.299626088405
 20
95.77523170925037
 10
78.30247474920501
 20
95.87086345965037
 10
78.30647105640501
 20
95.96530905965037
 10
78.31158736360501
 20
96.05752489485036
 10
78.31779467880501
 20
96.14680916525038
 10
78.32503708840501
 20
96.23227844845036
 10
78.33323925320501
 20
96.31309327725038
 10
78.34235281320501
 20
96.38883205005036
 10
78.35229205480501
 20
96.45882530285035
 10
78.363015078805
 20
96.52279030285036
 10
78.37442178760501
 20
96.58012366125035
 10
78.38643856200501
 20
96.63046964685037
 10
78.39893047240501
 20
96.67332134445036
 10
78.41174502120501
 20
96.70832750285036
 10
78.424802310805
 20
96.73547932045037
 10
78.43798231560501
 20
96.75473963725037
 10
78.45123646920502
 20
96.76623092845037
 10
78.46446101000501
 20
96.77002980365038
  0
LWPOLYLINE
  5
BBE
330
1F
100
AcDbEntity
  8
0
  6
CONTINUOUS
 62
     7
100
AcDbPolyline
 90
       16
 70
     0
 43
0.0
 10
80.95454033000502
 20
113.0844324548503
 10
80.951444752405
 20
113.1362453220503
 10
80.94297467240501
 20
113.1875146964503
 10
80.92921597000502
 20
113.2376837060503
 10
80.91031189160501
 20
113.2862063172503
 10
80.88652599240502
 20
113.3324427204503
 10
80.85808794760501
 20
113.3759856468503
 10
80.82528655080501
 20
113.4163891524503
 10
80.78847120360501
 20
113.4532115380503
 10
80.74803521640502
 20
113.4860489380503
 10
80.704411643605
 20
113.5145396644503
 10
80.658096872405
 20
113.5383554100503
 10
80.60967972040501
 20
113.5572102452503
 10
80.55957163560501
 20
113.5709539748503
 10
80.50830916520501
 20
113.5794282420503
 10
80.45644298120501
 20
113.5825298036503
  0
LINE
  5
BBF
330
1F
100
AcDbEntity
  8
0
  6
CONTINUOUS
 62
     7
100
AcDbLine
 10
80.594224541205
 20
78.19189426765035
 30
0.0
 11
80.594224541205
 21
112.9731653396503
 31
0.0
  0
LINE
  5
BC0
330
1F
100
AcDbEntity
  8
0
  6
CONTINUOUS
 62
     7
100
AcDbLine
 10
80.95454033000502
 20
113.0844324548503
 30
0.0
 11
80.95454033000502
 21
78.08062715245036
 31
0.0
  0
LWPOLYLINE
  5
BC1
330
1F
100
AcDbEntity
  8
0
  6
CONTINUOUS
 62
     7
100
AcDbPolyline
 90
       16
 70
     0
 43
0.0
 10
80.594224541205
 20
78.19189426765035
 10
80.59286178120501
 20
78.16578765805036
 10
80.58878871240501
 20
78.13998775405036
 10
80.58205116200502
 20
78.11477662925035
 10
80.572723877205
 20
78.09042827405036
 10
80.56090896360501
 20
78.06720499405035
 10
80.54673513320501
 20
78.04535736845036
 10
80.53035612520501
 20
78.02512093005036
 10
80.51194917160501
 20
78.00671397965036
 10
80.49171273000501
 20
77.99033497645035
 10
80.46986509800502
 20
77.97616114925036
 10
80.44664181320502
 20
77.96434624045037
 10
80.42229345640501
 20
77.95501895885036
 10
80.39708232360501
 20
77.94828141645036
 10
80.371282438805
 20
77.94420834925036
 10
80.345175867605
 20
77.94284559245037
  0
LWPOLYLINE
  5
BC2
330
1F
100
AcDbEntity
  8
0
  6
CONTINUOUS
 62
     7
100
AcDbPolyline
 90
       16
 70
     0
 43
0.0
 10
80.95454033000502
 20
78.08062715245036
 10
80.951444752405
 20
78.02881428525036
 10
80.94297467240501
 20
77.97754491085036
 10
80.92921597000502
 20
77.92737590285035
 10
80.91031189160501
 20
77.87885329005035
 10
80.88652599240502
 20
77.83261688685036
 10
80.85808794760501
 20
77.78907396045037
 10
80.82528655080501
 20
77.74867045485035
 10
80.78847120360501
 20
77.71184806925036
 10
80.74803521640502
 20
77.67901066925036
 10
80.704411643605
 20
77.65051994285037
 10
80.658096872405
 20
77.62670419725036
 10
80.60967972040501
 20
77.60784936205036
 10
80.55957163560501
 20
77.59410563245037
 10
80.50830916520501
 20
77.58563136525037
 10
80.45644298120501
 20
77.58252980365035
  0
CIRCLE
  5
BE4
330
1F
100
AcDbEntity
  8
0
  6
CONTINUOUS
 62
     7
100
AcDbCircle
 10
72.45454033000502
 20
95.58252980365038
 30
0.0
 40
1.2714466096
  0
LINE
  5
DA8
330
1F
100
AcDbEntity
  8
CENTER
100
AcDbLine
 10
69.04951393227285
 20
95.58252980365038
 30
0.0
 11
75.76491647473608
 21
95.58252980365038
 31
0.0
  0
VIEWPORT
  5
C30
330
1B
100
AcDbEntity
 67
     1
  8
0
100
AcDbViewport
 10
8.142717016024853
 20
5.721456694790698
 30
0.0
 40
23.22337631558431
 41
12.37110236220472
 68
     1
 69
     1
1001
ACAD
1000
MVIEW
1002
{
1070
    16
1010
0.0
1020
0.0
1030
0.0
1010
0.0
1020
0.0
1030
1.0
1040
0.0
1040
12.37110236220472
1040
8.142717016024853
1040
5.721456694790698
1040
50.0
1040
0.0
1040
0.0
1070
     0
1070
   100
1070
     1
1070
     1
1070
     0
1070
     0
1070
     0
1070
     0
1040
0.0
1040
0.0
1040
0.0
1040
10.0
1040
10.0
1040
10.0
1040
10.0
1070
     0
1002
{
1002
}
1002
}
  0
VIEWPORT
  5
C32
330
1B
100
AcDbEntity
 67
     1
  8
0
100
AcDbViewport
 10
171.1560380373479
 20
104.3109085892879
 30
0.0
 40
279.4000146865844
 41
167.6400049209594
 68
    -1
 69
     2
1001
ACAD
1000
MVIEW
1002
{
1070
    16
1010
0.0
1020
0.0
1030
0.0
1010
0.0
1020
0.0
1030
1.0
1040
0.0
1040
260.9583393309306
1040
84.7069317807726
1040
46.51591380262843
1040
50.0
1040
0.0
1040
0.0
1070
     0
1070
   100
1070
     1
1070
     1
1070
     0
1070
     0
1070
     0
1070
     0
1040
0.0
1040
0.0
1040
0.0
1040
1.0
1040
1.0
1040
0.0
1040
0.0
1070
     0
1002
{
1002
}
1002
}
  0
ENDSEC
  0
SECTION
  2
OBJECTS
  0
DICTIONARY
  5
C
330
0
100
AcDbDictionary
  3
ACAD_GROUP
350
D
  3
ACAD_LAYOUT
350
1A
  3
ACAD_MLINESTYLE
350
17
  3
ACAD_PLOTSETTINGS
350
19
  3
ACAD_PLOTSTYLENAME
350
E
  3
ACDBHEADERROUNDTRIPXREC
350
DF2
  3
ACDBVARIABLEDICTIONARY
350
C2B
  0
DICTIONARY
  5
E15
330
1F
100
AcDbDictionary
280
     1
  3
ACAD_LAYOUTSELFREF
360
E16
  0
DICTIONARY
  5
E13
330
1B
100
AcDbDictionary
280
     1
  3
ACAD_LAYOUTSELFREF
360
E14
  0
DICTIONARY
  5
D
102
{ACAD_REACTORS
330
C
102
}
330
C
100
AcDbDictionary
  0
DICTIONARY
  5
1A
102
{ACAD_REACTORS
330
C
102
}
330
C
100
AcDbDictionary
  0
DICTIONARY
  5
17
102
{ACAD_REACTORS
330
C
102
}
330
C
100
AcDbDictionary
  3
STANDARD
350
18
  0
DICTIONARY
  5
19
102
{ACAD_REACTORS
330
C
102
}
330
C
100
AcDbDictionary
  0
ACDBDICTIONARYWDFLT
  5
E
102
{ACAD_REACTORS
330
C
102
}
330
C
100
AcDbDictionary
281
     1
  3
Normal
350
F
100
AcDbDictionaryWithDefault
340
F
  0
DICTIONARY
  5
DF2
102
{ACAD_REACTORS
330
C
102
}
330
C
100
AcDbDictionary
  3
CEPSNTYPE
350
DFC
  3
DIMSTYLEDATA
350
E00
  3
FINGERPRINTGUID
350
DFD
  3
HYPERLINKBASE
350
DF5
  3
INSUNITS
350
DFB
  3
LAYOUTDICT
350
DF7
  3
LWETCUNION
350
DFA
  3
PLOTSETDICT
350
DF8
  3
PLOTSTYLNAMDICT
350
DF9
  3
PSVPSCALE
350
DFF
  3
PUCSBASE
350
E03
  3
PUCSORGBACK
350
E09
  3
PUCSORGBOTTOM
350
E05
  3
PUCSORGFRONT
350
E08
  3
PUCSORGLEFT
350
E06
  3
PUCSORGRIGHT
350
E07
  3
PUCSORGTOP
350
E04
  3
PUCSORTHOREF
350
E01
  3
PUCSORTHOVIEW
350
E02
  3
STYLESHEET
350
DF6
  3
TSTACKALIGN
350
DF3
  3
TSTACKSIZE
350
DF4
  3
UCSBASE
350
E0C
  3
UCSORGBACK
350
E12
  3
UCSORGBOTTOM
350
E0E
  3
UCSORGFRONT
350
E11
  3
UCSORGLEFT
350
E0F
  3
UCSORGRIGHT
350
E10
  3
UCSORGTOP
350
E0D
  3
UCSORTHOREF
350
E0A
  3
UCSORTHOVIEW
350
E0B
  3
VERSIONGUID
350
DFE
  0
DICTIONARY
  5
C2B
102
{ACAD_REACTORS
330
C
102
}
330
C
100
AcDbDictionary
  3
SORTENTS
350
C2C
  0
XRECORD
  5
E16
102
{ACAD_REACTORS
330
E15
102
}
330
E15
100
AcDbXrecord
340
1F
  0
XRECORD
  5
E14
102
{ACAD_REACTORS
330
E13
102
}
330
E13
100
AcDbXrecord
340
1B
  0
MLINESTYLE
  5
18
102
{ACAD_REACTORS
330
17
102
}
330
17
100
AcDbMlineStyle
  2
STANDARD
 70
     0
  3

 62
   256
 51
90.0
 52
90.0
 71
     2
 49
0.5
 62
   256
  6
BYLAYER
 49
-0.5
 62
   256
  6
BYLAYER
  0
ACDBPLACEHOLDER
  5
F
102
{ACAD_REACTORS
330
E
102
}
330
0
100
AcDbPlaceHolder
280
     0
  0
XRECORD
  5
DFC
102
{ACAD_REACTORS
330
DF2
102
}
330
DF2
100
AcDbXrecord
 90
        0
  0
XRECORD
  5
E00
102
{ACAD_REACTORS
330
DF2
102
}
330
DF2
100
AcDbXrecord
1000
DSTYLE
1002
{
1070
   341
340
233
1070
   342
340
233
1070
   343
340
233
1070
   344
340
233
1002
}
  0
XRECORD
  5
DFD
102
{ACAD_REACTORS
330
DF2
102
}
330
DF2
100
AcDbXrecord
  1

  0
XRECORD
  5
DF5
102
{ACAD_REACTORS
330
DF2
102
}
330
DF2
100
AcDbXrecord
  1

  0
XRECORD
  5
DFB
102
{ACAD_REACTORS
330
DF2
102
}
330
DF2
100
AcDbXrecord
 90
        1
  0
XRECORD
  5
DF7
102
{ACAD_REACTORS
330
DF2
102
}
330
DF2
100
AcDbXrecord
340
1A
  0
XRECORD
  5
DFA
102
{ACAD_REACTORS
330
DF2
102
}
330
DF2
100
AcDbXrecord
 90
    10752
  0
XRECORD
  5
DF8
102
{ACAD_REACTORS
330
DF2
102
}
330
DF2
100
AcDbXrecord
340
19
  0
XRECORD
  5
DF9
102
{ACAD_REACTORS
330
DF2
102
}
330
DF2
100
AcDbXrecord
340
E
  0
XRECORD
  5
DFF
102
{ACAD_REACTORS
330
DF2
102
}
330
DF2
100
AcDbXrecord
 40
0.0
  0
XRECORD
  5
E03
102
{ACAD_REACTORS
330
DF2
102
}
330
DF2
100
AcDbXrecord
340
0
  0
XRECORD
  5
E09
102
{ACAD_REACTORS
330
DF2
102
}
330
DF2
100
AcDbXrecord
 10
0.0
 20
0.0
 30
0.0
  0
XRECORD
  5
E05
102
{ACAD_REACTORS
330
DF2
102
}
330
DF2
100
AcDbXrecord
 10
0.0
 20
0.0
 30
0.0
  0
XRECORD
  5
E08
102
{ACAD_REACTORS
330
DF2
102
}
330
DF2
100
AcDbXrecord
 10
0.0
 20
0.0
 30
0.0
  0
XRECORD
  5
E06
102
{ACAD_REACTORS
330
DF2
102
}
330
DF2
100
AcDbXrecord
 10
0.0
 20
0.0
 30
0.0
  0
XRECORD
  5
E07
102
{ACAD_REACTORS
330
DF2
102
}
330
DF2
100
AcDbXrecord
 10
0.0
 20
0.0
 30
0.0
  0
XRECORD
  5
E04
102
{ACAD_REACTORS
330
DF2
102
}
330
DF2
100
AcDbXrecord
 10
0.0
 20
0.0
 30
0.0
  0
XRECORD
  5
E01
102
{ACAD_REACTORS
330
DF2
102
}
330
DF2
100
AcDbXrecord
340
0
  0
XRECORD
  5
E02
102
{ACAD_REACTORS
330
DF2
102
}
330
DF2
100
AcDbXrecord
 70
     0
  0
XRECORD
  5
DF6
102
{ACAD_REACTORS
330
DF2
102
}
330
DF2
100
AcDbXrecord
  1

  0
XRECORD
  5
DF3
102
{ACAD_REACTORS
330
DF2
102
}
330
DF2
100
AcDbXrecord
 90
        1
  0
XRECORD
  5
DF4
102
{ACAD_REACTORS
330
DF2
102
}
330
DF2
100
AcDbXrecord
 90
       70
  0
XRECORD
  5
E0C
102
{ACAD_REACTORS
330
DF2
102
}
330
DF2
100
AcDbXrecord
340
0
  0
XRECORD
  5
E12
102
{ACAD_REACTORS
330
DF2
102
}
330
DF2
100
AcDbXrecord
 10
0.0
 20
0.0
 30
0.0
  0
XRECORD
  5
E0E
102
{ACAD_REACTORS
330
DF2
102
}
330
DF2
100
AcDbXrecord
 10
0.0
 20
0.0
 30
0.0
  0
XRECORD
  5
E11
102
{ACAD_REACTORS
330
DF2
102
}
330
DF2
100
AcDbXrecord
 10
0.0
 20
0.0
 30
0.0
  0
XRECORD
  5
E0F
102
{ACAD_REACTORS
330
DF2
102
}
330
DF2
100
AcDbXrecord
 10
0.0
 20
0.0
 30
0.0
  0
XRECORD
  5
E10
102
{ACAD_REACTORS
330
DF2
102
}
330
DF2
100
AcDbXrecord
 10
0.0
 20
0.0
 30
0.0
  0
XRECORD
  5
E0D
102
{ACAD_REACTORS
330
DF2
102
}
330
DF2
100
AcDbXrecord
 10
0.0
 20
0.0
 30
0.0
  0
XRECORD
  5
E0A
102
{ACAD_REACTORS
330
DF2
102
}
330
DF2
100
AcDbXrecord
340
0
  0
XRECORD
  5
E0B
102
{ACAD_REACTORS
330
DF2
102
}
330
DF2
100
AcDbXrecord
 70
     0
  0
XRECORD
  5
DFE
102
{ACAD_REACTORS
330
DF2
102
}
330
DF2
100
AcDbXrecord
  1
{686473B2-62A7-402C-BD8D-FA5E62D12A56}
  0
DICTIONARYVAR
  5
C2C
102
{ACAD_REACTORS
330
C2B
102
}
330
C2B
100
DictionaryVariables
280
     0
  1
96
  0
ENDSEC
  0
EOF
