  0
SECTION
  2
HEADER
  9
$ACADVER
  1
AC1014
  9
$ACADMAINTVER
 70
     9
  9
$DWGCODEPAGE
  3
ANSI_1252
  9
$INSBASE
 10
41.3148344008
 20
29.48405089559999
 30
0.0
  9
$EXTMIN
 10
6.439834400799995
 20
5.421567855599985
 30
0.0
  9
$EXTMAX
 10
76.1898344008
 20
53.54653393559999
 30
0.0
  9
$LIMMIN
 10
0.0
 20
0.0
  9
$LIMMAX
 10
17.0
 20
11.0
  9
$ORTHOMODE
 70
     0
  9
$REGENMODE
 70
     1
  9
$FILLMODE
 70
     1
  9
$QTEXTMODE
 70
     0
  9
$MIRRTEXT
 70
     1
  9
$DRAGMODE
 70
     2
  9
$LTSCALE
 40
0.9350000000000001
  9
$OSMODE
 70
  3071
  9
$ATTMODE
 70
     1
  9
$TEXTSIZE
 40
0.2
  9
$TRACEWID
 40
0.05
  9
$TEXTSTYLE
  7
STANDARD
  9
$CLAYER
  8
CENTER
  9
$CELTYPE
  6
BYLAYER
  9
$CECOLOR
 62
   256
  9
$CELTSCALE
 40
1.0
  9
$DELOBJ
 70
     1
  9
$DISPSILH
 70
     0
  9
$DIMSCALE
 40
1.0
  9
$DIMASZ
 40
0.1875
  9
$DIMEXO
 40
0.10625
  9
$DIMDLI
 40
0.646
  9
$DIMRND
 40
0.0
  9
$DIMDLE
 40
0.0
  9
$DIMEXE
 40
0.306
  9
$DIMTP
 40
0.0
  9
$DIMTM
 40
0.0
  9
$DIMTXT
 40
0.125
  9
$DIMCEN
 40
0.153
  9
$DIMTSZ
 40
0.0
  9
$DIMTOL
 70
     0
  9
$DIMLIM
 70
     0
  9
$DIMTIH
 70
     1
  9
$DIMTOH
 70
     1
  9
$DIMSE1
 70
     0
  9
$DIMSE2
 70
     0
  9
$DIMTAD
 70
     0
  9
$DIMZIN
 70
     0
  9
$DIMBLK
  1
_FILLED
  9
$DIMASO
 70
     1
  9
$DIMSHO
 70
     1
  9
$DIMPOST
  1

  9
$DIMAPOST
  1

  9
$DIMALT
 70
     0
  9
$DIMALTD
 70
     2
  9
$DIMALTF
 40
25.4
  9
$DIMLFAC
 40
1.0
  9
$DIMTOFL
 70
     0
  9
$DIMTVP
 40
0.0
  9
$DIMTIX
 70
     0
  9
$DIMSOXD
 70
     0
  9
$DIMSAH
 70
     0
  9
$DIMBLK1
  1

  9
$DIMBLK2
  1

  9
$DIMSTYLE
  2
STANDARD
  9
$DIMCLRD
 70
     0
  9
$DIMCLRE
 70
     0
  9
$DIMCLRT
 70
     0
  9
$DIMTFAC
 40
1.0
  9
$DIMGAP
 40
0.09
  9
$DIMJUST
 70
     0
  9
$DIMSD1
 70
     0
  9
$DIMSD2
 70
     0
  9
$DIMTOLJ
 70
     1
  9
$DIMTZIN
 70
     0
  9
$DIMALTZ
 70
     0
  9
$DIMALTTZ
 70
     0
  9
$DIMFIT
 70
     3
  9
$DIMUPT
 70
     0
  9
$DIMUNIT
 70
     2
  9
$DIMDEC
 70
     4
  9
$DIMTDEC
 70
     4
  9
$DIMALTU
 70
     2
  9
$DIMALTTD
 70
     2
  9
$DIMTXSTY
  7
STANDARD
  9
$DIMAUNIT
 70
     0
  9
$LUNITS
 70
     2
  9
$LUPREC
 70
     4
  9
$SKETCHINC
 40
0.1
  9
$FILLETRAD
 40
0.5
  9
$AUNITS
 70
     0
  9
$AUPREC
 70
     0
  9
$MENU
  1
acad
  9
$ELEVATION
 40
0.0
  9
$PELEVATION
 40
0.0
  9
$THICKNESS
 40
0.0
  9
$LIMCHECK
 70
     0
  9
$BLIPMODE
 70
     0
  9
$CHAMFERA
 40
0.0
  9
$CHAMFERB
 40
0.0
  9
$CHAMFERC
 40
0.0
  9
$CHAMFERD
 40
0.0
  9
$SKPOLY
 70
     0
  9
$TDCREATE
 40
2453887.451182060
  9
$TDUPDATE
 40
2453887.683704687
  9
$TDINDWG
 40
0.0514453704
  9
$TDUSRTIMER
 40
0.0514453704
  9
$USRTIMER
 70
     1
  9
$ANGBASE
 50
0.0
  9
$ANGDIR
 70
     0
  9
$PDMODE
 70
     3
  9
$PDSIZE
 40
0.03125
  9
$PLINEWID
 40
0.0
  9
$COORDS
 70
     1
  9
$SPLFRAME
 70
     0
  9
$SPLINETYPE
 70
     6
  9
$SPLINESEGS
 70
     8
  9
$ATTDIA
 70
     0
  9
$ATTREQ
 70
     1
  9
$HANDLING
 70
-16383
  9
$HANDSEED
  5
1287
  9
$SURFTAB1
 70
     6
  9
$SURFTAB2
 70
     6
  9
$SURFTYPE
 70
     6
  9
$SURFU
 70
     6
  9
$SURFV
 70
     6
  9
$UCSNAME
  2

  9
$UCSORG
 10
0.0
 20
0.0
 30
0.0
  9
$UCSXDIR
 10
1.0
 20
0.0
 30
0.0
  9
$UCSYDIR
 10
0.0
 20
1.0
 30
0.0
  9
$PUCSNAME
  2

  9
$PUCSORG
 10
0.0
 20
0.0
 30
0.0
  9
$PUCSXDIR
 10
1.0
 20
0.0
 30
0.0
  9
$PUCSYDIR
 10
0.0
 20
1.0
 30
0.0
  9
$USERI1
 70
     0
  9
$USERI2
 70
     0
  9
$USERI3
 70
     0
  9
$USERI4
 70
     0
  9
$USERI5
 70
     0
  9
$USERR1
 40
0.0
  9
$USERR2
 40
0.0
  9
$USERR3
 40
0.0
  9
$USERR4
 40
0.0
  9
$USERR5
 40
0.0
  9
$WORLDVIEW
 70
     1
  9
$SHADEDGE
 70
     3
  9
$SHADEDIF
 70
    70
  9
$TILEMODE
 70
     1
  9
$MAXACTVP
 70
    16
  9
$PINSBASE
 10
0.0
 20
0.0
 30
0.0
  9
$PLIMCHECK
 70
     0
  9
$PEXTMIN
 10
1.000000000000000E+20
 20
1.000000000000000E+20
 30
1.000000000000000E+20
  9
$PEXTMAX
 10
-1.000000000000000E+20
 20
-1.000000000000000E+20
 30
-1.000000000000000E+20
  9
$PLIMMIN
 10
0.0
 20
0.0
  9
$PLIMMAX
 10
12.0
 20
9.0
  9
$UNITMODE
 70
     0
  9
$VISRETAIN
 70
     0
  9
$PLINEGEN
 70
     1
  9
$PSLTSCALE
 70
     0
  9
$TREEDEPTH
 70
  3020
  9
$PICKSTYLE
 70
     1
  9
$CMLSTYLE
  2
STANDARD
  9
$CMLJUST
 70
     0
  9
$CMLSCALE
 40
1.0
  9
$PROXYGRAPHICS
 70
     0
  9
$MEASUREMENT
 70
     0
  0
ENDSEC
  0
SECTION
  2
CLASSES
  0
CLASS
  1
ACDBDICTIONARYWDFLT
  2
AcDbDictionaryWithDefault
  3
AutoCAD 2000
 90
        0
280
     0
281
     0
  0
CLASS
  1
ACDBPLACEHOLDER
  2
AcDbPlaceHolder
  3
AutoCAD 2000
 90
        0
280
     0
281
     0
  0
CLASS
  1
LAYOUT
  2
AcDbLayout
  3
AutoCAD 2000
 90
        0
280
     0
281
     0
  0
CLASS
  1
LWPOLYLINE
  2
AcDbPolyline
  3
AutoCAD 2000
 90
        0
280
     0
281
     1
  0
CLASS
  1
IMAGE
  2
AcDbRasterImage
  3
ISM
 90
      127
280
     0
281
     1
  0
CLASS
  1
OLE2FRAME
  2
AcDbOle2Frame
  3
AutoCAD 2000
 90
        0
280
     0
281
     1
  0
CLASS
  1
HATCH
  2
AcDbHatch
  3
AutoCAD 2000
 90
        0
280
     0
281
     1
  0
CLASS
  1
DICTIONARYVAR
  2
AcDbDictionaryVar
  3
AutoCAD 2000
 90
        0
280
     0
281
     0
  0
CLASS
  1
RASTERVARIABLES
  2
AcDbRasterVariables
  3
ISM
 90
        0
280
     0
281
     0
  0
CLASS
  1
IMAGEDEF
  2
AcDbRasterImageDef
  3
ISM
 90
        0
280
     0
281
     0
  0
CLASS
  1
IMAGEDEF_REACTOR
  2
AcDbRasterImageDefReactor
  3
ISM
 90
        1
280
     0
281
     0
  0
CLASS
  1
IDBUFFER
  2
AcDbIdBuffer
  3
AutoCAD 2000
 90
        0
280
     0
281
     0
  0
CLASS
  1
SPATIAL_FILTER
  2
AcDbSpatialFilter
  3
AutoCAD 2000
 90
        0
280
     0
281
     0
  0
CLASS
  1
XRECORD
  2
AcDbXrecord
  3
AutoCAD 2000
 90
        0
280
     0
281
     0
  0
CLASS
  1
SORTENTSTABLE
  2
AcDbSortentsTable
  3
AutoCAD 2000
 90
        0
280
     0
281
     0
  0
CLASS
  1
LAYER_INDEX
  2
AcDbLayerIndex
  3
AutoCAD 2000
 90
        0
280
     0
281
     0
  0
CLASS
  1
SPATIAL_INDEX
  2
AcDbSpatialIndex
  3
AutoCAD 2000
 90
        0
280
     0
281
     0
  0
CLASS
  1
OBJECT_PTR
  2
CAseDLPNTableRecord
  3
ASE-LPNTableRecord
 90
        1
280
     0
281
     0
  0
CLASS
  1
PLOTSETTINGS
  2
AcDbPlotSettings
  3
AutoCAD 2000
 90
        0
280
     0
281
     0
  0
CLASS
  1
VBA_PROJECT
  2
AcDbVbaProject
  3
acadvba
 90
        0
280
     0
281
     0
  0
CLASS
  1
WIPEOUT
  2
AcDbWipeout
  3
WipeOut|AutoCAD Express Tool|expresstools@autodesk.com
 90
      127
280
     0
281
     1
  0
CLASS
  1
WIPEOUTVARIABLES
  2
AcDbWipeoutVariables
  3
WipeOut|AutoCAD Express Tool|expresstools@autodesk.com
 90
        0
280
     0
281
     0
  0
CLASS
  1
RTEXT
  2
RText
  3
RText|AutoCAD Express Tool|expresstools@autodesk.com
 90
        0
280
     0
281
     1
  0
CLASS
  1
ARCALIGNEDTEXT
  2
AcDbArcAlignedText
  3
ATEXT|AutoCAD Express Tool|expresstools@autodesk.com
 90
        0
280
     0
281
     1
  0
CLASS
  1
LONG_TRANSACTION
  2
AcDbLongTransaction
  3
AutoCAD 2000
 90
        0
280
     0
281
     0
  0
CLASS
  1
LWPOLYLINE
  2
AcDbPolyline
  3
AutoCAD 2000
 90
        0
280
     0
281
     1
  0
CLASS
  1
HATCH
  2
AcDbHatch
  3
AutoCAD 2000
 90
        0
280
     0
281
     1
  0
CLASS
  1
XRECORD
  2
AcDbXrecord
  3
AutoCAD 2000
 90
        0
280
     0
281
     0
  0
ENDSEC
  0
SECTION
  2
TABLES
  0
TABLE
  2
VPORT
  5
8
330
0
100
AcDbSymbolTable
 70
     3
  0
VPORT
  5
1261
330
8
100
AcDbSymbolTableRecord
100
AcDbViewportTableRecord
  2
*ACTIVE
 70
     0
 10
0.0
 20
0.0
 11
1.0
 21
1.0
 12
49.68269995979667
 22
22.06210367901989
 13
0.0
 23
0.0
 14
1.0
 24
1.0
 15
0.0
 25
0.0
 16
0.0
 26
0.0
 36
1.0
 17
0.0
 27
0.0
 37
0.0
 40
105.9883329711049
 41
1.877227722772277
 42
50.0
 43
0.0
 44
0.0
 50
0.0
 51
0.0
 71
     0
 72
   100
 73
     1
 74
     1
 75
     0
 76
     0
 77
     0
 78
     0
  0
ENDTAB
  0
TABLE
  2
LTYPE
  5
5
330
0
100
AcDbSymbolTable
 70
     5
  0
LTYPE
  5
14
330
5
100
AcDbSymbolTableRecord
100
AcDbLinetypeTableRecord
  2
BYBLOCK
 70
     0
  3

 72
    65
 73
     0
 40
0.0
  0
LTYPE
  5
15
330
5
100
AcDbSymbolTableRecord
100
AcDbLinetypeTableRecord
  2
BYLAYER
 70
     0
  3

 72
    65
 73
     0
 40
0.0
  0
LTYPE
  5
16
330
5
100
AcDbSymbolTableRecord
100
AcDbLinetypeTableRecord
  2
CONTINUOUS
 70
     0
  3
Solid line
 72
    65
 73
     0
 40
0.0
  0
LTYPE
  5
1F5
330
5
100
AcDbSymbolTableRecord
100
AcDbLinetypeTableRecord
  2
CENTER
 70
     0
  3
____ _ ____ _ ____ _ ____ _ ____ _ ____ _ ____
 72
    65
 73
     4
 40
0.6
 49
0.375
 74
     0
 49
-0.075
 74
     0
 49
0.075
 74
     0
 49
-0.075
 74
     0
  0
LTYPE
  5
1F6
330
5
100
AcDbSymbolTableRecord
100
AcDbLinetypeTableRecord
  2
HIDDEN
 70
     0
  3
- - - - - - - - - - - - - - - - - - - -
 72
    65
 73
     2
 40
0.2
 49
0.1
 74
     0
 49
-0.1
 74
     0
  0
LTYPE
  5
1F7
330
5
100
AcDbSymbolTableRecord
100
AcDbLinetypeTableRecord
  2
PHANTOM
 70
     0
  3
_____ _ _ _____ _ _ _____ _ _ _____
 72
    65
 73
     6
 40
0.8
 49
0.45
 74
     0
 49
-0.05
 74
     0
 49
0.1
 74
     0
 49
-0.05
 74
     0
 49
0.1
 74
     0
 49
-0.05
 74
     0
  0
LTYPE
  5
122C
330
5
100
AcDbSymbolTableRecord
100
AcDbLinetypeTableRecord
  2
CENTERX2
 70
     0
  3
Center (2x) ________  __  ________  __  _____
 72
    65
 73
     4
 40
4.0
 49
2.5
 74
     0
 49
-0.5
 74
     0
 49
0.5
 74
     0
 49
-0.5
 74
     0
  0
ENDTAB
  0
TABLE
  2
LAYER
  5
2
330
0
100
AcDbSymbolTable
 70
     3
  0
LAYER
  5
10
330
2
100
AcDbSymbolTableRecord
100
AcDbLayerTableRecord
  2
0
 70
     0
 62
     7
  6
CONTINUOUS
  0
LAYER
  5
11DE
330
2
100
AcDbSymbolTableRecord
100
AcDbLayerTableRecord
  2
CENTER
 70
     0
 62
     1
  6
CENTERX2
  0
LAYER
  5
11E3
330
2
100
AcDbSymbolTableRecord
100
AcDbLayerTableRecord
  2
DEFPOINTS
 70
     0
 62
     7
  6
CONTINUOUS
  0
ENDTAB
  0
TABLE
  2
STYLE
  5
3
330
0
100
AcDbSymbolTable
 70
     3
  0
STYLE
  5
11
330
3
100
AcDbSymbolTableRecord
100
AcDbTextStyleTableRecord
  2
STANDARD
 70
     0
 40
0.0
 41
0.8
 50
0.0
 71
     0
 42
0.2
  3
txt
  4

  0
STYLE
  5
210
330
3
100
AcDbSymbolTableRecord
100
AcDbTextStyleTableRecord
  2
TEXTSTYLE_1
 70
     0
 40
0.0
 41
0.8
 50
0.0
 71
     0
 42
0.2
  3
txt
  4

  0
STYLE
  5
122B
330
3
100
AcDbSymbolTableRecord
100
AcDbTextStyleTableRecord
  2

 70
     1
 40
0.0
 41
1.0
 50
0.0
 71
     0
 42
0.2
  3
ltypeshp.shx
  4

  0
ENDTAB
  0
TABLE
  2
VIEW
  5
6
330
0
100
AcDbSymbolTable
 70
     0
  0
ENDTAB
  0
TABLE
  2
UCS
  5
7
330
0
100
AcDbSymbolTable
 70
     0
  0
ENDTAB
  0
TABLE
  2
APPID
  5
9
330
0
100
AcDbSymbolTable
 70
     2
  0
APPID
  5
214
330
9
100
AcDbSymbolTableRecord
100
AcDbRegAppTableRecord
  2
ACAD
 70
     0
  0
APPID
  5
11DA
330
9
100
AcDbSymbolTableRecord
100
AcDbRegAppTableRecord
  2
DCO15
 70
     0
  0
ENDTAB
  0
TABLE
  2
DIMSTYLE
  5
A
330
0
100
AcDbSymbolTable
 70
     1
  0
DIMSTYLE
105
242
330
A
100
AcDbSymbolTableRecord
100
AcDbDimStyleTableRecord
  2
STANDARD
 70
     0
  3

  4

  5
_FILLED
  6
_FILLED
  7
_FILLED
 40
1.0
 41
0.1875
 42
0.0625
 43
0.38
 44
0.18
 45
0.0
 46
0.0
 47
0.00001
 48
0.00001
140
0.125
141
0.09
142
0.0
143
25.4
144
1.0
145
0.0
146
1.0
147
0.09
 71
     0
 72
     0
 73
     1
 74
     1
 75
     0
 76
     0
 77
     0
 78
     4
170
     0
171
     2
172
     0
173
     0
174
     0
175
     0
176
     0
177
     0
178
     0
270
     2
271
     5
272
     5
273
     2
274
     2
340
11
275
     0
280
     0
281
     0
282
     0
283
     1
284
     4
285
     0
286
     0
287
     3
288
     0
  0
ENDTAB
  0
TABLE
  2
BLOCK_RECORD
  5
1
330
0
100
AcDbSymbolTable
 70
     5
  0
BLOCK_RECORD
  5
1F
102
{ACAD_XDICTIONARY
360
1285
102
}
330
1
100
AcDbSymbolTableRecord
100
AcDbBlockTableRecord
  2
*MODEL_SPACE
  0
BLOCK_RECORD
  5
1B
102
{ACAD_XDICTIONARY
360
1283
102
}
330
1
100
AcDbSymbolTableRecord
100
AcDbBlockTableRecord
  2
*PAPER_SPACE
  0
BLOCK_RECORD
  5
215
330
1
100
AcDbSymbolTableRecord
100
AcDbBlockTableRecord
  2
_FILLED
  0
ENDTAB
  0
ENDSEC
  0
SECTION
  2
BLOCKS
  0
BLOCK
  5
20
330
1F
100
AcDbEntity
  8
0
100
AcDbBlockBegin
  2
*MODEL_SPACE
 70
     0
 10
0.0
 20
0.0
 30
0.0
  3
*MODEL_SPACE
  1

  0
ENDBLK
  5
21
330
1F
100
AcDbEntity
  8
0
100
AcDbBlockEnd
  0
BLOCK
  5
1C
330
1B
100
AcDbEntity
 67
     1
  8
0
100
AcDbBlockBegin
  2
*PAPER_SPACE
 70
     0
 10
0.0
 20
0.0
 30
0.0
  3
*PAPER_SPACE
  1

  0
ENDBLK
  5
1D
330
1B
100
AcDbEntity
 67
     1
  8
0
100
AcDbBlockEnd
  0
BLOCK
  5
4B4
330
215
100
AcDbEntity
  8
0
100
AcDbBlockBegin
  2
_FILLED
 70
     0
 10
0.0
 20
0.0
 30
0.0
  3
_FILLED
  1

  0
SOLID
  5
4B5
330
215
100
AcDbEntity
  8
0
  6
BYBLOCK
 62
     0
100
AcDbTrace
 10
0.0
 20
0.0
 30
0.0
 11
-1.0
 21
0.1666666667
 31
0.0
 12
-1.0
 22
-0.1666666667
 32
0.0
 13
-1.0
 23
-0.1666666667
 33
0.0
  0
ENDBLK
  5
4B6
330
215
100
AcDbEntity
  8
0
  6
BYBLOCK
 62
     0
100
AcDbBlockEnd
  0
ENDSEC
  0
SECTION
  2
ENTITIES
  0
MTEXT
  5
54C
330
1F
100
AcDbEntity
  8
0
  6
CONTINUOUS
 62
     2
100
AcDbMText
 10
15.84375
 20
2.3125
 30
0.0
 40
0.09375
 41
0.075
 71
     2
 72
     1
  1
 \P \P 
  7
TEXTSTYLE_1
1001
ACAD
1000
MTEXTBEGIN
1070
    73
1070
     1
1070
    44
1040
1.0
1070
    74
1070
     0
1000
MTEXTEND
  0
LINE
  5
748
330
1F
100
AcDbEntity
  8
0
  6
CONTINUOUS
100
AcDbLine
 10
12.59275939760001
 20
13.93499827159997
 30
0.0
 11
12.1063286392
 21
17.59253475159998
 31
0.0
  0
LWPOLYLINE
  5
749
330
1F
100
AcDbEntity
  8
0
  6
CONTINUOUS
100
AcDbPolyline
 90
        5
 70
     0
 43
0.0
 10
16.6937200472
 20
39.10132543959999
 10
16.71654585999999
 20
39.16376307319997
 10
16.7393932952
 20
39.22756307799998
 10
16.76220874
 20
39.29287644279999
 10
16.78493575759999
 20
39.35984601079998
  0
LINE
  5
74A
330
1F
100
AcDbEntity
  8
0
  6
CONTINUOUS
100
AcDbLine
 10
16.6465068184
 20
38.97513009719999
 30
0.0
 11
16.6937200472
 21
39.10132543959999
 31
0.0
  0
LWPOLYLINE
  5
74B
330
1F
100
AcDbEntity
  8
0
  6
CONTINUOUS
100
AcDbPolyline
 90
       39
 70
     0
 43
0.0
 10
14.0501319432
 20
35.31768135479998
 10
14.04333762
 20
35.37201043959999
 10
14.03751139759999
 20
35.42645363479998
 10
14.0327712456
 20
35.47976210679998
 10
14.02900157839999
 20
35.53314747959999
 10
14.02631806479999
 20
35.58463376279998
 10
14.02460826319999
 20
35.63616146679999
 10
14.0239237384
 20
35.68599785559998
 10
14.024228276
 20
35.73583791319999
 10
14.02552991599999
 20
35.78494975639998
 10
14.02785459919999
 20
35.83402388279998
 10
14.0311811976
 20
35.88238547479999
 10
14.0355764392
 20
35.93066159639998
 10
14.0409277528
 20
35.97754232759999
 10
14.04739656719999
 20
36.02428178039998
 10
14.05476970959999
 20
36.06927873079998
 10
14.06331471119999
 20
36.11406789079998
 10
14.0727249512
 20
36.15697914839998
 10
14.08337099439999
 20
36.19959997879998
 10
14.09467381519999
 20
36.23964387639998
 10
14.10726210159999
 20
36.27930362999999
 10
14.1192986696
 20
36.31322632759999
 10
14.1326304552
 20
36.34665825399999
 10
14.144555468
 20
36.37322808119998
 10
14.15772582479999
 20
36.39920199639998
 10
14.1694205688
 20
36.41955231639999
 10
14.18231473999999
 20
36.43916133559999
 10
14.19471872399999
 20
36.45545577879998
 10
14.20832077519999
 20
36.47075455959998
 10
14.22296752399999
 20
36.48466296919998
 10
14.238706452
 20
36.49733055479998
 10
14.25620842959999
 20
36.50929244599999
 10
14.27449749519999
 20
36.52001175799998
 10
14.2946417464
 20
36.53030098519998
 10
14.3151830248
 20
36.53978508759998
 10
14.36003105679999
 20
36.55889538519998
 10
14.4090187256
 20
36.57822247319998
 10
14.462451412
 20
36.59837939639999
 10
14.5841872536
 20
36.64365211159999
  0
LWPOLYLINE
  5
74C
330
1F
100
AcDbEntity
  8
0
  6
CONTINUOUS
100
AcDbPolyline
 90
       38
 70
     0
 43
0.0
 10
14.0501319464
 20
35.31768135639998
 10
14.0615368584
 20
35.26413010199998
 10
14.0738937256
 20
35.21078865079998
 10
14.0869043032
 20
35.15887540279997
 10
14.10085688559999
 20
35.10720788759998
 10
14.11521249199999
 20
35.05769068439998
 10
14.13050150799999
 20
35.00845378839999
 10
14.1462042072
 20
34.96115095479999
 10
14.1628424328
 20
34.91416912759999
 10
14.1801836776
 20
34.86820232279999
 10
14.1984789768
 20
34.82260676759997
 10
14.2174869848
 20
34.77801299959998
 10
14.23747645359999
 20
34.73385055319998
 10
14.2579113112
 20
34.69131991799999
 10
14.2793554744
 20
34.64928934999999
 10
14.3010822712
 20
34.60920152279999
 10
14.3238479048
 20
34.56969442359998
 10
14.3468148248
 20
34.53224514679998
 10
14.37085387759999
 20
34.49547563959999
 10
14.39466797359999
 20
34.46135590999998
 10
14.41957037039999
 20
34.42802077559999
 10
14.4420694872
 20
34.39992418199999
 10
14.46563113519999
 20
34.37271610999998
 10
14.4856126872
 20
34.35152885719998
 10
14.50657516559999
 20
34.33131308439998
 10
14.52429881839999
 20
34.31592558999999
 10
14.542912324
 20
34.30163185239997
 10
14.55997538639999
 20
34.29030844439998
 10
14.5778435736
 20
34.28031863319998
 10
14.5962425096
 20
34.27198496919999
 10
14.615266116
 20
34.26518175799998
 10
14.63572368559999
 20
34.25962357399999
 10
14.6565171448
 20
34.25549741239999
 10
14.67892202
 20
34.25238614839999
 10
14.70143782159999
 20
34.25016570039999
 10
14.75007311439999
 20
34.24682588759998
 10
14.8026900616
 20
34.24463933239998
 10
14.8597782552
 20
34.24312710359998
  0
LINE
  5
74D
330
1F
100
AcDbEntity
  8
0
  6
CONTINUOUS
100
AcDbLine
 10
36.50402404240001
 20
50.16711661399999
 30
0.0
 11
36.49671160080002
 21
50.16405137399998
 31
0.0
  0
LINE
  5
74E
330
1F
100
AcDbEntity
  8
0
  6
CONTINUOUS
100
AcDbLine
 10
36.51342075279999
 20
50.17009915639999
 30
0.0
 11
36.50402404240001
 21
50.16711661399999
 31
0.0
  0
LINE
  5
74F
330
1F
100
AcDbEntity
  8
0
  6
CONTINUOUS
100
AcDbLine
 10
32.343323308
 20
7.901448433199986
 30
0.0
 11
58.06133574640001
 21
8.215341311599983
 31
0.0
  0
LINE
  5
752
330
1F
100
AcDbEntity
  8
0
  6
CONTINUOUS
100
AcDbLine
 10
36.6923678824
 20
8.831369327599984
 30
0.0
 11
36.715377604
 21
8.829373402799985
 31
0.0
  0
LINE
  5
753
330
1F
100
AcDbEntity
  8
0
  6
CONTINUOUS
100
AcDbLine
 10
36.67105129359999
 20
8.833499476399977
 30
0.0
 11
36.6923678824
 21
8.831369327599984
 31
0.0
  0
LINE
  5
754
330
1F
100
AcDbEntity
  8
0
  6
CONTINUOUS
100
AcDbLine
 10
36.65146470319999
 20
8.835760268399978
 30
0.0
 11
36.67105129359999
 21
8.833499476399977
 31
0.0
  0
LINE
  5
755
330
1F
100
AcDbEntity
  8
0
  6
CONTINUOUS
100
AcDbLine
 10
36.6336570968
 20
8.83814725399999
 30
0.0
 11
36.65146470319999
 21
8.835760268399978
 31
0.0
  0
LINE
  5
756
330
1F
100
AcDbEntity
  8
0
  6
CONTINUOUS
100
AcDbLine
 10
36.61764345680001
 20
8.840662044399989
 30
0.0
 11
36.6336570968
 21
8.83814725399999
 31
0.0
  0
LINE
  5
757
330
1F
100
AcDbEntity
  8
0
  6
CONTINUOUS
100
AcDbLine
 10
36.60350455119999
 20
8.843297919599988
 30
0.0
 11
36.61764345680001
 21
8.840662044399989
 31
0.0
  0
LINE
  5
758
330
1F
100
AcDbEntity
  8
0
  6
CONTINUOUS
100
AcDbLine
 10
36.59127911120001
 20
8.846056532399982
 30
0.0
 11
36.60350455119999
 21
8.843297919599988
 31
0.0
  0
LINE
  5
759
330
1F
100
AcDbEntity
  8
0
  6
CONTINUOUS
100
AcDbLine
 10
36.58104818320001
 20
8.848933121199989
 30
0.0
 11
36.59127911120001
 21
8.846056532399982
 31
0.0
  0
LINE
  5
75A
330
1F
100
AcDbEntity
  8
0
  6
CONTINUOUS
100
AcDbLine
 10
36.57289118
 20
8.851923457199985
 30
0.0
 11
36.58104818320001
 21
8.848933121199989
 31
0.0
  0
LINE
  5
75B
330
1F
100
AcDbEntity
  8
0
  6
CONTINUOUS
100
AcDbLine
 10
36.5668839736
 20
8.855027330799982
 30
0.0
 11
36.57289118
 21
8.851923457199985
 31
0.0
  0
LINE
  5
75C
330
1F
100
AcDbEntity
  8
0
  6
CONTINUOUS
100
AcDbLine
 10
36.49155833200001
 20
50.16091068919998
 30
0.0
 11
36.488634988
 21
50.15769718839997
 31
0.0
  0
LINE
  5
75D
330
1F
100
AcDbEntity
  8
0
  6
CONTINUOUS
100
AcDbLine
 10
36.49671160080002
 20
50.16405137399998
 30
0.0
 11
36.49155833200001
 21
50.16091068919998
 31
0.0
  0
LINE
  5
75E
330
1F
100
AcDbEntity
  8
0
  6
CONTINUOUS
100
AcDbLine
 10
44.77838432880001
 20
49.41081800599999
 30
0.0
 11
44.8561742568
 21
49.43848387639999
 31
0.0
  0
LINE
  5
75F
330
1F
100
AcDbEntity
  8
0
  6
CONTINUOUS
100
AcDbLine
 10
45.81480183439999
 20
50.25184036759999
 30
0.0
 11
45.80602941039999
 21
50.24905479479999
 31
0.0
  0
LINE
  5
760
330
1F
100
AcDbEntity
  8
0
  6
CONTINUOUS
100
AcDbLine
 10
44.69920178320001
 20
49.38669825879999
 30
0.0
 11
44.77838432880001
 21
49.41081800599999
 31
0.0
  0
LINE
  5
761
330
1F
100
AcDbEntity
  8
0
  6
CONTINUOUS
100
AcDbLine
 10
39.7893132456
 20
9.746248021999987
 30
0.0
 11
39.7089784872
 21
9.725653069999976
 31
0.0
  0
LINE
  5
762
330
1F
100
AcDbEntity
  8
0
  6
CONTINUOUS
100
AcDbLine
 10
47.88417532240002
 20
8.947952261999985
 30
0.0
 11
47.895578516
 21
8.950857591599982
 31
0.0
  0
LINE
  5
763
330
1F
100
AcDbEntity
  8
0
  6
CONTINUOUS
100
AcDbLine
 10
38.5833065032
 20
8.856546645999982
 30
0.0
 11
38.59428850000001
 21
8.859338706799986
 31
0.0
  0
LINE
  5
764
330
1F
100
AcDbEntity
  8
0
  6
CONTINUOUS
100
AcDbLine
 10
47.87081030799999
 20
8.945134970799982
 30
0.0
 11
47.88417532240002
 21
8.947952261999985
 31
0.0
  0
LINE
  5
765
330
1F
100
AcDbEntity
  8
0
  6
CONTINUOUS
100
AcDbLine
 10
38.5701324184
 20
8.853775458799985
 30
0.0
 11
38.5833065032
 21
8.856546645999982
 31
0.0
  0
LINE
  5
766
330
1F
100
AcDbEntity
  8
0
  6
CONTINUOUS
100
AcDbLine
 10
39.87064056400002
 20
9.763193533999979
 30
0.0
 11
39.7893132456
 21
9.746248021999987
 31
0.0
  0
LINE
  5
767
330
1F
100
AcDbEntity
  8
0
  6
CONTINUOUS
100
AcDbLine
 10
47.8555622232
 20
8.942414457199985
 30
0.0
 11
47.87081030799999
 21
8.945134970799982
 31
0.0
  0
LINE
  5
768
330
1F
100
AcDbEntity
  8
0
  6
CONTINUOUS
100
AcDbLine
 10
38.5548076808
 20
8.851045210799979
 30
0.0
 11
38.5701324184
 21
8.853775458799985
 31
0.0
  0
LINE
  5
769
330
1F
100
AcDbEntity
  8
0
  6
CONTINUOUS
100
AcDbLine
 10
39.95279851120001
 20
9.776459921199984
 30
0.0
 11
39.87064056400002
 21
9.763193533999979
 31
0.0
  0
LINE
  5
76A
330
1F
100
AcDbEntity
  8
0
  6
CONTINUOUS
100
AcDbLine
 10
47.83845589200002
 20
8.939790068399984
 30
0.0
 11
47.8555622232
 21
8.942414457199985
 31
0.0
  0
LINE
  5
76B
330
1F
100
AcDbEntity
  8
0
  6
CONTINUOUS
100
AcDbLine
 10
38.5375005256
 20
8.848391932399989
 30
0.0
 11
38.5548076808
 21
8.851045210799979
 31
0.0
  0
LINE
  5
76C
330
1F
100
AcDbEntity
  8
0
  6
CONTINUOUS
100
AcDbLine
 10
47.8195536552
 20
8.937268740399984
 30
0.0
 11
47.83845589200002
 21
8.939790068399984
 31
0.0
  0
LINE
  5
76D
330
1F
100
AcDbEntity
  8
0
  6
CONTINUOUS
100
AcDbLine
 10
38.5184398568
 20
8.845849225199982
 30
0.0
 11
38.5375005256
 21
8.848391932399989
 31
0.0
  0
LINE
  5
76E
330
1F
100
AcDbEntity
  8
0
  6
CONTINUOUS
100
AcDbLine
 10
40.52463545680001
 20
9.852369364399988
 30
0.0
 11
39.95279851120001
 21
9.776459921199984
 31
0.0
  0
LINE
  5
76F
330
1F
100
AcDbEntity
  8
0
  6
CONTINUOUS
100
AcDbLine
 10
41.09747043440001
 20
9.921989877999989
 30
0.0
 11
40.52463545680001
 21
9.852369364399988
 31
0.0
  0
LINE
  5
770
330
1F
100
AcDbEntity
  8
0
  6
CONTINUOUS
100
AcDbLine
 10
38.4978178728
 20
8.843437196399987
 30
0.0
 11
38.5184398568
 21
8.845849225199982
 31
0.0
  0
LINE
  5
771
330
1F
100
AcDbEntity
  8
0
  6
CONTINUOUS
100
AcDbLine
 10
47.7988911288
 20
8.934853796399989
 30
0.0
 11
47.8195536552
 21
8.937268740399984
 31
0.0
  0
LINE
  5
772
330
1F
100
AcDbEntity
  8
0
  6
CONTINUOUS
100
AcDbLine
 10
41.67122641680001
 20
9.985312105199978
 30
0.0
 11
41.09747043440001
 21
9.921989877999989
 31
0.0
  0
LINE
  5
773
330
1F
100
AcDbEntity
  8
0
  6
CONTINUOUS
100
AcDbLine
 10
38.47576058960002
 20
8.841165265199988
 30
0.0
 11
38.4978178728
 21
8.843437196399987
 31
0.0
  0
LINE
  5
774
330
1F
100
AcDbEntity
  8
0
  6
CONTINUOUS
100
AcDbLine
 10
47.77648081519999
 20
8.93254722359998
 30
0.0
 11
47.7988911288
 21
8.934853796399989
 31
0.0
  0
LINE
  5
775
330
1F
100
AcDbEntity
  8
0
  6
CONTINUOUS
100
AcDbLine
 10
42.24582637680001
 20
10.04232754519998
 30
0.0
 11
41.67122641680001
 21
9.985312105199978
 31
0.0
  0
LINE
  5
776
330
1F
100
AcDbEntity
  8
0
  6
CONTINUOUS
100
AcDbLine
 10
47.75238134800001
 20
8.930356545199982
 30
0.0
 11
47.77648081519999
 21
8.93254722359998
 31
0.0
  0
LINE
  5
777
330
1F
100
AcDbEntity
  8
0
  6
CONTINUOUS
100
AcDbLine
 10
38.45249762320001
 20
8.839051463599984
 30
0.0
 11
38.47576058960002
 21
8.841165265199988
 31
0.0
  0
LINE
  5
778
330
1F
100
AcDbEntity
  8
0
  6
CONTINUOUS
100
AcDbLine
 10
42.82119300400001
 20
10.09302853079998
 30
0.0
 11
42.24582637680001
 21
10.04232754519998
 31
0.0
  0
LINE
  5
779
330
1F
100
AcDbEntity
  8
0
  6
CONTINUOUS
100
AcDbLine
 10
42.92730989520001
 20
11.33251901239998
 30
0.0
 11
42.30549460239999
 21
11.27825248759998
 31
0.0
  0
LINE
  5
77A
330
1F
100
AcDbEntity
  8
0
  6
CONTINUOUS
100
AcDbLine
 10
47.7265673256
 20
8.928282205999989
 30
0.0
 11
47.75238134800001
 21
8.930356545199982
 31
0.0
  0
LINE
  5
77B
330
1F
100
AcDbEntity
  8
0
  6
CONTINUOUS
100
AcDbLine
 10
38.42827723600002
 20
8.837110545199989
 30
0.0
 11
38.45249762320001
 21
8.839051463599984
 31
0.0
  0
LINE
  5
77C
330
1F
100
AcDbEntity
  8
0
  6
CONTINUOUS
100
AcDbLine
 10
47.699085204
 20
8.926331890799984
 30
0.0
 11
47.7265673256
 21
8.928282205999989
 31
0.0
  0
LINE
  5
77D
330
1F
100
AcDbEntity
  8
0
  6
CONTINUOUS
100
AcDbLine
 10
38.40329855440002
 20
8.835349489199982
 30
0.0
 11
38.42827723600002
 21
8.837110545199989
 31
0.0
  0
LINE
  5
77E
330
1F
100
AcDbEntity
  8
0
  6
CONTINUOUS
100
AcDbLine
 10
42.92730989680001
 20
11.33251900919998
 30
0.0
 11
43.12882910799999
 21
11.34563868279998
 31
0.0
  0
LINE
  5
77F
330
1F
100
AcDbEntity
  8
0
  6
CONTINUOUS
100
AcDbLine
 10
47.6699199544
 20
8.924509257199984
 30
0.0
 11
47.699085204
 21
8.926331890799984
 31
0.0
  0
LINE
  5
780
330
1F
100
AcDbEntity
  8
0
  6
CONTINUOUS
100
AcDbLine
 10
38.377709644
 20
8.833770113199987
 30
0.0
 11
38.40329855440002
 21
8.835349489199982
 31
0.0
  0
LINE
  5
781
330
1F
100
AcDbEntity
  8
0
  6
CONTINUOUS
100
AcDbLine
 10
42.926795476
 20
10.09951536119998
 30
0.0
 11
42.82119300400001
 21
10.09302853079998
 31
0.0
  0
LINE
  5
782
330
1F
100
AcDbEntity
  8
0
  6
CONTINUOUS
100
AcDbLine
 10
47.63906861839999
 20
8.922820090799985
 30
0.0
 11
47.6699199544
 21
8.924509257199984
 31
0.0
  0
LINE
  5
783
330
1F
100
AcDbEntity
  8
0
  6
CONTINUOUS
100
AcDbLine
 10
38.351714268
 20
8.832376449199982
 30
0.0
 11
38.377709644
 21
8.833770113199987
 31
0.0
  0
LINE
  5
784
330
1F
100
AcDbEntity
  8
0
  6
CONTINUOUS
100
AcDbLine
 10
47.6065614264
 20
8.921272604399986
 30
0.0
 11
47.63906861839999
 21
8.922820090799985
 31
0.0
  0
LINE
  5
785
330
1F
100
AcDbEntity
  8
0
  6
CONTINUOUS
100
AcDbLine
 10
38.32543451600001
 20
8.831166647599983
 30
0.0
 11
38.351714268
 21
8.832376449199982
 31
0.0
  0
LINE
  5
786
330
1F
100
AcDbEntity
  8
0
  6
CONTINUOUS
100
AcDbLine
 10
47.57234589999999
 20
8.919871887599979
 30
0.0
 11
47.6065614264
 21
8.921272604399986
 31
0.0
  0
LINE
  5
787
330
1F
100
AcDbEntity
  8
0
  6
CONTINUOUS
100
AcDbLine
 10
38.29903182640002
 20
8.830140188399978
 30
0.0
 11
38.32543451600001
 21
8.831166647599983
 31
0.0
  0
LINE
  5
788
330
1F
100
AcDbEntity
  8
0
  6
CONTINUOUS
100
AcDbLine
 10
47.53646532720001
 20
8.918628164399988
 30
0.0
 11
47.57234589999999
 21
8.919871887599979
 31
0.0
  0
LINE
  5
789
330
1F
100
AcDbEntity
  8
0
  6
CONTINUOUS
100
AcDbLine
 10
38.27257606640001
 20
8.829292538799988
 30
0.0
 11
38.29903182640002
 21
8.830140188399978
 31
0.0
  0
LINE
  5
78A
330
1F
100
AcDbEntity
  8
0
  6
CONTINUOUS
100
AcDbLine
 10
43.12882910799999
 20
11.34563868279998
 30
0.0
 11
43.3328747992
 21
11.35191627639998
 31
0.0
  0
LINE
  5
78B
330
1F
100
AcDbEntity
  8
0
  6
CONTINUOUS
100
AcDbLine
 10
47.49887878320001
 20
8.917549201199987
 30
0.0
 11
47.53646532720001
 21
8.918628164399988
 31
0.0
  0
LINE
  5
78C
330
1F
100
AcDbEntity
  8
0
  6
CONTINUOUS
100
AcDbLine
 10
38.24620634479999
 20
8.828621613999983
 30
0.0
 11
38.27257606640001
 21
8.829292538799988
 31
0.0
  0
LINE
  5
78D
330
1F
100
AcDbEntity
  8
0
  6
CONTINUOUS
100
AcDbLine
 10
47.4595981048
 20
8.916645564399983
 30
0.0
 11
47.49887878320001
 21
8.917549201199987
 31
0.0
  0
LINE
  5
78E
330
1F
100
AcDbEntity
  8
0
  6
CONTINUOUS
100
AcDbLine
 10
43.032686684
 20
10.10156354199997
 30
0.0
 11
42.926795476
 21
10.09951536119998
 31
0.0
  0
LINE
  5
78F
330
1F
100
AcDbEntity
  8
0
  6
CONTINUOUS
100
AcDbLine
 10
38.21997387120001
 20
8.828122834799982
 30
0.0
 11
38.24620634479999
 21
8.828621613999983
 31
0.0
  0
LINE
  5
790
330
1F
100
AcDbEntity
  8
0
  6
CONTINUOUS
100
AcDbLine
 10
47.4185678296
 20
8.915927397999977
 30
0.0
 11
47.4595981048
 21
8.916645564399983
 31
0.0
  0
LINE
  5
791
330
1F
100
AcDbEntity
  8
0
  6
CONTINUOUS
100
AcDbLine
 10
37.16957964880001
 20
8.818018085999979
 30
0.0
 11
38.21997387120001
 21
8.828122834799982
 31
0.0
  0
LINE
  5
792
330
1F
100
AcDbEntity
  8
0
  6
CONTINUOUS
100
AcDbLine
 10
45.71468833520001
 20
8.899556985199977
 30
0.0
 11
47.4185678296
 21
8.915927397999977
 31
0.0
  0
LINE
  5
793
330
1F
100
AcDbEntity
  8
0
  6
CONTINUOUS
100
AcDbLine
 10
37.12413670160001
 20
8.817702284399983
 30
0.0
 11
37.16957964880001
 21
8.818018085999979
 31
0.0
  0
LINE
  5
794
330
1F
100
AcDbEntity
  8
0
  6
CONTINUOUS
100
AcDbLine
 10
45.6880041112
 20
8.899384666799987
 30
0.0
 11
45.71468833520001
 21
8.899556985199977
 31
0.0
  0
LINE
  5
795
330
1F
100
AcDbEntity
  8
0
  6
CONTINUOUS
100
AcDbLine
 10
37.08049041039999
 20
8.817628618799984
 30
0.0
 11
37.12413670160001
 21
8.817702284399983
 31
0.0
  0
LINE
  5
796
330
1F
100
AcDbEntity
  8
0
  6
CONTINUOUS
100
AcDbLine
 10
45.66070888240001
 20
8.899375284399978
 30
0.0
 11
45.6880041112
 21
8.899384666799987
 31
0.0
  0
LINE
  5
797
330
1F
100
AcDbEntity
  8
0
  6
CONTINUOUS
100
AcDbLine
 10
37.038624844
 20
8.817782148399983
 30
0.0
 11
37.08049041039999
 21
8.817628618799984
 31
0.0
  0
LINE
  5
798
330
1F
100
AcDbEntity
  8
0
  6
CONTINUOUS
100
AcDbLine
 10
43.3328747992
 20
11.35191627639998
 30
0.0
 11
43.53714549360002
 21
11.35117983159997
 31
0.0
  0
LINE
  5
799
330
1F
100
AcDbEntity
  8
0
  6
CONTINUOUS
100
AcDbLine
 10
45.63293257519999
 20
8.899535409199982
 30
0.0
 11
45.66070888240001
 21
8.899375284399978
 31
0.0
  0
LINE
  5
79A
330
1F
100
AcDbEntity
  8
0
  6
CONTINUOUS
100
AcDbLine
 10
36.99852353040001
 20
8.818149377199985
 30
0.0
 11
37.038624844
 21
8.817782148399983
 31
0.0
  0
LINE
  5
79B
330
1F
100
AcDbEntity
  8
0
  6
CONTINUOUS
100
AcDbLine
 10
45.60473144720002
 20
8.89987166999998
 30
0.0
 11
45.63293257519999
 21
8.899535409199982
 31
0.0
  0
LINE
  5
79C
330
1F
100
AcDbEntity
  8
0
  6
CONTINUOUS
100
AcDbLine
 10
36.96021106320001
 20
8.818717396399987
 30
0.0
 11
36.99852353040001
 21
8.818149377199985
 31
0.0
  0
LINE
  5
79D
330
1F
100
AcDbEntity
  8
0
  6
CONTINUOUS
100
AcDbLine
 10
45.57625570319999
 20
8.900389689199981
 30
0.0
 11
45.60473144720002
 21
8.89987166999998
 31
0.0
  0
LINE
  5
79E
330
1F
100
AcDbEntity
  8
0
  6
CONTINUOUS
100
AcDbLine
 10
36.9236305128
 20
8.819475466799984
 30
0.0
 11
36.96021106320001
 21
8.818717396399987
 31
0.0
  0
LINE
  5
79F
330
1F
100
AcDbEntity
  8
0
  6
CONTINUOUS
100
AcDbLine
 10
43.13865465200001
 20
10.09916905399998
 30
0.0
 11
43.032686684
 21
10.10156354199997
 31
0.0
  0
LINE
  5
7A0
330
1F
100
AcDbEntity
  8
0
  6
CONTINUOUS
100
AcDbLine
 10
45.54759631120002
 20
8.901095612399982
 30
0.0
 11
45.57625570319999
 21
8.900389689199981
 31
0.0
  0
LINE
  5
7A1
330
1F
100
AcDbEntity
  8
0
  6
CONTINUOUS
100
AcDbLine
 10
36.8888094328
 20
8.820412420399987
 30
0.0
 11
36.9236305128
 21
8.819475466799984
 31
0.0
  0
LINE
  5
7A2
330
1F
100
AcDbEntity
  8
0
  6
CONTINUOUS
100
AcDbLine
 10
45.51894703280002
 20
8.901992685999983
 30
0.0
 11
45.54759631120002
 21
8.901095612399982
 31
0.0
  0
LINE
  5
7A3
330
1F
100
AcDbEntity
  8
0
  6
CONTINUOUS
100
AcDbLine
 10
36.85567478639999
 20
8.821520753199989
 30
0.0
 11
36.8888094328
 21
8.820412420399987
 31
0.0
  0
LINE
  5
7A4
330
1F
100
AcDbEntity
  8
0
  6
CONTINUOUS
100
AcDbLine
 10
43.53714549360002
 20
11.35117983159997
 30
0.0
 11
43.74119429519999
 21
11.34343542839998
 31
0.0
  0
LINE
  5
7A5
330
1F
100
AcDbEntity
  8
0
  6
CONTINUOUS
100
AcDbLine
 10
45.49044610320001
 20
8.903084639599979
 30
0.0
 11
45.51894703280002
 21
8.901992685999983
 31
0.0
  0
LINE
  5
7A6
330
1F
100
AcDbEntity
  8
0
  6
CONTINUOUS
100
AcDbLine
 10
36.8242603064
 20
8.82279093079998
 30
0.0
 11
36.85567478639999
 21
8.821520753199989
 31
0.0
  0
LINE
  5
7A7
330
1F
100
AcDbEntity
  8
0
  6
CONTINUOUS
100
AcDbLine
 10
45.46230764559999
 20
8.904371404399979
 30
0.0
 11
45.49044610320001
 21
8.903084639599979
 31
0.0
  0
LINE
  5
7A8
330
1F
100
AcDbEntity
  8
0
  6
CONTINUOUS
100
AcDbLine
 10
36.79452706800001
 20
8.824216909999988
 30
0.0
 11
36.8242603064
 21
8.82279093079998
 31
0.0
  0
LINE
  5
7A9
330
1F
100
AcDbEntity
  8
0
  6
CONTINUOUS
100
AcDbLine
 10
45.43473259120001
 20
8.905851565999979
 30
0.0
 11
45.46230764559999
 21
8.904371404399979
 31
0.0
  0
LINE
  5
7AA
330
1F
100
AcDbEntity
  8
0
  6
CONTINUOUS
100
AcDbLine
 10
36.7664646552
 20
8.825792917999988
 30
0.0
 11
36.79452706800001
 21
8.824216909999988
 31
0.0
  0
LINE
  5
7AB
330
1F
100
AcDbEntity
  8
0
  6
CONTINUOUS
100
AcDbLine
 10
45.40796235440001
 20
8.907519397999989
 30
0.0
 11
45.43473259120001
 21
8.905851565999979
 31
0.0
  0
LINE
  5
7AC
330
1F
100
AcDbEntity
  8
0
  6
CONTINUOUS
100
AcDbLine
 10
43.24447335759999
 20
10.09233807959998
 30
0.0
 11
43.13865465200001
 21
10.09916905399998
 31
0.0
  0
LINE
  5
7AD
330
1F
100
AcDbEntity
  8
0
  6
CONTINUOUS
100
AcDbLine
 10
36.740095164
 20
8.827512221999979
 30
0.0
 11
36.7664646552
 21
8.825792917999988
 31
0.0
  0
LINE
  5
7AE
330
1F
100
AcDbEntity
  8
0
  6
CONTINUOUS
100
AcDbLine
 10
45.3822612008
 20
8.909364313199985
 30
0.0
 11
45.40796235440001
 21
8.907519397999989
 31
0.0
  0
LINE
  5
7AF
330
1F
100
AcDbEntity
  8
0
  6
CONTINUOUS
100
AcDbLine
 10
43.74119429519999
 20
11.34343542839998
 30
0.0
 11
43.9445704936
 21
11.32871466199998
 31
0.0
  0
LINE
  5
7B0
330
1F
100
AcDbEntity
  8
0
  6
CONTINUOUS
100
AcDbLine
 10
36.715377604
 20
8.829373402799985
 30
0.0
 11
36.740095164
 21
8.827512221999979
 31
0.0
  0
LINE
  5
7B1
330
1F
100
AcDbEntity
  8
0
  6
CONTINUOUS
100
AcDbLine
 10
45.3579458216
 20
8.911366564399981
 30
0.0
 11
45.3822612008
 21
8.909364313199985
 31
0.0
  0
LINE
  5
7B2
330
1F
100
AcDbEntity
  8
0
  6
CONTINUOUS
100
AcDbLine
 10
45.33518318960001
 20
8.913513209199988
 30
0.0
 11
45.3579458216
 21
8.911366564399981
 31
0.0
  0
LINE
  5
7B3
330
1F
100
AcDbEntity
  8
0
  6
CONTINUOUS
100
AcDbLine
 10
43.34993997839999
 20
10.08108521879998
 30
0.0
 11
43.24447335759999
 21
10.09233807959998
 31
0.0
  0
LINE
  5
7B4
330
1F
100
AcDbEntity
  8
0
  6
CONTINUOUS
100
AcDbLine
 10
45.31415258640001
 20
8.915787500399984
 30
0.0
 11
45.33518318960001
 21
8.913513209199988
 31
0.0
  0
LINE
  5
7B5
330
1F
100
AcDbEntity
  8
0
  6
CONTINUOUS
100
AcDbLine
 10
45.29505167120002
 20
8.918166061999981
 30
0.0
 11
45.31415258640001
 21
8.915787500399984
 31
0.0
  0
LINE
  5
7B6
330
1F
100
AcDbEntity
  8
0
  6
CONTINUOUS
100
AcDbLine
 10
45.278037324
 20
8.920623810799979
 30
0.0
 11
45.29505167120002
 21
8.918166061999981
 31
0.0
  0
LINE
  5
7B7
330
1F
100
AcDbEntity
  8
0
  6
CONTINUOUS
100
AcDbLine
 10
43.45484836719999
 20
10.06543323959998
 30
0.0
 11
43.34993997839999
 21
10.08108521879998
 31
0.0
  0
LINE
  5
7B8
330
1F
100
AcDbEntity
  8
0
  6
CONTINUOUS
100
AcDbLine
 10
45.2631831928
 20
8.923141953199985
 30
0.0
 11
45.278037324
 21
8.920623810799979
 31
0.0
  0
LINE
  5
7B9
330
1F
100
AcDbEntity
  8
0
  6
CONTINUOUS
100
AcDbLine
 10
43.55899369200001
 20
10.04541297879998
 30
0.0
 11
43.45484836719999
 21
10.06543323959998
 31
0.0
  0
LINE
  5
7BA
330
1F
100
AcDbEntity
  8
0
  6
CONTINUOUS
100
AcDbLine
 10
45.25059537199999
 20
8.92569000759998
 30
0.0
 11
45.2631831928
 21
8.923141953199985
 31
0.0
  0
LINE
  5
7BB
330
1F
100
AcDbEntity
  8
0
  6
CONTINUOUS
100
AcDbLine
 10
43.66216816240001
 20
10.02106442039997
 30
0.0
 11
43.55899369200001
 21
10.04541297879998
 31
0.0
  0
LINE
  5
7BC
330
1F
100
AcDbEntity
  8
0
  6
CONTINUOUS
100
AcDbLine
 10
45.24030168560001
 20
8.928242141999986
 30
0.0
 11
45.25059537199999
 21
8.92569000759998
 31
0.0
  0
LINE
  5
7BD
330
1F
100
AcDbEntity
  8
0
  6
CONTINUOUS
100
AcDbLine
 10
43.7641600424
 20
9.992438025199986
 30
0.0
 11
43.66216816240001
 21
10.02106442039997
 31
0.0
  0
LINE
  5
7BE
330
1F
100
AcDbEntity
  8
0
  6
CONTINUOUS
100
AcDbLine
 10
45.232264988
 20
8.930780564399979
 30
0.0
 11
45.24030168560001
 21
8.928242141999986
 31
0.0
  0
LINE
  5
7BF
330
1F
100
AcDbEntity
  8
0
  6
CONTINUOUS
100
AcDbLine
 10
45.18174966960001
 20
8.948453663599989
 30
0.0
 11
45.12857650000001
 21
8.965618095599976
 31
0.0
  0
LINE
  5
7C0
330
1F
100
AcDbEntity
  8
0
  6
CONTINUOUS
100
AcDbLine
 10
43.8647736904
 20
9.959589129199981
 30
0.0
 11
43.7641600424
 21
9.992438025199986
 31
0.0
  0
LINE
  5
7C1
330
1F
100
AcDbEntity
  8
0
  6
CONTINUOUS
100
AcDbLine
 10
45.232264988
 20
8.930780564399979
 30
0.0
 11
45.18174966960001
 21
8.948453663599989
 31
0.0
  0
LINE
  5
7C2
330
1F
100
AcDbEntity
  8
0
  6
CONTINUOUS
100
AcDbLine
 10
45.12178418
 20
8.968044026799985
 30
0.0
 11
45.12857650000001
 21
8.965618095599976
 31
0.0
  0
LINE
  5
7C3
330
1F
100
AcDbEntity
  8
0
  6
CONTINUOUS
100
AcDbLine
 10
43.96382950640001
 20
9.922574799599983
 30
0.0
 11
43.8647736904
 21
9.959589129199981
 31
0.0
  0
LINE
  5
7C4
330
1F
100
AcDbEntity
  8
0
  6
CONTINUOUS
100
AcDbLine
 10
36.56312513520001
 20
8.858236172399982
 30
0.0
 11
36.5668839736
 21
8.855027330799982
 31
0.0
  0
LINE
  5
7C5
330
1F
100
AcDbEntity
  8
0
  6
CONTINUOUS
100
AcDbLine
 10
45.7705517352
 20
50.22515344759999
 30
0.0
 11
45.79518154159999
 21
50.24357270839998
 31
0.0
  0
LINE
  5
7C6
330
1F
100
AcDbEntity
  8
0
  6
CONTINUOUS
100
AcDbLine
 10
45.21859912400001
 20
49.62787224279999
 30
0.0
 11
45.2846095992
 21
49.6754095148
 31
0.0
  0
LINE
  5
7C7
330
1F
100
AcDbEntity
  8
0
  6
CONTINUOUS
100
AcDbLine
 10
45.15024506480001
 20
49.58345715799997
 30
0.0
 11
45.21859912400001
 21
49.62787224279999
 31
0.0
  0
LINE
  5
7C8
330
1F
100
AcDbEntity
  8
0
  6
CONTINUOUS
100
AcDbLine
 10
45.7994942984
 20
50.2462903468
 30
0.0
 11
45.79518154159999
 21
50.24357270839998
 31
0.0
  0
LINE
  5
7C9
330
1F
100
AcDbEntity
  8
0
  6
CONTINUOUS
100
AcDbLine
 10
45.74155415280001
 20
50.20729076119998
 30
0.0
 11
45.7705517352
 21
50.22515344759999
 31
0.0
  0
LINE
  5
7CA
330
1F
100
AcDbEntity
  8
0
  6
CONTINUOUS
100
AcDbLine
 10
45.07964078000001
 20
49.54221461399997
 30
0.0
 11
45.15024506480001
 21
49.58345715799997
 31
0.0
  0
LINE
  5
7CB
330
1F
100
AcDbEntity
  8
0
  6
CONTINUOUS
100
AcDbLine
 10
46.0730824488
 20
48.57532201399997
 30
0.0
 11
46.22536421039999
 21
48.65693627799998
 31
0.0
  0
LINE
  5
7CC
330
1F
100
AcDbEntity
  8
0
  6
CONTINUOUS
100
AcDbLine
 10
45.00699243599999
 20
49.50425824439999
 30
0.0
 11
45.07964078000001
 21
49.54221461399997
 31
0.0
  0
LINE
  5
7CD
330
1F
100
AcDbEntity
  8
0
  6
CONTINUOUS
100
AcDbLine
 10
45.91735544720001
 20
48.49942999639999
 30
0.0
 11
46.0730824488
 21
48.57532201399997
 31
0.0
  0
LINE
  5
7CE
330
1F
100
AcDbEntity
  8
0
  6
CONTINUOUS
100
AcDbLine
 10
44.93245618000001
 20
49.46966081879999
 30
0.0
 11
45.00699243599999
 21
49.50425824439999
 31
0.0
  0
LINE
  5
7CF
330
1F
100
AcDbEntity
  8
0
  6
CONTINUOUS
100
AcDbLine
 10
45.75855223600002
 20
48.42944922519997
 30
0.0
 11
45.91735544720001
 21
48.49942999639999
 31
0.0
  0
LINE
  5
7D0
330
1F
100
AcDbEntity
  8
0
  6
CONTINUOUS
100
AcDbLine
 10
45.80602941039999
 20
50.24905479479999
 30
0.0
 11
45.7994942984
 21
50.2462903468
 31
0.0
  0
LINE
  5
7D1
330
1F
100
AcDbEntity
  8
0
  6
CONTINUOUS
100
AcDbLine
 10
44.8561742568
 20
49.43848387639999
 30
0.0
 11
44.93245618000001
 21
49.46966081879999
 31
0.0
  0
LINE
  5
7D2
330
1F
100
AcDbEntity
  8
0
  6
CONTINUOUS
100
AcDbLine
 10
45.5969268328
 20
48.36549042999997
 30
0.0
 11
45.75855223600002
 21
48.42944922519997
 31
0.0
  0
LWPOLYLINE
  5
7D3
330
1F
100
AcDbEntity
  8
0
  6
CONTINUOUS
100
AcDbPolyline
 90
       41
 70
     0
 43
0.0
 10
14.5841872536
 20
36.64365211159999
 10
14.65345696079999
 20
36.67006759799999
 10
14.7289931944
 20
36.70045120439998
 10
14.81144437679999
 20
36.73610352759998
 10
14.90154809999999
 20
36.77843334839998
 10
14.95118922
 20
36.80335191639999
 10
15.00037213039999
 20
36.82916468919998
 10
15.05508848559999
 20
36.85918743799999
 10
15.109211228
 20
36.89026792279998
 10
15.16985926959999
 20
36.92678214199998
 10
15.22969883119999
 20
36.96460801719998
 10
15.29397489999999
 20
37.00729235159998
 10
15.357243628
 20
37.05145737719998
 10
15.41878323599999
 20
37.09655162039998
 10
15.47925498159999
 20
37.14306614039998
 10
15.5353999304
 20
37.18835227639998
 10
15.59052786479999
 20
37.23487165239999
 10
15.641610252
 20
37.27987055479998
 10
15.69174038799999
 20
37.32592742999997
 10
15.7396615992
 20
37.37186172279999
 10
15.78656878959999
 20
37.41883046999999
 10
15.83439133039999
 20
37.46900067959998
 10
15.88097248559999
 20
37.52032739479999
 10
15.9320423816
 20
37.57972575479998
 10
15.98133495919999
 20
37.64060691959999
 10
16.0336343544
 20
37.70960376759998
 10
16.08363478159999
 20
37.78028706999998
 10
16.1324752152
 20
37.85426367959998
 10
16.17901174959999
 20
37.92971082199999
 10
16.22064372079999
 20
38.00166545719999
 10
16.26041692879999
 20
38.07466246199999
 10
16.2947088888
 20
38.14115438839998
 10
16.32770691439999
 20
38.20829759959998
 10
16.35682233999999
 20
38.27006565719999
 10
16.3851221128
 20
38.3322115708
 10
16.43570876559999
 20
38.44778212759997
 10
16.48100654479999
 20
38.55539566519998
 10
16.5217973496
 20
38.65528836599999
 10
16.55844865039999
 20
38.74722087319999
 10
16.59119615279999
 20
38.83091160759999
 10
16.64650681839999
 20
38.97513009719999
  0
LINE
  5
7D4
330
1F
100
AcDbEntity
  8
0
  6
CONTINUOUS
100
AcDbLine
 10
45.43259236559999
 20
48.30760518519999
 30
0.0
 11
45.5969268328
 21
48.36549042999997
 31
0.0
  0
LINE
  5
7D5
330
1F
100
AcDbEntity
  8
0
  6
CONTINUOUS
100
AcDbLine
 10
45.26592112719999
 20
48.25593198359998
 30
0.0
 11
45.43259236559999
 21
48.30760518519999
 31
0.0
  0
LINE
  5
7D6
330
1F
100
AcDbEntity
  8
0
  6
CONTINUOUS
100
AcDbLine
 10
39.30977571279999
 20
10.90138289719997
 30
0.0
 11
39.14107078320001
 21
10.85582297879999
 31
0.0
  0
LINE
  5
7D7
330
1F
100
AcDbEntity
  8
0
  6
CONTINUOUS
100
AcDbLine
 10
39.48043490160001
 20
10.94061125079998
 30
0.0
 11
39.30977571279999
 21
10.90138289719997
 31
0.0
  0
LINE
  5
7D8
330
1F
100
AcDbEntity
  8
0
  6
CONTINUOUS
100
AcDbLine
 10
39.65268190320001
 20
10.97341588439998
 30
0.0
 11
39.48043490160001
 21
10.94061125079998
 31
0.0
  0
LINE
  5
7D9
330
1F
100
AcDbEntity
  8
0
  6
CONTINUOUS
100
AcDbLine
 10
39.82625739919999
 20
10.99974558199998
 30
0.0
 11
39.65268190320001
 21
10.97341588439998
 31
0.0
  0
LINE
  5
7DA
330
1F
100
AcDbEntity
  8
0
  6
CONTINUOUS
100
AcDbLine
 10
40.44472821360001
 20
11.07857394519998
 30
0.0
 11
39.82625739919999
 21
10.99974558199998
 31
0.0
  0
LINE
  5
7DB
330
1F
100
AcDbEntity
  8
0
  6
CONTINUOUS
100
AcDbLine
 10
41.06413626960001
 20
11.15127304279998
 30
0.0
 11
40.44472821360001
 21
11.07857394519998
 31
0.0
  0
LINE
  5
7DC
330
1F
100
AcDbEntity
  8
0
  6
CONTINUOUS
100
AcDbLine
 10
41.68441425520001
 20
11.21783497559998
 30
0.0
 11
41.06413626960001
 21
11.15127304279998
 31
0.0
  0
LINE
  5
7DD
330
1F
100
AcDbEntity
  8
0
  6
CONTINUOUS
100
AcDbLine
 10
42.30549460239999
 20
11.27825248759998
 30
0.0
 11
41.68441425520001
 21
11.21783497559998
 31
0.0
  0
LINE
  5
7DE
330
1F
100
AcDbEntity
  8
0
  6
CONTINUOUS
100
AcDbLine
 10
43.9445704936
 20
11.32871466199998
 30
0.0
 11
44.14682596719999
 21
11.30707482519998
 31
0.0
  0
LINE
  5
7DF
330
1F
100
AcDbEntity
  8
0
  6
CONTINUOUS
100
AcDbLine
 10
44.14682596719999
 20
11.30707482519998
 30
0.0
 11
44.34751690639999
 21
11.27859886679998
 31
0.0
  0
LINE
  5
7E0
330
1F
100
AcDbEntity
  8
0
  6
CONTINUOUS
100
AcDbLine
 10
44.34751690639999
 20
11.27859886679998
 30
0.0
 11
44.5462073736
 21
11.24339493399997
 31
0.0
  0
LINE
  5
7E1
330
1F
100
AcDbEntity
  8
0
  6
CONTINUOUS
100
AcDbLine
 10
44.5462073736
 20
11.24339493399997
 30
0.0
 11
44.7424890392
 21
11.20159178039997
 31
0.0
  0
LINE
  5
7E2
330
1F
100
AcDbEntity
  8
0
  6
CONTINUOUS
100
AcDbLine
 10
44.7424890392
 20
11.20159178039997
 30
0.0
 11
44.9359708584
 21
11.15333817719998
 31
0.0
  0
LINE
  5
7E3
330
1F
100
AcDbEntity
  8
0
  6
CONTINUOUS
100
AcDbLine
 10
44.9359708584
 20
11.15333817719998
 30
0.0
 11
45.12627045840001
 21
11.09880427959998
 31
0.0
  0
LINE
  5
7E4
330
1F
100
AcDbEntity
  8
0
  6
CONTINUOUS
100
AcDbLine
 10
45.12627045840001
 20
11.09880427959998
 30
0.0
 11
45.31302278480001
 21
11.03817922999998
 31
0.0
  0
LINE
  5
7E5
330
1F
100
AcDbEntity
  8
0
  6
CONTINUOUS
100
AcDbLine
 10
45.31302278480001
 20
11.03817922999998
 30
0.0
 11
45.4958962472
 21
10.97166416439998
 31
0.0
  0
LINE
  5
7E6
330
1F
100
AcDbEntity
  8
0
  6
CONTINUOUS
100
AcDbLine
 10
45.4958962472
 20
10.97166416439998
 30
0.0
 11
45.67457470319999
 21
10.89947599319998
 31
0.0
  0
LINE
  5
7E7
330
1F
100
AcDbEntity
  8
0
  6
CONTINUOUS
100
AcDbLine
 10
44.06110011600001
 20
9.881479029999978
 30
0.0
 11
43.96382950640001
 21
9.922574799599983
 31
0.0
  0
LINE
  5
7E8
330
1F
100
AcDbEntity
  8
0
  6
CONTINUOUS
100
AcDbLine
 10
45.67457470319999
 20
10.89947599319998
 30
0.0
 11
45.84875446160001
 21
10.82184860439998
 31
0.0
  0
LINE
  5
7E9
330
1F
100
AcDbEntity
  8
0
  6
CONTINUOUS
100
AcDbLine
 10
44.1563920104
 20
9.836384754799977
 30
0.0
 11
44.06110011600001
 21
9.881479029999978
 31
0.0
  0
LINE
  5
7EA
330
1F
100
AcDbEntity
  8
0
  6
CONTINUOUS
100
AcDbLine
 10
45.84875446160001
 20
10.82184860439998
 30
0.0
 11
46.01817022000001
 21
10.73902031319998
 31
0.0
  0
LINE
  5
7EB
330
1F
100
AcDbEntity
  8
0
  6
CONTINUOUS
100
AcDbLine
 10
45.11711524559999
 20
8.970415676399978
 30
0.0
 11
45.12178418
 21
8.968044026799985
 31
0.0
  0
LINE
  5
7EC
330
1F
100
AcDbEntity
  8
0
  6
CONTINUOUS
100
AcDbLine
 10
44.24957047920001
 20
9.78735252599999
 30
0.0
 11
44.1563920104
 21
9.836384754799977
 31
0.0
  0
LINE
  5
7ED
330
1F
100
AcDbEntity
  8
0
  6
CONTINUOUS
100
AcDbLine
 10
46.01817022000001
 20
10.73902031319998
 30
0.0
 11
46.18261150800001
 21
10.65121977719998
 31
0.0
  0
LINE
  5
7EE
330
1F
100
AcDbEntity
  8
0
  6
CONTINUOUS
100
AcDbLine
 10
44.34039665520002
 20
9.734504428399985
 30
0.0
 11
44.24957047920001
 21
9.78735252599999
 31
0.0
  0
LINE
  5
7EF
330
1F
100
AcDbEntity
  8
0
  6
CONTINUOUS
100
AcDbLine
 10
44.42868811279999
 20
9.67794729559999
 30
0.0
 11
44.34039665520002
 21
9.734504428399985
 31
0.0
  0
LINE
  5
7F0
330
1F
100
AcDbEntity
  8
0
  6
CONTINUOUS
100
AcDbLine
 10
44.51431878
 20
9.617757977199984
 30
0.0
 11
44.42868811279999
 21
9.67794729559999
 31
0.0
  0
LINE
  5
7F1
330
1F
100
AcDbEntity
  8
0
  6
CONTINUOUS
100
AcDbLine
 10
17.6031162936
 20
32.83250812759998
 30
0.0
 11
17.70267836399999
 21
32.71441628599998
 31
0.0
  0
LWPOLYLINE
  5
7F2
330
1F
100
AcDbEntity
  8
0
  6
CONTINUOUS
100
AcDbPolyline
 90
        6
 70
     0
 43
0.0
 10
17.70267836399999
 20
32.71441628599998
 10
17.788678372
 20
32.61069377879998
 10
17.83072422959999
 20
32.55919991959999
 10
17.87323744559999
 20
32.50642618839998
 10
17.91621691599999
 20
32.45221236119998
 10
17.95965688079999
 20
32.39640408279999
  0
LINE
  5
7F3
330
1F
100
AcDbEntity
  8
0
  6
CONTINUOUS
100
AcDbLine
 10
26.415040652
 20
20.69814428919998
 30
0.0
 11
27.13675074
 21
15.27151178199998
 31
0.0
  0
LINE
  5
7F4
330
1F
100
AcDbEntity
  8
0
  6
CONTINUOUS
100
AcDbLine
 10
45.46677235760001
 20
49.83551719959997
 30
0.0
 11
45.52172025359999
 21
49.89432916919999
 31
0.0
  0
LINE
  5
7F5
330
1F
100
AcDbEntity
  8
0
  6
CONTINUOUS
100
AcDbLine
 10
45.40882760560001
 20
49.77933028119998
 30
0.0
 11
45.46677235760001
 21
49.83551719959997
 31
0.0
  0
LINE
  5
7F6
330
1F
100
AcDbEntity
  8
0
  6
CONTINUOUS
100
AcDbLine
 10
46.92884534960001
 20
49.14684672759999
 30
0.0
 11
47.05636433519999
 21
49.26003746839997
 31
0.0
  0
LINE
  5
7F7
330
1F
100
AcDbEntity
  8
0
  6
CONTINUOUS
100
AcDbLine
 10
45.34806158800001
 20
49.72592628279999
 30
0.0
 11
45.40882760560001
 21
49.77933028119998
 31
0.0
  0
LINE
  5
7F8
330
1F
100
AcDbEntity
  8
0
  6
CONTINUOUS
100
AcDbLine
 10
46.79659754
 20
49.03845016119998
 30
0.0
 11
46.92884534960001
 21
49.14684672759999
 31
0.0
  0
LINE
  5
7F9
330
1F
100
AcDbEntity
  8
0
  6
CONTINUOUS
100
AcDbLine
 10
45.2846095992
 20
49.6754095148
 30
0.0
 11
45.34806158800001
 21
49.72592628279999
 31
0.0
  0
LINE
  5
7FA
330
1F
100
AcDbEntity
  8
0
  6
CONTINUOUS
100
AcDbLine
 10
46.65993786320002
 20
48.93512019799998
 30
0.0
 11
46.79659754
 21
49.03845016119998
 31
0.0
  0
LINE
  5
7FB
330
1F
100
AcDbEntity
  8
0
  6
CONTINUOUS
100
AcDbLine
 10
46.5190841592
 20
48.83702125399999
 30
0.0
 11
46.65993786320002
 21
48.93512019799998
 31
0.0
  0
LINE
  5
7FC
330
1F
100
AcDbEntity
  8
0
  6
CONTINUOUS
100
AcDbLine
 10
46.37411056400001
 20
48.74421556279999
 30
0.0
 11
46.5190841592
 21
48.83702125399999
 31
0.0
  0
LINE
  5
7FD
330
1F
100
AcDbEntity
  8
0
  6
CONTINUOUS
100
AcDbLine
 10
46.22536421039999
 20
48.65693627799998
 30
0.0
 11
46.37411056400001
 21
48.74421556279999
 31
0.0
  0
LINE
  5
7FE
330
1F
100
AcDbEntity
  8
0
  6
CONTINUOUS
100
AcDbLine
 10
46.18261150800001
 20
10.65121977719998
 30
0.0
 11
46.3418821288
 21
10.55868121879998
 31
0.0
  0
LINE
  5
7FF
330
1F
100
AcDbEntity
  8
0
  6
CONTINUOUS
100
AcDbLine
 10
46.3418821288
 20
10.55868121879998
 30
0.0
 11
46.4957962744
 21
10.46164669239997
 31
0.0
  0
LINE
  5
800
330
1F
100
AcDbEntity
  8
0
  6
CONTINUOUS
100
AcDbLine
 10
46.4957962744
 20
10.46164669239997
 30
0.0
 11
46.64417475600002
 21
10.36036958039998
 31
0.0
  0
LINE
  5
801
330
1F
100
AcDbEntity
  8
0
  6
CONTINUOUS
100
AcDbLine
 10
46.64417475600002
 20
10.36036958039998
 30
0.0
 11
46.7868443864
 21
10.25511721879998
 31
0.0
  0
LINE
  5
802
330
1F
100
AcDbEntity
  8
0
  6
CONTINUOUS
100
AcDbLine
 10
44.597087196
 20
9.554071748399989
 30
0.0
 11
44.51431878
 21
9.617757977199984
 31
0.0
  0
LINE
  5
803
330
1F
100
AcDbEntity
  8
0
  6
CONTINUOUS
100
AcDbLine
 10
46.7868443864
 20
10.25511721879998
 30
0.0
 11
46.92366220400002
 21
10.14615373719997
 31
0.0
  0
LINE
  5
804
330
1F
100
AcDbEntity
  8
0
  6
CONTINUOUS
100
AcDbLine
 10
44.67680667920002
 20
9.487030468399977
 30
0.0
 11
44.597087196
 21
9.554071748399989
 31
0.0
  0
LINE
  5
805
330
1F
100
AcDbEntity
  8
0
  6
CONTINUOUS
100
AcDbLine
 10
46.92366220400002
 20
10.14615373719997
 30
0.0
 11
47.05452894320002
 21
10.03372383959998
 31
0.0
  0
LINE
  5
806
330
1F
100
AcDbEntity
  8
0
  6
CONTINUOUS
100
AcDbLine
 10
45.11445363760001
 20
8.972725869999989
 30
0.0
 11
45.11711524559999
 21
8.970415676399978
 31
0.0
  0
LINE
  5
807
330
1F
100
AcDbEntity
  8
0
  6
CONTINUOUS
100
AcDbLine
 10
44.7533513288
 20
9.416736325999989
 30
0.0
 11
44.67680667920002
 21
9.487030468399977
 31
0.0
  0
LINE
  5
808
330
1F
100
AcDbEntity
  8
0
  6
CONTINUOUS
100
AcDbLine
 10
44.82657336880001
 20
9.343315737199985
 30
0.0
 11
44.7533513288
 21
9.416736325999989
 31
0.0
  0
LINE
  5
809
330
1F
100
AcDbEntity
  8
0
  6
CONTINUOUS
100
AcDbLine
 10
44.896289828
 20
9.266945383599987
 30
0.0
 11
44.82657336880001
 21
9.343315737199985
 31
0.0
  0
LINE
  5
80A
330
1F
100
AcDbEntity
  8
0
  6
CONTINUOUS
100
AcDbLine
 10
36.56170476880002
 20
8.861549676399986
 30
0.0
 11
36.56312513520001
 21
8.858236172399982
 31
0.0
  0
LINE
  5
80B
330
1F
100
AcDbEntity
  8
0
  6
CONTINUOUS
100
AcDbLine
 10
36.488634988
 20
50.15769718839997
 30
0.0
 11
36.48802394800001
 21
50.15442224759998
 31
0.0
  0
LINE
  5
80C
330
1F
100
AcDbEntity
  8
0
  6
CONTINUOUS
100
AcDbLine
 10
45.6221977864
 20
50.01941846679999
 30
0.0
 11
45.6674473464
 21
50.08538399479999
 31
0.0
  0
LINE
  5
80D
330
1F
100
AcDbEntity
  8
0
  6
CONTINUOUS
100
AcDbLine
 10
45.57358693200002
 20
49.95569229399997
 30
0.0
 11
45.6221977864
 21
50.01941846679999
 31
0.0
  0
LINE
  5
80E
330
1F
100
AcDbEntity
  8
0
  6
CONTINUOUS
100
AcDbLine
 10
47.4093086568
 20
49.62710011639997
 30
0.0
 11
47.51646453519999
 21
49.75794876279998
 31
0.0
  0
LINE
  5
80F
330
1F
100
AcDbEntity
  8
0
  6
CONTINUOUS
100
AcDbLine
 10
45.52172025359999
 20
49.89432916919999
 30
0.0
 11
45.57358693200002
 21
49.95569229399997
 31
0.0
  0
LINE
  5
810
330
1F
100
AcDbEntity
  8
0
  6
CONTINUOUS
100
AcDbLine
 10
47.2968314936
 20
49.50040857079999
 30
0.0
 11
47.4093086568
 21
49.62710011639997
 31
0.0
  0
LINE
  5
811
330
1F
100
AcDbEntity
  8
0
  6
CONTINUOUS
100
AcDbLine
 10
47.17909081520001
 20
49.37795337079997
 30
0.0
 11
47.2968314936
 21
49.50040857079999
 31
0.0
  0
LINE
  5
812
330
1F
100
AcDbEntity
  8
0
  6
CONTINUOUS
100
AcDbLine
 10
47.05636433519999
 20
49.26003746839997
 30
0.0
 11
47.17909081520001
 21
49.37795337079997
 31
0.0
  0
LINE
  5
815
330
1F
100
AcDbEntity
  8
0
  6
CONTINUOUS
100
AcDbLine
 10
47.05452894320002
 20
10.03372383959998
 30
0.0
 11
47.17936342959999
 21
9.91806775959999
 31
0.0
  0
LINE
  5
816
330
1F
100
AcDbEntity
  8
0
  6
CONTINUOUS
100
AcDbLine
 10
47.17936342959999
 20
9.91806775959999
 30
0.0
 11
47.2981072968
 21
9.799414105199984
 31
0.0
  0
LINE
  5
817
330
1F
100
AcDbEntity
  8
0
  6
CONTINUOUS
100
AcDbLine
 10
47.2981072968
 20
9.799414105199984
 30
0.0
 11
47.41071181359999
 21
9.677989884399989
 31
0.0
  0
LINE
  5
818
330
1F
100
AcDbEntity
  8
0
  6
CONTINUOUS
100
AcDbLine
 10
47.41071181359999
 20
9.677989884399989
 30
0.0
 11
47.51714180240001
 21
9.55401564599998
 31
0.0
  0
LINE
  5
819
330
1F
100
AcDbEntity
  8
0
  6
CONTINUOUS
100
AcDbLine
 10
44.96237970160001
 20
9.18775194999999
 30
0.0
 11
44.896289828
 21
9.266945383599987
 31
0.0
  0
LINE
  5
81A
330
1F
100
AcDbEntity
  8
0
  6
CONTINUOUS
100
AcDbLine
 10
47.51714180240001
 20
9.55401564599998
 30
0.0
 11
47.6173821928
 21
9.427694735599983
 31
0.0
  0
LINE
  5
81B
330
1F
100
AcDbEntity
  8
0
  6
CONTINUOUS
100
AcDbLine
 10
45.02474603440002
 20
9.105834687599978
 30
0.0
 11
44.96237970160001
 21
9.18775194999999
 31
0.0
  0
LINE
  5
81C
330
1F
100
AcDbEntity
  8
0
  6
CONTINUOUS
100
AcDbLine
 10
45.08321063759999
 20
9.021409921199987
 30
0.0
 11
45.02474603440002
 21
9.105834687599978
 31
0.0
  0
LINE
  5
81D
330
1F
100
AcDbEntity
  8
0
  6
CONTINUOUS
100
AcDbLine
 10
45.11421915119999
 20
8.973066321199977
 30
0.0
 11
45.11445363760001
 21
8.972725869999989
 31
0.0
  0
LINE
  5
81E
330
1F
100
AcDbEntity
  8
0
  6
CONTINUOUS
100
AcDbLine
 10
45.1142206776
 20
8.973066335599979
 30
0.0
 11
45.08321063759999
 21
9.021409921199987
 31
0.0
  0
LINE
  5
81F
330
1F
100
AcDbEntity
  8
0
  6
CONTINUOUS
100
AcDbLine
 10
45.7092236968
 20
50.15344579319999
 30
0.0
 11
45.73687006640001
 21
50.20324651799997
 31
0.0
  0
LINE
  5
820
330
1F
100
AcDbEntity
  8
0
  6
CONTINUOUS
100
AcDbLine
 10
47.80425996560001
 20
50.17316024759999
 30
0.0
 11
47.84659414320001
 21
50.24446565719999
 31
0.0
  0
LINE
  5
821
330
1F
100
AcDbEntity
  8
0
  6
CONTINUOUS
100
AcDbLine
 10
45.6674473464
 20
50.08538399479999
 30
0.0
 11
45.7092236968
 21
50.15344579319999
 31
0.0
  0
LINE
  5
822
330
1F
100
AcDbEntity
  8
0
  6
CONTINUOUS
100
AcDbLine
 10
47.7140846792
 20
50.03118885719998
 30
0.0
 11
47.80425996560001
 21
50.17316024759999
 31
0.0
  0
LINE
  5
823
330
1F
100
AcDbEntity
  8
0
  6
CONTINUOUS
100
AcDbLine
 10
47.6181338104
 20
49.89275237719998
 30
0.0
 11
47.7140846792
 21
50.03118885719998
 31
0.0
  0
LINE
  5
824
330
1F
100
AcDbEntity
  8
0
  6
CONTINUOUS
100
AcDbLine
 10
47.51646453519999
 20
49.75794876279998
 30
0.0
 11
47.6181338104
 21
49.89275237719998
 31
0.0
  0
LINE
  5
825
330
1F
100
AcDbEntity
  8
0
  6
CONTINUOUS
100
AcDbLine
 10
62.20646298320001
 20
43.67803269879998
 30
0.0
 11
62.08306318960001
 21
43.62771243319999
 31
0.0
  0
LINE
  5
826
330
1F
100
AcDbEntity
  8
0
  6
CONTINUOUS
100
AcDbLine
 10
62.33301230640002
 20
43.71870646679998
 30
0.0
 11
62.20646298320001
 21
43.67803269879998
 31
0.0
  0
LINE
  5
827
330
1F
100
AcDbEntity
  8
0
  6
CONTINUOUS
100
AcDbLine
 10
47.6173821928
 20
9.427694735599983
 30
0.0
 11
47.711423868
 21
9.299226932399987
 31
0.0
  0
LINE
  5
828
330
1F
100
AcDbEntity
  8
0
  6
CONTINUOUS
100
AcDbLine
 10
47.711423868
 20
9.299226932399987
 30
0.0
 11
47.79926264400002
 21
9.168809922799978
 31
0.0
  0
LINE
  5
829
330
1F
100
AcDbEntity
  8
0
  6
CONTINUOUS
100
AcDbLine
 10
47.79926264400002
 20
9.168809922799978
 30
0.0
 11
47.880900556
 21
9.036637612399983
 31
0.0
  0
LINE
  5
82A
330
1F
100
AcDbEntity
  8
0
  6
CONTINUOUS
100
AcDbLine
 10
47.880900556
 20
9.036637612399983
 30
0.0
 11
47.9202974824
 21
8.968354647599978
 31
0.0
  0
LINE
  5
82B
330
1F
100
AcDbEntity
  8
0
  6
CONTINUOUS
100
AcDbLine
 10
62.08306318960001
 20
43.62771243319999
 30
0.0
 11
61.9635658968
 21
43.56802352439998
 31
0.0
  0
LINE
  5
82C
330
1F
100
AcDbEntity
  8
0
  6
CONTINUOUS
100
AcDbLine
 10
63.48964073520001
 20
40.31272124119998
 30
0.0
 11
63.39896766000002
 21
40.27841883639998
 31
0.0
  0
LINE
  5
82D
330
1F
100
AcDbEntity
  8
0
  6
CONTINUOUS
100
AcDbLine
 10
63.39896766000002
 20
40.27841883639998
 30
0.0
 11
63.30140339120002
 21
40.24742945719999
 31
0.0
  0
LWPOLYLINE
  5
82E
330
1F
100
AcDbEntity
  8
0
  6
CONTINUOUS
100
AcDbPolyline
 90
       41
 70
     0
 43
0.0
 10
67.76480740880001
 20
23.93245446999998
 10
67.6351346264
 20
23.93981493559998
 10
67.56115564879999
 20
23.94462861079998
 10
67.48001865520001
 20
23.95138598679999
 10
67.39072052399999
 20
23.96113860439999
 10
67.2921410264
 20
23.97501508919998
 10
67.2373591896
 20
23.98418672119999
 10
67.1827514888
 20
23.99434791479998
 10
67.1216149368
 20
24.00690009079998
 10
67.06073368080001
 20
24.02063801079998
 10
66.99201493519999
 20
24.03764376439998
 10
66.92368191759999
 20
24.05614125719998
 10
66.84967692239999
 20
24.07797286999998
 10
66.77619782639999
 20
24.10151638199998
 10
66.70409689519999
 20
24.12645770679998
 10
66.6325975096
 20
24.15307105559998
 10
66.56559473839999
 20
24.17978659159999
 10
66.49920008239999
 20
24.20798043639997
 10
66.43711945199999
 20
24.23591442199998
 10
66.37563674
 20
24.26514014519998
 10
66.31630089839998
 20
24.29490012119998
 10
66.25762892719999
 20
24.32594757239998
 10
66.1971382728
 20
24.35978415959998
 10
66.13749274959999
 20
24.39509189079998
 10
66.0711778488
 20
24.43678860759998
 10
66.00612395760001
 20
24.48042630199998
 10
65.93580367120001
 20
24.53093209879998
 10
65.86718279280001
 20
24.58372730039998
 10
65.79869909519999
 20
24.64001147319999
 10
65.73198319439999
 20
24.69838019479998
 10
65.67098362799999
 20
24.75485808119998
 10
65.61145278160001
 20
24.81288012279998
 10
65.55907773359999
 20
24.86630275959999
 10
65.50774702320001
 20
24.92072929559998
 10
65.46171136079999
 20
24.97116465399999
 10
65.4163436584
 20
25.02220159799998
 10
65.3339256136
 20
25.11771520279998
 10
65.25890771920001
 20
25.20718528759998
 10
65.190473196
 20
25.29060695639998
 10
65.1283414936
 20
25.36764313399999
 10
65.07237042959999
 20
25.43795525079998
  0
LINE
  5
82F
330
1F
100
AcDbEntity
  8
0
  6
CONTINUOUS
100
AcDbLine
 10
47.92095882640001
 20
8.966561191599977
 30
0.0
 11
47.9202974696
 21
8.968354647599978
 31
0.0
  0
LINE
  5
830
330
1F
100
AcDbEntity
  8
0
  6
CONTINUOUS
100
AcDbLine
 10
36.56248816400001
 20
8.864577569199978
 30
0.0
 11
36.56170476880002
 21
8.861549676399986
 31
0.0
  0
LINE
  5
831
330
1F
100
AcDbEntity
  8
0
  6
CONTINUOUS
100
AcDbLine
 10
47.84659554160001
 20
50.24446565719999
 30
0.0
 11
47.84738211920001
 21
50.24749272279997
 31
0.0
  0
LINE
  5
834
330
1F
100
AcDbEntity
  8
0
  6
CONTINUOUS
100
AcDbLine
 10
61.848694444
 20
43.49930459639999
 30
0.0
 11
61.7390846008
 21
43.42190990039999
 31
0.0
  0
LINE
  5
835
330
1F
100
AcDbEntity
  8
0
  6
CONTINUOUS
100
AcDbLine
 10
61.9635658968
 20
43.56802352439998
 30
0.0
 11
61.848694444
 21
43.49930459639999
 31
0.0
  0
LINE
  5
836
330
1F
100
AcDbEntity
  8
0
  6
CONTINUOUS
100
AcDbLine
 10
63.67450135760002
 20
40.40039247639997
 30
0.0
 11
63.5798625592
 21
40.35240410999999
 31
0.0
  0
LINE
  5
837
330
1F
100
AcDbEntity
  8
0
  6
CONTINUOUS
100
AcDbLine
 10
63.5798625592
 20
40.35240410999999
 30
0.0
 11
63.48964073520001
 21
40.31272124119998
 31
0.0
  0
LINE
  5
83C
330
1F
100
AcDbEntity
  8
0
  6
CONTINUOUS
100
AcDbLine
 10
61.63537315600002
 20
43.33625306519998
 30
0.0
 11
61.53817051120001
 21
43.24279571159998
 31
0.0
  0
LINE
  5
83D
330
1F
100
AcDbEntity
  8
0
  6
CONTINUOUS
100
AcDbLine
 10
61.7390846008
 20
43.42190990039999
 30
0.0
 11
61.63537315600002
 21
43.33625306519998
 31
0.0
  0
LINE
  5
83E
330
1F
100
AcDbEntity
  8
0
  6
CONTINUOUS
100
AcDbLine
 10
63.87539455120001
 20
40.52665278679997
 30
0.0
 11
63.7731787736
 21
40.45797477879999
 31
0.0
  0
LINE
  5
83F
330
1F
100
AcDbEntity
  8
0
  6
CONTINUOUS
100
AcDbLine
 10
63.7731787736
 20
40.45797477879999
 30
0.0
 11
63.67450135760002
 21
40.40039247639997
 31
0.0
  0
LINE
  5
840
330
1F
100
AcDbEntity
  8
0
  6
CONTINUOUS
100
AcDbLine
 10
36.48802394800001
 20
50.15442224759998
 30
0.0
 11
36.48868342
 21
50.15262809559998
 31
0.0
  0
LINE
  5
841
330
1F
100
AcDbEntity
  8
0
  6
CONTINUOUS
100
AcDbLine
 10
38.69976314639999
 20
8.957844210799988
 30
0.0
 11
38.6721691432
 21
8.90801445239998
 31
0.0
  0
LINE
  5
842
330
1F
100
AcDbEntity
  8
0
  6
CONTINUOUS
100
AcDbLine
 10
36.6047487592
 20
8.935927441199977
 30
0.0
 11
36.56248956240001
 21
8.864577569199978
 31
0.0
  0
LINE
  5
843
330
1F
100
AcDbEntity
  8
0
  6
CONTINUOUS
100
AcDbLine
 10
36.69477475279999
 20
9.077993546799985
 30
0.0
 11
36.6047487592
 21
8.935927441199977
 31
0.0
  0
LINE
  5
844
330
1F
100
AcDbEntity
  8
0
  6
CONTINUOUS
100
AcDbLine
 10
36.790580044
 20
9.216530813999979
 30
0.0
 11
36.69477475279999
 21
9.077993546799985
 31
0.0
  0
LINE
  5
845
330
1F
100
AcDbEntity
  8
0
  6
CONTINUOUS
100
AcDbLine
 10
61.44805272080001
 20
43.14204145719999
 30
0.0
 11
61.3655499416
 21
43.03451958199999
 31
0.0
  0
LINE
  5
846
330
1F
100
AcDbEntity
  8
0
  6
CONTINUOUS
100
AcDbLine
 10
61.53817051120001
 20
43.24279571159998
 30
0.0
 11
61.44805272080001
 21
43.14204145719999
 31
0.0
  0
LINE
  5
849
330
1F
100
AcDbEntity
  8
0
  6
CONTINUOUS
100
AcDbLine
 10
64.08541654480001
 20
40.70270350519997
 30
0.0
 11
63.98038347600002
 21
40.60812098999998
 31
0.0
  0
LINE
  5
84A
330
1F
100
AcDbEntity
  8
0
  6
CONTINUOUS
100
AcDbLine
 10
63.98038347600002
 20
40.60812098999998
 30
0.0
 11
63.87539455120001
 21
40.52665278679997
 31
0.0
  0
LINE
  5
84B
330
1F
100
AcDbEntity
  8
0
  6
CONTINUOUS
100
AcDbLine
 10
63.30140339120002
 20
40.24742945719999
 30
0.0
 11
63.19207751760002
 21
40.21971122839999
 31
0.0
  0
LWPOLYLINE
  5
84D
330
1F
100
AcDbEntity
  8
0
  6
CONTINUOUS
100
AcDbPolyline
 90
       41
 70
     0
 43
0.0
 10
14.8597782552
 20
34.24312710359998
 10
14.9896289208
 20
34.24029663639998
 10
15.063730828
 20
34.23806772279998
 10
15.1450542232
 20
34.23414610359998
 10
15.2346383176
 20
34.22751588599999
 10
15.3336420456
 20
34.21708822999999
 10
15.38871059759999
 20
34.20983404279998
 10
15.443639652
 20
34.20158482039998
 10
15.5051770264
 20
34.19117392759999
 10
15.5665006408
 20
34.17956909879999
 10
15.6357710168
 20
34.16497195479998
 10
15.70470796079999
 20
34.14887051959998
 10
15.779429788
 20
34.12963494359998
 10
15.8536857784
 20
34.10867015639998
 10
15.92661322799999
 20
34.08626031159998
 10
15.9989978504
 20
34.06215846679998
 10
16.06689216399999
 20
34.03779756919998
 10
16.1342303256
 20
34.01193803959998
 10
16.1972480184
 20
33.98618765239999
 10
16.25971324079999
 20
33.95912544759998
 10
16.32005154479999
 20
33.93145439319998
 10
16.3797713144
 20
33.90247347639999
 10
16.4414060008
 20
33.87076859639998
 10
16.5022474104
 20
33.83756397079999
 10
16.5699771096
 20
33.79820701079998
 10
16.6365143048
 20
33.75686624759998
 10
16.70855437999999
 20
33.70884535959999
 10
16.77897598319999
 20
33.65847715479998
 10
16.84938225199999
 20
33.60461731479998
 10
16.9180945496
 20
33.54861250199998
 10
16.98102800719999
 20
33.49429787479998
 10
17.0425475288
 20
33.43838877399999
 10
17.09675509519999
 20
33.38682654359998
 10
17.14995399439999
 20
33.33422458039999
 10
17.19772178159999
 20
33.28542656759998
 10
17.2448430104
 20
33.23600402359998
 10
17.33054422639999
 20
33.14342495159998
 10
17.40863888079999
 20
33.05662745559998
 10
17.479943092
 20
32.97564493559999
 10
17.54472546799999
 20
32.90082405239998
 10
17.60311629359999
 20
32.83250812759998
  0
LINE
  5
84E
330
1F
100
AcDbEntity
  8
0
  6
CONTINUOUS
100
AcDbLine
 10
36.60941954640001
 20
49.95218226359999
 30
0.0
 11
36.69712073200001
 21
49.82166250999999
 31
0.0
  0
LINE
  5
84F
330
1F
100
AcDbEntity
  8
0
  6
CONTINUOUS
100
AcDbLine
 10
36.5279218824
 20
50.08445082999999
 30
0.0
 11
36.60941954640001
 21
49.95218226359999
 31
0.0
  0
LINE
  5
850
330
1F
100
AcDbEntity
  8
0
  6
CONTINUOUS
100
AcDbLine
 10
36.4886834072
 20
50.15262809559998
 30
0.0
 11
36.5279218824
 21
50.08445082999999
 31
0.0
  0
LINE
  5
851
330
1F
100
AcDbEntity
  8
0
  6
CONTINUOUS
100
AcDbLine
 10
47.92035122959999
 20
8.963285609199983
 30
0.0
 11
47.92095882640001
 21
8.966561191599977
 31
0.0
  0
LINE
  5
852
330
1F
100
AcDbEntity
  8
0
  6
CONTINUOUS
100
AcDbLine
 10
61.29115518800001
 20
42.92078765559999
 30
0.0
 11
61.225527036
 21
42.80182906839998
 31
0.0
  0
LINE
  5
853
330
1F
100
AcDbEntity
  8
0
  6
CONTINUOUS
100
AcDbLine
 10
38.74146792720001
 20
9.02594988759999
 30
0.0
 11
38.69976314639999
 21
8.957844210799988
 31
0.0
  0
LINE
  5
854
330
1F
100
AcDbEntity
  8
0
  6
CONTINUOUS
100
AcDbLine
 10
61.3655499416
 20
43.03451958199999
 30
0.0
 11
61.29115518800001
 21
42.92078765559999
 31
0.0
  0
LINE
  5
855
330
1F
100
AcDbEntity
  8
0
  6
CONTINUOUS
100
AcDbLine
 10
38.78664811760001
 20
9.091962946799979
 30
0.0
 11
38.74146792720001
 21
9.02594988759999
 31
0.0
  0
LINE
  5
856
330
1F
100
AcDbEntity
  8
0
  6
CONTINUOUS
100
AcDbLine
 10
36.89210755600002
 20
9.35144123159999
 30
0.0
 11
36.790580044
 21
9.216530813999979
 31
0.0
  0
LINE
  5
857
330
1F
100
AcDbEntity
  8
0
  6
CONTINUOUS
100
AcDbLine
 10
38.83519195599999
 20
9.155740185199986
 30
0.0
 11
38.78664811760001
 21
9.091962946799979
 31
0.0
  0
LINE
  5
858
330
1F
100
AcDbEntity
  8
0
  6
CONTINUOUS
100
AcDbLine
 10
36.99912582479999
 20
9.482402449199978
 30
0.0
 11
36.89210755600002
 21
9.35144123159999
 31
0.0
  0
LINE
  5
859
330
1F
100
AcDbEntity
  8
0
  6
CONTINUOUS
100
AcDbLine
 10
64.27312333360001
 20
40.91499630679997
 30
0.0
 11
64.18347832239999
 21
40.80547172919999
 31
0.0
  0
LINE
  5
85A
330
1F
100
AcDbEntity
  8
0
  6
CONTINUOUS
100
AcDbLine
 10
37.1114697464
 20
9.609212161199989
 30
0.0
 11
36.99912582479999
 21
9.482402449199978
 31
0.0
  0
LINE
  5
85B
330
1F
100
AcDbEntity
  8
0
  6
CONTINUOUS
100
AcDbLine
 10
64.18347832239999
 20
40.80547172919999
 30
0.0
 11
64.08541654480001
 21
40.70270350519997
 31
0.0
  0
LINE
  5
85C
330
1F
100
AcDbEntity
  8
0
  6
CONTINUOUS
100
AcDbLine
 10
37.22908163439999
 20
9.731791063599983
 30
0.0
 11
37.1114697464
 21
9.609212161199989
 31
0.0
  0
LWPOLYLINE
  5
85F
330
1F
100
AcDbEntity
  8
0
  6
CONTINUOUS
100
AcDbPolyline
 90
       17
 70
     0
 43
0.0
 10
68.76042960239999
 20
43.94822631799998
 10
68.7314956136
 20
43.92167911959997
 10
68.709466652
 20
43.85128537719997
 10
68.69518179120001
 20
43.7397263644
 10
68.68915526160001
 20
43.58829713719997
 10
68.69182740720001
 20
43.40806226519997
 10
68.70291552719999
 20
43.20354435479997
 10
68.7219972808
 20
42.98253342839998
 10
68.74887664880001
 20
42.74933670199998
 10
68.7815896216
 20
42.52099329879998
 10
68.8192995544
 20
42.30215503959998
 10
68.86057008879999
 20
42.10115740279998
 10
68.90460978479999
 20
41.92279665719998
 10
68.94820076880001
 20
41.78010519159998
 10
68.9904425464
 20
41.67513906839999
 10
69.02972614320001
 20
41.61189641079999
 10
69.0651283256
 20
41.59285295159999
  0
LWPOLYLINE
  5
860
330
1F
100
AcDbEntity
  8
0
  6
CONTINUOUS
100
AcDbPolyline
 90
       17
 70
     0
 43
0.0
 10
69.0651283112
 20
41.59285294999999
 10
69.09406229999999
 20
41.61940014839998
 10
69.11609126159999
 20
41.68979389079997
 10
69.13037612240001
 20
41.80135290359998
 10
69.13640265199998
 20
41.95278213079997
 10
69.13373050640001
 20
42.13301700279997
 10
69.1226423864
 20
42.33753491319997
 10
69.1035606328
 20
42.55854583959997
 10
69.07668126479999
 20
42.791742566
 10
69.04396829199999
 20
43.02008596759999
 10
69.00625835919999
 20
43.23892422839999
 10
68.96498782480001
 20
43.43992186519999
 10
68.9209481288
 20
43.61828261079999
 10
68.87735714479998
 20
43.76097407639998
 10
68.83511536719999
 20
43.86594019959999
 10
68.79583177040001
 20
43.92918285719999
 10
68.76042958799999
 20
43.94822631479998
  0
LINE
  5
861
330
1F
100
AcDbEntity
  8
0
  6
CONTINUOUS
100
AcDbLine
 10
62.46194293040001
 20
43.74952332119998
 30
0.0
 11
62.33301230640002
 21
43.71870646679998
 31
0.0
  0
LINE
  5
862
330
1F
100
AcDbEntity
  8
0
  6
CONTINUOUS
100
AcDbLine
 10
63.19207751760002
 20
40.21971122839999
 30
0.0
 11
63.06771841360001
 21
40.19696781399999
 31
0.0
  0
LINE
  5
865
330
1F
100
AcDbEntity
  8
0
  6
CONTINUOUS
100
AcDbLine
 10
63.06771841360001
 20
40.19696781399999
 30
0.0
 11
62.93627700400001
 21
40.18294340919998
 31
0.0
  0
LINE
  5
866
330
1F
100
AcDbEntity
  8
0
  6
CONTINUOUS
100
AcDbLine
 10
37.10991776719999
 20
49.321000198
 30
0.0
 11
37.22854056400002
 21
49.20221197399998
 31
0.0
  0
LINE
  5
867
330
1F
100
AcDbEntity
  8
0
  6
CONTINUOUS
100
AcDbLine
 10
36.99743807440001
 20
49.44255273879999
 30
0.0
 11
37.10991776719999
 21
49.321000198
 31
0.0
  0
LINE
  5
868
330
1F
100
AcDbEntity
  8
0
  6
CONTINUOUS
100
AcDbLine
 10
36.89113642800001
 20
49.56664897399999
 30
0.0
 11
36.99743807440001
 21
49.44255273879999
 31
0.0
  0
LINE
  5
869
330
1F
100
AcDbEntity
  8
0
  6
CONTINUOUS
100
AcDbLine
 10
36.7910276792
 20
49.69308550519999
 30
0.0
 11
36.89113642800001
 21
49.56664897399999
 31
0.0
  0
LINE
  5
86A
330
1F
100
AcDbEntity
  8
0
  6
CONTINUOUS
100
AcDbLine
 10
39.38408873520002
 20
50.012104294
 30
0.0
 11
39.44636892080001
 21
49.93012151959998
 31
0.0
  0
LINE
  5
86B
330
1F
100
AcDbEntity
  8
0
  6
CONTINUOUS
100
AcDbLine
 10
36.69712073200001
 20
49.82166250999999
 30
0.0
 11
36.7910276792
 21
49.69308550519999
 31
0.0
  0
LINE
  5
86C
330
1F
100
AcDbEntity
  8
0
  6
CONTINUOUS
100
AcDbLine
 10
39.32571291120002
 20
50.09659047319998
 30
0.0
 11
39.38408873520002
 21
50.012104294
 31
0.0
  0
LINE
  5
86D
330
1F
100
AcDbEntity
  8
0
  6
CONTINUOUS
100
AcDbLine
 10
39.29475523440002
 20
50.14496664279999
 30
0.0
 11
39.2945211064
 21
50.14530733879998
 31
0.0
  0
LINE
  5
86E
330
1F
100
AcDbEntity
  8
0
  6
CONTINUOUS
100
AcDbLine
 10
39.2947537096
 20
50.14496662839999
 30
0.0
 11
39.32571291120002
 21
50.09659047319998
 31
0.0
  0
LINE
  5
86F
330
1F
100
AcDbEntity
  8
0
  6
CONTINUOUS
100
AcDbLine
 10
61.16897096240002
 20
42.67823230999998
 30
0.0
 11
61.12181362480002
 21
42.55071688439999
 31
0.0
  0
LINE
  5
870
330
1F
100
AcDbEntity
  8
0
  6
CONTINUOUS
100
AcDbLine
 10
61.225527036
 20
42.80182906839998
 30
0.0
 11
61.16897096240002
 21
42.67823230999998
 31
0.0
  0
LINE
  5
871
330
1F
100
AcDbEntity
  8
0
  6
CONTINUOUS
100
AcDbLine
 10
64.42508748399998
 20
41.151317862
 30
0.0
 11
64.3538293
 21
41.03055133079998
 31
0.0
  0
LINE
  5
872
330
1F
100
AcDbEntity
  8
0
  6
CONTINUOUS
100
AcDbLine
 10
64.3538293
 20
41.03055133079998
 30
0.0
 11
64.27312333360001
 21
40.91499630679997
 31
0.0
  0
LINE
  5
873
330
1F
100
AcDbEntity
  8
0
  6
CONTINUOUS
100
AcDbLine
 10
38.88699410000001
 20
9.217157797999986
 30
0.0
 11
38.83519195599999
 21
9.155740185199986
 31
0.0
  0
LINE
  5
874
330
1F
100
AcDbEntity
  8
0
  6
CONTINUOUS
100
AcDbLine
 10
38.9418801416
 20
9.276027498799988
 30
0.0
 11
38.88699410000001
 21
9.217157797999986
 31
0.0
  0
LINE
  5
878
330
1F
100
AcDbEntity
  8
0
  6
CONTINUOUS
100
AcDbLine
 10
38.9997657976
 20
9.332275295599982
 30
0.0
 11
38.9418801416
 21
9.276027498799988
 31
0.0
  0
LINE
  5
879
330
1F
100
AcDbEntity
  8
0
  6
CONTINUOUS
100
AcDbLine
 10
37.3516840904
 20
9.84983591319998
 30
0.0
 11
37.22908163439999
 21
9.731791063599983
 31
0.0
  0
LINE
  5
87A
330
1F
100
AcDbEntity
  8
0
  6
CONTINUOUS
100
AcDbLine
 10
37.47908401999999
 20
9.963160639599989
 30
0.0
 11
37.3516840904
 21
9.84983591319998
 31
0.0
  0
LINE
  5
87B
330
1F
100
AcDbEntity
  8
0
  6
CONTINUOUS
100
AcDbLine
 10
39.06047564240001
 20
9.385743143599979
 30
0.0
 11
38.9997657976
 21
9.332275295599982
 31
0.0
  0
LINE
  5
87C
330
1F
100
AcDbEntity
  8
0
  6
CONTINUOUS
100
AcDbLine
 10
37.61121780720001
 20
10.07169616759997
 30
0.0
 11
37.47908401999999
 21
9.963160639599989
 31
0.0
  0
LINE
  5
87D
330
1F
100
AcDbEntity
  8
0
  6
CONTINUOUS
100
AcDbLine
 10
37.747768788
 20
10.17516973239997
 30
0.0
 11
37.61121780720001
 21
10.07169616759997
 31
0.0
  0
LINE
  5
87E
330
1F
100
AcDbEntity
  8
0
  6
CONTINUOUS
100
AcDbLine
 10
37.88851929040002
 20
10.27341668759998
 30
0.0
 11
37.747768788
 21
10.17516973239997
 31
0.0
  0
LINE
  5
87F
330
1F
100
AcDbEntity
  8
0
  6
CONTINUOUS
100
AcDbLine
 10
62.592480924
 20
43.77034062999998
 30
0.0
 11
62.46194293040001
 21
43.74952332119998
 31
0.0
  0
LINE
  5
880
330
1F
100
AcDbEntity
  8
CENTER
100
AcDbLine
 10
74.2450131848
 20
43.46033514679997
 30
0.0
 11
67.51296520080001
 21
42.58945566839999
 31
0.0
  0
LINE
  5
882
330
1F
100
AcDbEntity
  8
CENTER
100
AcDbLine
 10
60.09564828789764
 20
41.6356685658277
 30
0.0
 11
65.63437306624826
 21
42.34055853860825
 31
0.0
  0
LINE
  5
883
330
1F
100
AcDbEntity
  8
0
  6
CONTINUOUS
100
AcDbLine
 10
62.71846171280001
 20
43.78089093719999
 30
0.0
 11
62.592480924
 21
43.77034062999998
 31
0.0
  0
LINE
  5
884
330
1F
100
AcDbEntity
  8
0
  6
CONTINUOUS
100
AcDbLine
 10
62.93627700400001
 20
40.18294340919998
 30
0.0
 11
62.80377355760002
 21
40.17899107479998
 31
0.0
  0
LINE
  5
885
330
1F
100
AcDbEntity
  8
0
  6
CONTINUOUS
100
AcDbLine
 10
62.80377355760002
 20
40.17899107479998
 30
0.0
 11
62.67099238000001
 21
40.18517541879996
 31
0.0
  0
LINE
  5
886
330
1F
100
AcDbEntity
  8
0
  6
CONTINUOUS
100
AcDbLine
 10
37.62072131439999
 20
48.86472229879998
 30
0.0
 11
37.76328730160001
 21
48.75931145719999
 31
0.0
  0
LINE
  5
887
330
1F
100
AcDbEntity
  8
0
  6
CONTINUOUS
100
AcDbLine
 10
37.48401186320001
 20
48.97383848919999
 30
0.0
 11
37.62072131439999
 21
48.86472229879998
 31
0.0
  0
LINE
  5
888
330
1F
100
AcDbEntity
  8
0
  6
CONTINUOUS
100
AcDbLine
 10
37.3532579704
 20
49.08641516759998
 30
0.0
 11
37.48401186320001
 21
48.97383848919999
 31
0.0
  0
LINE
  5
889
330
1F
100
AcDbEntity
  8
0
  6
CONTINUOUS
100
AcDbLine
 10
39.65515646640001
 20
49.700917534
 30
0.0
 11
39.73162718000001
 21
49.63054296599999
 31
0.0
  0
LINE
  5
88A
330
1F
100
AcDbEntity
  8
0
  6
CONTINUOUS
100
AcDbLine
 10
37.22854056400002
 20
49.20221197399998
 30
0.0
 11
37.3532579704
 21
49.08641516759998
 31
0.0
  0
LINE
  5
88B
330
1F
100
AcDbEntity
  8
0
  6
CONTINUOUS
100
AcDbLine
 10
39.58201164720001
 20
49.77441505559998
 30
0.0
 11
39.65515646640001
 21
49.700917534
 31
0.0
  0
LINE
  5
88C
330
1F
100
AcDbEntity
  8
0
  6
CONTINUOUS
100
AcDbLine
 10
39.512375508
 20
49.85085865239999
 30
0.0
 11
39.58201164720001
 21
49.77441505559998
 31
0.0
  0
LINE
  5
88D
330
1F
100
AcDbEntity
  8
0
  6
CONTINUOUS
100
AcDbLine
 10
39.44636892080001
 20
49.93012151959998
 30
0.0
 11
39.512375508
 21
49.85085865239999
 31
0.0
  0
LINE
  5
88E
330
1F
100
AcDbEntity
  8
0
  6
CONTINUOUS
100
AcDbLine
 10
47.84738211920001
 20
50.24749272279997
 30
0.0
 11
47.84596523600002
 21
50.25080771799999
 31
0.0
  0
LINE
  5
88F
330
1F
100
AcDbEntity
  8
0
  6
CONTINUOUS
100
AcDbLine
 10
61.08430497200002
 20
42.41993735319998
 30
0.0
 11
61.05665046319999
 21
42.28647956279998
 31
0.0
  0
LINE
  5
890
330
1F
100
AcDbEntity
  8
0
  6
CONTINUOUS
100
AcDbLine
 10
61.12181362480002
 20
42.55071688439999
 30
0.0
 11
61.08430497200002
 21
42.41993735319998
 31
0.0
  0
LINE
  5
891
330
1F
100
AcDbEntity
  8
0
  6
CONTINUOUS
100
AcDbLine
 10
64.5379510136
 20
41.40596320279998
 30
0.0
 11
64.48653122639999
 21
41.27659531159999
 31
0.0
  0
LINE
  5
892
330
1F
100
AcDbEntity
  8
0
  6
CONTINUOUS
100
AcDbLine
 10
64.48653122639999
 20
41.27659531159999
 30
0.0
 11
64.42508748399998
 21
41.151317862
 31
0.0
  0
LINE
  5
895
330
1F
100
AcDbEntity
  8
0
  6
CONTINUOUS
100
AcDbLine
 10
39.123874492
 20
9.436326586799976
 30
0.0
 11
39.06047564240001
 21
9.385743143599979
 31
0.0
  0
LINE
  5
896
330
1F
100
AcDbEntity
  8
0
  6
CONTINUOUS
100
AcDbLine
 10
38.6385105208
 20
8.886072127599986
 30
0.0
 11
38.613900092
 21
8.867626985199988
 31
0.0
  0
LINE
  5
897
330
1F
100
AcDbEntity
  8
0
  6
CONTINUOUS
100
AcDbLine
 10
39.1898349592
 20
9.483933223599988
 30
0.0
 11
39.123874492
 21
9.436326586799976
 31
0.0
  0
LINE
  5
898
330
1F
100
AcDbEntity
  8
0
  6
CONTINUOUS
100
AcDbLine
 10
39.25814229040001
 20
9.528420137199985
 30
0.0
 11
39.1898349592
 21
9.483933223599988
 31
0.0
  0
LINE
  5
899
330
1F
100
AcDbEntity
  8
0
  6
CONTINUOUS
100
AcDbLine
 10
38.0333952472
 20
10.36637472599998
 30
0.0
 11
37.88851929040002
 21
10.27341668759998
 31
0.0
  0
LINE
  5
89A
330
1F
100
AcDbEntity
  8
0
  6
CONTINUOUS
100
AcDbLine
 10
38.6095901944
 20
8.864904815599983
 30
0.0
 11
38.613900092
 21
8.867626985199988
 31
0.0
  0
LINE
  5
89B
330
1F
100
AcDbEntity
  8
0
  6
CONTINUOUS
100
AcDbLine
 10
38.6674893112
 20
8.903965289199986
 30
0.0
 11
38.6385105208
 21
8.886072127599986
 31
0.0
  0
LINE
  5
89C
330
1F
100
AcDbEntity
  8
0
  6
CONTINUOUS
100
AcDbLine
 10
38.1820497704
 20
10.45381032759997
 30
0.0
 11
38.0333952472
 21
10.36637472599998
 31
0.0
  0
LINE
  5
89D
330
1F
100
AcDbEntity
  8
0
  6
CONTINUOUS
100
AcDbLine
 10
39.32870318159999
 20
9.569736877999984
 30
0.0
 11
39.25814229040001
 21
9.528420137199985
 31
0.0
  0
LINE
  5
89E
330
1F
100
AcDbEntity
  8
0
  6
CONTINUOUS
100
AcDbLine
 10
38.3342456536
 20
10.53558462679998
 30
0.0
 11
38.1820497704
 21
10.45381032759997
 31
0.0
  0
LINE
  5
89F
330
1F
100
AcDbEntity
  8
0
  6
CONTINUOUS
100
AcDbLine
 10
38.48989279119999
 20
10.61164030519998
 30
0.0
 11
38.3342456536
 21
10.53558462679998
 31
0.0
  0
LINE
  5
8A0
330
1F
100
AcDbEntity
  8
0
  6
CONTINUOUS
100
AcDbLine
 10
38.64862234960001
 20
10.68178797239998
 30
0.0
 11
38.48989279119999
 21
10.61164030519998
 31
0.0
  0
LWPOLYLINE
  5
8A1
330
1F
100
AcDbEntity
  8
0
  6
CONTINUOUS
100
AcDbPolyline
 90
       41
 70
     0
 43
0.0
 10
67.9564534136
 20
21.52377381079998
 10
67.88630401520001
 20
21.49979189239998
 10
67.80975342479999
 20
21.47206297079998
 10
67.72610822159998
 20
21.43930987159998
 10
67.63458209679999
 20
21.40015041079998
 10
67.58410157200001
 20
21.37697947319998
 10
67.5340477688
 20
21.35289888439999
 10
67.47831696559998
 20
21.32480399639998
 10
67.42314250000001
 20
21.29563130359998
 10
67.36125707759999
 20
21.26125591319998
 10
67.30013386479999
 20
21.22554145079998
 10
67.23440728880001
 20
21.18512631959998
 10
67.16963576559999
 20
21.14319624759998
 10
67.1065598792
 20
21.10027717559998
 10
67.0445016376
 20
21.05590142359999
 10
66.98681042800001
 20
21.01260230519998
 10
66.9300925736
 20
20.96803520439998
 10
66.87747086319999
 20
20.92484646359999
 10
66.8257639032
 20
20.88056716119999
 10
66.77626880240001
 20
20.83633327639998
 10
66.72775100079999
 20
20.79103017879998
 10
66.6782066776
 20
20.74255951319997
 10
66.62986262160001
 20
20.69288972599998
 10
66.57675086160001
 20
20.63530986199998
 10
66.5253635912
 20
20.57618606999999
 10
66.47068809999999
 20
20.50905647639999
 10
66.41825131920001
 20
20.44016122199998
 10
66.36685889200001
 20
20.36793418519998
 10
66.31771763919999
 20
20.29415710359998
 10
66.27359984879999
 20
20.22369923479998
 10
66.23130330960001
 20
20.15213476439999
 10
66.1947117048
 20
20.08688011479998
 10
66.1593905176
 20
20.02092941879998
 10
66.12813715280001
 20
19.96021510359999
 10
66.0976857592
 20
19.89909469559998
 10
66.04309656879999
 20
19.78535998999999
 10
65.99407072560001
 20
19.67939287639998
 10
65.9498185624
 20
19.58098460599998
 10
65.90998119119999
 20
19.49038721399998
 10
65.87433287440001
 20
19.40789033399998
 10
65.81402274960002
 20
19.26569001239998
  0
LINE
  5
8A2
330
1F
100
AcDbEntity
  8
0
  6
CONTINUOUS
100
AcDbLine
 10
62.83123205679999
 20
43.78271018039997
 30
0.0
 11
62.71846171280001
 21
43.78089093719999
 31
0.0
  0
LINE
  5
8A3
330
1F
100
AcDbEntity
  8
0
  6
CONTINUOUS
100
AcDbLine
 10
62.93350458480001
 20
43.77829789879998
 30
0.0
 11
62.83123205679999
 21
43.78271018039997
 31
0.0
  0
LINE
  5
8A4
330
1F
100
AcDbEntity
  8
0
  6
CONTINUOUS
100
AcDbLine
 10
62.67099238000001
 20
40.18517541879996
 30
0.0
 11
62.53872999760001
 21
40.20149412279998
 31
0.0
  0
LINE
  5
8A5
330
1F
100
AcDbEntity
  8
0
  6
CONTINUOUS
100
AcDbLine
 10
62.53872999760001
 20
40.20149412279998
 30
0.0
 11
62.40778582639999
 21
40.2278757948
 31
0.0
  0
LINE
  5
8A6
330
1F
100
AcDbEntity
  8
0
  6
CONTINUOUS
100
AcDbLine
 10
62.40778582639999
 20
40.2278757948
 30
0.0
 11
62.2789465656
 21
40.26418263799998
 31
0.0
  0
LINE
  5
8A7
330
1F
100
AcDbEntity
  8
0
  6
CONTINUOUS
100
AcDbLine
 10
38.73237855120002
 20
48.21914554359999
 30
0.0
 11
38.91099308560002
 21
48.14676508919998
 31
0.0
  0
LINE
  5
8A8
330
1F
100
AcDbEntity
  8
0
  6
CONTINUOUS
100
AcDbLine
 10
38.55826902160002
 20
48.29696120919997
 30
0.0
 11
38.73237855120002
 21
48.21914554359999
 31
0.0
  0
LINE
  5
8A9
330
1F
100
AcDbEntity
  8
0
  6
CONTINUOUS
100
AcDbLine
 10
38.388929596
 20
48.37997344279999
 30
0.0
 11
38.55826902160002
 21
48.29696120919997
 31
0.0
  0
LINE
  5
8AA
330
1F
100
AcDbEntity
  8
0
  6
CONTINUOUS
100
AcDbLine
 10
38.224570548
 20
48.4679533212
 30
0.0
 11
38.388929596
 21
48.37997344279999
 31
0.0
  0
LINE
  5
8AB
330
1F
100
AcDbEntity
  8
0
  6
CONTINUOUS
100
AcDbLine
 10
38.06538786479999
 20
48.56066636919997
 30
0.0
 11
38.224570548
 21
48.4679533212
 31
0.0
  0
LINE
  5
8AC
330
1F
100
AcDbEntity
  8
0
  6
CONTINUOUS
100
AcDbLine
 10
40.06777687120002
 20
49.38271550679998
 30
0.0
 11
40.1585474424
 21
49.32977195959999
 31
0.0
  0
LINE
  5
8AD
330
1F
100
AcDbEntity
  8
0
  6
CONTINUOUS
100
AcDbLine
 10
37.91156713199999
 20
48.65787028919998
 30
0.0
 11
38.06538786479999
 21
48.56066636919997
 31
0.0
  0
LINE
  5
8AE
330
1F
100
AcDbEntity
  8
0
  6
CONTINUOUS
100
AcDbLine
 10
39.97954491600001
 20
49.43936542039999
 30
0.0
 11
40.06777687120002
 21
49.38271550679998
 31
0.0
  0
LINE
  5
8AF
330
1F
100
AcDbEntity
  8
0
  6
CONTINUOUS
100
AcDbLine
 10
37.76328730160001
 20
48.75931145719999
 30
0.0
 11
37.91156713199999
 21
48.65787028919998
 31
0.0
  0
LINE
  5
8B0
330
1F
100
AcDbEntity
  8
0
  6
CONTINUOUS
100
AcDbLine
 10
39.89397756720002
 20
49.4996447212
 30
0.0
 11
39.97954491600001
 21
49.43936542039999
 31
0.0
  0
LINE
  5
8B1
330
1F
100
AcDbEntity
  8
0
  6
CONTINUOUS
100
AcDbLine
 10
39.8112761448
 20
49.56341792119999
 30
0.0
 11
39.89397756720002
 21
49.4996447212
 31
0.0
  0
LINE
  5
8B2
330
1F
100
AcDbEntity
  8
0
  6
CONTINUOUS
100
AcDbLine
 10
39.73162718000001
 20
49.63054296599999
 30
0.0
 11
39.8112761448
 21
49.56341792119999
 31
0.0
  0
LINE
  5
8B3
330
1F
100
AcDbEntity
  8
0
  6
CONTINUOUS
100
AcDbLine
 10
39.2945211064
 20
50.14530733879998
 30
0.0
 11
39.29186192879999
 21
50.1476203308
 31
0.0
  0
LINE
  5
8B4
330
1F
100
AcDbEntity
  8
0
  6
CONTINUOUS
100
AcDbLine
 10
65.07237042959999
 20
25.43795525079998
 30
0.0
 11
64.97699035599999
 21
25.55944982039999
 31
0.0
  0
LWPOLYLINE
  5
8B5
330
1F
100
AcDbEntity
  8
0
  6
CONTINUOUS
100
AcDbPolyline
 90
        6
 70
     0
 43
0.0
 10
64.97699035599999
 20
25.55944982039999
 10
64.89466259919999
 20
25.66611050039998
 10
64.85443946640001
 20
25.71904036919999
 10
64.813793924
 20
25.77326564279998
 10
64.77273267120001
 20
25.82894640759998
 10
64.7312668488
 20
25.88623672119999
  0
LINE
  5
8B6
330
1F
100
AcDbEntity
  8
0
  6
CONTINUOUS
100
AcDbLine
 10
61.03452714
 20
41.87993498039999
 30
0.0
 11
61.0472622184
 21
41.74654736599997
 31
0.0
  0
LINE
  5
8B7
330
1F
100
AcDbEntity
  8
0
  6
CONTINUOUS
100
AcDbLine
 10
61.0317114392
 20
42.01523232279997
 30
0.0
 11
61.03452714
 21
41.87993498039999
 31
0.0
  0
LINE
  5
8B8
330
1F
100
AcDbEntity
  8
0
  6
CONTINUOUS
100
AcDbLine
 10
61.0390699944
 20
42.15117142679999
 30
0.0
 11
61.0317114392
 21
42.01523232279997
 31
0.0
  0
LINE
  5
8B9
330
1F
100
AcDbEntity
  8
0
  6
CONTINUOUS
100
AcDbLine
 10
61.05665046319999
 20
42.28647956279998
 30
0.0
 11
61.0390699944
 21
42.15117142679999
 31
0.0
  0
LINE
  5
8BA
330
1F
100
AcDbEntity
  8
0
  6
CONTINUOUS
100
AcDbLine
 10
64.60947347440001
 20
41.67371236759997
 30
0.0
 11
64.579005556
 21
41.53857958839999
 31
0.0
  0
LINE
  5
8BB
330
1F
100
AcDbEntity
  8
0
  6
CONTINUOUS
100
AcDbLine
 10
64.579005556
 20
41.53857958839999
 30
0.0
 11
64.5379510136
 21
41.40596320279998
 31
0.0
  0
LINE
  5
8BC
330
1F
100
AcDbEntity
  8
0
  6
CONTINUOUS
100
AcDbLine
 10
47.91743126480001
 20
8.960069036399984
 30
0.0
 11
47.92035122959999
 21
8.963285609199983
 31
0.0
  0
LINE
  5
8BF
330
1F
100
AcDbEntity
  8
0
  6
CONTINUOUS
100
AcDbLine
 10
39.4013115864
 20
9.607769594799988
 30
0.0
 11
39.32870318159999
 21
9.569736877999984
 31
0.0
  0
LINE
  5
8C0
330
1F
100
AcDbEntity
  8
0
  6
CONTINUOUS
100
AcDbLine
 10
39.47581143279999
 20
9.642445354799987
 30
0.0
 11
39.4013115864
 21
9.607769594799988
 31
0.0
  0
LINE
  5
8C1
330
1F
100
AcDbEntity
  8
0
  6
CONTINUOUS
100
AcDbLine
 10
38.60305799279999
 20
8.862133500399989
 30
0.0
 11
38.6095901944
 21
8.864904815599983
 31
0.0
  0
LINE
  5
8C2
330
1F
100
AcDbEntity
  8
0
  6
CONTINUOUS
100
AcDbLine
 10
39.55206053840002
 20
9.673702468399978
 30
0.0
 11
39.47581143279999
 21
9.642445354799987
 31
0.0
  0
LINE
  5
8C3
330
1F
100
AcDbEntity
  8
0
  6
CONTINUOUS
100
AcDbLine
 10
38.8101804296
 20
10.74591663479998
 30
0.0
 11
38.64862234960001
 21
10.68178797239998
 31
0.0
  0
LINE
  5
8C4
330
1F
100
AcDbEntity
  8
0
  6
CONTINUOUS
100
AcDbLine
 10
39.62982134160001
 20
9.701450097199979
 30
0.0
 11
39.55206053840002
 21
9.673702468399978
 31
0.0
  0
LINE
  5
8C5
330
1F
100
AcDbEntity
  8
0
  6
CONTINUOUS
100
AcDbLine
 10
38.974453956
 20
10.80397459959998
 30
0.0
 11
38.8101804296
 21
10.74591663479998
 31
0.0
  0
LINE
  5
8C6
330
1F
100
AcDbEntity
  8
0
  6
CONTINUOUS
100
AcDbLine
 10
38.59428850000001
 20
8.859338706799986
 30
0.0
 11
38.60305799279999
 21
8.862133500399989
 31
0.0
  0
LINE
  5
8C7
330
1F
100
AcDbEntity
  8
0
  6
CONTINUOUS
100
AcDbLine
 10
39.14107078320001
 20
10.85582297879999
 30
0.0
 11
38.974453956
 21
10.80397459959998
 31
0.0
  0
LINE
  5
8C8
330
1F
100
AcDbEntity
  8
0
  6
CONTINUOUS
100
AcDbLine
 10
39.7089784872
 20
9.725653069999976
 30
0.0
 11
39.62982134160001
 21
9.701450097199979
 31
0.0
  0
LINE
  5
8C9
330
1F
100
AcDbEntity
  8
0
  6
CONTINUOUS
100
AcDbLine
 10
45.09716839760001
 20
48.21054943319997
 30
0.0
 11
45.26592112719999
 21
48.25593198359998
 31
0.0
  0
LINE
  5
8CA
330
1F
100
AcDbEntity
  8
0
  6
CONTINUOUS
100
AcDbLine
 10
44.61884542000002
 20
49.36618776759998
 30
0.0
 11
44.69920178320001
 21
49.38669825879999
 31
0.0
  0
LINE
  5
8CB
330
1F
100
AcDbEntity
  8
0
  6
CONTINUOUS
100
AcDbLine
 10
44.92646806639999
 20
48.17150050039997
 30
0.0
 11
45.09716839760001
 21
48.21054943319997
 31
0.0
  0
LINE
  5
8CC
330
1F
100
AcDbEntity
  8
0
  6
CONTINUOUS
100
AcDbLine
 10
44.75418667439999
 20
48.13887695479998
 30
0.0
 11
44.92646806639999
 21
48.17150050039997
 31
0.0
  0
LINE
  5
8CD
330
1F
100
AcDbEntity
  8
0
  6
CONTINUOUS
100
AcDbLine
 10
44.580583596
 20
48.11272973399998
 30
0.0
 11
44.75418667439999
 21
48.13887695479998
 31
0.0
  0
LINE
  5
8CE
330
1F
100
AcDbEntity
  8
0
  6
CONTINUOUS
100
AcDbLine
 10
43.96203025840001
 20
48.03455155959999
 30
0.0
 11
44.580583596
 21
48.11272973399998
 31
0.0
  0
LINE
  5
8CF
330
1F
100
AcDbEntity
  8
0
  6
CONTINUOUS
100
AcDbLine
 10
43.3425461224
 20
47.96250362999997
 30
0.0
 11
43.96203025840001
 21
48.03455155959999
 31
0.0
  0
LINE
  5
8D0
330
1F
100
AcDbEntity
  8
0
  6
CONTINUOUS
100
AcDbLine
 10
42.7221985096
 20
47.89659377719998
 30
0.0
 11
43.3425461224
 21
47.96250362999997
 31
0.0
  0
LINE
  5
8D1
330
1F
100
AcDbEntity
  8
0
  6
CONTINUOUS
100
AcDbLine
 10
42.10105499279999
 20
47.83682918679999
 30
0.0
 11
42.7221985096
 21
47.89659377719998
 31
0.0
  0
LINE
  5
8D2
330
1F
100
AcDbEntity
  8
0
  6
CONTINUOUS
100
AcDbLine
 10
41.47918299759999
 20
47.78321634999999
 30
0.0
 11
42.10105499279999
 21
47.83682918679999
 31
0.0
  0
LINE
  5
8D3
330
1F
100
AcDbEntity
  8
0
  6
CONTINUOUS
100
AcDbLine
 10
41.27782975279999
 20
47.77031696119998
 30
0.0
 11
41.47918299759999
 21
47.78321635319999
 31
0.0
  0
LINE
  5
8D4
330
1F
100
AcDbEntity
  8
0
  6
CONTINUOUS
100
AcDbLine
 10
41.07376446160001
 20
47.76424751959997
 30
0.0
 11
41.27782975279999
 21
47.77031696119998
 31
0.0
  0
LINE
  5
8D5
330
1F
100
AcDbEntity
  8
0
  6
CONTINUOUS
100
AcDbLine
 10
40.86948114000001
 20
47.76519326839998
 30
0.0
 11
41.07376446160001
 21
47.76424751959997
 31
0.0
  0
LINE
  5
8D6
330
1F
100
AcDbEntity
  8
0
  6
CONTINUOUS
100
AcDbLine
 10
40.6654267544
 20
47.77314768279997
 30
0.0
 11
40.86948114000001
 21
47.76519326839998
 31
0.0
  0
LINE
  5
8D7
330
1F
100
AcDbEntity
  8
0
  6
CONTINUOUS
100
AcDbLine
 10
40.46205208559999
 20
47.78807870519999
 30
0.0
 11
40.6654267544
 21
47.77314768279997
 31
0.0
  0
LINE
  5
8D8
330
1F
100
AcDbEntity
  8
0
  6
CONTINUOUS
100
AcDbLine
 10
63.02999137520002
 20
43.76888662679998
 30
0.0
 11
62.93350458480001
 21
43.77829789879998
 31
0.0
  0
LINE
  5
8D9
330
1F
100
AcDbEntity
  8
0
  6
CONTINUOUS
100
AcDbLine
 10
40.25980528560001
 20
47.80992857399998
 30
0.0
 11
40.46205208559999
 21
47.78807870519999
 31
0.0
  0
LINE
  5
8DA
330
1F
100
AcDbEntity
  8
0
  6
CONTINUOUS
100
AcDbLine
 10
40.05913017360001
 20
47.83861387479997
 30
0.0
 11
40.25980528560001
 21
47.80992857399998
 31
0.0
  0
LINE
  5
8DB
330
1F
100
AcDbEntity
  8
0
  6
CONTINUOUS
100
AcDbLine
 10
63.1274488808
 20
43.75416396599997
 30
0.0
 11
63.02999137520002
 21
43.76888662679998
 31
0.0
  0
LINE
  5
8DC
330
1F
100
AcDbEntity
  8
0
  6
CONTINUOUS
100
AcDbLine
 10
39.860462668
 20
47.87402599159999
 30
0.0
 11
40.05913017360001
 21
47.83861387479997
 31
0.0
  0
LINE
  5
8DD
330
1F
100
AcDbEntity
  8
0
  6
CONTINUOUS
100
AcDbLine
 10
40.848852572
 20
49.07098570679998
 30
0.0
 11
40.9529767928
 21
49.05085597719999
 31
0.0
  0
LINE
  5
8DE
330
1F
100
AcDbEntity
  8
0
  6
CONTINUOUS
100
AcDbLine
 10
63.23134061040001
 20
43.73257893719999
 30
0.0
 11
63.1274488808
 21
43.75416396599997
 31
0.0
  0
LINE
  5
8DF
330
1F
100
AcDbEntity
  8
0
  6
CONTINUOUS
100
AcDbLine
 10
39.66421104880001
 20
47.91603572759997
 30
0.0
 11
39.860462668
 21
47.87402599159999
 31
0.0
  0
LINE
  5
8E0
330
1F
100
AcDbEntity
  8
0
  6
CONTINUOUS
100
AcDbLine
 10
40.74570375440002
 20
49.09544270839997
 30
0.0
 11
40.848852572
 21
49.07098570679998
 31
0.0
  0
LINE
  5
8E1
330
1F
100
AcDbEntity
  8
0
  6
CONTINUOUS
100
AcDbLine
 10
39.47076629040001
 20
47.9644938764
 30
0.0
 11
39.66421104880001
 21
47.91603572759997
 31
0.0
  0
LINE
  5
8E2
330
1F
100
AcDbEntity
  8
0
  6
CONTINUOUS
100
AcDbLine
 10
63.34163810320002
 20
43.70278899799997
 30
0.0
 11
63.23134061040001
 21
43.73257893719999
 31
0.0
  0
LINE
  5
8E3
330
1F
100
AcDbEntity
  8
0
  6
CONTINUOUS
100
AcDbLine
 10
40.64374202159999
 20
49.12417630359998
 30
0.0
 11
40.74570375440002
 21
49.09544270839997
 31
0.0
  0
LINE
  5
8E4
330
1F
100
AcDbEntity
  8
0
  6
CONTINUOUS
100
AcDbLine
 10
39.28051066800001
 20
48.01922985239999
 30
0.0
 11
39.47076629040001
 21
47.9644938764
 31
0.0
  0
LINE
  5
8E5
330
1F
100
AcDbEntity
  8
0
  6
CONTINUOUS
100
AcDbLine
 10
39.1767539144
 20
50.18737646839999
 30
0.0
 11
39.16871988880002
 21
50.18992333559997
 31
0.0
  0
LINE
  5
8E6
330
1F
100
AcDbEntity
  8
0
  6
CONTINUOUS
100
AcDbLine
 10
39.22725062640001
 20
50.16965027639999
 30
0.0
 11
39.280405724
 21
50.15242995639998
 31
0.0
  0
LINE
  5
8E7
330
1F
100
AcDbEntity
  8
0
  6
CONTINUOUS
100
AcDbLine
 10
39.09380911919999
 20
48.08005409719998
 30
0.0
 11
39.28051066800001
 21
48.01922985239999
 31
0.0
  0
LINE
  5
8E8
330
1F
100
AcDbEntity
  8
0
  6
CONTINUOUS
100
AcDbLine
 10
40.54316296080001
 20
49.1571309484
 30
0.0
 11
40.64374202159999
 21
49.12417630359998
 31
0.0
  0
LINE
  5
8E9
330
1F
100
AcDbEntity
  8
0
  6
CONTINUOUS
100
AcDbLine
 10
39.1767539144
 20
50.18737646839999
 30
0.0
 11
39.22725062640001
 21
50.16965027639999
 31
0.0
  0
LINE
  5
8EA
330
1F
100
AcDbEntity
  8
0
  6
CONTINUOUS
100
AcDbLine
 10
39.2871954904
 20
50.14999688599998
 30
0.0
 11
39.280405724
 21
50.15242995639998
 31
0.0
  0
LINE
  5
8EB
330
1F
100
AcDbEntity
  8
0
  6
CONTINUOUS
100
AcDbLine
 10
38.91099308560002
 20
48.14676508919998
 30
0.0
 11
39.09380911919999
 21
48.08005409719998
 31
0.0
  0
LINE
  5
8EC
330
1F
100
AcDbEntity
  8
0
  6
CONTINUOUS
100
AcDbLine
 10
62.2789465656
 20
40.26418263799998
 30
0.0
 11
62.1529184776
 21
40.31023887959999
 31
0.0
  0
LINE
  5
8ED
330
1F
100
AcDbEntity
  8
0
  6
CONTINUOUS
100
AcDbLine
 10
40.44414610960002
 20
49.19424938679999
 30
0.0
 11
40.54316296080001
 21
49.1571309484
 31
0.0
  0
LINE
  5
8EE
330
1F
100
AcDbEntity
  8
0
  6
CONTINUOUS
100
AcDbLine
 10
40.34691875440001
 20
49.23544738519997
 30
0.0
 11
40.44414610960002
 21
49.19424938679999
 31
0.0
  0
LINE
  5
8EF
330
1F
100
AcDbEntity
  8
0
  6
CONTINUOUS
100
AcDbLine
 10
62.1529184776
 20
40.31023887959999
 30
0.0
 11
62.0304243208
 21
40.36581170519998
 31
0.0
  0
LINE
  5
8F0
330
1F
100
AcDbEntity
  8
0
  6
CONTINUOUS
100
AcDbLine
 10
40.25167431599999
 20
49.28064180759999
 30
0.0
 11
40.34691875440001
 21
49.23544738519997
 31
0.0
  0
LINE
  5
8F1
330
1F
100
AcDbEntity
  8
0
  6
CONTINUOUS
100
AcDbLine
 10
39.29186192879999
 20
50.1476203308
 30
0.0
 11
39.2871954904
 21
50.14999688599998
 31
0.0
  0
LINE
  5
8F2
330
1F
100
AcDbEntity
  8
0
  6
CONTINUOUS
100
AcDbLine
 10
40.1585474424
 20
49.32977195959999
 30
0.0
 11
40.25167431599999
 21
49.28064180759999
 31
0.0
  0
LINE
  5
8F3
330
1F
100
AcDbEntity
  8
0
  6
CONTINUOUS
100
AcDbLine
 10
62.0304243208
 20
40.36581170519998
 30
0.0
 11
61.91217393360001
 21
40.43061507799997
 31
0.0
  0
LINE
  5
8F4
330
1F
100
AcDbEntity
  8
0
  6
CONTINUOUS
100
AcDbLine
 10
47.84596523600002
 20
50.25080771799999
 30
0.0
 11
47.84220977359999
 21
50.25402050999999
 31
0.0
  0
LINE
  5
8F5
330
1F
100
AcDbEntity
  8
0
  6
CONTINUOUS
100
AcDbLine
 10
64.63606041360001
 20
42.08520936119997
 30
0.0
 11
64.63801942
 21
41.94768739319998
 31
0.0
  0
LINE
  5
8F7
330
1F
100
AcDbEntity
  8
0
  6
CONTINUOUS
100
AcDbLine
 10
64.63801942
 20
41.94768739319998
 30
0.0
 11
64.6291538296
 21
41.81029072759999
 31
0.0
  0
LINE
  5
8F8
330
1F
100
AcDbEntity
  8
0
  6
CONTINUOUS
100
AcDbLine
 10
64.6291538296
 20
41.81029072759999
 30
0.0
 11
64.60947347440001
 21
41.67371236759997
 31
0.0
  0
LINE
  5
8FA
330
1F
100
AcDbEntity
  8
0
  6
CONTINUOUS
100
AcDbLine
 10
47.91228130159999
 20
8.956922937199989
 30
0.0
 11
47.91743126480001
 21
8.960069036399984
 31
0.0
  0
LINE
  5
8FB
330
1F
100
AcDbEntity
  8
0
  6
CONTINUOUS
100
AcDbLine
 10
47.90497208560001
 20
8.95385001079998
 30
0.0
 11
47.91228130159999
 21
8.956922937199989
 31
0.0
  0
LINE
  5
8FC
330
1F
100
AcDbEntity
  8
0
  6
CONTINUOUS
100
AcDbLine
 10
47.895578516
 20
8.950857591599982
 30
0.0
 11
47.90497208560001
 21
8.95385001079998
 31
0.0
  0
LINE
  5
8FD
330
1F
100
AcDbEntity
  8
0
  6
CONTINUOUS
100
AcDbLine
 10
36.52482699440001
 20
50.17299249719998
 30
0.0
 11
36.51342075279999
 21
50.17009915639999
 31
0.0
  0
LINE
  5
8FE
330
1F
100
AcDbEntity
  8
0
  6
CONTINUOUS
100
AcDbLine
 10
45.82578676080002
 20
50.25462088279998
 30
0.0
 11
45.81480183439999
 21
50.25184036759999
 31
0.0
  0
LINE
  5
8FF
330
1F
100
AcDbEntity
  8
0
  6
CONTINUOUS
100
AcDbLine
 10
36.53819496240002
 20
50.17579573719998
 30
0.0
 11
36.52482699440001
 21
50.17299249719998
 31
0.0
  0
LINE
  5
900
330
1F
100
AcDbEntity
  8
0
  6
CONTINUOUS
100
AcDbLine
 10
45.83896375120001
 20
50.25737821879999
 30
0.0
 11
45.82578676080002
 21
50.25462088279998
 31
0.0
  0
LINE
  5
901
330
1F
100
AcDbEntity
  8
0
  6
CONTINUOUS
100
AcDbLine
 10
44.53750033360001
 20
49.34932775639997
 30
0.0
 11
44.61884542000002
 21
49.36618776759998
 31
0.0
  0
LINE
  5
902
330
1F
100
AcDbEntity
  8
0
  6
CONTINUOUS
100
AcDbLine
 10
36.55344590000002
 20
50.17850022039998
 30
0.0
 11
36.53819496240002
 21
50.17579573719998
 31
0.0
  0
LINE
  5
903
330
1F
100
AcDbEntity
  8
0
  6
CONTINUOUS
100
AcDbLine
 10
45.8542913512
 20
50.2600923564
 30
0.0
 11
45.83896375120001
 21
50.25737821879999
 31
0.0
  0
LINE
  5
904
330
1F
100
AcDbEntity
  8
0
  6
CONTINUOUS
100
AcDbLine
 10
44.45532848720001
 20
49.33614774199999
 30
0.0
 11
44.53750033360001
 21
49.34932775639997
 31
0.0
  0
LINE
  5
905
330
1F
100
AcDbEntity
  8
0
  6
CONTINUOUS
100
AcDbLine
 10
36.57055498
 20
50.18110662519998
 30
0.0
 11
36.55344590000002
 21
50.17850022039998
 31
0.0
  0
LINE
  5
906
330
1F
100
AcDbEntity
  8
0
  6
CONTINUOUS
100
AcDbLine
 10
45.87160128560001
 20
50.26272743959999
 30
0.0
 11
45.8542913512
 21
50.2600923564
 31
0.0
  0
LINE
  5
907
330
1F
100
AcDbEntity
  8
0
  6
CONTINUOUS
100
AcDbLine
 10
45.8906646168
 20
50.2652501084
 30
0.0
 11
45.87160128560001
 21
50.26272743959999
 31
0.0
  0
LINE
  5
908
330
1F
100
AcDbEntity
  8
0
  6
CONTINUOUS
100
AcDbLine
 10
36.58945985520001
 20
50.18360808279997
 30
0.0
 11
36.57055498
 21
50.18110662519998
 31
0.0
  0
LINE
  5
909
330
1F
100
AcDbEntity
  8
0
  6
CONTINUOUS
100
AcDbLine
 10
43.88341206000002
 20
49.26083946039999
 30
0.0
 11
44.45532848720001
 21
49.33614774199999
 31
0.0
  0
LINE
  5
90A
330
1F
100
AcDbEntity
  8
0
  6
CONTINUOUS
100
AcDbLine
 10
43.31050421360002
 20
49.19182115639999
 30
0.0
 11
43.88341206000002
 21
49.26083946039999
 31
0.0
  0
LINE
  5
90B
330
1F
100
AcDbEntity
  8
0
  6
CONTINUOUS
100
AcDbLine
 10
45.91128912560001
 20
50.26764045719999
 30
0.0
 11
45.8906646168
 21
50.2652501084
 31
0.0
  0
LINE
  5
90C
330
1F
100
AcDbEntity
  8
0
  6
CONTINUOUS
100
AcDbLine
 10
36.61012490959999
 20
50.18600130519998
 30
0.0
 11
36.58945985520001
 21
50.18360808279997
 31
0.0
  0
LINE
  5
90D
330
1F
100
AcDbEntity
  8
0
  6
CONTINUOUS
100
AcDbLine
 10
42.73668198319999
 20
49.12910210519997
 30
0.0
 11
43.31050421360002
 21
49.19182115639999
 31
0.0
  0
LINE
  5
90E
330
1F
100
AcDbEntity
  8
0
  6
CONTINUOUS
100
AcDbLine
 10
45.93334878319999
 20
50.26988920119997
 30
0.0
 11
45.91128912560001
 21
50.26764045719999
 31
0.0
  0
LINE
  5
90F
330
1F
100
AcDbEntity
  8
0
  6
CONTINUOUS
100
AcDbLine
 10
36.632537636
 20
50.18828431799999
 30
0.0
 11
36.61012490959999
 21
50.18600130519998
 31
0.0
  0
LINE
  5
910
330
1F
100
AcDbEntity
  8
0
  6
CONTINUOUS
100
AcDbLine
 10
42.162022404
 20
49.07269072119998
 30
0.0
 11
42.73668198319999
 21
49.12910210519997
 31
0.0
  0
LINE
  5
911
330
1F
100
AcDbEntity
  8
0
  6
CONTINUOUS
100
AcDbLine
 10
45.95661396080002
 20
50.27197854679998
 30
0.0
 11
45.93334878319999
 21
50.26988920119997
 31
0.0
  0
LINE
  5
912
330
1F
100
AcDbEntity
  8
0
  6
CONTINUOUS
100
AcDbLine
 10
36.65663939280001
 20
50.19044966199998
 30
0.0
 11
36.632537636
 21
50.18828431799999
 31
0.0
  0
LINE
  5
913
330
1F
100
AcDbEntity
  8
0
  6
CONTINUOUS
100
AcDbLine
 10
41.5866027992
 20
49.02259459479999
 30
0.0
 11
42.162022404
 21
49.07269072119998
 31
0.0
  0
LINE
  5
914
330
1F
100
AcDbEntity
  8
0
  6
CONTINUOUS
100
AcDbLine
 10
36.68245558000001
 20
50.1924968636
 30
0.0
 11
36.65663939280001
 21
50.19044966199998
 31
0.0
  0
LINE
  5
915
330
1F
100
AcDbEntity
  8
0
  6
CONTINUOUS
100
AcDbLine
 10
45.98083637520001
 20
50.27389400439999
 30
0.0
 11
45.95661396080002
 21
50.27197854679998
 31
0.0
  0
LINE
  5
916
330
1F
100
AcDbEntity
  8
0
  6
CONTINUOUS
100
AcDbLine
 10
36.70993973840001
 20
50.19441828759998
 30
0.0
 11
36.68245558000001
 21
50.1924968636
 31
0.0
  0
LINE
  5
917
330
1F
100
AcDbEntity
  8
0
  6
CONTINUOUS
100
AcDbLine
 10
46.00581689360002
 20
50.27562879959997
 30
0.0
 11
45.98083637520001
 21
50.27389400439999
 31
0.0
  0
LINE
  5
918
330
1F
100
AcDbEntity
  8
0
  6
CONTINUOUS
100
AcDbLine
 10
36.7391068872
 20
50.19621026199998
 30
0.0
 11
36.70993973840001
 21
50.19441828759998
 31
0.0
  0
LINE
  5
919
330
1F
100
AcDbEntity
  8
0
  6
CONTINUOUS
100
AcDbLine
 10
46.0314074488
 20
50.27718127639999
 30
0.0
 11
46.00581689360002
 21
50.27562879959997
 31
0.0
  0
LINE
  5
91A
330
1F
100
AcDbEntity
  8
0
  6
CONTINUOUS
100
AcDbLine
 10
41.48099356559999
 20
49.0162187804
 30
0.0
 11
41.5866027992
 21
49.02259459479999
 31
0.0
  0
LINE
  5
91B
330
1F
100
AcDbEntity
  8
0
  6
CONTINUOUS
100
AcDbLine
 10
36.76995998320002
 20
50.19786699479998
 30
0.0
 11
36.7391068872
 21
50.19621026199998
 31
0.0
  0
LINE
  5
91C
330
1F
100
AcDbEntity
  8
0
  6
CONTINUOUS
100
AcDbLine
 10
46.057404276
 20
50.27854761559997
 30
0.0
 11
46.0314074488
 21
50.27718127639999
 31
0.0
  0
LINE
  5
91D
330
1F
100
AcDbEntity
  8
0
  6
CONTINUOUS
100
AcDbLine
 10
36.8024687832
 20
50.19938030999999
 30
0.0
 11
36.76995998320002
 21
50.19786699479998
 31
0.0
  0
LINE
  5
91E
330
1F
100
AcDbEntity
  8
0
  6
CONTINUOUS
100
AcDbLine
 10
46.08368528560002
 20
50.27972978839999
 30
0.0
 11
46.057404276
 21
50.27854761559997
 31
0.0
  0
LINE
  5
91F
330
1F
100
AcDbEntity
  8
0
  6
CONTINUOUS
100
AcDbLine
 10
36.83668576400001
 20
50.2007450604
 30
0.0
 11
36.8024687832
 21
50.19938030999999
 31
0.0
  0
LINE
  5
920
330
1F
100
AcDbEntity
  8
0
  6
CONTINUOUS
100
AcDbLine
 10
46.11008903920001
 20
50.28072849399997
 30
0.0
 11
46.08368528560002
 21
50.27972978839999
 31
0.0
  0
LINE
  5
921
330
1F
100
AcDbEntity
  8
0
  6
CONTINUOUS
100
AcDbLine
 10
36.87256762320002
 20
50.20195106359999
 30
0.0
 11
36.83668576400001
 21
50.2007450604
 31
0.0
  0
LINE
  5
922
330
1F
100
AcDbEntity
  8
0
  6
CONTINUOUS
100
AcDbLine
 10
46.136545676
 20
50.28154833079999
 30
0.0
 11
46.11008903920001
 21
50.28072849399997
 31
0.0
  0
LINE
  5
923
330
1F
100
AcDbEntity
  8
0
  6
CONTINUOUS
100
AcDbLine
 10
36.91015528080002
 20
50.20299051479999
 30
0.0
 11
36.87256762320002
 21
50.20195106359999
 31
0.0
  0
LINE
  5
924
330
1F
100
AcDbEntity
  8
0
  6
CONTINUOUS
100
AcDbLine
 10
46.1629160888
 20
50.28219153399998
 30
0.0
 11
46.136545676
 21
50.28154833079999
 31
0.0
  0
LINE
  5
925
330
1F
100
AcDbEntity
  8
0
  6
CONTINUOUS
100
AcDbLine
 10
36.9494368872
 20
50.20385285879997
 30
0.0
 11
36.91015528080002
 21
50.20299051479999
 31
0.0
  0
LINE
  5
926
330
1F
100
AcDbEntity
  8
0
  6
CONTINUOUS
100
AcDbLine
 10
41.37510026320001
 20
49.01428191479998
 30
0.0
 11
41.48099356559999
 21
49.0162187804
 31
0.0
  0
LINE
  5
927
330
1F
100
AcDbEntity
  8
0
  6
CONTINUOUS
100
AcDbLine
 10
46.18914907280001
 20
50.28266273719999
 30
0.0
 11
46.1629160888
 21
50.28219153399998
 31
0.0
  0
LINE
  5
928
330
1F
100
AcDbEntity
  8
0
  6
CONTINUOUS
100
AcDbLine
 10
36.9904678952
 20
50.20452789239998
 30
0.0
 11
36.9494368872
 21
50.20385285879997
 31
0.0
  0
LINE
  5
929
330
1F
100
AcDbEntity
  8
0
  6
CONTINUOUS
100
AcDbLine
 10
50.20333477520001
 20
51.07020029079997
 30
0.0
 11
24.48532233519999
 21
50.75630741239997
 31
0.0
  0
LINE
  5
92A
330
1F
100
AcDbEntity
  8
0
  6
CONTINUOUS
100
AcDbLine
 10
47.23955333520001
 20
50.29166329559997
 30
0.0
 11
46.18914907280001
 21
50.28266273719999
 31
0.0
  0
LINE
  5
92B
330
1F
100
AcDbEntity
  8
0
  6
CONTINUOUS
100
AcDbLine
 10
38.6943636568
 20
50.21910715799997
 30
0.0
 11
36.9904678952
 21
50.20452789239998
 31
0.0
  0
LINE
  5
92C
330
1F
100
AcDbEntity
  8
0
  6
CONTINUOUS
100
AcDbLine
 10
47.28499658960002
 20
50.29193132759998
 30
0.0
 11
47.23955333520001
 21
50.29166329559997
 31
0.0
  0
LINE
  5
92D
330
1F
100
AcDbEntity
  8
0
  6
CONTINUOUS
100
AcDbLine
 10
38.72104804560002
 20
50.21925142679997
 30
0.0
 11
38.6943636568
 21
50.21910715799997
 31
0.0
  0
LINE
  5
92E
330
1F
100
AcDbEntity
  8
0
  6
CONTINUOUS
100
AcDbLine
 10
47.32864293360001
 20
50.29195910999998
 30
0.0
 11
47.28499658960002
 21
50.29193132759998
 31
0.0
  0
LINE
  5
92F
330
1F
100
AcDbEntity
  8
0
  6
CONTINUOUS
100
AcDbLine
 10
38.74834327120002
 20
50.21923211479999
 30
0.0
 11
38.72104804560002
 21
50.21925142679997
 31
0.0
  0
LINE
  5
930
330
1F
100
AcDbEntity
  8
0
  6
CONTINUOUS
100
AcDbLine
 10
47.37050831600002
 20
50.29176157079998
 30
0.0
 11
47.32864293360001
 21
50.29195910999998
 31
0.0
  0
LINE
  5
931
330
1F
100
AcDbEntity
  8
0
  6
CONTINUOUS
100
AcDbLine
 10
38.77611939440002
 20
50.21904279159999
 30
0.0
 11
38.74834327120002
 21
50.21923211479999
 31
0.0
  0
LINE
  5
932
330
1F
100
AcDbEntity
  8
0
  6
CONTINUOUS
100
AcDbLine
 10
47.4106092232
 20
50.29135218679998
 30
0.0
 11
47.37050831600002
 21
50.29176157079998
 31
0.0
  0
LINE
  5
933
330
1F
100
AcDbEntity
  8
0
  6
CONTINUOUS
100
AcDbLine
 10
38.80432015279999
 20
50.21867688599998
 30
0.0
 11
38.77611939440002
 21
50.21904279159999
 31
0.0
  0
LINE
  5
934
330
1F
100
AcDbEntity
  8
0
  6
CONTINUOUS
100
AcDbLine
 10
47.4489210712
 20
50.29074389399998
 30
0.0
 11
47.4106092232
 21
50.29135218679998
 31
0.0
  0
LINE
  5
935
330
1F
100
AcDbEntity
  8
0
  6
CONTINUOUS
100
AcDbLine
 10
38.83279533679999
 20
50.21812893239998
 30
0.0
 11
38.80432015279999
 21
50.21867688599998
 31
0.0
  0
LINE
  5
936
330
1F
100
AcDbEntity
  8
0
  6
CONTINUOUS
100
AcDbLine
 10
47.485500804
 20
50.28994736919999
 30
0.0
 11
47.4489210712
 21
50.29074389399998
 31
0.0
  0
LINE
  5
937
330
1F
100
AcDbEntity
  8
0
  6
CONTINUOUS
100
AcDbLine
 10
41.26913486960002
 20
49.01678779479998
 30
0.0
 11
41.37510026320001
 21
49.01428191479998
 31
0.0
  0
LINE
  5
938
330
1F
100
AcDbEntity
  8
0
  6
CONTINUOUS
100
AcDbLine
 10
38.86145397039999
 20
50.21739288279999
 30
0.0
 11
38.83279533679999
 21
50.21812893239998
 31
0.0
  0
LINE
  5
939
330
1F
100
AcDbEntity
  8
0
  6
CONTINUOUS
100
AcDbLine
 10
47.5203208808
 20
50.28897381399999
 30
0.0
 11
47.485500804
 21
50.28994736919999
 31
0.0
  0
LINE
  5
93A
330
1F
100
AcDbEntity
  8
0
  6
CONTINUOUS
100
AcDbLine
 10
38.8901022904
 20
50.21646569399997
 30
0.0
 11
38.86145397039999
 21
50.21739288279999
 31
0.0
  0
LINE
  5
93B
330
1F
100
AcDbEntity
  8
0
  6
CONTINUOUS
100
AcDbLine
 10
47.55345434320001
 20
50.28783065079998
 30
0.0
 11
47.5203208808
 21
50.28897381399999
 31
0.0
  0
LINE
  5
93C
330
1F
100
AcDbEntity
  8
0
  6
CONTINUOUS
100
AcDbLine
 10
38.91860205520002
 20
50.21534378039998
 30
0.0
 11
38.8901022904
 21
50.21646569399997
 31
0.0
  0
LINE
  5
93D
330
1F
100
AcDbEntity
  8
0
  6
CONTINUOUS
100
AcDbLine
 10
47.5848674696
 20
50.28652744919999
 30
0.0
 11
47.55345434320001
 21
50.28783065079998
 31
0.0
  0
LINE
  5
93E
330
1F
100
AcDbEntity
  8
0
  6
CONTINUOUS
100
AcDbLine
 10
38.94673914640001
 20
50.21402743479997
 30
0.0
 11
38.91860205520002
 21
50.21534378039998
 31
0.0
  0
LINE
  5
93F
330
1F
100
AcDbEntity
  8
0
  6
CONTINUOUS
100
AcDbLine
 10
47.6145991928
 20
50.28507021399999
 30
0.0
 11
47.5848674696
 21
50.28652744919999
 31
0.0
  0
LINE
  5
940
330
1F
100
AcDbEntity
  8
0
  6
CONTINUOUS
100
AcDbLine
 10
38.97431262800001
 20
50.21251828919999
 30
0.0
 11
38.94673914640001
 21
50.21402743479997
 31
0.0
  0
LINE
  5
941
330
1F
100
AcDbEntity
  8
0
  6
CONTINUOUS
100
AcDbLine
 10
47.64265993359999
 20
50.28346470679998
 30
0.0
 11
47.6145991928
 21
50.28507021399999
 31
0.0
  0
LINE
  5
942
330
1F
100
AcDbEntity
  8
0
  6
CONTINUOUS
100
AcDbLine
 10
39.0010810968
 20
50.21082231479998
 30
0.0
 11
38.97431262800001
 21
50.21251828919999
 31
0.0
  0
LINE
  5
943
330
1F
100
AcDbEntity
  8
0
  6
CONTINUOUS
100
AcDbLine
 10
41.16332340400002
 20
49.02373000439998
 30
0.0
 11
41.26913486960002
 21
49.01678779479998
 31
0.0
  0
LINE
  5
944
330
1F
100
AcDbEntity
  8
0
  6
CONTINUOUS
100
AcDbLine
 10
47.66902760400001
 20
50.2817176844
 30
0.0
 11
47.64265993359999
 21
50.28346470679998
 31
0.0
  0
LINE
  5
945
330
1F
100
AcDbEntity
  8
0
  6
CONTINUOUS
100
AcDbLine
 10
39.02678029840002
 20
50.20895038359999
 30
0.0
 11
39.0010810968
 21
50.21082231479998
 31
0.0
  0
LINE
  5
946
330
1F
100
AcDbEntity
  8
0
  6
CONTINUOUS
100
AcDbLine
 10
47.69374319280002
 20
50.27983052119999
 30
0.0
 11
47.66902760400001
 21
50.2817176844
 31
0.0
  0
LINE
  5
947
330
1F
100
AcDbEntity
  8
0
  6
CONTINUOUS
100
AcDbLine
 10
39.05109355920002
 20
50.20692257239999
 30
0.0
 11
39.02678029840002
 21
50.20895038359999
 31
0.0
  0
LINE
  5
948
330
1F
100
AcDbEntity
  8
0
  6
CONTINUOUS
100
AcDbLine
 10
47.71675080400002
 20
50.27781040919997
 30
0.0
 11
47.69374319280002
 21
50.27983052119999
 31
0.0
  0
LINE
  5
949
330
1F
100
AcDbEntity
  8
0
  6
CONTINUOUS
100
AcDbLine
 10
39.0738539208
 20
50.20475200279999
 30
0.0
 11
39.05109355920002
 21
50.20692257239999
 31
0.0
  0
LINE
  5
94A
330
1F
100
AcDbEntity
  8
0
  6
CONTINUOUS
100
AcDbLine
 10
47.73806514160001
 20
50.27565785559999
 30
0.0
 11
47.71675080400002
 21
50.27781040919997
 31
0.0
  0
LINE
  5
94B
330
1F
100
AcDbEntity
  8
0
  6
CONTINUOUS
100
AcDbLine
 10
41.0578686712
 20
49.035093726
 30
0.0
 11
41.16332340400002
 21
49.02373000439998
 31
0.0
  0
LINE
  5
94C
330
1F
100
AcDbEntity
  8
0
  6
CONTINUOUS
100
AcDbLine
 10
39.09488212240001
 20
50.20245560599999
 30
0.0
 11
39.0738539208
 21
50.20475200279999
 31
0.0
  0
LINE
  5
94D
330
1F
100
AcDbEntity
  8
0
  6
CONTINUOUS
100
AcDbLine
 10
47.7576493432
 20
50.27337647479997
 30
0.0
 11
47.73806514160001
 21
50.27565785559999
 31
0.0
  0
LINE
  5
94E
330
1F
100
AcDbEntity
  8
0
  6
CONTINUOUS
100
AcDbLine
 10
39.1139805256
 20
50.20005696599999
 30
0.0
 11
39.09488212240001
 21
50.20245560599999
 31
0.0
  0
LINE
  5
94F
330
1F
100
AcDbEntity
  8
0
  6
CONTINUOUS
100
AcDbLine
 10
47.7754544328
 20
50.27097076919999
 30
0.0
 11
47.7576493432
 21
50.27337647479997
 31
0.0
  0
LINE
  5
950
330
1F
100
AcDbEntity
  8
0
  6
CONTINUOUS
100
AcDbLine
 10
39.1309922808
 20
50.19758133239999
 30
0.0
 11
39.1139805256
 21
50.20005696599999
 31
0.0
  0
LINE
  5
951
330
1F
100
AcDbEntity
  8
0
  6
CONTINUOUS
100
AcDbLine
 10
40.9529767928
 20
49.05085597719999
 30
0.0
 11
41.0578686712
 21
49.035093726
 31
0.0
  0
LINE
  5
952
330
1F
100
AcDbEntity
  8
0
  6
CONTINUOUS
100
AcDbLine
 10
47.79146542000002
 20
50.26843914679999
 30
0.0
 11
47.7754544328
 21
50.27097076919999
 31
0.0
  0
LINE
  5
953
330
1F
100
AcDbEntity
  8
0
  6
CONTINUOUS
100
AcDbLine
 10
39.14584375600001
 20
50.19504757719999
 30
0.0
 11
39.1309922808
 21
50.19758133239999
 31
0.0
  0
LINE
  5
954
330
1F
100
AcDbEntity
  8
0
  6
CONTINUOUS
100
AcDbLine
 10
47.8056015464
 20
50.2657884124
 30
0.0
 11
47.79146542000002
 21
50.26843914679999
 31
0.0
  0
LINE
  5
955
330
1F
100
AcDbEntity
  8
0
  6
CONTINUOUS
100
AcDbLine
 10
39.15842889199999
 20
50.19248628919998
 30
0.0
 11
39.14584375600001
 21
50.19504757719999
 31
0.0
  0
LINE
  5
956
330
1F
100
AcDbEntity
  8
0
  6
CONTINUOUS
100
AcDbLine
 10
47.8178240808
 20
50.26301694839999
 30
0.0
 11
47.8056015464
 21
50.2657884124
 31
0.0
  0
LINE
  5
957
330
1F
100
AcDbEntity
  8
0
  6
CONTINUOUS
100
AcDbLine
 10
39.16871988880002
 20
50.18992333559997
 30
0.0
 11
39.15842889199999
 21
50.19248628919998
 31
0.0
  0
LINE
  5
958
330
1F
100
AcDbEntity
  8
0
  6
CONTINUOUS
100
AcDbLine
 10
47.82805197840001
 20
50.26012960439998
 30
0.0
 11
47.8178240808
 21
50.26301694839999
 31
0.0
  0
LINE
  5
959
330
1F
100
AcDbEntity
  8
0
  6
CONTINUOUS
100
AcDbLine
 10
63.45825100400001
 20
43.66321382679998
 30
0.0
 11
63.34163810320002
 21
43.70278899799997
 31
0.0
  0
LINE
  5
95A
330
1F
100
AcDbEntity
  8
0
  6
CONTINUOUS
100
AcDbLine
 10
47.83620583280001
 20
50.2571306956
 30
0.0
 11
47.82805197840001
 21
50.26012960439998
 31
0.0
  0
LINE
  5
95B
330
1F
100
AcDbEntity
  8
0
  6
CONTINUOUS
100
AcDbLine
 10
63.58088357200001
 20
43.6120178316
 30
0.0
 11
63.45825100400001
 21
43.66321382679998
 31
0.0
  0
LINE
  5
95C
330
1F
100
AcDbEntity
  8
0
  6
CONTINUOUS
100
AcDbLine
 10
63.7069863464
 20
43.54817490519998
 30
0.0
 11
63.58088357200001
 21
43.6120178316
 31
0.0
  0
LINE
  5
95D
330
1F
100
AcDbEntity
  8
0
  6
CONTINUOUS
100
AcDbLine
 10
47.84220977359999
 20
50.25402050999999
 30
0.0
 11
47.83620583280001
 21
50.2571306956
 31
0.0
  0
LINE
  5
95E
330
1F
100
AcDbEntity
  8
0
  6
CONTINUOUS
100
AcDbLine
 10
61.91217393360001
 20
40.43061507799997
 30
0.0
 11
61.79885497519999
 21
40.50431344439998
 31
0.0
  0
LINE
  5
95F
330
1F
100
AcDbEntity
  8
0
  6
CONTINUOUS
100
AcDbLine
 10
61.79885497519999
 20
40.50431344439998
 30
0.0
 11
61.69111750799999
 21
40.58653449079999
 31
0.0
  0
LINE
  5
960
330
1F
100
AcDbEntity
  8
0
  6
CONTINUOUS
100
AcDbLine
 10
61.69111750799999
 20
40.58653449079999
 30
0.0
 11
61.58958313840001
 21
40.67686888279998
 31
0.0
  0
LINE
  5
961
330
1F
100
AcDbEntity
  8
0
  6
CONTINUOUS
100
AcDbLine
 10
61.58958313840001
 20
40.67686888279998
 30
0.0
 11
61.49514457519999
 21
40.774539542
 31
0.0
  0
LINE
  5
962
330
1F
100
AcDbEntity
  8
0
  6
CONTINUOUS
100
AcDbLine
 10
61.49514457519999
 20
40.774539542
 30
0.0
 11
61.40825048720001
 21
40.87905827479999
 31
0.0
  0
LINE
  5
963
330
1F
100
AcDbEntity
  8
0
  6
CONTINUOUS
100
AcDbLine
 10
61.40825048720001
 20
40.87905827479999
 30
0.0
 11
61.32940423119999
 21
40.98981596759999
 31
0.0
  0
LINE
  5
964
330
1F
100
AcDbEntity
  8
0
  6
CONTINUOUS
100
AcDbLine
 10
61.32940423119999
 20
40.98981596759999
 30
0.0
 11
61.259018148
 21
41.10624613559998
 31
0.0
  0
LINE
  5
965
330
1F
100
AcDbEntity
  8
0
  6
CONTINUOUS
100
AcDbLine
 10
61.259018148
 20
41.10624613559998
 30
0.0
 11
61.19744367440001
 21
41.22783699799997
 31
0.0
  0
LINE
  5
966
330
1F
100
AcDbEntity
  8
0
  6
CONTINUOUS
100
AcDbLine
 10
61.19744367440001
 20
41.22783699799997
 30
0.0
 11
61.14510945040002
 21
41.35384689239997
 31
0.0
  0
LINE
  5
967
330
1F
100
AcDbEntity
  8
0
  6
CONTINUOUS
100
AcDbLine
 10
61.14510945040002
 20
41.35384689239997
 30
0.0
 11
61.10247691280001
 21
41.48313747479998
 31
0.0
  0
LINE
  5
968
330
1F
100
AcDbEntity
  8
0
  6
CONTINUOUS
100
AcDbLine
 10
61.10247691280001
 20
41.48313747479998
 30
0.0
 11
61.06983270800001
 21
41.61446780439997
 31
0.0
  0
LINE
  5
969
330
1F
100
AcDbEntity
  8
0
  6
CONTINUOUS
100
AcDbLine
 10
61.06983270800001
 20
41.61446780439997
 30
0.0
 11
61.0472622184
 21
41.74654736599997
 31
0.0
  0
LINE
  5
96A
330
1F
100
AcDbEntity
  8
CENTER
100
AcDbLine
 10
62.51395427123868
 20
44.49060395869863
 30
0.0
 11
63.17070120994635
 21
39.33016659617623
 31
0.0
  0
LINE
  5
96C
330
1F
100
AcDbEntity
  8
0
  6
CONTINUOUS
100
AcDbLine
 10
64.6233021928
 20
42.2221395708
 30
0.0
 11
64.63606041360001
 21
42.08520936119997
 31
0.0
  0
LWPOLYLINE
  5
96D
330
1F
100
AcDbEntity
  8
0
  6
CONTINUOUS
100
AcDbPolyline
 90
       39
 70
     0
 43
0.0
 10
68.5364591032
 20
22.83029855959998
 10
68.54135322959999
 20
22.77576545079998
 10
68.5452758632
 20
22.72115208919998
 10
68.5481526888
 20
22.66771066199999
 10
68.55005693519998
 20
22.61422625079998
 10
68.5509419688
 20
22.56267767959998
 10
68.55085243920001
 20
22.51112169399998
 10
68.5497972824
 20
22.46129177239998
 10
68.5477535368
 20
22.41149270519998
 10
68.54473871120001
 20
22.36245620599999
 10
68.5407027816
 20
22.31349310359998
 10
68.53569041360001
 20
22.26527706999998
 10
68.5296130392
 20
22.21718374839999
 10
68.5226288712
 20
22.17051833399998
 10
68.5145328136
 20
22.12403311319998
 10
68.50559379119999
 20
22.07932089239999
 10
68.49549087599999
 20
22.03485723159998
 10
68.48458878799999
 20
21.99230052759998
 10
68.4724617848
 20
21.95007720119999
 10
68.45976833680001
 20
21.91045216119998
 10
68.44580361359999
 20
21.87125589239998
 10
68.4325904936
 20
21.83777392919998
 10
68.4181000712
 20
21.80482764119999
 10
68.4052550504
 20
21.77869017719999
 10
68.39118623920001
 20
21.75319172279998
 10
68.37878840240001
 20
21.73326194039998
 10
68.36521774159999
 20
21.71411486679998
 10
68.3522526456
 20
21.69826324279998
 10
68.3381249608
 20
21.68344848599998
 10
68.3230017368
 20
21.67005971319999
 10
68.3068303064
 20
21.65794912439999
 10
68.28892152559999
 20
21.64660533079998
 10
68.27026950160001
 20
21.63653082839998
 10
68.24977843440001
 20
21.62695089399999
 10
68.22891867760001
 20
21.61818944759998
 10
68.1834310264
 20
21.60065596599999
 10
68.1337986936
 20
21.58305029719998
 10
68.07969509200001
 20
21.56477042679998
 10
67.9564534136
 20
21.52377381079998
  0
LWPOLYLINE
  5
96E
330
1F
100
AcDbEntity
  8
0
  6
CONTINUOUS
100
AcDbPolyline
 90
        5
 70
     0
 43
0.0
 10
65.76243412720001
 20
19.14121926199998
 10
65.73744317840001
 20
19.07961627319998
 10
65.71238307280001
 20
19.01665249719998
 10
65.68730212240001
 20
18.95217516759998
 10
65.66225174639999
 20
18.88603955639998
  0
LINE
  5
96F
330
1F
100
AcDbEntity
  8
0
  6
CONTINUOUS
100
AcDbLine
 10
65.81402274960002
 20
19.26569001239998
 30
0.0
 11
65.76243412720001
 21
19.14121926199998
 31
0.0
  0
LINE
  5
972
330
1F
100
AcDbEntity
  8
0
  6
CONTINUOUS
100
AcDbLine
 10
63.82849957840001
 20
43.47460875159997
 30
0.0
 11
63.7069863464
 21
43.54817490519998
 31
0.0
  0
LINE
  5
973
330
1F
100
AcDbEntity
  8
0
  6
CONTINUOUS
100
AcDbLine
 10
63.94365447280002
 20
43.39232123959997
 30
0.0
 11
63.82849957840001
 21
43.47460875159997
 31
0.0
  0
LINE
  5
974
330
1F
100
AcDbEntity
  8
0
  6
CONTINUOUS
100
AcDbLine
 10
64.05175718160001
 20
43.30187654039998
 30
0.0
 11
63.94365447280002
 21
43.39232123959997
 31
0.0
  0
LINE
  5
975
330
1F
100
AcDbEntity
  8
0
  6
CONTINUOUS
100
AcDbLine
 10
64.15210260719999
 20
43.20393215639997
 30
0.0
 11
64.05175718160001
 21
43.30187654039998
 31
0.0
  0
LINE
  5
976
330
1F
100
AcDbEntity
  8
0
  6
CONTINUOUS
100
AcDbLine
 10
64.2441537224
 20
43.09906849559998
 30
0.0
 11
64.15210260719999
 21
43.20393215639997
 31
0.0
  0
LINE
  5
977
330
1F
100
AcDbEntity
  8
0
  6
CONTINUOUS
100
AcDbLine
 10
64.32759840080001
 20
42.98763666199998
 30
0.0
 11
64.2441537224
 21
43.09906849559998
 31
0.0
  0
LINE
  5
978
330
1F
100
AcDbEntity
  8
0
  6
CONTINUOUS
100
AcDbLine
 10
64.40188716079998
 20
42.87036013399999
 30
0.0
 11
64.32759840080001
 21
42.98763666199998
 31
0.0
  0
LINE
  5
979
330
1F
100
AcDbEntity
  8
0
  6
CONTINUOUS
100
AcDbLine
 10
64.4666149688
 20
42.74788770679997
 30
0.0
 11
64.40188716079998
 21
42.87036013399999
 31
0.0
  0
LINE
  5
97A
330
1F
100
AcDbEntity
  8
0
  6
CONTINUOUS
100
AcDbLine
 10
64.52130799919999
 20
42.62120045879997
 30
0.0
 11
64.4666149688
 21
42.74788770679997
 31
0.0
  0
LINE
  5
97B
330
1F
100
AcDbEntity
  8
0
  6
CONTINUOUS
100
AcDbLine
 10
64.56577604719999
 20
42.49089674679997
 30
0.0
 11
64.52130799919999
 21
42.62120045879997
 31
0.0
  0
LINE
  5
97C
330
1F
100
AcDbEntity
  8
0
  6
CONTINUOUS
100
AcDbLine
 10
64.5998284968
 20
42.35764291799999
 30
0.0
 11
64.56577604719999
 21
42.49089674679997
 31
0.0
  0
LWPOLYLINE
  5
97D
330
1F
100
AcDbEntity
  8
0
  6
CONTINUOUS
100
AcDbPolyline
 90
       38
 70
     0
 43
0.0
 10
68.5364591
 20
22.83029855799998
 10
68.52693004720001
 20
22.88421521559997
 10
68.51644229679999
 20
22.93795542199998
 10
68.50525139120001
 20
22.99029110839998
 10
68.4931104792
 20
23.04241408599998
 10
68.48049174319999
 20
23.09240212919998
 10
68.46693038320001
 20
23.14214260919997
 10
68.45288809519999
 20
23.18996464439997
 10
68.4378996472
 20
23.23749851639998
 10
68.42217318319999
 20
23.28404252119998
 10
68.40548029199999
 20
23.33024879799998
 10
68.38804016399999
 20
23.37547876919998
 10
68.3696041192
 20
23.42031193719998
 10
68.35066600720001
 20
23.46352982839998
 10
68.33070175279999
 20
23.50628318359999
 10
68.31038723599999
 20
23.54710484439998
 10
68.28901425039998
 20
23.58738238679998
 10
68.26736828080001
 20
23.62561038359999
 10
68.2446271096
 20
23.66319644279998
 10
68.2220182808
 20
23.69812648759997
 10
68.19829443279999
 20
23.73231039639998
 10
68.17678957999999
 20
23.76117508119997
 10
68.15419183279999
 20
23.78918886999998
 10
68.13496187920001
 20
23.81106056119997
 10
68.1147176888
 20
23.83199559959999
 10
68.0975418488
 20
23.84799226679999
 10
68.07943852720001
 20
23.86292689879998
 10
68.06278104079999
 20
23.87483890039998
 10
68.0452723768
 20
23.88544621879998
 10
68.0271754904
 20
23.89441691799999
 10
68.0084009016
 20
23.90187989879998
 10
67.98814977040001
 20
23.90814865719999
 10
67.96751298000001
 20
23.91299798519998
 10
67.94523033519999
 20
23.91688927319998
 10
67.9228057416
 20
23.91989415799999
 10
67.8743166328
 20
23.92492928439998
 10
67.82180804879999
 20
23.92895081239998
 10
67.76480740880001
 20
23.93245446999998
  0
LINE
  5
97E
330
1F
100
AcDbEntity
  8
0
  6
CONTINUOUS
100
AcDbLine
 10
64.6233022648
 20
42.2221395804
 30
0.0
 11
64.5998284968
 21
42.35764291799999
 31
0.0
  0
LINE
  5
97F
330
1F
100
AcDbEntity
  8
0
  6
CONTINUOUS
100
AcDbLine
 10
66.63969985200001
 20
41.12585531479997
 30
0.0
 11
66.3707764232
 21
43.1479257244
 31
0.0
  0
LINE
  5
980
330
1F
100
AcDbEntity
  8
0
  6
CONTINUOUS
100
AcDbLine
 10
69.5840273352
 20
40.23243051639998
 30
0.0
 11
68.99608982800001
 21
44.65320949879999
 31
0.0
  0
ARC
  5
10D0
330
1F
100
AcDbEntity
  8
0
  6
CONTINUOUS
100
AcDbCircle
 10
53.33545457840001
 20
75.72569909719998
 30
0.0
 40
64.233285216
100
AcDbArc
 50
268.4310479146
 51
272.8778325898999
  0
ARC
  5
10D1
330
1F
100
AcDbEntity
  8
0
  6
CONTINUOUS
100
AcDbCircle
 10
54.40356347759999
 20
54.42629913079999
 30
0.0
 40
42.15150530399999
100
AcDbArc
 50
267.8488841092
 51
273.5105512616
  0
ARC
  5
10D2
330
1F
100
AcDbEntity
  8
0
  6
CONTINUOUS
100
AcDbCircle
 10
53.42876625520001
 20
34.84605500919998
 30
0.0
 40
25.4999819808
100
AcDbArc
 50
271.9588330436
 51
280.4745129285
  0
ARC
  5
10D3
330
1F
100
AcDbEntity
  8
0
  6
CONTINUOUS
100
AcDbCircle
 10
60.00848010799999
 20
0.5543945675999833
 30
0.0
 40
31.9145937536
100
AcDbArc
 50
93.57359364790001
 51
116.2178695736999
  0
ARC
  5
10D4
330
1F
100
AcDbEntity
  8
0
  6
CONTINUOUS
100
AcDbCircle
 10
59.53802498479999
 20
-27.62381160040002
 30
0.0
 40
58.4214141808
100
AcDbArc
 50
93.21642604000002
 51
103.4906674016
  0
ARC
  5
10D5
330
1F
100
AcDbEntity
  8
0
  6
CONTINUOUS
100
AcDbCircle
 10
63.79656786800001
 20
-1.271417642000018
 30
0.0
 40
35.5317591776
100
AcDbArc
 50
96.5639532892
 51
113.035218132
  0
ARC
  5
10D6
330
1F
100
AcDbEntity
  8
0
  6
CONTINUOUS
100
AcDbCircle
 10
41.19103183120001
 20
833.3213838395998
 30
0.0
 40
782.3030971216
100
AcDbArc
 50
270.6600745243
 51
271.1672992677
  0
ARC
  5
10D7
330
1F
100
AcDbEntity
  8
0
  6
CONTINUOUS
100
AcDbCircle
 10
-17.7771412472
 20
587.0978839195998
 30
0.0
 40
544.312115368
100
AcDbArc
 50
276.4913030371999
 51
278.0103095255
  0
ARC
  5
10D8
330
1F
100
AcDbEntity
  8
0
  6
CONTINUOUS
100
AcDbCircle
 10
2885.881216884
 20
-22025.0521711572
 30
0.0
 40
22255.12400035679
100
AcDbArc
 50
97.29780027200002
 51
97.3332636629
  0
ARC
  5
10D9
330
1F
100
AcDbEntity
  8
0
  6
CONTINUOUS
100
AcDbCircle
 10
55.19179542000001
 20
21.05283636119998
 30
0.0
 40
10.7088152688
100
AcDbArc
 50
330.5121427527
 51
22.97196250039999
  0
ARC
  5
10DA
330
1F
100
AcDbEntity
  8
0
  6
CONTINUOUS
100
AcDbCircle
 10
60.75653241040002
 20
21.79291353079997
 30
0.0
 40
13.4625802272
100
AcDbArc
 50
321.6863818828
 51
7.5755451911
  0
ARC
  5
10DB
330
1F
100
AcDbEntity
  8
0
  6
CONTINUOUS
100
AcDbCircle
 10
60.42314923120001
 20
42.35692641879997
 30
0.0
 40
5.99999576
100
AcDbArc
 50
7.5755451911
 51
95.86024967779998
  0
ARC
  5
10DC
330
1F
100
AcDbEntity
  8
0
  6
CONTINUOUS
100
AcDbCircle
 10
61.5615558376
 20
43.66446036919997
 30
0.0
 40
7.4999947008
100
AcDbArc
 50
7.575545191
 51
88.4367651213
  0
ARC
  5
10DD
330
1F
100
AcDbEntity
  8
0
  6
CONTINUOUS
100
AcDbCircle
 10
60.05547589200001
 20
40.24878035639999
 30
0.0
 40
9.6123200672
100
AcDbArc
 50
49.7819961432
 51
97.6323640819
  0
ARC
  5
10DE
330
1F
100
AcDbEntity
  8
0
  6
CONTINUOUS
100
AcDbCircle
 10
59.82449156240001
 20
41.68740505079999
 30
0.0
 40
8.7331690928
100
AcDbArc
 50
42.510979528
 51
73.6674314813
  0
ARC
  5
10DF
330
1F
100
AcDbEntity
  8
0
  6
CONTINUOUS
100
AcDbCircle
 10
59.25533664400002
 20
39.66906199479997
 30
0.0
 40
10.83960137759999
100
AcDbArc
 50
73.6674314813
 51
91.3370762827
  0
ARC
  5
10E0
330
1F
100
AcDbEntity
  8
0
  6
CONTINUOUS
100
AcDbCircle
 10
59.03813812400001
 20
-48.80104817800002
 30
0.0
 40
99.99992933599999
100
AcDbArc
 50
88.4367651213
 51
91.09451939589998
  0
ARC
  5
10E1
330
1F
100
AcDbEntity
  8
0
  6
CONTINUOUS
100
AcDbCircle
 10
72.00856867600001
 20
-50.92761497800001
 30
0.0
 40
99.99992933599999
100
AcDbArc
 50
97.0064121216
 51
98.0103095255
  0
ARC
  5
10E2
330
1F
100
AcDbEntity
  8
0
  6
CONTINUOUS
100
AcDbCircle
 10
63.9530959272
 20
22.62615156599999
 30
0.0
 40
9.999992934399999
100
AcDbArc
 50
56.50779113830001
 51
98.77157834880001
  0
ARC
  5
10E3
330
1F
100
AcDbEntity
  8
0
  6
CONTINUOUS
100
AcDbCircle
 10
61.95428532240002
 20
24.52323775959998
 30
0.0
 40
7.9999943472
100
AcDbArc
 50
35.8377621254
 51
89.7848876361
  0
ARC
  5
10E4
330
1F
100
AcDbEntity
  8
0
  6
CONTINUOUS
100
AcDbCircle
 10
57.59092012720001
 20
21.37190580279998
 30
0.0
 40
13.3823589696
100
AcDbArc
 50
322.695695764
 51
35.8377621254
  0
ARC
  5
10E5
330
1F
100
AcDbEntity
  8
0
  6
CONTINUOUS
100
AcDbCircle
 10
63.65699526800001
 20
22.17866006999999
 30
0.0
 40
10.53657865759999
100
AcDbArc
 50
7.5755338598
 51
56.50779113830001
  0
ARC
  5
10E6
330
1F
100
AcDbEntity
  8
0
  6
CONTINUOUS
100
AcDbCircle
 10
58.02017436720002
 20
48.92908925239997
 30
0.0
 40
14.9999894
100
AcDbArc
 50
276.5639532892
 51
287.2701725602
  0
ARC
  5
10E7
330
1F
100
AcDbEntity
  8
0
  6
CONTINUOUS
100
AcDbCircle
 10
56.7651005656
 20
21.71975635319998
 30
0.0
 40
8.999993639999999
100
AcDbArc
 50
22.97196250039999
 51
93.21642604000002
  0
ARC
  5
10E8
330
1F
100
AcDbEntity
  8
0
  6
CONTINUOUS
100
AcDbCircle
 10
61.75905613040002
 20
-27.47635900840001
 30
0.0
 40
59.9999576016
100
AcDbArc
 50
89.7848876361
 51
93.57359364790001
  0
CIRCLE
  5
10E9
330
1F
100
AcDbEntity
  8
0
  6
CONTINUOUS
100
AcDbCircle
 10
62.8329547896
 20
41.98403393559998
 30
0.0
 40
1.2715053488
  0
ARC
  5
10EA
330
1F
100
AcDbEntity
  8
0
  6
CONTINUOUS
100
AcDbCircle
 10
62.89294674320002
 20
39.34255629879997
 30
0.0
 40
6.749995230399999
100
AcDbArc
 50
273.6288205989999
 51
7.575545191199999
  0
ARC
  5
10EB
330
1F
100
AcDbEntity
  8
0
  6
CONTINUOUS
100
AcDbCircle
 10
60.69207265840002
 20
40.33485600919997
 30
0.0
 40
5.99999576
100
AcDbArc
 50
287.2701725602
 51
7.575545191399999
  0
ARC
  5
10EC
330
1F
100
AcDbEntity
  8
0
  6
CONTINUOUS
100
AcDbCircle
 10
57.30934927120001
 20
23.71570062039998
 30
0.0
 40
11.288896264
100
AcDbArc
 50
277.0723366886
 51
293.8733699708
  0
ARC
  5
10ED
330
1F
100
AcDbEntity
  8
0
  6
CONTINUOUS
100
AcDbCircle
 10
61.33854564399999
 20
21.33304251959998
 30
0.0
 40
12.7208115632
100
AcDbArc
 50
288.5991213785
 51
321.6863818828
  0
ARC
  5
10EE
330
1F
100
AcDbEntity
  8
0
  6
CONTINUOUS
100
AcDbCircle
 10
60.3627699208
 20
19.25999301239999
 30
0.0
 40
9.897631315199999
100
AcDbArc
 50
298.7519284238
 51
322.695695764
  0
ARC
  5
10EF
330
1F
100
AcDbEntity
  8
0
  6
CONTINUOUS
100
AcDbCircle
 10
58.04378725999999
 20
21.59985612119999
 30
0.0
 40
9.791142625599999
100
AcDbArc
 50
281.4160507696
 51
307.1055972853
  0
ARC
  5
10F0
330
1F
100
AcDbEntity
  8
0
  6
CONTINUOUS
100
AcDbCircle
 10
57.5094427064
 20
17.94887967319998
 30
0.0
 40
8.099304816
100
AcDbArc
 50
285.7350004960999
 51
319.5279686329
  0
ARC
  5
10F1
330
1F
100
AcDbEntity
  8
0
  6
CONTINUOUS
100
AcDbCircle
 10
59.4433786024
 20
26.96470311159998
 30
0.0
 40
18.6628027392
100
AcDbArc
 50
275.555013452
 51
288.5991213785
  0
ARC
  5
10F2
330
1F
100
AcDbEntity
  8
0
  6
CONTINUOUS
100
AcDbCircle
 10
59.58821291280001
 20
18.56669286039998
 30
0.0
 40
5.6581325152
100
AcDbArc
 50
293.8733699708
 51
330.5121427527
  0
ARC
  5
10F3
330
1F
100
AcDbEntity
  8
0
  6
CONTINUOUS
100
AcDbCircle
 10
60.8848431976
 20
17.84406948599998
 30
0.0
 40
5.0818399088
100
AcDbArc
 50
307.1055972853
 51
330.3993137512999
  0
ARC
  5
10F4
330
1F
100
AcDbEntity
  8
0
  6
CONTINUOUS
100
AcDbCircle
 10
55.9120684008
 20
19.31181823479998
 30
0.0
 40
10.199115808
100
AcDbArc
 50
319.5279686329
 51
337.0437923697999
  0
ARC
  5
10F5
330
1F
100
AcDbEntity
  8
0
  6
CONTINUOUS
100
AcDbCircle
 10
55.39758117520001
 20
34.70462770039998
 30
0.0
 40
23.1604150368
100
AcDbArc
 50
272.8778325898999
 51
281.4160507694999
  0
ARC
  5
10F6
330
1F
100
AcDbEntity
  8
0
  6
CONTINUOUS
100
AcDbCircle
 10
56.12625844720001
 20
26.98151743799998
 30
0.0
 40
18.705012816
100
AcDbArc
 50
270.6992703739
 51
298.7519284238
  0
ARC
  5
10F7
330
1F
100
AcDbEntity
  8
0
  6
CONTINUOUS
100
AcDbCircle
 10
54.7266819688
 20
27.82570154039999
 30
0.0
 40
18.36065792
100
AcDbArc
 50
280.4745129285
 51
285.7350004960999
  0
ARC
  5
10F8
330
1F
100
AcDbEntity
  8
0
  6
CONTINUOUS
100
AcDbCircle
 10
57.6013336328
 20
45.90444137559997
 30
0.0
 40
37.6919071632
100
AcDbArc
 50
270.6992703739
 51
275.555013452
  0
ARC
  5
10F9
330
1F
100
AcDbEntity
  8
0
  6
CONTINUOUS
100
AcDbCircle
 10
55.2881538856
 20
40.00695187159998
 30
0.0
 40
27.7050498384
100
AcDbArc
 50
273.5105512616
 51
277.0723366884999
  0
ARC
  5
10FA
330
1F
100
AcDbEntity
  8
0
  6
CONTINUOUS
100
AcDbCircle
 10
19.067374492
 20
18.34883761239998
 30
0.0
 40
6.9999950528
100
AcDbArc
 50
80.42921652149999
 51
187.5755451912
  0
ARC
  5
10FB
330
1F
100
AcDbEntity
  8
0
  6
CONTINUOUS
100
AcDbCircle
 10
8.512399047200009
 20
14.97586193879997
 30
0.0
 40
40.0053576384
100
AcDbArc
 50
356.2928681820999
 51
20.8055032145
  0
ARC
  5
10FC
330
1F
100
AcDbEntity
  8
0
  6
CONTINUOUS
100
AcDbCircle
 10
21.66181488399999
 20
41.12757923799999
 30
0.0
 40
5.0818399088
100
AcDbArc
 50
127.1055972853
 51
150.3993137513
  0
ARC
  5
10FD
330
1F
100
AcDbEntity
  8
0
  6
CONTINUOUS
100
AcDbCircle
 10
22.9584451688
 20
40.40495586359999
 30
0.0
 40
5.6581325152
100
AcDbArc
 50
113.8733699707999
 51
153.3449956052
  0
ARC
  5
10FE
330
1F
100
AcDbEntity
  8
0
  6
CONTINUOUS
100
AcDbCircle
 10
26.6345896808
 20
39.65983048919999
 30
0.0
 40
10.199115808
100
AcDbArc
 50
139.5279686329
 51
157.0437923697999
  0
ARC
  5
10FF
330
1F
100
AcDbEntity
  8
0
  6
CONTINUOUS
100
AcDbCircle
 10
21.2376015624
 20
37.64146256439998
 30
0.0
 40
12.7208115632
100
AcDbArc
 50
108.5991213785
 51
166.2315609329
  0
ARC
  5
1100
330
1F
100
AcDbEntity
  8
0
  6
CONTINUOUS
100
AcDbCircle
 10
27.229505132
 20
37.07288458519998
 30
0.0
 40
15.566823
100
AcDbArc
 50
152.2275058639
 51
200.20506988
  0
ARC
  5
1101
330
1F
100
AcDbEntity
  8
0
  6
CONTINUOUS
100
AcDbCircle
 10
75.6901237832
 20
42.92315924599999
 30
0.0
 40
40.0053576384
100
AcDbArc
 50
174.7365178389999
 51
200.0422983496999
  0
ARC
  5
1102
330
1F
100
AcDbEntity
  8
0
  6
CONTINUOUS
100
AcDbCircle
 10
36.58655831280001
 20
109.3090307932
 30
0.0
 40
63.44040690239999
100
AcDbArc
 50
269.3543223912
 51
276.4913030371999
  0
ARC
  5
1103
330
1F
100
AcDbEntity
  8
0
  6
CONTINUOUS
100
AcDbCircle
 10
27.258504196
 20
18.96469685239998
 30
0.0
 40
27.7050498384
100
AcDbArc
 50
93.5105512616
 51
97.07233668850001
  0
ARC
  5
1104
330
1F
100
AcDbEntity
  8
0
  6
CONTINUOUS
100
AcDbCircle
 10
34.24358804240001
 20
166.9579302044
 30
0.0
 40
120.3756073904
100
AcDbArc
 50
267.8488841092
 51
270.7662787789999
  0
ARC
  5
1105
330
1F
100
AcDbEntity
  8
0
  6
CONTINUOUS
100
AcDbCircle
 10
28.143094604
 20
4.545349593199984
 30
0.0
 40
42.15150530399999
100
AcDbArc
 50
87.8488841092
 51
93.5105512616
  0
ARC
  5
1106
330
1F
100
AcDbEntity
  8
0
  6
CONTINUOUS
100
AcDbCircle
 10
35.94152096400001
 20
120.1910835403999
 30
0.0
 40
72.74994859199999
100
AcDbArc
 50
272.0787095197999
 51
277.3332636628999
  0
ARC
  5
1107
330
1F
100
AcDbEntity
  8
0
  6
CONTINUOUS
100
AcDbCircle
 10
34.2435219944
 20
166.9727451035999
 30
0.0
 40
119.5624155119999
100
AcDbArc
 50
268.4310479146
 51
272.0787095197999
  0
ARC
  5
1108
330
1F
100
AcDbEntity
  8
0
  6
CONTINUOUS
100
AcDbCircle
 10
27.81997611280001
 20
31.14594718359998
 30
0.0
 40
18.36065792
100
AcDbArc
 50
100.4745129285
 51
105.7350004961
  0
ARC
  5
1109
330
1F
100
AcDbEntity
  8
0
  6
CONTINUOUS
100
AcDbCircle
 10
29.1178918264
 20
24.12559371319999
 30
0.0
 40
25.4999819808
100
AcDbArc
 50
91.9588330436
 51
100.4745129285
  0
ARC
  5
110A
330
1F
100
AcDbEntity
  8
0
  6
CONTINUOUS
100
AcDbCircle
 10
27.1490769064
 20
24.26702102359998
 30
0.0
 40
23.1604150368
100
AcDbArc
 50
92.87783258990002
 51
101.4160507694999
  0
ARC
  5
110B
330
1F
100
AcDbEntity
  8
0
  6
CONTINUOUS
100
AcDbCircle
 10
24.94532444879999
 20
13.06720734839998
 30
0.0
 40
37.6919071632
100
AcDbArc
 50
90.6992703739
 51
95.55501345199999
  0
ARC
  5
110C
330
1F
100
AcDbEntity
  8
0
  6
CONTINUOUS
100
AcDbCircle
 10
29.2112035032
 20
-16.75405037320001
 30
0.0
 40
64.233285216
100
AcDbArc
 50
88.4310479146
 51
92.87783258990002
  0
ARC
  5
110D
330
1F
100
AcDbEntity
  8
0
  6
CONTINUOUS
100
AcDbCircle
 10
25.03721537520001
 20
41.02276905079999
 30
0.0
 40
8.099304816
100
AcDbArc
 50
105.7350004961
 51
139.5279686329
  0
ARC
  5
110E
330
1F
100
AcDbEntity
  8
0
  6
CONTINUOUS
100
AcDbCircle
 10
24.5028708216
 20
37.37179260279998
 30
0.0
 40
9.791142625599999
100
AcDbArc
 50
101.4160507696
 51
127.1055972853
  0
ARC
  5
110F
330
1F
100
AcDbEntity
  8
0
  6
CONTINUOUS
100
AcDbCircle
 10
23.13276860400001
 20
32.00980197239998
 30
0.0
 40
18.6628027392
100
AcDbArc
 50
95.55501345199999
 51
108.5991213785
  0
ARC
  5
1110
330
1F
100
AcDbEntity
  8
0
  6
CONTINUOUS
100
AcDbCircle
 10
26.44988875919999
 20
31.99298764599999
 30
0.0
 40
18.705012816
100
AcDbArc
 50
90.6992703739
 51
118.7519284237999
  0
ARC
  5
1111
330
1F
100
AcDbEntity
  8
0
  6
CONTINUOUS
100
AcDbCircle
 10
25.2373088104
 20
35.25594810359999
 30
0.0
 40
11.288896264
100
AcDbArc
 50
97.0723366886
 51
113.8733699707999
  0
ARC
  5
1112
330
1F
100
AcDbEntity
  8
0
  6
CONTINUOUS
100
AcDbCircle
 10
22.213377284
 20
39.71451207159999
 30
0.0
 40
9.897631315199999
100
AcDbArc
 50
118.7519284237999
 51
152.2275058639
  0
ARC
  5
1113
330
1F
100
AcDbEntity
  8
0
  6
CONTINUOUS
100
AcDbCircle
 10
21.0667822648
 20
34.80482491159998
 30
0.0
 40
8.999993639999999
100
AcDbArc
 50
200.20506988
 51
201.5344181447999
  0
ARC
  5
1114
330
1F
100
AcDbEntity
  8
0
  6
CONTINUOUS
100
AcDbCircle
 10
58.10359301200001
 20
12.17304673559998
 30
0.0
 40
20.9316638608
100
AcDbArc
 50
113.0947102423
 51
125.6327313864999
  0
ARC
  5
1115
330
1F
100
AcDbEntity
  8
0
  6
CONTINUOUS
100
AcDbCircle
 10
30.3801254472
 20
21.22547715959999
 30
0.0
 40
3.9999971728
100
AcDbArc
 50
102.0971193442
 51
187.5755451911
  0
ARC
  5
1116
330
1F
100
AcDbEntity
  8
0
  6
CONTINUOUS
100
AcDbCircle
 10
22.5216096792
 20
57.06275326999999
 30
0.0
 40
31.9145937536
100
AcDbArc
 50
271.9953197084
 51
299.2330005658
  0
ARC
  5
1117
330
1F
100
AcDbEntity
  8
0
  6
CONTINUOUS
100
AcDbCircle
 10
22.76236165039999
 20
50.15233435479998
 30
0.0
 40
24.99998233439999
100
AcDbArc
 50
267.0751808557
 51
271.9953197084
  0
ARC
  5
1118
330
1F
100
AcDbEntity
  8
0
  6
CONTINUOUS
100
AcDbCircle
 10
25.23734311920001
 20
45.22029930199998
 30
0.0
 40
20.53976035839999
100
AcDbArc
 50
282.0971193441999
 51
308.7995009101
  0
ARC
  5
1119
330
1F
100
AcDbEntity
  8
0
  6
CONTINUOUS
100
AcDbCircle
 10
21.494263924
 20
85.95981065879998
 30
0.0
 40
59.12889185920001
100
AcDbArc
 50
275.4700843389999
 51
286.3178909407
  0
ARC
  5
111A
330
1F
100
AcDbEntity
  8
0
  6
CONTINUOUS
100
AcDbCircle
 10
26.2728521
 20
36.05919411159998
 30
0.0
 40
8.999993639999999
100
AcDbArc
 50
219.7894157403999
 51
275.4700843389999
  0
ARC
  5
111B
330
1F
100
AcDbEntity
  8
0
  6
CONTINUOUS
100
AcDbCircle
 10
17.9225559944
 20
34.44551477239999
 30
0.0
 40
9.1373413136
100
AcDbArc
 50
198.4486473959
 51
274.0681071128
  0
ARC
  5
111C
330
1F
100
AcDbEntity
  8
0
  6
CONTINUOUS
100
AcDbCircle
 10
21.9969788456
 20
35.17188472279999
 30
0.0
 40
9.999992934399999
100
AcDbArc
 50
201.5344181447999
 51
267.0751808557
  0
ARC
  5
111D
330
1F
100
AcDbEntity
  8
0
  6
CONTINUOUS
100
AcDbCircle
 10
24.8496177816
 20
36.75637569079998
 30
0.0
 40
16.4396877296
100
AcDbArc
 50
166.2315609329
 51
198.4486473959
  0
ARC
  5
111E
330
1F
100
AcDbEntity
  8
0
  6
CONTINUOUS
100
AcDbCircle
 10
28.282148748
 20
37.73264822359998
 30
0.0
 40
11.6148974016
100
AcDbArc
 50
153.3449956052
 51
219.7894157403999
  0
ARC
  5
111F
330
1F
100
AcDbEntity
  8
0
  6
CONTINUOUS
100
AcDbCircle
 10
22.6694763032
 20
18.65652203959999
 30
0.0
 40
9.5253354576
100
AcDbArc
 50
227.7538211453999
 51
276.2947355840001
  0
ARC
  5
1120
330
1F
100
AcDbEntity
  8
0
  6
CONTINUOUS
100
AcDbCircle
 10
36.6034431464
 20
-89.9771284596
 30
0.0
 40
99.99992933599999
100
AcDbArc
 50
97.29843137760001
 51
97.40579512179998
  0
ARC
  5
1121
330
1F
100
AcDbEntity
  8
0
  6
CONTINUOUS
100
AcDbCircle
 10
22.94130593840001
 20
17.23562283959998
 30
0.0
 40
8.7331690928
100
AcDbArc
 50
220.1438708751
 51
259.6483397273
  0
ARC
  5
1122
330
1F
100
AcDbEntity
  8
0
  6
CONTINUOUS
100
AcDbCircle
 10
23.3486296968
 20
19.46554985079998
 30
0.0
 40
10.99999222719999
100
AcDbArc
 50
259.6483397273
 51
271.3693622682
  0
ARC
  5
1123
330
1F
100
AcDbEntity
  8
0
  6
CONTINUOUS
100
AcDbCircle
 10
48.30307003920001
 20
-107.9862814804
 30
0.0
 40
120.3756073904
100
AcDbArc
 50
87.8488841092
 51
89.93765747000001
  0
ARC
  5
1124
330
1F
100
AcDbEntity
  8
0
  6
CONTINUOUS
100
AcDbCircle
 10
45.96009976880001
 20
-50.33738206920002
 30
0.0
 40
63.44040690239999
100
AcDbArc
 50
87.73122312759999
 51
96.49130303719999
  0
ARC
  5
1125
330
1F
100
AcDbEntity
  8
0
  6
CONTINUOUS
100
AcDbCircle
 10
48.3031360872
 20
-108.0010963812
 30
0.0
 40
119.5624155119999
100
AcDbArc
 50
88.4310479146
 51
92.07870951979998
  0
ARC
  5
1126
330
1F
100
AcDbEntity
  8
0
  6
CONTINUOUS
100
AcDbCircle
 10
100.3237993288
 20
-528.1262351956001
 30
0.0
 40
544.312115368
100
AcDbArc
 50
96.49130303719999
 51
97.25269036010002
  0
ARC
  5
1127
330
1F
100
AcDbEntity
  8
0
  6
CONTINUOUS
100
AcDbCircle
 10
-2803.3345588024
 20
22084.0238198812
 30
0.0
 40
22255.12400035679
100
AcDbArc
 50
277.2984313776
 51
277.3332636628999
  0
ARC
  5
1128
330
1F
100
AcDbEntity
  8
0
  6
CONTINUOUS
100
AcDbCircle
 10
23.5085199592
 20
107.7726969019999
 30
0.0
 40
99.99992933599999
100
AcDbArc
 50
267.5491711922
 51
271.0945193959
  0
ARC
  5
1129
330
1F
100
AcDbEntity
  8
0
  6
CONTINUOUS
100
AcDbCircle
 10
41.35562625040001
 20
-774.3497351156
 30
0.0
 40
782.3030971216
100
AcDbArc
 50
90.6600745243
 51
91.1672992677
  0
ARC
  5
112A
330
1F
100
AcDbEntity
  8
0
  6
CONTINUOUS
100
AcDbCircle
 10
46.60513711760001
 20
-61.21943481640001
 30
0.0
 40
72.74994859199999
100
AcDbArc
 50
92.07870951979998
 51
97.3332636629
  0
ARC
  5
112B
330
1F
100
AcDbEntity
  8
0
  6
CONTINUOUS
100
AcDbCircle
 10
19.5316577896
 20
14.85783079319998
 30
0.0
 40
6.9999950528
100
AcDbArc
 50
187.575545191
 51
267.5491711922
  0
ARC
  5
112C
330
1F
100
AcDbEntity
  8
0
  6
CONTINUOUS
100
AcDbCircle
 10
31.1018355352
 20
15.79884465239997
 30
0.0
 40
3.9999971728
100
AcDbArc
 50
187.5755451911
 51
277.2526903601
  0
ARC
  5
1135
330
1F
100
AcDbEntity
  8
0
  6
CONTINUOUS
100
AcDbCircle
 10
131.427490828
 20
-2967.248191080399
 30
0.0
 40
3018.6228669232
100
AcDbArc
 50
91.37481570369999
 51
91.58694324059998
  0
ARC
  5
1136
330
1F
100
AcDbEntity
  8
0
  6
CONTINUOUS
100
AcDbCircle
 10
131.427490828
 20
-2967.248191080399
 30
0.0
 40
3018.6228669232
100
AcDbArc
 50
91.62717510010001
 51
91.74674661549998
  0
ARC
  5
1137
330
1F
100
AcDbEntity
  8
0
  6
CONTINUOUS
100
AcDbCircle
 10
131.427490828
 20
-2967.248191080399
 30
0.0
 40
3018.6228669232
100
AcDbArc
 50
91.7991781014
 51
91.9588330436
  0
ARC
  5
1138
330
1F
100
AcDbEntity
  8
0
  6
CONTINUOUS
100
AcDbCircle
 10
-47.40767111599999
 20
2979.4313533724
 30
0.0
 40
2971.8113695568
100
AcDbArc
 50
271.3693622682999
 51
271.6274812124
  0
ARC
  5
1139
330
1F
100
AcDbEntity
  8
0
  6
CONTINUOUS
100
AcDbCircle
 10
-47.40767111599999
 20
2979.4313533724
 30
0.0
 40
2971.8113695568
100
AcDbArc
 50
271.6586244678
 51
271.7829894654
  0
ARC
  5
113A
330
1F
100
AcDbEntity
  8
0
  6
CONTINUOUS
100
AcDbCircle
 10
-47.40767111599999
 20
2979.4313533724
 30
0.0
 40
2971.8113695568
100
AcDbArc
 50
271.8361531218
 51
271.9612815031
  0
LINE
  5
11FF
330
1F
100
AcDbEntity
  8
0
  6
CONTINUOUS
100
AcDbLine
 10
6.4398344008
 20
53.04653393559998
 30
0.0
 11
6.439834400799995
 21
5.921567855600005
 31
0.0
  0
LINE
  5
1200
330
1F
100
AcDbEntity
  8
0
  6
CONTINUOUS
100
AcDbLine
 10
76.1898344008
 20
5.921567855599985
 30
0.0
 11
76.1898344008
 21
53.04653393559998
 31
0.0
  0
LINE
  5
1201
330
1F
100
AcDbEntity
  8
0
  6
CONTINUOUS
100
AcDbLine
 10
75.68983440080001
 20
53.54653393559999
 30
0.0
 11
6.9398344008
 21
53.54653393559998
 31
0.0
  0
LINE
  5
1202
330
1F
100
AcDbEntity
  8
0
  6
CONTINUOUS
100
AcDbLine
 10
6.939834400799995
 20
5.421567855599987
 30
0.0
 11
75.68983440080001
 21
5.421567855599985
 31
0.0
  0
ARC
  5
1203
330
1F
100
AcDbEntity
  8
0
  6
CONTINUOUS
100
AcDbCircle
 10
6.9398344008
 20
53.04653393559998
 30
0.0
 40
0.5
100
AcDbArc
 50
90.0
 51
180.0
  0
ARC
  5
1204
330
1F
100
AcDbEntity
  8
0
  6
CONTINUOUS
100
AcDbCircle
 10
6.939834400799995
 20
5.921567855599987
 30
0.0
 40
0.5
100
AcDbArc
 50
180.0
 51
270.0
  0
ARC
  5
1205
330
1F
100
AcDbEntity
  8
0
  6
CONTINUOUS
100
AcDbCircle
 10
75.68983440080001
 20
5.921567855599985
 30
0.0
 40
0.5
100
AcDbArc
 50
270.0
 51
0.0
  0
ARC
  5
1206
330
1F
100
AcDbEntity
  8
0
  6
CONTINUOUS
100
AcDbCircle
 10
75.68983440080001
 20
53.04653393559998
 30
0.0
 40
0.5
100
AcDbArc
 50
0.0
 51
90.0
  0
ENDSEC
  0
SECTION
  2
OBJECTS
  0
DICTIONARY
  5
C
330
0
100
AcDbDictionary
  3
ACAD_GROUP
350
D
  3
ACAD_LAYOUT
350
1A
  3
ACAD_MLINESTYLE
350
17
  3
ACAD_PLOTSETTINGS
350
19
  3
ACAD_PLOTSTYLENAME
350
E
  3
ACDBHEADERROUNDTRIPXREC
350
1262
  0
DICTIONARY
  5
1285
330
1F
100
AcDbDictionary
280
     1
  3
ACAD_LAYOUTSELFREF
360
1286
  0
DICTIONARY
  5
1283
330
1B
100
AcDbDictionary
280
     1
  3
ACAD_LAYOUTSELFREF
360
1284
  0
DICTIONARY
  5
D
102
{ACAD_REACTORS
330
C
102
}
330
C
100
AcDbDictionary
  0
DICTIONARY
  5
1A
102
{ACAD_REACTORS
330
C
102
}
330
C
100
AcDbDictionary
  0
DICTIONARY
  5
17
102
{ACAD_REACTORS
330
C
102
}
330
C
100
AcDbDictionary
  3
STANDARD
350
18
  0
DICTIONARY
  5
19
102
{ACAD_REACTORS
330
C
102
}
330
C
100
AcDbDictionary
  0
ACDBDICTIONARYWDFLT
  5
E
102
{ACAD_REACTORS
330
C
102
}
330
C
100
AcDbDictionary
281
     1
  3
Normal
350
F
100
AcDbDictionaryWithDefault
340
F
  0
DICTIONARY
  5
1262
102
{ACAD_REACTORS
330
C
102
}
330
C
100
AcDbDictionary
  3
CEPSNTYPE
350
126C
  3
DIMSTYLEDATA
350
1270
  3
FINGERPRINTGUID
350
126D
  3
HYPERLINKBASE
350
1265
  3
INSUNITS
350
126B
  3
LAYOUTDICT
350
1267
  3
LWETCUNION
350
126A
  3
PLOTSETDICT
350
1268
  3
PLOTSTYLNAMDICT
350
1269
  3
PSVPSCALE
350
126F
  3
PUCSBASE
350
1273
  3
PUCSORGBACK
350
1279
  3
PUCSORGBOTTOM
350
1275
  3
PUCSORGFRONT
350
1278
  3
PUCSORGLEFT
350
1276
  3
PUCSORGRIGHT
350
1277
  3
PUCSORGTOP
350
1274
  3
PUCSORTHOREF
350
1271
  3
PUCSORTHOVIEW
350
1272
  3
STYLESHEET
350
1266
  3
TSTACKALIGN
350
1263
  3
TSTACKSIZE
350
1264
  3
UCSBASE
350
127C
  3
UCSORGBACK
350
1282
  3
UCSORGBOTTOM
350
127E
  3
UCSORGFRONT
350
1281
  3
UCSORGLEFT
350
127F
  3
UCSORGRIGHT
350
1280
  3
UCSORGTOP
350
127D
  3
UCSORTHOREF
350
127A
  3
UCSORTHOVIEW
350
127B
  3
VERSIONGUID
350
126E
  0
XRECORD
  5
1286
102
{ACAD_REACTORS
330
1285
102
}
330
1285
100
AcDbXrecord
340
1F
  0
XRECORD
  5
1284
102
{ACAD_REACTORS
330
1283
102
}
330
1283
100
AcDbXrecord
340
1B
  0
MLINESTYLE
  5
18
102
{ACAD_REACTORS
330
17
102
}
330
17
100
AcDbMlineStyle
  2
STANDARD
 70
     0
  3

 62
   256
 51
90.0
 52
90.0
 71
     2
 49
0.5
 62
   256
  6
BYLAYER
 49
-0.5
 62
   256
  6
BYLAYER
  0
ACDBPLACEHOLDER
  5
F
102
{ACAD_REACTORS
330
E
102
}
330
0
100
AcDbPlaceHolder
280
     0
  0
XRECORD
  5
126C
102
{ACAD_REACTORS
330
1262
102
}
330
1262
100
AcDbXrecord
 90
        0
  0
XRECORD
  5
1270
102
{ACAD_REACTORS
330
1262
102
}
330
1262
100
AcDbXrecord
1000
DSTYLE
1002
{
1070
   278
 70
     0
1070
   342
340
215
1070
   371
 70
     0
1070
   372
 70
     0
1002
}
  0
XRECORD
  5
126D
102
{ACAD_REACTORS
330
1262
102
}
330
1262
100
AcDbXrecord
  1

  0
XRECORD
  5
1265
102
{ACAD_REACTORS
330
1262
102
}
330
1262
100
AcDbXrecord
  1

  0
XRECORD
  5
126B
102
{ACAD_REACTORS
330
1262
102
}
330
1262
100
AcDbXrecord
 90
        1
  0
XRECORD
  5
1267
102
{ACAD_REACTORS
330
1262
102
}
330
1262
100
AcDbXrecord
340
1A
  0
XRECORD
  5
126A
102
{ACAD_REACTORS
330
1262
102
}
330
1262
100
AcDbXrecord
 90
    10752
  0
XRECORD
  5
1268
102
{ACAD_REACTORS
330
1262
102
}
330
1262
100
AcDbXrecord
340
19
  0
XRECORD
  5
1269
102
{ACAD_REACTORS
330
1262
102
}
330
1262
100
AcDbXrecord
340
E
  0
XRECORD
  5
126F
102
{ACAD_REACTORS
330
1262
102
}
330
1262
100
AcDbXrecord
 40
0.0
  0
XRECORD
  5
1273
102
{ACAD_REACTORS
330
1262
102
}
330
1262
100
AcDbXrecord
340
0
  0
XRECORD
  5
1279
102
{ACAD_REACTORS
330
1262
102
}
330
1262
100
AcDbXrecord
 10
0.0
 20
0.0
 30
0.0
  0
XRECORD
  5
1275
102
{ACAD_REACTORS
330
1262
102
}
330
1262
100
AcDbXrecord
 10
0.0
 20
0.0
 30
0.0
  0
XRECORD
  5
1278
102
{ACAD_REACTORS
330
1262
102
}
330
1262
100
AcDbXrecord
 10
0.0
 20
0.0
 30
0.0
  0
XRECORD
  5
1276
102
{ACAD_REACTORS
330
1262
102
}
330
1262
100
AcDbXrecord
 10
0.0
 20
0.0
 30
0.0
  0
XRECORD
  5
1277
102
{ACAD_REACTORS
330
1262
102
}
330
1262
100
AcDbXrecord
 10
0.0
 20
0.0
 30
0.0
  0
XRECORD
  5
1274
102
{ACAD_REACTORS
330
1262
102
}
330
1262
100
AcDbXrecord
 10
0.0
 20
0.0
 30
0.0
  0
XRECORD
  5
1271
102
{ACAD_REACTORS
330
1262
102
}
330
1262
100
AcDbXrecord
340
0
  0
XRECORD
  5
1272
102
{ACAD_REACTORS
330
1262
102
}
330
1262
100
AcDbXrecord
 70
     0
  0
XRECORD
  5
1266
102
{ACAD_REACTORS
330
1262
102
}
330
1262
100
AcDbXrecord
  1

  0
XRECORD
  5
1263
102
{ACAD_REACTORS
330
1262
102
}
330
1262
100
AcDbXrecord
 90
        1
  0
XRECORD
  5
1264
102
{ACAD_REACTORS
330
1262
102
}
330
1262
100
AcDbXrecord
 90
       70
  0
XRECORD
  5
127C
102
{ACAD_REACTORS
330
1262
102
}
330
1262
100
AcDbXrecord
340
0
  0
XRECORD
  5
1282
102
{ACAD_REACTORS
330
1262
102
}
330
1262
100
AcDbXrecord
 10
0.0
 20
0.0
 30
0.0
  0
XRECORD
  5
127E
102
{ACAD_REACTORS
330
1262
102
}
330
1262
100
AcDbXrecord
 10
0.0
 20
0.0
 30
0.0
  0
XRECORD
  5
1281
102
{ACAD_REACTORS
330
1262
102
}
330
1262
100
AcDbXrecord
 10
0.0
 20
0.0
 30
0.0
  0
XRECORD
  5
127F
102
{ACAD_REACTORS
330
1262
102
}
330
1262
100
AcDbXrecord
 10
0.0
 20
0.0
 30
0.0
  0
XRECORD
  5
1280
102
{ACAD_REACTORS
330
1262
102
}
330
1262
100
AcDbXrecord
 10
0.0
 20
0.0
 30
0.0
  0
XRECORD
  5
127D
102
{ACAD_REACTORS
330
1262
102
}
330
1262
100
AcDbXrecord
 10
0.0
 20
0.0
 30
0.0
  0
XRECORD
  5
127A
102
{ACAD_REACTORS
330
1262
102
}
330
1262
100
AcDbXrecord
340
0
  0
XRECORD
  5
127B
102
{ACAD_REACTORS
330
1262
102
}
330
1262
100
AcDbXrecord
 70
     0
  0
XRECORD
  5
126E
102
{ACAD_REACTORS
330
1262
102
}
330
1262
100
AcDbXrecord
  1
{D542C411-DB11-44EB-AE4E-51613342E191}
  0
ENDSEC
  0
EOF
