  0
SECTION
  2
HEADER
  9
$ACADVER
  1
AC1015
  9
$ACADMAINTVER
 70
    20
  9
$DWGCODEPAGE
  3
ANSI_1252
  9
$INSBASE
 10
0.0
 20
0.0
 30
0.0
  9
$EXTMIN
 10
95.8306867645
 20
25.8314322126
 30
0.0
  9
$EXTMAX
 10
137.8268552267
 20
52.18690088609999
 30
0.0
  9
$LIMMIN
 10
0.0
 20
0.0
  9
$LIMMAX
 10
181.3333333333
 20
117.3333333333
  9
$ORTHOMODE
 70
     0
  9
$REGENMODE
 70
     1
  9
$FILLMODE
 70
     1
  9
$QTEXTMODE
 70
     0
  9
$MIRRTEXT
 70
     0
  9
$LTSCALE
 40
9.973333333300001
  9
$ATTMODE
 70
     1
  9
$TEXTSIZE
 40
0.2
  9
$TRACEWID
 40
0.05
  9
$TEXTSTYLE
  7
STANDARD
  9
$CLAYER
  8
0
  9
$CELTYPE
  6
BYLAYER
  9
$CECOLOR
 62
   256
  9
$CELTSCALE
 40
1.0
  9
$DISPSILH
 70
     0
  9
$DIMSCALE
 40
1.0
  9
$DIMASZ
 40
2.0
  9
$DIMEXO
 40
0.0625
  9
$DIMDLI
 40
6.890666666699999
  9
$DIMRND
 40
0.0
  9
$DIMDLE
 40
0.0
  9
$DIMEXE
 40
0.125
  9
$DIMTP
 40
0.00001
  9
$DIMTM
 40
0.00001
  9
$DIMTXT
 40
1.333333333299999
  9
$DIMCEN
 40
1.631999999999999
  9
$DIMTSZ
 40
0.0
  9
$DIMTOL
 70
     1
  9
$DIMLIM
 70
     0
  9
$DIMTIH
 70
     1
  9
$DIMTOH
 70
     1
  9
$DIMSE1
 70
     0
  9
$DIMSE2
 70
     0
  9
$DIMTAD
 70
     0
  9
$DIMZIN
 70
     0
  9
$DIMBLK
  1
_FILLED
  9
$DIMASO
 70
     1
  9
$DIMSHO
 70
     1
  9
$DIMPOST
  1

  9
$DIMAPOST
  1

  9
$DIMALT
 70
     0
  9
$DIMALTD
 70
     2
  9
$DIMALTF
 40
25.4
  9
$DIMLFAC
 40
1.0
  9
$DIMTOFL
 70
     0
  9
$DIMTVP
 40
0.0
  9
$DIMTIX
 70
     0
  9
$DIMSOXD
 70
     0
  9
$DIMSAH
 70
     0
  9
$DIMBLK1
  1

  9
$DIMBLK2
  1

  9
$DIMSTYLE
  2
STANDARD
  9
$DIMCLRD
 70
     0
  9
$DIMCLRE
 70
     0
  9
$DIMCLRT
 70
     0
  9
$DIMTFAC
 40
1.0
  9
$DIMGAP
 40
0.09
  9
$DIMJUST
 70
     0
  9
$DIMSD1
 70
     0
  9
$DIMSD2
 70
     0
  9
$DIMTOLJ
 70
     1
  9
$DIMTZIN
 70
     0
  9
$DIMALTZ
 70
     0
  9
$DIMALTTZ
 70
     0
  9
$DIMUPT
 70
     0
  9
$DIMDEC
 70
     4
  9
$DIMTDEC
 70
     4
  9
$DIMALTU
 70
     2
  9
$DIMALTTD
 70
     2
  9
$DIMTXSTY
  7
STANDARD
  9
$DIMAUNIT
 70
     0
  9
$DIMADEC
 70
     0
  9
$DIMALTRND
 40
0.0
  9
$DIMAZIN
 70
     0
  9
$DIMDSEP
 70
    46
  9
$DIMATFIT
 70
     3
  9
$DIMFRAC
 70
     0
  9
$DIMLDRBLK
  1

  9
$DIMLUNIT
 70
     2
  9
$DIMLWD
 70
    -2
  9
$DIMLWE
 70
    -2
  9
$DIMTMOVE
 70
     0
  9
$LUNITS
 70
     2
  9
$LUPREC
 70
     4
  9
$SKETCHINC
 40
0.1
  9
$FILLETRAD
 40
0.0
  9
$AUNITS
 70
     0
  9
$AUPREC
 70
     0
  9
$MENU
  1
.
  9
$ELEVATION
 40
0.0
  9
$PELEVATION
 40
0.0
  9
$THICKNESS
 40
0.0
  9
$LIMCHECK
 70
     0
  9
$CHAMFERA
 40
0.0
  9
$CHAMFERB
 40
0.0
  9
$CHAMFERC
 40
0.0
  9
$CHAMFERD
 40
0.0
  9
$SKPOLY
 70
     0
  9
$TDCREATE
 40
2456597.336554491
  9
$TDUCREATE
 40
2456597.544887824
  9
$TDUPDATE
 40
2456624.540292801
  9
$TDUUPDATE
 40
2456624.748626135
  9
$TDINDWG
 40
0.0054346528
  9
$TDUSRTIMER
 40
0.0054346528
  9
$USRTIMER
 70
     1
  9
$ANGBASE
 50
0.0
  9
$ANGDIR
 70
     0
  9
$PDMODE
 70
     3
  9
$PDSIZE
 40
0.03125
  9
$PLINEWID
 40
0.0
  9
$SPLFRAME
 70
     0
  9
$SPLINETYPE
 70
     6
  9
$SPLINESEGS
 70
     8
  9
$HANDSEED
  5
17E0
  9
$SURFTAB1
 70
     6
  9
$SURFTAB2
 70
     6
  9
$SURFTYPE
 70
     6
  9
$SURFU
 70
     6
  9
$SURFV
 70
     6
  9
$UCSBASE
  2

  9
$UCSNAME
  2

  9
$UCSORG
 10
0.0
 20
0.0
 30
0.0
  9
$UCSXDIR
 10
1.0
 20
0.0
 30
0.0
  9
$UCSYDIR
 10
0.0
 20
1.0
 30
0.0
  9
$UCSORTHOREF
  2

  9
$UCSORTHOVIEW
 70
     0
  9
$UCSORGTOP
 10
0.0
 20
0.0
 30
0.0
  9
$UCSORGBOTTOM
 10
0.0
 20
0.0
 30
0.0
  9
$UCSORGLEFT
 10
0.0
 20
0.0
 30
0.0
  9
$UCSORGRIGHT
 10
0.0
 20
0.0
 30
0.0
  9
$UCSORGFRONT
 10
0.0
 20
0.0
 30
0.0
  9
$UCSORGBACK
 10
0.0
 20
0.0
 30
0.0
  9
$PUCSBASE
  2

  9
$PUCSNAME
  2

  9
$PUCSORG
 10
0.0
 20
0.0
 30
0.0
  9
$PUCSXDIR
 10
1.0
 20
0.0
 30
0.0
  9
$PUCSYDIR
 10
0.0
 20
1.0
 30
0.0
  9
$PUCSORTHOREF
  2

  9
$PUCSORTHOVIEW
 70
     0
  9
$PUCSORGTOP
 10
0.0
 20
0.0
 30
0.0
  9
$PUCSORGBOTTOM
 10
0.0
 20
0.0
 30
0.0
  9
$PUCSORGLEFT
 10
0.0
 20
0.0
 30
0.0
  9
$PUCSORGRIGHT
 10
0.0
 20
0.0
 30
0.0
  9
$PUCSORGFRONT
 10
0.0
 20
0.0
 30
0.0
  9
$PUCSORGBACK
 10
0.0
 20
0.0
 30
0.0
  9
$USERI1
 70
     0
  9
$USERI2
 70
     0
  9
$USERI3
 70
     0
  9
$USERI4
 70
     0
  9
$USERI5
 70
     0
  9
$USERR1
 40
0.0
  9
$USERR2
 40
0.0
  9
$USERR3
 40
0.0
  9
$USERR4
 40
0.0
  9
$USERR5
 40
0.0
  9
$WORLDVIEW
 70
     1
  9
$SHADEDGE
 70
     3
  9
$SHADEDIF
 70
    70
  9
$TILEMODE
 70
     1
  9
$MAXACTVP
 70
    64
  9
$PINSBASE
 10
0.0
 20
0.0
 30
0.0
  9
$PLIMCHECK
 70
     0
  9
$PEXTMIN
 10
1.000000000000000E+20
 20
1.000000000000000E+20
 30
1.000000000000000E+20
  9
$PEXTMAX
 10
-1.000000000000000E+20
 20
-1.000000000000000E+20
 30
-1.000000000000000E+20
  9
$PLIMMIN
 10
0.0
 20
0.0
  9
$PLIMMAX
 10
12.0
 20
9.0
  9
$UNITMODE
 70
     0
  9
$VISRETAIN
 70
     1
  9
$PLINEGEN
 70
     0
  9
$PSLTSCALE
 70
     1
  9
$TREEDEPTH
 70
  3020
  9
$CMLSTYLE
  2
Standard
  9
$CMLJUST
 70
     0
  9
$CMLSCALE
 40
1.0
  9
$PROXYGRAPHICS
 70
     1
  9
$MEASUREMENT
 70
     0
  9
$CELWEIGHT
370
    -1
  9
$ENDCAPS
280
     0
  9
$JOINSTYLE
280
     0
  9
$LWDISPLAY
290
     0
  9
$INSUNITS
 70
     1
  9
$HYPERLINKBASE
  1

  9
$STYLESHEET
  1

  9
$XEDIT
290
     1
  9
$CEPSNTYPE
380
     0
  9
$PSTYLEMODE
290
     1
  9
$FINGERPRINTGUID
  2
{FDB93A40-0023-40AE-8372-CF1222E0D174}
  9
$VERSIONGUID
  2
{51E28E8D-2D65-46B8-82BE-A15FFF20053C}
  9
$EXTNAMES
290
     1
  9
$PSVPSCALE
 40
0.0
  9
$OLESTARTUP
290
     0
  0
ENDSEC
  0
SECTION
  2
CLASSES
  0
CLASS
  1
ACDBDICTIONARYWDFLT
  2
AcDbDictionaryWithDefault
  3
ObjectDBX Classes
 90
        0
280
     0
281
     0
  0
CLASS
  1
ACDBPLACEHOLDER
  2
AcDbPlaceHolder
  3
ObjectDBX Classes
 90
        0
280
     0
281
     0
  0
CLASS
  1
LAYOUT
  2
AcDbLayout
  3
ObjectDBX Classes
 90
        0
280
     0
281
     0
  0
CLASS
  1
MATERIAL
  2
AcDbMaterial
  3
ObjectDBX Classes
 90
     1153
280
     0
281
     0
  0
CLASS
  1
VISUALSTYLE
  2
AcDbVisualStyle
  3
ObjectDBX Classes
 90
     4095
280
     0
281
     0
  0
CLASS
  1
TABLESTYLE
  2
AcDbTableStyle
  3
ObjectDBX Classes
 90
     4095
280
     0
281
     0
  0
CLASS
  1
SCALE
  2
AcDbScale
  3
ObjectDBX Classes
 90
     1153
280
     0
281
     0
  0
CLASS
  1
MLEADERSTYLE
  2
AcDbMLeaderStyle
  3
ACDB_MLEADERSTYLE_CLASS
 90
     4095
280
     0
281
     0
  0
CLASS
  1
CELLSTYLEMAP
  2
AcDbCellStyleMap
  3
ObjectDBX Classes
 90
     1152
280
     0
281
     0
  0
CLASS
  1
DICTIONARYVAR
  2
AcDbDictionaryVar
  3
ObjectDBX Classes
 90
        0
280
     0
281
     0
  0
ENDSEC
  0
SECTION
  2
TABLES
  0
TABLE
  2
VPORT
  5
8
102
{ACAD_XDICTIONARY
360
1735
102
}
330
0
100
AcDbSymbolTable
 70
     1
  0
VPORT
  5
1F4
330
8
100
AcDbSymbolTableRecord
100
AcDbViewportTableRecord
  2
*ACTIVE
 70
     0
 10
0.0
 20
0.0
 11
1.0
 21
1.0
 12
128.1581345752825
 22
35.14910618109005
 13
0.0
 23
0.0
 14
1.0
 24
1.0
 15
0.0
 25
0.0
 16
0.0
 26
0.0
 36
1.0
 17
0.0
 27
0.0
 37
0.0
 40
56.28709720933483
 41
2.286075949367088
 42
50.0
 43
0.0
 44
0.0
 50
0.0
 51
0.0
 71
     0
 72
   100
 73
     1
 74
     1
 75
     0
 76
     0
 77
     0
 78
     0
281
     0
 65
     1
110
0.0
120
0.0
130
0.0
111
1.0
121
0.0
131
0.0
112
0.0
122
1.0
132
0.0
 79
     0
146
0.0
  0
ENDTAB
  0
TABLE
  2
LTYPE
  5
5
330
0
100
AcDbSymbolTable
 70
     7
  0
LTYPE
  5
14
330
5
100
AcDbSymbolTableRecord
100
AcDbLinetypeTableRecord
  2
BYBLOCK
 70
     0
  3

 72
    65
 73
     0
 40
0.0
  0
LTYPE
  5
15
330
5
100
AcDbSymbolTableRecord
100
AcDbLinetypeTableRecord
  2
BYLAYER
 70
     0
  3

 72
    65
 73
     0
 40
0.0
  0
LTYPE
  5
16
330
5
100
AcDbSymbolTableRecord
100
AcDbLinetypeTableRecord
  2
CONTINUOUS
 70
     0
  3
Solid line
 72
    65
 73
     0
 40
0.0
  0
LTYPE
  5
1F5
330
5
100
AcDbSymbolTableRecord
100
AcDbLinetypeTableRecord
  2
CENTER
 70
     0
  3
____ _ ____ _ ____ _ ____ _ ____ _ ____ _ ____
 72
    65
 73
     4
 40
0.6
 49
0.375
 74
     0
 49
-0.075
 74
     0
 49
0.075
 74
     0
 49
-0.075
 74
     0
  0
LTYPE
  5
1F6
330
5
100
AcDbSymbolTableRecord
100
AcDbLinetypeTableRecord
  2
HIDDEN
 70
     0
  3
- - - - - - - - - - - - - - - - - - - -
 72
    65
 73
     2
 40
0.2
 49
0.1
 74
     0
 49
-0.1
 74
     0
  0
LTYPE
  5
1F7
330
5
100
AcDbSymbolTableRecord
100
AcDbLinetypeTableRecord
  2
PHANTOM
 70
     0
  3
_____ _ _ _____ _ _ _____ _ _ _____
 72
    65
 73
     6
 40
0.8
 49
0.45
 74
     0
 49
-0.05
 74
     0
 49
0.1
 74
     0
 49
-0.05
 74
     0
 49
0.1
 74
     0
 49
-0.05
 74
     0
  0
LTYPE
  5
1F8
330
5
100
AcDbSymbolTableRecord
100
AcDbLinetypeTableRecord
  2
DOT
 70
     0
  3
. . . . . . . . . . . . . . . . . . . .
 72
    65
 73
     2
 40
0.2
 49
0.1
 74
     0
 49
-0.1
 74
     0
  0
LTYPE
  5
1F9
330
5
100
AcDbSymbolTableRecord
100
AcDbLinetypeTableRecord
  2
DASHED
 70
     0
  3
- - - - - - - - - - - - - - - - - - - -
 72
    65
 73
     2
 40
0.2
 49
0.1
 74
     0
 49
-0.1
 74
     0
  0
ENDTAB
  0
TABLE
  2
LAYER
  5
2
330
0
100
AcDbSymbolTable
 70
    25
  0
LAYER
  5
10
102
{ACAD_XDICTIONARY
360
177F
102
}
330
2
100
AcDbSymbolTableRecord
100
AcDbLayerTableRecord
  2
0
 70
     0
 62
     7
  6
CONTINUOUS
370
    -3
390
F
  0
LAYER
  5
1FA
102
{ACAD_XDICTIONARY
360
1781
102
}
330
2
100
AcDbSymbolTableRecord
100
AcDbLayerTableRecord
  2
DEFAULT_1
 70
     0
 62
     7
  6
CENTER
370
    -3
390
F
  0
LAYER
  5
1FB
102
{ACAD_XDICTIONARY
360
1783
102
}
330
2
100
AcDbSymbolTableRecord
100
AcDbLayerTableRecord
  2
DEFAULT_2
 70
     0
 62
     7
  6
HIDDEN
370
    -3
390
F
  0
LAYER
  5
1FC
102
{ACAD_XDICTIONARY
360
1785
102
}
330
2
100
AcDbSymbolTableRecord
100
AcDbLayerTableRecord
  2
DEFAULT_3
 70
     0
 62
     7
  6
PHANTOM
370
    -3
390
F
  0
LAYER
  5
1FD
102
{ACAD_XDICTIONARY
360
1787
102
}
330
2
100
AcDbSymbolTableRecord
100
AcDbLayerTableRecord
  2
0_CURVES_STYLE
 70
     0
 62
     7
  6
CONTINUOUS
370
    -3
390
F
  0
LAYER
  5
1FE
102
{ACAD_XDICTIONARY
360
1789
102
}
330
2
100
AcDbSymbolTableRecord
100
AcDbLayerTableRecord
  2
1_CURVES
 70
     0
 62
     7
  6
CONTINUOUS
370
    -3
390
F
  0
LAYER
  5
1FF
102
{ACAD_XDICTIONARY
360
178B
102
}
330
2
100
AcDbSymbolTableRecord
100
AcDbLayerTableRecord
  2
1_CURVES_DROIT_AUTEUR
 70
     0
 62
     7
  6
CONTINUOUS
370
    -3
390
F
  0
LAYER
  5
200
102
{ACAD_XDICTIONARY
360
178D
102
}
330
2
100
AcDbSymbolTableRecord
100
AcDbLayerTableRecord
  2
1_CURVES_DROIT_AUTEUR_PROJETE
 70
     0
 62
     7
  6
CONTINUOUS
370
    -3
390
F
  0
LAYER
  5
201
102
{ACAD_XDICTIONARY
360
178F
102
}
330
2
100
AcDbSymbolTableRecord
100
AcDbLayerTableRecord
  2
1_CURVES_JETS
 70
     0
 62
     7
  6
CONTINUOUS
370
    -3
390
F
  0
LAYER
  5
202
102
{ACAD_XDICTIONARY
360
1791
102
}
330
2
100
AcDbSymbolTableRecord
100
AcDbLayerTableRecord
  2
1_CURVES_JETS_PROJETE
 70
     0
 62
     7
  6
CONTINUOUS
370
    -3
390
F
  0
LAYER
  5
203
102
{ACAD_XDICTIONARY
360
1793
102
}
330
2
100
AcDbSymbolTableRecord
100
AcDbLayerTableRecord
  2
1_CURVES_JETS_PROJETE_SIEGE
 70
     0
 62
     7
  6
CONTINUOUS
370
    -3
390
F
  0
LAYER
  5
204
102
{ACAD_XDICTIONARY
360
1795
102
}
330
2
100
AcDbSymbolTableRecord
100
AcDbLayerTableRecord
  2
1_CURVES_SPEC
 70
     0
 62
     7
  6
CONTINUOUS
370
    -3
390
F
  0
LAYER
  5
205
102
{ACAD_XDICTIONARY
360
1797
102
}
330
2
100
AcDbSymbolTableRecord
100
AcDbLayerTableRecord
  2
1_CURVES_V
 70
     0
 62
     7
  6
CONTINUOUS
370
    -3
390
F
  0
LAYER
  5
206
102
{ACAD_XDICTIONARY
360
1799
102
}
330
2
100
AcDbSymbolTableRecord
100
AcDbLayerTableRecord
  2
2_PLANES
 70
     0
 62
     7
  6
CONTINUOUS
370
    -3
390
F
  0
LAYER
  5
207
102
{ACAD_XDICTIONARY
360
179B
102
}
330
2
100
AcDbSymbolTableRecord
100
AcDbLayerTableRecord
  2
2_PLANES_TOL_GEOM
 70
     0
 62
     7
  6
CONTINUOUS
370
    -3
390
F
  0
LAYER
  5
208
102
{ACAD_XDICTIONARY
360
179D
102
}
330
2
100
AcDbSymbolTableRecord
100
AcDbLayerTableRecord
  2
3_POINTS
 70
     0
 62
     7
  6
CONTINUOUS
370
    -3
390
F
  0
LAYER
  5
209
102
{ACAD_XDICTIONARY
360
179F
102
}
330
2
100
AcDbSymbolTableRecord
100
AcDbLayerTableRecord
  2
4_CSYS
 70
     0
 62
     7
  6
CONTINUOUS
370
    -3
390
F
  0
LAYER
  5
20A
102
{ACAD_XDICTIONARY
360
17A1
102
}
330
2
100
AcDbSymbolTableRecord
100
AcDbLayerTableRecord
  2
5_AXIS
 70
     0
 62
     7
  6
CONTINUOUS
370
    -3
390
F
  0
LAYER
  5
20B
102
{ACAD_XDICTIONARY
360
17A3
102
}
330
2
100
AcDbSymbolTableRecord
100
AcDbLayerTableRecord
  2
6_SURFACES
 70
     0
 62
     7
  6
CONTINUOUS
370
    -3
390
F
  0
LAYER
  5
20C
102
{ACAD_XDICTIONARY
360
17A5
102
}
330
2
100
AcDbSymbolTableRecord
100
AcDbLayerTableRecord
  2
6_SURFACES_DRW
 70
     0
 62
     7
  6
CONTINUOUS
370
    -3
390
F
  0
LAYER
  5
20D
102
{ACAD_XDICTIONARY
360
17A7
102
}
330
2
100
AcDbSymbolTableRecord
100
AcDbLayerTableRecord
  2
6_SURFACES_TOOLING
 70
     0
 62
     7
  6
CONTINUOUS
370
    -3
390
F
  0
LAYER
  5
20E
102
{ACAD_XDICTIONARY
360
17A9
102
}
330
2
100
AcDbSymbolTableRecord
100
AcDbLayerTableRecord
  2
7_NOTES
 70
     0
 62
     7
  6
CONTINUOUS
370
    -3
390
F
  0
LAYER
  5
20F
102
{ACAD_XDICTIONARY
360
17AB
102
}
330
2
100
AcDbSymbolTableRecord
100
AcDbLayerTableRecord
  2
XSEC_DATUMS
 70
     0
 62
     7
  6
CONTINUOUS
370
    -3
390
F
  0
LAYER
  5
210
102
{ACAD_XDICTIONARY
360
17AD
102
}
330
2
100
AcDbSymbolTableRecord
100
AcDbLayerTableRecord
  2
ZONE_ROBINETTERIE
 70
     0
 62
     7
  6
CONTINUOUS
370
    -3
390
F
  0
LAYER
  5
211
102
{ACAD_XDICTIONARY
360
17AF
102
}
330
2
100
AcDbSymbolTableRecord
100
AcDbLayerTableRecord
  2
ZONE_ROBINETTERIE_AUTOPORTANT
 70
     0
 62
     7
  6
CONTINUOUS
370
    -3
390
F
  0
ENDTAB
  0
TABLE
  2
STYLE
  5
3
330
0
100
AcDbSymbolTable
 70
     8
  0
STYLE
  5
11
330
3
100
AcDbSymbolTableRecord
100
AcDbTextStyleTableRecord
  2
STANDARD
 70
     0
 40
0.0
 41
0.8
 50
0.0
 71
     0
 42
0.2
  3
txt
  4

  0
STYLE
  5
212
330
3
100
AcDbSymbolTableRecord
100
AcDbTextStyleTableRecord
  2
TEXTSTYLE_1
 70
     0
 40
0.0
 41
0.8
 50
0.0
 71
     0
 42
0.2
  3
gdt
  4

  0
STYLE
  5
213
330
3
100
AcDbSymbolTableRecord
100
AcDbTextStyleTableRecord
  2
TEXTSTYLE_2
 70
     0
 40
0.0
 41
1.0
 50
0.0
 71
     0
 42
0.2
  3
trium.ttf
  4

  0
STYLE
  5
214
330
3
100
AcDbSymbolTableRecord
100
AcDbTextStyleTableRecord
  2
TEXTSTYLE_3
 70
     0
 40
0.0
 41
1.0
 50
0.0
 71
     0
 42
0.2
  3
trium.ttf
  4

  0
STYLE
  5
215
330
3
100
AcDbSymbolTableRecord
100
AcDbTextStyleTableRecord
  2
TEXTSTYLE_4
 70
     0
 40
0.0
 41
1.0
 50
0.0
 71
     0
 42
0.2
  3
txt_____.ttf
  4

1001
ACAD
1000
txt
1071
        2
  0
STYLE
  5
216
330
3
100
AcDbSymbolTableRecord
100
AcDbTextStyleTableRecord
  2
TEXTSTYLE_5
 70
     0
 40
0.0
 41
1.0
 50
0.0
 71
     0
 42
0.2
  3
txt_____.ttf
  4

1001
ACAD
1000
txt
1071
        2
  0
STYLE
  5
217
330
3
100
AcDbSymbolTableRecord
100
AcDbTextStyleTableRecord
  2
TEXTSTYLE_6
 70
     0
 40
0.0
 41
1.0
 50
0.0
 71
     0
 42
0.2
  3
trium.ttf
  4

  0
STYLE
  5
218
330
3
100
AcDbSymbolTableRecord
100
AcDbTextStyleTableRecord
  2
TEXTSTYLE_7
 70
     0
 40
0.0
 41
0.8
 50
0.0
 71
     0
 42
0.2
  3
txt_____.ttf
  4

1001
ACAD
1000
txt
1071
        2
  0
ENDTAB
  0
TABLE
  2
VIEW
  5
6
330
0
100
AcDbSymbolTable
 70
     0
  0
ENDTAB
  0
TABLE
  2
UCS
  5
7
330
0
100
AcDbSymbolTable
 70
     0
  0
ENDTAB
  0
TABLE
  2
APPID
  5
9
330
0
100
AcDbSymbolTable
 70
     3
  0
APPID
  5
219
330
9
100
AcDbSymbolTableRecord
100
AcDbRegAppTableRecord
  2
ACAD
 70
     0
  0
APPID
  5
1765
330
9
100
AcDbSymbolTableRecord
100
AcDbRegAppTableRecord
  2
ACAD_MLEADERVER
 70
     0
  0
APPID
  5
1776
330
9
100
AcDbSymbolTableRecord
100
AcDbRegAppTableRecord
  2
ACAD_EXEMPT_FROM_CAD_STANDARDS
 70
     0
  0
ENDTAB
  0
TABLE
  2
DIMSTYLE
  5
A
330
0
100
AcDbSymbolTable
 70
     4
100
AcDbDimStyleTable
 71
     1
340
226
  0
DIMSTYLE
105
226
330
A
100
AcDbSymbolTableRecord
100
AcDbDimStyleTableRecord
  2
STANDARD
 70
     0
 41
2.0
 44
0.125
 47
0.00001
 48
0.00001
 71
     1
 78
     4
140
1.333333333299999
271
     5
272
     5
284
     4
340
11
341
21C
342
21C
343
21C
344
21C
  0
DIMSTYLE
105
227
330
A
100
AcDbSymbolTableRecord
100
AcDbDimStyleTableRecord
  2
DIMSTYLE_1
 70
     0
 41
2.0
 44
0.125
 47
0.00001
 48
0.00001
 78
     4
140
1.333333333299999
147
0.0625
271
     3
272
     3
284
     4
340
11
341
21C
342
21C
343
21C
344
21C
  0
DIMSTYLE
105
228
330
A
100
AcDbSymbolTableRecord
100
AcDbDimStyleTableRecord
  2
DIMSTYLE_2
 70
     0
 41
2.0
 44
0.125
 47
0.001
 48
0.001
 78
     4
140
1.333333333299999
147
0.0625
271
     3
272
     3
284
     4
340
11
341
21C
342
21C
343
21C
344
21C
  0
ENDTAB
  0
TABLE
  2
BLOCK_RECORD
  5
1
330
0
100
AcDbSymbolTable
 70
    11
  0
BLOCK_RECORD
  5
21A
330
1
100
AcDbSymbolTableRecord
100
AcDbBlockTableRecord
  2
*Model_Space
340
16D8
  0
BLOCK_RECORD
  5
21B
330
1
100
AcDbSymbolTableRecord
100
AcDbBlockTableRecord
  2
*Paper_Space
340
16D9
  0
BLOCK_RECORD
  5
21C
330
1
100
AcDbSymbolTableRecord
100
AcDbBlockTableRecord
  2
_FILLED
340
0
102
{BLKREFS
331
2FC
331
2FD
331
305
331
306
331
30E
331
30F
331
317
331
318
331
320
331
321
331
329
331
32A
331
332
331
333
102
}
  0
BLOCK_RECORD
  5
21D
330
1
100
AcDbSymbolTableRecord
100
AcDbBlockTableRecord
  2
*D1
340
0
  0
BLOCK_RECORD
  5
21E
330
1
100
AcDbSymbolTableRecord
100
AcDbBlockTableRecord
  2
*D2
340
0
  0
BLOCK_RECORD
  5
21F
330
1
100
AcDbSymbolTableRecord
100
AcDbBlockTableRecord
  2
*D3
340
0
  0
BLOCK_RECORD
  5
220
330
1
100
AcDbSymbolTableRecord
100
AcDbBlockTableRecord
  2
*D4
340
0
  0
BLOCK_RECORD
  5
221
330
1
100
AcDbSymbolTableRecord
100
AcDbBlockTableRecord
  2
*D5
340
0
  0
BLOCK_RECORD
  5
222
330
1
100
AcDbSymbolTableRecord
100
AcDbBlockTableRecord
  2
*D6
340
0
  0
BLOCK_RECORD
  5
223
330
1
100
AcDbSymbolTableRecord
100
AcDbBlockTableRecord
  2
*D7
340
0
  0
BLOCK_RECORD
  5
224
330
1
100
AcDbSymbolTableRecord
100
AcDbBlockTableRecord
  2
SYMBOL_5_BL1
340
0
  0
BLOCK_RECORD
  5
225
330
1
100
AcDbSymbolTableRecord
100
AcDbBlockTableRecord
  2
SYMBOL_2_BL0
340
0
  0
ENDTAB
  0
ENDSEC
  0
SECTION
  2
BLOCKS
  0
BLOCK
  5
20
330
21A
100
AcDbEntity
  8
0
100
AcDbBlockBegin
  2
*Model_Space
 70
     0
 10
0.0
 20
0.0
 30
0.0
  3
*Model_Space
  1

  0
ENDBLK
  5
21
330
21A
100
AcDbEntity
  8
0
100
AcDbBlockEnd
  0
BLOCK
  5
1C
330
21B
100
AcDbEntity
 67
     1
  8
0
100
AcDbBlockBegin
  2
*Paper_Space
 70
     0
 10
0.0
 20
0.0
 30
0.0
  3
*Paper_Space
  1

  0
ENDBLK
  5
1D
330
21B
100
AcDbEntity
 67
     1
  8
0
100
AcDbBlockEnd
  0
BLOCK
  5
2F3
330
21C
100
AcDbEntity
  8
0
100
AcDbBlockBegin
  2
_FILLED
 70
     0
 10
0.0
 20
0.0
 30
0.0
  3
_FILLED
  1

  0
SOLID
  5
2F4
330
21C
100
AcDbEntity
  8
0
  6
ByBlock
 62
     0
100
AcDbTrace
 10
0.0
 20
0.0
 30
0.0
 11
-1.0
 21
0.1666666667
 31
0.0
 12
-1.0
 22
-0.1666666667
 32
0.0
 13
-1.0
 23
-0.1666666667
 33
0.0
  0
ENDBLK
  5
2F5
330
21C
100
AcDbEntity
  8
0
  6
ByBlock
 62
     0
100
AcDbBlockEnd
  0
BLOCK
  5
2F6
330
21D
100
AcDbEntity
  8
0
  6
Continuous
 62
     7
100
AcDbBlockBegin
  2
*D1
 70
     1
 10
0.0
 20
0.0
 30
0.0
  3
*D1
  1

  0
MTEXT
  5
2F7
330
21D
100
AcDbEntity
  8
0
  6
Continuous
 62
     7
100
AcDbMText
 10
160.2407331508
 20
90.9212923251
 30
0.0
 40
1.333333333299999
 41
6.4
 71
     2
 72
     1
  1
24-1/8\P[61]
 73
     1
 44
0.9
1001
ACAD
1000
MTEXTBEGIN
1070
    73
1070
     1
1070
    44
1040
0.9
1070
    74
1070
     0
1000
MTEXTEND
  0
LINE
  5
2F8
330
21D
100
AcDbEntity
  8
0
  6
Continuous
 62
     7
100
AcDbLine
 10
139.020766396
 20
78.2088562615
 30
0.0
 11
161.5740664841
 21
78.2088562615
 31
0.0
  0
LINE
  5
2F9
330
21D
100
AcDbEntity
  8
0
  6
Continuous
 62
     7
100
AcDbLine
 10
154.39346228
 20
102.3003950554
 30
0.0
 11
161.5740664841
 21
102.3003950554
 31
0.0
  0
LINE
  5
2FA
330
21D
100
AcDbEntity
  8
0
  6
Continuous
 62
     7
100
AcDbLine
 10
160.2407331508
 20
78.2088562615
 30
0.0
 11
160.2407331508
 21
86.9212923251
 31
0.0
  0
LINE
  5
2FB
330
21D
100
AcDbEntity
  8
0
  6
Continuous
 62
     7
100
AcDbLine
 10
160.2407331508
 20
102.3003950554
 30
0.0
 11
160.2407331508
 21
91.58795899180001
 31
0.0
  0
INSERT
  5
2FC
330
21D
100
AcDbEntity
  8
0
  6
Continuous
 62
     7
100
AcDbBlockReference
  2
_FILLED
 10
160.2407331508
 20
78.2088562615
 30
0.0
 41
2.0
 42
2.0
 43
2.0
 50
270.0
  0
INSERT
  5
2FD
330
21D
100
AcDbEntity
  8
0
  6
Continuous
 62
     7
100
AcDbBlockReference
  2
_FILLED
 10
160.2407331508
 20
102.3003950554
 30
0.0
 41
2.0
 42
2.0
 43
2.0
 50
90.0
  0
ENDBLK
  5
2FE
330
21D
100
AcDbEntity
  8
0
  6
ByBlock
 62
     0
100
AcDbBlockEnd
  0
BLOCK
  5
2FF
330
21E
100
AcDbEntity
  8
0
  6
Continuous
 62
     7
100
AcDbBlockBegin
  2
*D2
 70
     1
 10
0.0
 20
0.0
 30
0.0
  3
*D2
  1

  0
MTEXT
  5
300
330
21E
100
AcDbEntity
  8
0
  6
Continuous
 62
     7
100
AcDbMText
 10
9.733774266900001
 20
39.6758332159
 30
0.0
 40
1.333333333299999
 41
6.4
 71
     2
 72
     1
  1
26-3/8\P[66,9]
 73
     1
 44
0.9
1001
ACAD
1000
MTEXTBEGIN
1070
    73
1070
     1
1070
    44
1040
0.9
1070
    74
1070
     0
1000
MTEXTEND
  0
LINE
  5
301
330
21E
100
AcDbEntity
  8
0
  6
Continuous
 62
     7
100
AcDbLine
 10
29.8500416179
 20
25.8314322126
 30
0.0
 11
8.4004409336
 21
25.8314322126
 31
0.0
  0
LINE
  5
302
330
21E
100
AcDbEntity
  8
0
  6
Continuous
 62
     7
100
AcDbLine
 10
15.5514981723
 20
52.1869008859
 30
0.0
 11
8.4004409336
 21
52.1869008859
 31
0.0
  0
LINE
  5
303
330
21E
100
AcDbEntity
  8
0
  6
Continuous
 62
     7
100
AcDbLine
 10
9.733774266900001
 20
25.8314322126
 30
0.0
 11
9.733774266900001
 21
35.6758332159
 31
0.0
  0
LINE
  5
304
330
21E
100
AcDbEntity
  8
0
  6
Continuous
 62
     7
100
AcDbLine
 10
9.733774266900001
 20
52.1869008859
 30
0.0
 11
9.733774266900001
 21
40.3424998826
 31
0.0
  0
INSERT
  5
305
330
21E
100
AcDbEntity
  8
0
  6
Continuous
 62
     7
100
AcDbBlockReference
  2
_FILLED
 10
9.733774266900001
 20
25.8314322126
 30
0.0
 41
2.0
 42
2.0
 43
2.0
 50
270.0
  0
INSERT
  5
306
330
21E
100
AcDbEntity
  8
0
  6
Continuous
 62
     7
100
AcDbBlockReference
  2
_FILLED
 10
9.733774266900001
 20
52.1869008859
 30
0.0
 41
2.0
 42
2.0
 43
2.0
 50
90.0
  0
ENDBLK
  5
307
330
21E
100
AcDbEntity
  8
0
  6
ByBlock
 62
     0
100
AcDbBlockEnd
  0
BLOCK
  5
308
330
21F
100
AcDbEntity
  8
0
  6
Continuous
 62
     7
100
AcDbBlockBegin
  2
*D3
 70
     1
 10
0.0
 20
0.0
 30
0.0
  3
*D3
  1

  0
MTEXT
  5
309
330
21F
100
AcDbEntity
  8
0
  6
Continuous
 62
     7
100
AcDbMText
 10
48.97462737659999
 20
108.8115303349
 30
0.0
 40
1.333333333299999
 41
5.333333333299999
 71
     2
 72
     1
  1
72\P[183]
 73
     1
 44
0.9
1001
ACAD
1000
MTEXTBEGIN
1070
    73
1070
     1
1070
    44
1040
0.9
1070
    74
1070
     0
1000
MTEXTEND
  0
LINE
  5
30A
330
21F
100
AcDbEntity
  8
0
  6
Continuous
 62
     7
100
AcDbLine
 10
14.5746335381
 20
83.45926563579999
 30
0.0
 11
14.5746335381
 21
109.4781970016
 31
0.0
  0
LINE
  5
30B
330
21F
100
AcDbEntity
  8
0
  6
Continuous
 62
     7
100
AcDbLine
 10
86.57462121509999
 20
83.45926563579999
 30
0.0
 11
86.57462121509999
 21
109.4781970016
 31
0.0
  0
LINE
  5
30C
330
21F
100
AcDbEntity
  8
0
  6
Continuous
 62
     7
100
AcDbLine
 10
14.5746335381
 20
108.1448636682
 30
0.0
 11
47.2412940433
 21
108.1448636682
 31
0.0
  0
LINE
  5
30D
330
21F
100
AcDbEntity
  8
0
  6
Continuous
 62
     7
100
AcDbLine
 10
86.57462121509999
 20
108.1448636682
 30
0.0
 11
53.90796070989999
 21
108.1448636682
 31
0.0
  0
INSERT
  5
30E
330
21F
100
AcDbEntity
  8
0
  6
Continuous
 62
     7
100
AcDbBlockReference
  2
_FILLED
 10
14.5746335381
 20
108.1448636682
 30
0.0
 41
2.0
 42
2.0
 43
2.0
 50
180.0
  0
INSERT
  5
30F
330
21F
100
AcDbEntity
  8
0
  6
Continuous
 62
     7
100
AcDbBlockReference
  2
_FILLED
 10
86.57462121509999
 20
108.1448636682
 30
0.0
 41
2.0
 42
2.0
 43
2.0
  0
ENDBLK
  5
310
330
21F
100
AcDbEntity
  8
0
  6
ByBlock
 62
     0
100
AcDbBlockEnd
  0
BLOCK
  5
311
330
220
100
AcDbEntity
  8
0
  6
Continuous
 62
     7
100
AcDbBlockBegin
  2
*D4
 70
     1
 10
0.0
 20
0.0
 30
0.0
  3
*D4
  1

  0
MTEXT
  5
312
330
220
100
AcDbEntity
  8
0
  6
Continuous
 62
     7
100
AcDbMText
 10
93.62650596909999
 20
83.45926563579999
 30
0.0
 40
1.333333333299999
 41
5.333333333299999
 71
     2
 72
     1
  1
42\P[107]
 73
     1
 44
0.9
1001
ACAD
1000
MTEXTBEGIN
1070
    73
1070
     1
1070
    44
1040
0.9
1070
    74
1070
     0
1000
MTEXTEND
  0
LINE
  5
313
330
220
100
AcDbEntity
  8
0
  6
Continuous
 62
     7
100
AcDbLine
 10
67.2440091784
 20
103.7903010719
 30
0.0
 11
96.55983930239999
 21
103.7903010719
 31
0.0
  0
LINE
  5
314
330
220
100
AcDbEntity
  8
0
  6
Continuous
 62
     7
100
AcDbLine
 10
67.2440091784
 20
61.7948968664
 30
0.0
 11
96.55983930239999
 21
61.7948968664
 31
0.0
  0
LINE
  5
315
330
220
100
AcDbEntity
  8
0
  6
Continuous
 62
     7
100
AcDbLine
 10
95.22650596910001
 20
103.7903010719
 30
0.0
 11
95.22650596910001
 21
84.12593230250001
 31
0.0
  0
LINE
  5
316
330
220
100
AcDbEntity
  8
0
  6
Continuous
 62
     7
100
AcDbLine
 10
95.22650596910001
 20
61.7948968664
 30
0.0
 11
95.22650596910001
 21
79.45926563579999
 31
0.0
  0
INSERT
  5
317
330
220
100
AcDbEntity
  8
0
  6
Continuous
 62
     7
100
AcDbBlockReference
  2
_FILLED
 10
95.22650596910001
 20
103.7903010719
 30
0.0
 41
2.0
 42
2.0
 43
2.0
 50
90.0
  0
INSERT
  5
318
330
220
100
AcDbEntity
  8
0
  6
Continuous
 62
     7
100
AcDbBlockReference
  2
_FILLED
 10
95.22650596910001
 20
61.7948968664
 30
0.0
 41
2.0
 42
2.0
 43
2.0
 50
270.0
  0
ENDBLK
  5
319
330
220
100
AcDbEntity
  8
0
  6
ByBlock
 62
     0
100
AcDbBlockEnd
  0
BLOCK
  5
31A
330
221
100
AcDbEntity
  8
0
  6
Continuous
 62
     7
100
AcDbBlockBegin
  2
*D5
 70
     1
 10
0.0
 20
0.0
 30
0.0
  3
*D5
  1

  0
MTEXT
  5
31B
330
221
100
AcDbEntity
  8
0
  6
Continuous
 62
     7
100
AcDbMText
 10
50.57462737659999
 20
21.5892833307
 30
0.0
 40
1.333333333299999
 41
6.4
 71
     2
 72
     1
  1
40-1/8\P[102]
 73
     1
 44
0.9
1001
ACAD
1000
MTEXTBEGIN
1070
    73
1070
     1
1070
    44
1040
0.9
1070
    74
1070
     0
1000
MTEXTEND
  0
LINE
  5
31C
330
221
100
AcDbEntity
  8
0
  6
Continuous
 62
     7
100
AcDbLine
 10
30.5167082846
 20
25.1647655459
 30
0.0
 11
30.5167082846
 21
19.5892833307
 31
0.0
  0
LINE
  5
31D
330
221
100
AcDbEntity
  8
0
  6
Continuous
 62
     7
100
AcDbLine
 10
70.63254646859999
 20
25.1647655459
 30
0.0
 11
70.63254646859999
 21
19.5892833307
 31
0.0
  0
LINE
  5
31E
330
221
100
AcDbEntity
  8
0
  6
Continuous
 62
     7
100
AcDbLine
 10
30.5167082846
 20
20.9226166641
 30
0.0
 11
46.70796070989999
 21
20.9226166641
 31
0.0
  0
LINE
  5
31F
330
221
100
AcDbEntity
  8
0
  6
Continuous
 62
     7
100
AcDbLine
 10
70.63254646859999
 20
20.9226166641
 30
0.0
 11
54.44129404329999
 21
20.9226166641
 31
0.0
  0
INSERT
  5
320
330
221
100
AcDbEntity
  8
0
  6
Continuous
 62
     7
100
AcDbBlockReference
  2
_FILLED
 10
30.5167082846
 20
20.9226166641
 30
0.0
 41
2.0
 42
2.0
 43
2.0
 50
180.0
  0
INSERT
  5
321
330
221
100
AcDbEntity
  8
0
  6
Continuous
 62
     7
100
AcDbBlockReference
  2
_FILLED
 10
70.63254646859999
 20
20.9226166641
 30
0.0
 41
2.0
 42
2.0
 43
2.0
  0
ENDBLK
  5
322
330
221
100
AcDbEntity
  8
0
  6
ByBlock
 62
     0
100
AcDbBlockEnd
  0
BLOCK
  5
323
330
222
100
AcDbEntity
  8
0
  6
Continuous
 62
     7
100
AcDbBlockBegin
  2
*D6
 70
     1
 10
0.0
 20
0.0
 30
0.0
  3
*D6
  1

  0
MTEXT
  5
324
330
222
100
AcDbEntity
  8
0
  6
Continuous
 62
     7
100
AcDbMText
 10
115.2039658869
 20
18.1609174267
 30
0.0
 40
1.333333333299999
 41
6.4
 71
     2
 72
     1
  1
29-5/8\P[75]
 73
     1
 44
0.9
1001
ACAD
1000
MTEXTBEGIN
1070
    73
1070
     1
1070
    44
1040
0.9
1070
    74
1070
     0
1000
MTEXTEND
  0
LINE
  5
325
330
222
100
AcDbEntity
  8
0
  6
Continuous
 62
     7
100
AcDbLine
 10
100.396240978
 20
25.1647655459
 30
0.0
 11
100.396240978
 21
16.1609174267
 31
0.0
  0
LINE
  5
326
330
222
100
AcDbEntity
  8
0
  6
Continuous
 62
     7
100
AcDbLine
 10
130.0116907958
 20
25.1647655459
 30
0.0
 11
130.0116907958
 21
16.1609174267
 31
0.0
  0
LINE
  5
327
330
222
100
AcDbEntity
  8
0
  6
Continuous
 62
     7
100
AcDbLine
 10
100.396240978
 20
17.4942507601
 30
0.0
 11
111.3372992202
 21
17.4942507601
 31
0.0
  0
LINE
  5
328
330
222
100
AcDbEntity
  8
0
  6
Continuous
 62
     7
100
AcDbLine
 10
130.0116907958
 20
17.4942507601
 30
0.0
 11
119.0706325536
 21
17.4942507601
 31
0.0
  0
INSERT
  5
329
330
222
100
AcDbEntity
  8
0
  6
Continuous
 62
     7
100
AcDbBlockReference
  2
_FILLED
 10
100.396240978
 20
17.4942507601
 30
0.0
 41
2.0
 42
2.0
 43
2.0
 50
180.0
  0
INSERT
  5
32A
330
222
100
AcDbEntity
  8
0
  6
Continuous
 62
     7
100
AcDbBlockReference
  2
_FILLED
 10
130.0116907958
 20
17.4942507601
 30
0.0
 41
2.0
 42
2.0
 43
2.0
  0
ENDBLK
  5
32B
330
222
100
AcDbEntity
  8
0
  6
ByBlock
 62
     0
100
AcDbBlockEnd
  0
BLOCK
  5
32C
330
223
100
AcDbEntity
  8
0
  6
Continuous
 62
     7
100
AcDbBlockBegin
  2
*D7
 70
     1
 10
0.0
 20
0.0
 30
0.0
  3
*D7
  1

  0
MTEXT
  5
32D
330
223
100
AcDbEntity
  8
0
  6
Continuous
 62
     7
100
AcDbMText
 10
116.062634195
 20
23.1438994017
 30
0.0
 40
1.333333333299999
 41
6.4
 71
     2
 72
     1
  1
27-7/8\P[71]
 73
     1
 44
0.9
1001
ACAD
1000
MTEXTBEGIN
1070
    73
1070
     1
1070
    44
1040
0.9
1070
    74
1070
     0
1000
MTEXTEND
  0
LINE
  5
32E
330
223
100
AcDbEntity
  8
0
  6
Continuous
 62
     7
100
AcDbLine
 10
130.0116907958
 20
25.1647655459
 30
0.0
 11
130.0116907958
 21
21.1438994017
 31
0.0
  0
LINE
  5
32F
330
223
100
AcDbEntity
  8
0
  6
Continuous
 62
     7
100
AcDbLine
 10
102.1135775942
 20
25.1647655482
 30
0.0
 11
102.1135775942
 21
21.1438994017
 31
0.0
  0
LINE
  5
330
330
223
100
AcDbEntity
  8
0
  6
Continuous
 62
     7
100
AcDbLine
 10
130.0116907958
 20
22.47723273510001
 30
0.0
 11
119.9293008617
 21
22.47723273510001
 31
0.0
  0
LINE
  5
331
330
223
100
AcDbEntity
  8
0
  6
Continuous
 62
     7
100
AcDbLine
 10
102.1135775942
 20
22.47723273510001
 30
0.0
 11
112.1959675283
 21
22.47723273510001
 31
0.0
  0
INSERT
  5
332
330
223
100
AcDbEntity
  8
0
  6
Continuous
 62
     7
100
AcDbBlockReference
  2
_FILLED
 10
130.0116907958
 20
22.47723273510001
 30
0.0
 41
2.0
 42
2.0
 43
2.0
  0
INSERT
  5
333
330
223
100
AcDbEntity
  8
0
  6
Continuous
 62
     7
100
AcDbBlockReference
  2
_FILLED
 10
102.1135775942
 20
22.47723273510001
 30
0.0
 41
2.0
 42
2.0
 43
2.0
 50
180.0
  0
ENDBLK
  5
334
330
223
100
AcDbEntity
  8
0
  6
ByBlock
 62
     0
100
AcDbBlockEnd
  0
BLOCK
  5
229
330
224
100
AcDbEntity
  8
0
  6
Continuous
 62
     7
100
AcDbBlockBegin
  2
SYMBOL_5_BL1
 70
     0
 10
120.4781412034
 20
57.5297914987
 30
0.0
  3
SYMBOL_5_BL1
  1

  0
TEXT
  5
22A
330
224
100
AcDbEntity
  8
0
  6
Continuous
 62
     7
100
AcDbText
 10
114.1640809016
 20
59.7748254845
 30
0.0
 40
1.1626666667
  1
INTERNAL USE 
 50
10.0
  7
TEXTSTYLE_3
100
AcDbText
  0
TEXT
  5
22B
330
224
100
AcDbEntity
  8
0
  6
Continuous
 62
     7
100
AcDbText
 10
113.4203966976
 20
57.7733043068
 30
0.0
 40
1.1626666667
  1
DOCUMENT ONLY
 50
10.0
  7
TEXTSTYLE_3
100
AcDbText
  0
TEXT
  5
22C
330
224
100
AcDbEntity
  8
0
  6
Continuous
 62
     7
100
AcDbText
 10
119.2051242609
 20
57.5248762563
 30
0.0
 40
1.1626666667
  1
 
 50
10.0
  7
TEXTSTYLE_5
100
AcDbText
  0
TEXT
  5
22D
330
224
100
AcDbEntity
  8
0
  6
Continuous
 62
     7
100
AcDbText
 10
110.7604763779
 20
53.34778185
 30
0.0
 40
1.1626666667
  1
DOCUMENT POUR USAGE
 50
10.0
  7
TEXTSTYLE_3
100
AcDbText
  0
TEXT
  5
22E
330
224
100
AcDbEntity
  8
0
  6
Continuous
 62
     7
100
AcDbText
 10
111.1895758239
 20
51.3310333896
 30
0.0
 40
1.1626666667
  1
A L'INTERNE SEULEMENT
 50
10.0
  7
TEXTSTYLE_3
100
AcDbText
  0
LINE
  5
22F
330
224
100
AcDbEntity
  8
0
  6
Continuous
 62
     7
100
AcDbLine
 10
134.3346929267
 20
53.1862578807
 30
0.0
 11
134.3414518594
 21
53.1930168134
 31
0.0
  0
LINE
  5
230
330
224
100
AcDbEntity
  8
0
  6
Continuous
 62
     7
100
AcDbLine
 10
133.6021233603
 20
53.0570861009
 30
0.0
 11
134.2510048054
 21
53.7059675461
 31
0.0
  0
LINE
  5
231
330
224
100
AcDbEntity
  8
0
  6
Continuous
 62
     7
100
AcDbLine
 10
132.8695537939
 20
52.9279143211
 30
0.0
 11
134.1605577515
 21
54.2189182787
 31
0.0
  0
LINE
  5
232
330
224
100
AcDbEntity
  8
0
  6
Continuous
 62
     7
100
AcDbLine
 10
132.1369842275
 20
52.7987425413
 30
0.0
 11
134.0701106976
 21
54.7318690114
 31
0.0
  0
LINE
  5
233
330
224
100
AcDbEntity
  8
0
  6
Continuous
 62
     7
100
AcDbLine
 10
131.4044146611
 20
52.66957076149999
 30
0.0
 11
133.9796636436
 21
55.2448197441
 31
0.0
  0
LINE
  5
234
330
224
100
AcDbEntity
  8
0
  6
Continuous
 62
     7
100
AcDbLine
 10
130.6718450946
 20
52.5403989817
 30
0.0
 11
132.2128489094
 21
54.08140279649999
 31
0.0
  0
LINE
  5
235
330
224
100
AcDbEntity
  8
0
  6
Continuous
 62
     7
100
AcDbLine
 10
132.8101941022
 20
54.6787479892
 30
0.0
 11
133.8892165897
 21
55.7577704767
 31
0.0
  0
LINE
  5
236
330
224
100
AcDbEntity
  8
0
  6
Continuous
 62
     7
100
AcDbLine
 10
129.9392755282
 20
52.41122720189999
 30
0.0
 11
131.480279343
 21
53.9522310167
 31
0.0
  0
LINE
  5
237
330
224
100
AcDbEntity
  8
0
  6
Continuous
 62
     7
100
AcDbLine
 10
132.7197470482
 20
55.19169872189999
 30
0.0
 11
133.7987695357
 21
56.27072120939999
 31
0.0
  0
LINE
  5
238
330
224
100
AcDbEntity
  8
0
  6
Continuous
 62
     7
100
AcDbLine
 10
129.2067059618
 20
52.2820554221
 30
0.0
 11
130.7477097766
 21
53.82305923689999
 31
0.0
  0
LINE
  5
239
330
224
100
AcDbEntity
  8
0
  6
Continuous
 62
     7
100
AcDbLine
 10
132.6292999943
 20
55.7046494546
 30
0.0
 11
133.7083224818
 21
56.7836719421
 31
0.0
  0
LINE
  5
23A
330
224
100
AcDbEntity
  8
0
  6
Continuous
 62
     7
100
AcDbLine
 10
128.4741363954
 20
52.1528836423
 30
0.0
 11
130.0151402102
 21
53.6938874571
 31
0.0
  0
LINE
  5
23B
330
224
100
AcDbEntity
  8
0
  6
Continuous
 62
     7
100
AcDbLine
 10
132.5388529403
 20
56.2176001872
 30
0.0
 11
133.6178754278
 21
57.29662267470001
 31
0.0
  0
LINE
  5
23C
330
224
100
AcDbEntity
  8
0
  6
Continuous
 62
     7
100
AcDbLine
 10
127.741566829
 20
52.0237118625
 30
0.0
 11
129.2825706438
 21
53.56471567729999
 31
0.0
  0
LINE
  5
23D
330
224
100
AcDbEntity
  8
0
  6
Continuous
 62
     7
100
AcDbLine
 10
132.4484058864
 20
56.7305509199
 30
0.0
 11
133.5274283739
 21
57.80957340739999
 31
0.0
  0
LINE
  5
23E
330
224
100
AcDbEntity
  8
0
  6
Continuous
 62
     7
100
AcDbLine
 10
127.0089972626
 20
51.89454008270001
 30
0.0
 11
128.5500010773
 21
53.4355438975
 31
0.0
  0
LINE
  5
23F
330
224
100
AcDbEntity
  8
0
  6
Continuous
 62
     7
100
AcDbLine
 10
132.3579588324
 20
57.2435016526
 30
0.0
 11
133.4369813199
 21
58.3225241401
 31
0.0
  0
LINE
  5
240
330
224
100
AcDbEntity
  8
0
  6
Continuous
 62
     7
100
AcDbLine
 10
126.2764276961
 20
51.7653683029
 30
0.0
 11
127.8174315109
 21
53.3063721177
 31
0.0
  0
LINE
  5
241
330
224
100
AcDbEntity
  8
0
  6
Continuous
 62
     7
100
AcDbLine
 10
132.2675117785
 20
57.75645238520001
 30
0.0
 11
133.346534266
 21
58.8354748727
 31
0.0
  0
LINE
  5
242
330
224
100
AcDbEntity
  8
0
  6
Continuous
 62
     7
100
AcDbLine
 10
125.5438581297
 20
51.6361965231
 30
0.0
 11
127.0848619445
 21
53.17720033789999
 31
0.0
  0
LINE
  5
243
330
224
100
AcDbEntity
  8
0
  6
Continuous
 62
     7
100
AcDbLine
 10
132.1770647245
 20
58.2694031179
 30
0.0
 11
133.2560872121
 21
59.3484256054
 31
0.0
  0
LINE
  5
244
330
224
100
AcDbEntity
  8
0
  6
Continuous
 62
     7
100
AcDbLine
 10
124.8112885633
 20
51.5070247433
 30
0.0
 11
126.3522923781
 21
53.048028558
 31
0.0
  0
LINE
  5
245
330
224
100
AcDbEntity
  8
0
  6
Continuous
 62
     7
100
AcDbLine
 10
132.0866176706
 20
58.7823538506
 30
0.0
 11
133.1656401581
 21
59.8613763381
 31
0.0
  0
LINE
  5
246
330
224
100
AcDbEntity
  8
0
  6
Continuous
 62
     7
100
AcDbLine
 10
124.0787189969
 20
51.3778529635
 30
0.0
 11
125.6197228117
 21
52.91885677819999
 31
0.0
  0
LINE
  5
247
330
224
100
AcDbEntity
  8
0
  6
Continuous
 62
     7
100
AcDbLine
 10
131.7837380708
 20
59.08287203739999
 30
0.0
 11
133.0751931042
 21
60.3743270708
 31
0.0
  0
LINE
  5
248
330
224
100
AcDbEntity
  8
0
  6
Continuous
 62
     7
100
AcDbLine
 10
123.3461494305
 20
51.2486811837
 30
0.0
 11
124.8871532452
 21
52.7896849984
 31
0.0
  0
LINE
  5
249
330
224
100
AcDbEntity
  8
0
  6
Continuous
 62
     7
100
AcDbLine
 10
131.0511685044
 20
58.95370025750001
 30
0.0
 11
132.9847460502
 21
60.88727780340001
 31
0.0
  0
LINE
  5
24A
330
224
100
AcDbEntity
  8
0
  6
Continuous
 62
     7
100
AcDbLine
 10
122.6135798641
 20
51.1195094039
 30
0.0
 11
124.1545836788
 21
52.6605132186
 31
0.0
  0
LINE
  5
24B
330
224
100
AcDbEntity
  8
0
  6
Continuous
 62
     7
100
AcDbLine
 10
130.3185989379
 20
58.8245284777
 30
0.0
 11
131.3459412362
 21
59.851870776
 31
0.0
  0
LINE
  5
24C
330
224
100
AcDbEntity
  8
0
  6
Continuous
 62
     7
100
AcDbLine
 10
131.8152765088
 20
60.3212060486
 30
0.0
 11
132.8942989963
 21
61.40022853609999
 31
0.0
  0
LINE
  5
24D
330
224
100
AcDbEntity
  8
0
  6
Continuous
 62
     7
100
AcDbLine
 10
121.8810102976
 20
50.9903376241
 30
0.0
 11
123.4220141124
 21
52.5313414388
 31
0.0
  0
LINE
  5
24E
330
224
100
AcDbEntity
  8
0
  6
Continuous
 62
     7
100
AcDbLine
 10
129.5860293715
 20
58.6953566979
 30
0.0
 11
130.6133714602
 21
59.7226987866
 31
0.0
  0
LINE
  5
24F
330
224
100
AcDbEntity
  8
0
  6
Continuous
 62
     7
100
AcDbLine
 10
131.7248294548
 20
60.8341567812
 30
0.0
 11
132.8038519422999
 21
61.9131792688
 31
0.0
  0
LINE
  5
250
330
224
100
AcDbEntity
  8
0
  6
Continuous
 62
     7
100
AcDbLine
 10
121.1484407312
 20
50.8611658442
 30
0.0
 11
122.689444546
 21
52.402169659
 31
0.0
  0
LINE
  5
251
330
224
100
AcDbEntity
  8
0
  6
Continuous
 62
     7
100
AcDbLine
 10
128.8534598051
 20
58.5661849181
 30
0.0
 11
129.8808016841
 21
59.5935267972
 31
0.0
  0
LINE
  5
252
330
224
100
AcDbEntity
  8
0
  6
Continuous
 62
     7
100
AcDbLine
 10
131.6343824009
 20
61.3471075139
 30
0.0
 11
132.7134048884
 21
62.4261300014
 31
0.0
  0
LINE
  5
253
330
224
100
AcDbEntity
  8
0
  6
Continuous
 62
     7
100
AcDbLine
 10
120.4158711648
 20
50.7319940644
 30
0.0
 11
121.9568749796
 21
52.27299787919999
 31
0.0
  0
LINE
  5
254
330
224
100
AcDbEntity
  8
0
  6
Continuous
 62
     7
100
AcDbLine
 10
128.1208902387
 20
58.43701313829999
 30
0.0
 11
129.1482319081
 21
59.46435480779999
 31
0.0
  0
LINE
  5
255
330
224
100
AcDbEntity
  8
0
  6
Continuous
 62
     7
100
AcDbLine
 10
131.5439353469
 20
61.8600582466
 30
0.0
 11
132.6229578345
 21
62.93908073409999
 31
0.0
  0
LINE
  5
256
330
224
100
AcDbEntity
  8
0
  6
Continuous
 62
     7
100
AcDbLine
 10
119.6833015984
 20
50.6028222846
 30
0.0
 11
121.2243054132
 21
52.14382609939999
 31
0.0
  0
LINE
  5
257
330
224
100
AcDbEntity
  8
0
  6
Continuous
 62
     7
100
AcDbLine
 10
127.3883206723
 20
58.3078413585
 30
0.0
 11
128.4156621321
 21
59.3351828183
 31
0.0
  0
LINE
  5
258
330
224
100
AcDbEntity
  8
0
  6
Continuous
 62
     7
100
AcDbLine
 10
131.453488293
 20
62.3730089792
 30
0.0
 11
132.5325107805
 21
63.4520314668
 31
0.0
  0
LINE
  5
259
330
224
100
AcDbEntity
  8
0
  6
Continuous
 62
     7
100
AcDbLine
 10
118.950732032
 20
50.47365050479999
 30
0.0
 11
120.4917358467
 21
52.01465431959999
 31
0.0
  0
LINE
  5
25A
330
224
100
AcDbEntity
  8
0
  6
Continuous
 62
     7
100
AcDbLine
 10
126.6557511058
 20
58.17866957869999
 30
0.0
 11
127.6830923561
 21
59.20601082890001
 31
0.0
  0
LINE
  5
25B
330
224
100
AcDbEntity
  8
0
  6
Continuous
 62
     7
100
AcDbLine
 10
131.3630412391
 20
62.88595971189999
 30
0.0
 11
132.4420637266
 21
63.96498219939999
 31
0.0
  0
LINE
  5
25C
330
224
100
AcDbEntity
  8
0
  6
Continuous
 62
     7
100
AcDbLine
 10
118.2181624655
 20
50.344478725
 30
0.0
 11
119.7591662803
 21
51.88548253979999
 31
0.0
  0
LINE
  5
25D
330
224
100
AcDbEntity
  8
0
  6
Continuous
 62
     7
100
AcDbLine
 10
125.9231815394
 20
58.04949779890001
 30
0.0
 11
126.95052258
 21
59.07683883949999
 31
0.0
  0
LINE
  5
25E
330
224
100
AcDbEntity
  8
0
  6
Continuous
 62
     7
100
AcDbLine
 10
131.2725941851
 20
63.39891044459999
 30
0.0
 11
132.3516166726
 21
64.47793293210001
 31
0.0
  0
LINE
  5
25F
330
224
100
AcDbEntity
  8
0
  6
Continuous
 62
     7
100
AcDbLine
 10
117.4855928991
 20
50.2153069452
 30
0.0
 11
119.0265967139
 21
51.75631076
 31
0.0
  0
LINE
  5
260
330
224
100
AcDbEntity
  8
0
  6
Continuous
 62
     7
100
AcDbLine
 10
125.190611973
 20
57.92032601909999
 30
0.0
 11
126.217952804
 21
58.9476668501
 31
0.0
  0
LINE
  5
261
330
224
100
AcDbEntity
  8
0
  6
Continuous
 62
     7
100
AcDbLine
 10
131.1821471312
 20
63.9118611773
 30
0.0
 11
132.2611696187
 21
64.99088366479999
 31
0.0
  0
LINE
  5
262
330
224
100
AcDbEntity
  8
0
  6
Continuous
 62
     7
100
AcDbLine
 10
116.7530233327
 20
50.0861351654
 30
0.0
 11
118.2940271475
 21
51.6271389802
 31
0.0
  0
LINE
  5
263
330
224
100
AcDbEntity
  8
0
  6
Continuous
 62
     7
100
AcDbLine
 10
124.4580424066
 20
57.79115423930001
 30
0.0
 11
125.485383028
 21
58.8184948607
 31
0.0
  0
LINE
  5
264
330
224
100
AcDbEntity
  8
0
  6
Continuous
 62
     7
100
AcDbLine
 10
131.0917000772
 20
64.4248119099
 30
0.0
 11
132.1707225647
 21
65.5038343974
 31
0.0
  0
LINE
  5
265
330
224
100
AcDbEntity
  8
0
  6
Continuous
 62
     7
100
AcDbLine
 10
116.0204537663
 20
49.95696338560001
 30
0.0
 11
117.5614575811
 21
51.4979672004
 31
0.0
  0
LINE
  5
266
330
224
100
AcDbEntity
  8
0
  6
Continuous
 62
     7
100
AcDbLine
 10
123.7254728402
 20
57.6619824595
 30
0.0
 11
124.7528132519
 21
58.6893228713
 31
0.0
  0
LINE
  5
267
330
224
100
AcDbEntity
  8
0
  6
Continuous
 62
     7
100
AcDbLine
 10
130.9168239758
 20
64.8533335951
 30
0.0
 11
132.0802755108
 21
66.0167851301
 31
0.0
  0
LINE
  5
268
330
224
100
AcDbEntity
  8
0
  6
Continuous
 62
     7
100
AcDbLine
 10
115.2878841999
 20
49.8277916058
 30
0.0
 11
116.8288880147
 21
51.3687954206
 31
0.0
  0
LINE
  5
269
330
224
100
AcDbEntity
  8
0
  6
Continuous
 62
     7
100
AcDbLine
 10
122.9929032738
 20
57.5328106797
 30
0.0
 11
124.0202434759
 21
58.56015088180001
 31
0.0
  0
LINE
  5
26A
330
224
100
AcDbEntity
  8
0
  6
Continuous
 62
     7
100
AcDbLine
 10
130.1842544094
 20
64.72416181529999
 30
0.0
 11
131.7252582242
 21
66.2651656301
 31
0.0
  0
LINE
  5
26B
330
224
100
AcDbEntity
  8
0
  6
Continuous
 62
     7
100
AcDbLine
 10
114.5553146335
 20
49.69861982600001
 30
0.0
 11
116.0963184482
 21
51.2396236408
 31
0.0
  0
LINE
  5
26C
330
224
100
AcDbEntity
  8
0
  6
Continuous
 62
     7
100
AcDbLine
 10
122.2603337073
 20
57.4036388999
 30
0.0
 11
123.2876736999
 21
58.4309788924
 31
0.0
  0
LINE
  5
26D
330
224
100
AcDbEntity
  8
0
  6
Continuous
 62
     7
100
AcDbLine
 10
129.451684843
 20
64.5949900355
 30
0.0
 11
130.9926886577
 21
66.13599385029999
 31
0.0
  0
LINE
  5
26E
330
224
100
AcDbEntity
  8
0
  6
Continuous
 62
     7
100
AcDbLine
 10
113.822745067
 20
49.5694480462
 30
0.0
 11
115.3637488818
 21
51.110451861
 31
0.0
  0
LINE
  5
26F
330
224
100
AcDbEntity
  8
0
  6
Continuous
 62
     7
100
AcDbLine
 10
121.5277641409
 20
57.27446712009999
 30
0.0
 11
122.5551039239
 21
58.301806903
 31
0.0
  0
LINE
  5
270
330
224
100
AcDbEntity
  8
0
  6
Continuous
 62
     7
100
AcDbLine
 10
128.7191152765
 20
64.4658182557
 30
0.0
 11
130.2601190913
 21
66.00682207050001
 31
0.0
  0
LINE
  5
271
330
224
100
AcDbEntity
  8
0
  6
Continuous
 62
     7
100
AcDbLine
 10
113.0901755006
 20
49.4402762664
 30
0.0
 11
114.6311793154
 21
50.98128008119999
 31
0.0
  0
LINE
  5
272
330
224
100
AcDbEntity
  8
0
  6
Continuous
 62
     7
100
AcDbLine
 10
120.7951945745
 20
57.14529534029999
 30
0.0
 11
121.8225341478
 21
58.1726349136
 31
0.0
  0
LINE
  5
273
330
224
100
AcDbEntity
  8
0
  6
Continuous
 62
     7
100
AcDbLine
 10
127.9865457101
 20
64.33664647589999
 30
0.0
 11
129.5275495249
 21
65.8776502907
 31
0.0
  0
LINE
  5
274
330
224
100
AcDbEntity
  8
0
  6
Continuous
 62
     7
100
AcDbLine
 10
112.3576059342
 20
49.3111044866
 30
0.0
 11
113.898609749
 21
50.8521083014
 31
0.0
  0
LINE
  5
275
330
224
100
AcDbEntity
  8
0
  6
Continuous
 62
     7
100
AcDbLine
 10
120.0626250081
 20
57.0161235605
 30
0.0
 11
121.0899643718
 21
58.04346292419999
 31
0.0
  0
LINE
  5
276
330
224
100
AcDbEntity
  8
0
  6
Continuous
 62
     7
100
AcDbLine
 10
127.2539761437
 20
64.20747469609999
 30
0.0
 11
128.7949799585
 21
65.7484785109
 31
0.0
  0
LINE
  5
277
330
224
100
AcDbEntity
  8
0
  6
Continuous
 62
     7
100
AcDbLine
 10
111.6250363678
 20
49.1819327068
 30
0.0
 11
113.1660401826
 21
50.72293652159999
 31
0.0
  0
LINE
  5
278
330
224
100
AcDbEntity
  8
0
  6
Continuous
 62
     7
100
AcDbLine
 10
119.3300554417
 20
56.88695178069999
 30
0.0
 11
120.3573945958
 21
57.91429093479999
 31
0.0
  0
LINE
  5
279
330
224
100
AcDbEntity
  8
0
  6
Continuous
 62
     7
100
AcDbLine
 10
126.5214065773
 20
64.0783029163
 30
0.0
 11
128.0624103921
 21
65.6193067311
 31
0.0
  0
LINE
  5
27A
330
224
100
AcDbEntity
  8
0
  6
Continuous
 62
     7
100
AcDbLine
 10
110.8924668014
 20
49.052760927
 30
0.0
 11
112.4334706161
 21
50.5937647417
 31
0.0
  0
LINE
  5
27B
330
224
100
AcDbEntity
  8
0
  6
Continuous
 62
     7
100
AcDbLine
 10
118.5974858753
 20
56.7577800009
 30
0.0
 11
119.6248248197
 21
57.7851189453
 31
0.0
  0
LINE
  5
27C
330
224
100
AcDbEntity
  8
0
  6
Continuous
 62
     7
100
AcDbLine
 10
125.7888370109
 20
63.94913113649999
 30
0.0
 11
127.3298408257
 21
65.49013495130001
 31
0.0
  0
LINE
  5
27D
330
224
100
AcDbEntity
  8
0
  6
Continuous
 62
     7
100
AcDbLine
 10
110.1598972349
 20
48.9235891472
 30
0.0
 11
111.7009010497
 21
50.4645929619
 31
0.0
  0
LINE
  5
27E
330
224
100
AcDbEntity
  8
0
  6
Continuous
 62
     7
100
AcDbLine
 10
117.8649163088
 20
56.62860822109999
 30
0.0
 11
118.8922550437
 21
57.65594695589999
 31
0.0
  0
LINE
  5
27F
330
224
100
AcDbEntity
  8
0
  6
Continuous
 62
     7
100
AcDbLine
 10
125.0562674445
 20
63.8199593567
 30
0.0
 11
126.5972712592
 21
65.36096317149999
 31
0.0
  0
LINE
  5
280
330
224
100
AcDbEntity
  8
0
  6
Continuous
 62
     7
100
AcDbLine
 10
109.4273276685
 20
48.7944173674
 30
0.0
 11
110.9683314833
 21
50.3354211821
 31
0.0
  0
LINE
  5
281
330
224
100
AcDbEntity
  8
0
  6
Continuous
 62
     7
100
AcDbLine
 10
117.1323467424
 20
56.4994364412
 30
0.0
 11
118.1596852677
 21
57.5267749665
 31
0.0
  0
LINE
  5
282
330
224
100
AcDbEntity
  8
0
  6
Continuous
 62
     7
100
AcDbLine
 10
124.323697878
 20
63.69078757689999
 30
0.0
 11
125.8647016928
 21
65.23179139159999
 31
0.0
  0
LINE
  5
283
330
224
100
AcDbEntity
  8
0
  6
Continuous
 62
     7
100
AcDbLine
 10
108.876006896
 20
48.84649438149999
 30
0.0
 11
110.2357619169
 21
50.2062494023
 31
0.0
  0
LINE
  5
284
330
224
100
AcDbEntity
  8
0
  6
Continuous
 62
     7
100
AcDbLine
 10
116.399777176
 20
56.3702646614
 30
0.0
 11
117.4271154917
 21
57.3976029771
 31
0.0
  0
LINE
  5
285
330
224
100
AcDbEntity
  8
0
  6
Continuous
 62
     7
100
AcDbLine
 10
123.5911283116
 20
63.56161579710001
 30
0.0
 11
125.1321321264
 21
65.10261961180001
 31
0.0
  0
LINE
  5
286
330
224
100
AcDbEntity
  8
0
  6
Continuous
 62
     7
100
AcDbLine
 10
108.7855598421
 20
49.35944511409999
 30
0.0
 11
109.8645823296
 21
50.4384676016
 31
0.0
  0
LINE
  5
287
330
224
100
AcDbEntity
  8
0
  6
Continuous
 62
     7
100
AcDbLine
 10
115.6672076096
 20
56.24109288159999
 30
0.0
 11
116.6945457156
 21
57.2684309877
 31
0.0
  0
LINE
  5
288
330
224
100
AcDbEntity
  8
0
  6
Continuous
 62
     7
100
AcDbLine
 10
122.8585587452
 20
63.43244401729999
 30
0.0
 11
124.39956256
 21
64.973447832
 31
0.0
  0
LINE
  5
289
330
224
100
AcDbEntity
  8
0
  6
Continuous
 62
     7
100
AcDbLine
 10
108.6951127881
 20
49.87239584680001
 30
0.0
 11
109.7741352756
 21
50.9514183343
 31
0.0
  0
LINE
  5
28A
330
224
100
AcDbEntity
  8
0
  6
Continuous
 62
     7
100
AcDbLine
 10
114.9346380432
 20
56.1119211018
 30
0.0
 11
115.9619759396
 21
57.1392589983
 31
0.0
  0
LINE
  5
28B
330
224
100
AcDbEntity
  8
0
  6
Continuous
 62
     7
100
AcDbLine
 10
122.1259891788
 20
63.3032722375
 30
0.0
 11
123.6669929936
 21
64.8442760522
 31
0.0
  0
LINE
  5
28C
330
224
100
AcDbEntity
  8
0
  6
Continuous
 62
     7
100
AcDbLine
 10
108.6046657342
 20
50.38534657949999
 30
0.0
 11
109.6836882217
 21
51.46436906699999
 31
0.0
  0
LINE
  5
28D
330
224
100
AcDbEntity
  8
0
  6
Continuous
 62
     7
100
AcDbLine
 10
114.2020684767
 20
55.98274932199999
 30
0.0
 11
115.2294061636
 21
57.0100870089
 31
0.0
  0
LINE
  5
28E
330
224
100
AcDbEntity
  8
0
  6
Continuous
 62
     7
100
AcDbLine
 10
121.3934196124
 20
63.1741004576
 30
0.0
 11
122.9344234271
 21
64.7151042724
 31
0.0
  0
LINE
  5
28F
330
224
100
AcDbEntity
  8
0
  6
Continuous
 62
     7
100
AcDbLine
 10
108.5142186802
 20
50.8982973121
 30
0.0
 11
109.5932411678
 21
51.9773197996
 31
0.0
  0
LINE
  5
290
330
224
100
AcDbEntity
  8
0
  6
Continuous
 62
     7
100
AcDbLine
 10
113.4694989103
 20
55.8535775422
 30
0.0
 11
114.4968363875
 21
56.88091501939999
 31
0.0
  0
LINE
  5
291
330
224
100
AcDbEntity
  8
0
  6
Continuous
 62
     7
100
AcDbLine
 10
120.660850046
 20
63.04492867779999
 30
0.0
 11
122.2018538607
 21
64.58593249260001
 31
0.0
  0
LINE
  5
292
330
224
100
AcDbEntity
  8
0
  6
Continuous
 62
     7
100
AcDbLine
 10
108.4237716263
 20
51.4112480448
 30
0.0
 11
109.5027941138
 21
52.49027053229999
 31
0.0
  0
LINE
  5
293
330
224
100
AcDbEntity
  8
0
  6
Continuous
 62
     7
100
AcDbLine
 10
112.7369293439
 20
55.72440576239999
 30
0.0
 11
113.7642666115
 21
56.75174303
 31
0.0
  0
LINE
  5
294
330
224
100
AcDbEntity
  8
0
  6
Continuous
 62
     7
100
AcDbLine
 10
119.9282804795
 20
62.91575689800001
 30
0.0
 11
121.4692842943
 21
64.45676071279999
 31
0.0
  0
LINE
  5
295
330
224
100
AcDbEntity
  8
0
  6
Continuous
 62
     7
100
AcDbLine
 10
108.3333245723
 20
51.9241987775
 30
0.0
 11
109.4123470599
 21
53.003221265
 31
0.0
  0
LINE
  5
296
330
224
100
AcDbEntity
  8
0
  6
Continuous
 62
     7
100
AcDbLine
 10
112.0043597775
 20
55.5952339826
 30
0.0
 11
113.0316968355
 21
56.6225710406
 31
0.0
  0
LINE
  5
297
330
224
100
AcDbEntity
  8
0
  6
Continuous
 62
     7
100
AcDbLine
 10
119.1957109131
 20
62.78658511819999
 30
0.0
 11
120.7367147279
 21
64.327588933
 31
0.0
  0
LINE
  5
298
330
224
100
AcDbEntity
  8
0
  6
Continuous
 62
     7
100
AcDbLine
 10
108.2428775184
 20
52.4371495101
 30
0.0
 11
109.3219000059
 21
53.5161719977
 31
0.0
  0
LINE
  5
299
330
224
100
AcDbEntity
  8
0
  6
Continuous
 62
     7
100
AcDbLine
 10
111.2717902111
 20
55.4660622028
 30
0.0
 11
112.2991270595
 21
56.4933990512
 31
0.0
  0
LINE
  5
29A
330
224
100
AcDbEntity
  8
0
  6
Continuous
 62
     7
100
AcDbLine
 10
118.4631413467
 20
62.65741333840001
 30
0.0
 11
120.0041451615
 21
64.1984171532
 31
0.0
  0
LINE
  5
29B
330
224
100
AcDbEntity
  8
0
  6
Continuous
 62
     7
100
AcDbLine
 10
108.1524304645
 20
52.95010024279999
 30
0.0
 11
109.231452952
 21
54.0291227303
 31
0.0
  0
LINE
  5
29C
330
224
100
AcDbEntity
  8
0
  6
Continuous
 62
     7
100
AcDbLine
 10
110.5392206447
 20
55.336890423
 30
0.0
 11
111.5665572834
 21
56.3642270618
 31
0.0
  0
LINE
  5
29D
330
224
100
AcDbEntity
  8
0
  6
Continuous
 62
     7
100
AcDbLine
 10
117.7305717803
 20
62.52824155859999
 30
0.0
 11
119.2715755951
 21
64.06924537340001
 31
0.0
  0
LINE
  5
29E
330
224
100
AcDbEntity
  8
0
  6
Continuous
 62
     7
100
AcDbLine
 10
108.0619834105
 20
53.46305097550001
 30
0.0
 11
109.141005898
 21
54.542073463
 31
0.0
  0
LINE
  5
29F
330
224
100
AcDbEntity
  8
0
  6
Continuous
 62
     7
100
AcDbLine
 10
109.8066510782
 20
55.2077186432
 30
0.0
 11
110.8339875074
 21
56.23505507239999
 31
0.0
  0
LINE
  5
2A0
330
224
100
AcDbEntity
  8
0
  6
Continuous
 62
     7
100
AcDbLine
 10
116.9980022139
 20
62.3990697788
 30
0.0
 11
118.5390060286
 21
63.94007359359999
 31
0.0
  0
LINE
  5
2A1
330
224
100
AcDbEntity
  8
0
  6
Continuous
 62
     7
100
AcDbLine
 10
107.9715363566
 20
53.97600170810001
 30
0.0
 11
109.0505588441
 21
55.05502419569999
 31
0.0
  0
LINE
  5
2A2
330
224
100
AcDbEntity
  8
0
  6
Continuous
 62
     7
100
AcDbLine
 10
109.0740815118
 20
55.07854686339999
 30
0.0
 11
110.1014177314
 21
56.1058830829
 31
0.0
  0
LINE
  5
2A3
330
224
100
AcDbEntity
  8
0
  6
Continuous
 62
     7
100
AcDbLine
 10
116.2654326474
 20
62.269897999
 30
0.0
 11
117.8064364622
 21
63.8109018138
 31
0.0
  0
LINE
  5
2A4
330
224
100
AcDbEntity
  8
0
  6
Continuous
 62
     7
100
AcDbLine
 10
107.8810893026
 20
54.4889524408
 30
0.0
 11
109.3688479553
 21
55.9767110935
 31
0.0
  0
LINE
  5
2A5
330
224
100
AcDbEntity
  8
0
  6
Continuous
 62
     7
100
AcDbLine
 10
115.532863081
 20
62.14072621919999
 30
0.0
 11
117.0738668958
 21
63.68173003399999
 31
0.0
  0
LINE
  5
2A6
330
224
100
AcDbEntity
  8
0
  6
Continuous
 62
     7
100
AcDbLine
 10
107.7906422487
 20
55.0019031735
 30
0.0
 11
108.8696647362
 21
56.080925661
 31
0.0
  0
LINE
  5
2A7
330
224
100
AcDbEntity
  8
0
  6
Continuous
 62
     7
100
AcDbLine
 10
114.8002935146
 20
62.01155443939999
 30
0.0
 11
116.3412973294
 21
63.5525582542
 31
0.0
  0
LINE
  5
2A8
330
224
100
AcDbEntity
  8
0
  6
Continuous
 62
     7
100
AcDbLine
 10
107.7001951947
 20
55.51485390609999
 30
0.0
 11
108.7792176823
 21
56.5938763937
 31
0.0
  0
LINE
  5
2A9
330
224
100
AcDbEntity
  8
0
  6
Continuous
 62
     7
100
AcDbLine
 10
114.0677239482
 20
61.88238265959999
 30
0.0
 11
115.608727763
 21
63.4233864744
 31
0.0
  0
LINE
  5
2AA
330
224
100
AcDbEntity
  8
0
  6
Continuous
 62
     7
100
AcDbLine
 10
107.6097481408
 20
56.0278046388
 30
0.0
 11
108.6887706283
 21
57.1068271263
 31
0.0
  0
LINE
  5
2AB
330
224
100
AcDbEntity
  8
0
  6
Continuous
 62
     7
100
AcDbLine
 10
113.3351543818
 20
61.75321087979999
 30
0.0
 11
114.8761581966
 21
63.2942146946
 31
0.0
  0
LINE
  5
2AC
330
224
100
AcDbEntity
  8
0
  6
Continuous
 62
     7
100
AcDbLine
 10
107.5193010869
 20
56.54075537149999
 30
0.0
 11
108.5983235744
 21
57.619777859
 31
0.0
  0
LINE
  5
2AD
330
224
100
AcDbEntity
  8
0
  6
Continuous
 62
     7
100
AcDbLine
 10
112.6025848154
 20
61.6240391
 30
0.0
 11
114.1435886301
 21
63.1650429148
 31
0.0
  0
LINE
  5
2AE
330
224
100
AcDbEntity
  8
0
  6
Continuous
 62
     7
100
AcDbLine
 10
107.4288540329
 20
57.05370610420001
 30
0.0
 11
108.5078765204
 21
58.1327285917
 31
0.0
  0
LINE
  5
2AF
330
224
100
AcDbEntity
  8
0
  6
Continuous
 62
     7
100
AcDbLine
 10
111.8700152489
 20
61.49486732020001
 30
0.0
 11
113.4110190637
 21
63.035871135
 31
0.0
  0
LINE
  5
2B0
330
224
100
AcDbEntity
  8
0
  6
Continuous
 62
     7
100
AcDbLine
 10
107.338406979
 20
57.5666568368
 30
0.0
 11
108.4174294665
 21
58.6456793243
 31
0.0
  0
LINE
  5
2B1
330
224
100
AcDbEntity
  8
0
  6
Continuous
 62
     7
100
AcDbLine
 10
111.1374456825
 20
61.3656955404
 30
0.0
 11
112.6784494973
 21
62.9066993552
 31
0.0
  0
LINE
  5
2B2
330
224
100
AcDbEntity
  8
0
  6
Continuous
 62
     7
100
AcDbLine
 10
107.247959925
 20
58.0796075695
 30
0.0
 11
108.3269824125
 21
59.158630057
 31
0.0
  0
LINE
  5
2B3
330
224
100
AcDbEntity
  8
0
  6
Continuous
 62
     7
100
AcDbLine
 10
110.4048761161
 20
61.2365237606
 30
0.0
 11
111.9458799309
 21
62.7775275753
 31
0.0
  0
LINE
  5
2B4
330
224
100
AcDbEntity
  8
0
  6
Continuous
 62
     7
100
AcDbLine
 10
107.1575128711
 20
58.5925583022
 30
0.0
 11
108.2365353586
 21
59.6715807897
 31
0.0
  0
LINE
  5
2B5
330
224
100
AcDbEntity
  8
0
  6
Continuous
 62
     7
100
AcDbLine
 10
109.6723065497
 20
61.1073519808
 30
0.0
 11
111.2133103645
 21
62.6483557955
 31
0.0
  0
LINE
  5
2B6
330
224
100
AcDbEntity
  8
0
  6
Continuous
 62
     7
100
AcDbLine
 10
107.0670658171
 20
59.10550903479999
 30
0.0
 11
108.1460883047
 21
60.1845315223
 31
0.0
  0
LINE
  5
2B7
330
224
100
AcDbEntity
  8
0
  6
Continuous
 62
     7
100
AcDbLine
 10
108.9397369833
 20
60.978180201
 30
0.0
 11
110.480740798
 21
62.5191840157
 31
0.0
  0
LINE
  5
2B8
330
224
100
AcDbEntity
  8
0
  6
Continuous
 62
     7
100
AcDbLine
 10
106.9766187632
 20
59.6184597675
 30
0.0
 11
108.0556412507
 21
60.69748225499999
 31
0.0
  0
LINE
  5
2B9
330
224
100
AcDbEntity
  8
0
  6
Continuous
 62
     7
100
AcDbLine
 10
108.2071674168
 20
60.84900842119999
 30
0.0
 11
109.7481712316
 21
62.3900122359
 31
0.0
  0
LINE
  5
2BA
330
224
100
AcDbEntity
  8
0
  6
Continuous
 62
     7
100
AcDbLine
 10
106.8861717092
 20
60.1314105002
 30
0.0
 11
109.0156016652
 21
62.2608404561
 31
0.0
  0
LINE
  5
2BB
330
224
100
AcDbEntity
  8
0
  6
Continuous
 62
     7
100
AcDbLine
 10
106.7957246553
 20
60.6443612328
 30
0.0
 11
108.2830320988
 21
62.1316686763
 31
0.0
  0
LINE
  5
2BC
330
224
100
AcDbEntity
  8
0
  6
Continuous
 62
     7
100
AcDbLine
 10
106.7052776014
 20
61.1573119655
 30
0.0
 11
107.5504625324
 21
62.0024968965
 31
0.0
  0
LINE
  5
2BD
330
224
100
AcDbEntity
  8
0
  6
Continuous
 62
     7
100
AcDbLine
 10
106.6148305474
 20
61.6702626982
 30
0.0
 11
106.817892966
 21
61.8733251167
 31
0.0
  0
ENDBLK
  5
2BE
330
224
100
AcDbEntity
  8
0
  6
ByBlock
 62
     0
100
AcDbBlockEnd
  0
BLOCK
  5
2BF
330
225
100
AcDbEntity
  8
0
  6
Continuous
 62
     7
100
AcDbBlockBegin
  2
SYMBOL_2_BL0
 70
     0
 10
160.6666666667
 20
55.33333333329999
 30
0.0
  3
SYMBOL_2_BL0
  1

  0
TEXT
  5
2C0
330
225
100
AcDbEntity
  8
0
  6
Continuous
 62
     7
100
AcDbText
 10
144.4188815905
 20
63.10676672439999
 30
0.0
 40
0.5
  1
Infomations Techniques/Technical Infomations
  7
TEXTSTYLE_2
100
AcDbText
  0
TEXT
  5
2C1
330
225
100
AcDbEntity
  8
0
  6
Continuous
 62
     7
100
AcDbText
 10
144.6666666667
 20
61.6666666667
 30
0.0
 40
0.6666666667
  1
NOMBRE DE JETS:     58
  7
TEXTSTYLE_2
100
AcDbText
  0
TEXT
  5
2C2
330
225
100
AcDbEntity
  8
0
  6
Continuous
 62
     7
100
AcDbText
 10
144.6666666667
 20
60.6666666667
 30
0.0
 40
0.6666666667
  1
 
  7
TEXTSTYLE_2
100
AcDbText
  0
TEXT
  5
2C3
330
225
100
AcDbEntity
  8
0
  6
Continuous
 62
     7
100
AcDbText
 10
144.6666666667
 20
59.66666666670001
 30
0.0
 40
0.6666666667
  1
NIVEAU D'EAU              GALLONS(US)        LITRES        GALLONS(UK)
  7
TEXTSTYLE_2
100
AcDbText
  0
TEXT
  5
2C4
330
225
100
AcDbEntity
  8
0
  6
Continuous
 62
     7
100
AcDbText
 10
144.6666666667
 20
58.6666666667
 30
0.0
 40
0.6666666667
  1
PLEIN
  7
TEXTSTYLE_2
100
AcDbText
  0
TEXT
  5
2C5
330
225
100
AcDbEntity
  8
0
  6
Continuous
 62
     7
100
AcDbText
 10
144.6666666667
 20
57.6666666667
 30
0.0
 40
0.6666666667
  1
HAUT T.PLEIN
  7
TEXTSTYLE_2
100
AcDbText
  0
TEXT
  5
2C6
330
225
100
AcDbEntity
  8
0
  6
Continuous
 62
     7
100
AcDbText
 10
144.6666666667
 20
56.6666666667
 30
0.0
 40
0.6666666667
  1
MILIEU T.PLEIN
  7
TEXTSTYLE_2
100
AcDbText
  0
TEXT
  5
2C7
330
225
100
AcDbEntity
  8
0
  6
Continuous
 62
     7
100
AcDbText
 10
144.6666666667
 20
55.6666666667
 30
0.0
 40
0.6666666667
  1
BAS T.PLEIN
  7
TEXTSTYLE_2
100
AcDbText
  0
TEXT
  5
2C8
330
225
100
AcDbEntity
  8
0
  6
Continuous
 62
     7
100
AcDbText
 10
144.6666666667
 20
54.66666666670001
 30
0.0
 40
0.6666666667
  1
3" EN BAS T.PLEIN
  7
TEXTSTYLE_2
100
AcDbText
  0
TEXT
  5
2C9
330
225
100
AcDbEntity
  8
0
  6
Continuous
 62
     7
100
AcDbText
 10
144.6666666667
 20
53.6666666667
 30
0.0
 40
0.6666666667
  1
 
  7
TEXTSTYLE_2
100
AcDbText
  0
TEXT
  5
2CA
330
225
100
AcDbEntity
  8
0
  6
Continuous
 62
     7
100
AcDbText
 10
144.4665051611
 20
53.1198797418
 30
0.0
 40
0.5
  1
Legende/Legend
  7
TEXTSTYLE_2
100
AcDbText
  0
TEXT
  5
2CB
330
225
100
AcDbEntity
  8
0
  6
Continuous
 62
     7
100
AcDbText
 10
150.9953401051
 20
51.6086147641
 30
0.0
 40
0.6666666667
  1
ZONE DE ROBINETTERIE
  7
TEXTSTYLE_2
100
AcDbText
  0
TEXT
  5
2CC
330
225
100
AcDbEntity
  8
0
  6
Continuous
 62
     7
100
AcDbText
 10
145.9156155382
 20
50.1133702497
 30
0.0
 40
0.6666666667
  1
L   :  SYSTEME LED       DC   :  DOUBLE DOSSIER CHAUFFANT
  7
TEXTSTYLE_2
100
AcDbText
  0
TEXT
  5
2CD
330
225
100
AcDbEntity
  8
0
  6
Continuous
 62
     7
100
AcDbText
 10
145.9156155382
 20
48.7800369164
 30
0.0
 40
0.6666666667
  1
C   :  CONTROLE
  7
TEXTSTYLE_2
100
AcDbText
  0
TEXT
  5
2CE
330
225
100
AcDbEntity
  8
0
  6
Continuous
 62
     7
100
AcDbText
 10
145.9156155382
 20
47.4467035831
 30
0.0
 40
0.6666666667
  1
T   :  MOTEUR
  7
TEXTSTYLE_2
100
AcDbText
  0
TEXT
  5
2CF
330
225
100
AcDbEntity
  8
0
  6
Continuous
 62
     7
100
AcDbText
 10
157.2438078104
 20
58.6666666667
 30
0.0
 40
0.6666666667
  1
121
  7
TEXTSTYLE_2
100
AcDbText
  0
TEXT
  5
2D0
330
225
100
AcDbEntity
  8
0
  6
Continuous
 62
     7
100
AcDbText
 10
157.2438078104
 20
57.6666666667
 30
0.0
 40
0.6666666667
  1
104
  7
TEXTSTYLE_2
100
AcDbText
  0
TEXT
  5
2D1
330
225
100
AcDbEntity
  8
0
  6
Continuous
 62
     7
100
AcDbText
 10
157.499363366
 20
56.6666666667
 30
0.0
 40
0.6666666667
  1
95
  7
TEXTSTYLE_2
100
AcDbText
  0
TEXT
  5
2D2
330
225
100
AcDbEntity
  8
0
  6
Continuous
 62
     7
100
AcDbText
 10
157.499363366
 20
55.6666666667
 30
0.0
 40
0.6666666667
  1
87
  7
TEXTSTYLE_2
100
AcDbText
  0
TEXT
  5
2D3
330
225
100
AcDbEntity
  8
0
  6
Continuous
 62
     7
100
AcDbText
 10
157.499363366
 20
54.66666666670001
 30
0.0
 40
0.6666666667
  1
65
  7
TEXTSTYLE_2
100
AcDbText
  0
TEXT
  5
2D4
330
225
100
AcDbEntity
  8
0
  6
Continuous
 62
     7
100
AcDbText
 10
164.4195693097
 20
58.68374606879999
 30
0.0
 40
0.6666666667
  1
459
  7
TEXTSTYLE_2
100
AcDbText
  0
TEXT
  5
2D5
330
225
100
AcDbEntity
  8
0
  6
Continuous
 62
     7
100
AcDbText
 10
164.4195693097
 20
57.6837460688
 30
0.0
 40
0.6666666667
  1
395
  7
TEXTSTYLE_2
100
AcDbText
  0
TEXT
  5
2D6
330
225
100
AcDbEntity
  8
0
  6
Continuous
 62
     7
100
AcDbText
 10
164.4195693097
 20
56.6837460688
 30
0.0
 40
0.6666666667
  1
361
  7
TEXTSTYLE_2
100
AcDbText
  0
TEXT
  5
2D7
330
225
100
AcDbEntity
  8
0
  6
Continuous
 62
     7
100
AcDbText
 10
164.4195693097
 20
55.68374606879999
 30
0.0
 40
0.6666666667
  1
327
  7
TEXTSTYLE_2
100
AcDbText
  0
TEXT
  5
2D8
330
225
100
AcDbEntity
  8
0
  6
Continuous
 62
     7
100
AcDbText
 10
164.4195693097
 20
54.6837460688
 30
0.0
 40
0.6666666667
  1
246
  7
TEXTSTYLE_2
100
AcDbText
  0
TEXT
  5
2D9
330
225
100
AcDbEntity
  8
0
  6
Continuous
 62
     7
100
AcDbText
 10
171.1086526916
 20
58.6666666667
 30
0.0
 40
0.6666666667
  1
101
  7
TEXTSTYLE_2
100
AcDbText
  0
TEXT
  5
2DA
330
225
100
AcDbEntity
  8
0
  6
Continuous
 62
     7
100
AcDbText
 10
171.3642082472
 20
57.6666666667
 30
0.0
 40
0.6666666667
  1
87
  7
TEXTSTYLE_2
100
AcDbText
  0
TEXT
  5
2DB
330
225
100
AcDbEntity
  8
0
  6
Continuous
 62
     7
100
AcDbText
 10
171.3642082472
 20
56.6666666667
 30
0.0
 40
0.6666666667
  1
79
  7
TEXTSTYLE_2
100
AcDbText
  0
TEXT
  5
2DC
330
225
100
AcDbEntity
  8
0
  6
Continuous
 62
     7
100
AcDbText
 10
171.3642082472
 20
55.6666666667
 30
0.0
 40
0.6666666667
  1
72
  7
TEXTSTYLE_2
100
AcDbText
  0
TEXT
  5
2DD
330
225
100
AcDbEntity
  8
0
  6
Continuous
 62
     7
100
AcDbText
 10
171.3642082472
 20
54.66666666670001
 30
0.0
 40
0.6666666667
  1
54
  7
TEXTSTYLE_2
100
AcDbText
  0
LINE
  5
2DE
330
225
100
AcDbEntity
  8
0
  6
Continuous
 62
     7
100
AcDbLine
 10
144.0
 20
64.0
 30
0.0
 11
144.0
 21
46.6666666667
 31
0.0
  0
LINE
  5
2DF
330
225
100
AcDbEntity
  8
0
  6
Continuous
 62
     7
100
AcDbLine
 10
144.0
 20
64.0
 30
0.0
 11
177.3333333333
 21
64.0
 31
0.0
  0
LINE
  5
2E0
330
225
100
AcDbEntity
  8
0
  6
Continuous
 62
     7
100
AcDbLine
 10
177.3333333333
 20
64.0
 30
0.0
 11
177.3333333333
 21
46.6666666667
 31
0.0
  0
LINE
  5
2E1
330
225
100
AcDbEntity
  8
0
  6
Continuous
 62
     7
100
AcDbLine
 10
144.0
 20
46.6666666667
 30
0.0
 11
177.3333333333
 21
46.6666666667
 31
0.0
  0
LINE
  5
2E2
330
225
100
AcDbEntity
  8
0
  6
Continuous
 62
     7
100
AcDbLine
 10
145.3333333333
 20
54.0
 30
0.0
 11
176.0
 21
54.0
 31
0.0
  0
LINE
  5
2E3
330
225
100
AcDbEntity
  8
0
  6
Continuous
 62
     7
100
AcDbLine
 10
145.3333333333
 20
61.0
 30
0.0
 11
176.0
 21
61.0
 31
0.0
  0
LINE
  5
2E4
330
225
100
AcDbEntity
  8
0
  6
Continuous
 62
     7
100
AcDbLine
 10
144.8089065593
 20
52.3781645044
 30
0.0
 11
144.4398858169
 21
52.009143762
 31
0.0
  0
LINE
  5
2E5
330
225
100
AcDbEntity
  8
0
  6
Continuous
 62
     7
100
AcDbLine
 10
145.4755732259
 20
52.3781645044
 30
0.0
 11
144.6775574355
 21
51.5801487139
 31
0.0
  0
LINE
  5
2E6
330
225
100
AcDbEntity
  8
0
  6
Continuous
 62
     7
100
AcDbLine
 10
146.1422398926
 20
52.3781645044
 30
0.0
 11
145.3442241022
 21
51.5801487139
 31
0.0
  0
LINE
  5
2E7
330
225
100
AcDbEntity
  8
0
  6
Continuous
 62
     7
100
AcDbLine
 10
146.8089065593
 20
52.3781645044
 30
0.0
 11
146.0108907688
 21
51.5801487139
 31
0.0
  0
LINE
  5
2E8
330
225
100
AcDbEntity
  8
0
  6
Continuous
 62
     7
100
AcDbLine
 10
147.4755732259
 20
52.3781645044
 30
0.0
 11
146.6775574355
 21
51.5801487139
 31
0.0
  0
LINE
  5
2E9
330
225
100
AcDbEntity
  8
0
  6
Continuous
 62
     7
100
AcDbLine
 10
148.1422398926
 20
52.3781645044
 30
0.0
 11
147.3442241022
 21
51.5801487139
 31
0.0
  0
LINE
  5
2EA
330
225
100
AcDbEntity
  8
0
  6
Continuous
 62
     7
100
AcDbLine
 10
148.8089065593
 20
52.3781645044
 30
0.0
 11
148.0108907688
 21
51.5801487139
 31
0.0
  0
LINE
  5
2EB
330
225
100
AcDbEntity
  8
0
  6
Continuous
 62
     7
100
AcDbLine
 10
149.4755732259
 20
52.3781645044
 30
0.0
 11
148.6775574355
 21
51.5801487139
 31
0.0
  0
LINE
  5
2EC
330
225
100
AcDbEntity
  8
0
  6
Continuous
 62
     7
100
AcDbLine
 10
150.1422398926
 20
52.3781645044
 30
0.0
 11
149.3442241022
 21
51.5801487139
 31
0.0
  0
LINE
  5
2ED
330
225
100
AcDbEntity
  8
0
  6
Continuous
 62
     7
100
AcDbLine
 10
150.5857273268
 20
52.1549852718
 30
0.0
 11
150.0108907688
 21
51.5801487139
 31
0.0
  0
ELLIPSE
  5
2EE
330
225
100
AcDbEntity
  8
0
  6
Continuous
 62
     7
100
AcDbEllipse
 10
146.1454024822
 20
50.43094770689999
 30
0.0
 11
1.0473539356
 21
0.0
 31
0.0
210
0.0
220
0.0
230
1.0
 40
0.4938647983
 41
0.0
 42
6.283185307179586
  0
ELLIPSE
  5
2EF
330
225
100
AcDbEntity
  8
0
  6
Continuous
 62
     7
100
AcDbEllipse
 10
146.1454024822
 20
49.0976143736
 30
0.0
 11
1.0473539356
 21
0.0
 31
0.0
210
0.0
220
0.0
230
1.0
 40
0.4938647983
 41
0.0
 42
6.283185307179586
  0
ELLIPSE
  5
2F0
330
225
100
AcDbEntity
  8
0
  6
Continuous
 62
     7
100
AcDbEllipse
 10
146.1454024822
 20
47.76428104029999
 30
0.0
 11
1.0473539356
 21
0.0
 31
0.0
210
0.0
220
0.0
230
1.0
 40
0.4938647983
 41
0.0
 42
6.283185307179586
  0
ELLIPSE
  5
2F1
330
225
100
AcDbEntity
  8
0
  6
Continuous
 62
     7
100
AcDbEllipse
 10
157.1640380633
 20
50.45046906399999
 30
0.0
 11
1.0473539356
 21
0.0
 31
0.0
210
0.0
220
0.0
230
1.0
 40
0.4938647983
 41
0.0
 42
6.283185307179586
  0
ENDBLK
  5
2F2
330
225
100
AcDbEntity
  8
0
  6
ByBlock
 62
     0
100
AcDbBlockEnd
  0
ENDSEC
  0
SECTION
  2
ENTITIES
  0
LWPOLYLINE
  5
45F
330
21A
100
AcDbEntity
  8
DEFAULT_2
  6
HIDDEN
 62
     7
100
AcDbPolyline
 90
       49
 70
     0
 43
0.0
 10
126.6083753815
 20
28.8883716323
 10
126.6380998094
 20
28.8904680651
 10
126.6677017903
 20
28.8934445329
 10
126.6971983393
 20
28.8973025843
 10
126.726595175
 20
28.9020418966
 10
126.7558528286
 20
28.9076546618
 10
126.7849205347
 20
28.9141312011
 10
126.8137557494
 20
28.9214634125
 10
126.8423488142
 20
28.9296495034
 10
126.8706982924
 20
28.9386892586
 10
126.8987947645
 20
28.9485793173
 10
126.9265968821
 20
28.9593037366
 10
126.9540553141
 20
28.9708434283
 10
126.9811289286
 20
28.98318241
 10
127.0078093889
 20
28.9963171231
 10
127.0340965578
 20
29.0102471152
 10
127.0599833192
 20
29.0249679126
 10
127.0854346437
 20
29.040458958
 10
127.110408523
 20
29.0566956727
 10
127.1348685904
 20
29.0736563108
 10
127.158801043
 20
29.091330456
 10
127.1821977191
 20
29.1097105248
 10
127.2050476495
 20
29.128786859
 10
127.2273286354
 20
29.1485415032
 10
127.2490156707
 20
29.1689544278
 10
127.2700844523
 20
29.190004878
 10
127.2905134891
 20
29.2116691987
 10
127.3102819932
 20
29.2339230097
 10
127.3293713364
 20
29.2567446736
 10
127.3477715286
 20
29.2801235227
 10
127.3654747396
 20
29.3040516323
 10
127.3824701348
 20
29.3285155258
 10
127.3987348623
 20
29.3534795207
 10
127.414243066
 20
29.3789023827
 10
127.4289731233
 20
29.4047497295
 10
127.4429203444
 20
29.4310145858
 10
127.4560842726
 20
29.4576968282
 10
127.4684610956
 20
29.4847882335
 10
127.4800335762
 20
29.5122481795
 10
127.4907811214
 20
29.5400279441
 10
127.500686527
 20
29.5680866873
 10
127.5097461448
 20
29.5964150972
 10
127.5179597154
 20
29.6250117438
 10
127.5253251506
 20
29.653867028
 10
127.5318330471
 20
29.6829386749
 10
127.5374721727
 20
29.7121762404
 10
127.5422335123
 20
29.7415405143
 10
127.5461169188
 20
29.7710372224
 10
127.549124462
 20
29.8006833241
  0
LWPOLYLINE
  5
460
330
21A
100
AcDbEntity
  8
DEFAULT_2
  6
HIDDEN
 62
     7
100
AcDbPolyline
 90
       22
 70
     0
 43
0.0
 10
116.8287717038
 20
28.4682728504
 10
117.1656733196
 20
28.4763533938
 10
117.4957097483
 20
28.484860633
 10
117.8186822423
 20
28.493737086
 10
118.1343920542
 20
28.5029252707
 10
118.4427736828
 20
28.5123741435
 10
118.7442946125
 20
28.5220584138
 10
119.0395555743
 20
28.5319592295
 10
119.3291572989
 20
28.5420577383
 10
119.6136645302
 20
28.552336668
 10
119.8934980631
 20
28.5627850659
 10
120.1690427054
 20
28.5733935593
 10
120.4406832651
 20
28.5841527754
 10
120.7974889876
 20
28.5987214868
 10
121.1491077228
 20
28.6135482628
 10
121.4966089719
 20
28.6286398788
 10
122.0124090885
 20
28.6517962613
 10
122.524534779
 20
28.6756320166
 10
123.5462877485
 20
28.7254433649
 10
124.5665309474
 20
28.7777756611
 10
125.586733217
 20
28.832215366
 10
126.6083753815
 20
28.8883716323
  0
LINE
  5
4C6
330
21A
100
AcDbEntity
  8
DEFAULT_2
  6
HIDDEN
 62
     7
100
AcDbLine
 10
108.0573254607
 20
27.9369008861
 30
0.0
 11
110.6002179225
 21
27.9369008861
 31
0.0
  0
LWPOLYLINE
  5
4CA
330
21A
100
AcDbEntity
  8
DEFAULT_2
  6
HIDDEN
 62
     7
100
AcDbPolyline
 90
       16
 70
     0
 43
0.0
 10
111.3091697416
 20
28.4355026796
 10
111.717714825
 20
28.4308421537
 10
112.1299847905
 20
28.4273574137
 10
112.5460932049
 20
28.4250729294
 10
112.8880740352
 20
28.4241143653
 10
113.2327030013
 20
28.4239731957
 10
113.5800041141
 20
28.4246536013
 10
113.9300013847
 20
28.4261597628
 10
114.2827162833
 20
28.4284956277
 10
114.6381601171
 20
28.4316642099
 10
114.9963416523
 20
28.4356682897
 10
115.3572696553
 20
28.4405106478
 10
115.720955237
 20
28.4461933517
 10
116.0874188846
 20
28.4527156178
 10
116.4566834296
 20
28.4600759495
 10
116.8287717038
 20
28.4682728504
  0
LWPOLYLINE
  5
4CC
330
21A
100
AcDbEntity
  8
DEFAULT_2
  6
HIDDEN
 62
     7
100
AcDbPolyline
 90
       12
 70
     0
 43
0.0
 10
106.9627076281
 20
28.5117391471
 10
106.9991930368
 20
28.5052858954
 10
107.0359379848
 20
28.4989166538
 10
107.072894979
 20
28.4926444791
 10
107.1100165262
 20
28.486482428
 10
107.1472551333
 20
28.4804435573
 10
107.1845633071
 20
28.4745409237
 10
107.2218935546
 20
28.468787584
 10
107.2591983825
 20
28.463196595
 10
107.2964302977
 20
28.4577810133
 10
107.3335418071
 20
28.45255389590001
 10
107.3704854176
 20
28.4475282993
  0
LINE
  5
556
330
21A
100
AcDbEntity
  8
DEFAULT_2
  6
HIDDEN
 62
     7
100
AcDbLine
 10
103.7776430489
 20
44.27175954049999
 30
0.0
 11
104.2313212368
 21
44.39997373729999
 31
0.0
  0
LWPOLYLINE
  5
557
330
21A
100
AcDbEntity
  8
DEFAULT_2
  6
HIDDEN
 62
     7
100
AcDbPolyline
 90
       19
 70
     0
 43
0.0
 10
103.6294202115
 20
44.2461583796
 10
103.6388137257
 20
44.2470009713
 10
103.6481999452
 20
44.24792851729999
 10
103.6575773627
 20
44.2489445003
 10
103.6669444706
 20
44.25005240279999
 10
103.6762997613
 20
44.2512557076
 10
103.6856417274
 20
44.25255789709999
 10
103.6935758433
 20
44.25374592959999
 10
103.7014980622
 20
44.2550103721
 10
103.709407217
 20
44.2563535794
 10
103.7173021406
 20
44.25777790619999
 10
103.7251816659
 20
44.259285707
 10
103.733044626
 20
44.26087933659999
 10
103.7405277338
 20
44.26248144439999
 10
103.747992993
 20
44.2641655958
 10
103.755438687
 20
44.26593361
 10
103.7628630991
 20
44.2677873064
 10
103.7702645127
 20
44.2697285041
 10
103.7776412111
 20
44.2717590225
  0
LWPOLYLINE
  5
558
330
21A
100
AcDbEntity
  8
DEFAULT_2
  6
HIDDEN
 62
     7
100
AcDbPolyline
 90
        5
 70
     0
 43
0.0
 10
130.2267312808
 20
45.581263424
 10
130.2289001637999
 20
45.5813739654
 10
130.2315797358
 20
45.58147886109999
 10
130.2334642828
 20
45.5815055679
 10
130.2396166429
 20
45.5814737241
  0
LINE
  5
55A
330
21A
100
AcDbEntity
  8
DEFAULT_2
  6
HIDDEN
 62
     7
100
AcDbLine
 10
103.9267500426
 20
45.59503939659999
 30
0.0
 11
103.4130104424
 21
45.58140769829999
 31
0.0
  0
LWPOLYLINE
  5
55C
330
21A
100
AcDbEntity
  8
DEFAULT_2
  6
HIDDEN
 62
     7
100
AcDbPolyline
 90
        3
 70
     0
 43
0.0
 10
103.4130109995
 20
45.58140771069999
 10
103.4179269128
 20
45.58147372709999
 10
103.4240795193
 20
45.58150555939999
  0
LINE
  5
566
330
21A
100
AcDbEntity
  8
DEFAULT_2
  6
HIDDEN
 62
     7
100
AcDbLine
 10
130.2396166429
 20
45.5814737241
 30
0.0
 11
130.2445324335
 21
45.5814077101
 31
0.0
  0
LWPOLYLINE
  5
567
330
21A
100
AcDbEntity
  8
DEFAULT_2
  6
HIDDEN
 62
     7
100
AcDbPolyline
 90
        3
 70
     0
 43
0.0
 10
103.4240795193
 20
45.58150555939999
 10
103.4259641361
 20
45.5814788467
 10
103.4286437089
 20
45.5813739491
  0
LINE
  5
569
330
21A
100
AcDbEntity
  8
DEFAULT_2
  6
HIDDEN
 62
     7
100
AcDbLine
 10
130.2445329616
 20
45.58140769829999
 30
0.0
 11
129.730793365
 21
45.59503939659999
 31
0.0
  0
LWPOLYLINE
  5
56B
330
21A
100
AcDbEntity
  8
DEFAULT_2
  6
HIDDEN
 62
     7
100
AcDbPolyline
 90
        5
 70
     0
 43
0.0
 10
103.4286437089
 20
45.5813739491
 10
103.4308123123
 20
45.5812634213
 10
103.431458029
 20
45.581233743
 10
103.4314528534
 20
45.58124591569999
 10
103.4307870781
 20
45.5813012984
  0
LWPOLYLINE
  5
572
330
21A
100
AcDbEntity
  8
DEFAULT_2
  6
HIDDEN
 62
     7
100
AcDbPolyline
 90
       34
 70
     0
 43
0.0
 10
103.4307870781
 20
45.5813012984
 10
103.4285883072
 20
45.58149940649999
 10
103.4266379784
 20
45.5817033103
 10
103.4190237129
 20
45.5825900743
 10
103.4079824004
 20
45.5840763573
 10
103.3935421692
 20
45.58625978659999
 10
103.3757357734
 20
45.58922206720001
 10
103.3545840909
 20
45.59303422520001
 10
103.3300617505
 20
45.5977663127
 10
103.3020116194
 20
45.6035097284
 10
103.2702183013
 20
45.610369082
 10
103.2344098812
 20
45.6184646721
 10
103.1943044507
 20
45.6279239888
 10
103.1496409858
 20
45.6388739935
 10
103.1001422244
 20
45.65144982819999
 10
103.045542343
 20
45.665788131
 10
102.9856521608
 20
45.68200873600001
 10
102.9203117295
 20
45.7002254275
 10
102.8493791623
 20
45.7205485701
 10
102.7725159296
 20
45.7431489121
 10
102.6888451023
 20
45.7683696658
 10
102.5973228139
 20
45.7966305929
 10
102.4970785544
 20
45.8283259914
 10
102.3893050781
 20
45.8632010223
 10
102.2764312484
 20
45.9005534466
 10
102.1609280143
 20
45.9395991462
 10
102.0433911447
 20
45.9801428252
 10
101.9235588412
 20
46.02228308779999
 10
101.8011948783
 20
46.0661212993
 10
101.6765716983
 20
46.1115822547
 10
101.5501591258
 20
46.1585140033
 10
101.4224432992
 20
46.20675044859999
 10
101.2939204678
 20
46.25611333729999
 10
101.1650887865
 20
46.3064149917
  0
LWPOLYLINE
  5
5D3
330
21A
100
AcDbEntity
  8
DEFAULT_2
  6
HIDDEN
 62
     7
100
AcDbPolyline
 90
       27
 70
     0
 43
0.0
 10
130.0281054585
 20
44.2461598943
 10
130.0621793722
 20
44.2437869993
 10
130.0963153253
 20
44.2423871892
 10
130.1304785985
 20
44.24183140270001
 10
130.1814997448
 20
44.2423221609
 10
130.2324858514
 20
44.24415161079999
 10
130.2846871252
 20
44.24716644319999
 10
130.3368240194
 20
44.2511565371
 10
130.390782607
 20
44.2561601426
 10
130.4446644905
 20
44.2619283728
 10
130.5007697535
 20
44.2686469383
 10
130.5567956042
 20
44.27599927270001
 10
130.6154613556
 20
44.2843088237
 10
130.6740464978
 20
44.29316886279999
 10
130.7355495845
 20
44.30301426409999
 10
130.7969714739
 20
44.3133543435
 10
130.8614193696
 20
44.3247014714
 10
130.9257855332
 20
44.3365035109
 10
131.060691945
 20
44.36261063009999
 10
131.2018048637
 20
44.39168661
 10
131.3490316264
 20
44.42371974159999
 10
131.5021972643
 20
44.4586893272
 10
131.6611213863
 20
44.49657833239999
 10
131.8255908266
 20
44.5373651356
 10
131.9953678769
 20
44.58102338159999
 10
132.1702129636
 20
44.62752648659999
 10
132.3498859404
 20
44.6768475143
  0
LWPOLYLINE
  5
61F
330
21A
100
AcDbEntity
  8
DEFAULT_2
  6
HIDDEN
 62
     7
100
AcDbPolyline
 90
       27
 70
     0
 43
0.0
 10
101.3076574672
 20
44.6768475143
 10
101.4873331951
 20
44.627525743
 10
101.6621804851
 20
44.5810220855
 10
101.831959414
 20
44.53736340939999
 10
101.9964306079
 20
44.4965762435
 10
102.1553565367
 20
44.45868690100001
 10
102.3085240067
 20
44.42371701479999
 10
102.4557524038
 20
44.3916836727
 10
102.5968665168
 20
44.36260762029999
 10
102.7317735295
 20
44.3365005864
 10
102.7961399884
 20
44.3246986032
 10
102.8605881812
 20
44.31335154529999
 10
102.9220109792
 20
44.3030114445
 10
102.9835149781
 20
44.2931660497
 10
103.0421017446
 20
44.28430593649999
 10
103.1007691259
 20
44.275996362
 10
103.1567965212
 20
44.2686440632
 10
103.2129033342
 20
44.26192560039999
 10
103.2667854964
 20
44.2561576672
 10
103.3207443634
 20
44.25115441689999
 10
103.3728795225
 20
44.2471648709
 10
103.4250790536
 20
44.2441505935
 10
103.4760607549
 20
44.2423217575
 10
103.5270774794
 20
44.2418314685
 10
103.5612372182
 20
44.2423874496
 10
103.5953696367
 20
44.2437873099
 10
103.6294400238
 20
44.2461600721
  0
LINE
  5
635
330
21A
100
AcDbEntity
  8
DEFAULT_2
  6
HIDDEN
 62
     7
100
AcDbLine
 10
107.5141679315
 20
28.3765046584
 30
0.0
 11
107.8805483991
 21
28.0101241908
 31
0.0
  0
LWPOLYLINE
  5
63E
330
21A
100
AcDbEntity
  8
DEFAULT_2
  6
HIDDEN
 62
     7
100
AcDbPolyline
 90
       19
 70
     0
 43
0.0
 10
129.8799020628
 20
44.2717590602
 10
129.8872780323
 20
44.2697287357
 10
129.8946787124
 20
44.26778771459999
 10
129.9021023867
 20
44.2659341782
 10
129.9095473392
 20
44.2641663075
 10
129.9170118536
 20
44.26248228399999
 10
129.9244942139
 20
44.2608802889
 10
129.9323573141
 20
44.2592865792
 10
129.9402369811
 20
44.2577787028
 10
129.9481320477
 20
44.25635430489999
 10
129.9560413469
 20
44.2550110306
 10
129.9639637112
 20
44.25374652529999
 10
129.9718979737
 20
44.25255843419999
 10
129.9812404699
 20
44.25125613289999
 10
129.9905962927
 20
44.250052729
 10
129.9999639345
 20
44.2489447393
 10
130.0093418873
 20
44.2479286805
 10
130.0187286434
 20
44.2470010692
 10
130.028122695
 20
44.24615842229999
  0
LINE
  5
63F
330
21A
100
AcDbEntity
  8
DEFAULT_2
  6
HIDDEN
 62
     7
100
AcDbLine
 10
129.4262221708
 20
44.39997373729999
 30
0.0
 11
129.8799003581
 21
44.27175954069999
 31
0.0
  0
LWPOLYLINE
  5
6FA
330
21A
100
AcDbEntity
  8
0
  6
Continuous
 62
     7
100
AcDbPolyline
 90
       19
 70
     0
 43
0.0
 10
96.65253913614536
 20
47.9369008861
 10
96.8143899918
 20
47.10438628579999
 10
97.0096310675
 20
46.0457726492
 10
97.1946641935
 20
44.9853271452
 10
97.3694722938
 20
43.92314823569999
 10
97.5340382925
 20
42.85933438279999
 10
97.6669314075
 20
41.9462606503
 10
97.79227880729999
 20
41.0321204653
 10
97.91007224219999
 20
40.1169762354
 10
98.020303662
 20
39.200890389
 10
98.1229658151
 20
38.2839254393
 10
98.21805164930001
 20
37.3661439204
 10
98.2843899246
 20
36.6773095371
 10
98.3464601856
 20
35.9880774574
 10
98.40426009799999
 20
35.2984741322
 10
98.4577874624
 20
34.6085260208
 10
98.5070401766
 20
33.9182595901
 10
98.55201639450001
 20
33.2277013263
 10
98.61066671120001
 20
32.2063807181
  0
LWPOLYLINE
  5
6FB
330
21A
100
AcDbEntity
  8
DEFAULT_2
  6
HIDDEN
 62
     7
100
AcDbPolyline
 90
       46
 70
     0
 43
0.0
 10
106.1422872853
 20
29.4097023269
 10
106.1452100349
 20
29.3808662682
 10
106.1489670666
 20
29.3521331141
 10
106.1535636345
 20
29.3234855885
 10
106.1590029236
 20
29.2949180567
 10
106.1652798408
 20
29.2664714511
 10
106.1723872238
 20
29.2381983456
 10
106.1803163274
 20
29.2101491512
 10
106.1890520765
 20
29.1823656268
 10
106.1985778133
 20
29.1548873679
 10
106.2088787465
 20
29.1277480294
 10
106.2199475508
 20
29.1009575021
 10
106.2317787672
 20
29.0745197363
 10
106.2443680134
 20
29.0484387993
 10
106.2577152129
 20
29.02271922760001
 10
106.2718213657
 20
28.9973656751
 10
106.2866842434
 20
28.9723880396
 10
106.3022887046
 20
28.947817195
 10
106.3186163792
 20
28.923689259
 10
106.3356470084
 20
28.9000401423
 10
106.3533527771
 20
28.8769049263
 10
106.3717039814
 20
28.854318485
 10
106.3906738622
 20
28.8323110902
 10
106.4102474397
 20
28.8108946041
 10
106.4304126792
 20
28.7900762863
 10
106.4511593584
 20
28.7698626958
 10
106.4724845056
 20
28.7502575879
 10
106.4943869617
 20
28.7312640175
 10
106.5168621905
 20
28.7128881243
 10
106.5398921466
 20
28.69514838780001
 10
106.5634554076
 20
28.67806637280001
 10
106.5875276325
 20
28.6616641308
 10
106.6120728068
 20
28.6459656603
 10
106.6370519974
 20
28.6309954469
 10
106.6624285944
 20
28.6167752446
 10
106.688175279
 20
28.6033158816
 10
106.7142670558
 20
28.5906254547
 10
106.7406833006
 20
28.5787106831
 10
106.767420877
 20
28.5675727769
 10
106.79448102
 20
28.5572115685
 10
106.8218595507
 20
28.5476289273
 10
106.8495306335
 20
28.5388348685
 10
106.8774630185
 20
28.5308414443
 10
106.9056325721
 20
28.5236589899
 10
106.934043626
 20
28.5172909736
 10
106.9627076281
 20
28.5117391471
  0
LWPOLYLINE
  5
6FC
330
21A
100
AcDbEntity
  8
DEFAULT_2
  6
HIDDEN
 62
     7
100
AcDbPolyline
 90
       97
 70
     0
 43
0.0
 10
101.2267694141
 20
45.2587717331
 10
101.2299409167
 20
45.22651580069999
 10
101.2400282946
 20
45.12370914109999
 10
101.2508164041
 20
45.01345732149999
 10
101.2621663185
 20
44.89653494459999
 10
101.2739391113
 20
44.7737166129
 10
101.2859958559
 20
44.6457769293
 10
101.2981976257
 20
44.5134904963
 10
101.3164469214
 20
44.3087211102
 10
101.3341127856
 20
44.0992245292
 10
101.3505980649
 20
43.88831088819999
 10
101.3653056059
 20
43.6792903223
 10
101.3763521538
 20
43.5020033601
 10
101.3864171843
 20
43.3295320686
 10
101.3963033457
 20
43.16278314499999
 10
101.4068132865
 20
43.00266328649999
 10
101.4187787646
 20
42.8501049898
 10
101.4331479777
 20
42.70614394849999
 10
101.4508982331
 20
42.5718416558
 10
101.4730068382
 20
42.4482596048
 10
101.4967907497
 20
42.349125528
 10
101.5251819685
 20
42.2587740813
 10
101.5586630444
 20
42.17687996379999
 10
101.5977165273
 20
42.1031178742
 10
101.642824967
 20
42.0371625116
 10
101.6944709135
 20
41.978688575
 10
101.7508198466
 20
41.9292172211
 10
101.8147381665
 20
41.88591054129999
 10
101.8873123829
 20
41.8483246762
 10
101.9480770806
 20
41.8236225527
 10
102.0147802529
 20
41.8017014634
 10
102.0878802711
 20
41.78237415489999
 10
102.1678355064
 20
41.7654533741
 10
102.2622716215
 20
41.7496509755
 10
102.3644853247
 20
41.73618562369999
 10
102.4737097816
 20
41.7248016003
 10
102.589178158
 20
41.7152431866
 10
102.7515233638
 20
41.7048964897
 10
102.9217879283
 20
41.69673456269999
 10
103.0981541699
 20
41.690151258
 10
103.3593237577
 20
41.6821363992
 10
103.5554856125
 20
41.6761104994
 10
103.7495128068
 20
41.6689008129
 10
103.9383411026
 20
41.6594586252
 10
104.0746569251
 20
41.6502706354
 10
104.2047302589
 20
41.6387321183
 10
104.3269666297
 20
41.6243382305
 10
104.4397715629
 20
41.6065841288
 10
104.5403126573
 20
41.585307594
 10
104.6310551638
 20
41.55945203869999
 10
104.7128539246
 20
41.5281729285
 10
104.786563782
 20
41.4906257294
 10
104.8530395783
 20
41.44596590719999
 10
104.9131361558
 20
41.39334892789999
 10
104.9633102243
 20
41.3372675404
 10
105.0085452137
 20
41.2731372234
 10
105.0485664167
 20
41.20034053869999
 10
105.0830991256
 20
41.1182600483
 10
105.1118686329
 20
41.02627831409999
 10
105.1346002312
 20
40.9237778981
 10
105.1472966579
 20
40.8424859825
 10
105.1573105731
 20
40.75579542809999
 10
105.1652909496
 20
40.664184685
 10
105.174868257
 20
40.51858982579999
 10
105.1835205738
 20
40.3646158229
 10
105.1951246173
 20
40.170682298
 10
105.2084703141
 20
39.96778035030001
 10
105.2234765233
 20
39.7566863902
 10
105.2400621038
 20
39.5381768284
 10
105.2644575735
 20
39.2367112209
 10
105.2911130656
 20
38.92572645540001
 10
105.3196250818
 20
38.6075063804
 10
105.364955474
 20
38.1219459048
 10
105.4119775953
 20
37.6349921713
 10
105.4356214287
 20
37.3940849779
 10
105.4590448091
 20
37.1567610472
 10
105.4819987458
 20
36.9245150739
 10
105.504234248
 20
36.6988417529
 10
105.5287725489
 20
36.447809237
 10
105.5521440392
 20
36.2062370787
 10
105.5744715975
 20
35.9728309304
 10
105.5958781028
 20
35.7462964444
 10
105.6232153862
 20
35.4525510268
 10
105.6495188167
 20
35.1647434863
 10
105.675173518
 20
34.8788964743
 10
105.6925414989
 20
34.68251603960001
 10
105.709938292
 20
34.4836304856
 10
105.7275159041
 20
34.2806772434
 10
105.7454263422
 20
34.0720937444
 10
105.7638216131
 20
33.8563174198
 10
105.7796343237
 20
33.6698491221
 10
105.7959970171
 20
33.47619927650001
 10
105.8130174263
 20
33.2742664702
 10
105.830803284
 20
33.0629492904
 10
105.8494623233
 20
32.8411463243
 10
105.8691022772
 20
32.6077561589
 10
105.9006484069
 20
32.2334224951
  0
LINE
  5
6FD
330
21A
100
AcDbEntity
  8
DEFAULT_2
  6
HIDDEN
 62
     7
100
AcDbLine
 10
101.0191127021
 20
47.61594035359999
 30
0.0
 11
101.0221113685
 21
47.58219655749999
 31
0.0
  0
LINE
  5
6FE
330
21A
100
AcDbEntity
  8
DEFAULT_2
  6
HIDDEN
 62
     7
100
AcDbLine
 10
101.0221113685
 20
47.58219655749999
 30
0.0
 11
101.0317715432
 21
47.4730642325
 31
0.0
  0
LINE
  5
6FF
330
21A
100
AcDbEntity
  8
DEFAULT_2
  6
HIDDEN
 62
     7
100
AcDbLine
 10
101.0317715432
 20
47.4730642325
 30
0.0
 11
101.0406487763
 21
47.3722176457
 31
0.0
  0
LWPOLYLINE
  5
700
330
21A
100
AcDbEntity
  8
DEFAULT_2
  6
HIDDEN
 62
     7
100
AcDbPolyline
 90
       12
 70
     0
 43
0.0
 10
101.0406487763
 20
47.3722176457
 10
101.0506914879
 20
47.25745233
 10
101.0561153775
 20
47.1951517246
 10
101.0618231415
 20
47.1293370461
 10
101.0678390232
 20
47.0596783364
 10
101.0742123271
 20
46.985544251
 10
101.0809853693
 20
46.90636995939999
 10
101.0882193657
 20
46.8213541633
 10
101.0958935078
 20
46.7306518591
 10
101.1038969927
 20
46.63550684079999
 10
101.1121071704
 20
46.5373645004
 10
101.1204631945
 20
46.437024213
  0
LWPOLYLINE
  5
701
330
21A
100
AcDbEntity
  8
DEFAULT_2
  6
HIDDEN
 62
     7
100
AcDbPolyline
 90
        3
 70
     0
 43
0.0
 10
100.867614553
 20
49.3672596939
 10
100.8742666715
 20
49.2909701258
 10
100.8808174105
 20
49.2157998703
  0
LWPOLYLINE
  5
702
330
21A
100
AcDbEntity
  8
DEFAULT_2
  6
HIDDEN
 62
     7
100
AcDbPolyline
 90
        3
 70
     0
 43
0.0
 10
100.8808174105
 20
49.2157998703
 10
100.8936170279
 20
49.06879434930001
 10
100.8998670454
 20
48.9969476097
  0
LWPOLYLINE
  5
703
330
21A
100
AcDbEntity
  8
DEFAULT_2
  6
HIDDEN
 62
     7
100
AcDbPolyline
 90
        3
 70
     0
 43
0.0
 10
100.8998670454
 20
48.9969476097
 10
100.9120703457
 20
48.8565374868
 10
100.9180247675
 20
48.7879626296
  0
LWPOLYLINE
  5
704
330
21A
100
AcDbEntity
  8
DEFAULT_2
  6
HIDDEN
 62
     7
100
AcDbPolyline
 90
        3
 70
     0
 43
0.0
 10
100.9180247675
 20
48.7879626296
 10
100.9296420023
 20
48.6540446382
 10
100.9353059542
 20
48.5886900299
  0
LWPOLYLINE
  5
705
330
21A
100
AcDbEntity
  8
DEFAULT_2
  6
HIDDEN
 62
     7
100
AcDbPolyline
 90
        3
 70
     0
 43
0.0
 10
100.9353059542
 20
48.5886900299
 10
100.9463473749
 20
48.461160903
 10
100.9517259827
 20
48.3989749104
  0
LWPOLYLINE
  5
706
330
21A
100
AcDbEntity
  8
DEFAULT_2
  6
HIDDEN
 62
     7
100
AcDbPolyline
 90
        3
 70
     0
 43
0.0
 10
100.9517259827
 20
48.3989749104
 10
100.9622018409
 20
48.2777313813
 10
100.9674246376
 20
48.2172205495
  0
LWPOLYLINE
  5
707
330
21A
100
AcDbEntity
  8
DEFAULT_2
  6
HIDDEN
 62
     7
100
AcDbPolyline
 90
        3
 70
     0
 43
0.0
 10
100.9674246376
 20
48.2172205495
 10
100.9775819578
 20
48.0994107018
 10
100.9825185399
 20
48.0420904643
  0
LWPOLYLINE
  5
708
330
21A
100
AcDbEntity
  8
DEFAULT_2
  6
HIDDEN
 62
     7
100
AcDbPolyline
 90
        3
 70
     0
 43
0.0
 10
100.9825185399
 20
48.0420904643
 10
100.9921126944
 20
47.9305663072
 10
100.9967723255
 20
47.876341166
  0
LINE
  5
709
330
21A
100
AcDbEntity
  8
DEFAULT_2
  6
HIDDEN
 62
     7
100
AcDbLine
 10
100.9967723255
 20
47.876341166
 30
0.0
 11
101.0058218417
 21
47.7709117038
 31
0.0
  0
LWPOLYLINE
  5
70A
330
21A
100
AcDbEntity
  8
DEFAULT_2
  6
HIDDEN
 62
     7
100
AcDbPolyline
 90
        3
 70
     0
 43
0.0
 10
101.0058218417
 20
47.7709117038
 10
101.0145185585
 20
47.6694392627
 10
101.0191127021
 20
47.61594035359999
  0
LWPOLYLINE
  5
70B
330
21A
100
AcDbEntity
  8
DEFAULT_2
  6
HIDDEN
 62
     7
100
AcDbPolyline
 90
       13
 70
     0
 43
0.0
 10
105.9006484069
 20
32.2334224951
 10
105.9174748645
 20
32.0341759818
 10
105.9350755018
 20
31.8261437261
 10
105.9535042576
 20
31.6087762621
 10
105.9728150702
 20
31.3815241237
 10
105.9930618784
 20
31.1438378449
 10
106.0142986205
 20
30.8951679596
 10
106.0334534298
 20
30.6714292075
 10
106.0534251479
 20
30.4387008514
 10
106.0742540836
 20
30.1965734383
 10
106.0959805459
 20
29.9446375152
 10
106.1186448435
 20
29.6824836291
 10
106.1422872853
 20
29.4097023269
  0
LWPOLYLINE
  5
70C
330
21A
100
AcDbEntity
  8
DEFAULT_2
  6
HIDDEN
 62
     7
100
AcDbPolyline
 90
       17
 70
     0
 43
0.0
 10
101.1204631945
 20
46.437024213
 10
101.128772362
 20
46.33701228859999
 10
101.1372079855
 20
46.23560444279999
 10
101.1456365712
 20
46.1349280829
 10
101.1539418765
 20
46.03696982169999
 10
101.1621634484
 20
45.9418054734
 10
101.1701077321
 20
45.8519036863
 10
101.1774766586
 20
45.77036948649999
 10
101.1842307279
 20
45.6971088988
 10
101.190355623
 20
45.6317663622
 10
101.1960973404
 20
45.5713477832
 10
101.201636639
 20
45.5137342356
 10
101.2069157365
 20
45.4593717508
 10
101.211846289
 20
45.40902598169999
 10
101.2163220443
 20
45.36364648560001
 10
101.220160016
 20
45.32495712319999
 10
101.2267694141
 20
45.2587717331
  0
LWPOLYLINE
  5
841
330
21A
100
AcDbEntity
  8
DEFAULT_2
  6
HIDDEN
 62
     7
100
AcDbPolyline
 90
       35
 70
     0
 43
0.0
 10
132.4924546211
 20
46.3064149917
 10
132.36366686
 20
46.25613034609999
 10
132.2351895999
 20
46.2067845346
 10
132.1075195829
 20
46.1585646705
 10
131.9811515736
 20
46.11164844989999
 10
131.8565703077
 20
46.06620147890001
 10
131.7342440639
 20
46.0223752019
 10
131.6144456584
 20
45.980245022
 10
131.4969428588
 20
45.93971098629999
 10
131.3814789014
 20
45.9006761308
 10
131.2686438655
 20
45.86333374189999
 10
131.1608920343
 20
45.82846263079999
 10
131.0606365621
 20
45.7967605557
 10
130.9690725077
 20
45.7684838228
 10
130.8853455191
 20
45.74324359479999
 10
130.8084262212
 20
45.72062461239999
 10
130.7374488115
 20
45.7002868007
 10
130.6720738482
 20
45.6820589176
 10
130.6121558632
 20
45.6658294187
 10
130.5575314931
 20
45.6514834912
 10
130.5080092902
 20
45.63890066919999
 10
130.4633238146
 20
45.6279443982
 10
130.4231986632
 20
45.61847971689999
 10
130.3873735218
 20
45.61037977789999
 10
130.355566505
 20
45.603517028
 10
130.327505319
 20
45.59777101859999
 10
130.3029742569
 20
45.5930370134
 10
130.2818160298
 20
45.5892235222
 10
130.2640051476
 20
45.5862604072
 10
130.2495621926
 20
45.5840765266
 10
130.2385195532
 20
45.5825900566
 10
130.230904961
 20
45.58170326069999
 10
130.2289546957
 20
45.58149937439999
 10
130.2267561261
 20
45.5813012812
 10
130.2260907899
 20
45.5812459301
  0
LINE
  5
8BA
330
21A
100
AcDbEntity
  8
DEFAULT_2
  6
HIDDEN
 62
     7
100
AcDbLine
 10
129.1809101821066
 20
44.62024955292879
 30
0.0
 11
129.1340843579
 21
44.73614753479999
 31
0.0
  0
LINE
  5
8BB
330
21A
100
AcDbEntity
  8
DEFAULT_2
  6
HIDDEN
 62
     7
100
AcDbLine
 10
110.7769950085
 20
28.0101241908
 30
0.0
 11
111.1291706732
 21
28.3622998554
 31
0.0
  0
LWPOLYLINE
  5
935
330
21A
100
AcDbEntity
  8
DEFAULT_2
  6
HIDDEN
 62
     7
100
AcDbPolyline
 90
      100
 70
     0
 43
0.0
 10
127.8080810843
 20
32.8411463243
 10
127.8267401236
 20
33.0629492904
 10
127.8445259813
 20
33.2742664702
 10
127.8615463904
 20
33.47619927650001
 10
127.8779090838
 20
33.6698491221
 10
127.8937217945
 20
33.8563174198
 10
127.9166341903
 20
34.1248529088
 10
127.9388484124
 20
34.3827599861
 10
127.9606613493
 20
34.6330905439
 10
127.9823698896
 20
34.8788964743
 10
128.0080245909
 20
35.1647434863
 10
128.0343280214
 20
35.4525510268
 10
128.0616653048
 20
35.7462964444
 10
128.0830718101
 20
35.9728309304
 10
128.1053993684
 20
36.2062370787
 10
128.1287708587
 20
36.447809237
 10
128.1533091596
 20
36.6988417529
 10
128.1831284438
 20
37.0012739158
 10
128.2140773948
 20
37.31450504860001
 10
128.2455658123
 20
37.6349921713
 10
128.2925879336
 20
38.1219459048
 10
128.3379183258
 20
38.6075063804
 10
128.366430342
 20
38.92572645540001
 10
128.3930858341
 20
39.2367112209
 10
128.4174813038
 20
39.5381768284
 10
128.4340668843
 20
39.7566863902
 10
128.4490730935
 20
39.96778035030001
 10
128.4624187903
 20
40.170682298
 10
128.4740228338
 20
40.3646158229
 10
128.4826751506
 20
40.51858982579999
 10
128.492252458
 20
40.664184685
 10
128.504945039
 20
40.799785632
 10
128.5229431764
 20
40.9237778981
 10
128.5456747746
 20
41.02627831409999
 10
128.574444282
 20
41.1182600483
 10
128.6089769909
 20
41.20034053869999
 10
128.6489981939
 20
41.2731372234
 10
128.6942331832999
 20
41.3372675404
 10
128.7444072518
 20
41.39334892789999
 10
128.8045038292
 20
41.44596590719999
 10
128.8709796256
 20
41.4906257294
 10
128.944689483
 20
41.5281729285
 10
129.0264882438
 20
41.55945203869999
 10
129.1172307503
 20
41.585307594
 10
129.2177718447
 20
41.6065841288
 10
129.3305767779
 20
41.6243382305
 10
129.4528131487
 20
41.6387321183
 10
129.5828864825
 20
41.6502706354
 10
129.719202305
 20
41.6594586252
 10
129.9080306008
 20
41.6689008129
 10
130.1020577951
 20
41.6761104994
 10
130.2982196499
 20
41.6821363992
 10
130.5593892377
 20
41.690151258
 10
130.7357554793
 20
41.69673456269999
 10
130.9060200437
 20
41.7048964897
 10
131.0683652496
 20
41.7152431866
 10
131.2209734154
 20
41.7283808012
 10
131.3620268597
 20
41.7449154811
 10
131.4897079012
 20
41.7654533741
 10
131.5947688644
 20
41.78853995199999
 10
131.6879144025
 20
41.81601576619999
 10
131.770231025
 20
41.84832467609999
 10
131.8428052413
 20
41.88591054129999
 10
131.9067235612
 20
41.9292172211
 10
131.9630724941
 20
41.97868857489999
 10
132.0147184402
 20
42.0371625117
 10
132.0598268796
 20
42.1031178744
 10
132.0988803622
 20
42.176879964
 10
132.132361438
 20
42.25877408159999
 10
132.1607526571
 20
42.3491255282
 10
132.1845365694
 20
42.4482596048
 10
132.2066451759
 20
42.5718416555
 10
132.2243954325
 20
42.7061439479
 10
132.2387646455
 20
42.8501049892
 10
132.2507301211
 20
43.00266328649999
 10
132.2645651141
 20
43.21767433359999
 10
132.2777668132
 20
43.44393308239999
 10
132.2922378017
 20
43.6792903223
 10
132.3122724287
 20
43.95856854949999
 10
132.3351135955
 20
44.2392506858
 10
132.3593457819
 20
44.5134904963
 10
132.3776026487
 20
44.71033854869999
 10
132.3953769271
 20
44.8965349844
 10
132.4067268317
 20
45.0134573638
 10
132.4175149882
 20
45.1237091718
 10
132.4276024909
 20
45.22651580069999
 10
132.4378916815
 20
45.3316603345
 10
132.4472456797
 20
45.4277229221
 10
132.4557705065
 20
45.5158157143
 10
132.4635721831
 20
45.5970508622
 10
132.4707567304
 20
45.67254051689999
 10
132.4774301694
 20
45.7433968293
 10
132.489638476
 20
45.87535451709999
 10
132.500898617
 20
46.00030356229999
 10
132.5118827759
 20
46.1253200872
 10
132.5203350677
 20
46.2232856821
 10
132.5292393532
 20
46.3276679184
 10
132.5388247632
 20
46.44086516149999
 10
132.5493204282
 20
46.56527577649999
 10
132.5569337017
 20
46.6556016688
  0
LWPOLYLINE
  5
936
330
21A
100
AcDbEntity
  8
DEFAULT_2
  6
HIDDEN
 62
     7
100
AcDbPolyline
 90
       17
 70
     0
 43
0.0
 10
132.5569337017
 20
46.6556016688
 10
132.5738865611
 20
46.85655982270001
 10
132.5833297128
 20
46.9682707774
 10
132.5934863897
 20
47.0881887792
 10
132.6044083747
 20
47.2168531747
 10
132.6169746436
 20
47.36451410029999
 10
132.6305174428
 20
47.52322584729999
 10
132.6450811534
 20
47.69344593229999
 10
132.6607101568
 20
47.8756318718
 10
132.6774488342
 20
48.0702411826
 10
132.6953415667
 20
48.2777313813
 10
132.709392685
 20
48.4403157889
 10
132.7241147746
 20
48.61035659
 10
132.7395186354
 20
48.7879625766
 10
132.7556150674
 20
48.973242541
 10
132.7724148704
 20
49.16630527529999
 10
132.7899288445
 20
49.36725957180001
  0
LWPOLYLINE
  5
937
330
21A
100
AcDbEntity
  8
DEFAULT_2
  6
HIDDEN
 62
     7
100
AcDbPolyline
 90
       13
 70
     0
 43
0.0
 10
127.549124462
 20
29.8006833241
 10
127.5743726885
 20
30.0931017664
 10
127.5984358279
 20
30.372585856
 10
127.6213733657
 20
30.6397398385
 10
127.6432447871
 20
30.8951679596
 10
127.6644815292
 20
31.1438378449
 10
127.6847283374
 20
31.3815241237
 10
127.70403915
 20
31.6087762621
 10
127.7224679058
 20
31.8261437261
 10
127.7400685431
 20
32.0341759818
 10
127.7568950007
 20
32.2334224951
 10
127.7730012169
 20
32.4244327322
 10
127.8080810843
 20
32.8411463243
  0
LWPOLYLINE
  5
938
330
21A
100
AcDbEntity
  8
DEFAULT_2
  6
HIDDEN
 62
     7
100
AcDbPolyline
 90
        3
 70
     0
 43
0.0
 10
130.2260907899
 20
45.5812459301
 10
130.2260855156
 20
45.5812337459
 10
130.2267312808
 20
45.581263424
  0
LWPOLYLINE
  5
A22
330
21A
100
AcDbEntity
  8
0
  6
Continuous
 62
     7
100
AcDbPolyline
 90
       19
 70
     0
 43
0.0
 10
137.0050042714546
 20
47.9369008861
 10
136.8431534158
 20
47.10438628579999
 10
136.6479123401
 20
46.0457726492
 10
136.4628792141
 20
44.9853271452
 10
136.2880711138
 20
43.92314823569999
 10
136.1235051151
 20
42.85933438279999
 10
135.990612
 20
41.9462606503
 10
135.8652646003
 20
41.0321204653
 10
135.7474711654
 20
40.1169762354
 10
135.6372397456
 20
39.200890389
 10
135.5345775925
 20
38.2839254393
 10
135.4394917583
 20
37.3661439204
 10
135.373153483
 20
36.6773095371
 10
135.311083222
 20
35.9880774574
 10
135.2532833095
 20
35.2984741322
 10
135.1997559452
 20
34.6085260208
 10
135.150503231
 20
33.9182595901
 10
135.1055270131
 20
33.2277013263
 10
135.0468766964
 20
32.2063807181
  0
LINE
  5
15D5
330
21A
100
AcDbEntity
  8
0
  6
Continuous
 62
     7
100
AcDbLine
 10
96.06787897090001
 20
49.68944874069999
 30
0.0
 11
96.0459127032
 21
49.6504557267
 31
0.0
  0
LINE
  5
15D6
330
21A
100
AcDbEntity
  8
0
  6
Continuous
 62
     7
100
AcDbLine
 10
96.1183205885
 20
49.7568981183
 30
0.0
 11
96.0921631359
 21
49.7248863308
 31
0.0
  0
LWPOLYLINE
  5
15D7
330
21A
100
AcDbEntity
  8
0
  6
Continuous
 62
     7
100
AcDbPolyline
 90
        3
 70
     0
 43
0.0
 10
96.11841497459998
 20
49.7570043147
 10
96.0921747231
 20
49.7249017721
 10
96.06781659620001
 20
49.68934873640001
  0
LINE
  5
15D8
330
21A
100
AcDbEntity
  8
0
  6
Continuous
 62
     7
100
AcDbLine
 10
96.01188493110001
 20
49.5640819211
 30
0.0
 11
96.00049228739999
 21
49.5160633793
 31
0.0
  0
LINE
  5
15D9
330
21A
100
AcDbEntity
  8
0
  6
Continuous
 62
     7
100
AcDbLine
 10
96.02718879950002
 20
49.6088172841
 30
0.0
 11
96.0117156701
 21
49.56349706720001
 31
0.0
  0
LINE
  5
15DA
330
21A
100
AcDbEntity
  8
0
  6
Continuous
 62
     7
100
AcDbLine
 10
96.0460341131
 20
49.6506956139
 30
0.0
 11
96.02702969520001
 21
49.6084148355
 31
0.0
  0
LINE
  5
15DB
330
21A
100
AcDbEntity
  8
0
  6
Continuous
 62
     7
100
AcDbLine
 10
96.145975237
 20
49.7856279562
 30
0.0
 11
96.1183205885
 21
49.7568981183
 31
0.0
  0
LINE
  5
15DC
330
21A
100
AcDbEntity
  8
0
  6
Continuous
 62
     7
100
AcDbLine
 10
96.17428849219999
 20
49.81079746159999
 30
0.0
 11
96.14579500379999
 21
49.78545498969999
 31
0.0
  0
LINE
  5
15DD
330
21A
100
AcDbEntity
  8
0
  6
Continuous
 62
     7
100
AcDbLine
 10
96.2019841599
 20
49.832022455
 30
0.0
 11
96.17402988830001
 21
49.8105844052
 31
0.0
  0
LWPOLYLINE
  5
15DE
330
21A
100
AcDbEntity
  8
0
  6
Continuous
 62
     7
100
AcDbPolyline
 90
        4
 70
     0
 43
0.0
 10
95.99499296759999
 20
49.4785350667
 10
95.94126413940001
 20
48.98091471619999
 10
95.88520298790001
 20
48.4607129331
 10
95.830688154
 20
47.9546832814
  0
LINE
  5
15DF
330
21A
100
AcDbEntity
  8
0
  6
Continuous
 62
     7
100
AcDbLine
 10
96.0006383001
 20
49.5168463276
 30
0.0
 11
95.99498783959999
 21
49.4785355789
 31
0.0
  0
LINE
  5
15E0
330
21A
100
AcDbEntity
  8
0
  6
Continuous
 62
     7
100
AcDbLine
 10
96.22757541709999
 20
49.84909157709999
 30
0.0
 11
96.20170962190002
 21
49.8318267375
 31
0.0
  0
LINE
  5
15E1
330
21A
100
AcDbEntity
  8
0
  6
Continuous
 62
     7
100
AcDbLine
 10
95.8306867645
 20
47.9546703882
 30
0.0
 11
95.83106960110001
 21
47.95492379199999
 31
0.0
  0
LINE
  5
15E2
330
21A
100
AcDbEntity
  8
0
  6
Continuous
 62
     7
100
AcDbLine
 10
96.25138869860002
 20
49.86303971449999
 30
0.0
 11
96.22729322280001
 21
49.8489155218
 31
0.0
  0
LINE
  5
15E3
330
21A
100
AcDbEntity
  8
0
  6
Continuous
 62
     7
100
AcDbLine
 10
96.27356918780002
 20
49.8745107339
 30
0.0
 11
96.2510820692
 21
49.86287116159999
 31
0.0
  0
LINE
  5
15E4
330
21A
100
AcDbEntity
  8
0
  6
Continuous
 62
     7
100
AcDbLine
 10
96.293859405
 20
49.8838160267
 30
0.0
 11
96.2732401402
 21
49.8743506969
 31
0.0
  0
LINE
  5
15E5
330
21A
100
AcDbEntity
  8
0
  6
Continuous
 62
     7
100
AcDbLine
 10
96.3117117009
 20
49.8911204967
 30
0.0
 11
96.29352748249999
 21
49.88367253979999
 31
0.0
  0
LINE
  5
15E6
330
21A
100
AcDbEntity
  8
0
  6
Continuous
 62
     7
100
AcDbLine
 10
96.3273084791
 20
49.89685751859999
 30
0.0
 11
96.3113780599
 21
49.8909913013
 31
0.0
  0
LINE
  5
15E7
330
21A
100
AcDbEntity
  8
0
  6
Continuous
 62
     7
100
AcDbLine
 10
96.34125381389999
 20
49.90149683689999
 30
0.0
 11
96.3269513722
 21
49.8967327077
 31
0.0
  0
LWPOLYLINE
  5
15E8
330
21A
100
AcDbEntity
  8
0
  6
Continuous
 62
     7
100
AcDbPolyline
 90
       12
 70
     0
 43
0.0
 10
98.61084026989999
 20
32.2019319931
 10
98.6197347248
 20
32.0863848644
 10
98.6376785108
 20
31.943919046
 10
98.6671044702
 20
31.7785363863
 10
98.71473008950001
 20
31.5793478952
 10
98.78036457379998
 20
31.3665486242
 10
98.86829121559999
 20
31.1371186533
 10
98.9863407033
 20
30.8865004747
 10
99.132029046
 20
30.6313930383
 10
99.30919239819999
 20
30.3713940428
 10
99.5249761518
 20
30.105156249
 10
99.7729320364
 20
29.8464798245
  0
LINE
  5
15E9
330
21A
100
AcDbEntity
  8
0
  6
Continuous
 62
     7
100
AcDbLine
 10
96.3537009622
 20
49.9052582785
 30
0.0
 11
96.34088357500001
 21
49.9013795216
 31
0.0
  0
LWPOLYLINE
  5
15EA
330
21A
100
AcDbEntity
  8
0
  6
Continuous
 62
     7
100
AcDbPolyline
 90
        4
 70
     0
 43
0.0
 10
101.8527014012
 20
28.5491572115
 10
101.9367916706
 20
27.6722646626
 10
102.0236298692
 20
26.7675848925
 10
102.1135775944
 20
25.8314322126
  0
LINE
  5
15EB
330
21A
100
AcDbEntity
  8
0
  6
Continuous
 62
     7
100
AcDbLine
 10
100.1813115145
 20
29.5102692417
 30
0.0
 11
100.1995619844
 21
29.2108079557
 31
0.0
  0
LINE
  5
15EC
330
21A
100
AcDbEntity
  8
0
  6
Continuous
 62
     7
100
AcDbLine
 10
100.1995557138
 20
29.2109111901
 30
0.0
 11
100.2230645841
 21
28.8225276993
 31
0.0
  0
LINE
  5
15ED
330
21A
100
AcDbEntity
  8
0
  6
Continuous
 62
     7
100
AcDbLine
 10
100.2230590352
 20
28.822619702
 30
0.0
 11
100.2455902933
 21
28.4476354838
 31
0.0
  0
LINE
  5
15EE
330
21A
100
AcDbEntity
  8
0
  6
Continuous
 62
     7
100
AcDbLine
 10
100.245585448
 20
28.4477164395
 30
0.0
 11
100.267104045
 21
28.0867316952
 31
0.0
  0
LINE
  5
15EF
330
21A
100
AcDbEntity
  8
0
  6
Continuous
 62
     7
100
AcDbLine
 10
100.2670998813
 20
28.0868018376
 30
0.0
 11
100.2875728443
 21
27.7404131879
 31
0.0
  0
LINE
  5
15F0
330
21A
100
AcDbEntity
  8
0
  6
Continuous
 62
     7
100
AcDbLine
 10
100.2875693369
 20
27.7404727995
 30
0.0
 11
100.3069557689
 21
27.4094490845
 31
0.0
  0
LWPOLYLINE
  5
15F1
330
21A
100
AcDbEntity
  8
0
  6
Continuous
 62
     7
100
AcDbPolyline
 90
        7
 70
     0
 43
0.0
 10
100.3069528885
 20
27.4094985058
 10
100.3252030753
 20
27.0948094006
 10
100.3422819559
 20
26.7972297118
 10
100.358158378
 20
26.5175250582
 10
100.3727965856
 20
26.256606908
 10
100.3861482971
 20
26.0156875479
 10
100.396240978
 20
25.8314322126
  0
LWPOLYLINE
  5
15F2
330
21A
100
AcDbEntity
  8
0
  6
Continuous
 62
     7
100
AcDbPolyline
 90
        6
 70
     0
 43
0.0
 10
101.8527013984
 20
28.5491572492
 10
101.8481467552
 20
28.5816874678
 10
101.8394633175
 20
28.6129516444
 10
101.8268098325
 20
28.642378181
 10
101.8104176232
 20
28.669429111
 10
101.7991096367
 20
28.6832172406
  0
LWPOLYLINE
  5
15F3
330
21A
100
AcDbEntity
  8
0
  6
Continuous
 62
     7
100
AcDbPolyline
 90
        5
 70
     0
 43
0.0
 10
99.7728351359
 20
29.8465738534
 10
99.98982285930001
 20
29.6546076969
 10
100.2287323326
 20
29.4745248389
 10
100.4880923484
 20
29.3056649451
 10
100.7717229822
 20
29.1442932338
  0
LINE
  5
15F4
330
21A
100
AcDbEntity
  8
0
  6
Continuous
 62
     7
100
AcDbLine
 10
99.7728220527
 20
29.8465860785
 30
0.0
 11
99.99033901650001
 21
29.6541856765
 31
0.0
  0
LWPOLYLINE
  5
15F5
330
21A
100
AcDbEntity
  8
0
  6
Continuous
 62
     7
100
AcDbPolyline
 90
        3
 70
     0
 43
0.0
 10
104.8944402534
 20
27.7541874086
 10
104.8835021932
 20
27.0728336087
 10
104.869623639
 20
25.8314322134
  0
LWPOLYLINE
  5
15F6
330
21A
100
AcDbEntity
  8
0
  6
Continuous
 62
     7
100
AcDbPolyline
 90
       27
 70
     0
 43
0.0
 10
100.7717229822
 20
29.1442932338
 10
101.0815671936
 20
28.9885301178
 10
101.42211205
 20
28.8355973311
 10
101.7979380263
 20
28.6836474806
 10
102.208812252
 20
28.5327658198
 10
102.6546258963
 20
28.382102996
 10
103.1311921416
 20
28.2321436969
 10
103.6325772239
 20
28.08444989030001
 10
104.1491983033
 20
27.9421348807
 10
104.671655323
 20
27.8076546837
 10
105.200386277
 20
27.6807618849
 10
105.7385639156
 20
27.5608327424
 10
106.2901540426
 20
27.4473058779
 10
106.8584469324
 20
27.3398153738
 10
107.4450767006
 20
27.2384273791
 10
108.0514958567
 20
27.1433883222
 10
108.6789436646
 20
27.0548621926
 10
109.329520212
 20
26.9729245612
 10
110.007306626
 20
26.8976349269
 10
110.7168868678
 20
26.8290770765
 10
111.4630009501
 20
26.7674865919
 10
112.2493479861
 20
26.713435328
 10
113.0777669632
 20
26.6676339325
 10
113.9496155911
 20
26.6308229026
 10
114.8661430368
 20
26.6037366755
 10
115.828621352
 20
26.5870556463
 10
116.8276729987
 20
26.5814295972
  0
LINE
  5
15F7
330
21A
100
AcDbEntity
  8
0
  6
Continuous
 62
     7
100
AcDbLine
 10
100.3962485291
 20
25.8314322126
 30
0.0
 11
130.0116907958
 21
25.8314322126
 31
0.0
  0
LINE
  5
15F8
330
21A
100
AcDbEntity
  8
DEFAULT_1
  6
CENTER
 62
     7
100
AcDbLine
 10
109.3287717038
 20
26.8702342194
 30
0.0
 11
109.3287717038
 21
29.6285675527
 31
0.0
  0
LWPOLYLINE
  5
15F9
330
21A
100
AcDbEntity
  8
0
  6
Continuous
 62
     7
100
AcDbPolyline
 90
       30
 70
     0
 43
0.0
 10
116.8276730019
 20
26.5814295943
 10
117.8270219373
 20
26.5870339697
 10
118.7896478097
 20
26.6036956568
 10
119.706319992
 20
26.6307652527
 10
120.5783071302
 20
26.6675623203
 10
121.4068557556
 20
26.7133522792
 10
122.193320162
 20
26.7673941261
 10
122.9395375064
 20
26.8289768324
 10
123.6492086694
 20
26.8975281961
 10
124.3270763871
 20
26.9728123488
 10
124.9777275641
 20
27.0547457645
 10
125.605245202
 20
27.143268902
 10
126.2117300024
 20
27.2383059885
 10
126.7984218437
 20
27.3396932783
 10
127.3667736336
 20
27.44718431
 10
127.9184207655
 20
27.5607129876
 10
128.4566531428
 20
27.6806452579
 10
128.9854349753
 20
27.8075420185
 10
129.5079380231
 20
27.9420264869
 10
130.0245991021
 20
28.08434530840001
 10
130.5260209799
 20
28.2320431235
 10
131.0026238589
 20
28.3820073892
 10
131.4484791271
 20
28.5326771994
 10
131.8594007021
 20
28.6835687596
 10
132.2352763142
 20
28.8355313102
 10
132.5758669662
 20
28.9884782726
 10
132.885750096
 20
29.1442556887
 10
133.1694132981
 20
29.3056419963
 10
133.4287961054
 20
29.4745143742
 10
133.6677180607
 20
29.6546056698
  0
LINE
  5
15FA
330
21A
100
AcDbEntity
  8
0
  6
Continuous
 62
     7
100
AcDbLine
 10
95.83069771019999
 20
47.9546404902
 30
0.0
 11
95.846609578
 21
47.9369008861
 31
0.0
  0
LINE
  5
15FB
330
21A
100
AcDbEntity
  8
0
  6
Continuous
 62
     7
100
AcDbLine
 10
95.831069607
 20
47.9549237972
 30
0.0
 11
95.8469412114
 21
47.9369008911
 31
0.0
  0
LINE
  5
15FD
330
21A
100
AcDbEntity
  8
0
  6
Continuous
 62
     7
100
AcDbLine
 10
111.2039683513
 20
26.7888693049
 30
0.0
 11
111.2037717038
 21
25.8314322126
 31
0.0
  0
LINE
  5
1601
330
21A
100
AcDbEntity
  8
0
  6
Continuous
 62
     7
100
AcDbLine
 10
116.8276730001
 20
26.5814322237
 30
0.0
 11
116.8278071276
 21
28.1077518442
 31
0.0
  0
LINE
  5
1603
330
21A
100
AcDbEntity
  8
0
  6
Continuous
 62
     7
100
AcDbLine
 10
125.6598403189
 20
47.9530719164
 30
0.0
 11
125.653378341
 21
47.93690083529999
 31
0.0
  0
LINE
  5
1604
330
21A
100
AcDbEntity
  8
0
  6
Continuous
 62
     7
100
AcDbLine
 10
122.4535750174
 20
26.7888720486
 30
0.0
 11
122.4537717038
 21
25.8314322126
 31
0.0
  0
LINE
  5
1607
330
21A
100
AcDbEntity
  8
0
  6
Continuous
 62
     7
100
AcDbLine
 10
137.8109338296
 20
47.9369008861
 30
0.0
 11
137.8268456974
 21
47.9546404902
 31
0.0
  0
LINE
  5
1608
330
21A
100
AcDbEntity
  8
0
  6
Continuous
 62
     7
100
AcDbLine
 10
130.2136675366
 20
28.1400369244
 30
0.0
 11
130.0116907958
 21
25.8314322126
 31
0.0
  0
LINE
  5
1609
330
21A
100
AcDbEntity
  8
DEFAULT_1
  6
CENTER
 62
     7
100
AcDbLine
 10
102.5601887102
 20
46.5629838743
 30
0.0
 11
99.6878273307
 21
46.311684816
 31
0.0
  0
LINE
  5
160F
330
21A
100
AcDbEntity
  8
0
  6
Continuous
 62
     7
100
AcDbLine
 10
95.84694120569999
 20
47.9369008861
 30
0.0
 11
137.8106022019
 21
47.9369008861
 31
0.0
  0
LWPOLYLINE
  5
161C
330
21A
100
AcDbEntity
  8
0
  6
Continuous
 62
     7
100
AcDbPolyline
 90
       12
 70
     0
 43
0.0
 10
133.8846059635
 20
29.8464746154
 10
134.1144747447
 20
30.084783144
 10
134.3251108745
 20
30.3403919803
 10
134.5052848422
 20
30.5993182276
 10
134.655974297
 20
30.8575042806
 10
134.7801227257
 20
31.1157775929
 10
134.8730816195
 20
31.3547071055
 10
134.9414922857
 20
31.5745181669
 10
134.9904996285
 20
31.7788318196
 10
135.0201902371999
 20
31.9460831026
 10
135.0379748834
 20
32.0880511701
 10
135.0467027775
 20
32.2019292078
  0
LINE
  5
161D
330
21A
100
AcDbEntity
  8
0
  6
Continuous
 62
     7
100
AcDbLine
 10
133.6674561964
 20
29.6544082853
 30
0.0
 11
133.8847213396
 21
29.8465860638
 31
0.0
  0
LINE
  5
1620
330
21A
100
AcDbEntity
  8
0
  6
Continuous
 62
     7
100
AcDbLine
 10
137.1261950782
 20
49.9304349383
 30
0.0
 11
137.121134219
 21
49.9306892865
 31
0.0
  0
LWPOLYLINE
  5
1621
330
21A
100
AcDbEntity
  8
0
  6
Continuous
 62
     7
100
AcDbPolyline
 90
        3
 70
     0
 43
0.0
 10
96.47234963850001
 20
49.9262309823
 10
96.4318328176
 20
49.92133485810001
 10
96.4228963557
 20
49.91999967219999
  0
LWPOLYLINE
  5
1622
330
21A
100
AcDbEntity
  8
0
  6
Continuous
 62
     7
100
AcDbPolyline
 90
        4
 70
     0
 43
0.0
 10
108.8547161995
 20
51.8848058709
 10
108.774762907
 20
51.876845615
 10
108.6846640115
 20
51.8677850666
 10
108.6054674206
 20
51.85974211819999
  0
LINE
  5
1623
330
21A
100
AcDbEntity
  8
0
  6
Continuous
 62
     7
100
AcDbLine
 10
96.4914183037
 20
49.92793756899999
 30
0.0
 11
96.4722727566
 21
49.9262230914
 31
0.0
  0
LINE
  5
1624
330
21A
100
AcDbEntity
  8
0
  6
Continuous
 62
     7
100
AcDbLine
 10
96.51067248940002
 20
49.92927433390001
 30
0.0
 11
96.4914183037
 21
49.92793756899999
 31
0.0
  0
LINE
  5
1625
330
21A
100
AcDbEntity
  8
0
  6
Continuous
 62
     7
100
AcDbLine
 10
96.53136375409999
 20
49.9304357287
 30
0.0
 11
96.51067248940002
 21
49.92927433390001
 31
0.0
  0
LINE
  5
1627
330
21A
100
AcDbEntity
  8
0
  6
Continuous
 62
     7
100
AcDbLine
 10
96.53646877440001
 20
49.9306922412
 30
0.0
 11
96.5313483779
 21
49.9304349408
 31
0.0
  0
LINE
  5
1628
330
21A
100
AcDbEntity
  8
0
  6
Continuous
 62
     7
100
AcDbLine
 10
96.53646877440001
 20
49.9306922412
 30
0.0
 11
96.5313483779
 21
49.9304349408
 31
0.0
  0
LWPOLYLINE
  5
1629
330
21A
100
AcDbEntity
  8
0
  6
Continuous
 62
     7
100
AcDbPolyline
 90
        5
 70
     0
 43
0.0
 10
115.2796622546
 20
52.17289231270001
 10
111.4011466131
 20
52.0555093428
 10
110.5467705275
 20
52.0121684662
 10
109.6938956215
 20
51.95676818959999
 10
108.8547406927
 20
51.8848082779
  0
LWPOLYLINE
  5
162C
330
21A
100
AcDbEntity
  8
0
  6
Continuous
 62
     7
100
AcDbPolyline
 90
        3
 70
     0
 43
0.0
 10
115.2796622546
 20
52.17289231270001
 10
115.4716558735
 20
52.17616460689999
 10
115.6767623217
 20
52.17915991609999
  0
LINE
  5
162E
330
21A
100
AcDbEntity
  8
0
  6
Continuous
 62
     7
100
AcDbLine
 10
115.6767623217
 20
52.17915991609999
 30
0.0
 11
115.8567414134
 21
52.1814031481
 31
0.0
  0
LWPOLYLINE
  5
162F
330
21A
100
AcDbEntity
  8
0
  6
Continuous
 62
     7
100
AcDbPolyline
 90
        6
 70
     0
 43
0.0
 10
115.8567414134
 20
52.1814031481
 10
116.0504413083
 20
52.1833773585
 10
116.2447375133
 20
52.1849170412
 10
116.4376515365
 20
52.18601088359999
 10
116.630305537
 20
52.186671566
 10
116.8287717038
 20
52.18690088609999
  0
LWPOLYLINE
  5
1631
330
21A
100
AcDbEntity
  8
0
  6
Continuous
 62
     7
100
AcDbPolyline
 90
        5
 70
     0
 43
0.0
 10
116.8287717038
 20
52.18690088609999
 10
117.024965175
 20
52.18667678560001
 10
117.220030754
 20
52.18601025169999
 10
117.414198006
 20
52.18490757449999
 10
117.6081358681
 20
52.1833679882
  0
LINE
  5
1633
330
21A
100
AcDbEntity
  8
0
  6
Continuous
 62
     7
100
AcDbLine
 10
117.6081358681
 20
52.1833679882
 30
0.0
 11
117.8016695661
 21
52.1813933155
 31
0.0
  0
LWPOLYLINE
  5
1634
330
21A
100
AcDbEntity
  8
0
  6
Continuous
 62
     7
100
AcDbPolyline
 90
        3
 70
     0
 43
0.0
 10
117.8016695661
 20
52.1813933155
 10
117.9946270782
 20
52.1789860638
 10
118.7623151865235
 20
52.16732927126031
  0
LWPOLYLINE
  5
1637
330
21A
100
AcDbEntity
  8
0
  6
Continuous
 62
     7
100
AcDbPolyline
 90
        4
 70
     0
 43
0.0
 10
121.3147508481
 20
52.0934884563
 10
120.5197296882
 20
52.1207646695
 10
119.6652218613
 20
52.1462092617
 10
118.7625213869
 20
52.167324448
  0
LINE
  5
1638
330
21A
100
AcDbEntity
  8
0
  6
Continuous
 62
     7
100
AcDbLine
 10
121.4123042675
 20
52.0899365334
 30
0.0
 11
121.3147501673
 21
52.0934884809
 31
0.0
  0
LINE
  5
1639
330
21A
100
AcDbEntity
  8
0
  6
Continuous
 62
     7
100
AcDbLine
 10
137.1468096382
 20
49.92927812699999
 30
0.0
 11
137.1261786365
 21
49.93043578079999
 31
0.0
  0
LWPOLYLINE
  5
163C
330
21A
100
AcDbEntity
  8
0
  6
Continuous
 62
     7
100
AcDbPolyline
 90
        5
 70
     0
 43
0.0
 10
124.8029984889
 20
51.8847889118
 10
123.9630717607
 20
51.9568108758
 10
123.1100677741
 20
52.01220861270001
 10
122.2555715636
 20
52.0555466287
 10
121.4123034359
 20
52.0899365646
  0
LWPOLYLINE
  5
163D
330
21A
100
AcDbEntity
  8
0
  6
Continuous
 62
     7
100
AcDbPolyline
 90
        3
 70
     0
 43
0.0
 10
137.1852667799
 20
49.92622348720001
 10
137.1660605878
 20
49.9279426103
 10
137.1468096382
 20
49.92927812699999
  0
LWPOLYLINE
  5
163E
330
21A
100
AcDbEntity
  8
0
  6
Continuous
 62
     7
100
AcDbPolyline
 90
        4
 70
     0
 43
0.0
 10
125.052101824
 20
51.8597394826
 10
124.9721813897
 20
51.86785562669999
 10
124.88221688
 20
51.87690199350001
 10
124.8030223978
 20
51.88478652939999
  0
LINE
  5
163F
330
21A
100
AcDbEntity
  8
0
  6
Continuous
 62
     7
100
AcDbLine
 10
137.1852667838
 20
49.9262235255
 30
0.0
 11
137.1851981533
 21
49.9262305385
 31
0.0
  0
LINE
  5
1640
330
21A
100
AcDbEntity
  8
0
  6
Continuous
 62
     7
100
AcDbLine
 10
137.2261226962
 20
49.9212758342
 30
0.0
 11
137.1851981539
 21
49.9262305384
 31
0.0
  0
LINE
  5
1641
330
21A
100
AcDbEntity
  8
0
  6
Continuous
 62
     7
100
AcDbLine
 10
137.121134219
 20
49.9306892865
 30
0.0
 11
137.1008153277
 21
49.9335650037
 31
0.0
  0
LINE
  5
1644
330
21A
100
AcDbEntity
  8
0
  6
Continuous
 62
     7
100
AcDbLine
 10
137.243593249
 20
49.91865899069999
 30
0.0
 11
137.2261226962
 21
49.9212758342
 31
0.0
  0
LINE
  5
1647
330
21A
100
AcDbEntity
  8
0
  6
Continuous
 62
     7
100
AcDbLine
 10
137.2488576419
 20
49.9177937226
 30
0.0
 11
137.243593249
 21
49.91865899069999
 31
0.0
  0
LINE
  5
1649
330
21A
100
AcDbEntity
  8
0
  6
Continuous
 62
     7
100
AcDbLine
 10
96.37971943270001
 20
49.9120018932
 30
0.0
 11
96.37264035780001
 21
49.9103143331
 31
0.0
  0
LINE
  5
164A
330
21A
100
AcDbEntity
  8
0
  6
Continuous
 62
     7
100
AcDbLine
 10
96.385199419
 20
49.9132339264
 30
0.0
 11
96.37955492000001
 21
49.9119639075
 31
0.0
  0
LINE
  5
164B
330
21A
100
AcDbEntity
  8
0
  6
Continuous
 62
     7
100
AcDbLine
 10
96.3896363071
 20
49.9141843418
 30
0.0
 11
96.385070613
 21
49.9132057073
 31
0.0
  0
LINE
  5
164C
330
21A
100
AcDbEntity
  8
0
  6
Continuous
 62
     7
100
AcDbLine
 10
96.3966508618
 20
49.91560085879999
 30
0.0
 11
96.38528906940001
 21
49.91325354619999
 31
0.0
  0
LINE
  5
164D
330
21A
100
AcDbEntity
  8
0
  6
Continuous
 62
     7
100
AcDbLine
 10
96.396376643
 20
49.9155482234
 30
0.0
 11
96.393216184
 21
49.9149206705
 31
0.0
  0
LINE
  5
164E
330
21A
100
AcDbEntity
  8
0
  6
Continuous
 62
     7
100
AcDbLine
 10
96.40127888569999
 20
49.9164801614
 30
0.0
 11
96.39630911700001
 21
49.915535035
 31
0.0
  0
LINE
  5
164F
330
21A
100
AcDbEntity
  8
0
  6
Continuous
 62
     7
100
AcDbLine
 10
96.4038800538
 20
49.9169543269
 30
0.0
 11
96.396537264
 21
49.9155791401
 31
0.0
  0
LINE
  5
1650
330
21A
100
AcDbEntity
  8
0
  6
Continuous
 62
     7
100
AcDbLine
 10
96.40402342379999
 20
49.91697925810001
 30
0.0
 11
96.40123319540002
 21
49.9164717071
 31
0.0
  0
LINE
  5
1651
330
21A
100
AcDbEntity
  8
0
  6
Continuous
 62
     7
100
AcDbLine
 10
96.40402621120001
 20
49.9169797428
 30
0.0
 11
96.40378689069999
 21
49.91693688459999
 31
0.0
  0
LINE
  5
1652
330
21A
100
AcDbEntity
  8
0
  6
Continuous
 62
     7
100
AcDbLine
 10
96.40949847080001
 20
49.91793056270001
 30
0.0
 11
96.4037931738
 21
49.9169387158
 31
0.0
  0
LINE
  5
1653
330
21A
100
AcDbEntity
  8
0
  6
Continuous
 62
     7
100
AcDbLine
 10
96.4095017374
 20
49.9179310954
 30
0.0
 11
96.4092104923
 21
49.9178818757
 31
0.0
  0
LINE
  5
1654
330
21A
100
AcDbEntity
  8
0
  6
Continuous
 62
     7
100
AcDbLine
 10
96.40949847080001
 20
49.91793056270001
 30
0.0
 11
96.40933885709999
 21
49.9179035809
 31
0.0
  0
LINE
  5
1655
330
21A
100
AcDbEntity
  8
0
  6
Continuous
 62
     7
100
AcDbLine
 10
96.59948171069999
 20
49.9407254407
 30
0.0
 11
96.5546025699
 21
49.93323641239999
 31
0.0
  0
LINE
  5
1656
330
21A
100
AcDbEntity
  8
0
  6
Continuous
 62
     7
100
AcDbLine
 10
96.41459368580001
 20
49.91876056939999
 30
0.0
 11
96.40940385330001
 21
49.9179145532
 31
0.0
  0
LINE
  5
1657
330
21A
100
AcDbEntity
  8
0
  6
Continuous
 62
     7
100
AcDbLine
 10
96.41956756370001
 20
49.9195206175
 30
0.0
 11
96.4143263475
 21
49.9187185659
 31
0.0
  0
LINE
  5
1658
330
21A
100
AcDbEntity
  8
0
  6
Continuous
 62
     7
100
AcDbLine
 10
96.41956775450001
 20
49.91952064479999
 30
0.0
 11
96.41560850250002
 21
49.91892007479999
 31
0.0
  0
LINE
  5
1659
330
21A
100
AcDbEntity
  8
0
  6
Continuous
 62
     7
100
AcDbLine
 10
96.42141911620001
 20
49.91979138560001
 30
0.0
 11
96.41938491719999
 21
49.91949348430001
 31
0.0
  0
LINE
  5
165A
330
21A
100
AcDbEntity
  8
0
  6
Continuous
 62
     7
100
AcDbLine
 10
96.5546025699
 20
49.93323641239999
 30
0.0
 11
96.5361302157
 21
49.9306447414
 31
0.0
  0
LWPOLYLINE
  5
165B
330
21A
100
AcDbEntity
  8
0
  6
Continuous
 62
     7
100
AcDbPolyline
 90
       27
 70
     0
 43
0.0
 10
108.6054632985
 20
51.8597416975
 10
107.7442633396
 20
51.76777347699999
 10
106.8916361582
 20
51.6688022796
 10
106.06354228
 20
51.5653146596
 10
105.2655178893
 20
51.4588629612
 10
104.5027292721
 20
51.3510230089
 10
103.7797949925
 20
51.24335958989999
 10
103.0981370731
 20
51.1369834003
 10
102.4549256763
 20
51.0322337858
 10
101.847470029
 20
50.92928615499999
 10
101.2733729838
 20
50.8282315618
 10
100.7303342384
 20
50.7291218723
 10
100.2159167922
 20
50.632243196
 10
99.7291880961
 20
50.5383698055
 10
99.2766824009
 20
50.4496440199
 10
98.8648623765
 20
50.3681639136
 10
98.497527139
 20
50.2953850902
 10
98.1718074982
 20
50.23122601789999
 10
97.88245546669999
 20
50.1749635392
 10
97.6249516502
 20
50.1258830009
 10
97.39582813630001
 20
50.0833852262
 10
97.1929874533
 20
50.0469666434
 10
97.01728587259999
 20
50.0159567427
 10
96.87108796709999
 20
49.9900093509
 10
96.7541419493
 20
49.9688671332
 10
96.66461344440001
 20
49.9524586257
 10
96.59948171069999
 20
49.9407254407
  0
LWPOLYLINE
  5
165D
330
21A
100
AcDbEntity
  8
0
  6
Continuous
 62
     7
100
AcDbPolyline
 90
       28
 70
     0
 43
0.0
 10
137.1008153277
 20
49.9335650037
 10
137.0579084914
 20
49.9407523033
 10
136.9926970286
 20
49.9525012267
 10
136.903071253
 20
49.9689274568
 10
136.7860104322
 20
49.9900890299
 10
136.639680579
 20
50.01605850029999
 10
136.4638380111
 20
50.0470938787
 10
136.2608580782
 20
50.0835415177
 10
136.0315779739
 20
50.12607381489999
 10
135.7739026126
 20
50.1751919579
 10
135.4843488432
 20
50.2314977661
 10
135.1583793626
 20
50.295708828
 10
134.7907259431
 20
50.3685514946
 10
134.3785442237
 20
50.4501009337
 10
133.9257056569
 20
50.5388857394
 10
133.4387588936
 20
50.6327903996
 10
132.9242885031
 20
50.7296640385
 10
132.3813143934
 20
50.82874362750001
 10
131.8073441893
 20
50.9297576899
 10
131.2000075789
 20
51.0326675865
 10
130.5568987161
 20
51.1373834199
 10
129.8753521223
 20
51.2437252118
 10
129.1525702143
 20
51.3513489288
 10
128.3899929956
 20
51.4591423857
 10
127.5922287112
 20
51.5655437901
 10
126.7644301515
 20
51.6689804429
 10
125.9121182077
 20
51.767903015
 10
125.0521059651
 20
51.8597390594
  0
LINE
  5
165F
330
21A
100
AcDbEntity
  8
0
  6
Continuous
 62
     7
100
AcDbLine
 10
137.2532267519
 20
49.9170326881
 30
0.0
 11
137.2488576419
 21
49.9177937226
 31
0.0
  0
LINE
  5
1661
330
21A
100
AcDbEntity
  8
0
  6
Continuous
 62
     7
100
AcDbLine
 10
137.2586278234
 20
49.9160373665
 30
0.0
 11
137.2532267519
 21
49.9170326881
 31
0.0
  0
LINE
  5
1664
330
21A
100
AcDbEntity
  8
0
  6
Continuous
 62
     7
100
AcDbLine
 10
137.2639507164
 20
49.9149967768
 30
0.0
 11
137.2586278234
 21
49.9160373665
 31
0.0
  0
LINE
  5
1665
330
21A
100
AcDbEntity
  8
0
  6
Continuous
 62
     7
100
AcDbLine
 10
137.2708259734
 20
49.9135640901
 30
0.0
 11
137.2639507164
 21
49.9149967768
 31
0.0
  0
LINE
  5
1666
330
21A
100
AcDbEntity
  8
0
  6
Continuous
 62
     7
100
AcDbLine
 10
137.2790590473
 20
49.9117155771
 30
0.0
 11
137.2708259734
 21
49.9135640901
 31
0.0
  0
LINE
  5
1667
330
21A
100
AcDbEntity
  8
0
  6
Continuous
 62
     7
100
AcDbLine
 10
137.2875945099
 20
49.9096444035
 30
0.0
 11
137.2790590473
 21
49.9117155771
 31
0.0
  0
LINE
  5
166B
330
21A
100
AcDbEntity
  8
0
  6
Continuous
 62
     7
100
AcDbLine
 10
137.2960497683
 20
49.9074352753
 30
0.0
 11
137.2875945099
 21
49.9096444035
 31
0.0
  0
LWPOLYLINE
  5
166C
330
21A
100
AcDbEntity
  8
0
  6
Continuous
 62
     7
100
AcDbPolyline
 90
        3
 70
     0
 43
0.0
 10
137.3072595161
 20
49.9042611059
 10
137.3003349953
 20
49.9062551362
 10
137.2939109974
 20
49.9080090005
  0
LWPOLYLINE
  5
166D
330
21A
100
AcDbEntity
  8
0
  6
Continuous
 62
     7
100
AcDbPolyline
 90
        4
 70
     0
 43
0.0
 10
137.8268552267
 20
47.95468353029999
 10
137.7723403981
 20
48.46071313319999
 10
137.7162792497
 20
48.9809148871
 10
137.6625504348
 20
49.47853511539999
  0
LINE
  5
166E
330
21A
100
AcDbEntity
  8
0
  6
Continuous
 62
     7
100
AcDbLine
 10
96.3642602156
 20
49.90817517069999
 30
0.0
 11
96.353369003
 21
49.9051625296
 31
0.0
  0
LINE
  5
166F
330
21A
100
AcDbEntity
  8
0
  6
Continuous
 62
     7
100
AcDbLine
 10
96.37285017229999
 20
49.9103659166
 30
0.0
 11
96.36399313430001
 21
49.9081044511
 31
0.0
  0
LINE
  5
1671
330
21A
100
AcDbEntity
  8
0
  6
Continuous
 62
     7
100
AcDbLine
 10
137.3183875187809
 20
49.9008263852755
 30
0.0
 11
137.3072595161
 21
49.9042611059
 31
0.0
  0
LINE
  5
1674
330
21A
100
AcDbEntity
  8
0
  6
Continuous
 62
     7
100
AcDbLine
 10
137.3328932818
 20
49.8959215011
 30
0.0
 11
137.3183875187809
 21
49.9008263852755
 31
0.0
  0
LINE
  5
1675
330
21A
100
AcDbEntity
  8
0
  6
Continuous
 62
     7
100
AcDbLine
 10
137.3493279996777
 20
49.88975034742749
 30
0.0
 11
137.3326187234
 21
49.8960189932
 31
0.0
  0
LINE
  5
1676
330
21A
100
AcDbEntity
  8
0
  6
Continuous
 62
     7
100
AcDbLine
 10
137.6625495447
 20
49.4785433438
 30
0.0
 11
137.6620763428
 21
49.4787351355
 31
0.0
  0
LINE
  5
1678
330
21A
100
AcDbEntity
  8
0
  6
Continuous
 62
     7
100
AcDbLine
 10
137.36864614429
 20
49.88163780366456
 30
0.0
 11
137.3493279996777
 21
49.88975034742749
 31
0.0
  0
LWPOLYLINE
  5
167D
330
21A
100
AcDbEntity
  8
0
  6
Continuous
 62
     7
100
AcDbPolyline
 90
       14
 70
     0
 43
0.0
 10
137.662556244
 20
49.4785357159
 10
137.6564942551
 20
49.5190169393
 10
137.6445184783
 20
49.5679559614
 10
137.6282763043
 20
49.6139851716
 10
137.6083557188
 20
49.6568188983
 10
137.5853362069
 20
49.69626436409999
 10
137.5597864381
 20
49.732200791
 10
137.5322533347
 20
49.7645808106
 10
137.5032532504
 20
49.79342438279999
 10
137.4733299717
 20
49.8187597187
 10
137.4436502744
 20
49.8402496435
 10
137.4158039159
 20
49.8576005221
 10
137.390906465
 20
49.87107620359999
 10
137.36864614429
 20
49.88163780366457
  0
ARC
  5
16B8
330
21A
100
AcDbEntity
  8
DEFAULT_2
  6
HIDDEN
 62
     7
100
AcDbCircle
 10
129.7135743005
 20
44.9702766406
 30
0.0
 40
0.6249999995000001
100
AcDbArc
 50
88.42127268649999
 51
202.0
  0
ARC
  5
16B9
330
21A
100
AcDbEntity
  8
DEFAULT_2
  6
HIDDEN
 62
     7
100
AcDbCircle
 10
103.9439691071
 20
44.9702766406
 30
0.0
 40
0.6249999995000001
100
AcDbArc
 50
338.0
 51
91.57872731350002
  0
ARC
  5
16BD
330
21A
100
AcDbEntity
  8
DEFAULT_2
  6
HIDDEN
 62
     7
100
AcDbCircle
 10
133.2880377274
 20
49.323813734
 30
0.0
 40
0.5
100
AcDbArc
 50
91.50738829119999
 51
175.0151875549
  0
ARC
  5
16BE
330
21A
100
AcDbEntity
  8
DEFAULT_2
  6
HIDDEN
 62
     7
100
AcDbCircle
 10
100.3695056808
 20
49.323813734
 30
0.0
 40
0.5
100
AcDbArc
 50
4.984826500699999
 51
88.49261960499999
  0
ARC
  5
16BF
330
21A
100
AcDbEntity
  8
DEFAULT_2
  6
HIDDEN
 62
     7
100
AcDbCircle
 10
129.5286041276
 20
44.7607270255
 30
0.0
 40
0.375
100
AcDbArc
 50
202.0
 51
254.1560325069
  0
ARC
  5
16C0
330
21A
100
AcDbEntity
  8
DEFAULT_2
  6
HIDDEN
 62
     7
100
AcDbCircle
 10
104.12893928
 20
44.7607270255
 30
0.0
 40
0.375
100
AcDbArc
 50
285.8439674931
 51
338.0
  0
ARC
  5
16C1
330
21A
100
AcDbEntity
  8
DEFAULT_2
  6
HIDDEN
 62
     7
100
AcDbCircle
 10
110.6002183132
 20
28.1869008861
 30
0.0
 40
0.25
100
AcDbArc
 50
269.9999104554
 51
314.9999999933001
  0
ARC
  5
16C2
330
21A
100
AcDbEntity
  8
DEFAULT_2
  6
HIDDEN
 62
     7
100
AcDbCircle
 10
108.0573250944
 20
28.1869008861
 30
0.0
 40
0.25
100
AcDbArc
 50
225.0000000058
 51
270.0000839591
  0
ARC
  5
16C3
330
21A
100
AcDbEntity
  8
DEFAULT_2
  6
HIDDEN
 62
     7
100
AcDbCircle
 10
107.3373907097
 20
28.1997285012
 30
0.0
 40
0.2499999993
100
AcDbArc
 50
44.99983696930001
 51
82.39292236949999
  0
ARC
  5
16C4
330
21A
100
AcDbEntity
  8
DEFAULT_2
  6
HIDDEN
 62
     7
100
AcDbCircle
 10
111.3059476354
 20
28.1855234456
 30
0.0
 40
0.2499999988
100
AcDbArc
 50
89.2615272181
 51
135.0000893342
  0
LINE
  5
177C
330
21A
100
AcDbEntity
  8
0
100
AcDbLine
 10
133.2748848004452
 20
49.82364070457333
 30
0.0
 11
137.156435113
 21
49.92861036865
 31
0.0
  0
LINE
  5
177D
330
21A
100
AcDbEntity
  8
0
100
AcDbLine
 10
100.3826585388712
 20
49.823640706386
 30
0.0
 11
96.5546025699
 21
49.93323641239999
 31
0.0
  0
SPLINE
  5
177E
330
21A
100
AcDbEntity
  8
0
100
AcDbSpline
210
0.0
220
0.0
230
1.0
 70
     8
 71
     3
 72
     9
 73
     5
 74
     3
 42
0.0000000001
 43
0.0000000001
 44
0.0000000001
 40
0.0
 40
0.0
 40
0.0
 40
0.0
 40
0.1249999734977809
 40
0.1250000431915805
 40
0.1250000431915805
 40
0.1250000431915805
 40
0.1250000431915805
 10
104.4766332254625
 20
44.62024955296903
 30
0.0
 10
104.4922418201076
 20
44.65888221152691
 30
0.0
 10
104.5078504234552
 20
44.69751489162445
 30
0.0
 10
104.5234590331458
 20
44.73614756298167
 30
0.0
 10
104.5234590418484
 20
44.73614758452132
 30
0.0
 11
104.4766332254625
 21
44.62024955296903
 31
0.0
 11
104.5234590157406
 21
44.73614751990235
 31
0.0
 11
104.5234590418484
 21
44.73614758452132
 31
0.0
  0
ENDSEC
  0
SECTION
  2
OBJECTS
  0
DICTIONARY
  5
C
330
0
100
AcDbDictionary
281
     1
  3
ACAD_COLOR
350
170A
  3
ACAD_GROUP
350
D
  3
ACAD_LAYOUT
350
1A
  3
ACAD_MATERIAL
350
16DD
  3
ACAD_MLEADERSTYLE
350
172F
  3
ACAD_MLINESTYLE
350
17
  3
ACAD_PLOTSETTINGS
350
19
  3
ACAD_PLOTSTYLENAME
350
E
  3
ACAD_SCALELIST
350
170D
  3
ACAD_TABLESTYLE
350
170B
  3
ACAD_VISUALSTYLE
350
16F6
  3
ACDB_RECOMPOSE_DATA
350
1734
  3
AcDbVariableDictionary
350
1766
  3
DWGPROPS
350
17D7
  0
DICTIONARY
  5
1735
330
8
100
AcDbDictionary
280
     1
281
     1
  0
DICTIONARY
  5
177F
330
10
100
AcDbDictionary
280
     1
281
     1
  3
ADSK_XREC_LAYER_RECONCILED
360
1780
  0
DICTIONARY
  5
1781
330
1FA
100
AcDbDictionary
280
     1
281
     1
  3
ADSK_XREC_LAYER_RECONCILED
360
1782
  0
DICTIONARY
  5
1783
330
1FB
100
AcDbDictionary
280
     1
281
     1
  3
ADSK_XREC_LAYER_RECONCILED
360
1784
  0
DICTIONARY
  5
1785
330
1FC
100
AcDbDictionary
280
     1
281
     1
  3
ADSK_XREC_LAYER_RECONCILED
360
1786
  0
DICTIONARY
  5
1787
330
1FD
100
AcDbDictionary
280
     1
281
     1
  3
ADSK_XREC_LAYER_RECONCILED
360
1788
  0
DICTIONARY
  5
1789
330
1FE
100
AcDbDictionary
280
     1
281
     1
  3
ADSK_XREC_LAYER_RECONCILED
360
178A
  0
DICTIONARY
  5
178B
330
1FF
100
AcDbDictionary
280
     1
281
     1
  3
ADSK_XREC_LAYER_RECONCILED
360
178C
  0
DICTIONARY
  5
178D
330
200
100
AcDbDictionary
280
     1
281
     1
  3
ADSK_XREC_LAYER_RECONCILED
360
178E
  0
DICTIONARY
  5
178F
330
201
100
AcDbDictionary
280
     1
281
     1
  3
ADSK_XREC_LAYER_RECONCILED
360
1790
  0
DICTIONARY
  5
1791
330
202
100
AcDbDictionary
280
     1
281
     1
  3
ADSK_XREC_LAYER_RECONCILED
360
1792
  0
DICTIONARY
  5
1793
330
203
100
AcDbDictionary
280
     1
281
     1
  3
ADSK_XREC_LAYER_RECONCILED
360
1794
  0
DICTIONARY
  5
1795
330
204
100
AcDbDictionary
280
     1
281
     1
  3
ADSK_XREC_LAYER_RECONCILED
360
1796
  0
DICTIONARY
  5
1797
330
205
100
AcDbDictionary
280
     1
281
     1
  3
ADSK_XREC_LAYER_RECONCILED
360
1798
  0
DICTIONARY
  5
1799
330
206
100
AcDbDictionary
280
     1
281
     1
  3
ADSK_XREC_LAYER_RECONCILED
360
179A
  0
DICTIONARY
  5
179B
330
207
100
AcDbDictionary
280
     1
281
     1
  3
ADSK_XREC_LAYER_RECONCILED
360
179C
  0
DICTIONARY
  5
179D
330
208
100
AcDbDictionary
280
     1
281
     1
  3
ADSK_XREC_LAYER_RECONCILED
360
179E
  0
DICTIONARY
  5
179F
330
209
100
AcDbDictionary
280
     1
281
     1
  3
ADSK_XREC_LAYER_RECONCILED
360
17A0
  0
DICTIONARY
  5
17A1
330
20A
100
AcDbDictionary
280
     1
281
     1
  3
ADSK_XREC_LAYER_RECONCILED
360
17A2
  0
DICTIONARY
  5
17A3
330
20B
100
AcDbDictionary
280
     1
281
     1
  3
ADSK_XREC_LAYER_RECONCILED
360
17A4
  0
DICTIONARY
  5
17A5
330
20C
100
AcDbDictionary
280
     1
281
     1
  3
ADSK_XREC_LAYER_RECONCILED
360
17A6
  0
DICTIONARY
  5
17A7
330
20D
100
AcDbDictionary
280
     1
281
     1
  3
ADSK_XREC_LAYER_RECONCILED
360
17A8
  0
DICTIONARY
  5
17A9
330
20E
100
AcDbDictionary
280
     1
281
     1
  3
ADSK_XREC_LAYER_RECONCILED
360
17AA
  0
DICTIONARY
  5
17AB
330
20F
100
AcDbDictionary
280
     1
281
     1
  3
ADSK_XREC_LAYER_RECONCILED
360
17AC
  0
DICTIONARY
  5
17AD
330
210
100
AcDbDictionary
280
     1
281
     1
  3
ADSK_XREC_LAYER_RECONCILED
360
17AE
  0
DICTIONARY
  5
17AF
330
211
100
AcDbDictionary
280
     1
281
     1
  3
ADSK_XREC_LAYER_RECONCILED
360
17B0
  0
DICTIONARY
  5
170A
102
{ACAD_REACTORS
330
C
102
}
330
C
100
AcDbDictionary
281
     1
  0
DICTIONARY
  5
D
102
{ACAD_REACTORS
330
C
102
}
330
C
100
AcDbDictionary
281
     1
  0
DICTIONARY
  5
1A
102
{ACAD_REACTORS
330
C
102
}
330
C
100
AcDbDictionary
281
     1
  3
Layout1
350
16D9
  3
Model
350
16D8
  0
DICTIONARY
  5
16DD
102
{ACAD_REACTORS
330
C
102
}
330
C
100
AcDbDictionary
281
     1
  3
ByBlock
350
16E6
  3
ByLayer
350
16DE
  3
Global
350
16EE
  0
DICTIONARY
  5
172F
102
{ACAD_REACTORS
330
C
102
}
330
C
100
AcDbDictionary
281
     1
  3
Standard
350
1730
  0
DICTIONARY
  5
17
102
{ACAD_REACTORS
330
C
102
}
330
C
100
AcDbDictionary
281
     1
  3
Standard
350
18
  0
DICTIONARY
  5
19
102
{ACAD_REACTORS
330
C
102
}
330
C
100
AcDbDictionary
281
     1
  0
ACDBDICTIONARYWDFLT
  5
E
102
{ACAD_REACTORS
330
C
102
}
330
C
100
AcDbDictionary
281
     1
  3
Normal
350
F
100
AcDbDictionaryWithDefault
340
F
  0
DICTIONARY
  5
170D
102
{ACAD_REACTORS
330
C
102
}
330
C
100
AcDbDictionary
281
     1
  3
A0
350
170E
  3
A1
350
170F
  3
A2
350
1710
  3
A3
350
1711
  3
A4
350
1712
  3
A5
350
1713
  3
A6
350
1714
  3
A7
350
1715
  3
A8
350
1716
  3
A9
350
1717
  3
B0
350
1718
  3
B1
350
1719
  3
B2
350
171A
  3
B3
350
171B
  3
B4
350
171C
  3
B5
350
171D
  3
B6
350
171E
  3
B7
350
171F
  3
B8
350
1720
  3
B9
350
1721
  3
C0
350
1722
  3
C1
350
1723
  3
C2
350
1724
  3
C3
350
1725
  3
C4
350
1726
  3
C5
350
1727
  3
C6
350
1728
  3
C7
350
1729
  3
C8
350
172A
  3
C9
350
172B
  3
D0
350
172C
  3
D1
350
172D
  3
D2
350
172E
  0
DICTIONARY
  5
170B
102
{ACAD_REACTORS
330
C
102
}
330
C
100
AcDbDictionary
281
     1
  3
Standard
350
170C
  0
DICTIONARY
  5
16F6
102
{ACAD_REACTORS
330
C
102
}
330
C
100
AcDbDictionary
281
     1
  3
2dWireframe
350
16FC
  3
3D Hidden
350
16FE
  3
3dWireframe
350
16FD
  3
Basic
350
16FB
  3
Brighten
350
1702
  3
ColorChange
350
1706
  3
Conceptual
350
16FF
  3
Dim
350
1701
  3
EdgeColorOff
350
1709
  3
Facepattern
350
1705
  3
Flat
350
16F7
  3
FlatWithEdges
350
16F8
  3
Gouraud
350
16F9
  3
GouraudWithEdges
350
16FA
  3
JitterOff
350
1707
  3
Linepattern
350
1704
  3
OverhangOff
350
1708
  3
Realistic
350
1700
  3
Thicken
350
1703
  0
XRECORD
  5
1734
102
{ACAD_REACTORS
330
C
102
}
330
C
100
AcDbXrecord
280
     1
 90
        1
330
170C
  0
DICTIONARY
  5
1766
102
{ACAD_REACTORS
330
C
102
}
330
C
100
AcDbDictionary
281
     1
  3
CANNOSCALE
350
1769
  3
CMLEADERSTYLE
350
1768
  3
CTABLESTYLE
350
1767
  3
DIMASSOC
350
176C
  3
INDEXCTL
350
176B
  3
LAYEREVAL
350
17D3
  3
LAYERNOTIFY
350
17D4
  3
LIGHTINGUNITS
350
17D2
  3
MSLTSCALE
350
17D1
  3
SORTENTS
350
176A
  3
XCLIPFRAME
350
176D
  0
XRECORD
  5
17D7
102
{ACAD_REACTORS
330
C
102
}
330
C
100
AcDbXrecord
280
     1
  1
DWGPROPS COOKIE
  2

  3

  4

  6

  7

  8
crystelled
  9

300
=
301
=
302
=
303
=
304
=
305
=
306
=
307
=
308
=
309
=
 40
0.0054346296296296
 41
2456597.336554491
 42
2456624.540292801
  1

 90
        0
  0
XRECORD
  5
1780
102
{ACAD_REACTORS
330
177F
102
}
330
177F
100
AcDbXrecord
280
     1
290
     1
  0
XRECORD
  5
1782
102
{ACAD_REACTORS
330
1781
102
}
330
1781
100
AcDbXrecord
280
     1
290
     1
  0
XRECORD
  5
1784
102
{ACAD_REACTORS
330
1783
102
}
330
1783
100
AcDbXrecord
280
     1
290
     1
  0
XRECORD
  5
1786
102
{ACAD_REACTORS
330
1785
102
}
330
1785
100
AcDbXrecord
280
     1
290
     1
  0
XRECORD
  5
1788
102
{ACAD_REACTORS
330
1787
102
}
330
1787
100
AcDbXrecord
280
     1
290
     1
  0
XRECORD
  5
178A
102
{ACAD_REACTORS
330
1789
102
}
330
1789
100
AcDbXrecord
280
     1
290
     1
  0
XRECORD
  5
178C
102
{ACAD_REACTORS
330
178B
102
}
330
178B
100
AcDbXrecord
280
     1
290
     1
  0
XRECORD
  5
178E
102
{ACAD_REACTORS
330
178D
102
}
330
178D
100
AcDbXrecord
280
     1
290
     1
  0
XRECORD
  5
1790
102
{ACAD_REACTORS
330
178F
102
}
330
178F
100
AcDbXrecord
280
     1
290
     1
  0
XRECORD
  5
1792
102
{ACAD_REACTORS
330
1791
102
}
330
1791
100
AcDbXrecord
280
     1
290
     1
  0
XRECORD
  5
1794
102
{ACAD_REACTORS
330
1793
102
}
330
1793
100
AcDbXrecord
280
     1
290
     1
  0
XRECORD
  5
1796
102
{ACAD_REACTORS
330
1795
102
}
330
1795
100
AcDbXrecord
280
     1
290
     1
  0
XRECORD
  5
1798
102
{ACAD_REACTORS
330
1797
102
}
330
1797
100
AcDbXrecord
280
     1
290
     1
  0
XRECORD
  5
179A
102
{ACAD_REACTORS
330
1799
102
}
330
1799
100
AcDbXrecord
280
     1
290
     1
  0
XRECORD
  5
179C
102
{ACAD_REACTORS
330
179B
102
}
330
179B
100
AcDbXrecord
280
     1
290
     1
  0
XRECORD
  5
179E
102
{ACAD_REACTORS
330
179D
102
}
330
179D
100
AcDbXrecord
280
     1
290
     1
  0
XRECORD
  5
17A0
102
{ACAD_REACTORS
330
179F
102
}
330
179F
100
AcDbXrecord
280
     1
290
     1
  0
XRECORD
  5
17A2
102
{ACAD_REACTORS
330
17A1
102
}
330
17A1
100
AcDbXrecord
280
     1
290
     1
  0
XRECORD
  5
17A4
102
{ACAD_REACTORS
330
17A3
102
}
330
17A3
100
AcDbXrecord
280
     1
290
     1
  0
XRECORD
  5
17A6
102
{ACAD_REACTORS
330
17A5
102
}
330
17A5
100
AcDbXrecord
280
     1
290
     1
  0
XRECORD
  5
17A8
102
{ACAD_REACTORS
330
17A7
102
}
330
17A7
100
AcDbXrecord
280
     1
290
     1
  0
XRECORD
  5
17AA
102
{ACAD_REACTORS
330
17A9
102
}
330
17A9
100
AcDbXrecord
280
     1
290
     1
  0
XRECORD
  5
17AC
102
{ACAD_REACTORS
330
17AB
102
}
330
17AB
100
AcDbXrecord
280
     1
290
     1
  0
XRECORD
  5
17AE
102
{ACAD_REACTORS
330
17AD
102
}
330
17AD
100
AcDbXrecord
280
     1
290
     1
  0
XRECORD
  5
17B0
102
{ACAD_REACTORS
330
17AF
102
}
330
17AF
100
AcDbXrecord
280
     1
290
     1
  0
LAYOUT
  5
16D9
102
{ACAD_XDICTIONARY
360
17DA
102
}
102
{ACAD_REACTORS
330
1A
102
}
330
1A
100
AcDbPlotSettings
  1

  2
none_device
  4
ANSI_B_(17.00_x_11.00_Inches)
  6

 40
0.0
 41
0.0
 42
0.0
 43
0.0
 44
431.8
 45
279.4
 46
0.0
 47
0.0
 48
0.0
 49
0.0
140
0.0
141
0.0
142
1.0
143
1.0
 70
     0
 72
     0
 73
     0
 74
     0
  7

 75
     0
147
1.0
148
0.0
149
0.0
100
AcDbLayout
  1
Layout1
 70
     1
 71
     1
 10
0.0
 20
0.0
 11
12.0
 21
9.0
 12
0.0
 22
0.0
 32
0.0
 14
1.000000000000000E+20
 24
1.000000000000000E+20
 34
1.000000000000000E+20
 15
-1.000000000000000E+20
 25
-1.000000000000000E+20
 35
-1.000000000000000E+20
146
0.0
 13
0.0
 23
0.0
 33
0.0
 16
1.0
 26
0.0
 36
0.0
 17
0.0
 27
1.0
 37
0.0
 76
     0
330
21B
  0
LAYOUT
  5
16D8
102
{ACAD_XDICTIONARY
360
17D8
102
}
102
{ACAD_REACTORS
330
1A
102
}
330
1A
100
AcDbPlotSettings
  1

  2
none_device
  4
ANSI_B_(17.00_x_11.00_Inches)
  6

 40
0.0
 41
0.0
 42
0.0
 43
0.0
 44
431.8
 45
279.4
 46
0.0
 47
0.0
 48
0.0
 49
0.0
140
0.0
141
0.0
142
1.0
143
1.0
 70
  1024
 72
     0
 73
     0
 74
     0
  7

 75
     0
147
1.0
148
0.0
149
0.0
100
AcDbLayout
  1
Model
 70
     0
 71
     0
 10
0.0
 20
0.0
 11
17.0
 21
11.0
 12
0.0
 22
0.0
 32
0.0
 14
0.0
 24
0.0
 34
0.0
 15
0.0
 25
0.0
 35
0.0
146
0.0
 13
0.0
 23
0.0
 33
0.0
 16
1.0
 26
0.0
 36
0.0
 17
0.0
 27
1.0
 37
0.0
 76
     0
330
21A
331
1F4
  0
MATERIAL
  5
16E6
102
{ACAD_XDICTIONARY
360
16E7
102
}
102
{ACAD_REACTORS
330
16DD
102
}
330
16DD
100
AcDbMaterial
  1
ByBlock
 72
     0
 43
0.0208333333333333
 43
0.0
 43
0.0
 43
0.0
 43
0.0
 43
0.0208333333333333
 43
0.0
 43
0.0
 43
0.0
 43
0.0
 43
1.0
 43
0.0
 43
0.0
 43
0.0
 43
0.0
 43
1.0
 77
     0
 47
0.0208333333333333
 47
0.0
 47
0.0
 47
0.0
 47
0.0
 47
0.0208333333333333
 47
0.0
 47
0.0
 47
0.0
 47
0.0
 47
1.0
 47
0.0
 47
0.0
 47
0.0
 47
0.0
 47
1.0
171
     0
 49
0.0208333333333333
 49
0.0
 49
0.0
 49
0.0
 49
0.0
 49
0.0208333333333333
 49
0.0
 49
0.0
 49
0.0
 49
0.0
 49
1.0
 49
0.0
 49
0.0
 49
0.0
 49
0.0
 49
1.0
175
     0
142
0.0208333333333333
142
0.0
142
0.0
142
0.0
142
0.0
142
0.0208333333333333
142
0.0
142
0.0
142
0.0
142
0.0
142
1.0
142
0.0
142
0.0
142
0.0
142
0.0
142
1.0
179
     0
144
0.0208333333333333
144
0.0
144
0.0
144
0.0
144
0.0
144
0.0208333333333333
144
0.0
144
0.0
144
0.0
144
0.0
144
1.0
144
0.0
144
0.0
144
0.0
144
0.0
144
1.0
147
0.0208333333333333
147
0.0
147
0.0
147
0.0
147
0.0
147
0.0208333333333333
147
0.0
147
0.0
147
0.0
147
0.0
147
1.0
147
0.0
147
0.0
147
0.0
147
0.0
147
1.0
  0
MATERIAL
  5
16DE
102
{ACAD_XDICTIONARY
360
16DF
102
}
102
{ACAD_REACTORS
330
16DD
102
}
330
16DD
100
AcDbMaterial
  1
ByLayer
 72
     0
 43
0.0208333333333333
 43
0.0
 43
0.0
 43
0.0
 43
0.0
 43
0.0208333333333333
 43
0.0
 43
0.0
 43
0.0
 43
0.0
 43
1.0
 43
0.0
 43
0.0
 43
0.0
 43
0.0
 43
1.0
 77
     0
 47
0.0208333333333333
 47
0.0
 47
0.0
 47
0.0
 47
0.0
 47
0.0208333333333333
 47
0.0
 47
0.0
 47
0.0
 47
0.0
 47
1.0
 47
0.0
 47
0.0
 47
0.0
 47
0.0
 47
1.0
171
     0
 49
0.0208333333333333
 49
0.0
 49
0.0
 49
0.0
 49
0.0
 49
0.0208333333333333
 49
0.0
 49
0.0
 49
0.0
 49
0.0
 49
1.0
 49
0.0
 49
0.0
 49
0.0
 49
0.0
 49
1.0
175
     0
142
0.0208333333333333
142
0.0
142
0.0
142
0.0
142
0.0
142
0.0208333333333333
142
0.0
142
0.0
142
0.0
142
0.0
142
1.0
142
0.0
142
0.0
142
0.0
142
0.0
142
1.0
179
     0
144
0.0208333333333333
144
0.0
144
0.0
144
0.0
144
0.0
144
0.0208333333333333
144
0.0
144
0.0
144
0.0
144
0.0
144
1.0
144
0.0
144
0.0
144
0.0
144
0.0
144
1.0
147
0.0208333333333333
147
0.0
147
0.0
147
0.0
147
0.0
147
0.0208333333333333
147
0.0
147
0.0
147
0.0
147
0.0
147
1.0
147
0.0
147
0.0
147
0.0
147
0.0
147
1.0
  0
MATERIAL
  5
16EE
102
{ACAD_XDICTIONARY
360
16EF
102
}
102
{ACAD_REACTORS
330
16DD
102
}
330
16DD
100
AcDbMaterial
  1
Global
 72
     0
 43
0.0208333333333333
 43
0.0
 43
0.0
 43
0.0
 43
0.0
 43
0.0208333333333333
 43
0.0
 43
0.0
 43
0.0
 43
0.0
 43
1.0
 43
0.0
 43
0.0
 43
0.0
 43
0.0
 43
1.0
 77
     0
 47
0.0208333333333333
 47
0.0
 47
0.0
 47
0.0
 47
0.0
 47
0.0208333333333333
 47
0.0
 47
0.0
 47
0.0
 47
0.0
 47
1.0
 47
0.0
 47
0.0
 47
0.0
 47
0.0
 47
1.0
171
     0
 49
0.0208333333333333
 49
0.0
 49
0.0
 49
0.0
 49
0.0
 49
0.0208333333333333
 49
0.0
 49
0.0
 49
0.0
 49
0.0
 49
1.0
 49
0.0
 49
0.0
 49
0.0
 49
0.0
 49
1.0
175
     0
142
0.0208333333333333
142
0.0
142
0.0
142
0.0
142
0.0
142
0.0208333333333333
142
0.0
142
0.0
142
0.0
142
0.0
142
1.0
142
0.0
142
0.0
142
0.0
142
0.0
142
1.0
179
     0
144
0.0208333333333333
144
0.0
144
0.0
144
0.0
144
0.0
144
0.0208333333333333
144
0.0
144
0.0
144
0.0
144
0.0
144
1.0
144
0.0
144
0.0
144
0.0
144
0.0
144
1.0
147
0.0208333333333333
147
0.0
147
0.0
147
0.0
147
0.0
147
0.0208333333333333
147
0.0
147
0.0
147
0.0
147
0.0
147
1.0
147
0.0
147
0.0
147
0.0
147
0.0
147
1.0
  0
MLEADERSTYLE
  5
1730
102
{ACAD_REACTORS
330
172F
102
}
330
172F
100
AcDbMLeaderStyle
170
     2
171
     1
172
     0
 90
        2
 40
0.0
 41
0.0
173
     1
 91
-1056964608
340
14
 92
       -2
290
     1
 42
0.09
291
     1
 43
0.36
  3
Standard
 44
0.18
300

342
11
174
     1
178
     6
175
     1
176
     0
 93
-1056964608
 45
0.18
292
     0
297
     0
 46
0.18
 94
-1056964608
 47
1.0
 49
1.0
140
1.0
293
     1
141
0.0
294
     1
177
     0
142
1.0
295
     0
296
     0
143
0.125
1001
ACAD_MLEADERVER
1070
     2
  0
MLINESTYLE
  5
18
102
{ACAD_REACTORS
330
17
102
}
330
17
100
AcDbMlineStyle
  2
STANDARD
 70
     0
  3

 62
   256
 51
90.0
 52
90.0
 71
     2
 49
0.5
 62
   256
  6
BYLAYER
 49
-0.5
 62
   256
  6
BYLAYER
  0
ACDBPLACEHOLDER
  5
F
102
{ACAD_REACTORS
330
E
102
}
330
E
  0
SCALE
  5
170E
102
{ACAD_REACTORS
330
170D
102
}
330
170D
100
AcDbScale
 70
     0
300
1:1
140
1.0
141
1.0
290
     1
  0
SCALE
  5
170F
102
{ACAD_REACTORS
330
170D
102
}
330
170D
100
AcDbScale
 70
     0
300
1:2
140
1.0
141
2.0
290
     0
  0
SCALE
  5
1710
102
{ACAD_REACTORS
330
170D
102
}
330
170D
100
AcDbScale
 70
     0
300
1:4
140
1.0
141
4.0
290
     0
  0
SCALE
  5
1711
102
{ACAD_REACTORS
330
170D
102
}
330
170D
100
AcDbScale
 70
     0
300
1:5
140
1.0
141
5.0
290
     0
  0
SCALE
  5
1712
102
{ACAD_REACTORS
330
170D
102
}
330
170D
100
AcDbScale
 70
     0
300
1:8
140
1.0
141
8.0
290
     0
  0
SCALE
  5
1713
102
{ACAD_REACTORS
330
170D
102
}
330
170D
100
AcDbScale
 70
     0
300
1:10
140
1.0
141
10.0
290
     0
  0
SCALE
  5
1714
102
{ACAD_REACTORS
330
170D
102
}
330
170D
100
AcDbScale
 70
     0
300
1:16
140
1.0
141
16.0
290
     0
  0
SCALE
  5
1715
102
{ACAD_REACTORS
330
170D
102
}
330
170D
100
AcDbScale
 70
     0
300
1:20
140
1.0
141
20.0
290
     0
  0
SCALE
  5
1716
102
{ACAD_REACTORS
330
170D
102
}
330
170D
100
AcDbScale
 70
     0
300
1:30
140
1.0
141
30.0
290
     0
  0
SCALE
  5
1717
102
{ACAD_REACTORS
330
170D
102
}
330
170D
100
AcDbScale
 70
     0
300
1:40
140
1.0
141
40.0
290
     0
  0
SCALE
  5
1718
102
{ACAD_REACTORS
330
170D
102
}
330
170D
100
AcDbScale
 70
     0
300
1:50
140
1.0
141
50.0
290
     0
  0
SCALE
  5
1719
102
{ACAD_REACTORS
330
170D
102
}
330
170D
100
AcDbScale
 70
     0
300
1:100
140
1.0
141
100.0
290
     0
  0
SCALE
  5
171A
102
{ACAD_REACTORS
330
170D
102
}
330
170D
100
AcDbScale
 70
     0
300
2:1
140
2.0
141
1.0
290
     0
  0
SCALE
  5
171B
102
{ACAD_REACTORS
330
170D
102
}
330
170D
100
AcDbScale
 70
     0
300
4:1
140
4.0
141
1.0
290
     0
  0
SCALE
  5
171C
102
{ACAD_REACTORS
330
170D
102
}
330
170D
100
AcDbScale
 70
     0
300
8:1
140
8.0
141
1.0
290
     0
  0
SCALE
  5
171D
102
{ACAD_REACTORS
330
170D
102
}
330
170D
100
AcDbScale
 70
     0
300
10:1
140
10.0
141
1.0
290
     0
  0
SCALE
  5
171E
102
{ACAD_REACTORS
330
170D
102
}
330
170D
100
AcDbScale
 70
     0
300
100:1
140
100.0
141
1.0
290
     0
  0
SCALE
  5
171F
102
{ACAD_REACTORS
330
170D
102
}
330
170D
100
AcDbScale
 70
     0
300
1/128" = 1'-0"
140
0.0078125
141
12.0
290
     0
  0
SCALE
  5
1720
102
{ACAD_REACTORS
330
170D
102
}
330
170D
100
AcDbScale
 70
     0
300
1/64" = 1'-0"
140
0.015625
141
12.0
290
     0
  0
SCALE
  5
1721
102
{ACAD_REACTORS
330
170D
102
}
330
170D
100
AcDbScale
 70
     0
300
1/32" = 1'-0"
140
0.03125
141
12.0
290
     0
  0
SCALE
  5
1722
102
{ACAD_REACTORS
330
170D
102
}
330
170D
100
AcDbScale
 70
     0
300
1/16" = 1'-0"
140
0.0625
141
12.0
290
     0
  0
SCALE
  5
1723
102
{ACAD_REACTORS
330
170D
102
}
330
170D
100
AcDbScale
 70
     0
300
3/32" = 1'-0"
140
0.09375
141
12.0
290
     0
  0
SCALE
  5
1724
102
{ACAD_REACTORS
330
170D
102
}
330
170D
100
AcDbScale
 70
     0
300
1/8" = 1'-0"
140
0.125
141
12.0
290
     0
  0
SCALE
  5
1725
102
{ACAD_REACTORS
330
170D
102
}
330
170D
100
AcDbScale
 70
     0
300
3/16" = 1'-0"
140
0.1875
141
12.0
290
     0
  0
SCALE
  5
1726
102
{ACAD_REACTORS
330
170D
102
}
330
170D
100
AcDbScale
 70
     0
300
1/4" = 1'-0"
140
0.25
141
12.0
290
     0
  0
SCALE
  5
1727
102
{ACAD_REACTORS
330
170D
102
}
330
170D
100
AcDbScale
 70
     0
300
3/8" = 1'-0"
140
0.375
141
12.0
290
     0
  0
SCALE
  5
1728
102
{ACAD_REACTORS
330
170D
102
}
330
170D
100
AcDbScale
 70
     0
300
1/2" = 1'-0"
140
0.5
141
12.0
290
     0
  0
SCALE
  5
1729
102
{ACAD_REACTORS
330
170D
102
}
330
170D
100
AcDbScale
 70
     0
300
3/4" = 1'-0"
140
0.75
141
12.0
290
     0
  0
SCALE
  5
172A
102
{ACAD_REACTORS
330
170D
102
}
330
170D
100
AcDbScale
 70
     0
300
1" = 1'-0"
140
1.0
141
12.0
290
     0
  0
SCALE
  5
172B
102
{ACAD_REACTORS
330
170D
102
}
330
170D
100
AcDbScale
 70
     0
300
1-1/2" = 1'-0"
140
1.5
141
12.0
290
     0
  0
SCALE
  5
172C
102
{ACAD_REACTORS
330
170D
102
}
330
170D
100
AcDbScale
 70
     0
300
3" = 1'-0"
140
3.0
141
12.0
290
     0
  0
SCALE
  5
172D
102
{ACAD_REACTORS
330
170D
102
}
330
170D
100
AcDbScale
 70
     0
300
6" = 1'-0"
140
6.0
141
12.0
290
     0
  0
SCALE
  5
172E
102
{ACAD_REACTORS
330
170D
102
}
330
170D
100
AcDbScale
 70
     0
300
1'-0" = 1'-0"
140
12.0
141
12.0
290
     0
  0
TABLESTYLE
  5
170C
102
{ACAD_XDICTIONARY
360
1732
102
}
102
{ACAD_REACTORS
330
170B
102
}
330
170B
100
AcDbTableStyle
  3
Standard
 70
     0
 71
     0
 40
0.06
 41
0.06
280
     0
281
     0
  7
STANDARD
140
0.18
170
     2
 62
     0
 63
     7
283
     0
274
    -2
284
     1
 64
     0
275
    -2
285
     1
 65
     0
276
    -2
286
     1
 66
     0
277
    -2
287
     1
 67
     0
278
    -2
288
     1
 68
     0
279
    -2
289
     1
 69
     0
  7
STANDARD
140
0.25
170
     5
 62
     0
 63
     7
283
     0
274
    -2
284
     1
 64
     0
275
    -2
285
     1
 65
     0
276
    -2
286
     1
 66
     0
277
    -2
287
     1
 67
     0
278
    -2
288
     1
 68
     0
279
    -2
289
     1
 69
     0
  7
STANDARD
140
0.18
170
     5
 62
     0
 63
     7
283
     0
274
    -2
284
     1
 64
     0
275
    -2
285
     1
 65
     0
276
    -2
286
     1
 66
     0
277
    -2
287
     1
 67
     0
278
    -2
288
     1
 68
     0
279
    -2
289
     1
 69
     0
  0
VISUALSTYLE
  5
16FC
102
{ACAD_XDICTIONARY
360
1748
102
}
102
{ACAD_REACTORS
330
16F6
102
}
330
16F6
100
AcDbVisualStyle
  2
2dWireframe
 70
     4
 71
     0
 72
     2
 73
     0
 90
        0
 40
-0.6
 41
-30.0
 62
     5
 63
     7
 74
     1
 91
        4
 64
     7
 65
   257
 75
     1
175
     1
 42
1.0
 92
        0
 66
   257
 43
1.0
 76
     1
 77
     6
 78
     2
 67
     7
 79
     5
170
     0
171
     0
290
     0
174
     0
 93
        1
 44
0.0
173
     0
291
     0
 45
0.0
1001
ACAD
1000
AcDbSavedByObjectVersion
1070
     0
  0
VISUALSTYLE
  5
16FE
102
{ACAD_XDICTIONARY
360
174C
102
}
102
{ACAD_REACTORS
330
16F6
102
}
330
16F6
100
AcDbVisualStyle
  2
3D Hidden
 70
     6
 71
     1
 72
     2
 73
     2
 90
        0
 40
-0.6
 41
-30.0
 62
     5
 63
     7
 74
     2
 91
        2
 64
     7
 65
   257
 75
     2
175
     1
 42
179.0
 92
        0
 66
   257
 43
1.0
 76
     1
 77
     6
 78
     2
 67
     7
 79
     3
170
     0
171
     0
290
     0
174
     0
 93
        1
 44
0.0
173
     0
291
     0
 45
0.0
1001
ACAD
1000
AcDbSavedByObjectVersion
1070
     0
  0
VISUALSTYLE
  5
16FD
102
{ACAD_XDICTIONARY
360
174A
102
}
102
{ACAD_REACTORS
330
16F6
102
}
330
16F6
100
AcDbVisualStyle
  2
3dWireframe
 70
     5
 71
     0
 72
     2
 73
     0
 90
        0
 40
-0.6
 41
-30.0
 62
     5
 63
     7
 74
     1
 91
        4
 64
     7
 65
   257
 75
     1
175
     1
 42
1.0
 92
        0
 66
   257
 43
1.0
 76
     1
 77
     6
 78
     2
 67
     7
 79
     5
170
     0
171
     0
290
     0
174
     0
 93
        1
 44
0.0
173
     0
291
     0
 45
0.0
1001
ACAD
1000
AcDbSavedByObjectVersion
1070
     0
  0
VISUALSTYLE
  5
16FB
102
{ACAD_XDICTIONARY
360
1746
102
}
102
{ACAD_REACTORS
330
16F6
102
}
330
16F6
100
AcDbVisualStyle
  2
Basic
 70
     7
 71
     1
 72
     0
 73
     1
 90
        0
 40
-0.6
 41
-30.0
 62
     5
 63
     7
 74
     0
 91
        4
 64
     7
 65
   257
 75
     1
175
     1
 42
1.0
 92
        8
 66
     7
 43
1.0
 76
     1
 77
     6
 78
     2
 67
     7
 79
     5
170
     0
171
     0
290
     0
174
     0
 93
        1
 44
0.0
173
     0
291
     1
 45
0.0
1001
ACAD
1000
AcDbSavedByObjectVersion
1070
     0
  0
VISUALSTYLE
  5
1702
102
{ACAD_XDICTIONARY
360
1754
102
}
102
{ACAD_REACTORS
330
16F6
102
}
330
16F6
100
AcDbVisualStyle
  2
Brighten
 70
    12
 71
     2
 72
     2
 73
     0
 90
        0
 40
-0.6
 41
-30.0
 62
     5
 63
     7
 74
     1
 91
        4
 64
     7
 65
   257
 75
     1
175
     1
 42
1.0
 92
        8
 66
     7
 43
1.0
 76
     1
 77
     6
 78
     2
 67
     7
 79
     5
170
     0
171
     0
290
     0
174
     0
 93
        1
 44
50.0
173
     0
291
     1
 45
0.0
1001
ACAD
1000
AcDbSavedByObjectVersion
1070
     0
  0
VISUALSTYLE
  5
1706
102
{ACAD_XDICTIONARY
360
175C
102
}
102
{ACAD_REACTORS
330
16F6
102
}
330
16F6
100
AcDbVisualStyle
  2
ColorChange
 70
    16
 71
     2
 72
     2
 73
     3
 90
        0
 40
-0.6
 41
-30.0
 62
     5
 63
     8
 74
     1
 91
        4
 64
     7
 65
   257
 75
     1
175
     1
 42
1.0
 92
        8
 66
     8
 43
1.0
 76
     1
 77
     6
 78
     2
 67
     7
 79
     5
170
     0
171
     0
290
     0
174
     0
 93
        1
 44
0.0
173
     0
291
     1
 45
0.0
1001
ACAD
1000
AcDbSavedByObjectVersion
1070
     0
  0
VISUALSTYLE
  5
16FF
102
{ACAD_XDICTIONARY
360
174E
102
}
102
{ACAD_REACTORS
330
16F6
102
}
330
16F6
100
AcDbVisualStyle
  2
Conceptual
 70
     9
 71
     3
 72
     2
 73
     0
 90
        0
 40
-0.6
 41
-30.0
 62
     5
 63
     7
 74
     2
 91
        2
 64
     7
 65
   257
 75
     1
175
     1
 42
179.0
 92
        8
 66
     7
 43
1.0
 76
     1
 77
     6
 78
     2
 67
     7
 79
     3
170
     0
171
     0
290
     0
174
     0
 93
        1
 44
0.0
173
     0
291
     0
 45
0.0
1001
ACAD
1000
AcDbSavedByObjectVersion
1070
     0
  0
VISUALSTYLE
  5
1701
102
{ACAD_XDICTIONARY
360
1752
102
}
102
{ACAD_REACTORS
330
16F6
102
}
330
16F6
100
AcDbVisualStyle
  2
Dim
 70
    11
 71
     2
 72
     2
 73
     0
 90
        0
 40
-0.6
 41
-30.0
 62
     5
 63
     7
 74
     1
 91
        4
 64
     7
 65
   257
 75
     1
175
     1
 42
1.0
 92
        8
 66
     7
 43
1.0
 76
     1
 77
     6
 78
     2
 67
     7
 79
     5
170
     0
171
     0
290
     0
174
     0
 93
        1
 44
-50.0
173
     0
291
     1
 45
0.0
1001
ACAD
1000
AcDbSavedByObjectVersion
1070
     0
  0
VISUALSTYLE
  5
1709
102
{ACAD_XDICTIONARY
360
1762
102
}
102
{ACAD_REACTORS
330
16F6
102
}
330
16F6
100
AcDbVisualStyle
  2
EdgeColorOff
 70
    22
 71
     2
 72
     2
 73
     0
 90
        0
 40
-0.6
 41
-30.0
 62
     5
 63
     7
 74
     1
 91
        4
 64
     7
 65
   257
 75
     1
175
     1
 42
1.0
 92
        8
 66
     7
 43
1.0
 76
     1
 77
     6
 78
     2
 67
     7
 79
     5
170
     0
171
     0
290
     0
174
     0
 93
        1
 44
0.0
173
     0
291
     1
 45
0.0
1001
ACAD
1000
AcDbSavedByObjectVersion
1070
     0
  0
VISUALSTYLE
  5
1705
102
{ACAD_XDICTIONARY
360
175A
102
}
102
{ACAD_REACTORS
330
16F6
102
}
330
16F6
100
AcDbVisualStyle
  2
Facepattern
 70
    15
 71
     2
 72
     2
 73
     0
 90
        0
 40
-0.6
 41
-30.0
 62
     5
 63
     7
 74
     1
 91
        4
 64
     7
 65
   257
 75
     1
175
     1
 42
1.0
 92
        8
 66
     7
 43
1.0
 76
     1
 77
     6
 78
     2
 67
     7
 79
     5
170
     0
171
     0
290
     0
174
     0
 93
        1
 44
0.0
173
     0
291
     1
 45
0.0
1001
ACAD
1000
AcDbSavedByObjectVersion
1070
     0
  0
VISUALSTYLE
  5
16F7
102
{ACAD_XDICTIONARY
360
173E
102
}
102
{ACAD_REACTORS
330
16F6
102
}
330
16F6
100
AcDbVisualStyle
  2
Flat
 70
     0
 71
     2
 72
     1
 73
     1
 90
        2
 40
-0.6
 41
30.0
 62
     5
 63
     7
 74
     0
 91
        4
 64
     7
 65
   257
 75
     1
175
     1
 42
1.0
 92
        8
 66
     7
 43
1.0
 76
     1
 77
     6
 78
     2
 67
     7
 79
     5
170
     0
171
     0
290
     0
174
     0
 93
       13
 44
0.0
173
     0
291
     1
 45
0.0
1001
ACAD
1000
AcDbSavedByObjectVersion
1070
     0
  0
VISUALSTYLE
  5
16F8
102
{ACAD_XDICTIONARY
360
1740
102
}
102
{ACAD_REACTORS
330
16F6
102
}
330
16F6
100
AcDbVisualStyle
  2
FlatWithEdges
 70
     1
 71
     2
 72
     1
 73
     1
 90
        2
 40
-0.6
 41
30.0
 62
     5
 63
     7
 74
     1
 91
        4
 64
     7
 65
   257
 75
     1
175
     1
 42
1.0
 92
        0
 66
   257
 43
1.0
 76
     1
 77
     6
 78
     2
 67
     7
 79
     5
170
     0
171
     0
290
     0
174
     0
 93
       13
 44
0.0
173
     0
291
     1
 45
0.0
1001
ACAD
1000
AcDbSavedByObjectVersion
1070
     0
  0
VISUALSTYLE
  5
16F9
102
{ACAD_XDICTIONARY
360
1742
102
}
102
{ACAD_REACTORS
330
16F6
102
}
330
16F6
100
AcDbVisualStyle
  2
Gouraud
 70
     2
 71
     2
 72
     2
 73
     1
 90
        2
 40
-0.6
 41
30.0
 62
     5
 63
     7
 74
     0
 91
        4
 64
     7
 65
   257
 75
     1
175
     1
 42
1.0
 92
        0
 66
     7
 43
1.0
 76
     1
 77
     6
 78
     2
 67
     7
 79
     5
170
     0
171
     0
290
     0
174
     0
 93
       13
 44
0.0
173
     0
291
     1
 45
0.0
1001
ACAD
1000
AcDbSavedByObjectVersion
1070
     0
  0
VISUALSTYLE
  5
16FA
102
{ACAD_XDICTIONARY
360
1744
102
}
102
{ACAD_REACTORS
330
16F6
102
}
330
16F6
100
AcDbVisualStyle
  2
GouraudWithEdges
 70
     3
 71
     2
 72
     2
 73
     1
 90
        2
 40
-0.6
 41
30.0
 62
     5
 63
     7
 74
     1
 91
        4
 64
     7
 65
   257
 75
     1
175
     1
 42
1.0
 92
        0
 66
   257
 43
1.0
 76
     1
 77
     6
 78
     2
 67
     7
 79
     5
170
     0
171
     0
290
     0
174
     0
 93
       13
 44
0.0
173
     0
291
     1
 45
0.0
1001
ACAD
1000
AcDbSavedByObjectVersion
1070
     0
  0
VISUALSTYLE
  5
1707
102
{ACAD_XDICTIONARY
360
175E
102
}
102
{ACAD_REACTORS
330
16F6
102
}
330
16F6
100
AcDbVisualStyle
  2
JitterOff
 70
    20
 71
     2
 72
     2
 73
     0
 90
        0
 40
-0.6
 41
-30.0
 62
     5
 63
     7
 74
     1
 91
        4
 64
     7
 65
   257
 75
     1
175
     1
 42
1.0
 92
       10
 66
     7
 43
1.0
 76
     1
 77
     6
 78
     2
 67
     7
 79
     5
170
     0
171
     0
290
     0
174
     0
 93
        1
 44
0.0
173
     0
291
     1
 45
0.0
1001
ACAD
1000
AcDbSavedByObjectVersion
1070
     0
  0
VISUALSTYLE
  5
1704
102
{ACAD_XDICTIONARY
360
1758
102
}
102
{ACAD_REACTORS
330
16F6
102
}
330
16F6
100
AcDbVisualStyle
  2
Linepattern
 70
    14
 71
     2
 72
     2
 73
     0
 90
        0
 40
-0.6
 41
-30.0
 62
     5
 63
     7
 74
     1
 91
        4
 64
     7
 65
   257
 75
     7
175
     7
 42
1.0
 92
        8
 66
     7
 43
1.0
 76
     1
 77
     6
 78
     2
 67
     7
 79
     5
170
     0
171
     0
290
     0
174
     0
 93
        1
 44
0.0
173
     0
291
     1
 45
0.0
1001
ACAD
1000
AcDbSavedByObjectVersion
1070
     0
  0
VISUALSTYLE
  5
1708
102
{ACAD_XDICTIONARY
360
1760
102
}
102
{ACAD_REACTORS
330
16F6
102
}
330
16F6
100
AcDbVisualStyle
  2
OverhangOff
 70
    21
 71
     2
 72
     2
 73
     0
 90
        0
 40
-0.6
 41
-30.0
 62
     5
 63
     7
 74
     1
 91
        4
 64
     7
 65
   257
 75
     1
175
     1
 42
1.0
 92
        9
 66
     7
 43
1.0
 76
     1
 77
     6
 78
     2
 67
     7
 79
     5
170
     0
171
     0
290
     0
174
     0
 93
        1
 44
0.0
173
     0
291
     1
 45
0.0
1001
ACAD
1000
AcDbSavedByObjectVersion
1070
     0
  0
VISUALSTYLE
  5
1700
102
{ACAD_XDICTIONARY
360
1750
102
}
102
{ACAD_REACTORS
330
16F6
102
}
330
16F6
100
AcDbVisualStyle
  2
Realistic
 70
     8
 71
     2
 72
     2
 73
     0
 90
        0
 40
-0.6
 41
-30.0
 62
     5
 63
     7
 74
     1
 91
        0
 64
     7
 65
   257
 75
     1
175
     1
 42
1.0
 92
        8
 66
     8
 43
1.0
 76
     1
 77
     6
 78
     2
 67
     7
 79
     5
170
     0
171
     0
290
     0
174
     0
 93
       13
 44
0.0
173
     0
291
     0
 45
0.0
1001
ACAD
1000
AcDbSavedByObjectVersion
1070
     0
  0
VISUALSTYLE
  5
1703
102
{ACAD_XDICTIONARY
360
1756
102
}
102
{ACAD_REACTORS
330
16F6
102
}
330
16F6
100
AcDbVisualStyle
  2
Thicken
 70
    13
 71
     2
 72
     2
 73
     0
 90
        0
 40
-0.6
 41
-30.0
 62
     5
 63
     7
 74
     1
 91
        4
 64
     7
 65
   257
 75
     1
175
     1
 42
1.0
 92
       12
 66
     7
 43
1.0
 76
     1
 77
     6
 78
     2
 67
     7
 79
     5
170
     0
171
     0
290
     0
174
     0
 93
        1
 44
0.0
173
     0
291
     1
 45
0.0
1001
ACAD
1000
AcDbSavedByObjectVersion
1070
     0
  0
DICTIONARYVAR
  5
1769
102
{ACAD_REACTORS
330
1766
102
}
330
1766
100
DictionaryVariables
280
     0
  1
1:1
  0
DICTIONARYVAR
  5
1768
102
{ACAD_REACTORS
330
1766
102
}
330
1766
100
DictionaryVariables
280
     0
  1
STANDARD
  0
DICTIONARYVAR
  5
1767
102
{ACAD_REACTORS
330
1766
102
}
330
1766
100
DictionaryVariables
280
     0
  1
STANDARD
  0
DICTIONARYVAR
  5
176C
102
{ACAD_REACTORS
330
1766
102
}
330
1766
100
DictionaryVariables
280
     0
  1
1
  0
DICTIONARYVAR
  5
176B
102
{ACAD_REACTORS
330
1766
102
}
330
1766
100
DictionaryVariables
280
     0
  1
0
  0
DICTIONARYVAR
  5
17D3
102
{ACAD_REACTORS
330
1766
102
}
330
1766
100
DictionaryVariables
280
     0
  1
1
  0
DICTIONARYVAR
  5
17D4
102
{ACAD_REACTORS
330
1766
102
}
330
1766
100
DictionaryVariables
280
     0
  1
15
  0
DICTIONARYVAR
  5
17D2
102
{ACAD_REACTORS
330
1766
102
}
330
1766
100
DictionaryVariables
280
     0
  1
0
  0
DICTIONARYVAR
  5
17D1
102
{ACAD_REACTORS
330
1766
102
}
330
1766
100
DictionaryVariables
280
     0
  1
0
  0
DICTIONARYVAR
  5
176A
102
{ACAD_REACTORS
330
1766
102
}
330
1766
100
DictionaryVariables
280
     0
  1
127
  0
DICTIONARYVAR
  5
176D
102
{ACAD_REACTORS
330
1766
102
}
330
1766
100
DictionaryVariables
280
     0
  1
0
  0
DICTIONARY
  5
17DA
330
16D9
100
AcDbDictionary
280
     1
281
     1
  3
ACAD_XREC_ROUNDTRIP
360
17DB
  0
DICTIONARY
  5
17D8
330
16D8
100
AcDbDictionary
280
     1
281
     1
  3
ACAD_XREC_ROUNDTRIP
360
17D9
  0
DICTIONARY
  5
16E7
330
16E6
100
AcDbDictionary
280
     1
281
     1
  3
ACAD_XREC_ROUNDTRIP
360
17DD
  3
BUMPTILE
360
16E9
  3
DIFFUSETILE
360
16E8
  3
OPACITYTILE
360
16EC
  3
REFLECTIONTILE
360
16EB
  3
REFRACTIONTILE
360
16ED
  3
SPECULARTILE
360
16EA
  0
DICTIONARY
  5
16DF
330
16DE
100
AcDbDictionary
280
     1
281
     1
  3
ACAD_XREC_ROUNDTRIP
360
17DC
  3
BUMPTILE
360
16E1
  3
DIFFUSETILE
360
16E0
  3
OPACITYTILE
360
16E4
  3
REFLECTIONTILE
360
16E3
  3
REFRACTIONTILE
360
16E5
  3
SPECULARTILE
360
16E2
  0
DICTIONARY
  5
16EF
330
16EE
100
AcDbDictionary
280
     1
281
     1
  3
ACAD_XREC_ROUNDTRIP
360
17DE
  3
BUMPTILE
360
16F1
  3
DIFFUSETILE
360
16F0
  3
OPACITYTILE
360
16F4
  3
REFLECTIONTILE
360
16F3
  3
REFRACTIONTILE
360
16F5
  3
SPECULARTILE
360
16F2
  0
DICTIONARY
  5
1732
330
170C
100
AcDbDictionary
280
     1
281
     1
  3
ACAD_ROUNDTRIP_2008_TABLESTYLE_CELLSTYLEMAP
360
17D6
  3
ACAD_XREC_ROUNDTRIP
360
17DF
  0
DICTIONARY
  5
1748
330
16FC
100
AcDbDictionary
280
     1
281
     1
  3
ACAD_XREC_ROUNDTRIP
360
1749
  0
DICTIONARY
  5
174C
330
16FE
100
AcDbDictionary
280
     1
281
     1
  3
ACAD_XREC_ROUNDTRIP
360
174D
  0
DICTIONARY
  5
174A
330
16FD
100
AcDbDictionary
280
     1
281
     1
  3
ACAD_XREC_ROUNDTRIP
360
174B
  0
DICTIONARY
  5
1746
330
16FB
100
AcDbDictionary
280
     1
281
     1
  3
ACAD_XREC_ROUNDTRIP
360
1747
  0
DICTIONARY
  5
1754
330
1702
100
AcDbDictionary
280
     1
281
     1
  3
ACAD_XREC_ROUNDTRIP
360
1755
  0
DICTIONARY
  5
175C
330
1706
100
AcDbDictionary
280
     1
281
     1
  3
ACAD_XREC_ROUNDTRIP
360
175D
  0
DICTIONARY
  5
174E
330
16FF
100
AcDbDictionary
280
     1
281
     1
  3
ACAD_XREC_ROUNDTRIP
360
174F
  0
DICTIONARY
  5
1752
330
1701
100
AcDbDictionary
280
     1
281
     1
  3
ACAD_XREC_ROUNDTRIP
360
1753
  0
DICTIONARY
  5
1762
330
1709
100
AcDbDictionary
280
     1
281
     1
  3
ACAD_XREC_ROUNDTRIP
360
1763
  0
DICTIONARY
  5
175A
330
1705
100
AcDbDictionary
280
     1
281
     1
  3
ACAD_XREC_ROUNDTRIP
360
175B
  0
DICTIONARY
  5
173E
330
16F7
100
AcDbDictionary
280
     1
281
     1
  3
ACAD_XREC_ROUNDTRIP
360
173F
  0
DICTIONARY
  5
1740
330
16F8
100
AcDbDictionary
280
     1
281
     1
  3
ACAD_XREC_ROUNDTRIP
360
1741
  0
DICTIONARY
  5
1742
330
16F9
100
AcDbDictionary
280
     1
281
     1
  3
ACAD_XREC_ROUNDTRIP
360
1743
  0
DICTIONARY
  5
1744
330
16FA
100
AcDbDictionary
280
     1
281
     1
  3
ACAD_XREC_ROUNDTRIP
360
1745
  0
DICTIONARY
  5
175E
330
1707
100
AcDbDictionary
280
     1
281
     1
  3
ACAD_XREC_ROUNDTRIP
360
175F
  0
DICTIONARY
  5
1758
330
1704
100
AcDbDictionary
280
     1
281
     1
  3
ACAD_XREC_ROUNDTRIP
360
1759
  0
DICTIONARY
  5
1760
330
1708
100
AcDbDictionary
280
     1
281
     1
  3
ACAD_XREC_ROUNDTRIP
360
1761
  0
DICTIONARY
  5
1750
330
1700
100
AcDbDictionary
280
     1
281
     1
  3
ACAD_XREC_ROUNDTRIP
360
1751
  0
DICTIONARY
  5
1756
330
1703
100
AcDbDictionary
280
     1
281
     1
  3
ACAD_XREC_ROUNDTRIP
360
1757
  0
XRECORD
  5
17DB
102
{ACAD_REACTORS
330
17DA
102
}
330
17DA
100
AcDbXrecord
280
     1
102
SHADEPLOT
 70
     0
102
SHADEPLOTRESLEVEL
 70
     2
102
SHADEPLOTCUSTOMDPI
 70
   300
  0
XRECORD
  5
17D9
102
{ACAD_REACTORS
330
17D8
102
}
330
17D8
100
AcDbXrecord
280
     1
102
SHADEPLOT
 70
     0
102
SHADEPLOTRESLEVEL
 70
     2
102
SHADEPLOTCUSTOMDPI
 70
   300
  0
XRECORD
  5
17DD
102
{ACAD_REACTORS
330
16E7
102
}
330
16E7
100
AcDbXrecord
280
     1
102
MATERIAL
148
0.0
149
0.0
149
0.0
 93
        0
 94
      127
282
     0
 72
     0
 77
     0
171
     0
175
     0
179
     0
273
     0
  0
XRECORD
  5
16E9
102
{ACAD_REACTORS
330
16E7
102
}
330
16E7
100
AcDbXrecord
280
     1
270
     1
271
     1
  0
XRECORD
  5
16E8
102
{ACAD_REACTORS
330
16E7
102
}
330
16E7
100
AcDbXrecord
280
     1
270
     1
271
     1
  0
XRECORD
  5
16EC
102
{ACAD_REACTORS
330
16E7
102
}
330
16E7
100
AcDbXrecord
280
     1
270
     1
271
     1
  0
XRECORD
  5
16EB
102
{ACAD_REACTORS
330
16E7
102
}
330
16E7
100
AcDbXrecord
280
     1
270
     1
271
     1
  0
XRECORD
  5
16ED
102
{ACAD_REACTORS
330
16E7
102
}
330
16E7
100
AcDbXrecord
280
     1
270
     1
271
     1
  0
XRECORD
  5
16EA
102
{ACAD_REACTORS
330
16E7
102
}
330
16E7
100
AcDbXrecord
280
     1
270
     1
271
     1
  0
XRECORD
  5
17DC
102
{ACAD_REACTORS
330
16DF
102
}
330
16DF
100
AcDbXrecord
280
     1
102
MATERIAL
148
0.0
149
0.0
149
0.0
 93
        0
 94
      127
282
     0
 72
     0
 77
     0
171
     0
175
     0
179
     0
273
     0
  0
XRECORD
  5
16E1
102
{ACAD_REACTORS
330
16DF
102
}
330
16DF
100
AcDbXrecord
280
     1
270
     1
271
     1
  0
XRECORD
  5
16E0
102
{ACAD_REACTORS
330
16DF
102
}
330
16DF
100
AcDbXrecord
280
     1
270
     1
271
     1
  0
XRECORD
  5
16E4
102
{ACAD_REACTORS
330
16DF
102
}
330
16DF
100
AcDbXrecord
280
     1
270
     1
271
     1
  0
XRECORD
  5
16E3
102
{ACAD_REACTORS
330
16DF
102
}
330
16DF
100
AcDbXrecord
280
     1
270
     1
271
     1
  0
XRECORD
  5
16E5
102
{ACAD_REACTORS
330
16DF
102
}
330
16DF
100
AcDbXrecord
280
     1
270
     1
271
     1
  0
XRECORD
  5
16E2
102
{ACAD_REACTORS
330
16DF
102
}
330
16DF
100
AcDbXrecord
280
     1
270
     1
271
     1
  0
XRECORD
  5
17DE
102
{ACAD_REACTORS
330
16EF
102
}
330
16EF
100
AcDbXrecord
280
     1
102
MATERIAL
148
0.0
149
0.0
149
0.0
 93
        0
 94
      127
282
     0
 72
     0
 77
     0
171
     0
175
     0
179
     0
273
     0
  0
XRECORD
  5
16F1
102
{ACAD_REACTORS
330
16EF
102
}
330
16EF
100
AcDbXrecord
280
     1
270
     1
271
     1
  0
XRECORD
  5
16F0
102
{ACAD_REACTORS
330
16EF
102
}
330
16EF
100
AcDbXrecord
280
     1
270
     1
271
     1
  0
XRECORD
  5
16F4
102
{ACAD_REACTORS
330
16EF
102
}
330
16EF
100
AcDbXrecord
280
     1
270
     1
271
     1
  0
XRECORD
  5
16F3
102
{ACAD_REACTORS
330
16EF
102
}
330
16EF
100
AcDbXrecord
280
     1
270
     1
271
     1
  0
XRECORD
  5
16F5
102
{ACAD_REACTORS
330
16EF
102
}
330
16EF
100
AcDbXrecord
280
     1
270
     1
271
     1
  0
XRECORD
  5
16F2
102
{ACAD_REACTORS
330
16EF
102
}
330
16EF
100
AcDbXrecord
280
     1
270
     1
271
     1
  0
CELLSTYLEMAP
  5
17D6
102
{ACAD_REACTORS
330
1732
102
}
330
1732
100
AcDbCellStyleMap
 90
        3
300
CELLSTYLE
  1
TABLEFORMAT_BEGIN
 90
        5
170
     1
 91
        0
 92
    32768
 62
   257
 93
        1
300
CONTENTFORMAT
  1
CONTENTFORMAT_BEGIN
 90
        0
 91
        0
 92
      512
 93
        0
300

 40
0.0
140
1.0
 94
        5
 62
     0
340
11
144
0.25
309
CONTENTFORMAT_END
171
     0
 94
        0
309
TABLEFORMAT_END
  1
CELLSTYLE_BEGIN
 90
        1
 91
        1
300
_TITLE
309
CELLSTYLE_END
300
CELLSTYLE
  1
TABLEFORMAT_BEGIN
 90
        5
170
     1
 91
        0
 92
        0
 62
   257
 93
        1
300
CONTENTFORMAT
  1
CONTENTFORMAT_BEGIN
 90
        0
 91
        0
 92
      512
 93
        0
300

 40
0.0
140
1.0
 94
        5
 62
     0
340
11
144
0.18
309
CONTENTFORMAT_END
171
     0
 94
        0
309
TABLEFORMAT_END
  1
CELLSTYLE_BEGIN
 90
        2
 91
        1
300
_HEADER
309
CELLSTYLE_END
300
CELLSTYLE
  1
TABLEFORMAT_BEGIN
 90
        5
170
     1
 91
        0
 92
        0
 62
   257
 93
        1
300
CONTENTFORMAT
  1
CONTENTFORMAT_BEGIN
 90
        0
 91
        0
 92
      512
 93
        0
300

 40
0.0
140
1.0
 94
        2
 62
     0
340
11
144
0.18
309
CONTENTFORMAT_END
171
     0
 94
        0
309
TABLEFORMAT_END
  1
CELLSTYLE_BEGIN
 90
        3
 91
        2
300
_DATA
309
CELLSTYLE_END
  0
XRECORD
  5
17DF
102
{ACAD_REACTORS
330
1732
102
}
330
1732
100
AcDbXrecord
280
     1
102
ACAD_ROUNDTRIP_PRE2007_TABLESTYLE
 90
      512
 91
        0
  1

 92
      512
 93
        0
  2

 94
      512
 95
        0
  3

  0
XRECORD
  5
1749
102
{ACAD_REACTORS
330
1748
102
}
330
1748
100
AcDbXrecord
280
     1
102
RTVSPropertyOp0
 70
     1
102
RTVSPropertyOp1
 70
     1
102
RTVSPropertyOp2
 70
     1
102
RTVSPropertyOp3
 70
     1
102
RTVSPropertyOp4
 70
     1
102
RTVSPropertyOp5
 70
     1
102
RTVSPropertyOp6
 70
     1
102
RTVSPropertyOp7
 70
     1
102
RTVSPropertyOp8
 70
     1
102
RTVSPropertyOp9
 70
     1
102
RTVSPropertyOp10
 70
     1
102
RTVSPropertyOp11
 70
     1
102
RTVSPropertyOp12
 70
     1
102
RTVSPropertyOp13
 70
     1
102
RTVSPropertyOp14
 70
     1
102
RTVSPropertyOp15
 70
     1
102
RTVSPropertyOp16
 70
     1
102
RTVSPropertyOp17
 70
     1
102
RTVSPropertyOp18
 70
     1
102
RTVSPropertyOp19
 70
     1
102
RTVSPropertyOp20
 70
     1
102
RTVSPropertyOp21
 70
     1
102
RTVSPropertyOp22
 70
     1
102
RTVSPropertyOp23
 70
     1
102
RTVSPropertyOp24
 70
     1
102
RTVSPropertyOp25
 70
     1
102
RTVSPropertyOp26
 70
     1
102
RTVSPropertyOp27
 70
     1
  0
XRECORD
  5
174D
102
{ACAD_REACTORS
330
174C
102
}
330
174C
100
AcDbXrecord
280
     1
102
RTVSPropertyOp0
 70
     1
102
RTVSPropertyOp1
 70
     1
102
RTVSPropertyOp2
 70
     1
102
RTVSPropertyOp3
 70
     1
102
RTVSPropertyOp4
 70
     1
102
RTVSPropertyOp5
 70
     1
102
RTVSPropertyOp6
 70
     1
102
RTVSPropertyOp7
 70
     1
102
RTVSPropertyOp8
 70
     1
102
RTVSPropertyOp9
 70
     1
102
RTVSPropertyOp10
 70
     1
102
RTVSPropertyOp11
 70
     1
102
RTVSPropertyOp12
 70
     1
102
RTVSPropertyOp13
 70
     1
102
RTVSPropertyOp14
 70
     1
102
RTVSPropertyOp15
 70
     1
102
RTVSPropertyOp16
 70
     1
102
RTVSPropertyOp17
 70
     1
102
RTVSPropertyOp18
 70
     1
102
RTVSPropertyOp19
 70
     1
102
RTVSPropertyOp20
 70
     1
102
RTVSPropertyOp21
 70
     1
102
RTVSPropertyOp22
 70
     1
102
RTVSPropertyOp23
 70
     1
102
RTVSPropertyOp24
 70
     1
102
RTVSPropertyOp25
 70
     1
102
RTVSPropertyOp26
 70
     1
102
RTVSPropertyOp27
 70
     1
  0
XRECORD
  5
174B
102
{ACAD_REACTORS
330
174A
102
}
330
174A
100
AcDbXrecord
280
     1
102
RTVSPropertyOp0
 70
     1
102
RTVSPropertyOp1
 70
     1
102
RTVSPropertyOp2
 70
     1
102
RTVSPropertyOp3
 70
     1
102
RTVSPropertyOp4
 70
     1
102
RTVSPropertyOp5
 70
     1
102
RTVSPropertyOp6
 70
     1
102
RTVSPropertyOp7
 70
     1
102
RTVSPropertyOp8
 70
     1
102
RTVSPropertyOp9
 70
     1
102
RTVSPropertyOp10
 70
     1
102
RTVSPropertyOp11
 70
     1
102
RTVSPropertyOp12
 70
     1
102
RTVSPropertyOp13
 70
     1
102
RTVSPropertyOp14
 70
     1
102
RTVSPropertyOp15
 70
     1
102
RTVSPropertyOp16
 70
     1
102
RTVSPropertyOp17
 70
     1
102
RTVSPropertyOp18
 70
     1
102
RTVSPropertyOp19
 70
     1
102
RTVSPropertyOp20
 70
     1
102
RTVSPropertyOp21
 70
     1
102
RTVSPropertyOp22
 70
     1
102
RTVSPropertyOp23
 70
     1
102
RTVSPropertyOp24
 70
     1
102
RTVSPropertyOp25
 70
     1
102
RTVSPropertyOp26
 70
     1
102
RTVSPropertyOp27
 70
     1
  0
XRECORD
  5
1747
102
{ACAD_REACTORS
330
1746
102
}
330
1746
100
AcDbXrecord
280
     1
102
RTVSPropertyOp0
 70
     1
102
RTVSPropertyOp1
 70
     1
102
RTVSPropertyOp2
 70
     1
102
RTVSPropertyOp3
 70
     1
102
RTVSPropertyOp4
 70
     1
102
RTVSPropertyOp5
 70
     1
102
RTVSPropertyOp6
 70
     1
102
RTVSPropertyOp7
 70
     1
102
RTVSPropertyOp8
 70
     1
102
RTVSPropertyOp9
 70
     1
102
RTVSPropertyOp10
 70
     1
102
RTVSPropertyOp11
 70
     1
102
RTVSPropertyOp12
 70
     1
102
RTVSPropertyOp13
 70
     1
102
RTVSPropertyOp14
 70
     1
102
RTVSPropertyOp15
 70
     1
102
RTVSPropertyOp16
 70
     1
102
RTVSPropertyOp17
 70
     1
102
RTVSPropertyOp18
 70
     1
102
RTVSPropertyOp19
 70
     1
102
RTVSPropertyOp20
 70
     1
102
RTVSPropertyOp21
 70
     1
102
RTVSPropertyOp22
 70
     1
102
RTVSPropertyOp23
 70
     1
102
RTVSPropertyOp24
 70
     1
102
RTVSPropertyOp25
 70
     1
102
RTVSPropertyOp26
 70
     1
102
RTVSPropertyOp27
 70
     1
  0
XRECORD
  5
1755
102
{ACAD_REACTORS
330
1754
102
}
330
1754
100
AcDbXrecord
280
     1
102
RTVSPropertyOp0
 70
     1
102
RTVSPropertyOp1
 70
     1
102
RTVSPropertyOp2
 70
     1
102
RTVSPropertyOp3
 70
     1
102
RTVSPropertyOp4
 70
     1
102
RTVSPropertyOp5
 70
     1
102
RTVSPropertyOp6
 70
     1
102
RTVSPropertyOp7
 70
     1
102
RTVSPropertyOp8
 70
     1
102
RTVSPropertyOp9
 70
     1
102
RTVSPropertyOp10
 70
     1
102
RTVSPropertyOp11
 70
     1
102
RTVSPropertyOp12
 70
     1
102
RTVSPropertyOp13
 70
     1
102
RTVSPropertyOp14
 70
     1
102
RTVSPropertyOp15
 70
     1
102
RTVSPropertyOp16
 70
     1
102
RTVSPropertyOp17
 70
     1
102
RTVSPropertyOp18
 70
     1
102
RTVSPropertyOp19
 70
     1
102
RTVSPropertyOp20
 70
     1
102
RTVSPropertyOp21
 70
     1
102
RTVSPropertyOp22
 70
     1
102
RTVSPropertyOp23
 70
     1
102
RTVSPropertyOp24
 70
     1
102
RTVSPropertyOp25
 70
     1
102
RTVSPropertyOp26
 70
     1
102
RTVSPropertyOp27
 70
     1
  0
XRECORD
  5
175D
102
{ACAD_REACTORS
330
175C
102
}
330
175C
100
AcDbXrecord
280
     1
102
RTVSPropertyOp0
 70
     1
102
RTVSPropertyOp1
 70
     1
102
RTVSPropertyOp2
 70
     1
102
RTVSPropertyOp3
 70
     1
102
RTVSPropertyOp4
 70
     1
102
RTVSPropertyOp5
 70
     1
102
RTVSPropertyOp6
 70
     1
102
RTVSPropertyOp7
 70
     1
102
RTVSPropertyOp8
 70
     1
102
RTVSPropertyOp9
 70
     1
102
RTVSPropertyOp10
 70
     1
102
RTVSPropertyOp11
 70
     1
102
RTVSPropertyOp12
 70
     1
102
RTVSPropertyOp13
 70
     1
102
RTVSPropertyOp14
 70
     1
102
RTVSPropertyOp15
 70
     1
102
RTVSPropertyOp16
 70
     1
102
RTVSPropertyOp17
 70
     1
102
RTVSPropertyOp18
 70
     1
102
RTVSPropertyOp19
 70
     1
102
RTVSPropertyOp20
 70
     1
102
RTVSPropertyOp21
 70
     1
102
RTVSPropertyOp22
 70
     1
102
RTVSPropertyOp23
 70
     1
102
RTVSPropertyOp24
 70
     1
102
RTVSPropertyOp25
 70
     1
102
RTVSPropertyOp26
 70
     1
102
RTVSPropertyOp27
 70
     1
  0
XRECORD
  5
174F
102
{ACAD_REACTORS
330
174E
102
}
330
174E
100
AcDbXrecord
280
     1
102
RTVSPropertyOp0
 70
     1
102
RTVSPropertyOp1
 70
     1
102
RTVSPropertyOp2
 70
     1
102
RTVSPropertyOp3
 70
     1
102
RTVSPropertyOp4
 70
     1
102
RTVSPropertyOp5
 70
     1
102
RTVSPropertyOp6
 70
     1
102
RTVSPropertyOp7
 70
     1
102
RTVSPropertyOp8
 70
     1
102
RTVSPropertyOp9
 70
     1
102
RTVSPropertyOp10
 70
     1
102
RTVSPropertyOp11
 70
     1
102
RTVSPropertyOp12
 70
     1
102
RTVSPropertyOp13
 70
     1
102
RTVSPropertyOp14
 70
     1
102
RTVSPropertyOp15
 70
     1
102
RTVSPropertyOp16
 70
     1
102
RTVSPropertyOp17
 70
     1
102
RTVSPropertyOp18
 70
     1
102
RTVSPropertyOp19
 70
     1
102
RTVSPropertyOp20
 70
     1
102
RTVSPropertyOp21
 70
     1
102
RTVSPropertyOp22
 70
     1
102
RTVSPropertyOp23
 70
     1
102
RTVSPropertyOp24
 70
     1
102
RTVSPropertyOp25
 70
     1
102
RTVSPropertyOp26
 70
     1
102
RTVSPropertyOp27
 70
     1
  0
XRECORD
  5
1753
102
{ACAD_REACTORS
330
1752
102
}
330
1752
100
AcDbXrecord
280
     1
102
RTVSPropertyOp0
 70
     1
102
RTVSPropertyOp1
 70
     1
102
RTVSPropertyOp2
 70
     1
102
RTVSPropertyOp3
 70
     1
102
RTVSPropertyOp4
 70
     1
102
RTVSPropertyOp5
 70
     1
102
RTVSPropertyOp6
 70
     1
102
RTVSPropertyOp7
 70
     1
102
RTVSPropertyOp8
 70
     1
102
RTVSPropertyOp9
 70
     1
102
RTVSPropertyOp10
 70
     1
102
RTVSPropertyOp11
 70
     1
102
RTVSPropertyOp12
 70
     1
102
RTVSPropertyOp13
 70
     1
102
RTVSPropertyOp14
 70
     1
102
RTVSPropertyOp15
 70
     1
102
RTVSPropertyOp16
 70
     1
102
RTVSPropertyOp17
 70
     1
102
RTVSPropertyOp18
 70
     1
102
RTVSPropertyOp19
 70
     1
102
RTVSPropertyOp20
 70
     1
102
RTVSPropertyOp21
 70
     1
102
RTVSPropertyOp22
 70
     1
102
RTVSPropertyOp23
 70
     1
102
RTVSPropertyOp24
 70
     1
102
RTVSPropertyOp25
 70
     1
102
RTVSPropertyOp26
 70
     1
102
RTVSPropertyOp27
 70
     1
  0
XRECORD
  5
1763
102
{ACAD_REACTORS
330
1762
102
}
330
1762
100
AcDbXrecord
280
     1
102
RTVSPropertyOp0
 70
     0
102
RTVSPropertyOp1
 70
     0
102
RTVSPropertyOp2
 70
     0
102
RTVSPropertyOp3
 70
     0
102
RTVSPropertyOp4
 70
     0
102
RTVSPropertyOp5
 70
     0
102
RTVSPropertyOp6
 70
     0
102
RTVSPropertyOp7
 70
     0
102
RTVSPropertyOp8
 70
     0
102
RTVSPropertyOp9
 70
     0
102
RTVSPropertyOp10
 70
     0
102
RTVSPropertyOp11
 70
     0
102
RTVSPropertyOp12
 70
     0
102
RTVSPropertyOp13
 70
     0
102
RTVSPropertyOp14
 70
     2
102
RTVSPropertyOp15
 70
     0
102
RTVSPropertyOp16
 70
     0
102
RTVSPropertyOp17
 70
     0
102
RTVSPropertyOp18
 70
     0
102
RTVSPropertyOp19
 70
     0
102
RTVSPropertyOp20
 70
     0
102
RTVSPropertyOp21
 70
     0
102
RTVSPropertyOp22
 70
     0
102
RTVSPropertyOp23
 70
     0
102
RTVSPropertyOp24
 70
     0
102
RTVSPropertyOp25
 70
     0
102
RTVSPropertyOp26
 70
     0
102
RTVSPropertyOp27
 70
     0
  0
XRECORD
  5
175B
102
{ACAD_REACTORS
330
175A
102
}
330
175A
100
AcDbXrecord
280
     1
102
RTVSPropertyOp0
 70
     1
102
RTVSPropertyOp1
 70
     1
102
RTVSPropertyOp2
 70
     1
102
RTVSPropertyOp3
 70
     1
102
RTVSPropertyOp4
 70
     1
102
RTVSPropertyOp5
 70
     1
102
RTVSPropertyOp6
 70
     1
102
RTVSPropertyOp7
 70
     1
102
RTVSPropertyOp8
 70
     1
102
RTVSPropertyOp9
 70
     1
102
RTVSPropertyOp10
 70
     1
102
RTVSPropertyOp11
 70
     1
102
RTVSPropertyOp12
 70
     1
102
RTVSPropertyOp13
 70
     1
102
RTVSPropertyOp14
 70
     1
102
RTVSPropertyOp15
 70
     1
102
RTVSPropertyOp16
 70
     1
102
RTVSPropertyOp17
 70
     1
102
RTVSPropertyOp18
 70
     1
102
RTVSPropertyOp19
 70
     1
102
RTVSPropertyOp20
 70
     1
102
RTVSPropertyOp21
 70
     1
102
RTVSPropertyOp22
 70
     1
102
RTVSPropertyOp23
 70
     1
102
RTVSPropertyOp24
 70
     1
102
RTVSPropertyOp25
 70
     1
102
RTVSPropertyOp26
 70
     1
102
RTVSPropertyOp27
 70
     1
  0
XRECORD
  5
173F
102
{ACAD_REACTORS
330
173E
102
}
330
173E
100
AcDbXrecord
280
     1
102
RTVSPropertyOp0
 70
     1
102
RTVSPropertyOp1
 70
     1
102
RTVSPropertyOp2
 70
     1
102
RTVSPropertyOp3
 70
     1
102
RTVSPropertyOp4
 70
     1
102
RTVSPropertyOp5
 70
     1
102
RTVSPropertyOp6
 70
     1
102
RTVSPropertyOp7
 70
     1
102
RTVSPropertyOp8
 70
     1
102
RTVSPropertyOp9
 70
     1
102
RTVSPropertyOp10
 70
     1
102
RTVSPropertyOp11
 70
     1
102
RTVSPropertyOp12
 70
     1
102
RTVSPropertyOp13
 70
     1
102
RTVSPropertyOp14
 70
     1
102
RTVSPropertyOp15
 70
     1
102
RTVSPropertyOp16
 70
     1
102
RTVSPropertyOp17
 70
     1
102
RTVSPropertyOp18
 70
     1
102
RTVSPropertyOp19
 70
     1
102
RTVSPropertyOp20
 70
     1
102
RTVSPropertyOp21
 70
     1
102
RTVSPropertyOp22
 70
     1
102
RTVSPropertyOp23
 70
     1
102
RTVSPropertyOp24
 70
     1
102
RTVSPropertyOp25
 70
     1
102
RTVSPropertyOp26
 70
     1
102
RTVSPropertyOp27
 70
     1
  0
XRECORD
  5
1741
102
{ACAD_REACTORS
330
1740
102
}
330
1740
100
AcDbXrecord
280
     1
102
RTVSPropertyOp0
 70
     1
102
RTVSPropertyOp1
 70
     1
102
RTVSPropertyOp2
 70
     1
102
RTVSPropertyOp3
 70
     1
102
RTVSPropertyOp4
 70
     1
102
RTVSPropertyOp5
 70
     1
102
RTVSPropertyOp6
 70
     1
102
RTVSPropertyOp7
 70
     1
102
RTVSPropertyOp8
 70
     1
102
RTVSPropertyOp9
 70
     1
102
RTVSPropertyOp10
 70
     1
102
RTVSPropertyOp11
 70
     1
102
RTVSPropertyOp12
 70
     1
102
RTVSPropertyOp13
 70
     1
102
RTVSPropertyOp14
 70
     1
102
RTVSPropertyOp15
 70
     1
102
RTVSPropertyOp16
 70
     1
102
RTVSPropertyOp17
 70
     1
102
RTVSPropertyOp18
 70
     1
102
RTVSPropertyOp19
 70
     1
102
RTVSPropertyOp20
 70
     1
102
RTVSPropertyOp21
 70
     1
102
RTVSPropertyOp22
 70
     1
102
RTVSPropertyOp23
 70
     1
102
RTVSPropertyOp24
 70
     1
102
RTVSPropertyOp25
 70
     1
102
RTVSPropertyOp26
 70
     1
102
RTVSPropertyOp27
 70
     1
  0
XRECORD
  5
1743
102
{ACAD_REACTORS
330
1742
102
}
330
1742
100
AcDbXrecord
280
     1
102
RTVSPropertyOp0
 70
     1
102
RTVSPropertyOp1
 70
     1
102
RTVSPropertyOp2
 70
     1
102
RTVSPropertyOp3
 70
     1
102
RTVSPropertyOp4
 70
     1
102
RTVSPropertyOp5
 70
     1
102
RTVSPropertyOp6
 70
     1
102
RTVSPropertyOp7
 70
     1
102
RTVSPropertyOp8
 70
     1
102
RTVSPropertyOp9
 70
     1
102
RTVSPropertyOp10
 70
     1
102
RTVSPropertyOp11
 70
     1
102
RTVSPropertyOp12
 70
     1
102
RTVSPropertyOp13
 70
     1
102
RTVSPropertyOp14
 70
     1
102
RTVSPropertyOp15
 70
     1
102
RTVSPropertyOp16
 70
     1
102
RTVSPropertyOp17
 70
     1
102
RTVSPropertyOp18
 70
     1
102
RTVSPropertyOp19
 70
     1
102
RTVSPropertyOp20
 70
     1
102
RTVSPropertyOp21
 70
     1
102
RTVSPropertyOp22
 70
     1
102
RTVSPropertyOp23
 70
     1
102
RTVSPropertyOp24
 70
     1
102
RTVSPropertyOp25
 70
     1
102
RTVSPropertyOp26
 70
     1
102
RTVSPropertyOp27
 70
     1
  0
XRECORD
  5
1745
102
{ACAD_REACTORS
330
1744
102
}
330
1744
100
AcDbXrecord
280
     1
102
RTVSPropertyOp0
 70
     1
102
RTVSPropertyOp1
 70
     1
102
RTVSPropertyOp2
 70
     1
102
RTVSPropertyOp3
 70
     1
102
RTVSPropertyOp4
 70
     1
102
RTVSPropertyOp5
 70
     1
102
RTVSPropertyOp6
 70
     1
102
RTVSPropertyOp7
 70
     1
102
RTVSPropertyOp8
 70
     1
102
RTVSPropertyOp9
 70
     1
102
RTVSPropertyOp10
 70
     1
102
RTVSPropertyOp11
 70
     1
102
RTVSPropertyOp12
 70
     1
102
RTVSPropertyOp13
 70
     1
102
RTVSPropertyOp14
 70
     1
102
RTVSPropertyOp15
 70
     1
102
RTVSPropertyOp16
 70
     1
102
RTVSPropertyOp17
 70
     1
102
RTVSPropertyOp18
 70
     1
102
RTVSPropertyOp19
 70
     1
102
RTVSPropertyOp20
 70
     1
102
RTVSPropertyOp21
 70
     1
102
RTVSPropertyOp22
 70
     1
102
RTVSPropertyOp23
 70
     1
102
RTVSPropertyOp24
 70
     1
102
RTVSPropertyOp25
 70
     1
102
RTVSPropertyOp26
 70
     1
102
RTVSPropertyOp27
 70
     1
  0
XRECORD
  5
175F
102
{ACAD_REACTORS
330
175E
102
}
330
175E
100
AcDbXrecord
280
     1
102
RTVSPropertyOp0
 70
     0
102
RTVSPropertyOp1
 70
     0
102
RTVSPropertyOp2
 70
     0
102
RTVSPropertyOp3
 70
     0
102
RTVSPropertyOp4
 70
     0
102
RTVSPropertyOp5
 70
     0
102
RTVSPropertyOp6
 70
     0
102
RTVSPropertyOp7
 70
     0
102
RTVSPropertyOp8
 70
     0
102
RTVSPropertyOp9
 70
     0
102
RTVSPropertyOp10
 70
     0
102
RTVSPropertyOp11
 70
     0
102
RTVSPropertyOp12
 70
     0
102
RTVSPropertyOp13
 70
     0
102
RTVSPropertyOp14
 70
     2
102
RTVSPropertyOp15
 70
     0
102
RTVSPropertyOp16
 70
     0
102
RTVSPropertyOp17
 70
     0
102
RTVSPropertyOp18
 70
     0
102
RTVSPropertyOp19
 70
     0
102
RTVSPropertyOp20
 70
     0
102
RTVSPropertyOp21
 70
     0
102
RTVSPropertyOp22
 70
     0
102
RTVSPropertyOp23
 70
     0
102
RTVSPropertyOp24
 70
     0
102
RTVSPropertyOp25
 70
     0
102
RTVSPropertyOp26
 70
     0
102
RTVSPropertyOp27
 70
     0
  0
XRECORD
  5
1759
102
{ACAD_REACTORS
330
1758
102
}
330
1758
100
AcDbXrecord
280
     1
102
RTVSPropertyOp0
 70
     1
102
RTVSPropertyOp1
 70
     1
102
RTVSPropertyOp2
 70
     1
102
RTVSPropertyOp3
 70
     1
102
RTVSPropertyOp4
 70
     1
102
RTVSPropertyOp5
 70
     1
102
RTVSPropertyOp6
 70
     1
102
RTVSPropertyOp7
 70
     1
102
RTVSPropertyOp8
 70
     1
102
RTVSPropertyOp9
 70
     1
102
RTVSPropertyOp10
 70
     1
102
RTVSPropertyOp11
 70
     1
102
RTVSPropertyOp12
 70
     1
102
RTVSPropertyOp13
 70
     1
102
RTVSPropertyOp14
 70
     1
102
RTVSPropertyOp15
 70
     1
102
RTVSPropertyOp16
 70
     1
102
RTVSPropertyOp17
 70
     1
102
RTVSPropertyOp18
 70
     1
102
RTVSPropertyOp19
 70
     1
102
RTVSPropertyOp20
 70
     1
102
RTVSPropertyOp21
 70
     1
102
RTVSPropertyOp22
 70
     1
102
RTVSPropertyOp23
 70
     1
102
RTVSPropertyOp24
 70
     1
102
RTVSPropertyOp25
 70
     1
102
RTVSPropertyOp26
 70
     1
102
RTVSPropertyOp27
 70
     1
  0
XRECORD
  5
1761
102
{ACAD_REACTORS
330
1760
102
}
330
1760
100
AcDbXrecord
280
     1
102
RTVSPropertyOp0
 70
     0
102
RTVSPropertyOp1
 70
     0
102
RTVSPropertyOp2
 70
     0
102
RTVSPropertyOp3
 70
     0
102
RTVSPropertyOp4
 70
     0
102
RTVSPropertyOp5
 70
     0
102
RTVSPropertyOp6
 70
     0
102
RTVSPropertyOp7
 70
     0
102
RTVSPropertyOp8
 70
     0
102
RTVSPropertyOp9
 70
     0
102
RTVSPropertyOp10
 70
     0
102
RTVSPropertyOp11
 70
     0
102
RTVSPropertyOp12
 70
     0
102
RTVSPropertyOp13
 70
     0
102
RTVSPropertyOp14
 70
     2
102
RTVSPropertyOp15
 70
     0
102
RTVSPropertyOp16
 70
     0
102
RTVSPropertyOp17
 70
     0
102
RTVSPropertyOp18
 70
     0
102
RTVSPropertyOp19
 70
     0
102
RTVSPropertyOp20
 70
     0
102
RTVSPropertyOp21
 70
     0
102
RTVSPropertyOp22
 70
     0
102
RTVSPropertyOp23
 70
     0
102
RTVSPropertyOp24
 70
     0
102
RTVSPropertyOp25
 70
     0
102
RTVSPropertyOp26
 70
     0
102
RTVSPropertyOp27
 70
     0
  0
XRECORD
  5
1751
102
{ACAD_REACTORS
330
1750
102
}
330
1750
100
AcDbXrecord
280
     1
102
RTVSPropertyOp0
 70
     1
102
RTVSPropertyOp1
 70
     1
102
RTVSPropertyOp2
 70
     1
102
RTVSPropertyOp3
 70
     1
102
RTVSPropertyOp4
 70
     1
102
RTVSPropertyOp5
 70
     1
102
RTVSPropertyOp6
 70
     1
102
RTVSPropertyOp7
 70
     1
102
RTVSPropertyOp8
 70
     1
102
RTVSPropertyOp9
 70
     1
102
RTVSPropertyOp10
 70
     1
102
RTVSPropertyOp11
 70
     1
102
RTVSPropertyOp12
 70
     1
102
RTVSPropertyOp13
 70
     1
102
RTVSPropertyOp14
 70
     1
102
RTVSPropertyOp15
 70
     1
102
RTVSPropertyOp16
 70
     1
102
RTVSPropertyOp17
 70
     1
102
RTVSPropertyOp18
 70
     1
102
RTVSPropertyOp19
 70
     1
102
RTVSPropertyOp20
 70
     1
102
RTVSPropertyOp21
 70
     1
102
RTVSPropertyOp22
 70
     1
102
RTVSPropertyOp23
 70
     1
102
RTVSPropertyOp24
 70
     1
102
RTVSPropertyOp25
 70
     1
102
RTVSPropertyOp26
 70
     1
102
RTVSPropertyOp27
 70
     1
  0
XRECORD
  5
1757
102
{ACAD_REACTORS
330
1756
102
}
330
1756
100
AcDbXrecord
280
     1
102
RTVSPropertyOp0
 70
     1
102
RTVSPropertyOp1
 70
     1
102
RTVSPropertyOp2
 70
     1
102
RTVSPropertyOp3
 70
     1
102
RTVSPropertyOp4
 70
     1
102
RTVSPropertyOp5
 70
     1
102
RTVSPropertyOp6
 70
     1
102
RTVSPropertyOp7
 70
     1
102
RTVSPropertyOp8
 70
     1
102
RTVSPropertyOp9
 70
     1
102
RTVSPropertyOp10
 70
     1
102
RTVSPropertyOp11
 70
     1
102
RTVSPropertyOp12
 70
     1
102
RTVSPropertyOp13
 70
     1
102
RTVSPropertyOp14
 70
     1
102
RTVSPropertyOp15
 70
     1
102
RTVSPropertyOp16
 70
     1
102
RTVSPropertyOp17
 70
     1
102
RTVSPropertyOp18
 70
     1
102
RTVSPropertyOp19
 70
     1
102
RTVSPropertyOp20
 70
     1
102
RTVSPropertyOp21
 70
     1
102
RTVSPropertyOp22
 70
     1
102
RTVSPropertyOp23
 70
     1
102
RTVSPropertyOp24
 70
     1
102
RTVSPropertyOp25
 70
     1
102
RTVSPropertyOp26
 70
     1
102
RTVSPropertyOp27
 70
     1
  0
ENDSEC
  0
EOF
