  0
SECTION
  2
HEADER
  9
$ACADVER
  1
AC1014
  9
$ACADMAINTVER
 70
     9
  9
$DWGCODEPAGE
  3
ANSI_1252
  9
$INSBASE
 10
95.03009718149298
 20
-328.3484364971337
 30
0.0
  9
$EXTMIN
 10
43.47634247418162
 20
-344.9219131720749
 30
-3.684797069400056
  9
$EXTMAX
 10
103.5881754356577
 20
-311.7769910748446
 30
0.5895248833789495
  9
$LIMMIN
 10
0.0
 20
0.0
  9
$LIMMAX
 10
12.0
 20
9.0
  9
$ORTHOMODE
 70
     1
  9
$REGENMODE
 70
     1
  9
$FILLMODE
 70
     1
  9
$QTEXTMODE
 70
     0
  9
$MIRRTEXT
 70
     1
  9
$DRAGMODE
 70
     2
  9
$LTSCALE
 40
2.0
  9
$OSMODE
 70
    55
  9
$ATTMODE
 70
     1
  9
$TEXTSIZE
 40
1.0
  9
$TRACEWID
 40
0.05
  9
$TEXTSTYLE
  7
TEMPLATE
  9
$CLAYER
  8
0
  9
$CELTYPE
  6
BYLAYER
  9
$CECOLOR
 62
   256
  9
$CELTSCALE
 40
1.0
  9
$DELOBJ
 70
     1
  9
$DISPSILH
 70
     0
  9
$DIMSCALE
 40
16.0
  9
$DIMASZ
 40
0.1
  9
$DIMEXO
 40
0.0625
  9
$DIMDLI
 40
0.25
  9
$DIMRND
 40
0.0
  9
$DIMDLE
 40
0.0
  9
$DIMEXE
 40
0.1
  9
$DIMTP
 40
0.00001
  9
$DIMTM
 40
0.00001
  9
$DIMTXT
 40
0.1
  9
$DIMCEN
 40
0.09
  9
$DIMTSZ
 40
0.0
  9
$DIMTOL
 70
     0
  9
$DIMLIM
 70
     0
  9
$DIMTIH
 70
     1
  9
$DIMTOH
 70
     1
  9
$DIMSE1
 70
     0
  9
$DIMSE2
 70
     0
  9
$DIMTAD
 70
     0
  9
$DIMZIN
 70
     4
  9
$DIMBLK
  1

  9
$DIMASO
 70
     1
  9
$DIMSHO
 70
     1
  9
$DIMPOST
  1
\X
  9
$DIMAPOST
  1
cm
  9
$DIMALT
 70
     1
  9
$DIMALTD
 70
     1
  9
$DIMALTF
 40
2.54
  9
$DIMLFAC
 40
1.0
  9
$DIMTOFL
 70
     1
  9
$DIMTVP
 40
0.0
  9
$DIMTIX
 70
     0
  9
$DIMSOXD
 70
     0
  9
$DIMSAH
 70
     0
  9
$DIMBLK1
  1

  9
$DIMBLK2
  1

  9
$DIMSTYLE
  2
STANDARD
  9
$DIMCLRD
 70
     0
  9
$DIMCLRE
 70
     0
  9
$DIMCLRT
 70
     0
  9
$DIMTFAC
 40
1.0
  9
$DIMGAP
 40
0.08
  9
$DIMJUST
 70
     0
  9
$DIMSD1
 70
     0
  9
$DIMSD2
 70
     0
  9
$DIMTOLJ
 70
     1
  9
$DIMTZIN
 70
     0
  9
$DIMALTZ
 70
     0
  9
$DIMALTTZ
 70
     0
  9
$DIMFIT
 70
     3
  9
$DIMUPT
 70
     1
  9
$DIMUNIT
 70
     5
  9
$DIMDEC
 70
     4
  9
$DIMTDEC
 70
     4
  9
$DIMALTU
 70
     2
  9
$DIMALTTD
 70
     1
  9
$DIMTXSTY
  7
ROMANS
  9
$DIMAUNIT
 70
     0
  9
$LUNITS
 70
     2
  9
$LUPREC
 70
     4
  9
$SKETCHINC
 40
0.1
  9
$FILLETRAD
 40
0.0
  9
$AUNITS
 70
     0
  9
$AUPREC
 70
     0
  9
$MENU
  1
.
  9
$ELEVATION
 40
0.0
  9
$PELEVATION
 40
0.0
  9
$THICKNESS
 40
0.0
  9
$LIMCHECK
 70
     0
  9
$BLIPMODE
 70
     0
  9
$CHAMFERA
 40
0.5
  9
$CHAMFERB
 40
0.5
  9
$CHAMFERC
 40
1.0
  9
$CHAMFERD
 40
0.0
  9
$SKPOLY
 70
     0
  9
$TDCREATE
 40
2451681.662295729
  9
$TDUPDATE
 40
2453686.650846528
  9
$TDINDWG
 40
4.4869643519
  9
$TDUSRTIMER
 40
4.4869642361
  9
$USRTIMER
 70
     1
  9
$ANGBASE
 50
0.0
  9
$ANGDIR
 70
     0
  9
$PDMODE
 70
     0
  9
$PDSIZE
 40
0.0
  9
$PLINEWID
 40
0.0
  9
$COORDS
 70
     1
  9
$SPLFRAME
 70
     0
  9
$SPLINETYPE
 70
     6
  9
$SPLINESEGS
 70
     8
  9
$ATTDIA
 70
     0
  9
$ATTREQ
 70
     1
  9
$HANDLING
 70
 22529
  9
$HANDSEED
  5
16D
  9
$SURFTAB1
 70
     6
  9
$SURFTAB2
 70
     6
  9
$SURFTYPE
 70
     6
  9
$SURFU
 70
     6
  9
$SURFV
 70
     6
  9
$UCSNAME
  2

  9
$UCSORG
 10
0.0
 20
0.0
 30
0.0
  9
$UCSXDIR
 10
1.0
 20
0.0
 30
0.0
  9
$UCSYDIR
 10
0.0
 20
1.0
 30
0.0
  9
$PUCSNAME
  2

  9
$PUCSORG
 10
0.0
 20
0.0
 30
0.0
  9
$PUCSXDIR
 10
1.0
 20
0.0
 30
0.0
  9
$PUCSYDIR
 10
0.0
 20
1.0
 30
0.0
  9
$USERI1
 70
     0
  9
$USERI2
 70
     0
  9
$USERI3
 70
     0
  9
$USERI4
 70
     0
  9
$USERI5
 70
     0
  9
$USERR1
 40
0.0
  9
$USERR2
 40
0.0
  9
$USERR3
 40
0.0
  9
$USERR4
 40
0.0
  9
$USERR5
 40
0.0
  9
$WORLDVIEW
 70
     1
  9
$SHADEDGE
 70
     3
  9
$SHADEDIF
 70
    70
  9
$TILEMODE
 70
     1
  9
$MAXACTVP
 70
    48
  9
$PINSBASE
 10
0.0
 20
0.0
 30
0.0
  9
$PLIMCHECK
 70
     0
  9
$PEXTMIN
 10
1.000000000000000E+20
 20
1.000000000000000E+20
 30
1.000000000000000E+20
  9
$PEXTMAX
 10
-1.000000000000000E+20
 20
-1.000000000000000E+20
 30
-1.000000000000000E+20
  9
$PLIMMIN
 10
-0.5312499849815068
 20
-0.1645829921632301
  9
$PLIMMAX
 10
11.15874981316994
 20
8.10208345022727
  9
$UNITMODE
 70
     0
  9
$VISRETAIN
 70
     1
  9
$PLINEGEN
 70
     0
  9
$PSLTSCALE
 70
     1
  9
$TREEDEPTH
 70
  3020
  9
$PICKSTYLE
 70
     1
  9
$CMLSTYLE
  2
STANDARD
  9
$CMLJUST
 70
     0
  9
$CMLSCALE
 40
1.0
  9
$PROXYGRAPHICS
 70
     1
  9
$MEASUREMENT
 70
     0
  0
ENDSEC
  0
SECTION
  2
CLASSES
  0
CLASS
  1
ACDBDICTIONARYWDFLT
  2
AcDbDictionaryWithDefault
  3
AutoCAD 2000
 90
        0
280
     0
281
     0
  0
CLASS
  1
ACDBPLACEHOLDER
  2
AcDbPlaceHolder
  3
AutoCAD 2000
 90
        0
280
     0
281
     0
  0
CLASS
  1
LAYOUT
  2
AcDbLayout
  3
AutoCAD 2000
 90
        0
280
     0
281
     0
  0
CLASS
  1
DICTIONARYVAR
  2
AcDbDictionaryVar
  3
AutoCAD 2000
 90
        0
280
     0
281
     0
  0
CLASS
  1
RASTERVARIABLES
  2
AcDbRasterVariables
  3
ISM
 90
        0
280
     0
281
     0
  0
CLASS
  1
IMAGEDEF
  2
AcDbRasterImageDef
  3
ISM
 90
        0
280
     0
281
     0
  0
CLASS
  1
IMAGEDEF_REACTOR
  2
AcDbRasterImageDefReactor
  3
ISM
 90
        1
280
     0
281
     0
  0
CLASS
  1
IMAGE
  2
AcDbRasterImage
  3
ISM
 90
      127
280
     0
281
     1
  0
CLASS
  1
LONG_TRANSACTION
  2
AcDbLongTransaction
  3
AutoCAD 2000
 90
        0
280
     0
281
     0
  0
CLASS
  1
LWPOLYLINE
  2
AcDbPolyline
  3
AutoCAD 2000
 90
        0
280
     0
281
     1
  0
CLASS
  1
HATCH
  2
AcDbHatch
  3
AutoCAD 2000
 90
        0
280
     0
281
     1
  0
CLASS
  1
XRECORD
  2
AcDbXrecord
  3
AutoCAD 2000
 90
        0
280
     0
281
     0
  0
CLASS
  1
LONG_TRANSACTION
  2
AcDbLongTransaction
  3
AutoCAD 2000
 90
        0
280
     0
281
     0
  0
CLASS
  1
LWPOLYLINE
  2
AcDbPolyline
  3
AutoCAD 2000
 90
        0
280
     0
281
     1
  0
CLASS
  1
HATCH
  2
AcDbHatch
  3
AutoCAD 2000
 90
        0
280
     0
281
     1
  0
CLASS
  1
XRECORD
  2
AcDbXrecord
  3
AutoCAD 2000
 90
        0
280
     0
281
     0
  0
ENDSEC
  0
SECTION
  2
TABLES
  0
TABLE
  2
VPORT
  5
1D
330
0
100
AcDbSymbolTable
 70
     2
  0
VPORT
  5
149
330
1D
100
AcDbSymbolTableRecord
100
AcDbViewportTableRecord
  2
*ACTIVE
 70
     0
 10
0.0
 20
0.0
 11
1.0
 21
1.0
 12
73.53225887565468
 22
-328.3494522179815
 13
0.0
 23
0.0
 14
0.5
 24
0.5
 15
0.5
 25
0.5
 16
0.0
 26
0.0
 36
1.0
 17
0.0
 27
0.0
 37
0.0
 40
42.31882954127377
 41
1.786792452830188
 42
50.0
 43
0.0
 44
0.0
 50
0.0
 51
0.0
 71
     0
 72
 20000
 73
     1
 74
     1
 75
     0
 76
     0
 77
     0
 78
     0
  0
ENDTAB
  0
TABLE
  2
LTYPE
  5
18
330
0
100
AcDbSymbolTable
 70
     2
  0
LTYPE
  5
19
330
18
100
AcDbSymbolTableRecord
100
AcDbLinetypeTableRecord
  2
BYBLOCK
 70
     0
  3

 72
    65
 73
     0
 40
0.0
  0
LTYPE
  5
1A
330
18
100
AcDbSymbolTableRecord
100
AcDbLinetypeTableRecord
  2
BYLAYER
 70
     0
  3

 72
    65
 73
     0
 40
0.0
  0
LTYPE
  5
8
330
18
100
AcDbSymbolTableRecord
100
AcDbLinetypeTableRecord
  2
CONTINUOUS
 70
     0
  3
Solid line
 72
    65
 73
     0
 40
0.0
  0
LTYPE
  5
72
330
18
100
AcDbSymbolTableRecord
100
AcDbLinetypeTableRecord
  2
CENTER
 70
     0
  3
Center ____ _ ____ _ ____ _ ____ _ ____ _ ____
 72
    65
 73
     4
 40
2.0
 49
1.25
 74
     0
 49
-0.25
 74
     0
 49
0.25
 74
     0
 49
-0.25
 74
     0
  0
ENDTAB
  0
TABLE
  2
LAYER
  5
10
102
{ACAD_XDICTIONARY
360
11
102
}
330
0
100
AcDbSymbolTable
 70
     3
  0
LAYER
  5
4
330
10
100
AcDbSymbolTableRecord
100
AcDbLayerTableRecord
  2
0
 70
     0
 62
     7
  6
CONTINUOUS
  0
LAYER
  5
71
330
10
100
AcDbSymbolTableRecord
100
AcDbLayerTableRecord
  2
CENTER
 70
     0
 62
     1
  6
CENTER
  0
LAYER
  5
136
330
10
100
AcDbSymbolTableRecord
100
AcDbLayerTableRecord
  2
DEFPOINTS
 70
     0
 62
     7
  6
CONTINUOUS
  0
ENDTAB
  0
TABLE
  2
STYLE
  5
15
330
0
100
AcDbSymbolTable
 70
     3
  0
STYLE
  5
16
330
15
100
AcDbSymbolTableRecord
100
AcDbTextStyleTableRecord
  2
STANDARD
 70
     0
 40
0.0
 41
1.0
 50
0.0
 71
     0
 42
1.0
  3
txt
  4

  0
STYLE
  5
23
330
15
100
AcDbSymbolTableRecord
100
AcDbTextStyleTableRecord
  2
ROMANS
 70
     0
 40
0.0
 41
1.0
 50
0.0
 71
     0
 42
0.375
  3

  4

1001
ACAD
1000
Times New Roman
1071
 33554450
  0
STYLE
  5
30
330
15
100
AcDbSymbolTableRecord
100
AcDbTextStyleTableRecord
  2
TEMPLATE
 70
     0
 40
0.0
 41
1.0
 50
0.0
 71
     0
 42
1.0
  3

  4

1001
ACAD
1000
Times New Roman
1071
 33554450
  0
ENDTAB
  0
TABLE
  2
VIEW
  5
1B
330
0
100
AcDbSymbolTable
 70
     0
  0
ENDTAB
  0
TABLE
  2
UCS
  5
1C
330
0
100
AcDbSymbolTable
 70
     0
  0
ENDTAB
  0
TABLE
  2
APPID
  5
1F
330
0
100
AcDbSymbolTable
 70
     3
  0
APPID
  5
20
330
1F
100
AcDbSymbolTableRecord
100
AcDbRegAppTableRecord
  2
ACAD
 70
     0
  0
APPID
  5
98
330
1F
100
AcDbSymbolTableRecord
100
AcDbRegAppTableRecord
  2
DCO15
 70
     0
  0
ENDTAB
  0
TABLE
  2
DIMSTYLE
  5
21
330
0
100
AcDbSymbolTable
 70
     1
  0
DIMSTYLE
105
22
330
21
100
AcDbSymbolTableRecord
100
AcDbDimStyleTableRecord
  2
STANDARD
 70
     0
  3
\X
  4
cm
  5

  6

  7

 40
16.0
 41
0.1
 42
0.0625
 43
0.25
 44
0.1
 45
0.0
 46
0.0
 47
0.00001
 48
0.00001
140
0.1
141
0.09
142
0.0
143
2.54
144
1.0
145
0.0
146
1.0
147
0.08
 71
     0
 72
     0
 73
     1
 74
     1
 75
     0
 76
     0
 77
     0
 78
     4
170
     1
171
     1
172
     1
173
     0
174
     0
175
     0
176
     0
177
     0
178
     0
270
     5
271
     4
272
     4
273
     2
274
     1
340
23
275
     0
280
     0
281
     0
282
     0
283
     1
284
     0
285
     0
286
     0
287
     3
288
     1
  0
ENDTAB
  0
TABLE
  2
BLOCK_RECORD
  5
1
330
0
100
AcDbSymbolTable
 70
     1
  0
BLOCK_RECORD
  5
2
102
{ACAD_XDICTIONARY
360
E3
102
}
330
1
100
AcDbSymbolTableRecord
100
AcDbBlockTableRecord
  2
*MODEL_SPACE
  0
BLOCK_RECORD
  5
C
102
{ACAD_XDICTIONARY
360
E5
102
}
330
1
100
AcDbSymbolTableRecord
100
AcDbBlockTableRecord
  2
*PAPER_SPACE
  0
ENDTAB
  0
ENDSEC
  0
SECTION
  2
BLOCKS
  0
BLOCK
  5
3
330
2
100
AcDbEntity
  8
0
100
AcDbBlockBegin
  2
*MODEL_SPACE
 70
     0
 10
0.0
 20
0.0
 30
0.0
  3
*MODEL_SPACE
  1

  0
ENDBLK
  5
9
330
2
100
AcDbEntity
  8
0
100
AcDbBlockEnd
  0
BLOCK
  5
D
330
C
100
AcDbEntity
 67
     1
  8
0
100
AcDbBlockBegin
  2
*PAPER_SPACE
 70
     0
 10
0.0
 20
0.0
 30
0.0
  3
*PAPER_SPACE
  1

  0
ENDBLK
  5
E
330
C
100
AcDbEntity
 67
     1
  8
0
100
AcDbBlockEnd
  0
ENDSEC
  0
SECTION
  2
ENTITIES
  0
LINE
  5
32
330
2
100
AcDbEntity
  8
0
100
AcDbLine
 10
78.38150582860645
 20
-338.9436719807046
 30
-0.9730960518215603
 11
75.59176578466701
 21
-338.7196885349347
 31
-3.598508731030315
210
-0.0351422340853443
220
-0.9982375140795566
230
-0.047821426868698
  0
LINE
  5
33
330
2
100
AcDbEntity
  8
0
100
AcDbLine
 10
78.38150582860645
 20
-338.9436719807046
 30
-0.9730960518215603
 11
75.59176578466701
 21
-338.7196885349347
 31
-3.598508731030315
  0
LINE
  5
34
330
2
100
AcDbEntity
  8
0
100
AcDbLine
 10
79.2722140416328
 20
-338.0017925978366
 30
-0.3775640565637879
 11
75.8509316812261
 21
-337.7271037021094
 31
-3.597318566550659
  0
LINE
  5
35
330
2
100
AcDbEntity
  8
0
100
AcDbLine
 10
79.2722140416328
 20
-318.9431813655574
 30
-0.3775640565637879
 11
75.8509316812261
 21
-319.2178702612845
 31
-3.597318566550659
  0
LINE
  5
36
330
2
100
AcDbEntity
  8
0
100
AcDbLine
 10
78.38150582860645
 20
-318.0013019826894
 30
-0.9730960518215603
 11
75.59176578466701
 21
-318.2252854284593
 31
-3.598508731030315
  0
LINE
  5
37
330
2
100
AcDbEntity
  8
0
100
AcDbLine
 10
78.38150582860645
 20
-318.0013019826894
 30
-0.9730960518215603
 11
75.59176578466701
 21
-318.2252854284593
 31
-3.598508731030315
210
-0.0351422340853443
220
0.9982375140795566
230
-0.047821426868698
  0
CIRCLE
  5
38
330
2
100
AcDbEntity
  8
0
 48
10.0
100
AcDbCircle
 10
307.2152390294234
 20
-157.7619195174338
 30
-30.04289264823406
 40
0.234375
210
-0.2021831344938943
220
0.0539629315971673
230
-0.9778598990344494
  0
CIRCLE
  5
39
330
2
100
AcDbEntity
  8
0
 48
10.0
100
AcDbCircle
 10
327.5108631907487
 20
7.89653483414407
 30
5.407784044855377
 40
0.234375
210
-0.2021831344938943
220
-0.0539629315971673
230
-0.9778598990344494
  0
CIRCLE
  5
3A
330
2
100
AcDbEntity
  8
0
 48
10.0
100
AcDbCircle
 10
307.2152390294236
 20
-157.7619195174339
 30
-30.04289264823404
 40
0.125
210
-0.202183134493894
220
0.0539629315971672
230
-0.9778598990344493
  0
CIRCLE
  5
3B
330
2
100
AcDbEntity
  8
0
 48
10.0
100
AcDbCircle
 10
327.5108631907487
 20
7.896534834144098
 30
5.407784044855391
 40
0.125
210
-0.202183134493894
220
-0.0539629315971672
230
-0.9778598990344493
  0
ELLIPSE
  5
3C
330
2
100
AcDbEntity
  8
0
100
AcDbEllipse
 10
75.60933690170969
 20
-338.220569777895
 30
-3.574598017595964
 11
-0.5973964332633371
 21
0.0150738166781312
 31
0.1243500330374837
210
-0.2021831344938943
220
0.0539629315971673
230
-0.9778598990344494
 40
0.8191520442889917
 41
-1.570796326794889
 42
1.570796326794891
  0
ELLIPSE
  5
3D
330
2
100
AcDbEntity
  8
0
100
AcDbEllipse
 10
75.60933690170969
 20
-338.220569777895
 30
-3.574598017595964
 11
-0.5973964332633371
 21
0.0150738166781312
 31
0.1243500330374837
210
-0.2021831344938943
220
0.0539629315971673
230
-0.9778598990344494
 40
0.8191520442889917
 41
-1.570796326794889
 42
1.570796326794891
  0
LINE
  5
3E
330
2
100
AcDbEntity
  8
0
100
AcDbLine
 10
75.62690801875236
 20
-337.7214510208551
 30
-3.55068730416161
 11
75.8509316812261
 21
-337.7271037021094
 31
-3.597318566550659
210
-0.2021831344938943
220
0.0539629315971673
230
-0.9778598990344494
  0
ELLIPSE
  5
3F
330
2
100
AcDbEntity
  8
0
100
AcDbEllipse
 10
75.60933690170969
 20
-318.7244041854991
 30
-3.574598017595964
 11
-0.5973964332633371
 21
-0.0150738166781312
 31
0.1243500330374837
210
0.2021831344938943
220
0.0539629315971673
230
0.9778598990344494
 40
0.8191520442889917
 41
-1.570796326794889
 42
1.570796326794891
  0
ELLIPSE
  5
40
330
2
100
AcDbEntity
  8
0
100
AcDbEllipse
 10
75.60933690170969
 20
-318.7244041854991
 30
-3.574598017595964
 11
-0.5973964332633371
 21
-0.0150738166781312
 31
0.1243500330374837
210
0.2021831344938943
220
0.0539629315971673
230
0.9778598990344494
 40
0.8191520442889917
 41
-1.570796326794889
 42
1.570796326794891
  0
LINE
  5
41
330
2
100
AcDbEntity
  8
0
100
AcDbLine
 10
75.62690801875236
 20
-319.2235229425389
 30
-3.55068730416161
 11
75.8509316812261
 21
-319.2178702612845
 31
-3.597318566550659
210
-0.2021831344938942
220
-0.0539629315971673
230
-0.9778598990344494
  0
ARC
  5
42
330
2
100
AcDbEntity
  8
0
100
AcDbCircle
 10
-341.1252469983338
 20
52.44217780503978
 30
50.32401636365926
 40
1.5
210
0.6857505652170143
220
0.0107225003817092
230
-0.7277576452982889
100
AcDbArc
 50
3.998328294098074
 51
92.66434939927059
  0
ARC
  5
43
330
2
100
AcDbEntity
  8
0
100
AcDbCircle
 10
341.1252469983338
 20
52.44217780503978
 30
-50.32401636365926
 40
1.5
210
-0.6857505652170143
220
-0.0107225003817092
230
0.7277576452982889
100
AcDbArc
 50
87.33565060072614
 51
176.0016717059019
  0
SPLINE
  5
44
330
2
100
AcDbEntity
  8
0
 48
0.1
100
AcDbSpline
 70
     0
 71
     3
 72
     9
 73
     5
 74
     0
 42
0.0000000001
 43
0.0000000001
 40
0.0
 40
0.0
 40
0.0
 40
0.0
 40
1.294423937454767
 40
1.85530505262929
 40
1.85530505262929
 40
1.85530505262929
 40
1.85530505262929
 10
78.38150582860648
 20
-338.9436719807046
 30
-0.9730960518215496
 10
78.65779970591733
 20
-339.007355918301
 30
-1.29832892137311
 10
78.92645791510642
 20
-339.3405920281209
 30
0.1508778543074585
 10
78.94143476138821
 20
-339.9660972585896
 30
0.1130136598998455
 10
78.93965579051602
 20
-340.1624610053268
 30
0.0645974891961108
  0
ARC
  5
45
330
2
100
AcDbEntity
  8
0
100
AcDbCircle
 10
340.1974082812453
 20
53.50947125815925
 30
-51.01151636365928
 40
1.0
210
-0.6857505652170143
220
-0.0107225003817092
230
0.7277576452982889
100
AcDbArc
 50
86.00167170590024
 51
176.0016717059016
  0
ARC
  5
46
330
2
100
AcDbEntity
  8
0
100
AcDbCircle
 10
340.1974082812453
 20
53.50947125815925
 30
-51.01151636365928
 40
1.0
210
-0.6857505652170143
220
-0.0107225003817092
230
0.7277576452982889
100
AcDbArc
 50
86.00167170590024
 51
176.0016717059016
  0
SPLINE
  5
47
330
2
100
AcDbEntity
  8
0
 48
0.1
100
AcDbSpline
 70
     0
 71
     3
 72
    10
 73
     6
 74
     4
 42
0.0000000001
 43
0.0000000001
 44
0.0000000001
 12
0.7269877479628095
 22
-0.0583686000331602
 32
0.6841651268824886
 13
-0.0357858517340465
 23
-0.9968673218601807
 33
0.0705330803451816
 40
0.0
 40
0.0
 40
0.0
 40
0.0
 40
0.7457801560228825
 40
1.284407931689893
 40
1.580778344877186
 40
1.580778344877186
 40
1.580778344877186
 40
1.580778344877186
 10
79.2722140416328
 20
-338.0017925978366
 30
-0.3775640565637879
 10
79.45293838700028
 20
-338.0163026457164
 30
-0.2074851315398421
 10
79.87610840467024
 20
-338.1435722282348
 30
0.0256396937778456
 10
80.06908664363264
 20
-338.7042060012309
 30
0.0817042840379085
 10
80.1035793913962
 20
-338.9475791919887
 30
-0.1056831754034244
 10
80.10004410217463
 20
-339.0460598520129
 30
-0.0987152026816665
 11
79.2722140416328
 21
-338.0017925978366
 31
-0.3775640565637879
 11
79.85455247449479
 21
-338.2747676405061
 31
0.0
 11
80.07059769334594
 21
-338.768168435126
 31
0.0
 11
80.10004410217463
 21
-339.0460598520129
 31
-0.0987152026816665
  0
ARC
  5
48
330
2
100
AcDbEntity
  8
0
100
AcDbCircle
 10
91.35074815044806
 20
16.12230062203326
 30
336.6383221469027
 40
0.5000000000000001
210
-0.0351422340853469
220
-0.9982375140795564
230
-0.0478214268687005
100
AcDbArc
 50
175.8744776342289
 51
223.2315788077711
  0
LINE
  5
49
330
2
100
AcDbEntity
  8
0
100
AcDbLine
 10
78.78318941100342
 20
-338.5082830738888
 30
0.0988586111444363
 11
78.05620166304059
 21
-338.4499144738557
 31
-0.5853065157380648
  0
LINE
  5
4A
330
2
100
AcDbEntity
  8
0
100
AcDbLine
 10
78.78318941100342
 20
-338.5082830738888
 30
0.0988586111444363
 11
78.05620166304059
 21
-338.4499144738557
 31
-0.5853065157380648
210
-0.6857505652170143
220
-0.0107225003817092
230
0.7277576452982889
  0
LINE
  5
4B
330
2
100
AcDbEntity
  8
0
100
AcDbLine
 10
79.2722140416328
 20
-338.0017925978366
 30
-0.3775640565637879
 11
79.1436358106546
 21
-338.0038030666582
 31
-0.2411094980703616
  0
LINE
  5
4C
330
2
100
AcDbEntity
  8
0
100
AcDbLine
 10
79.2722140416328
 20
-318.9431813655574
 30
-0.3775640565637879
 11
79.1436358106546
 21
-318.9411708967358
 31
-0.2411094980703616
  0
LINE
  5
4D
330
2
100
AcDbEntity
  8
0
100
AcDbLine
 10
78.78318941100342
 20
-318.4366908895052
 30
0.0988586111444363
 11
78.05620166304059
 21
-318.4950594895383
 31
-0.5853065157380648
210
-0.6857505652170143
220
0.0107225003817092
230
0.7277576452982889
  0
LINE
  5
4E
330
2
100
AcDbEntity
  8
0
100
AcDbLine
 10
78.78318941100342
 20
-318.4366908895052
 30
0.0988586111444363
 11
78.05620166304059
 21
-318.4950594895383
 31
-0.5853065157380648
  0
ARC
  5
4F
330
2
100
AcDbEntity
  8
0
100
AcDbCircle
 10
-68.2377905845598
 20
-15.27429588030948
 30
-319.1487955493747
 40
0.5000000000000001
210
-0.0351422340853469
220
0.9982375140795564
230
-0.0478214268687005
100
AcDbArc
 50
316.7684211922288
 51
4.125522365771117
  0
SPLINE
  5
50
330
2
100
AcDbEntity
  8
0
 48
0.1
100
AcDbSpline
 70
     0
 71
     3
 72
    10
 73
     6
 74
     4
 42
0.0000000001
 43
0.0000000001
 44
0.0000000001
 12
0.7269877479628095
 22
0.0583686000331602
 32
0.6841651268824886
 13
-0.0357858517340465
 23
0.9968673218601807
 33
0.0705330803451816
 40
0.0
 40
0.0
 40
0.0
 40
0.0
 40
0.7457801560228825
 40
1.284407931689893
 40
1.580778344877186
 40
1.580778344877186
 40
1.580778344877186
 40
1.580778344877186
 10
79.2722140416328
 20
-318.9431813655574
 30
-0.3775640565637879
 10
79.45293838700028
 20
-318.9286713176775
 30
-0.2074851315398421
 10
79.87610840467024
 20
-318.8014017351591
 30
0.0256396937778456
 10
80.06908664363264
 20
-318.2407679621631
 30
0.0817042840379085
 10
80.1035793913962
 20
-317.9973947714053
 30
-0.1056831754034244
 10
80.10004410217463
 20
-317.898914111381
 30
-0.0987152026816665
 11
79.2722140416328
 21
-318.9431813655574
 31
-0.3775640565637879
 11
79.85455247449479
 21
-318.6702063228878
 31
0.0
 11
80.07059769334594
 21
-318.176805528268
 31
0.0
 11
80.10004410217463
 21
-317.898914111381
 31
-0.0987152026816665
  0
ARC
  5
51
330
2
100
AcDbEntity
  8
0
100
AcDbCircle
 10
316.6672724085593
 20
60.98415089001907
 30
-58.05560909774373
 40
1.0
210
-0.6857505652170143
220
0.0107225003817092
230
0.7277576452982889
100
AcDbArc
 50
3.998328294098342
 51
93.99832829409978
  0
ARC
  5
52
330
2
100
AcDbEntity
  8
0
100
AcDbCircle
 10
316.6672724085593
 20
60.98415089001907
 30
-58.05560909774373
 40
1.0
210
-0.6857505652170143
220
0.0107225003817092
230
0.7277576452982889
100
AcDbArc
 50
3.998328294098342
 51
93.99832829409978
  0
SPLINE
  5
53
330
2
100
AcDbEntity
  8
0
 48
0.1
100
AcDbSpline
 70
     0
 71
     3
 72
     9
 73
     5
 74
     0
 42
0.0000000001
 43
0.0000000001
 40
0.0
 40
0.0
 40
0.0
 40
0.0
 40
1.294423937454767
 40
1.85530505262929
 40
1.85530505262929
 40
1.85530505262929
 40
1.85530505262929
 10
78.38150582860648
 20
-318.0013019826894
 30
-0.9730960518215496
 10
78.65779970591733
 20
-317.937618045093
 30
-1.29832892137311
 10
78.92645791510642
 20
-317.6043819352731
 30
0.1508778543074585
 10
78.94143476138821
 20
-316.9788767048044
 30
0.1130136598998455
 10
78.93965579051602
 20
-316.7825129580672
 30
0.0645974891961108
  0
ARC
  5
54
330
2
100
AcDbEntity
  8
0
100
AcDbCircle
 10
315.7394336914709
 20
59.9168574368996
 30
-57.36810909774371
 40
1.5
210
-0.6857505652170143
220
0.0107225003817092
230
0.7277576452982889
100
AcDbArc
 50
3.998328294098081
 51
92.66434939927059
  0
ARC
  5
55
330
2
100
AcDbEntity
  8
0
100
AcDbCircle
 10
-315.7394336914709
 20
59.9168574368996
 30
57.36810909774371
 40
1.5
210
0.6857505652170143
220
-0.0107225003817092
230
-0.7277576452982889
100
AcDbArc
 50
87.33565060072614
 51
176.0016717059019
  0
ARC
  5
56
330
2
100
AcDbEntity
  8
0
100
AcDbCircle
 10
-331.0846196334584
 20
-72.68940949645269
 30
76.10030364412313
 40
0.5
210
0.7269877479628089
220
-0.0583686000331652
230
0.6841651268824889
100
AcDbArc
 50
93.75953795854648
 51
183.7595379585448
  0
ARC
  5
57
330
2
100
AcDbEntity
  8
0
100
AcDbCircle
 10
-331.0846196334584
 20
-72.68940949645269
 30
76.10030364412313
 40
0.5
210
0.7269877479628089
220
-0.0583686000331652
230
0.6841651268824889
100
AcDbArc
 50
93.75953795854648
 51
183.7595379585448
  0
ARC
  5
58
330
2
100
AcDbEntity
  8
0
100
AcDbCircle
 10
-323.7531343153484
 20
-36.71888014088777
 30
37.75534521505567
 40
0.5
210
0.7269877479628089
220
0.0583686000331652
230
0.6841651268824889
100
AcDbArc
 50
356.2404620414551
 51
86.24046204145349
  0
ARC
  5
59
330
2
100
AcDbEntity
  8
0
100
AcDbCircle
 10
-323.7531343153484
 20
-36.71888014088777
 30
37.75534521505567
 40
0.5
210
0.7269877479628089
220
0.0583686000331652
230
0.6841651268824889
100
AcDbArc
 50
356.2404620414551
 51
86.24046204145349
  0
LINE
  5
5A
330
2
100
AcDbEntity
  8
0
100
AcDbLine
 10
79.09490156880974
 20
-339.9999411321931
 30
-0.3596226821611648
 11
79.0733513424839
 21
-340.0002780948172
 31
-0.3367523518077711
210
-0.7269877479628095
220
0.0583686000331463
230
-0.6841651268824898
  0
LINE
  5
5B
330
2
100
AcDbEntity
  8
0
100
AcDbLine
 10
79.09490156880974
 20
-339.9999411321931
 30
-0.3596226821611648
 11
79.0733513424839
 21
-340.0002780948172
 31
-0.3367523518077711
  0
LINE
  5
5C
330
2
100
AcDbEntity
  8
0
100
AcDbLine
 10
79.09490156880974
 20
-316.9450328312009
 30
-0.3596226821611648
 11
79.0733513424839
 21
-316.9446958685767
 31
-0.3367523518077711
  0
LINE
  5
5D
330
2
100
AcDbEntity
  8
0
100
AcDbLine
 10
79.09490156880974
 20
-316.9450328312009
 30
-0.3596226821611648
 11
79.0733513424839
 21
-316.9446958685767
 31
-0.3367523518077711
210
-0.7269877479628095
220
-0.0583686000331463
230
-0.6841651268824898
  0
SPLINE
  5
5E
330
2
100
AcDbEntity
  8
0
100
AcDbSpline
210
0.0
220
0.0
230
1.0
 70
     8
 71
     3
 72
    11
 73
     7
 74
     5
 42
0.0000000001
 43
0.0000000001
 44
0.0000000001
 13
-0.9898904751141474
 23
-0.1418338721120153
 33
0.0
 40
0.0
 40
0.0
 40
0.0
 40
0.0
 40
3.310932152979483
 40
15.59444017646176
 40
25.37603123436416
 40
32.0272656689897
 40
32.0272656689897
 40
32.0272656689897
 40
32.0272656689897
 10
90.15159193257069
 20
-316.2947540602443
 30
0.0
 10
89.05133069851389
 20
-316.1973070837889
 30
0.0
 10
83.86911698944151
 20
-315.7383333040503
 30
0.0
 10
75.3342702897779
 20
-317.601268987389
 30
0.0
 10
66.02394028534495
 20
-314.72767740917
 30
0.0
 10
60.47360990411733
 20
-314.6582917061938
 30
0.0
 10
58.27894536592165
 20
-314.9727484842564
 30
0.0
 11
90.15159193257069
 21
-316.2947540602443
 31
0.0
 11
86.84797997675538
 21
-316.0747091397678
 31
0.0
 11
74.57565113155893
 21
-316.5986500508566
 31
0.0
 11
64.93017979540652
 21
-314.972486981697
 31
0.0
 11
58.27894536592165
 21
-314.9727484842564
 31
0.0
  0
SPLINE
  5
5F
330
2
100
AcDbEntity
  8
0
100
AcDbSpline
210
0.0
220
0.0
230
1.0
 70
     8
 71
     3
 72
    11
 73
     7
 74
     5
 42
0.0000000001
 43
0.0000000001
 44
0.0000000001
 13
-0.9898904751141474
 23
0.1418338721120153
 33
0.0
 40
0.0
 40
0.0
 40
0.0
 40
0.0
 40
3.310932152979483
 40
15.59444017646176
 40
25.37603123436417
 40
32.02726566898972
 40
32.02726566898972
 40
32.02726566898972
 40
32.02726566898972
 10
90.15159193257069
 20
-340.6502199031497
 30
0.0
 10
89.05133069851389
 20
-340.747666879605
 30
0.0
 10
83.86911698944151
 20
-341.2066406593437
 30
0.0
 10
75.33427028977789
 20
-339.3437049760049
 30
0.0
 10
66.02394028534496
 20
-342.217296554224
 30
0.0
 10
60.47360990411733
 20
-342.2866822572001
 30
0.0
 10
58.27894536592165
 20
-341.9722254791376
 30
0.0
 11
90.15159193257069
 21
-340.6502199031497
 31
0.0
 11
86.84797997675538
 21
-340.8702648236261
 31
0.0
 11
74.57565113155893
 21
-340.3463239125374
 31
0.0
 11
64.93017979540652
 21
-341.972486981697
 31
0.0
 11
58.27894536592165
 21
-341.9722254791376
 31
0.0
  0
SPLINE
  5
60
330
2
100
AcDbEntity
  8
0
 48
0.1
100
AcDbSpline
210
0.0
220
0.0
230
1.0
 70
     8
 71
     3
 72
    16
 73
    12
 74
     0
 42
0.0000000001
 43
0.0000000001
 40
9.797128753142949
 40
9.797128753166781
 40
9.797128753166781
 40
9.797128753166781
 40
14.26887419394174
 40
17.07010811142692
 40
22.66034253134038
 40
31.66467629738304
 40
39.76174978861712
 40
44.18261776011012
 40
48.78923732368569
 40
53.44876874101091
 40
57.4223560628144
 40
57.4223560628144
 40
57.4223560628144
 40
57.4223560628144
 10
59.78009718151607
 20
-342.1380355060326
 30
0.0
 10
61.22406333627776
 20
-341.9679526058529
 30
0.0
 10
63.71939981089624
 20
-341.2979660480481
 30
0.0
 10
67.41141942254625
 20
-339.195287489244
 30
0.0
 10
72.80414038013169
 20
-337.1271956805201
 30
0.0
 10
80.62863000931741
 20
-338.1392939505283
 30
0.0
 10
87.6102957057261
 20
-339.1849999548497
 30
0.0
 10
93.48060125600664
 20
-339.1376652804429
 30
0.0
 10
97.46082781182479
 20
-336.4672928095115
 30
0.0
 10
99.92519671758795
 20
-332.6969219096397
 30
0.0
 10
100.5151805603464
 20
-329.7970160889648
 30
0.0
 10
100.5151805603464
 20
-328.4724869816969
 30
0.0
  0
SPLINE
  5
61
330
2
100
AcDbEntity
  8
0
 48
0.1
100
AcDbSpline
210
0.0
220
0.0
230
1.0
 70
     8
 71
     3
 72
    17
 73
    13
 74
    11
 42
0.0000000001
 43
0.0000000001
 44
0.0000000001
 12
0.0
 22
-1.0
 32
0.0
 40
0.0
 40
0.0
 40
0.0
 40
0.0
 40
3.884196465668027
 40
8.692533164078815
 40
16.41320357511025
 40
22.37905638621349
 40
30.15877900770505
 40
36.39980570637328
 40
46.3425480145282
 40
49.71001543542885
 40
54.9863408459018
 40
57.24741948156522
 40
57.24741948156522
 40
57.24741948156522
 40
57.24741948156522
 10
54.7654136108992
 20
-328.4724869816969
 30
0.0
 10
54.7654136108992
 20
-329.7672191369196
 30
0.0
 10
54.74540689050704
 20
-332.6730877306124
 30
0.0
 10
57.19295073687981
 20
-338.0162022355741
 30
0.0
 10
64.22861791911791
 20
-339.7178291084218
 30
0.0
 10
70.80262668766991
 20
-336.7680972909985
 30
0.0
 10
77.70411524465892
 20
-336.8483014260166
 30
0.0
 10
85.3573303801718
 20
-338.4114438653899
 30
0.0
 10
92.53047722407137
 20
-338.9842894487568
 30
0.0
 10
97.5130959058274
 20
-335.0918059082737
 30
0.0
 10
99.505279052714
 20
-331.7593193011999
 30
0.0
 10
99.55441134423693
 20
-329.2309499578515
 30
0.0
 10
99.5691501023032
 20
-328.4724869816969
 30
0.0
 11
54.7654136108992
 21
-328.4724869816969
 31
0.0
 11
55.01034580973693
 21
-332.3489532077694
 31
0.0
 11
57.18547070499678
 21
-336.6371851855552
 31
0.0
 11
64.57316875391588
 21
-338.8801005057965
 31
0.0
 11
70.34826200077539
 21
-337.383538527853
 31
0.0
 11
78.12347669600498
 21
-337.1187357513698
 31
0.0
 11
84.28948315011009
 21
-338.0835044601409
 31
0.0
 11
94.20897065885084
 21
-337.4038779669037
 31
0.0
 11
96.88935266114347
 21
-335.3654008018089
 31
0.0
 11
99.40544178421648
 21
-330.7276313636031
 31
0.0
 11
99.5691501023032
 21
-328.4724869816969
 31
0.0
  0
SPLINE
  5
62
330
2
100
AcDbEntity
  8
0
 48
0.1
100
AcDbSpline
210
0.0
220
0.0
230
1.0
 70
     8
 71
     3
 72
    16
 73
    12
 74
     0
 42
0.0000000001
 43
0.0000000001
 40
9.797128753142949
 40
9.797128753166781
 40
9.797128753166781
 40
9.797128753166781
 40
14.26887419394174
 40
17.07010811142692
 40
22.66034253134038
 40
31.66467629738304
 40
39.76174978861712
 40
44.18261776011012
 40
48.78923732368569
 40
53.44876874101091
 40
57.4223560628144
 40
57.4223560628144
 40
57.4223560628144
 40
57.4223560628144
 10
59.78009718151607
 20
-314.8069384573614
 30
0.0
 10
61.22406333627776
 20
-314.9770213575411
 30
0.0
 10
63.71939981089624
 20
-315.6470079153459
 30
0.0
 10
67.41141942254625
 20
-317.74968647415
 30
0.0
 10
72.80414038013169
 20
-319.8177782828739
 30
0.0
 10
80.62863000931741
 20
-318.8056800128657
 30
0.0
 10
87.6102957057261
 20
-317.7599740085442
 30
0.0
 10
93.48060125600664
 20
-317.8073086829511
 30
0.0
 10
97.46082781182479
 20
-320.4776811538824
 30
0.0
 10
99.92519671758795
 20
-324.2480520537543
 30
0.0
 10
100.5151805603464
 20
-327.1479578744292
 30
0.0
 10
100.5151805603464
 20
-328.472486981697
 30
0.0
  0
SPLINE
  5
63
330
2
100
AcDbEntity
  8
0
 48
0.1
100
AcDbSpline
210
0.0
220
0.0
230
1.0
 70
     8
 71
     3
 72
    17
 73
    13
 74
    11
 42
0.0000000001
 43
0.0000000001
 44
0.0000000001
 12
0.0
 22
1.0
 32
0.0
 40
0.0
 40
0.0
 40
0.0
 40
0.0
 40
3.884196465668027
 40
8.692533164078765
 40
16.4132035751102
 40
22.37905638621344
 40
30.158779007705
 40
36.39980570637323
 40
46.34254801452814
 40
49.71001543542879
 40
54.98634084590174
 40
57.24741948156516
 40
57.24741948156516
 40
57.24741948156516
 40
57.24741948156516
 10
54.7654136108992
 20
-328.472486981697
 30
0.0
 10
54.7654136108992
 20
-327.1777548264743
 30
0.0
 10
54.74540689050704
 20
-324.2718862327816
 30
0.0
 10
57.19295073687984
 20
-318.9287717278199
 30
0.0
 10
64.22861791911791
 20
-317.2271448549722
 30
0.0
 10
70.80262668766991
 20
-320.1768766723955
 30
0.0
 10
77.70411524465892
 20
-320.0966725373775
 30
0.0
 10
85.3573303801718
 20
-318.533530098004
 30
0.0
 10
92.5304772240714
 20
-317.9606845146372
 30
0.0
 10
97.5130959058274
 20
-321.8531680551202
 30
0.0
 10
99.505279052714
 20
-325.185654662194
 30
0.0
 10
99.55441134423693
 20
-327.7140240055425
 30
0.0
 10
99.5691501023032
 20
-328.472486981697
 30
0.0
 11
54.7654136108992
 21
-328.472486981697
 31
0.0
 11
55.01034580973693
 21
-324.5960207556245
 31
0.0
 11
57.18547070499678
 21
-320.3077887778388
 31
0.0
 11
64.57316875391588
 21
-318.0648734575975
 31
0.0
 11
70.34826200077539
 21
-319.5614354355409
 31
0.0
 11
78.12347669600498
 21
-319.8262382120243
 31
0.0
 11
84.28948315011009
 21
-318.8614695032531
 31
0.0
 11
94.20897065885084
 21
-319.5410959964902
 31
0.0
 11
96.88935266114347
 21
-321.579573161585
 31
0.0
 11
99.40544178421648
 21
-326.2173425997909
 31
0.0
 11
99.5691501023032
 21
-328.472486981697
 31
0.0
  0
LWPOLYLINE
  5
64
330
2
100
AcDbEntity
  8
0
100
AcDbPolyline
 90
        8
 70
     1
 43
0.0
 10
103.280097181493
 20
-344.8484364971337
 10
43.78009718149299
 20
-344.8484364971337
 42
-0.4142135623730951
 10
43.53009718149299
 20
-344.5984364971337
 10
43.53009718149297
 20
-312.0984364971338
 42
-0.4142135623730951
 10
43.78009718149297
 20
-311.8484364971337
 10
103.280097181493
 20
-311.8484364971337
 42
-0.4142135623730951
 10
103.5300971814929
 20
-312.0984364971338
 10
103.5300971814929
 20
-344.5984364971337
 42
-0.4142135623730951
  0
ARC
  5
65
330
2
100
AcDbEntity
  8
0
100
AcDbCircle
 10
61.34446539197301
 20
-328.4724869816969
 30
0.0
 40
13.84342271728351
100
AcDbArc
 50
102.7888746355969
 51
257.211125364403
  0
ARC
  5
66
330
2
100
AcDbEntity
  8
0
100
AcDbCircle
 10
340.1974082812453
 20
53.50947125815924
 30
-50.32401636365927
 40
0.5
210
-0.6857505652170143
220
-0.0107225003817092
230
0.7277576452982889
100
AcDbArc
 50
86.00167170590349
 51
176.0016717059007
  0
ARC
  5
67
330
2
100
AcDbEntity
  8
0
100
AcDbCircle
 10
340.1974082812453
 20
53.50947125815924
 30
-50.32401636365927
 40
0.5
210
-0.6857505652170143
220
-0.0107225003817092
230
0.7277576452982889
100
AcDbArc
 50
86.00167170590349
 51
176.0016717059007
  0
ARC
  5
68
330
2
100
AcDbEntity
  8
0
100
AcDbCircle
 10
91.35074815044719
 20
16.12230062203247
 30
335.6383221469029
 40
0.5000000000000001
210
-0.0351422340853443
220
-0.9982375140795564
230
-0.047821426868698
100
AcDbArc
 50
43.23157880777242
 51
133.2315788077717
  0
ARC
  5
69
330
2
100
AcDbEntity
  8
0
100
AcDbCircle
 10
-340.1974082812453
 20
53.50947125815925
 30
50.82401636365928
 40
1.0
210
0.6857505652170143
220
0.0107225003817092
230
-0.7277576452982889
100
AcDbArc
 50
3.998328294098334
 51
93.99832829409652
  0
ARC
  5
6A
330
2
100
AcDbEntity
  8
0
100
AcDbCircle
 10
91.35074815044719
 20
16.12230062203247
 30
335.6383221469029
 40
0.5000000000000001
210
-0.0351422340853443
220
-0.9982375140795564
230
-0.047821426868698
100
AcDbArc
 50
43.23157880777242
 51
133.2315788077717
  0
ARC
  5
6B
330
2
100
AcDbEntity
  8
0
100
AcDbCircle
 10
-340.1974082812453
 20
53.50947125815925
 30
50.82401636365928
 40
1.0
210
0.6857505652170143
220
0.0107225003817092
230
-0.7277576452982889
100
AcDbArc
 50
3.998328294098334
 51
93.99832829409652
  0
ARC
  5
6C
330
2
100
AcDbEntity
  8
0
100
AcDbCircle
 10
-316.6672724085593
 20
60.98415089001907
 30
57.86810909774374
 40
1.0
210
0.6857505652170143
220
-0.0107225003817092
230
-0.7277576452982889
100
AcDbArc
 50
86.00167170590024
 51
176.0016717059016
  0
ARC
  5
6D
330
2
100
AcDbEntity
  8
0
100
AcDbCircle
 10
-68.23779058456064
 20
-15.27429588030869
 30
-320.1487955493745
 40
0.5000000000000001
210
-0.0351422340853443
220
0.9982375140795564
230
-0.047821426868698
100
AcDbArc
 50
46.76842119222821
 51
136.7684211922275
  0
ARC
  5
6E
330
2
100
AcDbEntity
  8
0
100
AcDbCircle
 10
-316.6672724085593
 20
60.98415089001907
 30
57.86810909774374
 40
1.0
210
0.6857505652170143
220
-0.0107225003817092
230
-0.7277576452982889
100
AcDbArc
 50
86.00167170590024
 51
176.0016717059016
  0
ARC
  5
6F
330
2
100
AcDbEntity
  8
0
100
AcDbCircle
 10
-68.23779058456064
 20
-15.27429588030869
 30
-320.1487955493745
 40
0.5000000000000001
210
-0.0351422340853443
220
0.9982375140795564
230
-0.047821426868698
100
AcDbArc
 50
46.76842119222821
 51
136.7684211922275
  0
LINE
  5
70
330
2
100
AcDbEntity
  8
CENTER
100
AcDbLine
 10
98.79329190417948
 20
-328.3484364971337
 30
0.0
 11
91.2669024588065
 21
-328.3484364971337
 31
0.0
  0
CIRCLE
  5
73
330
2
100
AcDbEntity
  8
0
 48
0.1
100
AcDbCircle
 10
95.03009718149298
 20
-328.3484364971337
 30
0.0
 40
1.625
  0
ARC
  5
74
330
2
100
AcDbEntity
  8
0
100
AcDbCircle
 10
88.77548770466452
 20
-328.472486981697
 30
0.0
 40
12.25523732745699
100
AcDbArc
 50
276.4471698102425
 51
83.55283018975747
  0
ARC
  5
75
330
2
100
AcDbEntity
  8
0
100
AcDbCircle
 10
91.47917604595358
 20
15.98568976720827
 30
335.6383221469029
 40
0.5000000000000001
210
-0.0351422340853443
220
-0.9982375140795564
230
-0.047821426868698
100
AcDbArc
 50
358.2315788096112
 51
43.23157880777123
  0
ARC
  5
76
330
2
100
AcDbEntity
  8
0
100
AcDbCircle
 10
-331.0846196334584
 20
-72.68940949645271
 30
77.10030364412313
 40
0.5
210
0.7269877479628089
220
-0.0583686000331652
230
0.6841651268824889
100
AcDbArc
 50
3.759537958544882
 51
93.75953795854323
  0
ARC
  5
77
330
2
100
AcDbEntity
  8
0
100
AcDbCircle
 10
-331.0846196334584
 20
-72.68940949645271
 30
77.10030364412313
 40
0.5
210
0.7269877479628089
220
-0.0583686000331652
230
0.6841651268824889
100
AcDbArc
 50
3.759537958544882
 51
93.75953795854323
  0
ARC
  5
78
330
2
100
AcDbEntity
  8
0
100
AcDbCircle
 10
-323.7531343153484
 20
-36.71888014088779
 30
38.75534521505568
 40
0.5
210
0.7269877479628089
220
0.0583686000331652
230
0.6841651268824889
100
AcDbArc
 50
86.24046204145676
 51
176.2404620414551
  0
ARC
  5
79
330
2
100
AcDbEntity
  8
0
100
AcDbCircle
 10
-323.7531343153484
 20
-36.71888014088779
 30
38.75534521505568
 40
0.5
210
0.7269877479628089
220
0.0583686000331652
230
0.6841651268824889
100
AcDbArc
 50
86.24046204145676
 51
176.2404620414551
  0
ARC
  5
7A
330
2
100
AcDbEntity
  8
0
100
AcDbCircle
 10
-68.36621848006702
 20
-15.4109067351329
 30
-320.1487955493745
 40
0.5000000000000001
210
-0.0351422340853443
220
0.9982375140795564
230
-0.047821426868698
100
AcDbArc
 50
136.7684211922287
 51
181.7684211903886
  0
LINE
  5
7B
330
2
100
AcDbEntity
  8
0
100
AcDbLine
 10
80.05848802509662
 20
-340.2036652534899
 30
-0.016809142567249
 11
80.1000441021746
 21
-339.0460598520131
 31
-0.0987152026816434
  0
ELLIPSE
  5
7C
330
2
100
AcDbEntity
  8
0
 48
0.1
100
AcDbEllipse
 10
79.49713345072111
 20
-340.1828030146624
 30
0.0645974891961112
 11
-0.5613715319769752
 21
0.0204840942685643
 31
0.0
210
0.0
220
0.0
230
1.0
 40
0.2009744915816874
 41
6.283116201717194
 42
9.421425223285012
  0
LINE
  5
7D
330
2
100
AcDbEntity
  8
0
100
AcDbLine
 10
80.05848802509662
 20
-316.7413087099041
 30
-0.016809142567249
 11
80.1000441021746
 21
-317.898914111381
 31
-0.0987152026816434
  0
ELLIPSE
  5
7E
330
2
100
AcDbEntity
  8
0
 48
0.1
100
AcDbEllipse
 10
79.49713345072111
 20
-316.7621709487316
 30
0.0645974891961112
 11
-0.5613715319769752
 21
-0.0204840942685643
 31
0.0
210
0.0
220
0.0
230
-1.0
 40
0.2009744915816874
 41
6.283116201717194
 42
9.421425223285012
  0
LINE
  5
7F
330
2
100
AcDbEntity
  8
0
100
AcDbLine
 10
79.92186773495037
 20
-340.2568842142631
 30
0.2013651644370133
 11
79.96405955551026
 21
-339.0583987119494
 31
0.258779643450012
  0
LINE
  5
80
330
2
100
AcDbEntity
  8
0
100
AcDbLine
 10
79.83548132453207
 20
-339.0604091807709
 30
0.3952342019434383
 11
79.79271026342411
 21
-340.2753483793221
 31
0.3370314944575239
210
0.7269877479628088
220
-0.0583686000331704
230
0.6841651268824886
  0
LINE
  5
81
330
2
100
AcDbEntity
  8
0
100
AcDbLine
 10
79.96405955551026
 20
-339.0583987119494
 30
0.258779643450012
 11
79.83548132453207
 21
-339.0604091807709
 31
0.3952342019434383
  0
LINE
  5
82
330
2
100
AcDbEntity
  8
0
100
AcDbLine
 10
79.96405955551026
 20
-339.0583987119494
 30
0.258779643450012
 11
79.83548132453207
 21
-339.0604091807709
 31
0.3952342019434383
210
0.7269877479628088
220
-0.0583686000331704
230
0.6841651268824886
  0
LINE
  5
83
330
2
100
AcDbEntity
  8
0
100
AcDbLine
 10
79.09519811087962
 20
-339.9999364954161
 30
0.3708803331971007
 11
79.12911216794215
 21
-339.0365861309452
 31
0.4170304611513345
  0
LINE
  5
84
330
2
100
AcDbEntity
  8
0
100
AcDbLine
 10
79.09519811087962
 20
-339.9999364954161
 30
0.3708803331971007
 11
79.12911216794215
 21
-339.0365861309452
 31
0.4170304611513345
210
-0.6857505652170143
220
-0.0107225003817092
230
0.7277576452982889
  0
LINE
  5
85
330
2
100
AcDbEntity
  8
0
100
AcDbLine
 10
79.92186773495037
 20
-316.688089749131
 30
0.2013651644370133
 11
79.96405955551026
 21
-317.8865752514447
 31
0.258779643450012
  0
ARC
  5
86
330
2
100
AcDbEntity
  8
0
100
AcDbCircle
 10
316.6672724085593
 20
60.98415089001906
 30
-57.36810909774372
 40
0.5
210
-0.6857505652170143
220
0.0107225003817092
230
0.7277576452982889
100
AcDbArc
 50
3.998328294099189
 51
93.99832829409652
  0
ARC
  5
87
330
2
100
AcDbEntity
  8
0
100
AcDbCircle
 10
316.6672724085593
 20
60.98415089001906
 30
-57.36810909774372
 40
0.5
210
-0.6857505652170143
220
0.0107225003817092
230
0.7277576452982889
100
AcDbArc
 50
3.998328294099189
 51
93.99832829409652
  0
LINE
  5
88
330
2
100
AcDbEntity
  8
0
100
AcDbLine
 10
79.83548132453207
 20
-317.8845647826231
 30
0.3952342019434383
 11
79.79271026342411
 21
-316.6696255840719
 31
0.3370314944575239
210
0.7269877479628088
220
0.0583686000331704
230
0.6841651268824886
  0
LINE
  5
89
330
2
100
AcDbEntity
  8
0
100
AcDbLine
 10
79.96405955551026
 20
-317.8865752514447
 30
0.258779643450012
 11
79.83548132453207
 21
-317.8845647826231
 31
0.3952342019434383
210
0.7269877479628088
220
0.0583686000331704
230
0.6841651268824886
  0
LINE
  5
8A
330
2
100
AcDbEntity
  8
0
100
AcDbLine
 10
79.96405955551026
 20
-317.8865752514447
 30
0.258779643450012
 11
79.83548132453207
 21
-317.8845647826231
 31
0.3952342019434383
  0
LINE
  5
8B
330
2
100
AcDbEntity
  8
0
100
AcDbLine
 10
79.09519811087962
 20
-316.9450374679779
 30
0.3708803331971007
 11
79.12911216794215
 21
-317.9083878324488
 31
0.4170304611513345
210
-0.6857505652170143
220
0.0107225003817092
230
0.7277576452982889
  0
LINE
  5
8C
330
2
100
AcDbEntity
  8
0
100
AcDbLine
 10
79.09519811087962
 20
-316.9450374679779
 30
0.3708803331971007
 11
79.12911216794215
 21
-317.9083878324488
 31
0.4170304611513345
  0
LINE
  5
8D
330
2
100
AcDbEntity
  8
CENTER
100
AcDbLine
 10
95.03009718149298
 20
-332.1116312198202
 30
0.0
 11
95.03009718149298
 21
-324.5852417744472
 31
0.0
  0
CIRCLE
  5
8E
330
2
100
AcDbEntity
  8
0
100
AcDbCircle
 10
95.03009718149298
 20
-328.3484364971337
 30
0.0
 40
1.0
  0
ENDSEC
  0
SECTION
  2
OBJECTS
  0
DICTIONARY
  5
7
330
0
100
AcDbDictionary
  3
ACAD_GROUP
350
2D
  3
ACAD_LAYOUT
350
B
  3
ACAD_MLINESTYLE
350
2E
  3
ACAD_PLOTSETTINGS
350
2F
  3
ACAD_PLOTSTYLENAME
350
6
  3
ACDBHEADERROUNDTRIPXREC
350
14A
  3
ACDBVARIABLEDICTIONARY
350
8F
  0
DICTIONARY
  5
11
330
10
100
AcDbDictionary
280
     1
  3
ACAD_LAYERFILTERS
360
12
  0
DICTIONARY
  5
E3
330
2
100
AcDbDictionary
280
     1
  3
ACAD_LAYOUTSELFREF
360
16B
  0
DICTIONARY
  5
E5
330
C
100
AcDbDictionary
280
     1
  3
ACAD_LAYOUTSELFREF
360
16C
  0
DICTIONARY
  5
2D
102
{ACAD_REACTORS
330
7
102
}
330
7
100
AcDbDictionary
  0
DICTIONARY
  5
B
102
{ACAD_REACTORS
330
7
102
}
330
7
100
AcDbDictionary
  0
DICTIONARY
  5
2E
102
{ACAD_REACTORS
330
7
102
}
330
7
100
AcDbDictionary
  3
STANDARD
350
31
  0
DICTIONARY
  5
2F
102
{ACAD_REACTORS
330
7
102
}
330
7
100
AcDbDictionary
  0
ACDBDICTIONARYWDFLT
  5
6
102
{ACAD_REACTORS
330
7
102
}
330
7
100
AcDbDictionary
281
     1
  3
Normal
350
5
100
AcDbDictionaryWithDefault
340
5
  0
DICTIONARY
  5
14A
102
{ACAD_REACTORS
330
7
102
}
330
7
100
AcDbDictionary
  3
CEPSNTYPE
350
154
  3
DIMSTYLEDATA
350
158
  3
FINGERPRINTGUID
350
155
  3
HYPERLINKBASE
350
14D
  3
INSUNITS
350
153
  3
LAYOUTDICT
350
14F
  3
LWETCUNION
350
152
  3
PLOTSETDICT
350
150
  3
PLOTSTYLNAMDICT
350
151
  3
PSVPSCALE
350
157
  3
PUCSBASE
350
15B
  3
PUCSORGBACK
350
161
  3
PUCSORGBOTTOM
350
15D
  3
PUCSORGFRONT
350
160
  3
PUCSORGLEFT
350
15E
  3
PUCSORGRIGHT
350
15F
  3
PUCSORGTOP
350
15C
  3
PUCSORTHOREF
350
159
  3
PUCSORTHOVIEW
350
15A
  3
STYLESHEET
350
14E
  3
TSTACKALIGN
350
14B
  3
TSTACKSIZE
350
14C
  3
UCSBASE
350
164
  3
UCSORGBACK
350
16A
  3
UCSORGBOTTOM
350
166
  3
UCSORGFRONT
350
169
  3
UCSORGLEFT
350
167
  3
UCSORGRIGHT
350
168
  3
UCSORGTOP
350
165
  3
UCSORTHOREF
350
162
  3
UCSORTHOVIEW
350
163
  3
VERSIONGUID
350
156
  0
DICTIONARY
  5
8F
102
{ACAD_REACTORS
330
7
102
}
330
7
100
AcDbDictionary
  3
DIMASSOC
350
91
  3
HIDETEXT
350
90
  0
DICTIONARY
  5
12
102
{ACAD_REACTORS
330
11
102
}
330
11
100
AcDbDictionary
280
     1
  3
DIM-1_12
360
13
  3
DIM-1_16
360
14
  0
XRECORD
  5
16B
102
{ACAD_REACTORS
330
E3
102
}
330
E3
100
AcDbXrecord
340
2
  0
XRECORD
  5
16C
102
{ACAD_REACTORS
330
E5
102
}
330
E5
100
AcDbXrecord
340
C
  0
MLINESTYLE
  5
31
102
{ACAD_REACTORS
330
2E
102
}
330
2E
100
AcDbMlineStyle
  2
STANDARD
 70
     0
  3

 62
   256
 51
90.0
 52
90.0
 71
     2
 49
0.5
 62
   256
  6
BYLAYER
 49
-0.5
 62
   256
  6
BYLAYER
  0
ACDBPLACEHOLDER
  5
5
102
{ACAD_REACTORS
330
6
102
}
330
6
100
AcDbPlaceHolder
280
     0
  0
XRECORD
  5
154
102
{ACAD_REACTORS
330
14A
102
}
330
14A
100
AcDbXrecord
 90
        0
  0
XRECORD
  5
158
102
{ACAD_REACTORS
330
14A
102
}
330
14A
100
AcDbXrecord
1000
DSTYLE
1002
{
1070
    79
 70
     1
1070
   276
 70
     1
1070
   277
 70
     5
1002
}
  0
XRECORD
  5
155
102
{ACAD_REACTORS
330
14A
102
}
330
14A
100
AcDbXrecord
  1
{5F719058-2B28-11D4-A9E6-00A083372445}
  0
XRECORD
  5
14D
102
{ACAD_REACTORS
330
14A
102
}
330
14A
100
AcDbXrecord
  1

  0
XRECORD
  5
153
102
{ACAD_REACTORS
330
14A
102
}
330
14A
100
AcDbXrecord
 90
        1
  0
XRECORD
  5
14F
102
{ACAD_REACTORS
330
14A
102
}
330
14A
100
AcDbXrecord
340
B
  0
XRECORD
  5
152
102
{ACAD_REACTORS
330
14A
102
}
330
14A
100
AcDbXrecord
 90
    10781
  0
XRECORD
  5
150
102
{ACAD_REACTORS
330
14A
102
}
330
14A
100
AcDbXrecord
340
2F
  0
XRECORD
  5
151
102
{ACAD_REACTORS
330
14A
102
}
330
14A
100
AcDbXrecord
340
6
  0
XRECORD
  5
157
102
{ACAD_REACTORS
330
14A
102
}
330
14A
100
AcDbXrecord
 40
0.0
  0
XRECORD
  5
15B
102
{ACAD_REACTORS
330
14A
102
}
330
14A
100
AcDbXrecord
340
0
  0
XRECORD
  5
161
102
{ACAD_REACTORS
330
14A
102
}
330
14A
100
AcDbXrecord
 10
0.0
 20
0.0
 30
0.0
  0
XRECORD
  5
15D
102
{ACAD_REACTORS
330
14A
102
}
330
14A
100
AcDbXrecord
 10
0.0
 20
0.0
 30
0.0
  0
XRECORD
  5
160
102
{ACAD_REACTORS
330
14A
102
}
330
14A
100
AcDbXrecord
 10
0.0
 20
0.0
 30
0.0
  0
XRECORD
  5
15E
102
{ACAD_REACTORS
330
14A
102
}
330
14A
100
AcDbXrecord
 10
0.0
 20
0.0
 30
0.0
  0
XRECORD
  5
15F
102
{ACAD_REACTORS
330
14A
102
}
330
14A
100
AcDbXrecord
 10
0.0
 20
0.0
 30
0.0
  0
XRECORD
  5
15C
102
{ACAD_REACTORS
330
14A
102
}
330
14A
100
AcDbXrecord
 10
0.0
 20
0.0
 30
0.0
  0
XRECORD
  5
159
102
{ACAD_REACTORS
330
14A
102
}
330
14A
100
AcDbXrecord
340
0
  0
XRECORD
  5
15A
102
{ACAD_REACTORS
330
14A
102
}
330
14A
100
AcDbXrecord
 70
     0
  0
XRECORD
  5
14E
102
{ACAD_REACTORS
330
14A
102
}
330
14A
100
AcDbXrecord
  1

  0
XRECORD
  5
14B
102
{ACAD_REACTORS
330
14A
102
}
330
14A
100
AcDbXrecord
 90
        1
  0
XRECORD
  5
14C
102
{ACAD_REACTORS
330
14A
102
}
330
14A
100
AcDbXrecord
 90
       70
  0
XRECORD
  5
164
102
{ACAD_REACTORS
330
14A
102
}
330
14A
100
AcDbXrecord
340
0
  0
XRECORD
  5
16A
102
{ACAD_REACTORS
330
14A
102
}
330
14A
100
AcDbXrecord
 10
0.0
 20
0.0
 30
0.0
  0
XRECORD
  5
166
102
{ACAD_REACTORS
330
14A
102
}
330
14A
100
AcDbXrecord
 10
0.0
 20
0.0
 30
0.0
  0
XRECORD
  5
169
102
{ACAD_REACTORS
330
14A
102
}
330
14A
100
AcDbXrecord
 10
0.0
 20
0.0
 30
0.0
  0
XRECORD
  5
167
102
{ACAD_REACTORS
330
14A
102
}
330
14A
100
AcDbXrecord
 10
0.0
 20
0.0
 30
0.0
  0
XRECORD
  5
168
102
{ACAD_REACTORS
330
14A
102
}
330
14A
100
AcDbXrecord
 10
0.0
 20
0.0
 30
0.0
  0
XRECORD
  5
165
102
{ACAD_REACTORS
330
14A
102
}
330
14A
100
AcDbXrecord
 10
0.0
 20
0.0
 30
0.0
  0
XRECORD
  5
162
102
{ACAD_REACTORS
330
14A
102
}
330
14A
100
AcDbXrecord
340
0
  0
XRECORD
  5
163
102
{ACAD_REACTORS
330
14A
102
}
330
14A
100
AcDbXrecord
 70
     0
  0
XRECORD
  5
156
102
{ACAD_REACTORS
330
14A
102
}
330
14A
100
AcDbXrecord
  1
{8EEB58A6-DDFC-40CD-A88C-09BBB6B7E9AE}
  0
DICTIONARYVAR
  5
91
102
{ACAD_REACTORS
330
8F
102
}
330
8F
100
DictionaryVariables
280
     0
  1
1
  0
DICTIONARYVAR
  5
90
102
{ACAD_REACTORS
330
8F
102
}
330
8F
100
DictionaryVariables
280
     0
  1
1
  0
XRECORD
  5
13
102
{ACAD_REACTORS
330
12
102
}
330
12
100
AcDbXrecord
  1
DIM-1_12
  1
DIM-1_12
  1
*
  1
*
 70
     0
  1
*
  1
*
  0
XRECORD
  5
14
102
{ACAD_REACTORS
330
12
102
}
330
12
100
AcDbXrecord
  1
dim-1_16
  1
*
  1
*
  1
*
 70
     0
  1
*
  1
*
  0
ENDSEC
  0
EOF
