  0
SECTION
  2
HEADER
  9
$ACADVER
  1
AC1014
  9
$ACADMAINTVER
 70
     9
  9
$DWGCODEPAGE
  3
ANSI_1252
  9
$INSBASE
 10
61.01633505236861
 20
20.75163878276628
 30
0.0
  9
$EXTMIN
 10
3.023925379814386
 20
18.38140654010743
 30
-2.475230916496501
  9
$EXTMAX
 10
69.13298371342341
 20
41.11220422732379
 30
0.0000755415108866
  9
$LIMMIN
 10
0.0
 20
0.0
  9
$LIMMAX
 10
187.3118571637889
 20
134.3269220688476
  9
$ORTHOMODE
 70
     1
  9
$REGENMODE
 70
     1
  9
$FILLMODE
 70
     1
  9
$QTEXTMODE
 70
     0
  9
$MIRRTEXT
 70
     1
  9
$DRAGMODE
 70
     2
  9
$LTSCALE
 40
2.0
  9
$OSMODE
 70
    55
  9
$ATTMODE
 70
     1
  9
$TEXTSIZE
 40
0.08
  9
$TRACEWID
 40
1.0
  9
$TEXTSTYLE
  7
CARTOUCHE
  9
$CLAYER
  8
0
  9
$CELTYPE
  6
BYLAYER
  9
$CECOLOR
 62
   256
  9
$CELTSCALE
 40
0.1
  9
$DELOBJ
 70
     1
  9
$DISPSILH
 70
     0
  9
$DIMSCALE
 40
16.0
  9
$DIMASZ
 40
0.1
  9
$DIMEXO
 40
0.0625
  9
$DIMDLI
 40
0.25
  9
$DIMRND
 40
0.0
  9
$DIMDLE
 40
0.0
  9
$DIMEXE
 40
0.1
  9
$DIMTP
 40
0.0
  9
$DIMTM
 40
0.0
  9
$DIMTXT
 40
0.1
  9
$DIMCEN
 40
0.0625
  9
$DIMTSZ
 40
0.0
  9
$DIMTOL
 70
     0
  9
$DIMLIM
 70
     0
  9
$DIMTIH
 70
     1
  9
$DIMTOH
 70
     1
  9
$DIMSE1
 70
     0
  9
$DIMSE2
 70
     0
  9
$DIMTAD
 70
     0
  9
$DIMZIN
 70
    12
  9
$DIMBLK
  1

  9
$DIMASO
 70
     1
  9
$DIMSHO
 70
     1
  9
$DIMPOST
  1
\X
  9
$DIMAPOST
  1
cm
  9
$DIMALT
 70
     1
  9
$DIMALTD
 70
     1
  9
$DIMALTF
 40
2.54
  9
$DIMLFAC
 40
1.0
  9
$DIMTOFL
 70
     0
  9
$DIMTVP
 40
0.0
  9
$DIMTIX
 70
     0
  9
$DIMSOXD
 70
     0
  9
$DIMSAH
 70
     0
  9
$DIMBLK1
  1

  9
$DIMBLK2
  1

  9
$DIMSTYLE
  2
STANDARD
  9
$DIMCLRD
 70
     0
  9
$DIMCLRE
 70
     0
  9
$DIMCLRT
 70
     0
  9
$DIMTFAC
 40
1.0
  9
$DIMGAP
 40
0.08
  9
$DIMJUST
 70
     0
  9
$DIMSD1
 70
     0
  9
$DIMSD2
 70
     0
  9
$DIMTOLJ
 70
     1
  9
$DIMTZIN
 70
     4
  9
$DIMALTZ
 70
    12
  9
$DIMALTTZ
 70
     4
  9
$DIMFIT
 70
     3
  9
$DIMUPT
 70
     0
  9
$DIMUNIT
 70
     5
  9
$DIMDEC
 70
     3
  9
$DIMTDEC
 70
     3
  9
$DIMALTU
 70
     2
  9
$DIMALTTD
 70
     1
  9
$DIMTXSTY
  7
ROMANS
  9
$DIMAUNIT
 70
     0
  9
$LUNITS
 70
     2
  9
$LUPREC
 70
     2
  9
$SKETCHINC
 40
1.0
  9
$FILLETRAD
 40
0.125
  9
$AUNITS
 70
     0
  9
$AUPREC
 70
     0
  9
$MENU
  1
.
  9
$ELEVATION
 40
0.0
  9
$PELEVATION
 40
0.0
  9
$THICKNESS
 40
0.0
  9
$LIMCHECK
 70
     0
  9
$BLIPMODE
 70
     0
  9
$CHAMFERA
 40
10.0
  9
$CHAMFERB
 40
10.0
  9
$CHAMFERC
 40
20.0
  9
$CHAMFERD
 40
0.0
  9
$SKPOLY
 70
     0
  9
$TDCREATE
 40
2452053.367185764
  9
$TDUPDATE
 40
2453686.661097962
  9
$TDINDWG
 40
1.5360459491
  9
$TDUSRTIMER
 40
1.5360428241
  9
$USRTIMER
 70
     1
  9
$ANGBASE
 50
0.0
  9
$ANGDIR
 70
     0
  9
$PDMODE
 70
    33
  9
$PDSIZE
 40
0.25
  9
$PLINEWID
 40
0.0
  9
$COORDS
 70
     1
  9
$SPLFRAME
 70
     0
  9
$SPLINETYPE
 70
     6
  9
$SPLINESEGS
 70
     8
  9
$ATTDIA
 70
     0
  9
$ATTREQ
 70
     1
  9
$HANDLING
 70
 22529
  9
$HANDSEED
  5
152
  9
$SURFTAB1
 70
     6
  9
$SURFTAB2
 70
     6
  9
$SURFTYPE
 70
     6
  9
$SURFU
 70
     6
  9
$SURFV
 70
     6
  9
$UCSNAME
  2

  9
$UCSORG
 10
0.0
 20
0.0
 30
0.0
  9
$UCSXDIR
 10
1.0
 20
0.0
 30
0.0
  9
$UCSYDIR
 10
0.0
 20
1.0
 30
0.0
  9
$PUCSNAME
  2

  9
$PUCSORG
 10
0.0
 20
0.0
 30
0.0
  9
$PUCSXDIR
 10
1.0
 20
0.0
 30
0.0
  9
$PUCSYDIR
 10
0.0
 20
1.0
 30
0.0
  9
$USERI1
 70
     0
  9
$USERI2
 70
     0
  9
$USERI3
 70
     0
  9
$USERI4
 70
     0
  9
$USERI5
 70
     0
  9
$USERR1
 40
0.0
  9
$USERR2
 40
0.0
  9
$USERR3
 40
0.0
  9
$USERR4
 40
0.0
  9
$USERR5
 40
0.0
  9
$WORLDVIEW
 70
     1
  9
$SHADEDGE
 70
     3
  9
$SHADEDIF
 70
    70
  9
$TILEMODE
 70
     1
  9
$MAXACTVP
 70
    48
  9
$PINSBASE
 10
0.0
 20
0.0
 30
0.0
  9
$PLIMCHECK
 70
     0
  9
$PEXTMIN
 10
1.100416626517228
 20
0.7937499988736132
 30
0.0
  9
$PEXTMAX
 10
9.903749638655053
 20
7.143749989862516
 30
0.0
  9
$PLIMMIN
 10
-0.5312499849815068
 20
-0.1645829921632301
  9
$PLIMMAX
 10
11.15874981316994
 20
8.10208345022727
  9
$UNITMODE
 70
     0
  9
$VISRETAIN
 70
     1
  9
$PLINEGEN
 70
     0
  9
$PSLTSCALE
 70
     1
  9
$TREEDEPTH
 70
  3020
  9
$PICKSTYLE
 70
     1
  9
$CMLSTYLE
  2
STANDARD
  9
$CMLJUST
 70
     0
  9
$CMLSCALE
 40
20.0
  9
$PROXYGRAPHICS
 70
     1
  9
$MEASUREMENT
 70
     0
  0
ENDSEC
  0
SECTION
  2
CLASSES
  0
CLASS
  1
ACDBDICTIONARYWDFLT
  2
AcDbDictionaryWithDefault
  3
AutoCAD 2000
 90
        0
280
     0
281
     0
  0
CLASS
  1
ACDBPLACEHOLDER
  2
AcDbPlaceHolder
  3
AutoCAD 2000
 90
        0
280
     0
281
     0
  0
CLASS
  1
LAYOUT
  2
AcDbLayout
  3
AutoCAD 2000
 90
        0
280
     0
281
     0
  0
CLASS
  1
DICTIONARYVAR
  2
AcDbDictionaryVar
  3
AutoCAD 2000
 90
        0
280
     0
281
     0
  0
CLASS
  1
IMAGEDEF
  2
AcDbRasterImageDef
  3
ISM
 90
        0
280
     0
281
     0
  0
CLASS
  1
LONG_TRANSACTION
  2
AcDbLongTransaction
  3
AutoCAD 2000
 90
        0
280
     0
281
     0
  0
CLASS
  1
LWPOLYLINE
  2
AcDbPolyline
  3
AutoCAD 2000
 90
        0
280
     0
281
     1
  0
CLASS
  1
HATCH
  2
AcDbHatch
  3
AutoCAD 2000
 90
        0
280
     0
281
     1
  0
CLASS
  1
XRECORD
  2
AcDbXrecord
  3
AutoCAD 2000
 90
        0
280
     0
281
     0
  0
CLASS
  1
LONG_TRANSACTION
  2
AcDbLongTransaction
  3
AutoCAD 2000
 90
        0
280
     0
281
     0
  0
CLASS
  1
LWPOLYLINE
  2
AcDbPolyline
  3
AutoCAD 2000
 90
        0
280
     0
281
     1
  0
CLASS
  1
HATCH
  2
AcDbHatch
  3
AutoCAD 2000
 90
        0
280
     0
281
     1
  0
CLASS
  1
XRECORD
  2
AcDbXrecord
  3
AutoCAD 2000
 90
        0
280
     0
281
     0
  0
ENDSEC
  0
SECTION
  2
TABLES
  0
TABLE
  2
VPORT
  5
1D
330
0
100
AcDbSymbolTable
 70
     3
  0
VPORT
  5
12E
330
1D
100
AcDbSymbolTableRecord
100
AcDbViewportTableRecord
  2
*ACTIVE
 70
     0
 10
0.0
 20
0.0
 11
1.0
 21
1.0
 12
36.07845448526699
 22
29.74680529269837
 13
0.0
 23
0.0
 14
10.0
 24
10.0
 15
10.0
 25
10.0
 16
0.0
 26
0.0
 36
1.0
 17
0.0
 27
0.0
 37
0.0
 40
44.67925050833519
 41
1.786792452830188
 42
50.0
 43
0.0
 44
0.0
 50
0.0
 51
0.0
 71
     0
 72
   100
 73
     1
 74
     3
 75
     0
 76
     0
 77
     0
 78
     0
  0
ENDTAB
  0
TABLE
  2
LTYPE
  5
18
330
0
100
AcDbSymbolTable
 70
     3
  0
LTYPE
  5
19
330
18
100
AcDbSymbolTableRecord
100
AcDbLinetypeTableRecord
  2
BYBLOCK
 70
     0
  3

 72
    65
 73
     0
 40
0.0
  0
LTYPE
  5
1A
330
18
100
AcDbSymbolTableRecord
100
AcDbLinetypeTableRecord
  2
BYLAYER
 70
     0
  3

 72
    65
 73
     0
 40
0.0
  0
LTYPE
  5
8
330
18
100
AcDbSymbolTableRecord
100
AcDbLinetypeTableRecord
  2
CONTINUOUS
 70
     0
  3
Solid line
 72
    65
 73
     0
 40
0.0
  0
LTYPE
  5
4C
330
18
100
AcDbSymbolTableRecord
100
AcDbLinetypeTableRecord
  2
CENTER
 70
     0
  3
Center ____ _ ____ _ ____ _ ____ _ ____ _ ____
 72
    65
 73
     4
 40
50.8
 49
31.75
 74
     0
 49
-6.349999999999999
 74
     0
 49
6.349999999999999
 74
     0
 49
-6.349999999999999
 74
     0
  0
LTYPE
  5
2D
330
18
100
AcDbSymbolTableRecord
100
AcDbLinetypeTableRecord
  2
HIDDEN
 70
     0
  3
Hidden __ __ __ __ __ __ __ __ __ __ __ __ __ _
 72
    65
 73
     2
 40
0.375
 49
0.25
 74
     0
 49
-0.125
 74
     0
  0
ENDTAB
  0
TABLE
  2
LAYER
  5
10
102
{ACAD_XDICTIONARY
360
11
102
}
330
0
100
AcDbSymbolTable
 70
     2
  0
LAYER
  5
4
330
10
100
AcDbSymbolTableRecord
100
AcDbLayerTableRecord
  2
0
 70
     0
 62
     7
  6
CONTINUOUS
  0
LAYER
  5
4B
330
10
100
AcDbSymbolTableRecord
100
AcDbLayerTableRecord
  2
CENTER
 70
     0
 62
     1
  6
CENTER
  0
ENDTAB
  0
TABLE
  2
STYLE
  5
15
330
0
100
AcDbSymbolTable
 70
     3
  0
STYLE
  5
16
330
15
100
AcDbSymbolTableRecord
100
AcDbTextStyleTableRecord
  2
STANDARD
 70
     0
 40
0.0
 41
1.0
 50
0.0
 71
     0
 42
0.125
  3
txt
  4

  0
STYLE
  5
2A
330
15
100
AcDbSymbolTableRecord
100
AcDbTextStyleTableRecord
  2
CARTOUCHE
 70
     0
 40
0.0
 41
1.0
 50
0.0
 71
     0
 42
0.08
  3
romans.shx
  4

  0
STYLE
  5
23
330
15
100
AcDbSymbolTableRecord
100
AcDbTextStyleTableRecord
  2
ROMANS
 70
     0
 40
0.0
 41
1.0
 50
0.0
 71
     0
 42
1.0
  3
romans.shx
  4

  0
ENDTAB
  0
TABLE
  2
VIEW
  5
1B
330
0
100
AcDbSymbolTable
 70
     0
  0
ENDTAB
  0
TABLE
  2
UCS
  5
1C
330
0
100
AcDbSymbolTable
 70
     0
  0
ENDTAB
  0
TABLE
  2
APPID
  5
1F
330
0
100
AcDbSymbolTable
 70
     3
  0
APPID
  5
20
330
1F
100
AcDbSymbolTableRecord
100
AcDbRegAppTableRecord
  2
ACAD
 70
     0
  0
APPID
  5
7A
330
1F
100
AcDbSymbolTableRecord
100
AcDbRegAppTableRecord
  2
DCO15
 70
     0
  0
ENDTAB
  0
TABLE
  2
DIMSTYLE
  5
21
330
0
100
AcDbSymbolTable
 70
     1
  0
DIMSTYLE
105
22
330
21
100
AcDbSymbolTableRecord
100
AcDbDimStyleTableRecord
  2
STANDARD
 70
     0
  3
\X
  4
cm
  5

  6

  7

 40
16.0
 41
0.1
 42
0.0625
 43
0.25
 44
0.1
 45
0.0
 46
0.0
 47
0.0
 48
0.0
140
0.1
141
0.0625
142
0.0
143
2.54
144
1.0
145
0.0
146
1.0
147
0.08
 71
     0
 72
     0
 73
     1
 74
     1
 75
     0
 76
     0
 77
     0
 78
    12
170
     1
171
     1
172
     0
173
     0
174
     0
175
     0
176
     0
177
     0
178
     0
270
     5
271
     3
272
     3
273
     2
274
     1
340
23
275
     0
280
     0
281
     0
282
     0
283
     1
284
     4
285
    12
286
     4
287
     3
288
     0
  0
ENDTAB
  0
TABLE
  2
BLOCK_RECORD
  5
1
330
0
100
AcDbSymbolTable
 70
     0
  0
BLOCK_RECORD
  5
2
102
{ACAD_XDICTIONARY
360
93
102
}
330
1
100
AcDbSymbolTableRecord
100
AcDbBlockTableRecord
  2
*MODEL_SPACE
  0
BLOCK_RECORD
  5
81
102
{ACAD_XDICTIONARY
360
95
102
}
330
1
100
AcDbSymbolTableRecord
100
AcDbBlockTableRecord
  2
*PAPER_SPACE
  0
ENDTAB
  0
ENDSEC
  0
SECTION
  2
BLOCKS
  0
BLOCK
  5
3
330
2
100
AcDbEntity
  8
0
100
AcDbBlockBegin
  2
*MODEL_SPACE
 70
     0
 10
0.0
 20
0.0
 30
0.0
  3
*MODEL_SPACE
  1

  0
ENDBLK
  5
9
330
2
100
AcDbEntity
  8
0
100
AcDbBlockEnd
  0
BLOCK
  5
83
330
81
100
AcDbEntity
 67
     1
  8
0
 48
0.1
100
AcDbBlockBegin
  2
*PAPER_SPACE
 70
     0
 10
0.0
 20
0.0
 30
0.0
  3
*PAPER_SPACE
  1

  0
ENDBLK
  5
84
330
81
100
AcDbEntity
 67
     1
  8
0
 48
0.1
100
AcDbBlockEnd
  0
ENDSEC
  0
SECTION
  2
ENTITIES
  0
ARC
  5
2C
330
2
100
AcDbEntity
  8
0
  6
HIDDEN
 48
2.0
100
AcDbCircle
 10
-12.67856346731647
 20
2.753438762273737
 30
53.44827545747389
 40
0.5
210
0.571081995442325
220
0.8164971542170919
230
-0.0848395641019135
100
AcDbArc
 50
88.9066345756567
 51
178.9066345756571
  0
ARC
  5
2E
330
2
100
AcDbEntity
  8
0
  6
HIDDEN
 48
2.0
100
AcDbCircle
 10
-12.67856346731647
 20
2.753438762273737
 30
53.44827545747389
 40
0.5
210
0.571081995442325
220
0.8164971542170919
230
-0.0848395641019135
100
AcDbArc
 50
88.9066345756567
 51
178.9066345756571
  0
ARC
  5
2F
330
2
100
AcDbEntity
  8
0
  6
HIDDEN
 48
2.0
100
AcDbCircle
 10
-12.49109760574332
 20
2.749860949444759
 30
53.44827545747389
 40
0.5
210
0.571081995442325
220
0.8164971542170919
230
-0.0848395641019135
100
AcDbArc
 50
358.9066345756581
 51
88.90663457565761
  0
ARC
  5
30
330
2
100
AcDbEntity
  8
0
  6
HIDDEN
 48
2.0
100
AcDbCircle
 10
-12.49109760574332
 20
2.749860949444759
 30
53.44827545747389
 40
0.5
210
0.571081995442325
220
0.8164971542170919
230
-0.0848395641019135
100
AcDbArc
 50
358.9066345756581
 51
88.90663457565761
  0
LINE
  5
31
330
2
100
AcDbEntity
  8
0
  6
HIDDEN
 48
2.0
100
AcDbLine
 10
40.48279621286367
 20
36.95814640174055
 30
-1.804088158715524
 11
38.07386379140906
 21
33.51400618629649
 31
-1.446218749036653
210
0.0329803045348973
220
0.0804458852003877
230
0.9962132096429517
  0
LINE
  5
32
330
2
100
AcDbEntity
  8
0
  6
HIDDEN
 48
2.0
100
AcDbLine
 10
41.45681962820876
 20
36.27923191524795
 30
-1.781510373396729
 11
39.52273985955081
 21
33.51400618629649
 31
-1.494184760225926
  0
ARC
  5
33
330
2
100
AcDbEntity
  8
0
  6
HIDDEN
 48
2.0
100
AcDbCircle
 10
54.50739677986031
 20
-1.620053564249909
 30
13.22879526633443
 40
0.5000000000000001
210
0.8202302445011383
220
-0.5717174623095897
230
0.0190128718474049
100
AcDbArc
 50
265.13231874579
 51
355.1323187457899
  0
ARC
  5
34
330
2
100
AcDbEntity
  8
0
  6
HIDDEN
 48
2.0
100
AcDbCircle
 10
54.50739677986031
 20
-1.620053564249909
 30
13.22879526633443
 40
0.5000000000000001
210
0.8202302445011383
220
-0.5717174623095897
230
0.0190128718474049
100
AcDbArc
 50
265.13231874579
 51
355.1323187457899
  0
LINE
  5
35
330
2
100
AcDbEntity
  8
0
  6
HIDDEN
 48
2.0
100
AcDbLine
 10
38.69555982319977
 20
33.5140061862965
 30
-1.968701004259055
 11
40.90940148738181
 21
36.71251061318587
 31
-1.296475117970356
  0
ARC
  5
36
330
2
100
AcDbEntity
  8
0
  6
HIDDEN
 48
2.0
100
AcDbCircle
 10
-12.67856346731646
 20
2.753438762273734
 30
54.44827545747395
 40
0.5
210
0.571081995442325
220
0.8164971542170919
230
-0.0848395641019135
100
AcDbArc
 50
178.9066345756575
 51
268.9066345756575
  0
ARC
  5
37
330
2
100
AcDbEntity
  8
0
  6
HIDDEN
 48
2.0
100
AcDbCircle
 10
-12.49109760574329
 20
2.749860949444763
 30
54.44827545747394
 40
0.5
210
0.571081995442325
220
0.8164971542170919
230
-0.0848395641019135
100
AcDbArc
 50
272.2081784895243
 51
358.9066345756573
  0
LINE
  5
38
330
2
100
AcDbEntity
  8
0
  6
HIDDEN
 48
2.0
100
AcDbLine
 10
41.45681962820877
 20
36.27923191524796
 30
-1.78151037339673
 11
42.0279016236511
 21
37.09572906946505
 31
-1.866349937498649
  0
LINE
  5
39
330
2
100
AcDbEntity
  8
0
  6
HIDDEN
 48
2.0
100
AcDbLine
 10
41.45681962820877
 20
36.27923191524796
 30
-1.78151037339673
 11
42.0279016236511
 21
37.09572906946505
 31
-1.866349937498649
210
0.8202302445011383
220
-0.5717174623095897
230
0.0190128718474049
  0
ARC
  5
3A
330
2
100
AcDbEntity
  8
0
  6
HIDDEN
 48
2.0
100
AcDbCircle
 10
54.50739677986034
 20
-1.620053564249918
 30
12.04129526633444
 40
0.5000000000000001
210
0.8202302445011383
220
-0.5717174623095897
230
0.0190128718474049
100
AcDbArc
 50
265.13231874579
 51
332.9560743478523
  0
LINE
  5
3B
330
2
100
AcDbEntity
  8
0
  6
HIDDEN
 48
2.0
100
AcDbLine
 10
41.053878208306
 20
37.77464355595768
 30
-1.888927722817444
 11
40.48279621286366
 21
36.95814640174056
 31
-1.804088158715525
  0
LINE
  5
3C
330
2
100
AcDbEntity
  8
0
 48
0.1
100
AcDbLine
 10
62.92219468141253
 20
21.52276470944369
 30
0.0
 11
16.76997879613658
 21
22.31873404217383
 31
0.0
  0
LINE
  5
3D
330
2
100
AcDbEntity
  8
0
 48
0.1
100
AcDbLine
 10
59.43760031605981
 20
20.75163878276628
 30
0.0
 11
18.02459068982104
 21
20.75163878276628
 31
0.0
  0
LINE
  5
3E
330
2
100
AcDbEntity
  8
0
100
AcDbLine
 10
3.641335052368702
 20
41.00163878276627
 30
0.0
 11
68.5163350523687
 21
41.00163878276627
 31
0.0
  0
LINE
  5
3F
330
2
100
AcDbEntity
  8
0
100
AcDbLine
 10
3.141335052368702
 20
39.50163878276628
 30
0.0
 11
69.0163350523687
 21
39.50163878276628
 31
0.0
  0
SPLINE
  5
40
330
2
100
AcDbEntity
  8
0
 48
0.1
100
AcDbSpline
210
0.0
220
0.0
230
1.0
 70
     8
 71
     3
 72
    10
 73
     6
 74
     4
 42
0.0000000001
 43
0.0000000001
 44
0.0000000001
 12
0.0
 22
1.0
 32
0.0
 40
0.0
 40
0.0
 40
0.0
 40
0.0
 40
0.6453719210465307
 40
8.211798426015009
 40
10.16078118633712
 40
10.16078118633712
 40
10.16078118633712
 40
10.16078118633712
 10
18.72656551874926
 20
28.50163878276628
 30
0.0
 10
18.72656551874926
 20
28.71676275644846
 30
0.0
 10
19.93452445968921
 20
31.28537816081043
 30
0.0
 10
23.29173734036435
 20
33.46356484855084
 30
0.0
 10
26.46076026615016
 20
33.49516609400635
 30
0.0
 10
27.10985174264099
 20
33.50163878276627
 30
0.0
 11
18.72656551874926
 21
28.50163878276628
 31
0.0
 11
18.92573193514931
 21
29.11550982382755
 31
0.0
 11
25.16362809233452
 21
33.39796958280527
 31
0.0
 11
27.10985174264099
 21
33.50163878276627
 31
0.0
  0
LWPOLYLINE
  5
41
330
2
100
AcDbEntity
  8
0
 48
0.1
100
AcDbPolyline
 90
        2
 70
     0
 43
0.0
 10
18.72656551874926
 20
28.50163878276628
 42
-0.232214910209461
 10
26.27410446115959
 20
32.61167410589312
 42
-0.232214910209461
  0
LINE
  5
42
330
2
100
AcDbEntity
  8
0
 48
0.1
100
AcDbLine
 10
7.112280545637147
 20
39.50163878276627
 30
0.0
 11
14.08169964252063
 21
24.09806719841561
 31
0.0
  0
ARC
  5
43
330
2
100
AcDbEntity
  8
0
 48
0.1
100
AcDbCircle
 10
18.02459068982104
 20
21.75163878276628
 30
0.0
 40
1.0
100
AcDbArc
 50
203.9999999999999
 51
270.0
  0
ARC
  5
44
330
2
100
AcDbEntity
  8
0
 48
0.1
100
AcDbCircle
 10
16.82233601544843
 20
25.318277127643
 30
0.0
 40
3.0
100
AcDbArc
 50
203.9999999999999
 51
269.0
  0
LINE
  5
45
330
2
100
AcDbEntity
  8
0
 48
0.1
100
AcDbLine
 10
16.67608257642578
 20
22.32184425978595
 30
0.0
 11
17.11104523217843
 21
21.34490213969048
 31
0.0
  0
ARC
  5
46
330
2
100
AcDbEntity
  8
0
100
AcDbCircle
 10
3.641335052368702
 20
40.50163878276627
 30
0.0
 40
0.5
100
AcDbArc
 50
89.99999999999998
 51
180.0
  0
LINE
  5
47
330
2
100
AcDbEntity
  8
0
100
AcDbLine
 10
3.141335052368702
 20
40.50163878276627
 30
0.0
 11
3.141335052368702
 21
39.50163878276628
 31
0.0
  0
LINE
  5
48
330
2
100
AcDbEntity
  8
0
 48
0.1
100
AcDbLine
 10
64.93038797325084
 20
23.33482698589926
 30
0.0
 11
65.82924355933667
 21
32.61167410589312
 31
0.0
  0
LINE
  5
49
330
2
100
AcDbEntity
  8
0
 48
0.1
100
AcDbLine
 10
60.11808295460586
 20
21.0303816591657
 30
0.0
 11
62.23096618637712
 21
21.01238328620544
 31
0.0
  0
ARC
  5
4D
330
2
100
AcDbEntity
  8
0
 48
0.5
100
AcDbCircle
 10
59.43751347856777
 20
21.72183827683764
 30
0.0
 40
0.9701994979575433
100
AcDbArc
 50
270.0051282454913
 51
349.4573599926005
  0
ARC
  5
4E
330
2
100
AcDbEntity
  8
0
 48
0.1
100
AcDbCircle
 10
62.93923085238193
 20
23.52269215034716
 30
0.0
 40
2.0
100
AcDbArc
 50
269.5119437500271
 51
354.61011344995
  0
LINE
  5
4F
330
2
100
AcDbEntity
  8
0
 48
0.1
100
AcDbLine
 10
62.46764542624965
 20
21.18217360841278
 30
0.0
 11
62.58579379017514
 21
21.53095430153502
 31
0.0
  0
ARC
  5
50
330
2
100
AcDbEntity
  8
0
 48
0.1
100
AcDbCircle
 10
62.23086195749838
 20
21.26238326447813
 30
0.0
 40
0.25
100
AcDbArc
 50
268.9999999999999
 51
341.2863510996626
  0
LINE
  5
51
330
2
100
AcDbEntity
  8
0
  6
HIDDEN
 48
2.0
100
AcDbLine
 10
41.66725695820288
 20
37.50225662842042
 30
-0.3815365589579213
 11
41.67962457240345
 21
37.53242383537055
 31
-0.0079566053418131
210
-0.5710819954423246
220
-0.8164971542170903
230
0.0848395641019324
  0
LINE
  5
52
330
2
100
AcDbEntity
  8
0
  6
HIDDEN
 48
2.0
100
AcDbLine
 10
41.52583140155952
 20
37.63962085955361
 30
-0.0115215188132066
 11
41.51346378735891
 21
37.60945365260344
 31
-0.3851014724293077
210
-0.5710819954423246
220
-0.8164971542170903
230
0.0848395641019324
  0
LINE
  5
53
330
2
100
AcDbEntity
  8
0
  6
HIDDEN
 48
2.0
100
AcDbLine
 10
41.66725695820288
 20
37.50225662842042
 30
-0.3815365589579213
 11
41.67962457240345
 21
37.53242383537055
 31
-0.0079566053418131
  0
LINE
  5
54
330
2
100
AcDbEntity
  8
0
  6
HIDDEN
 48
2.0
100
AcDbLine
 10
41.52583140155952
 20
37.63962085955361
 30
-0.0115215188132066
 11
41.51346378735891
 21
37.60945365260344
 31
-0.3851014724293077
  0
ARC
  5
55
330
2
100
AcDbEntity
  8
0
  6
HIDDEN
 48
2.0
100
AcDbCircle
 10
53.59585836373709
 20
-0.5388053430113182
 30
12.72879526633443
 40
1.0
210
0.8202302445011383
220
-0.5717174623095897
230
0.0190128718474049
100
AcDbArc
 50
265.1323187457909
 51
355.1323187457907
  0
LINE
  5
56
330
2
100
AcDbEntity
  8
0
  6
HIDDEN
 48
2.0
100
AcDbLine
 10
42.32993277363974
 20
37.54420058917379
 30
-1.410663114728133
 11
42.3629130781746
 21
37.62464647437415
 31
-0.4144499050851733
210
0.8202302445011383
220
-0.5717174623095897
230
0.0190128718474049
  0
LINE
  5
57
330
2
100
AcDbEntity
  8
0
  6
HIDDEN
 48
2.0
100
AcDbLine
 10
42.32993277363974
 20
37.54420058917379
 30
-1.410663114728133
 11
42.3629130781746
 21
37.62464647437415
 31
-0.4144499050851733
  0
ARC
  5
58
330
2
100
AcDbEntity
  8
0
  6
HIDDEN
 48
2.0
100
AcDbCircle
 10
53.59585836373709
 20
-0.5388053430113182
 30
12.72879526633443
 40
1.0
210
0.8202302445011383
220
-0.5717174623095897
230
0.0190128718474049
100
AcDbArc
 50
265.1323187457909
 51
355.1323187457907
  0
ARC
  5
59
330
2
100
AcDbEntity
  8
0
  6
HIDDEN
 48
2.0
100
AcDbCircle
 10
53.59585836373708
 20
-0.5388053430113278
 30
12.5412952663346
 40
1.0
210
0.8202302445011383
220
-0.5717174623095897
230
0.0190128718474049
100
AcDbArc
 50
265.1323187457909
 51
355.1323187457907
  0
LINE
  5
5A
330
2
100
AcDbEntity
  8
0
  6
HIDDEN
 48
2.0
100
AcDbLine
 10
38.90104382776014
 20
33.51400618629649
 30
-0.971702505003537
 11
41.06319465822566
 21
36.60531358900294
 31
-1.292910204498961
  0
LINE
  5
5B
330
2
100
AcDbEntity
  8
0
 48
0.1
100
AcDbLine
 10
66.10712728362121
 20
33.50163878276628
 30
0.0
 11
27.10985174264099
 21
33.50163878276627
 31
0.0
  0
LINE
  5
5C
330
2
100
AcDbEntity
  8
0
 48
0.1
100
AcDbLine
 10
65.82965979879981
 20
32.61608577089475
 30
0.0
 11
26.27410446115959
 21
32.61167410589312
 31
0.0
  0
ARC
  5
5D
330
2
100
AcDbEntity
  8
0
  6
HIDDEN
 48
2.0
100
AcDbCircle
 10
-24.43679287316787
 20
-50.83481443613797
 30
4.386009295104837
 40
0.5000000000000001
210
0.0329803045348943
220
0.0804458852003833
230
0.996213209642952
100
AcDbArc
 50
77.36849807834243
 51
257.3684980783434
  0
ARC
  5
5E
330
2
100
AcDbEntity
  8
0
  6
HIDDEN
 48
2.0
100
AcDbCircle
 10
-24.25383099630332
 20
-50.87581689477399
 30
4.386009295104845
 40
0.5000000000000001
210
0.0329803045348943
220
0.0804458852003833
230
0.996213209642952
100
AcDbArc
 50
257.3684980783403
 51
77.36849807834345
  0
ARC
  5
5F
330
2
100
AcDbEntity
  8
0
  6
HIDDEN
 48
2.0
100
AcDbCircle
 10
-24.43679287316787
 20
-50.83481443613797
 30
4.386009295104837
 40
0.5000000000000001
210
0.0329803045348943
220
0.0804458852003833
230
0.996213209642952
100
AcDbArc
 50
77.36849807834243
 51
257.3684980783434
  0
ARC
  5
60
330
2
100
AcDbEntity
  8
0
  6
HIDDEN
 48
2.0
100
AcDbCircle
 10
-24.25383099630332
 20
-50.87581689477399
 30
4.386009295104845
 40
0.5000000000000001
210
0.0329803045348943
220
0.0804458852003833
230
0.996213209642952
100
AcDbArc
 50
257.3684980783403
 51
77.36849807834345
  0
LINE
  5
61
330
2
100
AcDbEntity
  8
0
  6
HIDDEN
 48
2.0
100
AcDbLine
 10
42.25070656784578
 20
38.34892098958766
 30
-0.0927961694437326
 11
42.09691339700185
 21
38.45611801377071
 31
-0.096361082915119
210
0.0329803045348943
220
0.0804458852003833
230
0.996213209642952
  0
LINE
  5
62
330
2
100
AcDbEntity
  8
0
  6
HIDDEN
 48
2.0
100
AcDbLine
 10
41.67962457240345
 20
37.53242383537055
 30
-0.0079566053418131
 11
41.52583140155952
 21
37.63962085955361
 31
-0.0115215188132066
210
-0.5710819954423246
220
-0.8164971542170903
230
0.0848395641019324
  0
LINE
  5
63
330
2
100
AcDbEntity
  8
0
  6
HIDDEN
 48
2.0
100
AcDbLine
 10
41.67962457240345
 20
37.53242383537055
 30
-0.0079566053418131
 11
41.52583140155952
 21
37.63962085955361
 31
-0.0115215188132066
210
0.0329803045348943
220
0.0804458852003833
230
0.996213209642952
  0
CIRCLE
  5
64
330
2
100
AcDbEntity
  8
0
  6
HIDDEN
 48
2.0
100
AcDbCircle
 10
-24.34506798556554
 20
-50.85537033540134
 30
4.386009295105136
 40
0.234375
210
0.0329803045348977
220
0.0804458852003874
230
0.9962132096429517
  0
CIRCLE
  5
65
330
2
100
AcDbEntity
  8
0
  6
HIDDEN
 48
2.0
100
AcDbCircle
 10
-24.34506798556554
 20
-50.85537033540134
 30
4.386009295105136
 40
0.234375
210
0.0329803045348977
220
0.0804458852003874
230
0.9962132096429517
  0
CIRCLE
  5
66
330
2
100
AcDbEntity
  8
0
  6
HIDDEN
 48
2.0
100
AcDbCircle
 10
-24.3450679855655
 20
-50.85537033540127
 30
4.386009295105135
 40
0.125
210
0.0329803045348978
220
0.0804458852003874
230
0.9962132096429517
  0
CIRCLE
  5
67
330
2
100
AcDbEntity
  8
0
  6
HIDDEN
 48
2.0
100
AcDbCircle
 10
-24.3450679855655
 20
-50.85537033540127
 30
4.386009295105135
 40
0.125
210
0.0329803045348978
220
0.0804458852003874
230
0.9962132096429517
  0
LINE
  5
68
330
2
100
AcDbEntity
  8
0
 48
0.1
100
AcDbLine
 10
66.10712728362121
 20
33.50163878276628
 30
0.0
 11
66.43546790085152
 21
39.50163878276628
 31
0.0
  0
SPLINE
  5
69
330
2
100
AcDbEntity
  8
0
 48
0.1
100
AcDbSpline
210
0.0
220
0.0
230
1.0
 70
     8
 71
     3
 72
     9
 73
     5
 74
     3
 42
0.0000000001
 43
0.0000000001
 44
0.0000000001
 40
0.0
 40
0.0
 40
0.0
 40
0.0
 40
0.8408032593858466
 40
0.9385125756792614
 40
0.9385125756792614
 40
0.9385125756792614
 40
0.9385125756792614
 10
66.10706472137429
 20
33.50049553864173
 30
0.0
 10
66.0803721168361
 20
33.20675678381455
 30
0.0
 10
66.0505775783908
 20
32.87888279867914
 30
0.0
 10
65.85011398857756
 20
32.63687023317247
 30
0.0
 10
65.82924355933667
 20
32.61167410589312
 30
0.0
 11
66.10706472137429
 21
33.50049553864173
 31
0.0
 11
65.89000495439336
 21
32.68819314510096
 31
0.0
 11
65.82924355933667
 21
32.61167410589312
 31
0.0
  0
LINE
  5
6A
330
2
100
AcDbEntity
  8
CENTER
 48
0.05
100
AcDbLine
 10
63.649795637501
 20
36.75163878276627
 30
0.0
 11
68.92016126507425
 21
36.75163878276627
 31
0.0
  0
ARC
  5
6B
330
2
100
AcDbEntity
  8
0
100
AcDbCircle
 10
68.5163350523687
 20
40.50163878276626
 30
0.0
 40
0.5
100
AcDbArc
 50
0.0
 51
90.0
  0
LINE
  5
6C
330
2
100
AcDbEntity
  8
0
100
AcDbLine
 10
69.0163350523687
 20
40.50163878276626
 30
0.0
 11
69.0163350523687
 21
39.50163878276628
 31
0.0
  0
LINE
  5
77
330
2
100
AcDbEntity
  8
CENTER
 48
0.05
100
AcDbLine
 10
61.0163350523687
 20
18.38754717962445
 30
0.0
 11
61.0163350523687
 21
23.65791280719771
 31
0.0
  0
VIEWPORT
  5
89
330
81
100
AcDbEntity
 67
     1
  8
0
 48
0.1
100
AcDbViewport
 10
5.313749914094218
 20
3.96875022903202
 30
0.0
 40
15.25338497598259
 41
8.746133096049151
 68
     1
 69
     1
1001
ACAD
1000
MVIEW
1002
{
1070
    16
1010
0.0
1020
0.0
1030
0.0
1010
0.0
1020
0.0
1030
1.0
1040
0.0
1040
8.746133096049151
1040
5.313749914094218
1040
3.96875022903202
1040
50.0
1040
0.0
1040
0.0
1070
     0
1070
   100
1070
     1
1070
     1
1070
     0
1070
     0
1070
     0
1070
     0
1040
0.0
1040
0.0
1040
0.0
1040
10.0
1040
10.0
1040
10.0
1040
10.0
1070
     0
1002
{
1002
}
1002
}
  0
ENDSEC
  0
SECTION
  2
OBJECTS
  0
DICTIONARY
  5
7
330
0
100
AcDbDictionary
  3
ACAD_GROUP
350
27
  3
ACAD_LAYOUT
350
B
  3
ACAD_MLINESTYLE
350
28
  3
ACAD_PLOTSETTINGS
350
29
  3
ACAD_PLOTSTYLENAME
350
6
  3
ACDBHEADERROUNDTRIPXREC
350
12F
  3
ACDBVARIABLEDICTIONARY
350
6D
  0
DICTIONARY
  5
11
330
10
100
AcDbDictionary
280
     1
  3
ACAD_LAYERFILTERS
360
12
  0
DICTIONARY
  5
93
330
2
100
AcDbDictionary
280
     1
  3
ACAD_LAYOUTSELFREF
360
150
  0
DICTIONARY
  5
95
330
81
100
AcDbDictionary
280
     1
  3
ACAD_LAYOUTSELFREF
360
151
  0
DICTIONARY
  5
27
102
{ACAD_REACTORS
330
7
102
}
330
7
100
AcDbDictionary
  0
DICTIONARY
  5
B
102
{ACAD_REACTORS
330
7
102
}
330
7
100
AcDbDictionary
  0
DICTIONARY
  5
28
102
{ACAD_REACTORS
330
7
102
}
330
7
100
AcDbDictionary
  3
STANDARD
350
2B
  0
DICTIONARY
  5
29
102
{ACAD_REACTORS
330
7
102
}
330
7
100
AcDbDictionary
  0
ACDBDICTIONARYWDFLT
  5
6
102
{ACAD_REACTORS
330
7
102
}
330
7
100
AcDbDictionary
281
     1
  3
Normal
350
5
100
AcDbDictionaryWithDefault
340
5
  0
DICTIONARY
  5
12F
102
{ACAD_REACTORS
330
7
102
}
330
7
100
AcDbDictionary
  3
CEPSNTYPE
350
139
  3
DIMSTYLEDATA
350
13D
  3
FINGERPRINTGUID
350
13A
  3
HYPERLINKBASE
350
132
  3
INSUNITS
350
138
  3
LAYOUTDICT
350
134
  3
LWETCUNION
350
137
  3
PLOTSETDICT
350
135
  3
PLOTSTYLNAMDICT
350
136
  3
PSVPSCALE
350
13C
  3
PUCSBASE
350
140
  3
PUCSORGBACK
350
146
  3
PUCSORGBOTTOM
350
142
  3
PUCSORGFRONT
350
145
  3
PUCSORGLEFT
350
143
  3
PUCSORGRIGHT
350
144
  3
PUCSORGTOP
350
141
  3
PUCSORTHOREF
350
13E
  3
PUCSORTHOVIEW
350
13F
  3
STYLESHEET
350
133
  3
TSTACKALIGN
350
130
  3
TSTACKSIZE
350
131
  3
UCSBASE
350
149
  3
UCSORGBACK
350
14F
  3
UCSORGBOTTOM
350
14B
  3
UCSORGFRONT
350
14E
  3
UCSORGLEFT
350
14C
  3
UCSORGRIGHT
350
14D
  3
UCSORGTOP
350
14A
  3
UCSORTHOREF
350
147
  3
UCSORTHOVIEW
350
148
  3
VERSIONGUID
350
13B
  0
DICTIONARY
  5
6D
102
{ACAD_REACTORS
330
7
102
}
330
7
100
AcDbDictionary
  3
DIMASSOC
350
6F
  3
HIDETEXT
350
6E
  0
DICTIONARY
  5
12
102
{ACAD_REACTORS
330
11
102
}
330
11
100
AcDbDictionary
280
     1
  3
DIM-1_12
360
13
  3
DIM-1_16
360
14
  0
XRECORD
  5
150
102
{ACAD_REACTORS
330
93
102
}
330
93
100
AcDbXrecord
340
2
  0
XRECORD
  5
151
102
{ACAD_REACTORS
330
95
102
}
330
95
100
AcDbXrecord
340
81
  0
MLINESTYLE
  5
2B
102
{ACAD_REACTORS
330
28
102
}
330
28
100
AcDbMlineStyle
  2
STANDARD
 70
     0
  3

 62
   256
 51
90.0
 52
90.0
 71
     2
 49
0.5
 62
   256
  6
BYLAYER
 49
-0.5
 62
   256
  6
BYLAYER
  0
ACDBPLACEHOLDER
  5
5
102
{ACAD_REACTORS
330
6
102
}
330
6
100
AcDbPlaceHolder
280
     0
  0
XRECORD
  5
139
102
{ACAD_REACTORS
330
12F
102
}
330
12F
100
AcDbXrecord
 90
        0
  0
XRECORD
  5
13D
102
{ACAD_REACTORS
330
12F
102
}
330
12F
100
AcDbXrecord
1000
DSTYLE
1002
{
1070
    79
 70
     1
1070
   276
 70
     1
1070
   277
 70
     5
1002
}
  0
XRECORD
  5
13A
102
{ACAD_REACTORS
330
12F
102
}
330
12F
100
AcDbXrecord
  1
{6A4AC8E0-4F58-11D5-8420-0003476D26AB}
  0
XRECORD
  5
132
102
{ACAD_REACTORS
330
12F
102
}
330
12F
100
AcDbXrecord
  1

  0
XRECORD
  5
138
102
{ACAD_REACTORS
330
12F
102
}
330
12F
100
AcDbXrecord
 90
        1
  0
XRECORD
  5
134
102
{ACAD_REACTORS
330
12F
102
}
330
12F
100
AcDbXrecord
340
B
  0
XRECORD
  5
137
102
{ACAD_REACTORS
330
12F
102
}
330
12F
100
AcDbXrecord
 90
    10781
  0
XRECORD
  5
135
102
{ACAD_REACTORS
330
12F
102
}
330
12F
100
AcDbXrecord
340
29
  0
XRECORD
  5
136
102
{ACAD_REACTORS
330
12F
102
}
330
12F
100
AcDbXrecord
340
6
  0
XRECORD
  5
13C
102
{ACAD_REACTORS
330
12F
102
}
330
12F
100
AcDbXrecord
 40
0.0
  0
XRECORD
  5
140
102
{ACAD_REACTORS
330
12F
102
}
330
12F
100
AcDbXrecord
340
0
  0
XRECORD
  5
146
102
{ACAD_REACTORS
330
12F
102
}
330
12F
100
AcDbXrecord
 10
0.0
 20
0.0
 30
0.0
  0
XRECORD
  5
142
102
{ACAD_REACTORS
330
12F
102
}
330
12F
100
AcDbXrecord
 10
0.0
 20
0.0
 30
0.0
  0
XRECORD
  5
145
102
{ACAD_REACTORS
330
12F
102
}
330
12F
100
AcDbXrecord
 10
0.0
 20
0.0
 30
0.0
  0
XRECORD
  5
143
102
{ACAD_REACTORS
330
12F
102
}
330
12F
100
AcDbXrecord
 10
0.0
 20
0.0
 30
0.0
  0
XRECORD
  5
144
102
{ACAD_REACTORS
330
12F
102
}
330
12F
100
AcDbXrecord
 10
0.0
 20
0.0
 30
0.0
  0
XRECORD
  5
141
102
{ACAD_REACTORS
330
12F
102
}
330
12F
100
AcDbXrecord
 10
0.0
 20
0.0
 30
0.0
  0
XRECORD
  5
13E
102
{ACAD_REACTORS
330
12F
102
}
330
12F
100
AcDbXrecord
340
0
  0
XRECORD
  5
13F
102
{ACAD_REACTORS
330
12F
102
}
330
12F
100
AcDbXrecord
 70
     0
  0
XRECORD
  5
133
102
{ACAD_REACTORS
330
12F
102
}
330
12F
100
AcDbXrecord
  1

  0
XRECORD
  5
130
102
{ACAD_REACTORS
330
12F
102
}
330
12F
100
AcDbXrecord
 90
        1
  0
XRECORD
  5
131
102
{ACAD_REACTORS
330
12F
102
}
330
12F
100
AcDbXrecord
 90
       70
  0
XRECORD
  5
149
102
{ACAD_REACTORS
330
12F
102
}
330
12F
100
AcDbXrecord
340
0
  0
XRECORD
  5
14F
102
{ACAD_REACTORS
330
12F
102
}
330
12F
100
AcDbXrecord
 10
0.0
 20
0.0
 30
0.0
  0
XRECORD
  5
14B
102
{ACAD_REACTORS
330
12F
102
}
330
12F
100
AcDbXrecord
 10
0.0
 20
0.0
 30
0.0
  0
XRECORD
  5
14E
102
{ACAD_REACTORS
330
12F
102
}
330
12F
100
AcDbXrecord
 10
0.0
 20
0.0
 30
0.0
  0
XRECORD
  5
14C
102
{ACAD_REACTORS
330
12F
102
}
330
12F
100
AcDbXrecord
 10
0.0
 20
0.0
 30
0.0
  0
XRECORD
  5
14D
102
{ACAD_REACTORS
330
12F
102
}
330
12F
100
AcDbXrecord
 10
0.0
 20
0.0
 30
0.0
  0
XRECORD
  5
14A
102
{ACAD_REACTORS
330
12F
102
}
330
12F
100
AcDbXrecord
 10
0.0
 20
0.0
 30
0.0
  0
XRECORD
  5
147
102
{ACAD_REACTORS
330
12F
102
}
330
12F
100
AcDbXrecord
340
0
  0
XRECORD
  5
148
102
{ACAD_REACTORS
330
12F
102
}
330
12F
100
AcDbXrecord
 70
     0
  0
XRECORD
  5
13B
102
{ACAD_REACTORS
330
12F
102
}
330
12F
100
AcDbXrecord
  1
{4C8A7E59-2334-4560-B3F5-01B348E82D68}
  0
DICTIONARYVAR
  5
6F
102
{ACAD_REACTORS
330
6D
102
}
330
6D
100
DictionaryVariables
280
     0
  1
1
  0
DICTIONARYVAR
  5
6E
102
{ACAD_REACTORS
330
6D
102
}
330
6D
100
DictionaryVariables
280
     0
  1
1
  0
XRECORD
  5
13
102
{ACAD_REACTORS
330
12
102
}
330
12
100
AcDbXrecord
  1
DIM-1_12
  1
DIM-1_12
  1
*
  1
*
 70
     0
  1
*
  1
*
  0
XRECORD
  5
14
102
{ACAD_REACTORS
330
12
102
}
330
12
100
AcDbXrecord
  1
dim-1_16
  1
*
  1
*
  1
*
 70
     0
  1
*
  1
*
  0
ENDSEC
  0
EOF
