  0
SECTION
  2
HEADER
  9
$ACADVER
  1
AC1014
  9
$ACADMAINTVER
 70
     9
  9
$DWGCODEPAGE
  3
ANSI_1252
  9
$INSBASE
 10
110.5341611280491
 20
20.75163878276629
 30
0.0
  9
$EXTMIN
 10
89.48302703082948
 20
17.04912352853523
 30
-3.467669557280114
  9
$EXTMAX
 10
131.5836075506028
 20
41.11220422732379
 30
0.0002116594425488
  9
$LIMMIN
 10
0.0
 20
0.0
  9
$LIMMAX
 10
187.3118571637889
 20
134.3269220688476
  9
$ORTHOMODE
 70
     1
  9
$REGENMODE
 70
     1
  9
$FILLMODE
 70
     1
  9
$QTEXTMODE
 70
     0
  9
$MIRRTEXT
 70
     1
  9
$DRAGMODE
 70
     2
  9
$LTSCALE
 40
2.0
  9
$OSMODE
 70
    55
  9
$ATTMODE
 70
     1
  9
$TEXTSIZE
 40
0.06
  9
$TRACEWID
 40
1.0
  9
$TEXTSTYLE
  7
CARTOUCHE
  9
$CLAYER
  8
0
  9
$CELTYPE
  6
BYLAYER
  9
$CECOLOR
 62
   256
  9
$CELTSCALE
 40
0.1
  9
$DELOBJ
 70
     1
  9
$DISPSILH
 70
     0
  9
$DIMSCALE
 40
12.0
  9
$DIMASZ
 40
0.1
  9
$DIMEXO
 40
0.0625
  9
$DIMDLI
 40
0.25
  9
$DIMRND
 40
0.0
  9
$DIMDLE
 40
0.0
  9
$DIMEXE
 40
0.1
  9
$DIMTP
 40
0.0
  9
$DIMTM
 40
0.0
  9
$DIMTXT
 40
0.1
  9
$DIMCEN
 40
0.0625
  9
$DIMTSZ
 40
0.0
  9
$DIMTOL
 70
     0
  9
$DIMLIM
 70
     0
  9
$DIMTIH
 70
     1
  9
$DIMTOH
 70
     1
  9
$DIMSE1
 70
     0
  9
$DIMSE2
 70
     0
  9
$DIMTAD
 70
     0
  9
$DIMZIN
 70
    12
  9
$DIMBLK
  1

  9
$DIMASO
 70
     1
  9
$DIMSHO
 70
     1
  9
$DIMPOST
  1
\X
  9
$DIMAPOST
  1
cm
  9
$DIMALT
 70
     1
  9
$DIMALTD
 70
     1
  9
$DIMALTF
 40
2.54
  9
$DIMLFAC
 40
1.0
  9
$DIMTOFL
 70
     0
  9
$DIMTVP
 40
0.0
  9
$DIMTIX
 70
     0
  9
$DIMSOXD
 70
     0
  9
$DIMSAH
 70
     0
  9
$DIMBLK1
  1

  9
$DIMBLK2
  1

  9
$DIMSTYLE
  2
STANDARD
  9
$DIMCLRD
 70
     0
  9
$DIMCLRE
 70
     0
  9
$DIMCLRT
 70
     0
  9
$DIMTFAC
 40
1.0
  9
$DIMGAP
 40
0.08
  9
$DIMJUST
 70
     0
  9
$DIMSD1
 70
     0
  9
$DIMSD2
 70
     0
  9
$DIMTOLJ
 70
     1
  9
$DIMTZIN
 70
     4
  9
$DIMALTZ
 70
    12
  9
$DIMALTTZ
 70
     4
  9
$DIMFIT
 70
     3
  9
$DIMUPT
 70
     0
  9
$DIMUNIT
 70
     5
  9
$DIMDEC
 70
     3
  9
$DIMTDEC
 70
     3
  9
$DIMALTU
 70
     2
  9
$DIMALTTD
 70
     1
  9
$DIMTXSTY
  7
ROMANS
  9
$DIMAUNIT
 70
     0
  9
$LUNITS
 70
     2
  9
$LUPREC
 70
     2
  9
$SKETCHINC
 40
1.0
  9
$FILLETRAD
 40
3.0
  9
$AUNITS
 70
     0
  9
$AUPREC
 70
     0
  9
$MENU
  1
.
  9
$ELEVATION
 40
0.0
  9
$PELEVATION
 40
0.0
  9
$THICKNESS
 40
0.0
  9
$LIMCHECK
 70
     0
  9
$BLIPMODE
 70
     0
  9
$CHAMFERA
 40
10.0
  9
$CHAMFERB
 40
10.0
  9
$CHAMFERC
 40
20.0
  9
$CHAMFERD
 40
0.0
  9
$SKPOLY
 70
     0
  9
$TDCREATE
 40
2452053.367185764
  9
$TDUPDATE
 40
2453689.410812777
  9
$TDINDWG
 40
2.0888248958
  9
$TDUSRTIMER
 40
2.0888217708
  9
$USRTIMER
 70
     1
  9
$ANGBASE
 50
0.0
  9
$ANGDIR
 70
     0
  9
$PDMODE
 70
    33
  9
$PDSIZE
 40
0.25
  9
$PLINEWID
 40
0.0
  9
$COORDS
 70
     1
  9
$SPLFRAME
 70
     0
  9
$SPLINETYPE
 70
     6
  9
$SPLINESEGS
 70
     8
  9
$ATTDIA
 70
     0
  9
$ATTREQ
 70
     1
  9
$HANDLING
 70
 22529
  9
$HANDSEED
  5
247
  9
$SURFTAB1
 70
     6
  9
$SURFTAB2
 70
     6
  9
$SURFTYPE
 70
     6
  9
$SURFU
 70
     6
  9
$SURFV
 70
     6
  9
$UCSNAME
  2

  9
$UCSORG
 10
0.0
 20
0.0
 30
0.0
  9
$UCSXDIR
 10
1.0
 20
0.0
 30
0.0
  9
$UCSYDIR
 10
0.0
 20
1.0
 30
0.0
  9
$PUCSNAME
  2

  9
$PUCSORG
 10
0.0
 20
0.0
 30
0.0
  9
$PUCSXDIR
 10
1.0
 20
0.0
 30
0.0
  9
$PUCSYDIR
 10
0.0
 20
1.0
 30
0.0
  9
$USERI1
 70
     0
  9
$USERI2
 70
     0
  9
$USERI3
 70
     0
  9
$USERI4
 70
     0
  9
$USERI5
 70
     0
  9
$USERR1
 40
0.0
  9
$USERR2
 40
0.0
  9
$USERR3
 40
0.0
  9
$USERR4
 40
0.0
  9
$USERR5
 40
0.0
  9
$WORLDVIEW
 70
     1
  9
$SHADEDGE
 70
     3
  9
$SHADEDIF
 70
    70
  9
$TILEMODE
 70
     1
  9
$MAXACTVP
 70
    48
  9
$PINSBASE
 10
0.0
 20
0.0
 30
0.0
  9
$PLIMCHECK
 70
     0
  9
$PEXTMIN
 10
0.0
 20
0.0
 30
0.0
  9
$PEXTMAX
 10
0.0
 20
0.0
 30
0.0
  9
$PLIMMIN
 10
0.0
 20
0.0
  9
$PLIMMAX
 10
12.0
 20
9.0
  9
$UNITMODE
 70
     0
  9
$VISRETAIN
 70
     1
  9
$PLINEGEN
 70
     0
  9
$PSLTSCALE
 70
     1
  9
$TREEDEPTH
 70
  3020
  9
$PICKSTYLE
 70
     1
  9
$CMLSTYLE
  2
STANDARD
  9
$CMLJUST
 70
     0
  9
$CMLSCALE
 40
20.0
  9
$PROXYGRAPHICS
 70
     1
  9
$MEASUREMENT
 70
     0
  0
ENDSEC
  0
SECTION
  2
CLASSES
  0
CLASS
  1
ACDBDICTIONARYWDFLT
  2
AcDbDictionaryWithDefault
  3
AutoCAD 2000
 90
        0
280
     0
281
     0
  0
CLASS
  1
ACDBPLACEHOLDER
  2
AcDbPlaceHolder
  3
AutoCAD 2000
 90
        0
280
     0
281
     0
  0
CLASS
  1
LAYOUT
  2
AcDbLayout
  3
AutoCAD 2000
 90
        0
280
     0
281
     0
  0
CLASS
  1
DICTIONARYVAR
  2
AcDbDictionaryVar
  3
AutoCAD 2000
 90
        0
280
     0
281
     0
  0
CLASS
  1
IMAGEDEF
  2
AcDbRasterImageDef
  3
ISM
 90
        0
280
     0
281
     0
  0
CLASS
  1
LONG_TRANSACTION
  2
AcDbLongTransaction
  3
AutoCAD 2000
 90
        0
280
     0
281
     0
  0
CLASS
  1
LWPOLYLINE
  2
AcDbPolyline
  3
AutoCAD 2000
 90
        0
280
     0
281
     1
  0
CLASS
  1
HATCH
  2
AcDbHatch
  3
AutoCAD 2000
 90
        0
280
     0
281
     1
  0
CLASS
  1
XRECORD
  2
AcDbXrecord
  3
AutoCAD 2000
 90
        0
280
     0
281
     0
  0
CLASS
  1
LONG_TRANSACTION
  2
AcDbLongTransaction
  3
AutoCAD 2000
 90
        0
280
     0
281
     0
  0
CLASS
  1
LWPOLYLINE
  2
AcDbPolyline
  3
AutoCAD 2000
 90
        0
280
     0
281
     1
  0
CLASS
  1
HATCH
  2
AcDbHatch
  3
AutoCAD 2000
 90
        0
280
     0
281
     1
  0
CLASS
  1
XRECORD
  2
AcDbXrecord
  3
AutoCAD 2000
 90
        0
280
     0
281
     0
  0
ENDSEC
  0
SECTION
  2
TABLES
  0
TABLE
  2
VPORT
  5
1D
330
0
100
AcDbSymbolTable
 70
     3
  0
VPORT
  5
223
330
1D
100
AcDbSymbolTableRecord
100
AcDbViewportTableRecord
  2
*ACTIVE
 70
     0
 10
0.0
 20
0.0
 11
1.0
 21
1.0
 12
110.5333171781835
 22
29.08066382830998
 13
0.0
 23
0.0
 14
10.0
 24
10.0
 15
10.0
 25
10.0
 16
0.0
 26
0.0
 36
1.0
 17
0.0
 27
0.0
 37
0.0
 40
31.14877430067035
 41
1.786792452830188
 42
50.0
 43
0.0
 44
0.0
 50
0.0
 51
0.0
 71
     0
 72
   100
 73
     1
 74
     3
 75
     0
 76
     0
 77
     0
 78
     2
  0
ENDTAB
  0
TABLE
  2
LTYPE
  5
18
330
0
100
AcDbSymbolTable
 70
     3
  0
LTYPE
  5
19
330
18
100
AcDbSymbolTableRecord
100
AcDbLinetypeTableRecord
  2
BYBLOCK
 70
     0
  3

 72
    65
 73
     0
 40
0.0
  0
LTYPE
  5
1A
330
18
100
AcDbSymbolTableRecord
100
AcDbLinetypeTableRecord
  2
BYLAYER
 70
     0
  3

 72
    65
 73
     0
 40
0.0
  0
LTYPE
  5
8
330
18
100
AcDbSymbolTableRecord
100
AcDbLinetypeTableRecord
  2
CONTINUOUS
 70
     0
  3
Solid line
 72
    65
 73
     0
 40
0.0
  0
LTYPE
  5
6F
330
18
100
AcDbSymbolTableRecord
100
AcDbLinetypeTableRecord
  2
CENTER
 70
     0
  3
Center ____ _ ____ _ ____ _ ____ _ ____ _ ____
 72
    65
 73
     4
 40
50.8
 49
31.75
 74
     0
 49
-6.349999999999999
 74
     0
 49
6.349999999999999
 74
     0
 49
-6.349999999999999
 74
     0
  0
LTYPE
  5
2D
330
18
100
AcDbSymbolTableRecord
100
AcDbLinetypeTableRecord
  2
HIDDEN
 70
     0
  3
Hidden __ __ __ __ __ __ __ __ __ __ __ __ __ _
 72
    65
 73
     2
 40
0.375
 49
0.25
 74
     0
 49
-0.125
 74
     0
  0
ENDTAB
  0
TABLE
  2
LAYER
  5
10
102
{ACAD_XDICTIONARY
360
11
102
}
330
0
100
AcDbSymbolTable
 70
     3
  0
LAYER
  5
4
330
10
100
AcDbSymbolTableRecord
100
AcDbLayerTableRecord
  2
0
 70
     0
 62
     7
  6
CONTINUOUS
  0
LAYER
  5
6E
330
10
100
AcDbSymbolTableRecord
100
AcDbLayerTableRecord
  2
CENTER
 70
     0
 62
     1
  6
CENTER
  0
LAYER
  5
FC
330
10
100
AcDbSymbolTableRecord
100
AcDbLayerTableRecord
  2
DEFPOINTS
 70
     0
 62
     7
  6
CONTINUOUS
  0
ENDTAB
  0
TABLE
  2
STYLE
  5
15
330
0
100
AcDbSymbolTable
 70
     3
  0
STYLE
  5
16
330
15
100
AcDbSymbolTableRecord
100
AcDbTextStyleTableRecord
  2
STANDARD
 70
     0
 40
0.0
 41
1.0
 50
0.0
 71
     0
 42
0.125
  3
txt
  4

  0
STYLE
  5
2A
330
15
100
AcDbSymbolTableRecord
100
AcDbTextStyleTableRecord
  2
CARTOUCHE
 70
     0
 40
0.0
 41
1.0
 50
0.0
 71
     0
 42
0.06
  3
romans.shx
  4

  0
STYLE
  5
23
330
15
100
AcDbSymbolTableRecord
100
AcDbTextStyleTableRecord
  2
ROMANS
 70
     0
 40
0.0
 41
1.0
 50
0.0
 71
     0
 42
1.0
  3
romans.shx
  4

  0
ENDTAB
  0
TABLE
  2
VIEW
  5
1B
330
0
100
AcDbSymbolTable
 70
     0
  0
ENDTAB
  0
TABLE
  2
UCS
  5
1C
330
0
100
AcDbSymbolTable
 70
     0
  0
ENDTAB
  0
TABLE
  2
APPID
  5
1F
330
0
100
AcDbSymbolTable
 70
     3
  0
APPID
  5
20
330
1F
100
AcDbSymbolTableRecord
100
AcDbRegAppTableRecord
  2
ACAD
 70
     0
  0
APPID
  5
9C
330
1F
100
AcDbSymbolTableRecord
100
AcDbRegAppTableRecord
  2
DCO15
 70
     0
  0
APPID
  5
18A
330
1F
100
AcDbSymbolTableRecord
100
AcDbRegAppTableRecord
  2
ACADASER13
 70
     0
 71
     1
  0
ENDTAB
  0
TABLE
  2
DIMSTYLE
  5
21
330
0
100
AcDbSymbolTable
 70
     1
  0
DIMSTYLE
105
22
330
21
100
AcDbSymbolTableRecord
100
AcDbDimStyleTableRecord
  2
STANDARD
 70
     0
  3
\X
  4
cm
  5

  6

  7

 40
16.0
 41
0.1
 42
0.0625
 43
0.25
 44
0.1
 45
0.0
 46
0.0
 47
0.0
 48
0.0
140
0.1
141
0.0625
142
0.0
143
2.54
144
1.0
145
0.0
146
1.0
147
0.08
 71
     0
 72
     0
 73
     1
 74
     1
 75
     0
 76
     0
 77
     0
 78
    12
170
     1
171
     1
172
     0
173
     0
174
     0
175
     0
176
     0
177
     0
178
     0
270
     5
271
     3
272
     3
273
     2
274
     1
340
23
275
     0
280
     0
281
     0
282
     0
283
     1
284
     4
285
    12
286
     4
287
     3
288
     0
  0
ENDTAB
  0
TABLE
  2
BLOCK_RECORD
  5
1
330
0
100
AcDbSymbolTable
 70
     4
  0
BLOCK_RECORD
  5
2
102
{ACAD_XDICTIONARY
360
AE
102
}
330
1
100
AcDbSymbolTableRecord
100
AcDbBlockTableRecord
  2
*MODEL_SPACE
  0
BLOCK_RECORD
  5
A3
102
{ACAD_XDICTIONARY
360
B0
102
}
330
1
100
AcDbSymbolTableRecord
100
AcDbBlockTableRecord
  2
*PAPER_SPACE
  0
BLOCK_RECORD
  5
193
330
1
100
AcDbSymbolTableRecord
100
AcDbBlockTableRecord
  2
AZUR-642-ELEV
1001
ACAD
1000
DesignCenter Data
1002
{
1070
     1
1070
     1
1002
}
  0
ENDTAB
  0
ENDSEC
  0
SECTION
  2
BLOCKS
  0
BLOCK
  5
3
330
2
100
AcDbEntity
  8
0
100
AcDbBlockBegin
  2
*MODEL_SPACE
 70
     0
 10
0.0
 20
0.0
 30
0.0
  3
*MODEL_SPACE
  1

  0
ENDBLK
  5
9
330
2
100
AcDbEntity
  8
0
100
AcDbBlockEnd
  0
BLOCK
  5
A5
330
A3
100
AcDbEntity
 67
     1
  8
0
 48
0.1
100
AcDbBlockBegin
  2
*PAPER_SPACE
 70
     0
 10
0.0
 20
0.0
 30
0.0
  3
*PAPER_SPACE
  1

  0
ENDBLK
  5
A6
330
A3
100
AcDbEntity
 67
     1
  8
0
 48
0.1
100
AcDbBlockEnd
  0
BLOCK
  5
1D4
330
193
100
AcDbEntity
  8
0
 48
0.1
100
AcDbBlockBegin
  2
AZUR-642-ELEV
 70
     0
 10
0.0
 20
0.0
 30
0.0
  3
AZUR-642-ELEV
  1

  0
LINE
  5
194
330
193
100
AcDbEntity
  8
0
 48
0.1
100
AcDbLine
 10
-4.203351897689493
 20
-0.0000000000000036
 30
0.0
 11
-47.20197482892823
 21
-0.0000000000000036
 31
0.0
  0
LINE
  5
195
330
193
100
AcDbEntity
  8
0
 48
0.1
100
AcDbLine
 10
-0.1414478175307039
 20
1.016396303832888
 30
0.0
 11
-49.26570976599802
 21
1.891318550622361
 31
0.0
  0
LINE
  5
196
330
193
100
AcDbEntity
  8
0
100
AcDbLine
 10
-61.75
 20
20.24999999999998
 30
0.0
 11
8.75
 21
20.24999999999998
 31
0.0
  0
LINE
  5
197
330
193
100
AcDbEntity
  8
0
100
AcDbLine
 10
-62.25
 20
18.74999999999998
 30
0.0
 11
9.25
 21
18.74999999999999
 31
0.0
  0
LINE
  5
198
330
193
100
AcDbEntity
  8
0
 48
0.1
100
AcDbLine
 10
-58.77905450680349
 20
18.74999999999998
 30
0.0
 11
-51.95398891961398
 21
3.670651706864138
 31
0.0
  0
ARC
  5
199
330
193
100
AcDbEntity
  8
0
 48
0.1
100
AcDbCircle
 10
-47.20197482892823
 20
0.9999999999999964
 30
0.0
 40
1.0
100
AcDbArc
 50
204.0
 51
270.0
  0
ARC
  5
19A
330
193
100
AcDbEntity
  8
0
 48
0.1
100
AcDbCircle
 10
-49.21335254668617
 20
4.890861636091536
 30
0.0
 40
3.0
100
AcDbArc
 50
204.0
 51
268.9999999999998
  0
LINE
  5
19B
330
193
100
AcDbEntity
  8
0
 48
0.1
100
AcDbLine
 10
-48.58623757057739
 20
1.650511686915262
 30
0.0
 11
-48.11552028657082
 21
0.5932633569241972
 31
0.0
  0
LINE
  5
19C
330
193
100
AcDbEntity
  8
0
100
AcDbLine
 10
-62.25
 20
19.74999999999998
 30
0.0
 11
-62.25
 21
18.74999999999998
 31
0.0
  0
ARC
  5
19D
330
193
100
AcDbEntity
  8
0
100
AcDbCircle
 10
-61.75
 20
19.74999999999998
 30
0.0
 40
0.5
100
AcDbArc
 50
90.0
 51
180.0
  0
LINE
  5
19E
330
193
100
AcDbEntity
  8
0
 48
0.1
100
AcDbLine
 10
3.897645083084512
 20
3.734141642630216
 30
0.0
 11
4.735083378853389
 21
12.36003532312683
 31
0.0
  0
ARC
  5
19F
330
193
100
AcDbEntity
  8
0
 48
0.1
100
AcDbCircle
 10
0.0311900603053701
 20
5.120130751361333
 30
0.0
 40
4.107364149024935
100
AcDbArc
 50
267.5910739448241
 51
340.2790162001171
  0
ARC
  5
1A0
330
193
100
AcDbEntity
  8
0
 48
0.5
100
AcDbCircle
 10
-4.203438735171012
 20
0.9701994940713554
 30
0.0
 40
0.9701994979575433
100
AcDbArc
 50
270.0051282454912
 51
5.931207026521195
  0
LINE
  5
1A1
330
193
100
AcDbEntity
  8
CENTER
 48
0.05
100
AcDbLine
 10
0.0
 20
-3.267143380590546
 30
0.0
 11
0.0
 21
4.259246064782409
 31
0.0
  0
ARC
  5
1A2
330
193
100
AcDbEntity
  8
0
 48
0.1
100
AcDbCircle
 10
-0.7510068754548414
 20
0.7523734721226774
 30
0.0
 40
0.25
100
AcDbArc
 50
198.7136489003372
 51
271.0000000000001
  0
LINE
  5
1A3
330
193
100
AcDbEntity
  8
0
 48
0.1
100
AcDbLine
 10
-0.987790344206104
 20
0.6721638160573314
 30
0.0
 11
-1.105938708131596
 21
1.020944509179571
 31
0.0
  0
LINE
  5
1A4
330
193
100
AcDbEntity
  8
0
 48
0.1
100
AcDbLine
 10
-0.7466437738455199
 20
0.5024115483335799
 30
0.0
 11
0.7466437738455128
 21
0.489691135858287
 31
0.0
  0
LINE
  5
1A5
330
193
100
AcDbEntity
  8
0
 48
0.1
100
AcDbLine
 10
0.983323013718035
 20
0.6594814580656206
 30
0.0
 11
1.156206135304103
 21
1.169842270289379
 31
0.0
  0
ARC
  5
1A6
330
193
100
AcDbEntity
  8
0
 48
0.1
100
AcDbCircle
 10
0.7465395449667796
 20
0.7396911141309737
 30
0.0
 40
0.250000000000006
100
AcDbArc
 50
270.02388750016
 51
341.2863510996605
  0
ARC
  5
1A7
330
193
100
AcDbEntity
  8
0
  6
HIDDEN
 62
     9
 48
2.0
100
AcDbCircle
 10
0.7404631420082258
 20
1.706466987131088
 30
-26.94152028635619
 40
1.0
210
0.8202302445011383
220
-0.5717174623095897
230
0.0190128718474049
100
AcDbArc
 50
265.1323187457909
 51
355.1323187457907
  0
LINE
  5
1A8
330
193
100
AcDbEntity
  8
0
  6
HIDDEN
 62
     9
 48
2.0
100
AcDbLine
 10
-23.74279253981245
 20
12.74999999999999
 30
0.522482255222384
 11
-21.58064170934693
 21
15.84130740270644
 31
0.2012745557269593
  0
ARC
  5
1A9
330
193
100
AcDbEntity
  8
0
  6
HIDDEN
 62
     9
 48
2.0
100
AcDbCircle
 10
0.7404631420082542
 20
1.706466987131098
 30
-26.75402028635637
 40
1.0
210
0.8202302445011383
220
-0.5717174623095897
230
0.0190128718474049
100
AcDbArc
 50
265.1323187457909
 51
355.1323187457907
  0
LINE
  5
1AA
330
193
100
AcDbEntity
  8
0
  6
HIDDEN
 62
     9
 48
2.0
100
AcDbLine
 10
-20.31390359393284
 20
16.78019440287729
 30
0.0835216454977879
 11
-20.28092328939798
 21
16.86064028807765
 31
1.079734855140747
  0
LINE
  5
1AB
330
193
100
AcDbEntity
  8
0
  6
HIDDEN
 62
     9
 48
2.0
100
AcDbLine
 10
-20.31390359393284
 20
16.78019440287729
 30
0.0835216454977879
 11
-20.28092328939798
 21
16.86064028807765
 31
1.079734855140747
210
0.8202302445011383
220
-0.5717174623095897
230
0.0190128718474049
  0
ARC
  5
1AC
330
193
100
AcDbEntity
  8
0
  6
HIDDEN
 62
     9
 48
2.0
100
AcDbCircle
 10
0.7404631420082542
 20
1.706466987131098
 30
-26.75402028635637
 40
1.0
210
0.8202302445011383
220
-0.5717174623095897
230
0.0190128718474049
100
AcDbArc
 50
265.1323187457909
 51
355.1323187457907
  0
LINE
  5
1AD
330
193
100
AcDbEntity
  8
0
 48
0.1
100
AcDbLine
 10
4.924851480971597
 20
12.75
 30
0.0
 11
-35.2529266193812
 21
12.74999999999999
 31
0.0
  0
LINE
  5
1AE
330
193
100
AcDbEntity
  8
0
 48
0.1
100
AcDbLine
 10
4.735083378853403
 20
11.86003532312684
 30
0.0
 11
-30.50000000825523
 21
11.86003532312684
 31
0.0
  0
LINE
  5
1AF
330
193
100
AcDbEntity
  8
0
  6
HIDDEN
 62
     9
 48
2.0
100
AcDbLine
 10
-21.18701673936381
 20
15.51522572895147
 30
-0.2873256131708093
 11
-20.61593474392148
 21
16.33172288316855
 31
-0.3721651772727288
210
0.8202302445011383
220
-0.5717174623095897
230
0.0190128718474049
  0
LINE
  5
1B0
330
193
100
AcDbEntity
  8
0
  6
HIDDEN
 62
     9
 48
2.0
100
AcDbLine
 10
-21.18701673936381
 20
15.51522572895147
 30
-0.2873256131708093
 11
-20.61593474392148
 21
16.33172288316855
 31
-0.3721651772727288
  0
LINE
  5
1B1
330
193
100
AcDbEntity
  8
0
  6
HIDDEN
 62
     9
 48
2.0
100
AcDbLine
 10
-21.58995815926659
 20
17.01063736966118
 30
-0.3947429625915237
 11
-22.16104015470893
 21
16.19414021544406
 31
-0.3099033984896042
  0
LINE
  5
1B2
330
193
100
AcDbEntity
  8
0
  6
HIDDEN
 62
     9
 48
2.0
100
AcDbLine
 10
-23.94827654437282
 20
12.75
 30
-0.4745162440331341
 11
-21.73443488019078
 21
15.94850442688937
 31
0.1977096422555649
  0
ARC
  5
1B3
330
193
100
AcDbEntity
  8
0
  6
HIDDEN
 62
     9
 48
2.0
100
AcDbCircle
 10
1.652001558131471
 20
0.625218765892507
 30
-26.25402028635636
 40
0.5000000000000001
210
0.8202302445011383
220
-0.5717174623095897
230
0.0190128718474049
100
AcDbArc
 50
265.13231874579
 51
355.1323187457899
  0
ARC
  5
1B4
330
193
100
AcDbEntity
  8
0
  6
HIDDEN
 62
     9
 48
2.0
100
AcDbCircle
 10
1.652001558131471
 20
0.625218765892507
 30
-26.25402028635636
 40
0.5000000000000001
210
0.8202302445011383
220
-0.5717174623095897
230
0.0190128718474049
100
AcDbArc
 50
265.13231874579
 51
355.1323187457899
  0
ARC
  5
1B5
330
193
100
AcDbEntity
  8
0
  6
HIDDEN
 62
     9
 48
2.0
100
AcDbCircle
 10
1.652001558131502
 20
0.6252187658924978
 30
-27.44152028635635
 40
0.5000000000000001
210
0.8202302445011383
220
-0.5717174623095897
230
0.0190128718474049
100
AcDbArc
 50
265.13231874579
 51
332.9560743478523
  0
ARC
  5
1B6
330
193
100
AcDbEntity
  8
0
  6
HIDDEN
 62
     9
 48
2.0
100
AcDbCircle
 10
26.94163623137208
 20
-0.2509928356714723
 30
1.592990437515609
 40
0.5
210
0.5710819954423251
220
0.8164971542170921
230
-0.0848395641019135
100
AcDbArc
 50
272.2081784895243
 51
358.9066345756573
  0
ARC
  5
1B7
330
193
100
AcDbEntity
  8
0
  6
HIDDEN
 62
     9
 48
2.0
100
AcDbCircle
 10
26.75417036979892
 20
-0.2474150228425007
 30
1.592990437515629
 40
0.5
210
0.5710819954423251
220
0.8164971542170921
230
-0.0848395641019135
100
AcDbArc
 50
178.9066345756575
 51
268.9066345756575
  0
SPLINE
  5
1B8
330
193
100
AcDbEntity
  8
0
 48
0.1
100
AcDbSpline
210
0.0
220
0.0
230
1.0
 70
     8
 71
     3
 72
    10
 73
     6
 74
     4
 42
0.0000000001
 43
0.0000000001
 44
0.0000000001
 12
0.0
 22
1.0
 32
0.0
 40
0.0
 40
0.0
 40
0.0
 40
0.0
 40
1.245671856234953
 40
10.10166855827195
 40
16.17385537733286
 40
16.17385537733286
 40
16.17385537733286
 40
16.17385537733286
 10
-45.49999999999999
 20
7.750000000000063
 30
0.0
 10
-45.49999999999999
 20
8.165223952078381
 30
0.0
 10
-43.33790304979628
 20
11.15700939333932
 30
0.0
 10
-37.38433096162617
 20
11.8592938478558
 30
0.0
 10
-32.49058126338371
 20
11.85982092803316
 30
0.0
 10
-30.5
 20
11.86003532312691
 30
0.0
 11
-45.49999999999999
 21
7.750000000000063
 31
0.0
 11
-44.94310300703733
 21
8.864254958546347
 31
0.0
 11
-36.57122981031403
 21
11.75223293015144
 31
0.0
 11
-30.5
 21
11.86003532312691
 31
0.0
  0
SPLINE
  5
1B9
330
193
100
AcDbEntity
  8
0
 48
0.1
100
AcDbSpline
210
0.0
220
0.0
230
1.0
 70
     8
 71
     3
 72
    10
 73
     6
 74
     0
 42
0.0000000001
 43
0.0000000001
 40
0.0
 40
0.0
 40
0.0
 40
0.0
 40
3.68477746284648
 40
10.40372585195294
 40
12.33018723847029
 40
12.33018723847029
 40
12.33018723847029
 40
12.33018723847029
 10
-45.49999999999999
 20
7.750000000000063
 30
0.0
 10
-45.49999999999999
 20
8.978259154282223
 30
0.0
 10
-43.21318993580925
 20
12.32735397644015
 30
0.0
 10
-38.82563982018676
 20
12.66903600463849
 30
0.0
 10
-35.89961275480662
 20
12.74012390645065
 30
0.0
 10
-35.25292661938121
 20
12.74999999999999
 30
0.0
  0
ARC
  5
1BA
330
193
100
AcDbEntity
  8
0
  6
HIDDEN
 62
     9
 48
2.0
100
AcDbCircle
 10
26.94163623137206
 20
-0.2509928356714779
 30
0.5929904375155673
 40
0.5
210
0.5710819954423251
220
0.8164971542170921
230
-0.0848395641019135
100
AcDbArc
 50
358.9066345756581
 51
88.90663457565761
  0
ARC
  5
1BB
330
193
100
AcDbEntity
  8
0
  6
HIDDEN
 62
     9
 48
2.0
100
AcDbCircle
 10
26.94163623137206
 20
-0.2509928356714779
 30
0.5929904375155673
 40
0.5
210
0.5710819954423251
220
0.8164971542170921
230
-0.0848395641019135
100
AcDbArc
 50
358.9066345756581
 51
88.90663457565761
  0
ARC
  5
1BC
330
193
100
AcDbEntity
  8
0
  6
HIDDEN
 62
     9
 48
2.0
100
AcDbCircle
 10
26.75417036979892
 20
-0.2474150228424998
 30
0.5929904375155708
 40
0.5
210
0.5710819954423251
220
0.8164971542170921
230
-0.0848395641019135
100
AcDbArc
 50
88.9066345756567
 51
178.9066345756571
  0
ARC
  5
1BD
330
193
100
AcDbEntity
  8
0
  6
HIDDEN
 62
     9
 48
2.0
100
AcDbCircle
 10
26.75417036979892
 20
-0.2474150228424998
 30
0.5929904375155708
 40
0.5
210
0.5710819954423251
220
0.8164971542170921
230
-0.0848395641019135
100
AcDbArc
 50
88.9066345756567
 51
178.9066345756571
  0
LINE
  5
1BE
330
193
100
AcDbEntity
  8
0
  6
HIDDEN
 62
     9
 48
2.0
100
AcDbLine
 10
-21.18701673936383
 20
15.51522572895145
 30
-0.287325613170808
 11
-23.12109650802178
 21
12.74999999999999
 31
-0.0000000000000053
  0
LINE
  5
1BF
330
193
100
AcDbEntity
  8
0
  6
HIDDEN
 62
     9
 48
2.0
100
AcDbLine
 10
-22.16104015470893
 20
16.19414021544405
 30
-0.3099033984896033
 11
-24.56997257616353
 21
12.74999999999999
 31
0.0479660111892679
210
0.0329803045348973
220
0.0804458852003877
230
0.9962132096429517
  0
LINE
  5
1C0
330
193
100
AcDbEntity
  8
CENTER
 48
0.05
100
AcDbLine
 10
8.386573361599346
 20
16.0
 30
0.0
 11
1.842180275534985
 21
16.0
 31
0.0
  0
LINE
  5
1C1
330
193
100
AcDbEntity
  8
0
 48
0.1
100
AcDbLine
 10
4.993153949283112
 20
13.24999999999999
 30
0.0
 11
5.294132848410882
 21
18.74999999999999
 31
0.0
  0
SPLINE
  5
1C2
330
193
100
AcDbEntity
  8
0
 48
0.1
100
AcDbSpline
210
0.0
220
0.0
230
1.0
 70
     8
 71
     3
 72
     9
 73
     5
 74
     3
 42
0.0000000001
 43
0.0000000001
 44
0.0000000001
 40
0.0
 40
0.0
 40
0.0
 40
0.0
 40
0.6680957876950972
 40
0.9314730156964458
 40
0.9314730156964458
 40
0.9314730156964458
 40
0.9314730156964458
 10
4.992835068276292
 20
13.24417286214206
 30
0.0
 10
4.975771661028858
 20
13.01617654555941
 30
0.0
 10
4.951981504438208
 20
12.69829934817789
 30
0.0
 10
4.782893577141024
 20
12.43459783982751
 30
0.0
 10
4.735083378853389
 20
12.36003532312684
 30
0.0
 11
4.992835068276292
 21
13.24417286214206
 31
0.0
 11
4.866897485941137
 21
12.58805419384226
 31
0.0
 11
4.735083378853389
 21
12.36003532312684
 31
0.0
  0
LINE
  5
1C3
330
193
100
AcDbEntity
  8
0
100
AcDbLine
 10
9.25
 20
19.74999999999998
 30
0.0
 11
9.25
 21
18.74999999999999
 31
0.0
  0
ARC
  5
1C4
330
193
100
AcDbEntity
  8
0
100
AcDbCircle
 10
8.75
 20
19.74999999999998
 30
0.0
 40
0.5
100
AcDbArc
 50
0.0
 51
90.0
  0
LINE
  5
1C5
330
193
100
AcDbEntity
  8
0
  6
HIDDEN
 62
     9
 48
2.0
100
AcDbLine
 10
-21.11800496601307
 20
16.87561467325711
 30
1.482663241412714
 11
-21.13037258021368
 21
16.84544746630694
 31
1.109083287796613
  0
LINE
  5
1C6
330
193
100
AcDbEntity
  8
0
  6
HIDDEN
 62
     9
 48
2.0
100
AcDbLine
 10
-20.97657940936971
 20
16.73825044212392
 30
1.112648201267999
 11
-20.96421179516914
 21
16.76841764907405
 31
1.486228154884107
  0
LINE
  5
1C7
330
193
100
AcDbEntity
  8
0
  6
HIDDEN
 62
     9
 48
2.0
100
AcDbLine
 10
-21.11800496601307
 20
16.87561467325711
 30
1.482663241412714
 11
-21.13037258021368
 21
16.84544746630694
 31
1.109083287796613
210
-0.5710819954423246
220
-0.8164971542170905
230
0.0848395641019324
  0
LINE
  5
1C8
330
193
100
AcDbEntity
  8
0
  6
HIDDEN
 62
     9
 48
2.0
100
AcDbLine
 10
-20.97657940936971
 20
16.73825044212392
 30
1.112648201267999
 11
-20.96421179516914
 21
16.76841764907405
 31
1.486228154884107
210
-0.5710819954423246
220
-0.8164971542170905
230
0.0848395641019324
  0
ARC
  5
1C9
330
193
100
AcDbEntity
  8
0
  6
HIDDEN
 62
     9
 48
2.0
100
AcDbCircle
 10
25.83175127112792
 20
-7.933898825814711
 30
2.138144232289607
 40
0.5000000000000001
210
0.0329803045348943
220
0.0804458852003833
230
0.996213209642952
100
AcDbArc
 50
257.3684980783403
 51
77.36849807834345
  0
ARC
  5
1CA
330
193
100
AcDbEntity
  8
0
  6
HIDDEN
 62
     9
 48
2.0
100
AcDbCircle
 10
25.64878939426338
 20
-7.892896367178685
 30
2.138144232289599
 40
0.5000000000000001
210
0.0329803045348943
220
0.0804458852003833
230
0.996213209642952
100
AcDbArc
 50
77.36849807834243
 51
257.3684980783434
  0
ARC
  5
1CB
330
193
100
AcDbEntity
  8
0
  6
HIDDEN
 62
     9
 48
2.0
100
AcDbCircle
 10
25.83175127112792
 20
-7.933898825814711
 30
2.138144232289607
 40
0.5000000000000001
210
0.0329803045348943
220
0.0804458852003833
230
0.996213209642952
100
AcDbArc
 50
257.3684980783403
 51
77.36849807834345
  0
ARC
  5
1CC
330
193
100
AcDbEntity
  8
0
  6
HIDDEN
 62
     9
 48
2.0
100
AcDbCircle
 10
25.64878939426338
 20
-7.892896367178685
 30
2.138144232289599
 40
0.5000000000000001
210
0.0329803045348943
220
0.0804458852003833
230
0.996213209642952
100
AcDbArc
 50
77.36849807834243
 51
257.3684980783434
  0
CIRCLE
  5
1CD
330
193
100
AcDbEntity
  8
0
  6
HIDDEN
 62
     9
 48
2.0
100
AcDbCircle
 10
25.74051428186495
 20
-7.913452266441083
 30
2.138144232289597
 40
0.125
210
0.0329803045348978
220
0.0804458852003874
230
0.9962132096429517
  0
CIRCLE
  5
1CE
330
193
100
AcDbEntity
  8
0
  6
HIDDEN
 62
     9
 48
2.0
100
AcDbCircle
 10
25.74051428186495
 20
-7.913452266441083
 30
2.138144232289597
 40
0.125
210
0.0329803045348978
220
0.0804458852003874
230
0.9962132096429517
  0
CIRCLE
  5
1CF
330
193
100
AcDbEntity
  8
0
  6
HIDDEN
 62
     9
 48
2.0
100
AcDbCircle
 10
25.74051428186494
 20
-7.913452266441129
 30
2.138144232289599
 40
0.234375
210
0.0329803045348977
220
0.0804458852003874
230
0.9962132096429517
  0
CIRCLE
  5
1D0
330
193
100
AcDbEntity
  8
0
  6
HIDDEN
 62
     9
 48
2.0
100
AcDbCircle
 10
25.74051428186494
 20
-7.913452266441129
 30
2.138144232289599
 40
0.234375
210
0.0329803045348977
220
0.0804458852003874
230
0.9962132096429517
  0
LINE
  5
1D1
330
193
100
AcDbEntity
  8
0
  6
HIDDEN
 62
     9
 48
2.0
100
AcDbLine
 10
-20.96421179516914
 20
16.76841764907405
 30
1.486228154884107
 11
-21.11800496601307
 21
16.87561467325711
 31
1.482663241412714
210
0.0329803045348943
220
0.0804458852003833
230
0.996213209642952
  0
LINE
  5
1D2
330
193
100
AcDbEntity
  8
0
  6
HIDDEN
 62
     9
 48
2.0
100
AcDbLine
 10
-20.96421179516914
 20
16.76841764907405
 30
1.486228154884107
 11
-21.11800496601307
 21
16.87561467325711
 31
1.482663241412714
210
-0.5710819954423246
220
-0.8164971542170905
230
0.0848395641019324
  0
LINE
  5
1D3
330
193
100
AcDbEntity
  8
0
  6
HIDDEN
 62
     9
 48
2.0
100
AcDbLine
 10
-20.39312979972681
 20
17.58491480329117
 30
1.401388590782188
 11
-20.54692297057074
 21
17.69211182747421
 31
1.397823677310801
210
0.0329803045348943
220
0.0804458852003833
230
0.996213209642952
  0
ENDBLK
  5
1D5
330
193
100
AcDbEntity
  8
0
 48
0.1
100
AcDbBlockEnd
  0
ENDSEC
  0
SECTION
  2
ENTITIES
  0
LINE
  5
2F
330
2
100
AcDbEntity
  8
0
  6
HIDDEN
 62
     9
100
AcDbLine
 10
94.37997224695648
 20
36.61782942607726
 30
-2.171500768403134
 11
94.50561428142838
 21
33.49896876998002
 31
0.0
  0
LINE
  5
30
330
2
100
AcDbEntity
  8
0
  6
HIDDEN
 62
     9
100
AcDbLine
 10
95.35622253236367
 20
37.39460039008434
 30
-2.863395630154549
 11
95.51315646955194
 21
33.49896876998036
 31
-0.1510695632834498
  0
ARC
  5
37
330
2
100
AcDbEntity
  8
0
  6
HIDDEN
 62
     9
100
AcDbCircle
 10
-31.81284922326645
 20
-6.210169764200406
 30
-95.38078623655687
 40
0.5000000000000001
210
-0.9974592945578702
220
-0.063144716429024
230
-0.0329803045348955
100
AcDbArc
 50
34.84740939113658
 51
124.8474093911363
  0
ARC
  5
38
330
2
100
AcDbEntity
  8
0
  6
HIDDEN
 62
     9
100
AcDbCircle
 10
96.84547888934732
 20
-22.61054345977574
 30
-12.89359244192677
 40
1.0
210
0.0631121713026925
220
-0.5685412912349133
230
-0.8202302445011383
100
AcDbArc
 50
273.3051921518249
 51
3.305192151825769
  0
ARC
  5
39
330
2
100
AcDbEntity
  8
0
  6
HIDDEN
 62
     9
100
AcDbCircle
 10
-96.84547888934739
 20
-22.61054345977574
 30
13.08109244192678
 40
1.0
210
-0.0631121713026925
220
0.5685412912349133
230
0.8202302445011383
100
AcDbArc
 50
176.6948078481727
 51
266.6948078481766
  0
ARC
  5
3A
330
2
100
AcDbEntity
  8
0
  6
HIDDEN
 62
     9
100
AcDbCircle
 10
-96.8454788893473
 20
-22.61054345977574
 30
13.58109244192675
 40
1.5
210
-0.0631121713026925
220
0.5685412912349133
230
0.8202302445011383
100
AcDbArc
 50
176.6948078481722
 51
266.6948078481751
  0
LINE
  5
3B
330
2
100
AcDbEntity
  8
0
  6
HIDDEN
 62
     9
100
AcDbLine
 10
95.35622253236367
 20
37.39460039008434
 30
-2.863395630154549
 11
95.3443890002444
 21
37.50120188219085
 31
-2.709602459310573
  0
LINE
  5
3C
330
2
100
AcDbEntity
  8
0
  6
HIDDEN
 62
     9
100
AcDbLine
 10
95.35622253236367
 20
37.39460039008434
 30
-2.863395630154549
 11
95.3443890002444
 21
37.50120188219085
 31
-2.709602459310573
210
0.9974592945578702
220
0.0631447164290211
230
0.0329803045348976
  0
SPLINE
  5
3D
330
2
100
AcDbEntity
  8
0
  6
HIDDEN
 62
     9
100
AcDbSpline
 70
     0
 71
     3
 72
     9
 73
     5
 74
     0
 42
0.0000000001
 43
0.0000000001
 40
0.6153765629407717
 40
0.6153765629407717
 40
0.6153765629407717
 40
0.6153765629407717
 40
1.273309223145197
 40
1.94829804941258
 40
1.94829804941258
 40
1.94829804941258
 40
1.94829804941258
 10
95.34994650185879
 20
37.45113754310725
 30
-3.063160820136092
 10
95.33353833480095
 20
37.70670986743621
 30
-3.117376799933726
 10
95.16944234667381
 20
38.31955154633737
 30
-3.11602270803587
 10
94.34789782612014
 20
38.36570604263247
 30
-3.177272125995826
 10
94.29738978590064
 20
38.34759182280246
 30
-3.011064866148098
  0
LINE
  5
3E
330
2
100
AcDbEntity
  8
0
  6
HIDDEN
 62
     9
100
AcDbLine
 10
92.98989422363167
 20
37.35214927842648
 30
-2.7874522073476
 11
93.34947041112867
 21
37.37491244933278
 31
-2.775563068380356
  0
LINE
  5
3F
330
2
100
AcDbEntity
  8
0
  6
HIDDEN
 62
     9
100
AcDbLine
 10
93.36130394324792
 20
37.26831095722627
 30
-2.929356239224325
 11
92.99923445489904
 21
37.24538994652021
 31
-2.941327817466842
  0
LINE
  5
40
330
2
100
AcDbEntity
  8
0
  6
HIDDEN
 62
     9
100
AcDbLine
 10
93.36130394324792
 20
37.26831095722627
 30
-2.929356239224325
 11
93.34947041112867
 21
37.37491244933278
 31
-2.775563068380356
210
0.0330425412699208
220
-0.8202277396845575
230
0.5710819954423246
  0
LINE
  5
41
330
2
100
AcDbEntity
  8
0
  6
HIDDEN
 62
     9
100
AcDbLine
 10
94.32572069653586
 20
38.15168341333984
 30
-3.467457930131771
 11
94.29907153557852
 21
38.34770852447121
 31
-2.940036553351507
  0
LINE
  5
42
330
2
100
AcDbEntity
  8
0
  6
HIDDEN
 62
     9
100
AcDbLine
 10
94.29907153557852
 20
38.34770852447121
 30
-2.940036553351507
 11
92.92490608038296
 21
38.25235105014673
 31
-2.985384472087008
210
-0.0330425412699448
220
0.8202277396845561
230
-0.5710819954423254
  0
ARC
  5
49
330
2
100
AcDbEntity
  8
0
  6
HIDDEN
 62
     9
100
AcDbCircle
 10
-96.27701831814462
 20
16.96282597491635
 30
28.15651032620438
 40
0.5000000000000001
210
-0.0330425412699397
220
0.8202277396845564
230
-0.571081995442325
100
AcDbArc
 50
357.6974576176484
 51
87.69745761764861
  0
ARC
  5
4A
330
2
100
AcDbEntity
  8
0
  6
HIDDEN
 62
     9
100
AcDbCircle
 10
-96.27701831814462
 20
16.96282597491635
 30
28.15651032620438
 40
0.5000000000000001
210
-0.0330425412699397
220
0.8202277396845564
230
-0.571081995442325
100
AcDbArc
 50
357.6974576176484
 51
87.69745761764861
  0
LINE
  5
4B
330
2
100
AcDbEntity
  8
0
  6
HIDDEN
 62
     9
100
AcDbLine
 10
94.81410326731415
 20
37.7539001695938
 30
-2.315977489327444
 11
94.84714580858407
 21
36.93367242990922
 31
-1.744895493885102
210
-0.0631121713026925
220
0.5685412912349133
230
0.8202302445011383
  0
LINE
  5
4C
330
2
100
AcDbEntity
  8
0
  6
HIDDEN
 62
     9
100
AcDbLine
 10
94.81410326731415
 20
37.7539001695938
 30
-2.315977489327444
 11
94.84714580858407
 21
36.93367242990922
 31
-1.744895493885102
  0
LINE
  5
4D
330
2
100
AcDbEntity
  8
0
  6
HIDDEN
 62
     9
100
AcDbLine
 10
94.39180577907576
 20
36.51122793397073
 30
-2.325293939247103
 11
94.37997224695648
 21
36.61782942607726
 31
-2.171500768403134
  0
LINE
  5
4E
330
2
100
AcDbEntity
  8
0
  6
HIDDEN
 62
     9
100
AcDbLine
 10
94.39180577907576
 20
36.51122793397073
 30
-2.325293939247103
 11
94.37997224695648
 21
36.61782942607726
 31
-2.171500768403134
210
-0.9974592945578702
220
-0.0631447164290211
230
-0.0329803045348976
  0
ARC
  5
4F
330
2
100
AcDbEntity
  8
0
  6
HIDDEN
 62
     9
100
AcDbCircle
 10
-96.27701831814459
 20
16.96282597491635
 30
29.15651032620441
 40
0.5000000000000001
210
-0.0330425412699397
220
0.8202277396845564
230
-0.571081995442325
100
AcDbArc
 50
87.69745761765184
 51
177.6974576176491
  0
ARC
  5
50
330
2
100
AcDbEntity
  8
0
  6
HIDDEN
 62
     9
100
AcDbCircle
 10
-96.27701831814459
 20
16.96282597491635
 30
29.15651032620441
 40
0.5000000000000001
210
-0.0330425412699397
220
0.8202277396845564
230
-0.571081995442325
100
AcDbArc
 50
87.69745761765184
 51
177.6974576176491
  0
ARC
  5
51
330
2
100
AcDbEntity
  8
0
  6
HIDDEN
 62
     9
100
AcDbCircle
 10
-97.90146998200457
 20
-23.55122555922729
 30
13.58109244192675
 40
0.5000000000000004
210
-0.0631121713026925
220
0.5685412912349133
230
0.8202302445011383
100
AcDbArc
 50
176.6948078481702
 51
266.6948078481734
  0
ARC
  5
52
330
2
100
AcDbEntity
  8
0
  6
HIDDEN
 62
     9
100
AcDbCircle
 10
-97.90146998200457
 20
-23.55122555922729
 30
13.58109244192675
 40
0.5000000000000004
210
-0.0631121713026925
220
0.5685412912349133
230
0.8202302445011383
100
AcDbArc
 50
176.6948078481702
 51
266.6948078481734
  0
LINE
  5
53
330
2
100
AcDbEntity
  8
0
  6
HIDDEN
 62
     9
100
AcDbLine
 10
93.30139305484236
 20
38.06929696479255
 30
-2.650988943850939
 11
94.29885234940019
 21
38.13244168122156
 31
-2.618008639316065
210
-0.0631121713026925
220
0.5685412912349133
230
0.8202302445011383
  0
LINE
  5
54
330
2
100
AcDbEntity
  8
0
  6
HIDDEN
 62
     9
100
AcDbLine
 10
93.30139305484236
 20
38.06929696479255
 30
-2.650988943850939
 11
94.29885234940019
 21
38.13244168122156
 31
-2.618008639316065
  0
LINE
  5
63
330
2
100
AcDbEntity
  8
0
100
AcDbLine
 10
95.24375882815872
 20
28.92155199507405
 30
0.0
 11
95.67341960002663
 21
24.26050690017916
 31
0.0
  0
LINE
  5
64
330
2
100
AcDbEntity
  8
0
100
AcDbLine
 10
96.07937239198736
 20
32.87094533088338
 30
0.0
 11
96.85456030854346
 21
24.26050690017916
 31
0.0
  0
LINE
  5
65
330
2
100
AcDbEntity
  8
0
 48
0.5
100
AcDbLine
 10
122.5313185617964
 20
21.52197412842214
 30
0.0
 11
98.66200369430185
 21
21.52197412842216
 31
0.0
  0
ARC
  5
66
330
2
100
AcDbEntity
  8
0
 48
0.5
100
AcDbCircle
 10
98.66200369430185
 20
24.52197412842214
 30
0.0
 40
3.0
100
AcDbArc
 50
185.0000000000003
 51
270.0
  0
ARC
  5
67
330
2
100
AcDbEntity
  8
0
 48
0.5
100
AcDbCircle
 10
99.84314440281869
 20
24.52197412842214
 30
0.0
 40
3.0
100
AcDbArc
 50
185.0000000000003
 51
270.0
  0
ARC
  5
68
330
2
100
AcDbEntity
  8
0
 48
0.1
100
AcDbCircle
 10
103.2747763163393
 20
21.25163878276627
 30
0.0
 40
0.5
100
AcDbArc
 50
270.0
 51
348.4701659727357
  0
ARC
  5
69
330
2
100
AcDbEntity
  8
0
100
AcDbCircle
 10
102.2747763163393
 20
21.25163878276627
 30
0.0
 40
0.5
100
AcDbArc
 50
191.5298340272642
 51
270.0
  0
LINE
  5
6A
330
2
100
AcDbEntity
  8
0
100
AcDbLine
 10
102.2747763163393
 20
20.75163878276629
 30
0.0
 11
103.2747763163393
 21
20.75163878276629
 31
0.0
  0
ARC
  5
6B
330
2
100
AcDbEntity
  8
0
 48
0.1
100
AcDbCircle
 10
101.0500003657161
 20
21.00179108760989
 30
0.0
 40
0.75
100
AcDbArc
 50
11.52983402726431
 51
43.9139615307539
  0
ARC
  5
6C
330
2
100
AcDbEntity
  8
0
 48
0.1
100
AcDbCircle
 10
104.4995522669625
 20
21.00179108760989
 30
0.0
 40
0.75
100
AcDbArc
 50
136.086038469246
 51
168.4701659727357
  0
LINE
  5
6D
330
2
100
AcDbEntity
  8
CENTER
 48
0.05
100
AcDbLine
 10
110.5341611280491
 20
17.05289834716233
 30
0.0
 11
110.5341611280491
 21
24.45037921837029
 31
0.0
  0
ARC
  5
70
330
2
100
AcDbEntity
  8
0
100
AcDbCircle
 10
110.0341611280492
 20
21.25163878276627
 30
0.0
 40
0.5
100
AcDbArc
 50
209.979849230729
 51
270.0
  0
ARC
  5
71
330
2
100
AcDbEntity
  8
0
 48
0.1
100
AcDbCircle
 10
111.0341611280491
 20
21.25163878276627
 30
0.0
 40
0.5
100
AcDbArc
 50
270.0
 51
330.0201507692709
  0
LINE
  5
72
330
2
100
AcDbEntity
  8
0
100
AcDbLine
 10
110.0341611280492
 20
20.75163878276629
 30
0.0
 11
111.0341611280491
 21
20.75163878276629
 31
0.0
  0
LINE
  5
73
330
2
100
AcDbEntity
  8
0
 48
0.1
100
AcDbLine
 10
111.707728678658
 20
21.00179108760991
 30
0.0
 11
109.3605935774402
 21
21.00179108760991
 31
0.0
  0
LINE
  5
74
330
2
100
AcDbEntity
  8
0
 48
0.1
100
AcDbLine
 10
109.1224463204403
 20
21.17572608919798
 30
0.0
 11
109.0118535851491
 21
21.52197412842216
 31
0.0
  0
ARC
  5
75
330
2
100
AcDbEntity
  8
0
 48
0.1
100
AcDbCircle
 10
109.3605935774402
 20
21.25179108760989
 30
0.0
 40
0.25
100
AcDbArc
 50
197.7136489003373
 51
270.0
  0
ARC
  5
76
330
2
100
AcDbEntity
  8
0
 48
0.1
100
AcDbCircle
 10
111.707728678658
 20
21.25179108760989
 30
0.0
 40
0.25
100
AcDbArc
 50
270.0
 51
342.2863510996626
  0
LINE
  5
77
330
2
100
AcDbEntity
  8
0
 48
0.1
100
AcDbLine
 10
111.9458759356579
 20
21.17572608919798
 30
0.0
 11
112.0564686709492
 21
21.52197412842216
 31
0.0
  0
ARC
  5
79
330
2
100
AcDbEntity
  8
0
 48
0.1
100
AcDbCircle
 10
117.9185459397589
 20
21.25163878276627
 30
0.0
 40
0.5
100
AcDbArc
 50
191.5298340272642
 51
270.0
  0
ARC
  5
7A
330
2
100
AcDbEntity
  8
0
100
AcDbCircle
 10
118.9185459397589
 20
21.25163878276627
 30
0.0
 40
0.5
100
AcDbArc
 50
269.9999999999999
 51
348.4701659727357
  0
LINE
  5
7B
330
2
100
AcDbEntity
  8
0
100
AcDbLine
 10
118.9185459397589
 20
20.75163878276627
 30
0.0
 11
117.9185459397589
 21
20.75163878276627
 31
0.0
  0
ARC
  5
7C
330
2
100
AcDbEntity
  8
0
 48
0.1
100
AcDbCircle
 10
116.6937699891357
 20
21.00179108760989
 30
0.0
 40
0.75
100
AcDbArc
 50
11.52983402726431
 51
43.9139615307539
  0
ARC
  5
7D
330
2
100
AcDbEntity
  8
0
 48
0.1
100
AcDbCircle
 10
120.1433218903821
 20
21.00179108760989
 30
0.0
 40
0.75
100
AcDbArc
 50
136.086038469246
 51
168.4701659727357
  0
LINE
  5
7F
330
2
100
AcDbEntity
  8
CENTER
 48
0.05
100
AcDbLine
 10
106.8354206924451
 20
36.75163878276629
 30
0.0
 11
114.2329015636531
 21
36.75163878276627
 31
0.0
  0
LINE
  5
80
330
2
100
AcDbEntity
  8
0
 48
0.1
100
AcDbLine
 10
130.9716611280491
 20
41.00163878276624
 30
0.0
 11
90.09666112804918
 21
41.00163878276629
 31
0.0
  0
LINE
  5
81
330
2
100
AcDbEntity
  8
0
 48
0.1
100
AcDbLine
 10
131.4716611280491
 20
39.50163878276628
 30
0.0
 11
89.59666112804917
 21
39.50163878276629
 31
0.0
  0
LINE
  5
82
330
2
100
AcDbEntity
  8
0
 48
0.1
100
AcDbLine
 10
94.45518251941368
 20
33.49867554263411
 30
0.0
 11
127.3466489013549
 21
33.50163878276628
 31
0.0
  0
LINE
  5
83
330
2
100
AcDbEntity
  8
0
100
AcDbLine
 10
92.78511064348592
 20
39.50163878276629
 30
0.0
 11
93.26629829287851
 21
34.00163878276629
 31
0.0
  0
LINE
  5
84
330
2
100
AcDbEntity
  8
0
100
AcDbLine
 10
94.53511064348598
 20
39.50163878276629
 30
0.0
 11
94.98315470390437
 21
34.38047173824256
 31
0.0
  0
SPLINE
  5
85
330
2
100
AcDbEntity
  8
0
 48
0.1
100
AcDbSpline
210
0.0
220
0.0
230
1.0
 70
     8
 71
     3
 72
    10
 73
     6
 74
     4
 42
0.0000000001
 43
0.0000000001
 44
0.0000000001
 12
0.0902957725541786
 22
-0.9959149930886894
 32
0.0
 13
0.0859596848406924
 23
-0.9962986161699156
 33
0.0
 40
0.0
 40
0.0
 40
0.0
 40
0.0
 40
1.750586719168465
 40
3.521534685101862
 40
5.502475389801677
 40
5.502475389801677
 40
5.502475389801677
 40
5.502475389801677
 10
93.26629829287851
 20
34.00163878276629
 30
0.0
 10
93.31898848628863
 20
33.42049359599235
 30
0.0
 10
93.65466601775656
 20
32.252739907227
 30
0.0
 10
94.80833868519621
 20
30.80972384339992
 30
0.0
 10
95.18795368060542
 20
29.56850351860743
 30
0.0
 10
95.24471402682678
 20
28.9106340243384
 30
0.0
 11
93.26629829287851
 21
34.00163878276629
 31
0.0
 11
93.75223008469379
 21
32.31984683516035
 31
0.0
 11
94.67362689869037
 21
30.80746969661302
 31
0.0
 11
95.24471402682678
 21
28.9106340243384
 31
0.0
  0
SPLINE
  5
86
330
2
100
AcDbEntity
  8
0
 48
0.1
100
AcDbSpline
210
0.0
220
0.0
230
1.0
 70
     8
 71
     3
 72
    10
 73
     6
 74
     4
 42
0.0000000001
 43
0.0000000001
 44
0.0000000001
 12
0.084005978596606
 22
-0.9964652505531875
 32
0.0
 13
0.0934873802387392
 23
-0.9956204647033413
 33
0.0
 40
0.0
 40
0.0
 40
0.0
 40
0.0
 40
0.6737673622279598
 40
1.206848791699556
 40
1.919704167994818
 40
1.919704167994818
 40
1.919704167994818
 40
1.919704167994818
 10
94.98243996444788
 20
34.38864124761323
 30
0.0
 10
95.00130679331801
 20
34.16484599314088
 30
0.0
 10
95.14270803556705
 20
33.73293380650165
 30
0.0
 10
95.7165814001361
 20
33.44633040100702
 30
0.0
 10
96.0571580648957
 20
33.10752312991068
 30
0.0
 10
96.07937239210201
 20
32.87094532957289
 30
0.0
 11
94.98243996444788
 21
34.38864124761323
 31
0.0
 11
95.22756637133047
 21
33.76104623245422
 31
0.0
 11
95.65700376478401
 21
33.44519921956456
 31
0.0
 11
96.07937239210201
 21
32.87094532957289
 31
0.0
  0
SPLINE
  5
87
330
2
100
AcDbEntity
  8
0
 48
0.1
100
AcDbSpline
210
0.0
220
0.0
230
1.0
 70
     8
 71
     3
 72
    10
 73
     6
 74
     0
 42
0.0000000001
 43
0.0000000001
 40
0.0
 40
0.0
 40
0.0
 40
0.0
 40
0.7261807570757185
 40
1.103047293837589
 40
1.639158202722391
 40
1.639158202722391
 40
1.639158202722391
 40
1.639158202722391
 10
93.23243996444782
 20
34.38864124761323
 30
0.0
 10
93.29308324933014
 20
34.07352741803012
 30
0.0
 10
93.31989903817964
 20
33.71395154036878
 30
0.0
 10
93.7278651563675
 20
33.48067633572415
 30
0.0
 10
93.94304322222053
 20
33.49867554264216
 30
0.0
 10
94.45518251941368
 20
33.49867554263411
 30
0.0
  0
LINE
  5
88
330
2
100
AcDbEntity
  8
0
100
AcDbLine
 10
89.59666112804917
 20
40.50163878276629
 30
0.0
 11
89.59666112804917
 21
39.50163878276629
 31
0.0
  0
ARC
  5
89
330
2
100
AcDbEntity
  8
0
100
AcDbCircle
 10
90.0966611280492
 20
40.50163878276627
 30
0.0
 40
0.5
100
AcDbArc
 50
89.99999999999998
 51
180.0
  0
CIRCLE
  5
8A
330
2
100
AcDbEntity
  8
0
 48
0.1
100
AcDbCircle
 10
110.5341611280491
 20
36.75163878276627
 30
0.0
 40
1.25
  0
LINE
  5
8B
330
2
100
AcDbEntity
  8
CENTER
 48
0.05
100
AcDbLine
 10
110.5341611280491
 20
33.05289834716231
 30
0.0
 11
110.5341611280491
 21
40.45037921837027
 31
0.0
  0
LINE
  5
91
330
2
100
AcDbEntity
  8
0
100
AcDbLine
 10
131.4716611280491
 20
40.50163878276625
 30
0.0
 11
131.4716611280491
 21
39.50163878276628
 31
0.0
  0
ARC
  5
92
330
2
100
AcDbEntity
  8
0
100
AcDbCircle
 10
130.9716611280491
 20
40.50163878276626
 30
0.0
 40
0.5
100
AcDbArc
 50
0.0000000000000127
 51
89.99999999999998
  0
ARC
  5
166
330
2
100
AcDbEntity
  8
0
  6
HIDDEN
 62
     9
100
AcDbCircle
 10
122.8732357942479
 20
-42.6162520853806
 30
-26.84569426575247
 40
1.0
210
-0.0631121713026925
220
-0.5685412912349133
230
-0.8202302445011383
100
AcDbArc
 50
176.6948078481742
 51
266.6948078481751
  0
ARC
  5
167
330
2
100
AcDbEntity
  8
0
  6
HIDDEN
 62
     9
100
AcDbCircle
 10
-122.8732357942478
 20
-42.6162520853806
 30
27.03319426575248
 40
1.0
210
0.0631121713026925
220
0.5685412912349133
230
0.8202302445011383
100
AcDbArc
 50
273.3051921518232
 51
3.305192151827264
  0
ARC
  5
168
330
2
100
AcDbEntity
  8
0
  6
HIDDEN
 62
     9
100
AcDbCircle
 10
-122.8732357942479
 20
-42.6162520853806
 30
27.53319426575246
 40
1.5
210
0.0631121713026925
220
0.5685412912349133
230
0.8202302445011383
100
AcDbArc
 50
273.3051921518248
 51
3.305192151827774
  0
LINE
  5
169
330
2
100
AcDbEntity
  8
0
  6
HIDDEN
 62
     9
100
AcDbLine
 10
126.7692507205198
 20
38.34770852447121
 30
-2.940036553351507
 11
128.1434161757153
 21
38.25235105014673
 31
-2.985384472087008
210
0.0330425412699448
220
0.8202277396845561
230
-0.5710819954423254
  0
LINE
  5
16A
330
2
100
AcDbEntity
  8
0
  6
HIDDEN
 62
     9
100
AcDbLine
 10
127.7669292012559
 20
38.06929696479255
 30
-2.650988943850939
 11
126.7694699066981
 21
38.13244168122156
 31
-2.618008639316065
210
0.0631121713026925
220
0.5685412912349133
230
0.8202302445011383
  0
LINE
  5
16B
330
2
100
AcDbEntity
  8
0
  6
HIDDEN
 62
     9
100
AcDbLine
 10
127.7669292012559
 20
38.06929696479255
 30
-2.650988943850939
 11
126.7694699066981
 21
38.13244168122156
 31
-2.618008639316065
  0
SPLINE
  5
16C
330
2
100
AcDbEntity
  8
0
 48
0.1
100
AcDbSpline
210
0.0
220
0.0
230
1.0
 70
     8
 71
     3
 72
    10
 73
     6
 74
     0
 42
0.0000000001
 43
0.0000000001
 40
0.0
 40
0.0
 40
0.0
 40
0.0
 40
0.7261807570757185
 40
1.103047293837589
 40
1.639158202722391
 40
1.639158202722391
 40
1.639158202722391
 40
1.639158202722391
 10
127.8358822916505
 20
34.38864124761323
 30
0.0
 10
127.7752390067681
 20
34.07352741803012
 30
0.0
 10
127.7484232179186
 20
33.71395154036878
 30
0.0
 10
127.3404570997308
 20
33.48067633572415
 30
0.0
 10
127.1252790338778
 20
33.49867554264216
 30
0.0
 10
126.6131397366846
 20
33.49867554263411
 30
0.0
  0
SPLINE
  5
16D
330
2
100
AcDbEntity
  8
0
 48
0.1
100
AcDbSpline
210
0.0
220
0.0
230
1.0
 70
     8
 71
     3
 72
    10
 73
     6
 74
     4
 42
0.0000000001
 43
0.0000000001
 44
0.0000000001
 12
-0.0902957725541786
 22
-0.9959149930886894
 32
0.0
 13
-0.0859596848406924
 23
-0.9962986161699157
 33
0.0
 40
0.0
 40
0.0
 40
0.0
 40
0.0
 40
1.750586719168465
 40
3.521534685101862
 40
5.502475389801677
 40
5.502475389801677
 40
5.502475389801677
 40
5.502475389801677
 10
127.8020239632198
 20
34.00163878276629
 30
0.0
 10
127.7493337698097
 20
33.42049359599235
 30
0.0
 10
127.4136562383418
 20
32.252739907227
 30
0.0
 10
126.259983570902
 20
30.80972384339992
 30
0.0
 10
125.8803685754929
 20
29.56850351860743
 30
0.0
 10
125.8236082292715
 20
28.9106340243384
 30
0.0
 11
127.8020239632198
 21
34.00163878276629
 31
0.0
 11
127.3160921714045
 21
32.31984683516035
 31
0.0
 11
126.3946953574079
 21
30.80746969661302
 31
0.0
 11
125.8236082292715
 21
28.9106340243384
 31
0.0
  0
LINE
  5
16E
330
2
100
AcDbEntity
  8
0
  6
HIDDEN
 62
     9
100
AcDbLine
 10
127.7070183128504
 20
37.26831095722627
 30
-2.929356239224325
 11
127.7188518449696
 21
37.37491244933278
 31
-2.775563068380356
210
-0.0330425412699208
220
-0.8202277396845575
230
0.5710819954423246
  0
LINE
  5
16F
330
2
100
AcDbEntity
  8
0
  6
HIDDEN
 62
     9
100
AcDbLine
 10
127.7070183128504
 20
37.26831095722627
 30
-2.929356239224325
 11
128.0690878011992
 21
37.24538994652021
 31
-2.941327817466842
  0
ARC
  5
170
330
2
100
AcDbEntity
  8
0
  6
HIDDEN
 62
     9
100
AcDbCircle
 10
45.77974370917631
 20
1.066165109165577
 30
125.1258665301028
 40
0.5000000000000001
210
0.9974592945578702
220
-0.063144716429024
230
-0.0329803045348955
100
AcDbArc
 50
55.15259060886364
 51
145.1525906088634
  0
LINE
  5
171
330
2
100
AcDbEntity
  8
0
  6
HIDDEN
 62
     9
100
AcDbLine
 10
128.0784280324666
 20
37.35214927842648
 30
-2.7874522073476
 11
127.7188518449696
 21
37.37491244933278
 31
-2.775563068380356
  0
LINE
  5
172
330
2
100
AcDbEntity
  8
0
100
AcDbLine
 10
128.2832116126124
 20
39.50163878276629
 30
0.0
 11
127.8020239632198
 21
34.00163878276629
 31
0.0
  0
LINE
  5
173
330
2
100
AcDbEntity
  8
0
  6
HIDDEN
 62
     9
100
AcDbLine
 10
125.7120997237346
 20
37.39460039008434
 30
-2.863395630154549
 11
125.5551657865463
 21
33.49896876998036
 31
-0.1510695632834498
  0
LINE
  5
174
330
2
100
AcDbEntity
  8
0
  6
HIDDEN
 62
     9
100
AcDbLine
 10
126.6883500091418
 20
36.61782942607726
 30
-2.171500768403134
 11
126.5627079746699
 21
33.49896876998002
 31
0.0
  0
ARC
  5
175
330
2
100
AcDbEntity
  8
0
  6
HIDDEN
 62
     9
100
AcDbCircle
 10
-124.6121417764539
 20
22.04455917939112
 30
35.46116948782783
 40
0.5000000000000001
210
0.0330425412699397
220
0.8202277396845564
230
-0.571081995442325
100
AcDbArc
 50
92.3025423823514
 51
182.3025423823516
  0
ARC
  5
176
330
2
100
AcDbEntity
  8
0
  6
HIDDEN
 62
     9
100
AcDbCircle
 10
-124.6121417764539
 20
22.04455917939112
 30
35.46116948782783
 40
0.5000000000000001
210
0.0330425412699397
220
0.8202277396845564
230
-0.571081995442325
100
AcDbArc
 50
92.3025423823514
 51
182.3025423823516
  0
LINE
  5
177
330
2
100
AcDbEntity
  8
0
  6
HIDDEN
 62
     9
100
AcDbLine
 10
125.7120997237346
 20
37.39460039008434
 30
-2.863395630154549
 11
125.7239332558539
 21
37.50120188219085
 31
-2.709602459310573
  0
LINE
  5
178
330
2
100
AcDbEntity
  8
0
  6
HIDDEN
 62
     9
100
AcDbLine
 10
125.7120997237346
 20
37.39460039008434
 30
-2.863395630154549
 11
125.7239332558539
 21
37.50120188219085
 31
-2.709602459310573
210
-0.9974592945578702
220
0.0631447164290211
230
0.0329803045348976
  0
LINE
  5
179
330
2
100
AcDbEntity
  8
0
  6
HIDDEN
 62
     9
100
AcDbLine
 10
126.7426015595624
 20
38.15168341333984
 30
-3.467457930131771
 11
126.7692507205198
 21
38.34770852447121
 31
-2.940036553351507
  0
SPLINE
  5
17A
330
2
100
AcDbEntity
  8
0
  6
HIDDEN
 62
     9
100
AcDbSpline
 70
     0
 71
     3
 72
     9
 73
     5
 74
     0
 42
0.0000000001
 43
0.0000000001
 40
0.6153765629407717
 40
0.6153765629407717
 40
0.6153765629407717
 40
0.6153765629407717
 40
1.273309223145197
 40
1.94829804941258
 40
1.94829804941258
 40
1.94829804941258
 40
1.94829804941258
 10
125.7183757542395
 20
37.45113754310725
 30
-3.063160820136092
 10
125.7347839212973
 20
37.70670986743621
 30
-3.117376799933726
 10
125.8988799094245
 20
38.31955154633737
 30
-3.11602270803587
 10
126.7204244299781
 20
38.36570604263247
 30
-3.177272125995826
 10
126.7709324701977
 20
38.34759182280246
 30
-3.011064866148098
  0
LINE
  5
17B
330
2
100
AcDbEntity
  8
0
  6
HIDDEN
 62
     9
100
AcDbLine
 10
126.2542189887841
 20
37.7539001695938
 30
-2.315977489327444
 11
126.2211764475142
 21
36.93367242990922
 31
-1.744895493885102
210
0.0631121713026925
220
0.5685412912349133
230
0.8202302445011383
  0
LINE
  5
17C
330
2
100
AcDbEntity
  8
0
  6
HIDDEN
 62
     9
100
AcDbLine
 10
126.2542189887841
 20
37.7539001695938
 30
-2.315977489327444
 11
126.2211764475142
 21
36.93367242990922
 31
-1.744895493885102
  0
ARC
  5
17D
330
2
100
AcDbEntity
  8
0
  6
HIDDEN
 62
     9
100
AcDbCircle
 10
-124.6121417764539
 20
22.04455917939112
 30
36.46116948782786
 40
0.5000000000000001
210
0.0330425412699397
220
0.8202277396845564
230
-0.571081995442325
100
AcDbArc
 50
2.302542382350856
 51
92.30254238234815
  0
ARC
  5
17E
330
2
100
AcDbEntity
  8
0
  6
HIDDEN
 62
     9
100
AcDbCircle
 10
-124.6121417764539
 20
22.04455917939112
 30
36.46116948782786
 40
0.5000000000000001
210
0.0330425412699397
220
0.8202277396845564
230
-0.571081995442325
100
AcDbArc
 50
2.302542382350856
 51
92.30254238234815
  0
LINE
  5
17F
330
2
100
AcDbEntity
  8
0
  6
HIDDEN
 62
     9
100
AcDbLine
 10
126.6765164770225
 20
36.51122793397073
 30
-2.325293939247103
 11
126.6883500091418
 21
36.61782942607726
 31
-2.171500768403134
  0
LINE
  5
180
330
2
100
AcDbEntity
  8
0
  6
HIDDEN
 62
     9
100
AcDbLine
 10
126.6765164770225
 20
36.51122793397073
 30
-2.325293939247103
 11
126.6883500091418
 21
36.61782942607726
 31
-2.171500768403134
210
0.9974592945578702
220
-0.0631447164290211
230
-0.0329803045348976
  0
ARC
  5
181
330
2
100
AcDbEntity
  8
0
  6
HIDDEN
 62
     9
100
AcDbCircle
 10
-121.8172447015906
 20
-43.55693418483215
 30
27.53319426575246
 40
0.5000000000000004
210
0.0631121713026925
220
0.5685412912349133
230
0.8202302445011383
100
AcDbArc
 50
273.3051921518265
 51
3.305192151829759
  0
ARC
  5
182
330
2
100
AcDbEntity
  8
0
  6
HIDDEN
 62
     9
100
AcDbCircle
 10
-121.8172447015906
 20
-43.55693418483215
 30
27.53319426575246
 40
0.5000000000000004
210
0.0631121713026925
220
0.5685412912349133
230
0.8202302445011383
100
AcDbArc
 50
273.3051921518265
 51
3.305192151829759
  0
LINE
  5
183
330
2
100
AcDbEntity
  8
0
100
AcDbLine
 10
124.9889498641109
 20
32.87094533088338
 30
0.0
 11
124.2137619475548
 21
24.26050690017916
 31
0.0
  0
LINE
  5
184
330
2
100
AcDbEntity
  8
0
100
AcDbLine
 10
125.8245634279396
 20
28.92155199507405
 30
0.0
 11
125.3949026560717
 21
24.26050690017916
 31
0.0
  0
ARC
  5
185
330
2
100
AcDbEntity
  8
0
 48
0.5
100
AcDbCircle
 10
121.2251778532796
 20
24.52197412842214
 30
0.0
 40
3.0
100
AcDbArc
 50
270.0
 51
354.9999999999996
  0
ARC
  5
186
330
2
100
AcDbEntity
  8
0
 48
0.5
100
AcDbCircle
 10
122.4063185617964
 20
24.52197412842214
 30
0.0
 40
3.0
100
AcDbArc
 50
270.0
 51
354.9999999999997
  0
LINE
  5
187
330
2
100
AcDbEntity
  8
0
100
AcDbLine
 10
126.5332116126123
 20
39.50163878276629
 30
0.0
 11
126.0851675521939
 21
34.38047173824256
 31
0.0
  0
SPLINE
  5
188
330
2
100
AcDbEntity
  8
0
 48
0.1
100
AcDbSpline
210
0.0
220
0.0
230
1.0
 70
     8
 71
     3
 72
    10
 73
     6
 74
     4
 42
0.0000000001
 43
0.0000000001
 44
0.0000000001
 12
-0.084005978596606
 22
-0.9964652505531875
 32
0.0
 13
-0.0934873802387392
 23
-0.9956204647033413
 33
0.0
 40
0.0
 40
0.0
 40
0.0
 40
0.0
 40
0.6737673622279598
 40
1.206848791699556
 40
1.919704167994818
 40
1.919704167994818
 40
1.919704167994818
 40
1.919704167994818
 10
126.0858822916504
 20
34.38864124761323
 30
0.0
 10
126.0670154627803
 20
34.16484599314088
 30
0.0
 10
125.9256142205312
 20
33.73293380650165
 30
0.0
 10
125.3517408559622
 20
33.44633040100702
 30
0.0
 10
125.0111641912026
 20
33.10752312991068
 30
0.0
 10
124.9889498639963
 20
32.87094532957289
 30
0.0
 11
126.0858822916504
 21
34.38864124761323
 31
0.0
 11
125.8407558847678
 21
33.76104623245422
 31
0.0
 11
125.4113184913143
 21
33.44519921956456
 31
0.0
 11
124.9889498639963
 21
32.87094532957289
 31
0.0
  0
ENDSEC
  0
SECTION
  2
OBJECTS
  0
DICTIONARY
  5
7
330
0
100
AcDbDictionary
  3
ACAD_GROUP
350
27
  3
ACAD_LAYOUT
350
B
  3
ACAD_MLINESTYLE
350
28
  3
ACAD_PLOTSETTINGS
350
29
  3
ACAD_PLOTSTYLENAME
350
6
  3
ACDBHEADERROUNDTRIPXREC
350
224
  3
ACDBVARIABLEDICTIONARY
350
93
  3
ASE_INDEX_DICTIONARY
350
189
  0
DICTIONARY
  5
11
330
10
100
AcDbDictionary
280
     1
  3
ACAD_LAYERFILTERS
360
12
  0
DICTIONARY
  5
AE
330
2
100
AcDbDictionary
280
     1
  3
ACAD_LAYOUTSELFREF
360
245
  0
DICTIONARY
  5
B0
330
A3
100
AcDbDictionary
280
     1
  3
ACAD_LAYOUTSELFREF
360
246
  0
DICTIONARY
  5
27
102
{ACAD_REACTORS
330
7
102
}
330
7
100
AcDbDictionary
  0
DICTIONARY
  5
B
102
{ACAD_REACTORS
330
7
102
}
330
7
100
AcDbDictionary
  0
DICTIONARY
  5
28
102
{ACAD_REACTORS
330
7
102
}
330
7
100
AcDbDictionary
  3
STANDARD
350
2B
  0
DICTIONARY
  5
29
102
{ACAD_REACTORS
330
7
102
}
330
7
100
AcDbDictionary
  0
ACDBDICTIONARYWDFLT
  5
6
102
{ACAD_REACTORS
330
7
102
}
330
7
100
AcDbDictionary
281
     1
  3
Normal
350
5
100
AcDbDictionaryWithDefault
340
5
  0
DICTIONARY
  5
224
102
{ACAD_REACTORS
330
7
102
}
330
7
100
AcDbDictionary
  3
CEPSNTYPE
350
22E
  3
DIMSTYLEDATA
350
232
  3
FINGERPRINTGUID
350
22F
  3
HYPERLINKBASE
350
227
  3
INSUNITS
350
22D
  3
LAYOUTDICT
350
229
  3
LWETCUNION
350
22C
  3
PLOTSETDICT
350
22A
  3
PLOTSTYLNAMDICT
350
22B
  3
PSVPSCALE
350
231
  3
PUCSBASE
350
235
  3
PUCSORGBACK
350
23B
  3
PUCSORGBOTTOM
350
237
  3
PUCSORGFRONT
350
23A
  3
PUCSORGLEFT
350
238
  3
PUCSORGRIGHT
350
239
  3
PUCSORGTOP
350
236
  3
PUCSORTHOREF
350
233
  3
PUCSORTHOVIEW
350
234
  3
STYLESHEET
350
228
  3
TSTACKALIGN
350
225
  3
TSTACKSIZE
350
226
  3
UCSBASE
350
23E
  3
UCSORGBACK
350
244
  3
UCSORGBOTTOM
350
240
  3
UCSORGFRONT
350
243
  3
UCSORGLEFT
350
241
  3
UCSORGRIGHT
350
242
  3
UCSORGTOP
350
23F
  3
UCSORTHOREF
350
23C
  3
UCSORTHOVIEW
350
23D
  3
VERSIONGUID
350
230
  0
DICTIONARY
  5
93
102
{ACAD_REACTORS
330
7
102
}
330
7
100
AcDbDictionary
  3
DIMASSOC
350
95
  3
HIDETEXT
350
94
  0
DICTIONARY
  5
189
102
{ACAD_REACTORS
330
7
102
}
330
7
100
AcDbDictionary
  3
ASEBLOCKHIERARCHYINDEXRECORD
350
18B
1001
ACADASER13
1040
1544696785.951
  0
DICTIONARY
  5
12
102
{ACAD_REACTORS
330
11
102
}
330
11
100
AcDbDictionary
280
     1
  3
DIM-1_12
360
13
  3
DIM-1_16
360
14
  0
XRECORD
  5
245
102
{ACAD_REACTORS
330
AE
102
}
330
AE
100
AcDbXrecord
340
2
  0
XRECORD
  5
246
102
{ACAD_REACTORS
330
B0
102
}
330
B0
100
AcDbXrecord
340
A3
  0
MLINESTYLE
  5
2B
102
{ACAD_REACTORS
330
28
102
}
330
28
100
AcDbMlineStyle
  2
STANDARD
 70
     0
  3

 62
   256
 51
90.0
 52
90.0
 71
     2
 49
0.5
 62
   256
  6
BYLAYER
 49
-0.5
 62
   256
  6
BYLAYER
  0
ACDBPLACEHOLDER
  5
5
102
{ACAD_REACTORS
330
6
102
}
330
6
100
AcDbPlaceHolder
280
     0
  0
XRECORD
  5
22E
102
{ACAD_REACTORS
330
224
102
}
330
224
100
AcDbXrecord
 90
        0
  0
XRECORD
  5
232
102
{ACAD_REACTORS
330
224
102
}
330
224
100
AcDbXrecord
1000
DSTYLE
1002
{
1070
    79
 70
     1
1070
   276
 70
     1
1070
   277
 70
     5
1002
}
  0
XRECORD
  5
22F
102
{ACAD_REACTORS
330
224
102
}
330
224
100
AcDbXrecord
  1
{6A4AC8E0-4F58-11D5-8420-0003476D26AB}
  0
XRECORD
  5
227
102
{ACAD_REACTORS
330
224
102
}
330
224
100
AcDbXrecord
  1

  0
XRECORD
  5
22D
102
{ACAD_REACTORS
330
224
102
}
330
224
100
AcDbXrecord
 90
        1
  0
XRECORD
  5
229
102
{ACAD_REACTORS
330
224
102
}
330
224
100
AcDbXrecord
340
B
  0
XRECORD
  5
22C
102
{ACAD_REACTORS
330
224
102
}
330
224
100
AcDbXrecord
 90
    10781
  0
XRECORD
  5
22A
102
{ACAD_REACTORS
330
224
102
}
330
224
100
AcDbXrecord
340
29
  0
XRECORD
  5
22B
102
{ACAD_REACTORS
330
224
102
}
330
224
100
AcDbXrecord
340
6
  0
XRECORD
  5
231
102
{ACAD_REACTORS
330
224
102
}
330
224
100
AcDbXrecord
 40
0.0
  0
XRECORD
  5
235
102
{ACAD_REACTORS
330
224
102
}
330
224
100
AcDbXrecord
340
0
  0
XRECORD
  5
23B
102
{ACAD_REACTORS
330
224
102
}
330
224
100
AcDbXrecord
 10
0.0
 20
0.0
 30
0.0
  0
XRECORD
  5
237
102
{ACAD_REACTORS
330
224
102
}
330
224
100
AcDbXrecord
 10
0.0
 20
0.0
 30
0.0
  0
XRECORD
  5
23A
102
{ACAD_REACTORS
330
224
102
}
330
224
100
AcDbXrecord
 10
0.0
 20
0.0
 30
0.0
  0
XRECORD
  5
238
102
{ACAD_REACTORS
330
224
102
}
330
224
100
AcDbXrecord
 10
0.0
 20
0.0
 30
0.0
  0
XRECORD
  5
239
102
{ACAD_REACTORS
330
224
102
}
330
224
100
AcDbXrecord
 10
0.0
 20
0.0
 30
0.0
  0
XRECORD
  5
236
102
{ACAD_REACTORS
330
224
102
}
330
224
100
AcDbXrecord
 10
0.0
 20
0.0
 30
0.0
  0
XRECORD
  5
233
102
{ACAD_REACTORS
330
224
102
}
330
224
100
AcDbXrecord
340
0
  0
XRECORD
  5
234
102
{ACAD_REACTORS
330
224
102
}
330
224
100
AcDbXrecord
 70
     0
  0
XRECORD
  5
228
102
{ACAD_REACTORS
330
224
102
}
330
224
100
AcDbXrecord
  1

  0
XRECORD
  5
225
102
{ACAD_REACTORS
330
224
102
}
330
224
100
AcDbXrecord
 90
        1
  0
XRECORD
  5
226
102
{ACAD_REACTORS
330
224
102
}
330
224
100
AcDbXrecord
 90
       70
  0
XRECORD
  5
23E
102
{ACAD_REACTORS
330
224
102
}
330
224
100
AcDbXrecord
340
0
  0
XRECORD
  5
244
102
{ACAD_REACTORS
330
224
102
}
330
224
100
AcDbXrecord
 10
0.0
 20
0.0
 30
0.0
  0
XRECORD
  5
240
102
{ACAD_REACTORS
330
224
102
}
330
224
100
AcDbXrecord
 10
0.0
 20
0.0
 30
0.0
  0
XRECORD
  5
243
102
{ACAD_REACTORS
330
224
102
}
330
224
100
AcDbXrecord
 10
0.0
 20
0.0
 30
0.0
  0
XRECORD
  5
241
102
{ACAD_REACTORS
330
224
102
}
330
224
100
AcDbXrecord
 10
0.0
 20
0.0
 30
0.0
  0
XRECORD
  5
242
102
{ACAD_REACTORS
330
224
102
}
330
224
100
AcDbXrecord
 10
0.0
 20
0.0
 30
0.0
  0
XRECORD
  5
23F
102
{ACAD_REACTORS
330
224
102
}
330
224
100
AcDbXrecord
 10
0.0
 20
0.0
 30
0.0
  0
XRECORD
  5
23C
102
{ACAD_REACTORS
330
224
102
}
330
224
100
AcDbXrecord
340
0
  0
XRECORD
  5
23D
102
{ACAD_REACTORS
330
224
102
}
330
224
100
AcDbXrecord
 70
     1
  0
XRECORD
  5
230
102
{ACAD_REACTORS
330
224
102
}
330
224
100
AcDbXrecord
  1
{B781DF7F-0B13-4D91-9236-B89DCAD56ADA}
  0
DICTIONARYVAR
  5
95
102
{ACAD_REACTORS
330
93
102
}
330
93
100
DictionaryVariables
280
     0
  1
1
  0
DICTIONARYVAR
  5
94
102
{ACAD_REACTORS
330
93
102
}
330
93
100
DictionaryVariables
280
     0
  1
1
  0
XRECORD
  5
18B
102
{ACAD_REACTORS
330
189
102
}
330
189
100
AcDbXrecord
  0
XRECORD
  5
13
102
{ACAD_REACTORS
330
12
102
}
330
12
100
AcDbXrecord
  1
DIM-1_12
  1
DIM-1_12
  1
*
  1
*
 70
     0
  1
*
  1
*
  0
XRECORD
  5
14
102
{ACAD_REACTORS
330
12
102
}
330
12
100
AcDbXrecord
  1
dim-1_16
  1
*
  1
*
  1
*
 70
     0
  1
*
  1
*
  0
ENDSEC
  0
EOF
