  0
SECTION
  2
HEADER
  9
$ACADVER
  1
AC1014
  9
$ACADMAINTVER
 70
     9
  9
$DWGCODEPAGE
  3
ANSI_1252
  9
$INSBASE
 10
248.7200712599086
 20
-26.61126304100828
 30
0.0
  9
$EXTMIN
 10
230.7094019950164
 20
-29.07162039413366
 30
-0.0015258207003583
  9
$EXTMAX
 10
266.727222072604
 20
0.9952406133132996
 30
0.0000000349246037
  9
$LIMMIN
 10
0.0
 20
0.0
  9
$LIMMAX
 10
17.0
 20
11.0
  9
$ORTHOMODE
 70
     1
  9
$REGENMODE
 70
     1
  9
$FILLMODE
 70
     1
  9
$QTEXTMODE
 70
     0
  9
$MIRRTEXT
 70
     1
  9
$DRAGMODE
 70
     2
  9
$LTSCALE
 40
8.0
  9
$OSMODE
 70
    55
  9
$ATTMODE
 70
     1
  9
$TEXTSIZE
 40
0.2
  9
$TRACEWID
 40
0.05
  9
$TEXTSTYLE
  7
STANDARD
  9
$CLAYER
  8
0
  9
$CELTYPE
  6
BYLAYER
  9
$CECOLOR
 62
   256
  9
$CELTSCALE
 40
1.0
  9
$DELOBJ
 70
     1
  9
$DISPSILH
 70
     0
  9
$DIMSCALE
 40
16.0
  9
$DIMASZ
 40
0.1875
  9
$DIMEXO
 40
0.10625
  9
$DIMDLI
 40
0.6459999999999999
  9
$DIMRND
 40
0.0
  9
$DIMDLE
 40
0.0
  9
$DIMEXE
 40
0.306
  9
$DIMTP
 40
0.0
  9
$DIMTM
 40
0.0
  9
$DIMTXT
 40
0.125
  9
$DIMCEN
 40
0.153
  9
$DIMTSZ
 40
0.0
  9
$DIMTOL
 70
     0
  9
$DIMLIM
 70
     0
  9
$DIMTIH
 70
     1
  9
$DIMTOH
 70
     1
  9
$DIMSE1
 70
     0
  9
$DIMSE2
 70
     0
  9
$DIMTAD
 70
     0
  9
$DIMZIN
 70
     0
  9
$DIMBLK
  1
_FILLED
  9
$DIMASO
 70
     1
  9
$DIMSHO
 70
     1
  9
$DIMPOST
  1

  9
$DIMAPOST
  1

  9
$DIMALT
 70
     0
  9
$DIMALTD
 70
     2
  9
$DIMALTF
 40
25.4
  9
$DIMLFAC
 40
1.0
  9
$DIMTOFL
 70
     0
  9
$DIMTVP
 40
0.0
  9
$DIMTIX
 70
     0
  9
$DIMSOXD
 70
     0
  9
$DIMSAH
 70
     0
  9
$DIMBLK1
  1

  9
$DIMBLK2
  1

  9
$DIMSTYLE
  2
STANDARD
  9
$DIMCLRD
 70
     0
  9
$DIMCLRE
 70
     0
  9
$DIMCLRT
 70
     0
  9
$DIMTFAC
 40
1.0
  9
$DIMGAP
 40
0.09
  9
$DIMJUST
 70
     0
  9
$DIMSD1
 70
     0
  9
$DIMSD2
 70
     0
  9
$DIMTOLJ
 70
     1
  9
$DIMTZIN
 70
     0
  9
$DIMALTZ
 70
     0
  9
$DIMALTTZ
 70
     0
  9
$DIMFIT
 70
     3
  9
$DIMUPT
 70
     0
  9
$DIMUNIT
 70
     2
  9
$DIMDEC
 70
     4
  9
$DIMTDEC
 70
     4
  9
$DIMALTU
 70
     2
  9
$DIMALTTD
 70
     2
  9
$DIMTXSTY
  7
STANDARD
  9
$DIMAUNIT
 70
     0
  9
$LUNITS
 70
     2
  9
$LUPREC
 70
     4
  9
$SKETCHINC
 40
0.1
  9
$FILLETRAD
 40
0.0
  9
$AUNITS
 70
     0
  9
$AUPREC
 70
     0
  9
$MENU
  1
acad
  9
$ELEVATION
 40
0.0
  9
$PELEVATION
 40
0.0
  9
$THICKNESS
 40
0.0
  9
$LIMCHECK
 70
     0
  9
$BLIPMODE
 70
     0
  9
$CHAMFERA
 40
0.0
  9
$CHAMFERB
 40
0.0
  9
$CHAMFERC
 40
0.0
  9
$CHAMFERD
 40
0.0
  9
$SKPOLY
 70
     0
  9
$TDCREATE
 40
2453679.095380312
  9
$TDUPDATE
 40
2453689.427816041
  9
$TDINDWG
 40
0.0079628588
  9
$TDUSRTIMER
 40
0.0079628588
  9
$USRTIMER
 70
     1
  9
$ANGBASE
 50
0.0
  9
$ANGDIR
 70
     0
  9
$PDMODE
 70
     3
  9
$PDSIZE
 40
0.3125
  9
$PLINEWID
 40
0.0
  9
$COORDS
 70
     1
  9
$SPLFRAME
 70
     0
  9
$SPLINETYPE
 70
     6
  9
$SPLINESEGS
 70
     8
  9
$ATTDIA
 70
     0
  9
$ATTREQ
 70
     1
  9
$HANDLING
 70
 22529
  9
$HANDSEED
  5
75F
  9
$SURFTAB1
 70
     6
  9
$SURFTAB2
 70
     6
  9
$SURFTYPE
 70
     6
  9
$SURFU
 70
     6
  9
$SURFV
 70
     6
  9
$UCSNAME
  2

  9
$UCSORG
 10
0.0
 20
0.0
 30
0.0
  9
$UCSXDIR
 10
1.0
 20
0.0
 30
0.0
  9
$UCSYDIR
 10
0.0
 20
1.0
 30
0.0
  9
$PUCSNAME
  2

  9
$PUCSORG
 10
0.0
 20
0.0
 30
0.0
  9
$PUCSXDIR
 10
1.0
 20
0.0
 30
0.0
  9
$PUCSYDIR
 10
0.0
 20
1.0
 30
0.0
  9
$USERI1
 70
     0
  9
$USERI2
 70
     0
  9
$USERI3
 70
     0
  9
$USERI4
 70
     0
  9
$USERI5
 70
     0
  9
$USERR1
 40
0.0
  9
$USERR2
 40
0.0
  9
$USERR3
 40
0.0
  9
$USERR4
 40
0.0
  9
$USERR5
 40
0.0
  9
$WORLDVIEW
 70
     1
  9
$SHADEDGE
 70
     3
  9
$SHADEDIF
 70
    70
  9
$TILEMODE
 70
     1
  9
$MAXACTVP
 70
    16
  9
$PINSBASE
 10
0.0
 20
0.0
 30
0.0
  9
$PLIMCHECK
 70
     0
  9
$PEXTMIN
 10
1.000000000000000E+20
 20
1.000000000000000E+20
 30
1.000000000000000E+20
  9
$PEXTMAX
 10
-1.000000000000000E+20
 20
-1.000000000000000E+20
 30
-1.000000000000000E+20
  9
$PLIMMIN
 10
0.0
 20
0.0
  9
$PLIMMAX
 10
12.0
 20
9.0
  9
$UNITMODE
 70
     0
  9
$VISRETAIN
 70
     0
  9
$PLINEGEN
 70
     1
  9
$PSLTSCALE
 70
     0
  9
$TREEDEPTH
 70
  3020
  9
$PICKSTYLE
 70
     1
  9
$CMLSTYLE
  2
STANDARD
  9
$CMLJUST
 70
     0
  9
$CMLSCALE
 40
1.0
  9
$PROXYGRAPHICS
 70
     1
  9
$MEASUREMENT
 70
     0
  0
ENDSEC
  0
SECTION
  2
CLASSES
  0
CLASS
  1
LWPOLYLINE
  2
AcDbPolyline
  3
AutoCAD 2000
 90
        0
280
     0
281
     1
  0
CLASS
  1
XRECORD
  2
AcDbXrecord
  3
AutoCAD 2000
 90
        0
280
     0
281
     0
  0
CLASS
  1
ACDBDICTIONARYWDFLT
  2
AcDbDictionaryWithDefault
  3
AutoCAD 2000
 90
        0
280
     0
281
     0
  0
CLASS
  1
ACDBPLACEHOLDER
  2
AcDbPlaceHolder
  3
AutoCAD 2000
 90
        0
280
     0
281
     0
  0
CLASS
  1
LAYOUT
  2
AcDbLayout
  3
AutoCAD 2000
 90
        0
280
     0
281
     0
  0
CLASS
  1
DICTIONARYVAR
  2
AcDbDictionaryVar
  3
AutoCAD 2000
 90
        0
280
     0
281
     0
  0
CLASS
  1
LONG_TRANSACTION
  2
AcDbLongTransaction
  3
AutoCAD 2000
 90
        0
280
     0
281
     0
  0
CLASS
  1
LWPOLYLINE
  2
AcDbPolyline
  3
AutoCAD 2000
 90
        0
280
     0
281
     1
  0
CLASS
  1
HATCH
  2
AcDbHatch
  3
AutoCAD 2000
 90
        0
280
     0
281
     1
  0
CLASS
  1
XRECORD
  2
AcDbXrecord
  3
AutoCAD 2000
 90
        0
280
     0
281
     0
  0
ENDSEC
  0
SECTION
  2
TABLES
  0
TABLE
  2
VPORT
  5
12
330
0
100
AcDbSymbolTable
 70
     3
  0
VPORT
  5
739
330
12
100
AcDbSymbolTableRecord
100
AcDbViewportTableRecord
  2
*ACTIVE
 70
     0
 10
0.0
 20
0.0
 11
1.0
 21
1.0
 12
248.718311958146
 22
-14.03818994455658
 13
0.0
 23
0.0
 14
1.0
 24
1.0
 15
0.0
 25
0.0
 16
0.0
 26
0.0
 36
1.0
 17
0.0
 27
0.0
 37
0.0
 40
38.00824948493913
 41
1.786792452830188
 42
50.0
 43
0.0
 44
0.0
 50
0.0
 51
0.0
 71
     0
 72
   100
 73
     1
 74
     1
 75
     0
 76
     0
 77
     0
 78
     0
  0
ENDTAB
  0
TABLE
  2
LTYPE
  5
D
330
0
100
AcDbSymbolTable
 70
     3
  0
LTYPE
  5
E
330
D
100
AcDbSymbolTableRecord
100
AcDbLinetypeTableRecord
  2
BYBLOCK
 70
     0
  3

 72
    65
 73
     0
 40
0.0
  0
LTYPE
  5
F
330
D
100
AcDbSymbolTableRecord
100
AcDbLinetypeTableRecord
  2
BYLAYER
 70
     0
  3

 72
    65
 73
     0
 40
0.0
  0
LTYPE
  5
5
330
D
100
AcDbSymbolTableRecord
100
AcDbLinetypeTableRecord
  2
CONTINUOUS
 70
     0
  3
Solid line
 72
    65
 73
     0
 40
0.0
  0
LTYPE
  5
3C
330
D
100
AcDbSymbolTableRecord
100
AcDbLinetypeTableRecord
  2
CENTER
 70
     0
  3
____ _ ____ _ ____ _ ____ _ ____ _ ____ _ ____
 72
    65
 73
     4
 40
0.6
 49
0.375
 74
     0
 49
-0.075
 74
     0
 49
0.075
 74
     0
 49
-0.075
 74
     0
  0
LTYPE
  5
3F
330
D
100
AcDbSymbolTableRecord
100
AcDbLinetypeTableRecord
  2
HIDDEN
 70
     0
  3
- - - - - - - - - - - - - - - - - - - -
 72
    65
 73
     2
 40
0.2
 49
0.1
 74
     0
 49
-0.1
 74
     0
  0
ENDTAB
  0
TABLE
  2
LAYER
  5
A
330
0
100
AcDbSymbolTable
 70
     2
  0
LAYER
  5
4
330
A
100
AcDbSymbolTableRecord
100
AcDbLayerTableRecord
  2
0
 70
     0
 62
     7
  6
CONTINUOUS
  0
LAYER
  5
39
330
A
100
AcDbSymbolTableRecord
100
AcDbLayerTableRecord
  2
CENTER
 70
     0
 62
     1
  6
CENTER
  0
ENDTAB
  0
TABLE
  2
STYLE
  5
B
330
0
100
AcDbSymbolTable
 70
     1
  0
STYLE
  5
C
330
B
100
AcDbSymbolTableRecord
100
AcDbTextStyleTableRecord
  2
STANDARD
 70
     0
 40
0.0
 41
0.8
 50
0.0
 71
     0
 42
0.2
  3
txt
  4

  0
ENDTAB
  0
TABLE
  2
VIEW
  5
10
330
0
100
AcDbSymbolTable
 70
     0
  0
ENDTAB
  0
TABLE
  2
UCS
  5
11
330
0
100
AcDbSymbolTable
 70
     0
  0
ENDTAB
  0
TABLE
  2
APPID
  5
14
330
0
100
AcDbSymbolTable
 70
     1
  0
APPID
  5
15
330
14
100
AcDbSymbolTableRecord
100
AcDbRegAppTableRecord
  2
ACAD
 70
     0
  0
ENDTAB
  0
TABLE
  2
DIMSTYLE
  5
16
330
0
100
AcDbSymbolTable
 70
     1
  0
DIMSTYLE
105
1C
330
16
100
AcDbSymbolTableRecord
100
AcDbDimStyleTableRecord
  2
STANDARD
 70
     0
  3

  4

  5
_FILLED
  6
_FILLED
  7
_FILLED
 40
1.0
 41
0.1875
 42
0.0625
 43
0.38
 44
0.18
 45
0.0
 46
0.0
 47
0.00001
 48
0.00001
140
0.125
141
0.09
142
0.0
143
25.4
144
1.0
145
0.0
146
1.0
147
0.09
 71
     0
 72
     0
 73
     1
 74
     1
 75
     0
 76
     0
 77
     0
 78
     4
170
     0
171
     2
172
     0
173
     0
174
     0
175
     0
176
     0
177
     0
178
     0
270
     2
271
     4
272
     4
273
     2
274
     2
340
C
275
     0
280
     0
281
     0
282
     0
283
     1
284
     0
285
     0
286
     0
287
     3
288
     0
  0
ENDTAB
  0
TABLE
  2
BLOCK_RECORD
  5
1
330
0
100
AcDbSymbolTable
 70
     1
  0
BLOCK_RECORD
  5
2
102
{ACAD_XDICTIONARY
360
75B
102
}
330
1
100
AcDbSymbolTableRecord
100
AcDbBlockTableRecord
  2
*MODEL_SPACE
  0
BLOCK_RECORD
  5
7
102
{ACAD_XDICTIONARY
360
75D
102
}
330
1
100
AcDbSymbolTableRecord
100
AcDbBlockTableRecord
  2
*PAPER_SPACE
  0
BLOCK_RECORD
  5
1D
330
1
100
AcDbSymbolTableRecord
100
AcDbBlockTableRecord
  2
_FILLED
  0
ENDTAB
  0
ENDSEC
  0
SECTION
  2
BLOCKS
  0
BLOCK
  5
3
330
2
100
AcDbEntity
  8
0
100
AcDbBlockBegin
  2
*MODEL_SPACE
 70
     0
 10
0.0
 20
0.0
 30
0.0
  3
*MODEL_SPACE
  1

  0
ENDBLK
  5
6
330
2
100
AcDbEntity
  8
0
100
AcDbBlockEnd
  0
BLOCK
  5
8
330
7
100
AcDbEntity
 67
     1
  8
0
100
AcDbBlockBegin
  2
*PAPER_SPACE
 70
     0
 10
0.0
 20
0.0
 30
0.0
  3
*PAPER_SPACE
  1

  0
ENDBLK
  5
9
330
7
100
AcDbEntity
 67
     1
  8
0
100
AcDbBlockEnd
  0
BLOCK
  5
1F
330
1D
100
AcDbEntity
  8
0
100
AcDbBlockBegin
  2
_FILLED
 70
     0
 10
0.0
 20
0.0
 30
0.0
  3
_FILLED
  1

  0
SOLID
  5
1E
330
1D
100
AcDbEntity
  8
0
  6
BYBLOCK
 62
     0
100
AcDbTrace
 10
0.0
 20
0.0
 30
0.0
 11
-1.0
 21
0.1666666667
 31
0.0
 12
-1.0
 22
-0.1666666667
 32
0.0
 13
-1.0
 23
-0.1666666667
 33
0.0
  0
ENDBLK
  5
20
330
1D
100
AcDbEntity
  8
0
  6
BYBLOCK
 62
     0
100
AcDbBlockEnd
  0
ENDSEC
  0
SECTION
  2
ENTITIES
  0
LWPOLYLINE
  5
21
330
2
100
AcDbEntity
  8
0
  6
CONTINUOUS
100
AcDbPolyline
 90
        5
 70
     0
 43
0.0
 10
232.4784358999735
 20
-2.018895096420521
 10
233.7220577399735
 20
-5.717411659620523
 10
234.5553190999735
 20
-9.761457968420501
 10
235.0445261287736
 20
-13.80551077482049
 10
235.3159974695735
 20
-17.71831075402052
  0
LWPOLYLINE
  5
28
330
2
100
AcDbEntity
  8
0
  6
CONTINUOUS
100
AcDbPolyline
 90
       14
 70
     0
 43
0.0
 10
248.7190818311735
 20
-15.05474150922052
 10
249.2548349431735
 20
-14.99531466602051
 10
249.8295661607735
 20
-14.79839234282053
 10
250.4223463175735
 20
-14.44612974922049
 10
251.0123109911735
 20
-13.9349421316205
 10
251.5850530215735
 20
-13.2678325828205
 10
252.1317575959735
 20
-12.44734804682049
 10
252.6463851479735
 20
-11.47326175562052
 10
253.1240273255735
 20
-10.34245095562052
 10
253.5600105399735
 20
-9.049267811620524
 10
253.9491023143735
 20
-7.585765334820521
 10
254.2839107143735
 20
-5.878908597220501
 10
254.5508009703735
 20
-4.040813059620504
 10
254.7172985607735
 20
-2.018891810020519
  0
LINE
  5
38
330
2
100
AcDbEntity
  8
CENTER
100
AcDbLine
 10
248.7190818311735
 20
-23.6547363780205
 30
0.0
 11
248.7190818311735
 21
0.9940643456591686
 31
0.0
  0
LWPOLYLINE
  5
3D
330
2
100
AcDbEntity
  8
0
  6
HIDDEN
 62
     9
100
AcDbPolyline
 90
        7
 70
     0
 43
0.0
 10
234.0871628807736
 20
-1.192805827620503
 10
234.4983631479735
 20
-4.073444478820519
 10
235.0175678663736
 20
-7.11251940842051
 10
235.6091394839735
 20
-9.966658976420504
 10
236.2711029143735
 20
-12.71612094442049
 10
236.9865524151735
 20
-15.31788173642049
 10
237.6246907959735
 20
-17.39949163242053
  0
LWPOLYLINE
  5
47
330
2
100
AcDbEntity
  8
0
  6
HIDDEN
 62
     9
100
AcDbPolyline
 90
        7
 70
     0
 43
0.0
 10
234.3041786967735
 20
-1.165155395620502
 10
234.7142701607735
 20
-4.038229558820503
 10
235.2321786391735
 20
-7.070137131620498
 10
235.8222943815735
 20
-9.917480946020504
 10
236.4826982359735
 20
-12.66062439562049
 10
237.1964853191735
 20
-15.25639984042051
 10
237.8329847751735
 20
-17.33266739562049
  0
LWPOLYLINE
  5
50
330
2
100
AcDbEntity
  8
0
  6
CONTINUOUS
100
AcDbPolyline
 90
       14
 70
     0
 43
0.0
 10
242.7208651111735
 20
-2.0188919188205
 10
242.8873626935736
 20
-4.040813059620504
 10
243.1542529479735
 20
-5.878908597220501
 10
243.4890613495735
 20
-7.585765334820521
 10
243.8781531223735
 20
-9.049267811620524
 10
244.3141363367735
 20
-10.34245095562052
 10
244.7917785143735
 20
-11.47326175562052
 10
245.3064060679735
 20
-12.44734804682049
 10
245.8531106423735
 20
-13.2678325828205
 10
246.4258526711735
 20
-13.9349421316205
 10
247.0158173447735
 20
-14.44612974922049
 10
247.6085975031735
 20
-14.79839234282053
 10
248.1833287191735
 20
-14.99531466602051
 10
248.7190818311735
 20
-15.05474150922052
  0
LWPOLYLINE
  5
60
330
2
100
AcDbEntity
  8
0
  6
HIDDEN
 62
     9
100
AcDbPolyline
 90
        7
 70
     0
 43
0.0
 10
263.1339849655735
 20
-1.165155395620502
 10
262.7238935015735
 20
-4.038229558820503
 10
262.2059850231735
 20
-7.070137131620498
 10
261.6158692807735
 20
-9.917480946020504
 10
260.9554654263735
 20
-12.66062439562049
 10
260.2416783431735
 20
-15.25639984042051
 10
259.6051788871735
 20
-17.33266739562049
  0
LWPOLYLINE
  5
69
330
2
100
AcDbEntity
  8
0
  6
HIDDEN
 62
     9
100
AcDbPolyline
 90
        7
 70
     0
 43
0.0
 10
263.3510007815735
 20
-1.192805827620503
 10
262.9398005143735
 20
-4.073444478820519
 10
262.4205957959735
 20
-7.11251940842051
 10
261.8290241783735
 20
-9.966658976420504
 10
261.1670607479735
 20
-12.71612094442049
 10
260.4516112471735
 20
-15.31788173642049
 10
259.8134728663735
 20
-17.39949163242053
  0
LWPOLYLINE
  5
72
330
2
100
AcDbEntity
  8
0
  6
CONTINUOUS
100
AcDbPolyline
 90
        5
 70
     0
 43
0.0
 10
262.1221661895735
 20
-17.71831081482051
 10
262.3936393431736
 20
-13.8054904996205
 10
262.8828475815735
 20
-9.761438965220534
 10
263.7161091319735
 20
-5.717399643620524
 10
264.9597276823735
 20
-2.018895317220497
  0
LINE
  5
79
330
2
100
AcDbEntity
  8
0
  6
HIDDEN
 62
     9
100
AcDbLine
 10
256.2405693095735
 20
-19.6105233700205
 30
0.0
 11
250.6817936055735
 21
-19.77638381962051
 31
0.0
  0
LINE
  5
7A
330
2
100
AcDbEntity
  8
0
  6
HIDDEN
 62
     9
100
AcDbLine
 10
256.2251048087735
 20
-19.39232068362049
 30
0.0
 11
250.7952802327735
 21
-19.54296953642051
 31
0.0
  0
LINE
  5
7B
330
2
100
AcDbEntity
  8
0
  6
CONTINUOUS
100
AcDbLine
 10
240.2001710976081
 20
-20.55473637802052
 30
0.0
 11
257.0370364311735
 21
-20.55473637802052
 31
0.0
  0
LWPOLYLINE
  5
7C
330
2
100
AcDbEntity
  8
0
  6
CONTINUOUS
100
AcDbPolyline
 90
        7
 70
     0
 43
0.0
 10
236.9627255383735
 20
-24.81626380682049
 10
236.8658774759735
 20
-25.0122992132205
 10
236.7943621223735
 20
-25.21344603562052
 10
236.7517474951735
 20
-25.4077168980205
 10
236.7372883191735
 20
-25.6003651908205
 10
236.7519086039735
 20
-25.78224934282053
 10
236.7953467287735
 20
-25.95243468202049
  0
LINE
  5
85
330
2
100
AcDbEntity
  8
CENTER
100
AcDbLine
 10
237.6819491719735
 20
-29.07039763593803
 30
0.0
 11
237.6819491719735
 21
-22.9536379757475
 31
0.0
  0
LWPOLYLINE
  5
86
330
2
100
AcDbEntity
  8
0
  6
CONTINUOUS
100
AcDbPolyline
 90
        9
 70
     0
 43
0.0
 10
239.2152261735735
 20
-25.21710374602052
 10
239.1277588327735
 20
-25.32708902762049
 10
239.0462746135735
 20
-25.4569435428205
 10
238.9669662199735
 20
-25.59887808362051
 10
238.8868790391735
 20
-25.74585992842052
 10
238.8052205191735
 20
-25.8896322436205
 10
238.7149035367735
 20
-26.03433584682051
 10
238.6114567719735
 20
-26.17798359242049
 10
238.4915096999735
 20
-26.31462203242049
  0
LWPOLYLINE
  5
91
330
2
100
AcDbEntity
  8
0
  6
CONTINUOUS
100
AcDbPolyline
 90
        4
 70
     0
 43
0.0
 10
238.4394475159735
 20
-26.36442711402052
 10
238.3958872983735
 20
-26.4041494356205
 10
238.3531045991735
 20
-26.44377728522052
 10
238.3112175287735
 20
-26.48319857962052
  0
LINE
  5
97
330
2
100
AcDbEntity
  8
0
  6
CONTINUOUS
100
AcDbLine
 10
237.3111808711735
 20
-26.61723637802051
 30
0.0
 11
238.1699440423735
 21
-26.61723637802051
 31
0.0
  0
LINE
  5
98
330
2
100
AcDbEntity
  8
0
  6
CONTINUOUS
100
AcDbLine
 10
237.0401379991735
 20
-26.31918185322052
 30
0.0
 11
237.0455625479735
 21
-26.33423890762049
 31
0.0
  0
LINE
  5
99
330
2
100
AcDbEntity
  8
0
  6
CONTINUOUS
100
AcDbLine
 10
236.7953467287735
 20
-25.95243468202049
 30
0.0
 11
236.8503206567735
 21
-26.07695955722051
 31
0.0
  0
LINE
  5
9A
330
2
100
AcDbEntity
  8
0
  6
CONTINUOUS
100
AcDbLine
 10
236.8497688071735
 20
-26.0759187300205
 30
0.0
 11
236.8503206567735
 21
-26.07695955722051
 31
0.0
  0
LINE
  5
9B
330
2
100
AcDbEntity
  8
0
  6
CONTINUOUS
100
AcDbLine
 10
236.8503206567735
 20
-26.07695955722051
 30
0.0
 11
236.8890030183735
 21
-26.14320280202051
 31
0.0
  0
LWPOLYLINE
  5
9C
330
2
100
AcDbEntity
  8
0
  6
CONTINUOUS
100
AcDbPolyline
 90
        3
 70
     0
 43
0.0
 10
236.8497688071735
 20
-26.0759187300205
 10
236.9209694823735
 20
-26.1901329940205
 10
236.9963294407735
 20
-26.28242575082051
  0
LINE
  5
A1
330
2
100
AcDbEntity
  8
0
  6
CONTINUOUS
100
AcDbLine
 10
236.8890030183735
 20
-26.14320280202051
 30
0.0
 11
236.9959222599735
 21
-26.28197194762051
 31
0.0
  0
LINE
  5
A2
330
2
100
AcDbEntity
  8
0
  6
CONTINUOUS
100
AcDbLine
 10
236.9959222599735
 20
-26.28197194762051
 30
0.0
 11
236.9963294407735
 21
-26.28242575082051
 31
0.0
  0
LINE
  5
A3
330
2
100
AcDbEntity
  8
0
  6
CONTINUOUS
100
AcDbLine
 10
236.9959222599735
 20
-26.28197194762051
 30
0.0
 11
237.0140304151735
 21
-26.30146654762052
 31
0.0
  0
LWPOLYLINE
  5
A4
330
2
100
AcDbEntity
  8
0
  6
CONTINUOUS
100
AcDbPolyline
 90
        4
 70
     0
 43
0.0
 10
237.1690651703735
 20
-26.46200522442049
 10
237.2130033703735
 20
-26.50880349322051
 10
237.2669227607735
 20
-26.56766749002051
 10
237.3111817863735
 20
-26.61723637802051
  0
LWPOLYLINE
  5
AA
330
2
100
AcDbEntity
  8
0
  6
CONTINUOUS
100
AcDbPolyline
 90
        3
 70
     0
 43
0.0
 10
237.0140519543735
 20
-26.30148940842049
 10
237.0295616055735
 20
-26.3177594516205
 10
237.0870438663735
 20
-26.37669638602051
  0
LINE
  5
AF
330
2
100
AcDbEntity
  8
0
  6
CONTINUOUS
100
AcDbLine
 10
237.0231999831736
 20
-26.31113632842049
 30
0.0
 11
237.0388257079735
 21
-26.3273454708205
 31
0.0
  0
LWPOLYLINE
  5
B0
330
2
100
AcDbEntity
  8
0
  6
CONTINUOUS
100
AcDbPolyline
 90
        3
 70
     0
 43
0.0
 10
237.0870438663735
 20
-26.37669638602051
 10
237.1346554695735
 20
-26.42596066122052
 10
237.1690670503735
 20
-26.46200720522049
  0
LINE
  5
B5
330
2
100
AcDbEntity
  8
0
  6
CONTINUOUS
100
AcDbLine
 10
238.3112175287735
 20
-26.48319857962052
 30
0.0
 11
238.1699440439735
 21
-26.61723637802051
 31
0.0
  0
LWPOLYLINE
  5
B6
330
2
100
AcDbEntity
  8
0
  6
CONTINUOUS
100
AcDbPolyline
 90
        4
 70
     0
 43
0.0
 10
238.4915096999735
 20
-26.31462203242049
 10
238.4746518551735
 20
-26.33135134122051
 10
238.4573029495735
 20
-26.34795960842049
 10
238.4394475159735
 20
-26.36442711402052
  0
LWPOLYLINE
  5
BC
330
2
100
AcDbEntity
  8
0
  6
CONTINUOUS
100
AcDbPolyline
 90
        5
 70
     0
 43
0.0
 10
241.2993917639735
 20
-20.86647192202049
 10
241.0885520311735
 20
-20.85369866442052
 10
240.8926134999735
 20
-20.82517311882049
 10
240.7130379623735
 20
-20.78108149802051
 10
240.5521906039735
 20
-20.7220118772205
  0
LWPOLYLINE
  5
C3
330
2
100
AcDbEntity
  8
0
  6
CONTINUOUS
100
AcDbPolyline
 90
        4
 70
     0
 43
0.0
 10
241.1732441591735
 20
-20.8068795540205
 10
240.9801653399735
 20
-20.79827385002051
 10
240.8005734135735
 20
-20.77481883402052
 10
240.6360249351735
 20
-20.7365748644205
  0
LWPOLYLINE
  5
C9
330
2
100
AcDbEntity
  8
0
  6
HIDDEN
 62
     9
100
AcDbPolyline
 90
        6
 70
     0
 43
0.0
 10
240.4016516967735
 20
-19.51639469482051
 10
240.4960739463735
 20
-19.53410293002049
 10
240.6861521559735
 20
-19.56253356522052
 10
240.8653246599735
 20
-19.58276501642049
 10
241.0552995943735
 20
-19.59976571562052
 10
241.1975943527735
 20
-19.6105233700205
  0
LWPOLYLINE
  5
D1
330
2
100
AcDbEntity
  8
0
  6
CONTINUOUS
100
AcDbPolyline
 90
        4
 70
     0
 43
0.0
 10
241.4799564135735
 20
-21.30643201642049
 10
241.2904030887736
 20
-21.63520298442049
 10
241.0851055287735
 20
-21.95097321642051
 10
240.8650857127735
 20
-22.2522203940205
  0
LWPOLYLINE
  5
D7
330
2
100
AcDbEntity
  8
0
  6
CONTINUOUS
100
AcDbPolyline
 90
        5
 70
     0
 43
0.0
 10
238.4299845799735
 20
-19.62108523882051
 10
238.4105883735735
 20
-20.02722893802052
 10
238.4144831655735
 20
-20.43147749642052
 10
238.4413333255735
 20
-20.8234758884205
 10
238.4898157207735
 20
-21.19338446122049
  0
LWPOLYLINE
  5
DE
330
2
100
AcDbEntity
  8
0
  6
CONTINUOUS
100
AcDbPolyline
 90
        7
 70
     0
 43
0.0
 10
238.3171111639735
 20
-22.2228653364205
 10
238.1323069527735
 20
-21.9088600948205
 10
237.9704116295735
 20
-21.55300617002049
 10
237.8338196583735
 20
-21.1602046612205
 10
237.7253391783735
 20
-20.7383455204205
 10
237.6464758007735
 20
-20.29328118122051
 10
237.5987755095735
 20
-19.83405839562049
  0
LWPOLYLINE
  5
E7
330
2
100
AcDbEntity
  8
0
  6
CONTINUOUS
100
AcDbPolyline
 90
        5
 70
     0
 43
0.0
 10
237.5060545015735
 20
-19.51246087882051
 10
237.5388509687735
 20
-19.92441199402049
 10
237.6004511207735
 20
-20.3342407188205
 10
237.6897059399735
 20
-20.7314752660205
 10
237.8042359063735
 20
-21.10618961162051
  0
LWPOLYLINE
  5
EE
330
2
100
AcDbEntity
  8
0
  6
CONTINUOUS
100
AcDbPolyline
 90
        5
 70
     0
 43
0.0
 10
237.4287413047735
 20
-19.62108523882051
 10
237.4671488599735
 20
-20.0287500372205
 10
237.5348889127735
 20
-20.43396918442051
 10
237.6306558567735
 20
-20.82624705642052
 10
237.7518485815735
 20
-21.19565604202049
  0
LWPOLYLINE
  5
F5
330
2
100
AcDbEntity
  8
0
  6
CONTINUOUS
100
AcDbPolyline
 90
        5
 70
     0
 43
0.0
 10
238.3311615335735
 20
-21.46371511722049
 10
238.2030764487735
 20
-21.08502543082051
 10
238.1014537495735
 20
-20.6797225844205
 10
238.0276322951735
 20
-20.25315173482052
 10
237.9830039991735
 20
-19.81368035082051
  0
LWPOLYLINE
  5
FC
330
2
100
AcDbEntity
  8
0
  6
CONTINUOUS
100
AcDbPolyline
 90
        5
 70
     0
 43
0.0
 10
238.2564487473539
 20
-19.5214150542175
 10
238.2465680823735
 20
-19.9232667636205
 10
238.2609616695735
 20
-20.3323710148205
 10
238.2993985511735
 20
-20.72940370282051
 10
238.3604113511736
 20
-21.1044990900205
  0
LWPOLYLINE
  5
103
330
2
100
AcDbEntity
  8
0
  6
CONTINUOUS
100
AcDbPolyline
 90
        3
 70
     0
 43
0.0
 10
237.0179260887735
 20
-20.81843776202049
 10
237.1602294871735
 20
-21.27151176202049
 10
237.3593407767735
 20
-21.74214644842052
  0
LWPOLYLINE
  5
108
330
2
100
AcDbEntity
  8
0
  6
CONTINUOUS
100
AcDbPolyline
 90
        4
 70
     0
 43
0.0
 10
237.0107805063735
 20
-20.7220118772205
 10
237.1557393847735
 20
-21.21822083562052
 10
237.3483098951735
 20
-21.68937363242051
 10
237.5788863111735
 20
-22.11770230922051
  0
LWPOLYLINE
  5
10E
330
2
100
AcDbEntity
  8
0
  6
CONTINUOUS
100
AcDbPolyline
 90
        5
 70
     0
 43
0.0
 10
238.3311615335735
 20
-21.46371511722049
 10
238.3010113367735
 20
-21.3824308180205
 10
238.2699089847735
 20
-21.29347444362049
 10
238.2378646839735
 20
-21.19557592362049
 10
238.2049839271735
 20
-21.0873709716205
  0
LWPOLYLINE
  5
115
330
2
100
AcDbEntity
  8
0
  6
CONTINUOUS
100
AcDbPolyline
 90
        8
 70
     0
 43
0.0
 10
238.6289184055735
 20
-22.2281929972205
 10
238.4437693047735
 20
-21.91360171882049
 10
238.2815721191736
 20
-21.55708427882049
 10
238.1447260423736
 20
-21.16355242122049
 10
238.0360430391735
 20
-20.74090665482052
 10
237.9570320183735
 20
-20.29501002602052
 10
237.9092425943735
 20
-19.83492961322049
 10
237.8932285815735
 20
-19.36723637802051
  0
LWPOLYLINE
  5
11F
330
2
100
AcDbEntity
  8
0
  6
CONTINUOUS
100
AcDbPolyline
 90
        5
 70
     0
 43
0.0
 10
238.3958071207735
 20
-21.4238096692205
 10
238.3653089255735
 20
-21.34400584202051
 10
238.3339197047735
 20
-21.25669962762052
 10
238.3016454839735
 20
-21.16064195082051
 10
238.2685883143735
 20
-21.05449409002051
  0
LWPOLYLINE
  5
126
330
2
100
AcDbEntity
  8
0
  6
CONTINUOUS
100
AcDbPolyline
 90
        5
 70
     0
 43
0.0
 10
238.7402226727735
 20
-22.9193320852205
 10
238.7016457319735
 20
-23.0717676260205
 10
238.6520032231735
 20
-23.21180296362052
 10
238.5921690151735
 20
-23.33641610122052
 10
238.5235313063735
 20
-23.44242778282049
  0
LWPOLYLINE
  5
12D
330
2
100
AcDbEntity
  8
0
  6
CONTINUOUS
100
AcDbPolyline
 90
        4
 70
     0
 43
0.0
 10
240.0902900519735
 20
-23.23556464842052
 10
240.0609529831735
 20
-23.27122673642049
 10
240.0331969031735
 20
-23.30724378922051
 10
240.0066214999735
 20
-23.34399458122051
  0
LINE
  5
133
330
2
100
AcDbEntity
  8
0
  6
CONTINUOUS
100
AcDbLine
 10
237.2891910903735
 20
-24.1562848228205
 30
0.0
 11
238.1171843831735
 21
-23.25937561322052
 31
0.0
  0
LINE
  5
134
330
2
100
AcDbEntity
  8
0
  6
CONTINUOUS
100
AcDbLine
 10
237.6014422263735
 20
-24.15039022282051
 30
0.0
 11
238.4294355175735
 21
-23.25348101322052
 31
0.0
  0
LWPOLYLINE
  5
135
330
2
100
AcDbEntity
  8
0
  6
CONTINUOUS
100
AcDbPolyline
 90
        3
 70
     0
 43
0.0
 10
238.4782585239735
 20
-23.49640238602052
 10
238.3441545735735
 20
-23.6397176740205
 10
238.2113665351735
 20
-23.78092713322049
  0
LWPOLYLINE
  5
13A
330
2
100
AcDbEntity
  8
0
  6
CONTINUOUS
100
AcDbPolyline
 90
        3
 70
     0
 43
0.0
 10
237.6888255799735
 20
-24.32829941482052
 10
237.6236287559736
 20
-24.40515134282049
 10
237.5631867271735
 20
-24.49580094602049
  0
LWPOLYLINE
  5
13F
330
2
100
AcDbEntity
  8
0
  6
CONTINUOUS
100
AcDbPolyline
 90
        3
 70
     0
 43
0.0
 10
237.5200548983735
 20
-24.6045576644205
 10
237.5403815911735
 20
-24.54831531402052
 10
237.5631867415735
 20
-24.49580084842052
  0
LINE
  5
144
330
2
100
AcDbEntity
  8
0
  6
CONTINUOUS
100
AcDbLine
 10
237.5185377863735
 20
-24.60921633962049
 30
0.0
 11
237.5200549015735
 21
-24.6045576308205
 31
0.0
  0
LWPOLYLINE
  5
145
330
2
100
AcDbEntity
  8
0
  6
CONTINUOUS
100
AcDbPolyline
 90
        4
 70
     0
 43
0.0
 10
237.4937861175735
 20
-24.6985372772205
 10
237.5007152439735
 20
-24.67052347242051
 10
237.5089094183735
 20
-24.6406924692205
 10
237.5185377863735
 20
-24.60921634602049
  0
LWPOLYLINE
  5
14B
330
2
100
AcDbEntity
  8
0
  6
CONTINUOUS
100
AcDbPolyline
 90
        7
 70
     0
 43
0.0
 10
237.0307458695735
 20
-25.1155156324205
 10
237.0282840343735
 20
-24.9535593396205
 10
237.0400593287735
 20
-24.7929761668205
 10
237.0658852807735
 20
-24.63761357162051
 10
237.1049276967735
 20
-24.49271237802052
 10
237.1562949799735
 20
-24.36157951562051
 10
237.2182237111735
 20
-24.24859360042052
  0
LWPOLYLINE
  5
154
330
2
100
AcDbEntity
  8
0
  6
CONTINUOUS
100
AcDbPolyline
 90
        3
 70
     0
 43
0.0
 10
237.3413711111735
 20
-25.09861151562049
 10
237.3526982135735
 20
-25.0950804548205
 10
237.3640437143735
 20
-25.0878597924205
  0
LINE
  5
159
330
2
100
AcDbEntity
  8
0
  6
CONTINUOUS
100
AcDbLine
 10
236.9658057335735
 20
-24.81085470122051
 30
0.0
 11
236.9626161431735
 21
-24.81645657322052
 31
0.0
  0
LWPOLYLINE
  5
15A
330
2
100
AcDbEntity
  8
0
  6
CONTINUOUS
100
AcDbPolyline
 90
        7
 70
     0
 43
0.0
 10
237.0302377463735
 20
-25.1298408196205
 10
237.0461907399735
 20
-25.12928423082049
 10
237.0645717639735
 20
-25.12848307242052
 10
237.0858852663735
 20
-25.12729941802052
 10
237.1106671479735
 20
-25.1255517204205
 10
237.1394979799735
 20
-25.12306408362051
 10
237.1730450343735
 20
-25.11970273962051
  0
LWPOLYLINE
  5
163
330
2
100
AcDbEntity
  8
0
  6
CONTINUOUS
100
AcDbPolyline
 90
        5
 70
     0
 43
0.0
 10
237.1730449943735
 20
-25.11970272522052
 10
237.2169252695735
 20
-25.11488705322052
 10
237.2607426951735
 20
-25.10957860842052
 10
237.3027817383735
 20
-25.10410546762052
 10
237.3413711143735
 20
-25.09861151882051
  0
LWPOLYLINE
  5
16A
330
2
100
AcDbEntity
  8
0
  6
CONTINUOUS
100
AcDbPolyline
 90
        4
 70
     0
 43
0.0
 10
237.0302377463735
 20
-25.1298408196205
 10
237.0308094695735
 20
-25.12509962762052
 10
237.0309794679735
 20
-25.12030822122051
 10
237.0307459607735
 20
-25.11551679882051
  0
LINE
  5
170
330
2
100
AcDbEntity
  8
0
  6
CONTINUOUS
100
AcDbLine
 10
237.0172241207735
 20
-25.06585861962052
 30
0.0
 11
237.0172254631735
 21
-25.06589918122049
 31
0.0
  0
LWPOLYLINE
  5
171
330
2
100
AcDbEntity
  8
0
  6
CONTINUOUS
100
AcDbPolyline
 90
        4
 70
     0
 43
0.0
 10
237.3413711111735
 20
-25.09861151562049
 10
237.3408856855735
 20
-25.09396894922049
 10
237.3402914359735
 20
-25.0892645780205
 10
237.3395944951735
 20
-25.08454709482052
  0
LINE
  5
177
330
2
100
AcDbEntity
  8
0
  6
CONTINUOUS
100
AcDbLine
 10
237.0623393125097
 20
-24.65894524729137
 30
0.0
 11
236.9658057975735
 21
-24.8108545908205
 31
0.0
  0
LINE
  5
178
330
2
100
AcDbEntity
  8
0
  6
CONTINUOUS
100
AcDbLine
 10
237.2182237111735
 20
-24.24859360042052
 30
0.0
 11
237.2891910903735
 21
-24.1562848228205
 31
0.0
  0
LWPOLYLINE
  5
179
330
2
100
AcDbEntity
  8
0
  6
CONTINUOUS
100
AcDbPolyline
 90
       13
 70
     0
 43
0.0
 10
237.3395944727735
 20
-25.0845471044205
 10
237.3381558663735
 20
-25.03386907082052
 10
237.3382041559735
 20
-24.97630160042052
 10
237.3403403095735
 20
-24.91269418602049
 10
237.3451485831735
 20
-24.84384360362052
 10
237.3532208215735
 20
-24.7703922148205
 10
237.3653321879735
 20
-24.69211020042049
 10
237.3826344711735
 20
-24.60822693002052
 10
237.4065136775735
 20
-24.51898445802051
 10
237.4382379639735
 20
-24.42642276682052
 10
237.4798255959735
 20
-24.33173624522049
 10
237.5335875895735
 20
-24.2378206548205
 10
237.6014422263735
 20
-24.15039022282051
  0
LWPOLYLINE
  5
188
330
2
100
AcDbEntity
  8
0
  6
CONTINUOUS
100
AcDbPolyline
 90
       11
 70
     0
 43
0.0
 10
237.3640474071735
 20
-25.08786430282053
 10
237.3846527879735
 20
-25.0651289636205
 10
237.4009534711735
 20
-25.03740358282049
 10
237.4148126999735
 20
-25.0060831796205
 10
237.4269893767735
 20
-24.97206938602051
 10
237.4382961431735
 20
-24.9347253876205
 10
237.4491067095735
 20
-24.8939257668205
 10
237.4596772551735
 20
-24.84989779882052
 10
237.4703613271735
 20
-24.80262143082049
 10
237.4815463015735
 20
-24.75221484682052
 10
237.4937861175735
 20
-24.6985372708205
  0
LWPOLYLINE
  5
195
330
2
100
AcDbEntity
  8
0
  6
CONTINUOUS
100
AcDbPolyline
 90
        4
 70
     0
 43
0.0
 10
237.9943656599735
 20
-24.0100103796205
 10
237.8917731767735
 20
-24.11736962442051
 10
237.7899436551735
 20
-24.22344616042051
 10
237.6888255799735
 20
-24.32829941482052
  0
LINE
  5
19B
330
2
100
AcDbEntity
  8
0
  6
CONTINUOUS
100
AcDbLine
 10
238.0494273383735
 20
-23.95213665002052
 30
0.0
 11
237.9943656599735
 21
-24.0100103796205
 31
0.0
  0
LINE
  5
19C
330
2
100
AcDbEntity
  8
0
  6
CONTINUOUS
100
AcDbLine
 10
238.2113665351735
 20
-23.78092713322049
 30
0.0
 11
238.0494273383735
 21
-23.95213665002052
 31
0.0
  0
LWPOLYLINE
  5
19D
330
2
100
AcDbEntity
  8
0
  6
CONTINUOUS
100
AcDbPolyline
 90
        4
 70
     0
 43
0.0
 10
239.3583888823735
 20
-25.05564568682051
 10
239.3138312711735
 20
-25.10821164522052
 10
239.2668164727735
 20
-25.1612850708205
 10
239.2172926919735
 20
-25.2149121412205
  0
LINE
  5
1A3
330
2
100
AcDbEntity
  8
0
  6
CONTINUOUS
100
AcDbLine
 10
239.2172926919735
 20
-25.2149121412205
 30
0.0
 11
239.2152261735735
 21
-25.21710374602052
 31
0.0
  0
LWPOLYLINE
  5
1A4
330
2
100
AcDbEntity
  8
0
  6
CONTINUOUS
100
AcDbPolyline
 90
        4
 70
     0
 43
0.0
 10
239.5276043175735
 20
-24.82616593642049
 10
239.4777722055735
 20
-24.90020904842052
 10
239.4213808007735
 20
-24.97673553642052
 10
239.3583888823735
 20
-25.05564568682051
  0
LWPOLYLINE
  5
1AA
330
2
100
AcDbEntity
  8
0
  6
CONTINUOUS
100
AcDbPolyline
 90
        4
 70
     0
 43
0.0
 10
238.5165841319735
 20
-23.45145754762052
 10
238.5040300167736
 20
-23.46706548682049
 10
238.4912508743735
 20
-23.48205187082052
 10
238.4782585239735
 20
-23.49640238602052
  0
LINE
  5
1B0
330
2
100
AcDbEntity
  8
0
  6
CONTINUOUS
100
AcDbLine
 10
238.5235313063735
 20
-23.44242778282049
 30
0.0
 11
238.5165841319735
 21
-23.45145754762052
 31
0.0
  0
LWPOLYLINE
  5
1B1
330
2
100
AcDbEntity
  8
0
  6
CONTINUOUS
100
AcDbPolyline
 90
        6
 70
     0
 43
0.0
 10
239.9077517511735
 20
-23.50333217002052
 10
239.8321746823735
 20
-23.65660926922049
 10
239.7650168471735
 20
-23.82831098442049
 10
239.7122713911735
 20
-24.00508121002052
 10
239.6755751847735
 20
-24.17824762282052
 10
239.6546828183735
 20
-24.3505706900205
  0
LWPOLYLINE
  5
1B9
330
2
100
AcDbEntity
  8
0
  6
CONTINUOUS
100
AcDbPolyline
 90
        4
 70
     0
 43
0.0
 10
239.6508625895735
 20
-24.40066880202051
 10
239.6322481895735
 20
-24.53533984842052
 10
239.6023701751735
 20
-24.65659980842049
 10
239.5620621063735
 20
-24.7629013188205
  0
LINE
  5
1BF
330
2
100
AcDbEntity
  8
0
  6
CONTINUOUS
100
AcDbLine
 10
239.5299439559735
 20
-24.82247495562052
 30
0.0
 11
239.5276043175735
 21
-24.82616593642049
 31
0.0
  0
LWPOLYLINE
  5
1C0
330
2
100
AcDbEntity
  8
0
  6
CONTINUOUS
100
AcDbPolyline
 90
        4
 70
     0
 43
0.0
 10
239.5601851095735
 20
-24.76696389482052
 10
239.5509780695735
 20
-24.7856975588205
 10
239.5409211655735
 20
-24.8041669668205
 10
239.5299439559735
 20
-24.82247495562052
  0
LINE
  5
1C6
330
2
100
AcDbEntity
  8
0
  6
CONTINUOUS
100
AcDbLine
 10
239.5620621063735
 20
-24.7629013188205
 30
0.0
 11
239.5601851095735
 21
-24.76696389482052
 31
0.0
  0
LWPOLYLINE
  5
1C7
330
2
100
AcDbEntity
  8
0
  6
CONTINUOUS
100
AcDbPolyline
 90
        4
 70
     0
 43
0.0
 10
239.6546828183735
 20
-24.3505706900205
 10
239.6531602119735
 20
-24.37273030122051
 10
239.6520668743735
 20
-24.38676599402052
 10
239.6508625895735
 20
-24.40066880202051
  0
LWPOLYLINE
  5
1CD
330
2
100
AcDbEntity
  8
0
  6
CONTINUOUS
100
AcDbPolyline
 90
        4
 70
     0
 43
0.0
 10
240.0066214999735
 20
-23.34399458122051
 10
239.9721906615735
 20
-23.39522624362052
 10
239.9389180519735
 20
-23.4488978868205
 10
239.9077517511735
 20
-23.50333217002052
  0
LWPOLYLINE
  5
1D3
330
2
100
AcDbEntity
  8
0
  6
CONTINUOUS
100
AcDbPolyline
 90
        6
 70
     0
 43
0.0
 10
238.1171843831735
 20
-23.25937561322052
 10
238.1873868455735
 20
-23.16815613802052
 10
238.2487548583735
 20
-23.05650525642052
 10
238.2995789399735
 20
-22.92744903882051
 10
238.3384510439735
 20
-22.78453801002051
 10
238.3643217591735
 20
-22.6316687684205
  0
LWPOLYLINE
  5
1DB
330
2
100
AcDbEntity
  8
0
  6
CONTINUOUS
100
AcDbPolyline
 90
       12
 70
     0
 43
0.0
 10
238.3765047607735
 20
-22.47305530442051
 10
238.3767793063735
 20
-22.4503333140205
 10
238.3758547543735
 20
-22.42261722762052
 10
238.3732884231735
 20
-22.39282783082051
 10
238.3690760423735
 20
-22.36341720522051
 10
238.3634572967735
 20
-22.33573456042051
 10
238.3566788791735
 20
-22.31019109322049
 10
238.3490110167735
 20
-22.28704190282051
 10
238.3407696727735
 20
-22.2665059572205
 10
238.3323668423735
 20
-22.24884215562049
 10
238.3242973527735
 20
-22.23425681642051
 10
238.3171111639735
 20
-22.2228653364205
  0
LWPOLYLINE
  5
1E9
330
2
100
AcDbEntity
  8
0
  6
CONTINUOUS
100
AcDbPolyline
 90
        5
 70
     0
 43
0.0
 10
238.4695803367735
 20
-21.78653142922049
 10
238.4371113655735
 20
-21.71675512842049
 10
238.4031000247735
 20
-21.64009572522051
 10
238.3677100903735
 20
-21.5559512084205
 10
238.3311615335735
 20
-21.46371511722049
  0
LWPOLYLINE
  5
1F0
330
2
100
AcDbEntity
  8
0
  6
CONTINUOUS
100
AcDbPolyline
 90
        3
 70
     0
 43
0.0
 10
237.6114334759735
 20
-22.19659102602052
 10
237.7298414135735
 20
-22.38059012522052
 10
237.8764917223735
 20
-22.59743763722049
  0
LINE
  5
1F5
330
2
100
AcDbEntity
  8
0
  6
CONTINUOUS
100
AcDbLine
 10
237.5788863111735
 20
-22.11770230922051
 30
0.0
 11
237.6075140855735
 21
-22.19035821482052
 31
0.0
  0
LINE
  5
1F6
330
2
100
AcDbEntity
  8
0
  6
CONTINUOUS
100
AcDbLine
 10
237.5827859399735
 20
-22.12408253642049
 30
0.0
 11
237.6114334759735
 21
-22.19659102602052
 31
0.0
  0
LINE
  5
1F7
330
2
100
AcDbEntity
  8
0
  6
CONTINUOUS
100
AcDbLine
 10
237.5788863111735
 20
-22.11770230922051
 30
0.0
 11
237.5827859399735
 21
-22.12408253642049
 31
0.0
  0
LINE
  5
1F8
330
2
100
AcDbEntity
  8
0
  6
CONTINUOUS
100
AcDbLine
 10
237.6074918839735
 20
-22.1903228820205
 30
0.0
 11
237.6114064023735
 21
-22.19654801002052
 31
0.0
  0
LINE
  5
1F9
330
2
100
AcDbEntity
  8
0
  6
CONTINUOUS
100
AcDbLine
 10
237.6114334759735
 20
-22.19659102602052
 30
0.0
 11
237.6114508295736
 21
-22.19661860682051
 31
0.0
  0
LINE
  5
1FA
330
2
100
AcDbEntity
  8
0
  6
CONTINUOUS
100
AcDbLine
 10
237.3593407767735
 20
-21.74214644842052
 30
0.0
 11
237.6075206391735
 21
-22.19036864362049
 31
0.0
  0
LINE
  5
1FB
330
2
100
AcDbEntity
  8
0
  6
CONTINUOUS
100
AcDbLine
 10
238.0351296871735
 20
-22.8196048436205
 30
0.0
 11
238.2316354462255
 21
-23.08765173439137
 31
0.0
  0
LWPOLYLINE
  5
1FC
330
2
100
AcDbEntity
  8
0
  6
CONTINUOUS
100
AcDbPolyline
 90
        4
 70
     0
 43
0.0
 10
238.0784643991735
 20
-21.88832406922049
 10
238.1412651143735
 20
-21.99131587722051
 10
238.2060260183735
 20
-22.09015300682052
 10
238.3407696727735
 20
-22.2665059572205
  0
LWPOLYLINE
  5
202
330
2
100
AcDbEntity
  8
0
  6
CONTINUOUS
100
AcDbPolyline
 90
        4
 70
     0
 43
0.0
 10
237.7545748375735
 20
-21.20292893482051
 10
237.8509468887735
 20
-21.4404011124205
 10
237.9574749911735
 20
-21.66667299882049
 10
238.0784643991735
 20
-21.88832406922049
  0
LINE
  5
208
330
2
100
AcDbEntity
  8
0
  6
CONTINUOUS
100
AcDbLine
 10
237.8764917223735
 20
-22.59743763722049
 30
0.0
 11
238.0351587015735
 21
-22.81964440522052
 31
0.0
  0
LINE
  5
209
330
2
100
AcDbEntity
  8
0
  6
CONTINUOUS
100
AcDbLine
 10
238.0323028567735
 20
-22.81446784522052
 30
0.0
 11
238.0418491735735
 21
-22.82876899722051
 31
0.0
  0
LINE
  5
20A
330
2
100
AcDbEntity
  8
0
  6
CONTINUOUS
100
AcDbLine
 10
238.0351296871735
 20
-22.8196048436205
 30
0.0
 11
238.0351587015735
 21
-22.81964440522052
 31
0.0
  0
LINE
  5
20B
330
2
100
AcDbEntity
  8
0
  6
CONTINUOUS
100
AcDbLine
 10
240.8650857127735
 20
-22.2522203940205
 30
0.0
 11
240.3602112407735
 21
-22.90332298442051
 31
0.0
  0
LWPOLYLINE
  5
20C
330
2
100
AcDbEntity
  8
0
  6
CONTINUOUS
100
AcDbPolyline
 90
        7
 70
     0
 43
0.0
 10
238.4294355175735
 20
-23.25348101322052
 10
238.4991666727735
 20
-23.16286994762052
 10
238.5601060231735
 20
-23.0519879380205
 10
238.6105668055735
 20
-22.9238439140205
 10
238.6491682903735
 20
-22.78191523242049
 10
238.6748544167735
 20
-22.63011944042051
 10
238.6869487495735
 20
-22.47264039402049
  0
LWPOLYLINE
  5
215
330
2
100
AcDbEntity
  8
0
  6
CONTINUOUS
100
AcDbPolyline
 90
        4
 70
     0
 43
0.0
 10
238.7402234791735
 20
-22.91933136522052
 10
238.7736533207735
 20
-22.76498946282049
 10
238.7954284407735
 20
-22.61369000362051
 10
238.8067651095735
 20
-22.47709210922052
  0
LINE
  5
21B
330
2
100
AcDbEntity
  8
0
  6
CONTINUOUS
100
AcDbLine
 10
240.0995929495735
 20
-23.22460861642051
 30
0.0
 11
240.0902900519735
 21
-23.23556464842052
 31
0.0
  0
LWPOLYLINE
  5
21C
330
2
100
AcDbEntity
  8
0
  6
CONTINUOUS
100
AcDbPolyline
 90
        4
 70
     0
 43
0.0
 10
240.3602112407735
 20
-22.90332298442051
 10
240.2749955303735
 20
-23.01156081642052
 10
240.1879608983735
 20
-23.11884516522052
 10
240.0995929495735
 20
-23.22460861642051
  0
LWPOLYLINE
  5
222
330
2
100
AcDbEntity
  8
0
  6
CONTINUOUS
100
AcDbPolyline
 90
        4
 70
     0
 43
0.0
 10
238.4910174215735
 20
-21.20064601322052
 10
238.5365914615735
 20
-21.43751918282049
 10
238.5925003015735
 20
-21.66283094442052
 10
238.6579068391735
 20
-21.87394947722052
  0
LWPOLYLINE
  5
228
330
2
100
AcDbEntity
  8
0
  6
CONTINUOUS
100
AcDbPolyline
 90
        4
 70
     0
 43
0.0
 10
238.5037470919735
 20
-21.6754024260205
 10
238.4689804631735
 20
-21.59888632682051
 10
238.4329258151735
 20
-21.51522361002052
 10
238.3958070823735
 20
-21.42380971882051
  0
LWPOLYLINE
  5
22E
330
2
100
AcDbEntity
  8
0
  6
CONTINUOUS
100
AcDbPolyline
 90
        4
 70
     0
 43
0.0
 10
238.7482593463735
 20
-22.14267516202049
 10
238.6865556535735
 20
-22.03601364042051
 10
238.6267550743735
 20
-21.9257449540205
 10
238.5691659031735
 20
-21.81220727402049
  0
LWPOLYLINE
  5
234
330
2
100
AcDbEntity
  8
0
  6
CONTINUOUS
100
AcDbPolyline
 90
        4
 70
     0
 43
0.0
 10
238.6837235351735
 20
-22.17918562762051
 10
238.6209217799735
 20
-22.0746386324205
 10
238.5602452519735
 20
-21.96582240202053
 10
238.5019868231735
 20
-21.85313307882051
  0
LINE
  5
23A
330
2
100
AcDbEntity
  8
0
  6
CONTINUOUS
100
AcDbLine
 10
238.6579068391735
 20
-21.87394947722052
 30
0.0
 11
238.6610813751735
 21
-21.8831435028205
 31
0.0
  0
LINE
  5
23B
330
2
100
AcDbEntity
  8
0
  6
CONTINUOUS
100
AcDbLine
 10
238.8068856231735
 20
-22.36977056362052
 30
0.0
 11
238.8124317863735
 21
-22.31221814442051
 31
0.0
  0
LWPOLYLINE
  5
23C
330
2
100
AcDbEntity
  8
0
  6
CONTINUOUS
100
AcDbPolyline
 90
        5
 70
     0
 43
0.0
 10
238.7593616183735
 20
-22.38203892362052
 10
238.7567413063735
 20
-22.36028023082051
 10
238.7535814119735
 20
-22.34059492522051
 10
238.7502931495735
 20
-22.3245057204205
 10
238.7471453911735
 20
-22.3121648612205
  0
LWPOLYLINE
  5
243
330
2
100
AcDbEntity
  8
0
  6
CONTINUOUS
100
AcDbPolyline
 90
        3
 70
     0
 43
0.0
 10
238.7471453911735
 20
-22.3121648612205
 10
238.7460684007735
 20
-22.30811707562049
 10
238.7449767271735
 20
-22.30441977642049
  0
LWPOLYLINE
  5
248
330
2
100
AcDbEntity
  8
0
  6
CONTINUOUS
100
AcDbPolyline
 90
        6
 70
     0
 43
0.0
 10
238.7449767271735
 20
-22.30441977642049
 10
238.7365180871735
 20
-22.28104827722052
 10
238.7270966583735
 20
-22.2592922116205
 10
238.7176302791735
 20
-22.23962484522049
 10
238.7084634391735
 20
-22.22196665642052
 10
238.6996905351735
 20
-22.2060611428205
  0
LWPOLYLINE
  5
250
330
2
100
AcDbEntity
  8
0
  6
CONTINUOUS
100
AcDbPolyline
 90
        4
 70
     0
 43
0.0
 10
238.8159436615735
 20
-22.2612439124205
 10
238.8054282391735
 20
-22.23963232682051
 10
238.7942850519735
 20
-22.2196532084205
 10
238.7835748359735
 20
-22.20145712202053
  0
LWPOLYLINE
  5
256
330
2
100
AcDbEntity
  8
0
  6
CONTINUOUS
100
AcDbPolyline
 90
        3
 70
     0
 43
0.0
 10
238.6996905351735
 20
-22.2060611428205
 10
238.6963732327735
 20
-22.20026796842051
 10
238.6930233783735
 20
-22.19453169482051
  0
LINE
  5
25B
330
2
100
AcDbEntity
  8
0
  6
CONTINUOUS
100
AcDbLine
 10
238.7835748359735
 20
-22.20145712202053
 30
0.0
 11
238.7482593399735
 21
-22.1426751716205
 31
0.0
  0
LWPOLYLINE
  5
25C
330
2
100
AcDbEntity
  8
0
  6
CONTINUOUS
100
AcDbPolyline
 90
        3
 70
     0
 43
0.0
 10
238.6930233783735
 20
-22.19453169482051
 10
238.6883945831735
 20
-22.18678879562051
 10
238.6837235351735
 20
-22.17918562762051
  0
LWPOLYLINE
  5
261
330
2
100
AcDbEntity
  8
0
  6
CONTINUOUS
100
AcDbPolyline
 90
        4
 70
     0
 43
0.0
 10
238.8067650439735
 20
-22.47709203242052
 10
238.8080961767735
 20
-22.44175257162051
 10
238.8081610007735
 20
-22.4059908036205
 10
238.8068856119735
 20
-22.36977066122051
  0
LWPOLYLINE
  5
267
330
2
100
AcDbEntity
  8
0
  6
CONTINUOUS
100
AcDbPolyline
 90
       12
 70
     0
 43
0.0
 10
238.6869487495735
 20
-22.47264039402049
 10
238.6872353335735
 20
-22.45417457002051
 10
238.6867836615735
 20
-22.43282038282049
 10
238.6853071895735
 20
-22.40932941802051
 10
238.6825888647735
 20
-22.38443554922051
 10
238.6784804151735
 20
-22.35880559082049
 10
238.6728702311735
 20
-22.33294541642051
 10
238.6656926935735
 20
-22.30736989002049
 10
238.6569688695735
 20
-22.28269416042051
 10
238.6471333879735
 20
-22.26019969962051
 10
238.6372923191735
 20
-22.24162733642052
 10
238.6289184055735
 20
-22.2281929972205
  0
LWPOLYLINE
  5
275
330
2
100
AcDbEntity
  8
0
  6
CONTINUOUS
100
AcDbPolyline
 90
        3
 70
     0
 43
0.0
 10
238.5639539351735
 20
-21.80154656202051
 10
238.5504384887735
 20
-21.77355951242051
 10
238.5037470919735
 20
-21.6754024260205
  0
LWPOLYLINE
  5
27A
330
2
100
AcDbEntity
  8
0
  6
CONTINUOUS
100
AcDbPolyline
 90
        3
 70
     0
 43
0.0
 10
238.4967248551735
 20
-21.84251931882052
 10
238.4830813287735
 20
-21.81464085962049
 10
238.4695803367735
 20
-21.78653142922049
  0
LINE
  5
27F
330
2
100
AcDbEntity
  8
0
  6
CONTINUOUS
100
AcDbLine
 10
238.5019868231735
 20
-21.85313307882051
 30
0.0
 11
238.4967248551735
 21
-21.84251931882052
 31
0.0
  0
LINE
  5
280
330
2
100
AcDbEntity
  8
0
  6
CONTINUOUS
100
AcDbLine
 10
238.5691658967735
 20
-21.81220728202049
 30
0.0
 11
238.5639539351735
 21
-21.80154656202051
 31
0.0
  0
LWPOLYLINE
  5
281
330
2
100
AcDbEntity
  8
0
  6
CONTINUOUS
100
AcDbPolyline
 90
        4
 70
     0
 43
0.0
 10
238.6610813751735
 20
-21.8831435028205
 10
238.6983550807735
 20
-21.98512567082049
 10
238.7379821063735
 20
-22.08300218602051
 10
238.8159436615735
 20
-22.2612439124205
  0
LWPOLYLINE
  5
287
330
2
100
AcDbEntity
  8
0
  6
CONTINUOUS
100
AcDbPolyline
 90
        3
 70
     0
 43
0.0
 10
238.8124317863735
 20
-22.31221814442051
 10
238.8144938119735
 20
-22.28881173482052
 10
238.8159436615735
 20
-22.2612439124205
  0
LINE
  5
28C
330
2
100
AcDbEntity
  8
0
  6
CONTINUOUS
100
AcDbLine
 10
238.3643217591735
 20
-22.6316687684205
 30
0.0
 11
238.3765047607735
 21
-22.47305530442051
 31
0.0
  0
LWPOLYLINE
  5
28D
330
2
100
AcDbEntity
  8
0
  6
CONTINUOUS
100
AcDbPolyline
 90
        4
 70
     0
 43
0.0
 10
238.3618759559735
 20
-21.11185966442052
 10
238.4115968903735
 20
-21.33345044842052
 10
238.4702195175735
 20
-21.5453336340205
 10
238.5370549895735
 20
-21.7453723684205
  0
ARC
  5
293
330
2
100
AcDbEntity
  8
0
  6
CONTINUOUS
100
AcDbCircle
 10
238.3115339815735
 20
-17.55473637802051
 30
0.0
 40
3.0
100
AcDbArc
 50
183.1257408186999
 51
246.1445338377458
  0
LWPOLYLINE
  5
294
330
2
100
AcDbEntity
  8
0
  6
HIDDEN
 62
     9
100
AcDbPolyline
 90
        5
 70
     0
 43
0.0
 10
237.6246516807735
 20
-17.3994016820205
 10
237.8386400279735
 20
-17.89585784522049
 10
238.2824251671735
 20
-18.4974161940205
 10
238.7361664999736
 20
-18.88171082762049
 10
239.1259924183735
 20
-19.11096228682049
  0
LWPOLYLINE
  5
29B
330
2
100
AcDbEntity
  8
0
  6
HIDDEN
 62
     9
100
AcDbPolyline
 90
        6
 70
     0
 43
0.0
 10
237.8329463527735
 20
-17.33258178282051
 10
238.0310198919735
 20
-17.79172204682049
 10
238.4465525863735
 20
-18.35246573482051
 10
238.8665776071735
 20
-18.70590505642051
 10
239.2268058039735
 20
-18.91679241482052
 10
239.4956803287735
 20
-19.03607963722049
  0
LWPOLYLINE
  5
2A3
330
2
100
AcDbEntity
  8
0
  6
CONTINUOUS
100
AcDbPolyline
 90
        4
 70
     0
 43
0.0
 10
239.7772713159735
 20
-20.3583401300205
 10
239.5256008215735
 20
-20.23026618922052
 10
238.9852325303735
 20
-19.93999151242051
 10
238.2564487473539
 20
-19.52141505421751
  0
LWPOLYLINE
  5
2A9
330
2
100
AcDbEntity
  8
0
  6
CONTINUOUS
100
AcDbPolyline
 90
        5
 70
     0
 43
0.0
 10
237.4287413047735
 20
-19.62108523882051
 10
237.2494361975735
 20
-19.93741067882051
 10
237.1191179255735
 20
-20.22941005802051
 10
237.0396264631735
 20
-20.49226357322051
 10
237.0107805063735
 20
-20.7220118772205
  0
LWPOLYLINE
  5
2B0
330
2
100
AcDbEntity
  8
0
  6
CONTINUOUS
100
AcDbPolyline
 90
       11
 70
     0
 43
0.0
 10
238.2026793943735
 20
-21.07945445322052
 10
238.1741004183735
 20
-20.97714835402052
 10
238.1450318359735
 20
-20.86409449162053
 10
238.1157922711735
 20
-20.73896350282049
 10
238.0868470983735
 20
-20.60040423562049
 10
238.0588202919735
 20
-20.44700459562051
 10
238.0325080151735
 20
-20.27718807722052
 10
238.0089216183735
 20
-20.08914049802051
 10
237.9893518887735
 20
-19.8806454516205
 10
237.9754854791735
 20
-19.6487540932205
 10
237.9696497511735
 20
-19.39064269962052
  0
LWPOLYLINE
  5
2BD
330
2
100
AcDbEntity
  8
0
  6
CONTINUOUS
100
AcDbPolyline
 90
       11
 70
     0
 43
0.0
 10
238.2662732855735
 20
-21.0467292276205
 10
238.2377087975735
 20
-20.94687365002051
 10
238.2086881511735
 20
-20.8365781668205
 10
238.1795183607735
 20
-20.71455443722052
 10
238.1506476599735
 20
-20.57949356042049
 10
238.1226763991735
 20
-20.43002981802052
 10
238.0963691719735
 20
-20.2646422052205
 10
238.0726954183735
 20
-20.0815849124205
 10
238.0528899063735
 20
-19.8787343684205
 10
238.0385609511735
 20
-19.65325983242049
 10
238.0319237559735
 20
-19.4023828884205
  0
LWPOLYLINE
  5
2CA
330
2
100
AcDbEntity
  8
0
  6
CONTINUOUS
100
AcDbPolyline
 90
        3
 70
     0
 43
0.0
 10
237.0107805063735
 20
-20.7220118772205
 10
237.0120167991735
 20
-20.78090810762051
 10
237.0179260887735
 20
-20.81843776202049
  0
LWPOLYLINE
  5
2CF
330
2
100
AcDbEntity
  8
0
100
AcDbPolyline
 90
        4
 70
   128
 43
0.0
 10
238.0319237559735
 20
-19.4023828884205
 10
237.9680518119735
 20
-19.36723637802051
 10
237.8932285815735
 20
-19.36723637802051
 10
237.5827913383735
 20
-19.36723637802051
  0
LINE
  5
2D0
330
2
100
AcDbEntity
  8
0
  6
CONTINUOUS
100
AcDbLine
 10
237.5987755095735
 20
-19.83405839562049
 30
0.0
 11
237.5827913383735
 21
-19.36723637802051
 31
0.0
  0
LWPOLYLINE
  5
2D1
330
2
100
AcDbEntity
  8
0
  6
CONTINUOUS
100
AcDbPolyline
 90
        3
 70
     0
 43
0.0
 10
237.5852154300942
 20
-19.43803262849378
 10
237.5463722151735
 20
-19.46881690762052
 10
237.5060545015735
 20
-19.51246087882051
  0
LWPOLYLINE
  5
2D6
330
2
100
AcDbEntity
  8
0
  6
CONTINUOUS
100
AcDbPolyline
 90
        4
 70
     0
 43
0.0
 10
237.5060545015735
 20
-19.51246087882051
 10
237.4772479511735
 20
-19.5500136356205
 10
237.4512364343735
 20
-19.58658078122051
 10
237.4287413047735
 20
-19.62108523882051
  0
LINE
  5
2DC
330
2
100
AcDbEntity
  8
0
  6
CONTINUOUS
100
AcDbLine
 10
237.9830039991735
 20
-19.81368035082051
 30
0.0
 11
237.9680518119735
 21
-19.36723637802051
 31
0.0
  0
LINE
  5
2DD
330
2
100
AcDbEntity
  8
0
100
AcDbLine
 10
238.0319237559735
 20
-19.4023828884205
 30
0.0
 11
238.2564487473539
 21
-19.52141505421751
 31
0.0
  0
LWPOLYLINE
  5
2DE
330
2
100
AcDbEntity
  8
0
  6
CONTINUOUS
100
AcDbPolyline
 90
        3
 70
     0
 43
0.0
 10
240.5521906039735
 20
-20.7220118772205
 10
240.0486016631735
 20
-20.49111150602049
 10
239.7772713159735
 20
-20.3583401300205
  0
LWPOLYLINE
  5
2E3
330
2
100
AcDbEntity
  8
0
  6
CONTINUOUS
100
AcDbPolyline
 90
        3
 70
     0
 43
0.0
 10
240.4881776039735
 20
-20.6838529876205
 10
239.9977850103735
 20
-20.46400438122051
 10
239.7776675639735
 20
-20.35752102282052
  0
LINE
  5
2E8
330
2
100
AcDbEntity
  8
0
  6
CONTINUOUS
100
AcDbLine
 10
240.5521906039735
 20
-20.7220118772205
 30
0.0
 11
240.4881776039735
 21
-20.6838529876205
 31
0.0
  0
LINE
  5
2E9
330
2
100
AcDbEntity
  8
0
  6
CONTINUOUS
100
AcDbLine
 10
240.6360249351735
 20
-20.7365748644205
 30
0.0
 11
240.4881776039735
 21
-20.6838529876205
 31
0.0
  0
LINE
  5
2EA
330
2
100
AcDbEntity
  8
0
  6
HIDDEN
 62
     9
100
AcDbLine
 10
240.0662003927735
 20
-19.4419889844205
 30
0.0
 11
240.4049558423735
 21
-19.5170607172205
 31
0.0
  0
LINE
  5
2EB
330
2
100
AcDbEntity
  8
0
  6
CONTINUOUS
100
AcDbLine
 10
249.8440818311735
 20
-21.30473637802052
 30
0.0
 11
249.8440818311735
 21
-20.55473637802052
 31
0.0
  0
LINE
  5
2EC
330
2
100
AcDbEntity
  8
0
  6
CONTINUOUS
100
AcDbLine
 10
247.5940818311735
 20
-21.30473637802052
 30
0.0
 11
247.5940818311735
 21
-20.55473637802052
 31
0.0
  0
LWPOLYLINE
  5
2ED
330
2
100
AcDbEntity
  8
0
  6
CONTINUOUS
100
AcDbPolyline
 90
        9
 70
     0
 43
0.0
 10
241.4799553911735
 20
-21.30643390602049
 10
241.5099252503735
 20
-21.23941694282051
 10
241.5281323431735
 20
-21.16988749642052
 10
241.5328869351735
 20
-21.1024037124205
 10
241.5239730727735
 20
-21.03917959082049
 10
241.5012336311735
 20
-20.9820704628205
 10
241.4659494151735
 20
-20.93474929162051
 10
241.4197899591735
 20
-20.8989122468205
 10
241.4076544551735
 20
-20.89234726122052
  0
LINE
  5
2F8
330
2
100
AcDbEntity
  8
0
  6
CONTINUOUS
100
AcDbLine
 10
247.8590888359735
 20
-22.05473637802052
 30
0.0
 11
249.5790748263735
 21
-22.05473637802052
 31
0.0
  0
LINE
  5
2F9
330
2
100
AcDbEntity
  8
0
  6
CONTINUOUS
100
AcDbLine
 10
247.6253318311735
 20
-21.33598637802052
 30
0.0
 11
249.8128246935735
 21
-21.33598637802052
 31
0.0
  0
LINE
  5
2FA
330
2
100
AcDbEntity
  8
0
  6
CONTINUOUS
100
AcDbLine
 10
249.8440818311735
 20
-21.30473637802052
 30
0.0
 11
247.5940818311735
 21
-21.30473637802052
 31
0.0
  0
LINE
  5
2FB
330
2
100
AcDbEntity
  8
0
  6
CONTINUOUS
100
AcDbLine
 10
247.8033819159735
 20
-21.37979030282049
 30
0.0
 11
247.8155469463735
 21
-21.37806834762051
 31
0.0
  0
LINE
  5
2FC
330
2
100
AcDbEntity
  8
0
  6
CONTINUOUS
100
AcDbLine
 10
247.8033777655735
 20
-21.46968057482051
 30
0.0
 11
247.8590036519735
 21
-21.49490875242052
 31
0.0
  0
LINE
  5
2FD
330
2
100
AcDbEntity
  8
0
  6
CONTINUOUS
100
AcDbLine
 10
247.8033777655735
 20
-21.3896805748205
 30
0.0
 11
247.8590036519735
 21
-21.4149087524205
 31
0.0
  0
LINE
  5
2FE
330
2
100
AcDbEntity
  8
0
  6
CONTINUOUS
100
AcDbLine
 10
247.8186567655735
 20
-21.3730613124205
 30
0.0
 11
247.7815818311735
 21
-21.33598637802052
 31
0.0
  0
LINE
  5
2FF
330
2
100
AcDbEntity
  8
0
  6
CONTINUOUS
100
AcDbLine
 10
247.8590818311735
 20
-21.4347363780205
 30
0.0
 11
247.8590818311735
 21
-21.41473637802052
 31
0.0
  0
LWPOLYLINE
  5
300
330
2
100
AcDbEntity
  8
0
  6
CONTINUOUS
100
AcDbPolyline
 90
        5
 70
     0
 43
0.0
 10
247.8033819159735
 20
-21.37979030282049
 10
247.8018271063735
 20
-21.38079881322049
 10
247.8000133159735
 20
-21.38461911242049
 10
247.8016701159735
 20
-21.3885262516205
 10
247.8033722535735
 20
-21.38967806762049
  0
LWPOLYLINE
  5
307
330
2
100
AcDbEntity
  8
0
  6
CONTINUOUS
100
AcDbPolyline
 90
        5
 70
     0
 43
0.0
 10
247.8033819159735
 20
-21.45979030282052
 10
247.8018271063735
 20
-21.46079881322052
 10
247.8000133159735
 20
-21.46461911242052
 10
247.8016701159735
 20
-21.4685262516205
 10
247.8033722535735
 20
-21.46967806762052
  0
LINE
  5
30E
330
2
100
AcDbEntity
  8
0
  6
CONTINUOUS
100
AcDbLine
 10
247.8188212807735
 20
-21.37278819242051
 30
0.0
 11
247.8033777655735
 21
-21.37979218122049
 31
0.0
  0
LINE
  5
30F
330
2
100
AcDbEntity
  8
0
  6
CONTINUOUS
100
AcDbLine
 10
247.8595401431735
 20
-21.43432068202051
 30
0.0
 11
247.8033777655735
 21
-21.45979218122052
 31
0.0
  0
LINE
  5
310
330
2
100
AcDbEntity
  8
0
  6
CONTINUOUS
100
AcDbLine
 10
247.8590818327735
 20
-21.4147358180205
 30
0.0
 11
247.8632229671735
 21
-21.41348637802052
 31
0.0
  0
LINE
  5
311
330
2
100
AcDbEntity
  8
0
  6
CONTINUOUS
100
AcDbLine
 10
247.8033777655735
 20
-21.94968057482051
 30
0.0
 11
247.8590036519735
 21
-21.9749087524205
 31
0.0
  0
LINE
  5
312
330
2
100
AcDbEntity
  8
0
  6
CONTINUOUS
100
AcDbLine
 10
247.8033777655735
 20
-21.86968057482052
 30
0.0
 11
247.8590036519735
 21
-21.89490875242051
 31
0.0
  0
LINE
  5
313
330
2
100
AcDbEntity
  8
0
  6
CONTINUOUS
100
AcDbLine
 10
247.8033777655735
 20
-21.78968057482049
 30
0.0
 11
247.8590036519735
 21
-21.81490875242052
 31
0.0
  0
LINE
  5
314
330
2
100
AcDbEntity
  8
0
  6
CONTINUOUS
100
AcDbLine
 10
247.8033777655735
 20
-21.70968057482049
 30
0.0
 11
247.8590036519735
 21
-21.73490875242049
 31
0.0
  0
LINE
  5
315
330
2
100
AcDbEntity
  8
0
  6
CONTINUOUS
100
AcDbLine
 10
247.8033777655735
 20
-21.6296805748205
 30
0.0
 11
247.8590036519735
 21
-21.65490875242049
 31
0.0
  0
LINE
  5
316
330
2
100
AcDbEntity
  8
0
  6
CONTINUOUS
100
AcDbLine
 10
247.8033777655735
 20
-21.54968057482052
 30
0.0
 11
247.8590036519735
 21
-21.57490875242051
 31
0.0
  0
LINE
  5
317
330
2
100
AcDbEntity
  8
0
  6
CONTINUOUS
100
AcDbLine
 10
247.8590818311735
 20
-22.05473637802052
 30
0.0
 11
247.8590818311735
 21
-21.97473637802049
 31
0.0
  0
LINE
  5
318
330
2
100
AcDbEntity
  8
0
  6
CONTINUOUS
100
AcDbLine
 10
247.8590818311735
 20
-21.91473637802052
 30
0.0
 11
247.8590818311735
 21
-21.89473637802049
 31
0.0
  0
LINE
  5
319
330
2
100
AcDbEntity
  8
0
  6
CONTINUOUS
100
AcDbLine
 10
247.8590818311735
 20
-21.83473637802049
 30
0.0
 11
247.8590818311735
 21
-21.81473637802051
 31
0.0
  0
LINE
  5
31A
330
2
100
AcDbEntity
  8
0
  6
CONTINUOUS
100
AcDbLine
 10
247.8590818311735
 20
-21.75473637802049
 30
0.0
 11
247.8590818311735
 21
-21.73473637802052
 31
0.0
  0
LINE
  5
31B
330
2
100
AcDbEntity
  8
0
  6
CONTINUOUS
100
AcDbLine
 10
247.8590818311735
 20
-21.67473637802051
 30
0.0
 11
247.8590818311735
 21
-21.6547363780205
 31
0.0
  0
LINE
  5
31C
330
2
100
AcDbEntity
  8
0
  6
CONTINUOUS
100
AcDbLine
 10
247.8590818311735
 20
-21.59473637802052
 30
0.0
 11
247.8590818311735
 21
-21.5747363780205
 31
0.0
  0
LWPOLYLINE
  5
31D
330
2
100
AcDbEntity
  8
0
  6
CONTINUOUS
100
AcDbPolyline
 90
        5
 70
     0
 43
0.0
 10
247.8033819159735
 20
-21.53979030282053
 10
247.8018271063735
 20
-21.54079881322052
 10
247.8000133159735
 20
-21.54461911242053
 10
247.8016701159735
 20
-21.5485262516205
 10
247.8033722535735
 20
-21.54967806762051
  0
LWPOLYLINE
  5
324
330
2
100
AcDbEntity
  8
0
  6
CONTINUOUS
100
AcDbPolyline
 90
        5
 70
     0
 43
0.0
 10
247.8033819159735
 20
-21.6997903028205
 10
247.8018271063735
 20
-21.7007988132205
 10
247.8000133159735
 20
-21.7046191124205
 10
247.8016701159735
 20
-21.70852625162051
 10
247.8033722535735
 20
-21.7096780676205
  0
LWPOLYLINE
  5
32B
330
2
100
AcDbEntity
  8
0
  6
CONTINUOUS
100
AcDbPolyline
 90
        5
 70
     0
 43
0.0
 10
247.8033819159735
 20
-21.7797903028205
 10
247.8018271063735
 20
-21.78079881322052
 10
247.8000133159735
 20
-21.78461911242051
 10
247.8016701159735
 20
-21.78852625162049
 10
247.8033722535735
 20
-21.78967806762052
  0
LWPOLYLINE
  5
332
330
2
100
AcDbEntity
  8
0
  6
CONTINUOUS
100
AcDbPolyline
 90
        5
 70
     0
 43
0.0
 10
247.8033819159735
 20
-21.85979030282052
 10
247.8018271063735
 20
-21.86079881322051
 10
247.8000133159735
 20
-21.86461911242052
 10
247.8016701159735
 20
-21.86852625162049
 10
247.8033722535735
 20
-21.86967806762051
  0
LWPOLYLINE
  5
339
330
2
100
AcDbEntity
  8
0
  6
CONTINUOUS
100
AcDbPolyline
 90
        5
 70
     0
 43
0.0
 10
247.8033819159735
 20
-21.93979030282051
 10
247.8018271063735
 20
-21.94079881322049
 10
247.8000133159735
 20
-21.94461911242049
 10
247.8016701159735
 20
-21.94852625162053
 10
247.8033722535735
 20
-21.94967806762049
  0
LWPOLYLINE
  5
340
330
2
100
AcDbEntity
  8
0
  6
CONTINUOUS
100
AcDbPolyline
 90
        5
 70
     0
 43
0.0
 10
247.8033825575735
 20
-21.61979001322049
 10
247.8018879367735
 20
-21.6207445300205
 10
247.8000207111735
 20
-21.62444886602051
 10
247.8015944791735
 20
-21.6284509124205
 10
247.8033701495735
 20
-21.62967710602049
  0
LINE
  5
347
330
2
100
AcDbEntity
  8
0
  6
CONTINUOUS
100
AcDbLine
 10
247.8595401431735
 20
-21.51432068202049
 30
0.0
 11
247.8033777655735
 21
-21.53979218122052
 31
0.0
  0
LINE
  5
348
330
2
100
AcDbEntity
  8
0
  6
CONTINUOUS
100
AcDbLine
 10
247.8595401431735
 20
-21.59432068202049
 30
0.0
 11
247.8033777655735
 21
-21.6197921812205
 31
0.0
  0
LINE
  5
349
330
2
100
AcDbEntity
  8
0
  6
CONTINUOUS
100
AcDbLine
 10
247.8595401431735
 20
-21.67432068202052
 30
0.0
 11
247.8033777655735
 21
-21.6997921812205
 31
0.0
  0
LINE
  5
34A
330
2
100
AcDbEntity
  8
0
  6
CONTINUOUS
100
AcDbLine
 10
247.8595401431735
 20
-21.75432068202053
 30
0.0
 11
247.8033777655735
 21
-21.77979218122051
 31
0.0
  0
LINE
  5
34B
330
2
100
AcDbEntity
  8
0
  6
CONTINUOUS
100
AcDbLine
 10
247.8595401431735
 20
-21.8343206820205
 30
0.0
 11
247.8033777655735
 21
-21.85979218122051
 31
0.0
  0
LINE
  5
34C
330
2
100
AcDbEntity
  8
0
  6
CONTINUOUS
100
AcDbLine
 10
247.8595401431735
 20
-21.9143206820205
 30
0.0
 11
247.8033777655735
 21
-21.93979218122049
 31
0.0
  0
LINE
  5
34D
330
2
100
AcDbEntity
  8
0
  6
CONTINUOUS
100
AcDbLine
 10
247.8590818311735
 20
-21.5147363780205
 30
0.0
 11
247.8590818311735
 21
-21.49473637802052
 31
0.0
  0
ARC
  5
34E
330
2
100
AcDbEntity
  8
0
  6
CONTINUOUS
100
AcDbCircle
 10
247.6253318311735
 20
-21.30473637802052
 30
0.0
 40
0.03125
100
AcDbArc
 50
180.0
 51
270.0
  0
LINE
  5
34F
330
2
100
AcDbEntity
  8
0
  6
CONTINUOUS
100
AcDbLine
 10
249.6347858967736
 20
-21.49979218122051
 30
0.0
 11
249.5791600103735
 21
-21.47456400362051
 31
0.0
  0
LINE
  5
350
330
2
100
AcDbEntity
  8
0
  6
CONTINUOUS
100
AcDbLine
 10
249.6347858967736
 20
-21.41979218122051
 30
0.0
 11
249.5918137639735
 21
-21.40030304202049
 31
0.0
  0
LINE
  5
351
330
2
100
AcDbEntity
  8
0
  6
CONTINUOUS
100
AcDbLine
 10
249.5790818311735
 20
-21.47473637802049
 30
0.0
 11
249.5790818311735
 21
-21.45473637802052
 31
0.0
  0
LINE
  5
352
330
2
100
AcDbEntity
  8
0
  6
CONTINUOUS
100
AcDbLine
 10
249.5919834487735
 20
-21.40058476042051
 30
0.0
 11
249.6565818311735
 21
-21.33598637802052
 31
0.0
  0
LWPOLYLINE
  5
353
330
2
100
AcDbEntity
  8
0
  6
CONTINUOUS
100
AcDbPolyline
 90
        5
 70
     0
 43
0.0
 10
249.6347914087735
 20
-21.42967806762051
 10
249.6364935463735
 20
-21.42852625162049
 10
249.6381503479735
 20
-21.4246191124205
 10
249.6363365575735
 20
-21.42079881322051
 10
249.6347817463735
 20
-21.4197903028205
  0
LWPOLYLINE
  5
35A
330
2
100
AcDbEntity
  8
0
  6
CONTINUOUS
100
AcDbPolyline
 90
        5
 70
     0
 43
0.0
 10
249.6347914087735
 20
-21.50967806762052
 10
249.6364935463735
 20
-21.50852625162049
 10
249.6381503479735
 20
-21.50461911242052
 10
249.6363365575735
 20
-21.50079881322052
 10
249.6347817463735
 20
-21.49979030282051
  0
LINE
  5
361
330
2
100
AcDbEntity
  8
0
  6
CONTINUOUS
100
AcDbLine
 10
249.5786235191735
 20
-21.4551520740205
 30
0.0
 11
249.6347858967736
 21
-21.42968057482049
 31
0.0
  0
LINE
  5
362
330
2
100
AcDbEntity
  8
0
  6
CONTINUOUS
100
AcDbLine
 10
249.6311378807735
 20
-21.42138425962049
 30
0.0
 11
249.6347858967736
 21
-21.41979218122051
 31
0.0
  0
ARC
  5
363
330
2
100
AcDbEntity
  8
0
  6
CONTINUOUS
100
AcDbCircle
 10
249.8128318311735
 20
-21.30473637802052
 30
0.0
 40
0.03125
100
AcDbArc
 50
270.0
 51
0.0
  0
LINE
  5
364
330
2
100
AcDbEntity
  8
0
  6
CONTINUOUS
100
AcDbLine
 10
249.6347858967736
 20
-21.89979218122052
 30
0.0
 11
249.5791600103735
 21
-21.87456400362052
 31
0.0
  0
LINE
  5
365
330
2
100
AcDbEntity
  8
0
  6
CONTINUOUS
100
AcDbLine
 10
249.6347858967736
 20
-21.81979218122052
 30
0.0
 11
249.5791600103735
 21
-21.79456400362052
 31
0.0
  0
LINE
  5
366
330
2
100
AcDbEntity
  8
0
  6
CONTINUOUS
100
AcDbLine
 10
249.6347858967736
 20
-21.73979218122049
 30
0.0
 11
249.5791600103735
 21
-21.71456400362049
 31
0.0
  0
LINE
  5
367
330
2
100
AcDbEntity
  8
0
  6
CONTINUOUS
100
AcDbLine
 10
249.6347858967736
 20
-21.65979218122049
 30
0.0
 11
249.5791600103735
 21
-21.63456400362049
 31
0.0
  0
LINE
  5
368
330
2
100
AcDbEntity
  8
0
  6
CONTINUOUS
100
AcDbLine
 10
249.6347858967736
 20
-21.57979218122051
 30
0.0
 11
249.5791600103735
 21
-21.55456400362052
 31
0.0
  0
LINE
  5
369
330
2
100
AcDbEntity
  8
0
  6
CONTINUOUS
100
AcDbLine
 10
249.5790818311735
 20
-22.05473637802052
 30
0.0
 11
249.5790818311735
 21
-21.9347363780205
 31
0.0
  0
LINE
  5
36A
330
2
100
AcDbEntity
  8
0
  6
CONTINUOUS
100
AcDbLine
 10
249.5790818311735
 20
-21.87473637802051
 30
0.0
 11
249.5790818311735
 21
-21.8547363780205
 31
0.0
  0
LINE
  5
36B
330
2
100
AcDbEntity
  8
0
  6
CONTINUOUS
100
AcDbLine
 10
249.5790818311735
 20
-21.7947363780205
 30
0.0
 11
249.5790818311735
 21
-21.77473637802052
 31
0.0
  0
LINE
  5
36C
330
2
100
AcDbEntity
  8
0
  6
CONTINUOUS
100
AcDbLine
 10
249.5790818311735
 20
-21.7147363780205
 30
0.0
 11
249.5790818311735
 21
-21.69473637802052
 31
0.0
  0
LINE
  5
36D
330
2
100
AcDbEntity
  8
0
  6
CONTINUOUS
100
AcDbLine
 10
249.5790818311735
 20
-21.63473637802052
 30
0.0
 11
249.5790818311735
 21
-21.61473637802049
 31
0.0
  0
LINE
  5
36E
330
2
100
AcDbEntity
  8
0
  6
CONTINUOUS
100
AcDbLine
 10
249.5790818311735
 20
-21.55473637802052
 30
0.0
 11
249.5790818311735
 21
-21.53473637802049
 31
0.0
  0
LINE
  5
36F
330
2
100
AcDbEntity
  8
0
  6
CONTINUOUS
100
AcDbLine
 10
249.6333747831735
 20
-21.90098982602052
 30
0.0
 11
249.6347858967736
 21
-21.89979218122052
 31
0.0
  0
LWPOLYLINE
  5
370
330
2
100
AcDbEntity
  8
0
  6
CONTINUOUS
100
AcDbPolyline
 90
        5
 70
     0
 43
0.0
 10
249.6347914087735
 20
-21.58967806762051
 10
249.6364935463735
 20
-21.58852625162052
 10
249.6381503479735
 20
-21.58461911242051
 10
249.6363365575735
 20
-21.58079881322049
 10
249.6347817463735
 20
-21.57979030282051
  0
LWPOLYLINE
  5
377
330
2
100
AcDbEntity
  8
0
  6
CONTINUOUS
100
AcDbPolyline
 90
        5
 70
     0
 43
0.0
 10
249.6347914087735
 20
-21.66967806762049
 10
249.6364935463735
 20
-21.66852625162053
 10
249.6381503479735
 20
-21.66461911242049
 10
249.6363365575735
 20
-21.66079881322049
 10
249.6347817463735
 20
-21.65979030282049
  0
LWPOLYLINE
  5
37E
330
2
100
AcDbEntity
  8
0
  6
CONTINUOUS
100
AcDbPolyline
 90
        5
 70
     0
 43
0.0
 10
249.6347914087735
 20
-21.74967806762052
 10
249.6364935463735
 20
-21.7485262516205
 10
249.6381503479735
 20
-21.74461911242049
 10
249.6363365575735
 20
-21.74079881322052
 10
249.6347817463735
 20
-21.73979030282049
  0
LWPOLYLINE
  5
385
330
2
100
AcDbEntity
  8
0
  6
CONTINUOUS
100
AcDbPolyline
 90
        5
 70
     0
 43
0.0
 10
249.6347914087735
 20
-21.82967806762051
 10
249.6364935463735
 20
-21.8285262516205
 10
249.6381503479735
 20
-21.82461911242052
 10
249.6363365575735
 20
-21.82079881322053
 10
249.6347817463735
 20
-21.81979030282052
  0
LWPOLYLINE
  5
38C
330
2
100
AcDbEntity
  8
0
  6
CONTINUOUS
100
AcDbPolyline
 90
        5
 70
     0
 43
0.0
 10
249.6347914087735
 20
-21.9096780676205
 10
249.6364935463735
 20
-21.90852625162051
 10
249.6381503479735
 20
-21.90461911242052
 10
249.6363365575735
 20
-21.9007988132205
 10
249.6347817463735
 20
-21.89979030282053
  0
LINE
  5
393
330
2
100
AcDbEntity
  8
0
  6
CONTINUOUS
100
AcDbLine
 10
249.6316630935735
 20
-21.82130415082049
 30
0.0
 11
249.6347858967736
 21
-21.81979218122052
 31
0.0
  0
LINE
  5
394
330
2
100
AcDbEntity
  8
0
  6
CONTINUOUS
100
AcDbLine
 10
249.5786235191735
 20
-21.61515207402052
 30
0.0
 11
249.6347858967736
 21
-21.58968057482052
 31
0.0
  0
LINE
  5
395
330
2
100
AcDbEntity
  8
0
  6
CONTINUOUS
100
AcDbLine
 10
249.5786235191735
 20
-21.69515207402051
 30
0.0
 11
249.6347858967736
 21
-21.6696805748205
 31
0.0
  0
LINE
  5
396
330
2
100
AcDbEntity
  8
0
  6
CONTINUOUS
100
AcDbLine
 10
249.5786235191735
 20
-21.77515207402049
 30
0.0
 11
249.6347858967736
 21
-21.7496805748205
 31
0.0
  0
LINE
  5
397
330
2
100
AcDbEntity
  8
0
  6
CONTINUOUS
100
AcDbLine
 10
249.5786235191735
 20
-21.85515207402049
 30
0.0
 11
249.6347858967736
 21
-21.82968057482051
 31
0.0
  0
LINE
  5
398
330
2
100
AcDbEntity
  8
0
  6
CONTINUOUS
100
AcDbLine
 10
249.5786235191735
 20
-21.93515207402052
 30
0.0
 11
249.6347858967736
 21
-21.90968057482052
 31
0.0
  0
LINE
  5
399
330
2
100
AcDbEntity
  8
0
  6
CONTINUOUS
100
AcDbLine
 10
249.6279181543735
 20
-21.6617906084205
 30
0.0
 11
249.6347858967736
 21
-21.65979218122049
 31
0.0
  0
LINE
  5
39A
330
2
100
AcDbEntity
  8
0
  6
CONTINUOUS
100
AcDbLine
 10
249.5786235191735
 20
-21.5351520740205
 30
0.0
 11
249.6347858967736
 21
-21.50968057482052
 31
0.0
  0
LINE
  5
39B
330
2
100
AcDbEntity
  8
0
  6
HIDDEN
 62
     9
100
AcDbLine
 10
241.2130588535735
 20
-19.39232068362049
 30
0.0
 11
246.6428834295735
 21
-19.54296953642051
 31
0.0
  0
LINE
  5
39C
330
2
100
AcDbEntity
  8
0
  6
HIDDEN
 62
     9
100
AcDbLine
 10
241.1975943527735
 20
-19.6105233700205
 30
0.0
 11
246.7563700567735
 21
-19.77638381962051
 31
0.0
  0
LWPOLYLINE
  5
39D
330
2
100
AcDbEntity
  8
0
  6
CONTINUOUS
100
AcDbPolyline
 90
        3
 70
     0
 43
0.0
 10
241.1732476855735
 20
-20.80687957322052
 10
241.2184103399735
 20
-20.81073213482051
 10
241.2621911303735
 20
-20.82216053642051
  0
LINE
  5
3A2
330
2
100
AcDbEntity
  8
0
  6
CONTINUOUS
100
AcDbLine
 10
241.2578338503735
 20
-20.84660029962051
 30
0.0
 11
241.2993895223735
 21
-20.86647187082049
 31
0.0
  0
LWPOLYLINE
  5
3A3
330
2
100
AcDbEntity
  8
0
  6
CONTINUOUS
100
AcDbPolyline
 90
        3
 70
     0
 43
0.0
 10
241.1732476855735
 20
-20.80687957322052
 10
241.2157896647735
 20
-20.8267320500205
 10
241.2578338503735
 20
-20.84660029962051
  0
LINE
  5
3A8
330
2
100
AcDbEntity
  8
0
  6
CONTINUOUS
100
AcDbLine
 10
241.3678811287735
 20
-20.87248298442051
 30
0.0
 11
241.3102892791735
 21
-20.84410241482049
 31
0.0
  0
LWPOLYLINE
  5
3A9
330
2
100
AcDbEntity
  8
0
  6
CONTINUOUS
100
AcDbPolyline
 90
        3
 70
     0
 43
0.0
 10
241.3651190199735
 20
-20.8759840116205
 10
241.3325359927735
 20
-20.86917454442049
 10
241.2993895223735
 20
-20.86647187082049
  0
LINE
  5
3AE
330
2
100
AcDbEntity
  8
0
  6
CONTINUOUS
100
AcDbLine
 10
241.3102892791735
 20
-20.84410241482049
 30
0.0
 11
241.2848787671735
 21
-20.8317208708205
 31
0.0
  0
LINE
  5
3AF
330
2
100
AcDbEntity
  8
0
  6
CONTINUOUS
100
AcDbLine
 10
241.2621911303735
 20
-20.82216053642051
 30
0.0
 11
241.2848989175735
 21
-20.83173064842049
 31
0.0
  0
LINE
  5
3B0
330
2
100
AcDbEntity
  8
0
  6
CONTINUOUS
100
AcDbLine
 10
241.4076414407735
 20
-20.89234072842052
 30
0.0
 11
241.3678811287735
 21
-20.87248298442051
 31
0.0
  0
LINE
  5
3B1
330
2
100
AcDbEntity
  8
0
  6
CONTINUOUS
100
AcDbLine
 10
241.4076544551735
 20
-20.89234726122052
 30
0.0
 11
241.3651190199735
 21
-20.8759840116205
 31
0.0
  0
LINE
  5
3B2
330
2
100
AcDbEntity
  8
0
  6
HIDDEN
100
AcDbLine
 10
248.7187784807735
 20
-17.67575858602052
 30
0.0
 11
248.7190820599735
 21
-19.77405459082051
 31
0.0
  0
LINE
  5
3B3
330
2
100
AcDbEntity
  8
0
  6
HIDDEN
 62
     9
100
AcDbLine
 10
250.0288366311735
 20
-20.05473637802052
 30
0.0
 11
247.4093270327735
 21
-20.05473637802052
 31
0.0
  0
LINE
  5
3B4
330
2
100
AcDbEntity
  8
0
  6
HIDDEN
 62
     9
100
AcDbLine
 10
250.0423051367735
 20
-20.27348637802052
 30
0.0
 11
247.4093270327735
 21
-20.27348637802052
 31
0.0
  0
LINE
  5
3B5
330
2
100
AcDbEntity
  8
0
  6
HIDDEN
 62
     9
100
AcDbLine
 10
246.6428834295735
 20
-19.54296953642051
 30
0.0
 11
246.7513242135735
 21
-19.54918506442052
 31
0.0
  0
ARC
  5
3B6
330
2
100
AcDbEntity
  8
0
  6
HIDDEN
 62
     9
100
AcDbCircle
 10
247.3958585271735
 20
-19.92973637802052
 30
0.0
 40
0.34375
100
AcDbArc
 50
225.0
 51
270.0
  0
LINE
  5
3B7
330
2
100
AcDbEntity
  8
0
  6
HIDDEN
 62
     9
100
AcDbLine
 10
247.3074708839735
 20
-20.0181254308205
 30
0.0
 11
246.9110539927735
 21
-19.62170853962052
 31
0.0
  0
LINE
  5
3B8
330
2
100
AcDbEntity
  8
0
  6
HIDDEN
 62
     9
100
AcDbLine
 10
247.1527905703736
 20
-20.17280433322051
 30
0.0
 11
246.7563700567735
 21
-19.77638381962051
 31
0.0
  0
LWPOLYLINE
  5
3B9
330
2
100
AcDbEntity
  8
0
  6
HIDDEN
 62
     9
100
AcDbPolyline
 90
        6
 70
     0
 43
0.0
 10
246.7513312903736
 20
-19.54918540202051
 10
246.7618838551735
 20
-19.55007741642052
 10
246.7927209943735
 20
-19.55543408202049
 10
246.8366870759735
 20
-19.57042962282051
 10
246.8821387447735
 20
-19.59690006922049
 10
246.9110546519735
 20
-19.62170918762049
  0
LINE
  5
3C1
330
2
100
AcDbEntity
  8
0
  6
HIDDEN
 62
     9
100
AcDbLine
 10
246.7513334807735
 20
-19.54918553002049
 30
0.0
 11
246.7596459463735
 21
-19.54946805642049
 31
0.0
  0
ARC
  5
3C2
330
2
100
AcDbEntity
  8
0
  6
HIDDEN
 62
     9
100
AcDbCircle
 10
247.3958585271735
 20
-19.92973637802052
 30
0.0
 40
0.125
100
AcDbArc
 50
225.0004568872999
 51
270.0
  0
LINE
  5
3C3
330
2
100
AcDbEntity
  8
0
  6
HIDDEN
 62
     9
100
AcDbLine
 10
247.3958597559735
 20
-20.05473637802052
 30
0.0
 11
247.4093270327735
 21
-20.05473637802052
 31
0.0
  0
LINE
  5
3C4
330
2
100
AcDbEntity
  8
0
  6
HIDDEN
 62
     9
100
AcDbLine
 10
247.3956225863735
 20
-20.27348637802052
 30
0.0
 11
247.4093270327735
 21
-20.27348637802052
 31
0.0
  0
LINE
  5
3C5
330
2
100
AcDbEntity
  8
CENTER
100
AcDbLine
 10
259.7562144903735
 20
-29.07039763593803
 30
0.0
 11
259.7562144903735
 21
-22.9536379757475
 31
0.0
  0
LWPOLYLINE
  5
3C6
330
2
100
AcDbEntity
  8
0
  6
CONTINUOUS
100
AcDbPolyline
 90
        7
 70
     0
 43
0.0
 10
260.4754381239735
 20
-24.81626380682049
 10
260.5722861863735
 20
-25.0122992132205
 10
260.6438015399735
 20
-25.21344603562052
 10
260.6864161671735
 20
-25.4077168980205
 10
260.7008753431735
 20
-25.6003651908205
 10
260.6862550583735
 20
-25.78224934282053
 10
260.6428169335735
 20
-25.95243468202049
  0
LWPOLYLINE
  5
3CF
330
2
100
AcDbEntity
  8
0
  6
CONTINUOUS
100
AcDbPolyline
 90
        9
 70
     0
 43
0.0
 10
258.2229374887735
 20
-25.21710374602052
 10
258.3104048295735
 20
-25.32708902762049
 10
258.3918890487735
 20
-25.4569435428205
 10
258.4711974423735
 20
-25.59887808362051
 10
258.5512846231735
 20
-25.74585992842052
 10
258.6329431431735
 20
-25.8896322436205
 10
258.7232601255735
 20
-26.03433584682051
 10
258.8267068903735
 20
-26.17798359242049
 10
258.9466539623735
 20
-26.31462203242049
  0
LINE
  5
3DA
330
2
100
AcDbEntity
  8
0
  6
CONTINUOUS
100
AcDbLine
 10
259.1269461335735
 20
-26.48319857962052
 30
0.0
 11
259.2682196183735
 21
-26.61723637802051
 31
0.0
  0
LWPOLYLINE
  5
3DB
330
2
100
AcDbEntity
  8
0
  6
CONTINUOUS
100
AcDbPolyline
 90
        4
 70
     0
 43
0.0
 10
258.9466539623735
 20
-26.31462203242049
 10
258.9635118071735
 20
-26.33135134122051
 10
258.9808607127735
 20
-26.34795960842049
 10
258.9987161463735
 20
-26.36442711402052
  0
LWPOLYLINE
  5
3E1
330
2
100
AcDbEntity
  8
0
  6
CONTINUOUS
100
AcDbPolyline
 90
        4
 70
     0
 43
0.0
 10
258.9987161463735
 20
-26.36442711402052
 10
259.0422763639735
 20
-26.4041494356205
 10
259.0850590631735
 20
-26.44377728522052
 10
259.1269461335735
 20
-26.48319857962052
  0
LINE
  5
3E7
330
2
100
AcDbEntity
  8
0
  6
CONTINUOUS
100
AcDbLine
 10
260.1269827911735
 20
-26.61723637802051
 30
0.0
 11
259.2682196199735
 21
-26.61723637802051
 31
0.0
  0
LWPOLYLINE
  5
3E8
330
2
100
AcDbEntity
  8
0
  6
CONTINUOUS
100
AcDbPolyline
 90
        3
 70
     0
 43
0.0
 10
260.3511197959735
 20
-26.37669638602051
 10
260.3035081927735
 20
-26.42596066122052
 10
260.2690966119735
 20
-26.46200720522049
  0
LINE
  5
3ED
330
2
100
AcDbEntity
  8
0
  6
CONTINUOUS
100
AcDbLine
 10
260.4149636791735
 20
-26.31113632842049
 30
0.0
 11
260.3993379543735
 21
-26.3273454708205
 31
0.0
  0
LWPOLYLINE
  5
3EE
330
2
100
AcDbEntity
  8
0
  6
CONTINUOUS
100
AcDbPolyline
 90
        3
 70
     0
 43
0.0
 10
260.4241117079735
 20
-26.30148940842049
 10
260.4086020567735
 20
-26.3177594516205
 10
260.3511197959735
 20
-26.37669638602051
  0
LWPOLYLINE
  5
3F3
330
2
100
AcDbEntity
  8
0
  6
CONTINUOUS
100
AcDbPolyline
 90
        4
 70
     0
 43
0.0
 10
260.2690984919735
 20
-26.46200522442049
 10
260.2251602919735
 20
-26.50880349322051
 10
260.1712409015735
 20
-26.56766749002051
 10
260.1269818759735
 20
-26.61723637802051
  0
LINE
  5
3F9
330
2
100
AcDbEntity
  8
0
  6
CONTINUOUS
100
AcDbLine
 10
260.4422414023735
 20
-26.28197194762051
 30
0.0
 11
260.4241332471735
 21
-26.30146654762052
 31
0.0
  0
LINE
  5
3FA
330
2
100
AcDbEntity
  8
0
  6
CONTINUOUS
100
AcDbLine
 10
260.4422414023735
 20
-26.28197194762051
 30
0.0
 11
260.4418342215735
 21
-26.28242575082051
 31
0.0
  0
LINE
  5
3FB
330
2
100
AcDbEntity
  8
0
  6
CONTINUOUS
100
AcDbLine
 10
260.5491606439735
 20
-26.14320280202051
 30
0.0
 11
260.4422414023735
 21
-26.28197194762051
 31
0.0
  0
LWPOLYLINE
  5
3FC
330
2
100
AcDbEntity
  8
0
  6
CONTINUOUS
100
AcDbPolyline
 90
        3
 70
     0
 43
0.0
 10
260.5883948551735
 20
-26.0759187300205
 10
260.5171941799735
 20
-26.1901329940205
 10
260.4418342215735
 20
-26.28242575082051
  0
LINE
  5
401
330
2
100
AcDbEntity
  8
0
  6
CONTINUOUS
100
AcDbLine
 10
260.5878430055735
 20
-26.07695955722051
 30
0.0
 11
260.5491606439735
 21
-26.14320280202051
 31
0.0
  0
LINE
  5
402
330
2
100
AcDbEntity
  8
0
  6
CONTINUOUS
100
AcDbLine
 10
260.5883948551735
 20
-26.0759187300205
 30
0.0
 11
260.5878430055735
 21
-26.07695955722051
 31
0.0
  0
LINE
  5
403
330
2
100
AcDbEntity
  8
0
  6
CONTINUOUS
100
AcDbLine
 10
260.6428169335735
 20
-25.95243468202049
 30
0.0
 11
260.5878430055735
 21
-26.07695955722051
 31
0.0
  0
LINE
  5
404
330
2
100
AcDbEntity
  8
0
  6
CONTINUOUS
100
AcDbLine
 10
260.3980256631735
 20
-26.31918185322052
 30
0.0
 11
260.3926011143735
 21
-26.33423890762049
 31
0.0
  0
ARC
  5
405
330
2
100
AcDbEntity
  8
0
  6
CONTINUOUS
100
AcDbCircle
 10
259.1266300871735
 20
-17.55473637802051
 30
0.0
 40
3.0
100
AcDbArc
 50
278.6657393271
 51
356.8742611349999
  0
LWPOLYLINE
  5
406
330
2
100
AcDbEntity
  8
0
  6
CONTINUOUS
100
AcDbPolyline
 90
        5
 70
     0
 43
0.0
 10
259.1817149149931
 20
-19.5214150542175
 10
259.1915955799735
 20
-19.9232667636205
 10
259.1772019927735
 20
-20.3323710148205
 10
259.1387651111735
 20
-20.72940370282051
 10
259.0777523111735
 20
-21.1044990900205
  0
LWPOLYLINE
  5
40D
330
2
100
AcDbEntity
  8
0
  6
CONTINUOUS
100
AcDbPolyline
 90
        5
 70
     0
 43
0.0
 10
259.0081790823735
 20
-19.62108523882051
 10
259.0275752887735
 20
-20.02722893802052
 10
259.0236804967735
 20
-20.43147749642052
 10
258.9968303367735
 20
-20.8234758884205
 10
258.9483479415735
 20
-21.19338446122049
  0
LWPOLYLINE
  5
414
330
2
100
AcDbEntity
  8
0
  6
CONTINUOUS
100
AcDbPolyline
 90
        5
 70
     0
 43
0.0
 10
259.1070021287734
 20
-21.46371511722049
 10
259.2350872135735
 20
-21.08502543082051
 10
259.3367099127735
 20
-20.6797225844205
 10
259.4105313671736
 20
-20.25315173482052
 10
259.4551596631735
 20
-19.81368035082051
  0
LWPOLYLINE
  5
41B
330
2
100
AcDbEntity
  8
0
  6
CONTINUOUS
100
AcDbPolyline
 90
        5
 70
     0
 43
0.0
 10
260.0094223575735
 20
-19.62108523882051
 10
259.9710148023735
 20
-20.0287500372205
 10
259.9032747495735
 20
-20.43396918442051
 10
259.8075078055735
 20
-20.82624705642052
 10
259.6863150807735
 20
-21.19565604202049
  0
LWPOLYLINE
  5
422
330
2
100
AcDbEntity
  8
0
  6
CONTINUOUS
100
AcDbPolyline
 90
        5
 70
     0
 43
0.0
 10
259.9321091607735
 20
-19.51246087882051
 10
259.8993126935735
 20
-19.92441199402049
 10
259.8377125415735
 20
-20.3342407188205
 10
259.7484577223735
 20
-20.7314752660205
 10
259.6339277559735
 20
-21.10618961162051
  0
LWPOLYLINE
  5
429
330
2
100
AcDbEntity
  8
0
  6
CONTINUOUS
100
AcDbPolyline
 90
        7
 70
     0
 43
0.0
 10
259.1210524983735
 20
-22.2228653364205
 10
259.3058567095735
 20
-21.9088600948205
 10
259.4677520327735
 20
-21.55300617002049
 10
259.6043440039735
 20
-21.1602046612205
 10
259.7128244839735
 20
-20.7383455204205
 10
259.7916878615735
 20
-20.29328118122051
 10
259.8393881527735
 20
-19.83405839562049
  0
LWPOLYLINE
  5
432
330
2
100
AcDbEntity
  8
0
  6
CONTINUOUS
100
AcDbPolyline
 90
        8
 70
     0
 43
0.0
 10
258.8092452567735
 20
-22.2281929972205
 10
258.9943943575735
 20
-21.91360171882049
 10
259.1565915431735
 20
-21.55708427882049
 10
259.2934376199735
 20
-21.16355242122049
 10
259.4021206231735
 20
-20.74090665482052
 10
259.4811316439735
 20
-20.29501002602052
 10
259.5289210679735
 20
-19.83492961322049
 10
259.5449350807735
 20
-19.36723637802051
  0
LWPOLYLINE
  5
43C
330
2
100
AcDbEntity
  8
0
  6
CONTINUOUS
100
AcDbPolyline
 90
        5
 70
     0
 43
0.0
 10
259.1070021287734
 20
-21.46371511722049
 10
259.1371523255735
 20
-21.3824308180205
 10
259.1682546775735
 20
-21.29347444362049
 10
259.2002989783735
 20
-21.19557592362049
 10
259.2331797351735
 20
-21.0873709716205
  0
LWPOLYLINE
  5
443
330
2
100
AcDbEntity
  8
0
  6
CONTINUOUS
100
AcDbPolyline
 90
        5
 70
     0
 43
0.0
 10
259.0423565415735
 20
-21.4238096692205
 10
259.0728547367735
 20
-21.34400584202051
 10
259.1042439575735
 20
-21.25669962762052
 10
259.1365181783735
 20
-21.16064195082051
 10
259.1695753479735
 20
-21.05449409002051
  0
LWPOLYLINE
  5
44A
330
2
100
AcDbEntity
  8
0
  6
CONTINUOUS
100
AcDbPolyline
 90
        4
 70
     0
 43
0.0
 10
260.4273831559735
 20
-20.7220118772205
 10
260.2824242775735
 20
-21.21822083562052
 10
260.0898537671735
 20
-21.68937363242051
 10
259.8592773511735
 20
-22.11770230922051
  0
LWPOLYLINE
  5
450
330
2
100
AcDbEntity
  8
0
  6
CONTINUOUS
100
AcDbPolyline
 90
        3
 70
     0
 43
0.0
 10
260.4202375735735
 20
-20.81843776202049
 10
260.2779341751735
 20
-21.27151176202049
 10
260.0788228855735
 20
-21.74214644842052
  0
LWPOLYLINE
  5
455
330
2
100
AcDbEntity
  8
0
  6
CONTINUOUS
100
AcDbPolyline
 90
        9
 70
     0
 43
0.0
 10
255.9582082711735
 20
-21.30643390602049
 10
255.9282384119735
 20
-21.23941694282051
 10
255.9100313191735
 20
-21.16988749642052
 10
255.9052767271735
 20
-21.1024037124205
 10
255.9141905895735
 20
-21.03917959082049
 10
255.9369300311735
 20
-20.9820704628205
 10
255.9722142471735
 20
-20.93474929162051
 10
256.0183737031735
 20
-20.8989122468205
 10
256.0305092071735
 20
-20.89234726122052
  0
LWPOLYLINE
  5
460
330
2
100
AcDbEntity
  8
0
  6
CONTINUOUS
100
AcDbPolyline
 90
        4
 70
     0
 43
0.0
 10
255.9582072487735
 20
-21.30643201642049
 10
256.1477605735735
 20
-21.63520298442049
 10
256.3530581335735
 20
-21.95097321642051
 10
256.5730779495735
 20
-22.2522203940205
  0
LINE
  5
466
330
2
100
AcDbEntity
  8
0
  6
CONTINUOUS
100
AcDbLine
 10
259.8367214359735
 20
-24.15039022282051
 30
0.0
 11
259.0087281447735
 21
-23.25348101322052
 31
0.0
  0
LWPOLYLINE
  5
467
330
2
100
AcDbEntity
  8
0
  6
CONTINUOUS
100
AcDbPolyline
 90
        5
 70
     0
 43
0.0
 10
258.6979409895735
 20
-22.9193320852205
 10
258.7365179303735
 20
-23.0717676260205
 10
258.7861604391735
 20
-23.21180296362052
 10
258.8459946471735
 20
-23.33641610122052
 10
258.9146323559735
 20
-23.44242778282049
  0
LINE
  5
46E
330
2
100
AcDbEntity
  8
0
  6
CONTINUOUS
100
AcDbLine
 10
260.1489725719735
 20
-24.1562848228205
 30
0.0
 11
259.3209792791735
 21
-23.25937561322052
 31
0.0
  0
LWPOLYLINE
  5
46F
330
2
100
AcDbEntity
  8
0
  6
CONTINUOUS
100
AcDbPolyline
 90
        4
 70
     0
 43
0.0
 10
257.3478736103735
 20
-23.23556464842052
 10
257.3772106791735
 20
-23.27122673642049
 10
257.4049667591735
 20
-23.30724378922051
 10
257.4315421623735
 20
-23.34399458122051
  0
LWPOLYLINE
  5
475
330
2
100
AcDbEntity
  8
0
  6
CONTINUOUS
100
AcDbPolyline
 90
        4
 70
     0
 43
0.0
 10
258.0797747799735
 20
-25.05564568682051
 10
258.1243323911735
 20
-25.10821164522052
 10
258.1713471895735
 20
-25.1612850708205
 10
258.2208709703735
 20
-25.2149121412205
  0
LINE
  5
47B
330
2
100
AcDbEntity
  8
0
  6
CONTINUOUS
100
AcDbLine
 10
258.2208709703735
 20
-25.2149121412205
 30
0.0
 11
258.2229374887735
 21
-25.21710374602052
 31
0.0
  0
LWPOLYLINE
  5
47C
330
2
100
AcDbEntity
  8
0
  6
CONTINUOUS
100
AcDbPolyline
 90
        4
 70
     0
 43
0.0
 10
257.4315421623735
 20
-23.34399458122051
 10
257.4659730007735
 20
-23.39522624362052
 10
257.4992456103735
 20
-23.4488978868205
 10
257.5304119111735
 20
-23.50333217002052
  0
LWPOLYLINE
  5
482
330
2
100
AcDbEntity
  8
0
  6
CONTINUOUS
100
AcDbPolyline
 90
        4
 70
     0
 43
0.0
 10
257.7834808439735
 20
-24.3505706900205
 10
257.7850034503735
 20
-24.37273030122051
 10
257.7860967879735
 20
-24.38676599402052
 10
257.7873010727735
 20
-24.40066880202051
  0
LINE
  5
488
330
2
100
AcDbEntity
  8
0
  6
CONTINUOUS
100
AcDbLine
 10
257.8761015559735
 20
-24.7629013188205
 30
0.0
 11
257.8779785527735
 21
-24.76696389482052
 31
0.0
  0
LWPOLYLINE
  5
489
330
2
100
AcDbEntity
  8
0
  6
CONTINUOUS
100
AcDbPolyline
 90
        4
 70
     0
 43
0.0
 10
257.8779785527735
 20
-24.76696389482052
 10
257.8871855927735
 20
-24.7856975588205
 10
257.8972424967735
 20
-24.8041669668205
 10
257.9082197063735
 20
-24.82247495562052
  0
LINE
  5
48F
330
2
100
AcDbEntity
  8
0
  6
CONTINUOUS
100
AcDbLine
 10
257.9082197063735
 20
-24.82247495562052
 30
0.0
 11
257.9105593447735
 21
-24.82616593642049
 31
0.0
  0
LWPOLYLINE
  5
490
330
2
100
AcDbEntity
  8
0
  6
CONTINUOUS
100
AcDbPolyline
 90
        4
 70
     0
 43
0.0
 10
257.9105593447735
 20
-24.82616593642049
 10
257.9603914567735
 20
-24.90020904842052
 10
258.0167828615735
 20
-24.97673553642052
 10
258.0797747799735
 20
-25.05564568682051
  0
LWPOLYLINE
  5
496
330
2
100
AcDbEntity
  8
0
  6
CONTINUOUS
100
AcDbPolyline
 90
        4
 70
     0
 43
0.0
 10
257.7873010727735
 20
-24.40066880202051
 10
257.8059154727735
 20
-24.53533984842052
 10
257.8357934871735
 20
-24.65659980842049
 10
257.8761015559735
 20
-24.7629013188205
  0
LWPOLYLINE
  5
49C
330
2
100
AcDbEntity
  8
0
  6
CONTINUOUS
100
AcDbPolyline
 90
        6
 70
     0
 43
0.0
 10
257.5304119111735
 20
-23.50333217002052
 10
257.6059889799735
 20
-23.65660926922049
 10
257.6731468151735
 20
-23.82831098442049
 10
257.7258922711735
 20
-24.00508121002052
 10
257.7625884775735
 20
-24.17824762282052
 10
257.7834808439735
 20
-24.3505706900205
  0
LINE
  5
4A4
330
2
100
AcDbEntity
  8
0
  6
CONTINUOUS
100
AcDbLine
 10
259.2267971271735
 20
-23.78092713322049
 30
0.0
 11
259.3887363239735
 21
-23.95213665002052
 31
0.0
  0
LINE
  5
4A5
330
2
100
AcDbEntity
  8
0
  6
CONTINUOUS
100
AcDbLine
 10
258.9146323559735
 20
-23.44242778282049
 30
0.0
 11
258.9215795303735
 21
-23.45145754762052
 31
0.0
  0
LWPOLYLINE
  5
4A6
330
2
100
AcDbEntity
  8
0
  6
CONTINUOUS
100
AcDbPolyline
 90
        4
 70
     0
 43
0.0
 10
258.9215795303735
 20
-23.45145754762052
 10
258.9341336455735
 20
-23.46706548682049
 10
258.9469127879735
 20
-23.48205187082052
 10
258.9599051383735
 20
-23.49640238602052
  0
LWPOLYLINE
  5
4AC
330
2
100
AcDbEntity
  8
0
  6
CONTINUOUS
100
AcDbPolyline
 90
        3
 70
     0
 43
0.0
 10
258.9599051383735
 20
-23.49640238602052
 10
259.0940090887735
 20
-23.6397176740205
 10
259.2267971271735
 20
-23.78092713322049
  0
LWPOLYLINE
  5
4B1
330
2
100
AcDbEntity
  8
0
  6
CONTINUOUS
100
AcDbPolyline
 90
       13
 70
     0
 43
0.0
 10
260.0985691895735
 20
-25.0845471044205
 10
260.1000077959735
 20
-25.03386907082052
 10
260.0999595063735
 20
-24.97630160042052
 10
260.0978233527734
 20
-24.91269418602049
 10
260.0930150791735
 20
-24.84384360362052
 10
260.0849428407735
 20
-24.7703922148205
 10
260.0728314743735
 20
-24.69211020042049
 10
260.0555291911735
 20
-24.60822693002052
 10
260.0316499847735
 20
-24.51898445802051
 10
259.9999256983735
 20
-24.42642276682052
 10
259.9583380663736
 20
-24.33173624522049
 10
259.9045760727735
 20
-24.2378206548205
 10
259.8367214359735
 20
-24.15039022282051
  0
LWPOLYLINE
  5
4C0
330
2
100
AcDbEntity
  8
0
  6
CONTINUOUS
100
AcDbPolyline
 90
        3
 70
     0
 43
0.0
 10
259.9181087639735
 20
-24.6045576644205
 10
259.8977820711735
 20
-24.54831531402052
 10
259.8749769207735
 20
-24.49580084842052
  0
LINE
  5
4C5
330
2
100
AcDbEntity
  8
0
  6
CONTINUOUS
100
AcDbLine
 10
259.3887363239735
 20
-23.95213665002052
 30
0.0
 11
259.4437980023735
 21
-24.0100103796205
 31
0.0
  0
LWPOLYLINE
  5
4C6
330
2
100
AcDbEntity
  8
0
  6
CONTINUOUS
100
AcDbPolyline
 90
        3
 70
     0
 43
0.0
 10
259.7493380823735
 20
-24.32829941482052
 10
259.8145349063735
 20
-24.40515134282049
 10
259.8749769351735
 20
-24.49580094602049
  0
LWPOLYLINE
  5
4CB
330
2
100
AcDbEntity
  8
0
  6
CONTINUOUS
100
AcDbPolyline
 90
        4
 70
     0
 43
0.0
 10
259.4437980023735
 20
-24.0100103796205
 10
259.5463904855735
 20
-24.11736962442051
 10
259.6482200071735
 20
-24.22344616042051
 10
259.7493380823735
 20
-24.32829941482052
  0
LWPOLYLINE
  5
4D1
330
2
100
AcDbEntity
  8
0
  6
CONTINUOUS
100
AcDbPolyline
 90
       11
 70
     0
 43
0.0
 10
260.0741162551735
 20
-25.08786430282053
 10
260.0535108743735
 20
-25.0651289636205
 10
260.0372101911736
 20
-25.03740358282049
 10
260.0233509623735
 20
-25.0060831796205
 10
260.0111742855735
 20
-24.97206938602051
 10
259.9998675191735
 20
-24.9347253876205
 10
259.9890569527735
 20
-24.8939257668205
 10
259.9784864071736
 20
-24.84989779882052
 10
259.9678023351735
 20
-24.80262143082049
 10
259.9566173607736
 20
-24.75221484682052
 10
259.9443775447735
 20
-24.6985372708205
  0
LINE
  5
4DE
330
2
100
AcDbEntity
  8
0
  6
CONTINUOUS
100
AcDbLine
 10
260.2199399511735
 20
-24.24859360042052
 30
0.0
 11
260.1489725719735
 21
-24.1562848228205
 31
0.0
  0
LINE
  5
4DF
330
2
100
AcDbEntity
  8
0
  6
CONTINUOUS
100
AcDbLine
 10
260.3758243498373
 20
-24.65894524729137
 30
0.0
 11
260.4723578647735
 21
-24.8108545908205
 31
0.0
  0
LWPOLYLINE
  5
4E0
330
2
100
AcDbEntity
  8
0
  6
CONTINUOUS
100
AcDbPolyline
 90
        4
 70
     0
 43
0.0
 10
260.0967925511735
 20
-25.09861151562049
 10
260.0972779767735
 20
-25.09396894922049
 10
260.0978722263735
 20
-25.0892645780205
 10
260.0985691671735
 20
-25.08454709482052
  0
LINE
  5
4E6
330
2
100
AcDbEntity
  8
0
  6
CONTINUOUS
100
AcDbLine
 10
260.4209395415735
 20
-25.06585861962052
 30
0.0
 11
260.4209381991735
 21
-25.06589918122049
 31
0.0
  0
LWPOLYLINE
  5
4E7
330
2
100
AcDbEntity
  8
0
  6
CONTINUOUS
100
AcDbPolyline
 90
        4
 70
     0
 43
0.0
 10
260.4079259159735
 20
-25.1298408196205
 10
260.4073541927735
 20
-25.12509962762052
 10
260.4071841943735
 20
-25.12030822122051
 10
260.4074177015735
 20
-25.11551679882051
  0
LWPOLYLINE
  5
4ED
330
2
100
AcDbEntity
  8
0
  6
CONTINUOUS
100
AcDbPolyline
 90
        5
 70
     0
 43
0.0
 10
260.2651186679735
 20
-25.11970272522052
 10
260.2212383927735
 20
-25.11488705322052
 10
260.1774209671735
 20
-25.10957860842052
 10
260.1353819239735
 20
-25.10410546762052
 10
260.0967925479735
 20
-25.09861151882051
  0
LWPOLYLINE
  5
4F4
330
2
100
AcDbEntity
  8
0
  6
CONTINUOUS
100
AcDbPolyline
 90
        7
 70
     0
 43
0.0
 10
260.4079259159735
 20
-25.1298408196205
 10
260.3919729223735
 20
-25.12928423082049
 10
260.3735918983735
 20
-25.12848307242052
 10
260.3522783959736
 20
-25.12729941802052
 10
260.3274965143735
 20
-25.1255517204205
 10
260.2986656823735
 20
-25.12306408362051
 10
260.2651186279735
 20
-25.11970273962051
  0
LINE
  5
4FD
330
2
100
AcDbEntity
  8
0
  6
CONTINUOUS
100
AcDbLine
 10
260.4723579287735
 20
-24.81085470122051
 30
0.0
 11
260.4755475191735
 21
-24.81645657322052
 31
0.0
  0
LWPOLYLINE
  5
4FE
330
2
100
AcDbEntity
  8
0
  6
CONTINUOUS
100
AcDbPolyline
 90
        3
 70
     0
 43
0.0
 10
260.0967925511735
 20
-25.09861151562049
 10
260.0854654487735
 20
-25.0950804548205
 10
260.0741199479736
 20
-25.0878597924205
  0
LWPOLYLINE
  5
503
330
2
100
AcDbEntity
  8
0
  6
CONTINUOUS
100
AcDbPolyline
 90
        7
 70
     0
 43
0.0
 10
260.4074177927735
 20
-25.1155156324205
 10
260.4098796279735
 20
-24.9535593396205
 10
260.3981043335735
 20
-24.7929761668205
 10
260.3722783815735
 20
-24.63761357162051
 10
260.3332359655735
 20
-24.49271237802052
 10
260.2818686823735
 20
-24.36157951562051
 10
260.2199399511735
 20
-24.24859360042052
  0
LWPOLYLINE
  5
50C
330
2
100
AcDbEntity
  8
0
  6
CONTINUOUS
100
AcDbPolyline
 90
        4
 70
     0
 43
0.0
 10
259.9443775447735
 20
-24.6985372772205
 10
259.9374484183735
 20
-24.67052347242051
 10
259.9292542439735
 20
-24.6406924692205
 10
259.9196258759735
 20
-24.60921634602049
  0
LINE
  5
512
330
2
100
AcDbEntity
  8
0
  6
CONTINUOUS
100
AcDbLine
 10
259.9196258759735
 20
-24.60921633962049
 30
0.0
 11
259.9181087607735
 21
-24.6045576308205
 31
0.0
  0
LINE
  5
513
330
2
100
AcDbEntity
  8
0
  6
CONTINUOUS
100
AcDbLine
 10
256.5730779495735
 20
-22.2522203940205
 30
0.0
 11
257.0779524215735
 21
-22.90332298442051
 31
0.0
  0
LWPOLYLINE
  5
514
330
2
100
AcDbEntity
  8
0
  6
CONTINUOUS
100
AcDbPolyline
 90
        4
 70
     0
 43
0.0
 10
257.0779524215735
 20
-22.90332298442051
 10
257.1631681319735
 20
-23.01156081642052
 10
257.2502027639735
 20
-23.11884516522052
 10
257.3385707127735
 20
-23.22460861642051
  0
LINE
  5
51A
330
2
100
AcDbEntity
  8
0
  6
CONTINUOUS
100
AcDbLine
 10
257.3385707127735
 20
-23.22460861642051
 30
0.0
 11
257.3478736103735
 21
-23.23556464842052
 31
0.0
  0
LINE
  5
51B
330
2
100
AcDbEntity
  8
0
  6
CONTINUOUS
100
AcDbLine
 10
259.4030339751735
 20
-22.8196048436205
 30
0.0
 11
259.2065282161215
 21
-23.08765173439137
 31
0.0
  0
LWPOLYLINE
  5
51C
330
2
100
AcDbEntity
  8
0
  6
CONTINUOUS
100
AcDbPolyline
 90
        6
 70
     0
 43
0.0
 10
259.3209792791735
 20
-23.25937561322052
 10
259.2507768167735
 20
-23.16815613802052
 10
259.1894088039736
 20
-23.05650525642052
 10
259.1385847223735
 20
-22.92744903882051
 10
259.0997126183735
 20
-22.78453801002051
 10
259.0738419031735
 20
-22.6316687684205
  0
LWPOLYLINE
  5
524
330
2
100
AcDbEntity
  8
0
  6
CONTINUOUS
100
AcDbPolyline
 90
        4
 70
     0
 43
0.0
 10
259.3596992631735
 20
-21.88832406922049
 10
259.2968985479735
 20
-21.99131587722051
 10
259.2321376439735
 20
-22.09015300682052
 10
259.0973939895735
 20
-22.2665059572205
  0
LWPOLYLINE
  5
52A
330
2
100
AcDbEntity
  8
0
  6
CONTINUOUS
100
AcDbPolyline
 90
        4
 70
     0
 43
0.0
 10
258.6979401831735
 20
-22.91933136522052
 10
258.6645103415735
 20
-22.76498946282049
 10
258.6427352215735
 20
-22.61369000362051
 10
258.6313985527735
 20
-22.47709210922052
  0
LWPOLYLINE
  5
530
330
2
100
AcDbEntity
  8
0
  6
CONTINUOUS
100
AcDbPolyline
 90
        7
 70
     0
 43
0.0
 10
259.0087281447735
 20
-23.25348101322052
 10
258.9389969895735
 20
-23.16286994762052
 10
258.8780576391735
 20
-23.0519879380205
 10
258.8275968567735
 20
-22.9238439140205
 10
258.7889953719735
 20
-22.78191523242049
 10
258.7633092455735
 20
-22.63011944042051
 10
258.7512149127735
 20
-22.47264039402049
  0
LINE
  5
539
330
2
100
AcDbEntity
  8
0
  6
CONTINUOUS
100
AcDbLine
 10
258.8689977655735
 20
-21.81220728202049
 30
0.0
 11
258.8742097271735
 21
-21.80154656202051
 31
0.0
  0
LINE
  5
53A
330
2
100
AcDbEntity
  8
0
  6
CONTINUOUS
100
AcDbLine
 10
258.9361768391735
 20
-21.85313307882051
 30
0.0
 11
258.9414388071735
 21
-21.84251931882052
 31
0.0
  0
LWPOLYLINE
  5
53B
330
2
100
AcDbEntity
  8
0
  6
CONTINUOUS
100
AcDbPolyline
 90
        3
 70
     0
 43
0.0
 10
258.9414388071735
 20
-21.84251931882052
 10
258.9550823335735
 20
-21.81464085962049
 10
258.9685833255735
 20
-21.78653142922049
  0
LWPOLYLINE
  5
540
330
2
100
AcDbEntity
  8
0
  6
CONTINUOUS
100
AcDbPolyline
 90
        3
 70
     0
 43
0.0
 10
258.8742097271735
 20
-21.80154656202051
 10
258.8877251735735
 20
-21.77355951242051
 10
258.9344165703735
 20
-21.6754024260205
  0
LWPOLYLINE
  5
545
330
2
100
AcDbEntity
  8
0
  6
CONTINUOUS
100
AcDbPolyline
 90
       12
 70
     0
 43
0.0
 10
258.7512149127735
 20
-22.47264039402049
 10
258.7509283287735
 20
-22.45417457002051
 10
258.7513800007735
 20
-22.43282038282049
 10
258.7528564727735
 20
-22.40932941802051
 10
258.7555747975735
 20
-22.38443554922051
 10
258.7596832471735
 20
-22.35880559082049
 10
258.7652934311735
 20
-22.33294541642051
 10
258.7724709687735
 20
-22.30736989002049
 10
258.7811947927735
 20
-22.28269416042051
 10
258.7910302743735
 20
-22.26019969962051
 10
258.8008713431735
 20
-22.24162733642052
 10
258.8092452567735
 20
-22.2281929972205
  0
LWPOLYLINE
  5
553
330
2
100
AcDbEntity
  8
0
  6
CONTINUOUS
100
AcDbPolyline
 90
        4
 70
     0
 43
0.0
 10
258.6313986183735
 20
-22.47709203242052
 10
258.6300674855735
 20
-22.44175257162051
 10
258.6300026615735
 20
-22.4059908036205
 10
258.6312780503735
 20
-22.36977066122051
  0
LWPOLYLINE
  5
559
330
2
100
AcDbEntity
  8
0
  6
CONTINUOUS
100
AcDbPolyline
 90
        3
 70
     0
 43
0.0
 10
258.7451402839735
 20
-22.19453169482051
 10
258.7497690791735
 20
-22.18678879562051
 10
258.7544401271735
 20
-22.17918562762051
  0
LINE
  5
55E
330
2
100
AcDbEntity
  8
0
  6
CONTINUOUS
100
AcDbLine
 10
258.6545888263735
 20
-22.20145712202053
 30
0.0
 11
258.6899043223735
 21
-22.1426751716205
 31
0.0
  0
LWPOLYLINE
  5
55F
330
2
100
AcDbEntity
  8
0
  6
CONTINUOUS
100
AcDbPolyline
 90
        3
 70
     0
 43
0.0
 10
258.7384731271735
 20
-22.2060611428205
 10
258.7417904295735
 20
-22.20026796842051
 10
258.7451402839735
 20
-22.19453169482051
  0
LWPOLYLINE
  5
564
330
2
100
AcDbEntity
  8
0
  6
CONTINUOUS
100
AcDbPolyline
 90
        6
 70
     0
 43
0.0
 10
258.6931869351735
 20
-22.30441977642049
 10
258.7016455751735
 20
-22.28104827722052
 10
258.7110670039735
 20
-22.2592922116205
 10
258.7205333831736
 20
-22.23962484522049
 10
258.7297002231735
 20
-22.22196665642052
 10
258.7384731271735
 20
-22.2060611428205
  0
LWPOLYLINE
  5
56C
330
2
100
AcDbEntity
  8
0
  6
CONTINUOUS
100
AcDbPolyline
 90
        3
 70
     0
 43
0.0
 10
258.6910182711735
 20
-22.3121648612205
 10
258.6920952615735
 20
-22.30811707562049
 10
258.6931869351735
 20
-22.30441977642049
  0
LWPOLYLINE
  5
571
330
2
100
AcDbEntity
  8
0
  6
CONTINUOUS
100
AcDbPolyline
 90
        5
 70
     0
 43
0.0
 10
258.6788020439735
 20
-22.38203892362052
 10
258.6814223559735
 20
-22.36028023082051
 10
258.6845822503735
 20
-22.34059492522051
 10
258.6878705127735
 20
-22.3245057204205
 10
258.6910182711735
 20
-22.3121648612205
  0
LINE
  5
578
330
2
100
AcDbEntity
  8
0
  6
CONTINUOUS
100
AcDbLine
 10
258.7802568231735
 20
-21.87394947722052
 30
0.0
 11
258.7770822871735
 21
-21.8831435028205
 31
0.0
  0
LWPOLYLINE
  5
579
330
2
100
AcDbEntity
  8
0
  6
CONTINUOUS
100
AcDbPolyline
 90
        4
 70
     0
 43
0.0
 10
258.7544401271735
 20
-22.17918562762051
 10
258.8172418823735
 20
-22.0746386324205
 10
258.8779184103735
 20
-21.96582240202053
 10
258.9361768391735
 20
-21.85313307882051
  0
LWPOLYLINE
  5
57F
330
2
100
AcDbEntity
  8
0
  6
CONTINUOUS
100
AcDbPolyline
 90
        4
 70
     0
 43
0.0
 10
258.6899043159735
 20
-22.14267516202049
 10
258.7516080087735
 20
-22.03601364042051
 10
258.8114085879735
 20
-21.9257449540205
 10
258.8689977591735
 20
-21.81220727402049
  0
LWPOLYLINE
  5
585
330
2
100
AcDbEntity
  8
0
  6
CONTINUOUS
100
AcDbPolyline
 90
       12
 70
     0
 43
0.0
 10
259.0616589015735
 20
-22.47305530442051
 10
259.0613843559735
 20
-22.4503333140205
 10
259.0623089079735
 20
-22.42261722762052
 10
259.0648752391735
 20
-22.39282783082051
 10
259.0690876199735
 20
-22.36341720522051
 10
259.0747063655735
 20
-22.33573456042051
 10
259.0814847831735
 20
-22.31019109322049
 10
259.0891526455735
 20
-22.28704190282051
 10
259.0973939895735
 20
-22.2665059572205
 10
259.1057968199735
 20
-22.24884215562049
 10
259.1138663095735
 20
-22.23425681642051
 10
259.1210524983735
 20
-22.2228653364205
  0
LINE
  5
593
330
2
100
AcDbEntity
  8
0
  6
CONTINUOUS
100
AcDbLine
 10
259.0738419031735
 20
-22.6316687684205
 30
0.0
 11
259.0616589015735
 21
-22.47305530442051
 31
0.0
  0
LWPOLYLINE
  5
594
330
2
100
AcDbEntity
  8
0
  6
CONTINUOUS
100
AcDbPolyline
 90
        4
 70
     0
 43
0.0
 10
258.9344165703735
 20
-21.6754024260205
 10
258.9691831991735
 20
-21.59888632682051
 10
259.0052378471735
 20
-21.51522361002052
 10
259.0423565799735
 20
-21.42380971882051
  0
LWPOLYLINE
  5
59A
330
2
100
AcDbEntity
  8
0
  6
CONTINUOUS
100
AcDbPolyline
 90
        5
 70
     0
 43
0.0
 10
258.9685833255735
 20
-21.78653142922049
 10
259.0010522967735
 20
-21.71675512842049
 10
259.0350636375735
 20
-21.64009572522051
 10
259.0704535719735
 20
-21.5559512084205
 10
259.1070021287734
 20
-21.46371511722049
  0
LWPOLYLINE
  5
5A1
330
2
100
AcDbEntity
  8
0
  6
CONTINUOUS
100
AcDbPolyline
 90
        4
 70
     0
 43
0.0
 10
258.9471462407735
 20
-21.20064601322052
 10
258.9015722007735
 20
-21.43751918282049
 10
258.8456633607735
 20
-21.66283094442052
 10
258.7802568231735
 20
-21.87394947722052
  0
LWPOLYLINE
  5
5A7
330
2
100
AcDbEntity
  8
0
  6
CONTINUOUS
100
AcDbPolyline
 90
        4
 70
     0
 43
0.0
 10
259.0762877063735
 20
-21.11185966442052
 10
259.0265667719735
 20
-21.33345044842052
 10
258.9679441447735
 20
-21.5453336340205
 10
258.9011086727735
 20
-21.7453723684205
  0
LINE
  5
5AD
330
2
100
AcDbEntity
  8
0
  6
CONTINUOUS
100
AcDbLine
 10
260.0788228855735
 20
-21.74214644842052
 30
0.0
 11
259.8306430231735
 21
-22.19036864362049
 31
0.0
  0
LINE
  5
5AE
330
2
100
AcDbEntity
  8
0
  6
CONTINUOUS
100
AcDbLine
 10
259.4030339751735
 20
-22.8196048436205
 30
0.0
 11
259.4030049607735
 21
-22.81964440522052
 31
0.0
  0
LINE
  5
5AF
330
2
100
AcDbEntity
  8
0
  6
CONTINUOUS
100
AcDbLine
 10
259.4058608055735
 20
-22.81446784522052
 30
0.0
 11
259.3963144887735
 21
-22.82876899722051
 31
0.0
  0
LINE
  5
5B0
330
2
100
AcDbEntity
  8
0
  6
CONTINUOUS
100
AcDbLine
 10
259.8267301863735
 20
-22.19659102602052
 30
0.0
 11
259.8267128327735
 21
-22.19661860682051
 31
0.0
  0
LINE
  5
5B1
330
2
100
AcDbEntity
  8
0
  6
CONTINUOUS
100
AcDbLine
 10
259.8306717783736
 20
-22.1903228820205
 30
0.0
 11
259.8267572599735
 21
-22.19654801002052
 31
0.0
  0
LINE
  5
5B2
330
2
100
AcDbEntity
  8
0
  6
CONTINUOUS
100
AcDbLine
 10
259.8592773511735
 20
-22.11770230922051
 30
0.0
 11
259.8553777223735
 21
-22.12408253642049
 31
0.0
  0
LINE
  5
5B3
330
2
100
AcDbEntity
  8
0
  6
CONTINUOUS
100
AcDbLine
 10
259.8553777223735
 20
-22.12408253642049
 30
0.0
 11
259.8267301863735
 21
-22.19659102602052
 31
0.0
  0
LINE
  5
5B4
330
2
100
AcDbEntity
  8
0
  6
CONTINUOUS
100
AcDbLine
 10
259.8592773511735
 20
-22.11770230922051
 30
0.0
 11
259.8306495767735
 21
-22.19035821482052
 31
0.0
  0
LWPOLYLINE
  5
5B5
330
2
100
AcDbEntity
  8
0
  6
CONTINUOUS
100
AcDbPolyline
 90
        3
 70
     0
 43
0.0
 10
259.8267301863735
 20
-22.19659102602052
 10
259.7083222487735
 20
-22.38059012522052
 10
259.5616719399735
 20
-22.59743763722049
  0
LINE
  5
5BA
330
2
100
AcDbEntity
  8
0
  6
CONTINUOUS
100
AcDbLine
 10
259.5616719399735
 20
-22.59743763722049
 30
0.0
 11
259.4030049607735
 21
-22.81964440522052
 31
0.0
  0
LWPOLYLINE
  5
5BB
330
2
100
AcDbEntity
  8
0
  6
CONTINUOUS
100
AcDbPolyline
 90
        4
 70
     0
 43
0.0
 10
259.6835888247735
 20
-21.20292893482051
 10
259.5872167735735
 20
-21.4404011124205
 10
259.4806886711735
 20
-21.66667299882049
 10
259.3596992631735
 20
-21.88832406922049
  0
LWPOLYLINE
  5
5C1
330
2
100
AcDbEntity
  8
0
  6
CONTINUOUS
100
AcDbPolyline
 90
        3
 70
     0
 43
0.0
 10
258.6257318759735
 20
-22.31221814442051
 10
258.6236698503735
 20
-22.28881173482052
 10
258.6222200007735
 20
-22.2612439124205
  0
LWPOLYLINE
  5
5C6
330
2
100
AcDbEntity
  8
0
  6
CONTINUOUS
100
AcDbPolyline
 90
        4
 70
     0
 43
0.0
 10
258.7770822871735
 20
-21.8831435028205
 10
258.7398085815735
 20
-21.98512567082049
 10
258.7001815559736
 20
-22.08300218602051
 10
258.6222200007735
 20
-22.2612439124205
  0
LWPOLYLINE
  5
5CC
330
2
100
AcDbEntity
  8
0
  6
CONTINUOUS
100
AcDbPolyline
 90
        4
 70
     0
 43
0.0
 10
258.6222200007735
 20
-22.2612439124205
 10
258.6327354231735
 20
-22.23963232682051
 10
258.6438786103735
 20
-22.2196532084205
 10
258.6545888263735
 20
-22.20145712202053
  0
LINE
  5
5D2
330
2
100
AcDbEntity
  8
0
  6
CONTINUOUS
100
AcDbLine
 10
258.6312780391735
 20
-22.36977056362052
 30
0.0
 11
258.6257318759735
 21
-22.31221814442051
 31
0.0
  0
LINE
  5
5D3
330
2
100
AcDbEntity
  8
0
  6
CONTINUOUS
100
AcDbLine
 10
256.0305092071735
 20
-20.89234726122052
 30
0.0
 11
256.0730446423736
 21
-20.8759840116205
 31
0.0
  0
LINE
  5
5D4
330
2
100
AcDbEntity
  8
0
  6
CONTINUOUS
100
AcDbLine
 10
256.0305222215735
 20
-20.89234072842052
 30
0.0
 11
256.0702825335735
 21
-20.87248298442051
 31
0.0
  0
LWPOLYLINE
  5
5D5
330
2
100
AcDbEntity
  8
0
  6
HIDDEN
 62
     9
100
AcDbPolyline
 90
        6
 70
     0
 43
0.0
 10
259.6052173095734
 20
-17.33258178282051
 10
259.4071437703735
 20
-17.79172204682049
 10
258.9916110759735
 20
-18.35246573482051
 10
258.5715860551735
 20
-18.70590505642051
 10
258.2113578583735
 20
-18.91679241482052
 10
257.9424833335735
 20
-19.03607963722049
  0
LWPOLYLINE
  5
5DD
330
2
100
AcDbEntity
  8
0
  6
HIDDEN
 62
     9
100
AcDbPolyline
 90
        5
 70
     0
 43
0.0
 10
259.8135119815735
 20
-17.3994016820205
 10
259.5995236343735
 20
-17.89585784522049
 10
259.1557384951735
 20
-18.4974161940205
 10
258.7019971623735
 20
-18.88171082762049
 10
258.3121712439735
 20
-19.11096228682049
  0
LWPOLYLINE
  5
5E4
330
2
100
AcDbEntity
  8
0
  6
CONTINUOUS
100
AcDbPolyline
 90
        4
 70
     0
 43
0.0
 10
257.6608923463735
 20
-20.3583401300205
 10
257.9125628407735
 20
-20.23026618922052
 10
258.4529311319735
 20
-19.93999151242051
 10
259.1817149149931
 20
-19.52141505421751
  0
LWPOLYLINE
  5
5EA
330
2
100
AcDbEntity
  8
0
  6
CONTINUOUS
100
AcDbPolyline
 90
        3
 70
     0
 43
0.0
 10
256.9499860583735
 20
-20.6838529876205
 10
257.4403786519735
 20
-20.46400438122051
 10
257.6604960983735
 20
-20.35752102282052
  0
LWPOLYLINE
  5
5EF
330
2
100
AcDbEntity
  8
0
  6
CONTINUOUS
100
AcDbPolyline
 90
        3
 70
     0
 43
0.0
 10
256.8859730583735
 20
-20.7220118772205
 10
257.3895619991735
 20
-20.49111150602049
 10
257.6608923463735
 20
-20.3583401300205
  0
LWPOLYLINE
  5
5F4
330
2
100
AcDbEntity
  8
0
  6
CONTINUOUS
100
AcDbPolyline
 90
        4
 70
     0
 43
0.0
 10
256.2649195031736
 20
-20.8068795540205
 10
256.4579983223735
 20
-20.79827385002051
 10
256.6375902487735
 20
-20.77481883402052
 10
256.8021387271735
 20
-20.7365748644205
  0
LWPOLYLINE
  5
5FA
330
2
100
AcDbEntity
  8
0
  6
CONTINUOUS
100
AcDbPolyline
 90
        5
 70
     0
 43
0.0
 10
256.1387718983735
 20
-20.86647192202049
 10
256.3496116311735
 20
-20.85369866442052
 10
256.5455501623735
 20
-20.82517311882049
 10
256.7251256999735
 20
-20.78108149802051
 10
256.8859730583735
 20
-20.7220118772205
  0
LINE
  5
601
330
2
100
AcDbEntity
  8
0
  6
CONTINUOUS
100
AcDbLine
 10
256.1759725319735
 20
-20.82216053642051
 30
0.0
 11
256.1532647447735
 21
-20.83173064842049
 31
0.0
  0
LINE
  5
602
330
2
100
AcDbEntity
  8
0
  6
CONTINUOUS
100
AcDbLine
 10
256.1803298119735
 20
-20.84660029962051
 30
0.0
 11
256.1387741399735
 21
-20.86647187082049
 31
0.0
  0
LINE
  5
603
330
2
100
AcDbEntity
  8
0
  6
CONTINUOUS
100
AcDbLine
 10
256.1278743831735
 20
-20.84410241482049
 30
0.0
 11
256.1532848951735
 21
-20.8317208708205
 31
0.0
  0
LWPOLYLINE
  5
604
330
2
100
AcDbEntity
  8
0
  6
CONTINUOUS
100
AcDbPolyline
 90
        3
 70
     0
 43
0.0
 10
256.2649159767735
 20
-20.80687957322052
 10
256.2223739975735
 20
-20.8267320500205
 10
256.1803298119735
 20
-20.84660029962051
  0
LWPOLYLINE
  5
609
330
2
100
AcDbEntity
  8
0
  6
CONTINUOUS
100
AcDbPolyline
 90
        3
 70
     0
 43
0.0
 10
256.2649159767735
 20
-20.80687957322052
 10
256.2197533223735
 20
-20.81073213482051
 10
256.1759725319735
 20
-20.82216053642051
  0
LINE
  5
60E
330
2
100
AcDbEntity
  8
0
  6
CONTINUOUS
100
AcDbLine
 10
256.8021387271735
 20
-20.7365748644205
 30
0.0
 11
256.9499860583735
 21
-20.6838529876205
 31
0.0
  0
LINE
  5
60F
330
2
100
AcDbEntity
  8
0
  6
CONTINUOUS
100
AcDbLine
 10
256.8859730583735
 20
-20.7220118772205
 30
0.0
 11
256.9499860583735
 21
-20.6838529876205
 31
0.0
  0
LWPOLYLINE
  5
610
330
2
100
AcDbEntity
  8
0
  6
HIDDEN
 62
     9
100
AcDbPolyline
 90
        6
 70
     0
 43
0.0
 10
257.0365119655735
 20
-19.51639469482051
 10
256.9420897159735
 20
-19.53410293002049
 10
256.7520115063735
 20
-19.56253356522052
 10
256.5728390023735
 20
-19.58276501642049
 10
256.3828640679735
 20
-19.59976571562052
 10
256.2405693095735
 20
-19.6105233700205
  0
LINE
  5
618
330
2
100
AcDbEntity
  8
0
  6
HIDDEN
 62
     9
100
AcDbLine
 10
257.3719632695735
 20
-19.4419889844205
 30
0.0
 11
257.0332078199735
 21
-19.5170607172205
 31
0.0
  0
LWPOLYLINE
  5
619
330
2
100
AcDbEntity
  8
0
  6
CONTINUOUS
100
AcDbPolyline
 90
        3
 70
     0
 43
0.0
 10
256.0730446423736
 20
-20.8759840116205
 10
256.1056276695735
 20
-20.86917454442049
 10
256.1387741399735
 20
-20.86647187082049
  0
LINE
  5
61E
330
2
100
AcDbEntity
  8
0
  6
CONTINUOUS
100
AcDbLine
 10
256.0702825335735
 20
-20.87248298442051
 30
0.0
 11
256.1278743831735
 21
-20.84410241482049
 31
0.0
  0
LWPOLYLINE
  5
61F
330
2
100
AcDbEntity
  8
0
  6
CONTINUOUS
100
AcDbPolyline
 90
       11
 70
     0
 43
0.0
 10
259.1718903767735
 20
-21.0467292276205
 10
259.2004548647735
 20
-20.94687365002051
 10
259.2294755111735
 20
-20.8365781668205
 10
259.2586453015735
 20
-20.71455443722052
 10
259.2875160023735
 20
-20.57949356042049
 10
259.3154872631735
 20
-20.43002981802052
 10
259.3417944903735
 20
-20.2646422052205
 10
259.3654682439735
 20
-20.0815849124205
 10
259.3852737559735
 20
-19.8787343684205
 10
259.3996027111735
 20
-19.65325983242049
 10
259.4062399063735
 20
-19.4023828884205
  0
LWPOLYLINE
  5
62C
330
2
100
AcDbEntity
  8
0
  6
CONTINUOUS
100
AcDbPolyline
 90
       11
 70
     0
 43
0.0
 10
259.2354842679735
 20
-21.07945445322052
 10
259.2640632439735
 20
-20.97714835402052
 10
259.2931318263735
 20
-20.86409449162053
 10
259.3223713911735
 20
-20.73896350282049
 10
259.3513165639735
 20
-20.60040423562049
 10
259.3793433703735
 20
-20.44700459562051
 10
259.4056556471735
 20
-20.27718807722052
 10
259.4292420439735
 20
-20.08914049802051
 10
259.4488117735735
 20
-19.8806454516205
 10
259.4626781831735
 20
-19.6487540932205
 10
259.4685139111735
 20
-19.39064269962052
  0
LWPOLYLINE
  5
639
330
2
100
AcDbEntity
  8
0
  6
CONTINUOUS
100
AcDbPolyline
 90
        5
 70
     0
 43
0.0
 10
260.0094223575735
 20
-19.62108523882051
 10
260.1887274647736
 20
-19.93741067882051
 10
260.3190457367735
 20
-20.22941005802051
 10
260.3985371991735
 20
-20.49226357322051
 10
260.4273831559735
 20
-20.7220118772205
  0
LWPOLYLINE
  5
640
330
2
100
AcDbEntity
  8
0
  6
CONTINUOUS
100
AcDbPolyline
 90
        3
 70
     0
 43
0.0
 10
260.4273831559735
 20
-20.7220118772205
 10
260.4261468631735
 20
-20.78090810762051
 10
260.4202375735735
 20
-20.81843776202049
  0
LINE
  5
645
330
2
100
AcDbEntity
  8
0
100
AcDbLine
 10
259.4062399063735
 20
-19.4023828884205
 30
0.0
 11
259.1817149149931
 21
-19.52141505421751
 31
0.0
  0
LWPOLYLINE
  5
646
330
2
100
AcDbEntity
  8
0
  6
CONTINUOUS
100
AcDbPolyline
 90
        3
 70
     0
 43
0.0
 10
259.8529482322528
 20
-19.43803262849378
 10
259.8917914471735
 20
-19.46881690762052
 10
259.9321091607735
 20
-19.51246087882051
  0
LINE
  5
64B
330
2
100
AcDbEntity
  8
0
  6
CONTINUOUS
100
AcDbLine
 10
259.4551596631735
 20
-19.81368035082051
 30
0.0
 11
259.4701118503735
 21
-19.36723637802051
 31
0.0
  0
LINE
  5
64C
330
2
100
AcDbEntity
  8
0
  6
CONTINUOUS
100
AcDbLine
 10
259.8393881527735
 20
-19.83405839562049
 30
0.0
 11
259.8553723239735
 21
-19.36723637802051
 31
0.0
  0
LWPOLYLINE
  5
64D
330
2
100
AcDbEntity
  8
0
100
AcDbPolyline
 90
        4
 70
   128
 43
0.0
 10
259.4062399063735
 20
-19.4023828884205
 10
259.4701118503735
 20
-19.36723637802051
 10
259.5449350807735
 20
-19.36723637802051
 10
259.8553723239735
 20
-19.36723637802051
  0
LWPOLYLINE
  5
64E
330
2
100
AcDbEntity
  8
0
  6
CONTINUOUS
100
AcDbPolyline
 90
        4
 70
     0
 43
0.0
 10
259.9321091607735
 20
-19.51246087882051
 10
259.9609157111735
 20
-19.5500136356205
 10
259.9869272279735
 20
-19.58658078122051
 10
260.0094223575735
 20
-19.62108523882051
  0
LINE
  5
654
330
2
100
AcDbEntity
  8
CENTER
100
AcDbLine
 10
246.0478162391761
 20
-3.965298128420499
 30
0.0
 11
251.3903474231709
 21
-3.965298128420499
 31
0.0
  0
LINE
  5
655
330
2
100
AcDbEntity
  8
0
  6
CONTINUOUS
100
AcDbLine
 10
232.5707329453363
 20
0.5077636219794819
 30
0.0
 11
264.8674307170105
 21
0.5077636219794819
 31
0.0
  0
LINE
  5
656
330
2
100
AcDbEntity
  8
0
100
AcDbLine
 10
230.7190818311735
 20
-1.992236378020521
 30
0.0
 11
266.7190818311735
 21
-1.992236378020521
 31
0.0
  0
LINE
  5
658
330
2
100
AcDbEntity
  8
0
  6
CONTINUOUS
100
AcDbLine
 10
230.8192317111735
 20
-1.177078875620523
 30
0.0
 11
230.7190818311735
 21
-1.992236378020521
 31
0.0
  0
ELLIPSE
  5
659
330
2
100
AcDbEntity
  8
0
  6
CONTINUOUS
100
AcDbEllipse
 10
232.5752474831735
 20
-1.171141770020518
 30
0.0
 11
1.756015771999983
 21
0.0059371056000046
 31
0.0
210
0.0
220
0.0
230
-1.0
 40
0.9560858495958031
 41
3.141592653589793
 42
4.714888831361466
  0
SPLINE
  5
65A
330
2
100
AcDbEntity
  8
0
  6
HIDDEN
 62
     9
100
AcDbSpline
210
0.0
220
0.0
230
1.0
 70
     8
 71
     3
 72
    18
 73
    14
 74
     0
 42
0.0000000001
 43
0.0000000001
 40
3.141592653589793
 40
3.141592653589793
 40
3.141592653589793
 40
3.141592653589793
 40
3.504327783744122
 40
3.504327783744122
 40
4.100827019681519
 40
4.100827019681519
 40
4.697326255618916
 40
4.697326255618916
 40
5.293825491556313
 40
5.293825491556313
 40
5.890324727493711
 40
5.890324727493711
 40
5.953219430164994
 40
5.953219430164994
 40
5.953219430164994
 40
5.953219430164994
 10
231.0376304628946
 20
-1.17634046741682
 30
0.0
 10
231.0370375047965
 20
-1.000961445642529
 30
0.0
 10
231.0700325567442
 20
-0.8254954611625482
 30
0.0
 10
231.2411598115883
 20
-0.3901151865997802
 30
0.0
 10
231.434809310989
 20
-0.1496509080177476
 30
0.0
 10
231.9344362799586
 20
0.1877789862922464
 30
0.0
 10
232.2394208195746
 20
0.2836445491573084
 30
0.0
 10
232.8545908254351
 20
0.2945848694239369
 30
0.0
 10
233.163145625321
 20
0.2096213643790509
 30
0.0
 10
233.67561224274
 20
-0.1099815850699037
 30
0.0
 10
233.8784671896448
 20
-0.343559367628628
 30
0.0
 10
234.0075315735533
 20
-0.6385914066326875
 30
0.0
 10
234.0188987150719
 20
-0.667091027817881
 30
0.0
 10
234.0293117366099
 20
-0.6958926227573575
 30
0.0
  0
LINE
  5
65B
330
2
100
AcDbEntity
  8
0
  6
HIDDEN
 62
     9
100
AcDbLine
 10
231.0363492071735
 20
-1.20375387722052
 30
0.0
 11
230.9394766050569
 21
-1.992236378020521
 31
0.0
  0
ELLIPSE
  5
65C
330
2
100
AcDbEntity
  8
0
  6
HIDDEN
 62
     9
100
AcDbEllipse
 10
232.5752474831735
 20
-1.171141770020518
 30
0.0
 11
1.756015771999983
 21
0.0059371056000046
 31
0.0
210
0.0
220
0.0
230
-1.0
 40
0.9560858495958031
 41
4.985350028140812
 42
5.96638081615201
  0
LINE
  5
65D
330
2
100
AcDbEntity
  8
0
  6
HIDDEN
100
AcDbLine
 10
249.9510128823735
 20
-3.41253215242051
 30
0.0
 11
249.9174515623735
 21
-3.3408159748205
 31
0.0
  0
LINE
  5
65E
330
2
100
AcDbEntity
  8
0
  6
HIDDEN
100
AcDbLine
 10
249.9881524215735
 20
-3.538901083620501
 30
0.0
 11
249.8950419623735
 21
-3.296623552420498
 31
0.0
  0
LINE
  5
65F
330
2
100
AcDbEntity
  8
0
  6
CONTINUOUS
100
AcDbLine
 10
249.9796613015735
 20
-3.599049206820524
 30
0.0
 11
249.8243186199736
 21
-3.26247159562051
 31
0.0
  0
LINE
  5
660
330
2
100
AcDbEntity
  8
0
  6
CONTINUOUS
100
AcDbLine
 10
247.6138450439735
 20
-3.26247159562051
 30
0.0
 11
247.4585023623735
 21
-3.599049206820524
 31
0.0
  0
LWPOLYLINE
  5
661
330
2
100
AcDbEntity
  8
0
  6
HIDDEN
100
AcDbPolyline
 90
        7
 70
     0
 43
0.0
 10
248.7212496327735
 20
-2.622468861220511
 10
248.4630568215735
 20
-2.647077026020511
 10
248.2143552407735
 20
-2.7197312324205
 10
247.9848304615735
 20
-2.837497006820498
 10
247.7833997527735
 20
-2.9965009108205
 10
247.6176173911735
 20
-3.191141533220502
 10
247.4941410807735
 20
-3.414446794020534
  0
LWPOLYLINE
  5
66A
330
2
100
AcDbEntity
  8
0
  6
HIDDEN
100
AcDbPolyline
 90
        6
 70
     0
 43
0.0
 10
248.7190818311735
 20
-2.584581270820521
 10
248.3808071351735
 20
-2.62872064042051
 10
248.0650261607735
 20
-2.75653840522051
 10
247.7929639479735
 20
-2.960235442020504
 10
247.5833369367735
 20
-3.227297323620518
 10
247.4857457223735
 20
-3.432817118820523
  0
LWPOLYLINE
  5
672
330
2
100
AcDbEntity
  8
0
  6
CONTINUOUS
100
AcDbPolyline
 90
       12
 70
     0
 43
0.0
 10
247.4052843319735
 20
-3.965298128420499
 10
247.4585023623735
 20
-4.331547050020503
 10
247.6138450439735
 20
-4.668124661220502
 10
247.8587274359735
 20
-4.947763446820502
 10
248.1733106263735
 20
-5.1478087364205
 10
248.5321089527735
 20
-5.252054048420504
 10
248.9060547095735
 20
-5.252054048420504
 10
249.2648530375735
 20
-5.1478087364205
 10
249.5794362263735
 20
-4.947763446820502
 10
249.8243186199736
 20
-4.668124661220502
 10
249.9796613015735
 20
-4.331547050020503
 10
250.0328793303736
 20
-3.965298128420499
  0
LWPOLYLINE
  5
680
330
2
100
AcDbEntity
  8
0
  6
CONTINUOUS
100
AcDbPolyline
 90
        6
 70
     0
 43
0.0
 10
247.4505161335736
 20
-4.206542341220497
 10
247.5814520199735
 20
-4.520174595620503
 10
247.7895521111735
 20
-4.789714938020523
 10
248.0614657143735
 20
-4.996116373220502
 10
248.3792584679735
 20
-5.125923277220522
 10
248.7190818311735
 20
-5.168627595620534
  0
LWPOLYLINE
  5
688
330
2
100
AcDbEntity
  8
0
  6
CONTINUOUS
100
AcDbPolyline
 90
        6
 70
     0
 43
0.0
 10
247.4104288535735
 20
-3.964550600420523
 10
247.4585023623735
 20
-4.2953946820205
 10
247.6138450439735
 20
-4.631972293220499
 10
247.8587274359735
 20
-4.911611078820499
 10
248.1733106263735
 20
-5.111656368420497
 10
248.5321089527735
 20
-5.2159016804205
  0
LINE
  5
690
330
2
100
AcDbEntity
  8
0
  6
CONTINUOUS
100
AcDbLine
 10
248.4635194871735
 20
-5.185176917220502
 30
0.0
 11
248.7232485047735
 21
-5.209191904420535
 31
0.0
  0
LWPOLYLINE
  5
691
330
2
100
AcDbEntity
  8
0
  6
CONTINUOUS
100
AcDbPolyline
 90
        4
 70
     0
 43
0.0
 10
247.7837897255735
 20
-4.831349291620497
 10
247.9849325047736
 20
-4.992124750820522
 10
248.2143504039735
 20
-5.111456538020519
 10
248.4635194871735
 20
-5.185176917220502
  0
LWPOLYLINE
  5
697
330
2
100
AcDbEntity
  8
0
  6
HIDDEN
100
AcDbPolyline
 90
        3
 70
     0
 43
0.0
 10
247.4183020263735
 20
-4.165122757220501
 10
247.4948925431735
 20
-4.409633277220521
 10
247.5978362871735
 20
-4.59728646922052
  0
LINE
  5
69C
330
2
100
AcDbEntity
  8
0
  6
CONTINUOUS
100
AcDbLine
 10
247.6183688407735
 20
-4.6347146724205
 30
0.0
 11
247.7837897255735
 21
-4.831349291620497
 31
0.0
  0
LINE
  5
69D
330
2
100
AcDbEntity
  8
0
  6
CONTINUOUS
100
AcDbLine
 10
247.5978362871735
 20
-4.59728646922052
 30
0.0
 11
247.6183688407735
 21
-4.6347146724205
 31
0.0
  0
LINE
  5
69E
330
2
100
AcDbEntity
  8
0
  6
HIDDEN
100
AcDbLine
 10
247.4941410807735
 20
-3.414446794020534
 30
0.0
 11
247.4709716519736
 21
-3.472645514020499
 31
0.0
  0
LINE
  5
69F
330
2
100
AcDbEntity
  8
0
  6
HIDDEN
100
AcDbLine
 10
247.4856796951736
 20
-3.43279257802051
 30
0.0
 11
247.4709034023735
 21
-3.4726202900205
 31
0.0
  0
LINE
  5
6A0
330
2
100
AcDbEntity
  8
0
  6
CONTINUOUS
100
AcDbLine
 10
247.4183984423735
 20
-3.963564656420501
 30
0.0
 11
247.4505161335736
 21
-4.206542341220497
 31
0.0
  0
LINE
  5
6A1
330
2
100
AcDbEntity
  8
0
  6
HIDDEN
100
AcDbLine
 10
247.4065818311735
 20
-3.874169290020503
 30
0.0
 11
247.4183984423735
 21
-3.963564656420501
 31
0.0
  0
LINE
  5
6A2
330
2
100
AcDbEntity
  8
0
  6
CONTINUOUS
100
AcDbLine
 10
247.4585023623735
 20
-3.599049206820524
 30
0.0
 11
247.4052843319735
 21
-3.965298128420499
 31
0.0
  0
LINE
  5
6A3
330
2
100
AcDbEntity
  8
0
  6
HIDDEN
100
AcDbLine
 10
247.4179956615735
 20
-3.657884269220502
 30
0.0
 11
247.3927435431735
 21
-3.911410568420521
 31
0.0
  0
LINE
  5
6A4
330
2
100
AcDbEntity
  8
0
  6
HIDDEN
100
AcDbLine
 10
247.3927435431735
 20
-3.911410568420521
 30
0.0
 11
247.4183020263735
 21
-4.165122757220501
 31
0.0
  0
LINE
  5
6A5
330
2
100
AcDbEntity
  8
0
  6
HIDDEN
100
AcDbLine
 10
247.4065818311735
 20
-3.874169290020503
 30
0.0
 11
247.3927435431735
 21
-3.911410568420521
 31
0.0
  0
LINE
  5
6A6
330
2
100
AcDbEntity
  8
0
  6
HIDDEN
100
AcDbLine
 10
247.4513615159735
 20
-3.539480963620519
 30
0.0
 11
247.4065818311735
 21
-3.874169290020503
 31
0.0
  0
LINE
  5
6A7
330
2
100
AcDbEntity
  8
0
  6
HIDDEN
100
AcDbLine
 10
247.4857457223735
 20
-3.432817118820523
 30
0.0
 11
247.4513615159735
 21
-3.539480963620519
 31
0.0
  0
LINE
  5
6A8
330
2
100
AcDbEntity
  8
0
  6
HIDDEN
100
AcDbLine
 10
247.4709716519736
 20
-3.472645514020499
 30
0.0
 11
247.4179956615735
 21
-3.657884269220502
 31
0.0
  0
LWPOLYLINE
  5
6A9
330
2
100
AcDbEntity
  8
0
  6
CONTINUOUS
100
AcDbPolyline
 90
        6
 70
     0
 43
0.0
 10
248.9060547095735
 20
-5.2159016804205
 10
249.2648530375735
 20
-5.111656368420497
 10
249.5794362263735
 20
-4.911611078820499
 10
249.8243186199736
 20
-4.631972293220499
 10
249.9796613015735
 20
-4.2953946820205
 10
250.0277348087735
 20
-3.964550600420523
  0
LWPOLYLINE
  5
6B1
330
2
100
AcDbEntity
  8
0
  6
CONTINUOUS
100
AcDbPolyline
 90
        5
 70
     0
 43
0.0
 10
249.0569491831735
 20
-5.124514678820503
 10
249.3727628791735
 20
-4.994852584420499
 10
249.6452001975735
 20
-4.787836414820503
 10
249.8551169495735
 20
-4.517096968420503
 10
249.9869906407735
 20
-4.202521056420522
  0
LWPOLYLINE
  5
6B8
330
2
100
AcDbEntity
  8
0
  6
HIDDEN
100
AcDbPolyline
 90
        5
 70
     0
 43
0.0
 10
249.6300513223735
 20
-4.853812134820501
 10
249.6616690935735
 20
-4.828448270820501
 10
249.8276123143735
 20
-4.631166277220501
 10
249.9512858215735
 20
-4.405677325220523
 10
250.0275889783735
 20
-4.160877797220521
  0
LINE
  5
6BF
330
2
100
AcDbEntity
  8
0
  6
CONTINUOUS
100
AcDbLine
 10
248.9817454455735
 20
-5.184229530020502
 30
0.0
 11
249.2305804599735
 21
-5.110109888420524
 31
0.0
  0
LINE
  5
6C0
330
2
100
AcDbEntity
  8
0
  6
CONTINUOUS
100
AcDbLine
 10
248.5321089527735
 20
-5.2159016804205
 30
0.0
 11
248.9060547095735
 21
-5.2159016804205
 31
0.0
  0
LINE
  5
6C1
330
2
100
AcDbEntity
  8
0
  6
CONTINUOUS
100
AcDbLine
 10
248.7232485047735
 20
-5.209191904420535
 30
0.0
 11
248.9817454455735
 21
-5.184229530020502
 31
0.0
  0
LINE
  5
6C2
330
2
100
AcDbEntity
  8
0
  6
CONTINUOUS
100
AcDbLine
 10
248.7190818311735
 20
-5.168627595620534
 30
0.0
 11
249.0569491831735
 21
-5.124514678820503
 31
0.0
  0
LINE
  5
6C3
330
2
100
AcDbEntity
  8
0
  6
CONTINUOUS
100
AcDbLine
 10
248.7190818311735
 20
-5.168627595620534
 30
0.0
 11
248.7232485047735
 21
-5.209191904420535
 31
0.0
  0
LINE
  5
6C4
330
2
100
AcDbEntity
  8
0
  6
CONTINUOUS
100
AcDbLine
 10
249.4601596743735
 20
-4.990099685220499
 30
0.0
 11
249.6300513223735
 21
-4.853812134820501
 31
0.0
  0
LINE
  5
6C5
330
2
100
AcDbEntity
  8
0
  6
CONTINUOUS
100
AcDbLine
 10
249.2305804599735
 20
-5.110109888420524
 30
0.0
 11
249.4601596743735
 21
-4.990099685220499
 31
0.0
  0
LINE
  5
6C6
330
2
100
AcDbEntity
  8
0
  6
HIDDEN
100
AcDbLine
 10
250.0315818311735
 20
-3.868022270820503
 30
0.0
 11
250.0529314567736
 21
-3.9071565252205
 31
0.0
  0
LINE
  5
6C7
330
2
100
AcDbEntity
  8
0
  6
CONTINUOUS
100
AcDbLine
 10
250.0328793303736
 20
-3.965298128420499
 30
0.0
 11
249.9796613015735
 21
-3.599049206820524
 31
0.0
  0
LINE
  5
6C8
330
2
100
AcDbEntity
  8
0
  6
HIDDEN
100
AcDbLine
 10
250.0275889783735
 20
-4.160877797220521
 30
0.0
 11
250.0529314567736
 21
-3.9071565252205
 31
0.0
  0
LINE
  5
6C9
330
2
100
AcDbEntity
  8
0
  6
HIDDEN
100
AcDbLine
 10
250.0529314567736
 20
-3.9071565252205
 30
0.0
 11
250.0274410359735
 21
-3.654652779620519
 31
0.0
  0
LINE
  5
6CA
330
2
100
AcDbEntity
  8
0
  6
CONTINUOUS
100
AcDbLine
 10
249.9869906407735
 20
-4.202521056420522
 30
0.0
 11
250.0188633095735
 21
-3.963429688420504
 31
0.0
  0
LINE
  5
6CB
330
2
100
AcDbEntity
  8
0
  6
HIDDEN
100
AcDbLine
 10
250.0188633095735
 20
-3.963429688420504
 30
0.0
 11
250.0315818311735
 21
-3.868022270820503
 31
0.0
  0
LINE
  5
6CC
330
2
100
AcDbEntity
  8
0
  6
HIDDEN
100
AcDbLine
 10
250.0315818311735
 20
-3.868022270820503
 30
0.0
 11
249.9881524215735
 21
-3.538901083620501
 31
0.0
  0
LINE
  5
6CD
330
2
100
AcDbEntity
  8
0
  6
HIDDEN
100
AcDbLine
 10
250.0274410359735
 20
-3.654652779620519
 30
0.0
 11
249.9510128823735
 21
-3.41253215242051
 31
0.0
  0
LWPOLYLINE
  5
6CE
330
2
100
AcDbEntity
  8
0
  6
CONTINUOUS
100
AcDbPolyline
 90
        4
 70
     0
 43
0.0
 10
248.5321089527735
 20
-2.678542208420523
 10
248.1733106263735
 20
-2.782787520420498
 10
247.8587274359735
 20
-2.982832810020511
 10
247.6138450439735
 20
-3.26247159562051
  0
LWPOLYLINE
  5
6D4
330
2
100
AcDbEntity
  8
0
  6
HIDDEN
100
AcDbPolyline
 90
        6
 70
     0
 43
0.0
 10
249.8950419623735
 20
-3.296623552420498
 10
249.8587009063735
 20
-3.229593757220499
 10
249.6523760919735
 20
-2.963797803620522
 10
249.3815462615736
 20
-2.759277829220522
 10
249.0628380663735
 20
-2.629113989220499
 10
248.7190818311735
 20
-2.584581270820521
  0
LWPOLYLINE
  5
6DC
330
2
100
AcDbEntity
  8
0
  6
HIDDEN
100
AcDbPolyline
 90
        6
 70
     0
 43
0.0
 10
249.8278960663735
 20
-3.190535706020497
 10
249.6630251447735
 20
-2.9971044420205
 10
249.4624279415735
 20
-2.838874293220499
 10
249.2331708983735
 20
-2.720928965220522
 10
248.9832004903735
 20
-2.647427478820503
 10
248.7212496327735
 20
-2.622468861220511
  0
LWPOLYLINE
  5
6E4
330
2
100
AcDbEntity
  8
0
  6
CONTINUOUS
100
AcDbPolyline
 90
        4
 70
     0
 43
0.0
 10
249.8243186199736
 20
-3.26247159562051
 10
249.5794362263735
 20
-2.982832810020511
 10
249.2648530375735
 20
-2.782787520420498
 10
248.9060547095735
 20
-2.678542208420523
  0
LINE
  5
6EA
330
2
100
AcDbEntity
  8
0
  6
CONTINUOUS
100
AcDbLine
 10
248.9060547095735
 20
-2.678542208420523
 30
0.0
 11
248.5321089527735
 21
-2.678542208420523
 31
0.0
  0
LINE
  5
6EB
330
2
100
AcDbEntity
  8
0
  6
HIDDEN
100
AcDbLine
 10
248.7190818311735
 20
-2.584581270820521
 30
0.0
 11
248.7212496327735
 21
-2.622468861220511
 31
0.0
  0
LINE
  5
6EC
330
2
100
AcDbEntity
  8
0
  6
HIDDEN
100
AcDbLine
 10
249.9174516135735
 20
-3.340815949220498
 30
0.0
 11
249.8950916343735
 21
-3.296598538020504
 31
0.0
  0
LINE
  5
6ED
330
2
100
AcDbEntity
  8
0
  6
HIDDEN
100
AcDbLine
 10
249.9174515623735
 20
-3.3408159748205
 30
0.0
 11
249.8278960663735
 21
-3.190535706020497
 31
0.0
  0
ELLIPSE
  5
6EE
330
2
100
AcDbEntity
  8
0
  6
CONTINUOUS
100
AcDbEllipse
 10
264.8629161791735
 20
-1.171141770020518
 30
0.0
 11
-1.756015771999983
 21
0.0059371056000046
 31
0.0
210
0.0
220
0.0
230
1.0
 40
0.9560858495958031
 41
3.141592653589793
 42
4.714888831361466
  0
SPLINE
  5
6EF
330
2
100
AcDbEntity
  8
0
  6
HIDDEN
 62
     9
100
AcDbSpline
210
0.0
220
0.0
230
1.0
 70
     8
 71
     3
 72
    18
 73
    14
 74
     0
 42
0.0000000001
 43
0.0000000001
 40
3.141592653589793
 40
3.141592653589793
 40
3.141592653589793
 40
3.141592653589793
 40
3.504327783744122
 40
3.504327783744122
 40
4.100827019681519
 40
4.100827019681519
 40
4.697326255618916
 40
4.697326255618916
 40
5.293825491556313
 40
5.293825491556313
 40
5.890324727493711
 40
5.890324727493711
 40
5.953219430164994
 40
5.953219430164994
 40
5.953219430164994
 40
5.953219430164994
 10
266.4005331994524
 20
-1.17634046741682
 30
0.0
 10
266.4011261575505
 20
-1.000961445642529
 30
0.0
 10
266.3681311056028
 20
-0.8254954611625482
 30
0.0
 10
266.1970038507587
 20
-0.3901151865997802
 30
0.0
 10
266.0033543513581
 20
-0.1496509080177476
 30
0.0
 10
265.5037273823885
 20
0.1877789862922464
 30
0.0
 10
265.1987428427724
 20
0.2836445491573084
 30
0.0
 10
264.583572836912
 20
0.2945848694239369
 30
0.0
 10
264.275018037026
 20
0.2096213643790509
 30
0.0
 10
263.762551419607
 20
-0.1099815850699037
 30
0.0
 10
263.5596964727022
 20
-0.343559367628628
 30
0.0
 10
263.4306320887936
 20
-0.6385914066326875
 30
0.0
 10
263.4192649472751
 20
-0.667091027817881
 30
0.0
 10
263.4088519257371
 20
-0.6958926227573575
 30
0.0
  0
ELLIPSE
  5
6F0
330
2
100
AcDbEntity
  8
0
  6
HIDDEN
 62
     9
100
AcDbEllipse
 10
264.8629161791735
 20
-1.171141770020518
 30
0.0
 11
-1.756015771999983
 21
0.0059371056000046
 31
0.0
210
0.0
220
0.0
230
1.0
 40
0.9560858495958031
 41
4.985350028140812
 42
5.96638081615201
  0
LINE
  5
6F1
330
2
100
AcDbEntity
  8
0
  6
CONTINUOUS
100
AcDbLine
 10
266.6189319511735
 20
-1.177078875620523
 30
0.0
 11
266.7190818311735
 21
-1.992236378020521
 31
0.0
  0
LINE
  5
6F3
330
2
100
AcDbEntity
  8
0
  6
HIDDEN
 62
     9
100
AcDbLine
 10
266.4018144551735
 20
-1.20375387722052
 30
0.0
 11
266.4986870572902
 21
-1.992236378020521
 31
0.0
  0
ENDSEC
  0
SECTION
  2
OBJECTS
  0
DICTIONARY
  5
1A
330
0
100
AcDbDictionary
  3
ACAD_GROUP
350
18
  3
ACAD_LAYOUT
350
6FB
  3
ACAD_MLINESTYLE
350
19
  3
ACAD_PLOTSETTINGS
350
6FC
  3
ACAD_PLOTSTYLENAME
350
6F9
  3
ACDBHEADERROUNDTRIPXREC
350
73A
  3
ACDBVARIABLEDICTIONARY
350
737
  0
DICTIONARY
  5
75B
330
2
100
AcDbDictionary
280
     1
  3
ACAD_LAYOUTSELFREF
360
75C
  0
DICTIONARY
  5
75D
330
7
100
AcDbDictionary
280
     1
  3
ACAD_LAYOUTSELFREF
360
75E
  0
DICTIONARY
  5
18
102
{ACAD_REACTORS
330
1A
102
}
330
1A
100
AcDbDictionary
  0
DICTIONARY
  5
6FB
102
{ACAD_REACTORS
330
1A
102
}
330
1A
100
AcDbDictionary
  0
DICTIONARY
  5
19
102
{ACAD_REACTORS
330
1A
102
}
330
1A
100
AcDbDictionary
  3
STANDARD
350
1B
  0
DICTIONARY
  5
6FC
102
{ACAD_REACTORS
330
1A
102
}
330
1A
100
AcDbDictionary
  0
ACDBDICTIONARYWDFLT
  5
6F9
102
{ACAD_REACTORS
330
1A
102
}
330
1A
100
AcDbDictionary
281
     1
  3
Normal
350
6FA
100
AcDbDictionaryWithDefault
340
6FA
  0
DICTIONARY
  5
73A
102
{ACAD_REACTORS
330
1A
102
}
330
1A
100
AcDbDictionary
  3
CEPSNTYPE
350
744
  3
DIMSTYLEDATA
350
748
  3
FINGERPRINTGUID
350
745
  3
HYPERLINKBASE
350
73D
  3
INSUNITS
350
743
  3
LAYOUTDICT
350
73F
  3
LWETCUNION
350
742
  3
PLOTSETDICT
350
740
  3
PLOTSTYLNAMDICT
350
741
  3
PSVPSCALE
350
747
  3
PUCSBASE
350
74B
  3
PUCSORGBACK
350
751
  3
PUCSORGBOTTOM
350
74D
  3
PUCSORGFRONT
350
750
  3
PUCSORGLEFT
350
74E
  3
PUCSORGRIGHT
350
74F
  3
PUCSORGTOP
350
74C
  3
PUCSORTHOREF
350
749
  3
PUCSORTHOVIEW
350
74A
  3
STYLESHEET
350
73E
  3
TSTACKALIGN
350
73B
  3
TSTACKSIZE
350
73C
  3
UCSBASE
350
754
  3
UCSORGBACK
350
75A
  3
UCSORGBOTTOM
350
756
  3
UCSORGFRONT
350
759
  3
UCSORGLEFT
350
757
  3
UCSORGRIGHT
350
758
  3
UCSORGTOP
350
755
  3
UCSORTHOREF
350
752
  3
UCSORTHOVIEW
350
753
  3
VERSIONGUID
350
746
  0
DICTIONARY
  5
737
102
{ACAD_REACTORS
330
1A
102
}
330
1A
100
AcDbDictionary
  3
DIMASSOC
350
738
  0
XRECORD
  5
75C
102
{ACAD_REACTORS
330
75B
102
}
330
75B
100
AcDbXrecord
340
2
  0
XRECORD
  5
75E
102
{ACAD_REACTORS
330
75D
102
}
330
75D
100
AcDbXrecord
340
7
  0
MLINESTYLE
  5
1B
102
{ACAD_REACTORS
330
19
102
}
330
19
100
AcDbMlineStyle
  2
STANDARD
 70
     0
  3

 62
   256
 51
90.0
 52
90.0
 71
     2
 49
0.5
 62
   256
  6
BYLAYER
 49
-0.5
 62
   256
  6
BYLAYER
  0
ACDBPLACEHOLDER
  5
6FA
102
{ACAD_REACTORS
330
6F9
102
}
330
6F9
100
AcDbPlaceHolder
280
     0
  0
XRECORD
  5
744
102
{ACAD_REACTORS
330
73A
102
}
330
73A
100
AcDbXrecord
 90
        0
  0
XRECORD
  5
748
102
{ACAD_REACTORS
330
73A
102
}
330
73A
100
AcDbXrecord
1000
DSTYLE
1002
{
1070
   341
340
1D
1070
   342
340
1D
1002
}
  0
XRECORD
  5
745
102
{ACAD_REACTORS
330
73A
102
}
330
73A
100
AcDbXrecord
  1
{8217C7E8-2D2A-41DC-9A68-EA00F630DE56}
  0
XRECORD
  5
73D
102
{ACAD_REACTORS
330
73A
102
}
330
73A
100
AcDbXrecord
  1

  0
XRECORD
  5
743
102
{ACAD_REACTORS
330
73A
102
}
330
73A
100
AcDbXrecord
 90
        0
  0
XRECORD
  5
73F
102
{ACAD_REACTORS
330
73A
102
}
330
73A
100
AcDbXrecord
340
6FB
  0
XRECORD
  5
742
102
{ACAD_REACTORS
330
73A
102
}
330
73A
100
AcDbXrecord
 90
    14877
  0
XRECORD
  5
740
102
{ACAD_REACTORS
330
73A
102
}
330
73A
100
AcDbXrecord
340
6FC
  0
XRECORD
  5
741
102
{ACAD_REACTORS
330
73A
102
}
330
73A
100
AcDbXrecord
340
6F9
  0
XRECORD
  5
747
102
{ACAD_REACTORS
330
73A
102
}
330
73A
100
AcDbXrecord
 40
0.0
  0
XRECORD
  5
74B
102
{ACAD_REACTORS
330
73A
102
}
330
73A
100
AcDbXrecord
340
0
  0
XRECORD
  5
751
102
{ACAD_REACTORS
330
73A
102
}
330
73A
100
AcDbXrecord
 10
0.0
 20
0.0
 30
0.0
  0
XRECORD
  5
74D
102
{ACAD_REACTORS
330
73A
102
}
330
73A
100
AcDbXrecord
 10
0.0
 20
0.0
 30
0.0
  0
XRECORD
  5
750
102
{ACAD_REACTORS
330
73A
102
}
330
73A
100
AcDbXrecord
 10
0.0
 20
0.0
 30
0.0
  0
XRECORD
  5
74E
102
{ACAD_REACTORS
330
73A
102
}
330
73A
100
AcDbXrecord
 10
0.0
 20
0.0
 30
0.0
  0
XRECORD
  5
74F
102
{ACAD_REACTORS
330
73A
102
}
330
73A
100
AcDbXrecord
 10
0.0
 20
0.0
 30
0.0
  0
XRECORD
  5
74C
102
{ACAD_REACTORS
330
73A
102
}
330
73A
100
AcDbXrecord
 10
0.0
 20
0.0
 30
0.0
  0
XRECORD
  5
749
102
{ACAD_REACTORS
330
73A
102
}
330
73A
100
AcDbXrecord
340
0
  0
XRECORD
  5
74A
102
{ACAD_REACTORS
330
73A
102
}
330
73A
100
AcDbXrecord
 70
     0
  0
XRECORD
  5
73E
102
{ACAD_REACTORS
330
73A
102
}
330
73A
100
AcDbXrecord
  1

  0
XRECORD
  5
73B
102
{ACAD_REACTORS
330
73A
102
}
330
73A
100
AcDbXrecord
 90
        1
  0
XRECORD
  5
73C
102
{ACAD_REACTORS
330
73A
102
}
330
73A
100
AcDbXrecord
 90
       70
  0
XRECORD
  5
754
102
{ACAD_REACTORS
330
73A
102
}
330
73A
100
AcDbXrecord
340
0
  0
XRECORD
  5
75A
102
{ACAD_REACTORS
330
73A
102
}
330
73A
100
AcDbXrecord
 10
0.0
 20
0.0
 30
0.0
  0
XRECORD
  5
756
102
{ACAD_REACTORS
330
73A
102
}
330
73A
100
AcDbXrecord
 10
0.0
 20
0.0
 30
0.0
  0
XRECORD
  5
759
102
{ACAD_REACTORS
330
73A
102
}
330
73A
100
AcDbXrecord
 10
0.0
 20
0.0
 30
0.0
  0
XRECORD
  5
757
102
{ACAD_REACTORS
330
73A
102
}
330
73A
100
AcDbXrecord
 10
0.0
 20
0.0
 30
0.0
  0
XRECORD
  5
758
102
{ACAD_REACTORS
330
73A
102
}
330
73A
100
AcDbXrecord
 10
0.0
 20
0.0
 30
0.0
  0
XRECORD
  5
755
102
{ACAD_REACTORS
330
73A
102
}
330
73A
100
AcDbXrecord
 10
0.0
 20
0.0
 30
0.0
  0
XRECORD
  5
752
102
{ACAD_REACTORS
330
73A
102
}
330
73A
100
AcDbXrecord
340
0
  0
XRECORD
  5
753
102
{ACAD_REACTORS
330
73A
102
}
330
73A
100
AcDbXrecord
 70
     0
  0
XRECORD
  5
746
102
{ACAD_REACTORS
330
73A
102
}
330
73A
100
AcDbXrecord
  1
{EBF78977-AEE1-419B-AF07-32EF6DE0BC44}
  0
DICTIONARYVAR
  5
738
102
{ACAD_REACTORS
330
737
102
}
330
737
100
DictionaryVariables
280
     0
  1
1
  0
ENDSEC
  0
EOF
