  0
SECTION
  2
HEADER
  9
$ACADVER
  1
AC1014
  9
$ACADMAINTVER
 70
     9
  9
$DWGCODEPAGE
  3
ANSI_1252
  9
$INSBASE
 10
204.8086774922622
 20
35.07683315215095
 30
0.0
  9
$EXTMIN
 10
156.0466694586706
 20
17.07590770820007
 30
-0.0000000349181948
  9
$EXTMAX
 10
219.3852866810748
 20
53.07761955344412
 30
0.0000000814935746
  9
$LIMMIN
 10
0.0
 20
0.0
  9
$LIMMAX
 10
17.0
 20
11.0
  9
$ORTHOMODE
 70
     1
  9
$REGENMODE
 70
     1
  9
$FILLMODE
 70
     1
  9
$QTEXTMODE
 70
     0
  9
$MIRRTEXT
 70
     1
  9
$DRAGMODE
 70
     2
  9
$LTSCALE
 40
8.0
  9
$OSMODE
 70
    55
  9
$ATTMODE
 70
     1
  9
$TEXTSIZE
 40
0.2
  9
$TRACEWID
 40
0.05
  9
$TEXTSTYLE
  7
STANDARD
  9
$CLAYER
  8
0
  9
$CELTYPE
  6
BYLAYER
  9
$CECOLOR
 62
   256
  9
$CELTSCALE
 40
1.0
  9
$DELOBJ
 70
     1
  9
$DISPSILH
 70
     0
  9
$DIMSCALE
 40
16.0
  9
$DIMASZ
 40
0.1875
  9
$DIMEXO
 40
0.10625
  9
$DIMDLI
 40
0.6459999999999999
  9
$DIMRND
 40
0.0
  9
$DIMDLE
 40
0.0
  9
$DIMEXE
 40
0.306
  9
$DIMTP
 40
0.0
  9
$DIMTM
 40
0.0
  9
$DIMTXT
 40
0.125
  9
$DIMCEN
 40
0.153
  9
$DIMTSZ
 40
0.0
  9
$DIMTOL
 70
     0
  9
$DIMLIM
 70
     0
  9
$DIMTIH
 70
     1
  9
$DIMTOH
 70
     1
  9
$DIMSE1
 70
     0
  9
$DIMSE2
 70
     0
  9
$DIMTAD
 70
     0
  9
$DIMZIN
 70
     0
  9
$DIMBLK
  1
_FILLED
  9
$DIMASO
 70
     1
  9
$DIMSHO
 70
     1
  9
$DIMPOST
  1

  9
$DIMAPOST
  1

  9
$DIMALT
 70
     0
  9
$DIMALTD
 70
     2
  9
$DIMALTF
 40
25.4
  9
$DIMLFAC
 40
1.0
  9
$DIMTOFL
 70
     0
  9
$DIMTVP
 40
0.0
  9
$DIMTIX
 70
     0
  9
$DIMSOXD
 70
     0
  9
$DIMSAH
 70
     0
  9
$DIMBLK1
  1

  9
$DIMBLK2
  1

  9
$DIMSTYLE
  2
STANDARD
  9
$DIMCLRD
 70
     0
  9
$DIMCLRE
 70
     0
  9
$DIMCLRT
 70
     0
  9
$DIMTFAC
 40
1.0
  9
$DIMGAP
 40
0.09
  9
$DIMJUST
 70
     0
  9
$DIMSD1
 70
     0
  9
$DIMSD2
 70
     0
  9
$DIMTOLJ
 70
     1
  9
$DIMTZIN
 70
     0
  9
$DIMALTZ
 70
     0
  9
$DIMALTTZ
 70
     0
  9
$DIMFIT
 70
     3
  9
$DIMUPT
 70
     0
  9
$DIMUNIT
 70
     2
  9
$DIMDEC
 70
     4
  9
$DIMTDEC
 70
     4
  9
$DIMALTU
 70
     2
  9
$DIMALTTD
 70
     2
  9
$DIMTXSTY
  7
STANDARD
  9
$DIMAUNIT
 70
     0
  9
$LUNITS
 70
     2
  9
$LUPREC
 70
     4
  9
$SKETCHINC
 40
0.1
  9
$FILLETRAD
 40
0.0
  9
$AUNITS
 70
     0
  9
$AUPREC
 70
     0
  9
$MENU
  1
acad
  9
$ELEVATION
 40
0.0
  9
$PELEVATION
 40
0.0
  9
$THICKNESS
 40
0.0
  9
$LIMCHECK
 70
     0
  9
$BLIPMODE
 70
     0
  9
$CHAMFERA
 40
0.0
  9
$CHAMFERB
 40
0.0
  9
$CHAMFERC
 40
0.0
  9
$CHAMFERD
 40
0.0
  9
$SKPOLY
 70
     0
  9
$TDCREATE
 40
2453679.095380312
  9
$TDUPDATE
 40
2453689.432362974
  9
$TDINDWG
 40
0.0081715162
  9
$TDUSRTIMER
 40
0.0081715162
  9
$USRTIMER
 70
     1
  9
$ANGBASE
 50
0.0
  9
$ANGDIR
 70
     0
  9
$PDMODE
 70
     3
  9
$PDSIZE
 40
0.3125
  9
$PLINEWID
 40
0.0
  9
$COORDS
 70
     1
  9
$SPLFRAME
 70
     0
  9
$SPLINETYPE
 70
     6
  9
$SPLINESEGS
 70
     8
  9
$ATTDIA
 70
     0
  9
$ATTREQ
 70
     1
  9
$HANDLING
 70
 22529
  9
$HANDSEED
  5
5AF
  9
$SURFTAB1
 70
     6
  9
$SURFTAB2
 70
     6
  9
$SURFTYPE
 70
     6
  9
$SURFU
 70
     6
  9
$SURFV
 70
     6
  9
$UCSNAME
  2

  9
$UCSORG
 10
0.0
 20
0.0
 30
0.0
  9
$UCSXDIR
 10
1.0
 20
0.0
 30
0.0
  9
$UCSYDIR
 10
0.0
 20
1.0
 30
0.0
  9
$PUCSNAME
  2

  9
$PUCSORG
 10
0.0
 20
0.0
 30
0.0
  9
$PUCSXDIR
 10
1.0
 20
0.0
 30
0.0
  9
$PUCSYDIR
 10
0.0
 20
1.0
 30
0.0
  9
$USERI1
 70
     0
  9
$USERI2
 70
     0
  9
$USERI3
 70
     0
  9
$USERI4
 70
     0
  9
$USERI5
 70
     0
  9
$USERR1
 40
0.0
  9
$USERR2
 40
0.0
  9
$USERR3
 40
0.0
  9
$USERR4
 40
0.0
  9
$USERR5
 40
0.0
  9
$WORLDVIEW
 70
     1
  9
$SHADEDGE
 70
     3
  9
$SHADEDIF
 70
    70
  9
$TILEMODE
 70
     1
  9
$MAXACTVP
 70
    16
  9
$PINSBASE
 10
0.0
 20
0.0
 30
0.0
  9
$PLIMCHECK
 70
     0
  9
$PEXTMIN
 10
1.000000000000000E+20
 20
1.000000000000000E+20
 30
1.000000000000000E+20
  9
$PEXTMAX
 10
-1.000000000000000E+20
 20
-1.000000000000000E+20
 30
-1.000000000000000E+20
  9
$PLIMMIN
 10
0.0
 20
0.0
  9
$PLIMMAX
 10
12.0
 20
9.0
  9
$UNITMODE
 70
     0
  9
$VISRETAIN
 70
     0
  9
$PLINEGEN
 70
     1
  9
$PSLTSCALE
 70
     0
  9
$TREEDEPTH
 70
  3020
  9
$PICKSTYLE
 70
     1
  9
$CMLSTYLE
  2
STANDARD
  9
$CMLJUST
 70
     0
  9
$CMLSCALE
 40
1.0
  9
$PROXYGRAPHICS
 70
     1
  9
$MEASUREMENT
 70
     0
  0
ENDSEC
  0
SECTION
  2
CLASSES
  0
CLASS
  1
LWPOLYLINE
  2
AcDbPolyline
  3
AutoCAD 2000
 90
        0
280
     0
281
     1
  0
CLASS
  1
XRECORD
  2
AcDbXrecord
  3
AutoCAD 2000
 90
        0
280
     0
281
     0
  0
CLASS
  1
ACDBDICTIONARYWDFLT
  2
AcDbDictionaryWithDefault
  3
AutoCAD 2000
 90
        0
280
     0
281
     0
  0
CLASS
  1
ACDBPLACEHOLDER
  2
AcDbPlaceHolder
  3
AutoCAD 2000
 90
        0
280
     0
281
     0
  0
CLASS
  1
LAYOUT
  2
AcDbLayout
  3
AutoCAD 2000
 90
        0
280
     0
281
     0
  0
CLASS
  1
DICTIONARYVAR
  2
AcDbDictionaryVar
  3
AutoCAD 2000
 90
        0
280
     0
281
     0
  0
CLASS
  1
LONG_TRANSACTION
  2
AcDbLongTransaction
  3
AutoCAD 2000
 90
        0
280
     0
281
     0
  0
CLASS
  1
LWPOLYLINE
  2
AcDbPolyline
  3
AutoCAD 2000
 90
        0
280
     0
281
     1
  0
CLASS
  1
HATCH
  2
AcDbHatch
  3
AutoCAD 2000
 90
        0
280
     0
281
     1
  0
CLASS
  1
XRECORD
  2
AcDbXrecord
  3
AutoCAD 2000
 90
        0
280
     0
281
     0
  0
ENDSEC
  0
SECTION
  2
TABLES
  0
TABLE
  2
VPORT
  5
12
330
0
100
AcDbSymbolTable
 70
     3
  0
VPORT
  5
589
330
12
100
AcDbSymbolTableRecord
100
AcDbViewportTableRecord
  2
*ACTIVE
 70
     0
 10
0.0
 20
0.0
 11
1.0
 21
1.0
 12
187.7159780170184
 22
35.07676364545559
 13
0.0
 23
0.0
 14
1.0
 24
1.0
 15
0.0
 25
0.0
 16
0.0
 26
0.0
 36
1.0
 17
0.0
 27
0.0
 37
0.0
 40
43.3261279115559
 41
1.786792452830188
 42
50.0
 43
0.0
 44
0.0
 50
0.0
 51
0.0
 71
     0
 72
   100
 73
     1
 74
     1
 75
     0
 76
     0
 77
     0
 78
     0
  0
ENDTAB
  0
TABLE
  2
LTYPE
  5
D
330
0
100
AcDbSymbolTable
 70
     3
  0
LTYPE
  5
E
330
D
100
AcDbSymbolTableRecord
100
AcDbLinetypeTableRecord
  2
BYBLOCK
 70
     0
  3

 72
    65
 73
     0
 40
0.0
  0
LTYPE
  5
F
330
D
100
AcDbSymbolTableRecord
100
AcDbLinetypeTableRecord
  2
BYLAYER
 70
     0
  3

 72
    65
 73
     0
 40
0.0
  0
LTYPE
  5
5
330
D
100
AcDbSymbolTableRecord
100
AcDbLinetypeTableRecord
  2
CONTINUOUS
 70
     0
  3
Solid line
 72
    65
 73
     0
 40
0.0
  0
LTYPE
  5
C5
330
D
100
AcDbSymbolTableRecord
100
AcDbLinetypeTableRecord
  2
CENTER
 70
     0
  3
____ _ ____ _ ____ _ ____ _ ____ _ ____ _ ____
 72
    65
 73
     4
 40
0.6
 49
0.375
 74
     0
 49
-0.075
 74
     0
 49
0.075
 74
     0
 49
-0.075
 74
     0
  0
LTYPE
  5
12F
330
D
100
AcDbSymbolTableRecord
100
AcDbLinetypeTableRecord
  2
HIDDEN
 70
     0
  3
- - - - - - - - - - - - - - - - - - - -
 72
    65
 73
     2
 40
0.2
 49
0.1
 74
     0
 49
-0.1
 74
     0
  0
ENDTAB
  0
TABLE
  2
LAYER
  5
A
330
0
100
AcDbSymbolTable
 70
     2
  0
LAYER
  5
4
330
A
100
AcDbSymbolTableRecord
100
AcDbLayerTableRecord
  2
0
 70
     0
 62
     7
  6
CONTINUOUS
  0
LAYER
  5
C2
330
A
100
AcDbSymbolTableRecord
100
AcDbLayerTableRecord
  2
CENTER
 70
     0
 62
     1
  6
CENTER
  0
ENDTAB
  0
TABLE
  2
STYLE
  5
B
330
0
100
AcDbSymbolTable
 70
     1
  0
STYLE
  5
C
330
B
100
AcDbSymbolTableRecord
100
AcDbTextStyleTableRecord
  2
STANDARD
 70
     0
 40
0.0
 41
0.8
 50
0.0
 71
     0
 42
0.2
  3
txt
  4

  0
ENDTAB
  0
TABLE
  2
VIEW
  5
10
330
0
100
AcDbSymbolTable
 70
     0
  0
ENDTAB
  0
TABLE
  2
UCS
  5
11
330
0
100
AcDbSymbolTable
 70
     0
  0
ENDTAB
  0
TABLE
  2
APPID
  5
14
330
0
100
AcDbSymbolTable
 70
     1
  0
APPID
  5
15
330
14
100
AcDbSymbolTableRecord
100
AcDbRegAppTableRecord
  2
ACAD
 70
     0
  0
ENDTAB
  0
TABLE
  2
DIMSTYLE
  5
16
330
0
100
AcDbSymbolTable
 70
     1
  0
DIMSTYLE
105
1C
330
16
100
AcDbSymbolTableRecord
100
AcDbDimStyleTableRecord
  2
STANDARD
 70
     0
  3

  4

  5
_FILLED
  6
_FILLED
  7
_FILLED
 40
1.0
 41
0.1875
 42
0.0625
 43
0.38
 44
0.18
 45
0.0
 46
0.0
 47
0.00001
 48
0.00001
140
0.125
141
0.09
142
0.0
143
25.4
144
1.0
145
0.0
146
1.0
147
0.09
 71
     0
 72
     0
 73
     1
 74
     1
 75
     0
 76
     0
 77
     0
 78
     4
170
     0
171
     2
172
     0
173
     0
174
     0
175
     0
176
     0
177
     0
178
     0
270
     2
271
     4
272
     4
273
     2
274
     2
340
C
275
     0
280
     0
281
     0
282
     0
283
     1
284
     0
285
     0
286
     0
287
     3
288
     0
  0
ENDTAB
  0
TABLE
  2
BLOCK_RECORD
  5
1
330
0
100
AcDbSymbolTable
 70
     1
  0
BLOCK_RECORD
  5
2
102
{ACAD_XDICTIONARY
360
5AB
102
}
330
1
100
AcDbSymbolTableRecord
100
AcDbBlockTableRecord
  2
*MODEL_SPACE
  0
BLOCK_RECORD
  5
7
102
{ACAD_XDICTIONARY
360
5AD
102
}
330
1
100
AcDbSymbolTableRecord
100
AcDbBlockTableRecord
  2
*PAPER_SPACE
  0
BLOCK_RECORD
  5
1D
330
1
100
AcDbSymbolTableRecord
100
AcDbBlockTableRecord
  2
_FILLED
  0
ENDTAB
  0
ENDSEC
  0
SECTION
  2
BLOCKS
  0
BLOCK
  5
3
330
2
100
AcDbEntity
  8
0
100
AcDbBlockBegin
  2
*MODEL_SPACE
 70
     0
 10
0.0
 20
0.0
 30
0.0
  3
*MODEL_SPACE
  1

  0
ENDBLK
  5
6
330
2
100
AcDbEntity
  8
0
100
AcDbBlockEnd
  0
BLOCK
  5
8
330
7
100
AcDbEntity
 67
     1
  8
0
100
AcDbBlockBegin
  2
*PAPER_SPACE
 70
     0
 10
0.0
 20
0.0
 30
0.0
  3
*PAPER_SPACE
  1

  0
ENDBLK
  5
9
330
7
100
AcDbEntity
 67
     1
  8
0
100
AcDbBlockEnd
  0
BLOCK
  5
1F
330
1D
100
AcDbEntity
  8
0
100
AcDbBlockBegin
  2
_FILLED
 70
     0
 10
0.0
 20
0.0
 30
0.0
  3
_FILLED
  1

  0
SOLID
  5
1E
330
1D
100
AcDbEntity
  8
0
  6
BYBLOCK
 62
     0
100
AcDbTrace
 10
0.0
 20
0.0
 30
0.0
 11
-1.0
 21
0.1666666667
 31
0.0
 12
-1.0
 22
-0.1666666667
 32
0.0
 13
-1.0
 23
-0.1666666667
 33
0.0
  0
ENDBLK
  5
20
330
1D
100
AcDbEntity
  8
0
  6
BYBLOCK
 62
     0
100
AcDbBlockEnd
  0
ENDSEC
  0
SECTION
  2
ENTITIES
  0
LWPOLYLINE
  5
21
330
2
100
AcDbEntity
  8
0
  6
CONTINUOUS
100
AcDbPolyline
 90
       17
 70
     0
 43
0.0
 10
213.1720342746622
 20
35.07683315215095
 10
213.1602967306622
 20
34.48150688975096
 10
213.1204337578622
 20
33.84336918735096
 10
213.0429475706622
 20
33.14995832015091
 10
212.9150160778622
 20
32.39121524655095
 10
212.7198309594622
 20
31.55915615695096
 10
212.4347814730622
 20
30.65020803055091
 10
212.0337664138622
 20
29.66978790415092
 10
211.4887473546622
 20
28.63019203695091
 10
210.7623815514622
 20
27.53940516335095
 10
209.8176939546622
 20
26.41701062415092
 10
208.6218032106622
 20
25.29365371055095
 10
207.1415290010622
 20
24.20052396655091
 10
205.3477359930622
 20
23.17294343375095
 10
203.2168572522622
 20
22.24960824175096
 10
200.7342368138622
 20
21.47193920655095
 10
197.8857182586622
 20
20.88057094735091
  0
LWPOLYLINE
  5
34
330
2
100
AcDbEntity
  8
0
  6
CONTINUOUS
100
AcDbPolyline
 90
       10
 70
     0
 43
0.0
 10
198.3623982634622
 20
18.03347836175093
 10
202.6067715882622
 20
18.99911749295091
 10
206.1320724666622
 20
20.34496033935096
 10
208.9920654234622
 20
21.96452892655094
 10
211.3124074362622
 20
23.82738810575091
 10
213.0647725546622
 20
25.79371885295091
 10
214.3766579818622
 20
27.89038911215095
 10
215.2976866938622
 20
30.10394396015096
 10
215.8465281354622
 20
32.38182380975095
 10
216.0586774922622
 20
35.07683315215095
  0
LWPOLYLINE
  5
40
330
2
100
AcDbEntity
  8
0
  6
CONTINUOUS
100
AcDbPolyline
 90
       13
 70
     0
 43
0.0
 10
202.6449969514622
 20
25.51993011215091
 10
204.0420453466622
 20
26.19907174735095
 10
205.1782074266622
 20
26.97604782575095
 10
206.0943374250622
 20
27.79568984495091
 10
206.8266288666622
 20
28.62363737455092
 10
207.4035051210622
 20
29.43370788495096
 10
207.8538104522622
 20
30.21149986895096
 10
208.2011428858622
 20
30.94990760335096
 10
208.4643554618622
 20
31.64538872335092
 10
208.6584804138622
 20
32.29405963215091
 10
208.7973132394622
 20
32.89604896975095
 10
208.8920873146622
 20
33.45296324815092
 10
208.9512420106622
 20
33.96066532335092
  0
LWPOLYLINE
  5
4F
330
2
100
AcDbEntity
  8
0
  6
CONTINUOUS
100
AcDbPolyline
 90
       17
 70
     0
 43
0.0
 10
174.2316367274622
 20
20.88057094735091
 10
171.3848716986622
 20
21.47147901935096
 10
168.9036311610622
 20
22.24844233615095
 10
166.7734298714622
 20
23.17103215695095
 10
164.9799812890622
 20
24.19780989135091
 10
163.4996396106622
 20
25.29024389615094
 10
162.3033564890622
 20
26.41311579535096
 10
161.3581745514622
 20
27.53508162575096
 10
160.6311476010622
 20
28.62590867535095
 10
160.0855183754622
 20
29.66557765455096
 10
159.6840909322622
 20
30.64598064015092
 10
159.3987125194622
 20
31.55473367535091
 10
159.2032597018622
 20
32.38667447855096
 10
159.0749927338622
 20
33.14568702095096
 10
158.9972200154622
 20
33.83988903535095
 10
158.9571392682622
 20
34.47946518735093
 10
158.9453207114622
 20
35.07683315215095
  0
LWPOLYLINE
  5
62
330
2
100
AcDbEntity
  8
0
  6
CONTINUOUS
100
AcDbPolyline
 90
       10
 70
     0
 43
0.0
 10
156.0586774922622
 20
35.07683315215095
 10
156.2850325786622
 20
32.29588423535094
 10
156.9051162922622
 20
29.84815358415096
 10
157.9874368090622
 20
27.43093513295096
 10
159.4635380330622
 20
25.26933588335092
 10
161.3176109338622
 20
23.35885923055096
 10
163.6149446410622
 20
21.64329546095092
 10
166.3849280426622
 20
20.16138168495095
 10
169.7158657946622
 20
18.93776905455095
 10
173.7549567226622
 20
18.03347836175093
  0
LWPOLYLINE
  5
6E
330
2
100
AcDbEntity
  8
0
  6
CONTINUOUS
100
AcDbPolyline
 90
        9
 70
     0
 43
0.0
 10
167.0792997530622
 20
35.07683314735095
 10
167.2504767482622
 20
33.20989168975092
 10
167.7706268954622
 20
31.38124552655091
 10
168.6303468938622
 20
29.66836009615096
 10
169.7982716650622
 20
28.13984060175096
 10
171.2348555722622
 20
26.85251973615095
 10
172.8719083130622
 20
25.85854430895094
 10
174.5453781178622
 20
25.21346612495094
 10
176.0971723610622
 20
24.88539381775092
  0
LWPOLYLINE
  5
79
330
2
100
AcDbEntity
  8
0
  6
CONTINUOUS
100
AcDbPolyline
 90
        4
 70
     0
 43
0.0
 10
181.8563294650622
 20
24.37368261295091
 10
186.1409156618622
 20
24.20404065455096
 10
190.4161121146622
 20
24.21273557775092
 10
194.6530344074622
 20
24.39541205775091
  0
LINE
  5
7F
330
2
100
AcDbEntity
  8
0
  6
CONTINUOUS
100
AcDbLine
 10
189.1698518525824
 20
17.0773047091629
 30
0.0
 11
198.3405350266622
 21
18.02998315215094
 31
0.0
  0
LWPOLYLINE
  5
80
330
2
100
AcDbEntity
  8
0
  6
CONTINUOUS
100
AcDbPolyline
 90
        4
 70
     0
 43
0.0
 10
197.8857182586622
 20
20.88057094735091
 10
190.1142043722622
 20
20.06870595215096
 10
182.0085595066622
 20
20.06842396815096
 10
174.2316367274622
 20
20.88057094735091
  0
LINE
  5
86
330
2
100
AcDbEntity
  8
0
  6
CONTINUOUS
100
AcDbLine
 10
173.7768199578622
 20
18.02998315215094
 30
0.0
 11
182.8762978050262
 21
17.08025298265453
 31
0.0
  0
LINE
  5
87
330
2
100
AcDbEntity
  8
0
  6
CONTINUOUS
100
AcDbLine
 10
173.7549567242622
 20
18.03347837775095
 30
0.0
 11
173.7768199610622
 21
18.02998316655094
 31
0.0
  0
LINE
  5
88
330
2
100
AcDbEntity
  8
0
  6
CONTINUOUS
100
AcDbLine
 10
182.8762978050262
 20
17.08025298265453
 30
0.0
 11
189.1698518525824
 21
17.0773047091629
 31
0.0
  0
LWPOLYLINE
  5
89
330
2
100
AcDbEntity
  8
0
  6
CONTINUOUS
100
AcDbPolyline
 90
        5
 70
     0
 43
0.0
 10
179.3991840618622
 20
24.55114922895091
 10
180.0859892058622
 20
24.49572319055096
 10
180.7221554970622
 20
24.44842058255096
 10
181.3115614026622
 20
24.40805125455094
 10
181.8563293258622
 20
24.37368066255095
  0
LWPOLYLINE
  5
90
330
2
100
AcDbEntity
  8
0
  6
CONTINUOUS
100
AcDbPolyline
 90
        4
 70
     0
 43
0.0
 10
176.0971730170622
 20
24.88539882895094
 10
177.2672300554622
 20
24.75394528015096
 10
178.3665725066622
 20
24.64349163695095
 10
179.3991840634622
 20
24.55114925615095
  0
LWPOLYLINE
  5
96
330
2
100
AcDbEntity
  8
0
  6
CONTINUOUS
100
AcDbPolyline
 90
        4
 70
     0
 43
0.0
 10
200.3152578490622
 20
24.91691084655096
 10
201.1141526602622
 20
25.05638874575092
 10
201.8868546666622
 20
25.25682523535095
 10
202.6450051770622
 20
25.51990843695091
  0
LWPOLYLINE
  5
9C
330
2
100
AcDbEntity
  8
0
  6
CONTINUOUS
100
AcDbPolyline
 90
        4
 70
     0
 43
0.0
 10
194.6530344058622
 20
24.39541210095095
 10
196.5505501722622
 20
24.53439329295096
 10
198.4442762026622
 20
24.70883711535091
 10
200.3152578826622
 20
24.91691056975094
  0
LWPOLYLINE
  5
A2
330
2
100
AcDbEntity
  8
0
  6
CONTINUOUS
100
AcDbPolyline
 90
       10
 70
     0
 43
0.0
 10
216.0586774922622
 20
35.07683315215095
 10
215.8323224074622
 20
37.85778206735094
 10
215.2122386922622
 20
40.30551271855094
 10
214.1299181770622
 20
42.72273116975094
 10
212.6538169530622
 20
44.88433041935095
 10
210.7997440506622
 20
46.79480707215094
 10
208.5024103450622
 20
48.51037084175096
 10
205.7324269418622
 20
49.99228461775095
 10
202.4014891898622
 20
51.21589724815095
 10
198.3623982634622
 20
52.12018794095095
  0
LWPOLYLINE
  5
AE
330
2
100
AcDbEntity
  8
0
  6
CONTINUOUS
100
AcDbPolyline
 90
       17
 70
     0
 43
0.0
 10
197.8857182586622
 20
49.27309535535096
 10
200.7324490650622
 20
48.68219613935096
 10
203.2136656122622
 20
47.90524561295095
 10
205.3438527098622
 20
46.98267042735094
 10
207.1372964314622
 20
45.95590685775095
 10
208.6176403642622
 20
44.86348503375094
 10
209.8139306218622
 20
43.74062231055094
 10
210.7591221898622
 20
42.61866271375097
 10
211.4861611882623
 20
41.52783580175094
 10
212.0318015946622
 20
40.48816447535094
 10
212.4332379658622
 20
39.50775840175094
 10
212.7186244810622
 20
38.59899905935094
 10
212.9140836810622
 20
37.76704963535095
 10
213.0423558090622
 20
37.00802590255094
 10
213.1201321450622
 20
36.31381016975092
 10
213.1602150474622
 20
35.67421791055096
 10
213.1720342746622
 20
35.07683315215095
  0
LINE
  5
C1
330
2
100
AcDbEntity
  8
CENTER
100
AcDbLine
 10
196.609598357218
 20
35.07683315215095
 30
0.0
 11
219.3792404986622
 21
35.07683315215095
 31
0.0
  0
LWPOLYLINE
  5
C6
330
2
100
AcDbEntity
  8
0
  6
CONTINUOUS
100
AcDbPolyline
 90
        9
 70
     0
 43
0.0
 10
176.1437849594622
 20
45.25604391535094
 10
174.5342241194622
 20
44.91424670735094
 10
172.7991618330622
 20
44.23306036175094
 10
171.1122459738622
 20
43.18032134415093
 10
169.6591841994622
 20
41.83083977615092
 10
168.4978883354622
 20
40.23788460975095
 10
167.6660557786622
 20
38.46187356175096
 10
167.2068904842622
 20
36.66282569135094
 10
167.0792951722622
 20
35.07683315695095
  0
LWPOLYLINE
  5
D1
330
2
100
AcDbEntity
  8
0
  6
CONTINUOUS
100
AcDbPolyline
 90
       17
 70
     0
 43
0.0
 10
158.9453207114622
 20
35.07683315215095
 10
158.9570573530622
 20
35.67213671535094
 10
158.9969177626622
 20
36.31025667055095
 10
159.0744000666622
 20
37.00365453455094
 10
159.2023263978622
 20
37.76238885135095
 10
159.3975059018622
 20
38.59444298095096
 10
159.6825485034622
 20
39.50338837775092
 10
160.0835553498622
 20
40.48380633295096
 10
160.6285640922622
 20
41.52340050735094
 10
161.3549186666622
 20
42.61418755695092
 10
162.2995975994622
 20
43.73658859535092
 10
163.4954819386622
 20
44.85995424175095
 10
164.9757545226622
 20
45.95309564655096
 10
166.7695526378622
 20
46.98068959855095
 10
168.9004446010622
 20
47.90403829455096
 10
171.3830875002622
 20
48.68171913775094
 10
174.2316367274622
 20
49.27309535535096
  0
LWPOLYLINE
  5
E4
330
2
100
AcDbEntity
  8
0
  6
CONTINUOUS
100
AcDbPolyline
 90
       10
 70
     0
 43
0.0
 10
173.7549567226622
 20
52.12018794095095
 10
169.5105833978622
 20
51.15454881135097
 10
165.9852825194622
 20
49.80870596335094
 10
163.1252895610622
 20
48.18913737615094
 10
160.8049475498622
 20
46.32627819695096
 10
159.0525824314622
 20
44.35994744975096
 10
157.7406970042622
 20
42.26327719055092
 10
156.8196682922622
 20
40.04972234415098
 10
156.2708268506622
 20
37.77184249455095
 10
156.0586774922622
 20
35.07683315215095
  0
LWPOLYLINE
  5
F0
330
2
100
AcDbEntity
  8
0
  6
CONTINUOUS
100
AcDbPolyline
 90
        4
 70
     0
 43
0.0
 10
179.4427561498622
 20
45.58928992815094
 10
178.4122286618622
 20
45.49707342415096
 10
177.3122155482622
 20
45.38677307695095
 10
176.1437855194622
 20
45.25603962095096
  0
LWPOLYLINE
  5
F6
330
2
100
AcDbEntity
  8
0
  6
CONTINUOUS
100
AcDbPolyline
 90
        4
 70
     0
 43
0.0
 10
200.2121220442622
 20
45.28455258735095
 10
198.3659872122622
 20
45.48460207375095
 10
196.4931184074622
 20
45.65114779535096
 10
194.5950146506622
 20
45.78337237615096
  0
LWPOLYLINE
  5
FC
330
2
100
AcDbEntity
  8
0
  6
CONTINUOUS
100
AcDbPolyline
 90
        5
 70
     0
 43
0.0
 10
205.7363010490622
 20
36.62940759055095
 10
206.1005484586622
 20
36.33907714895096
 10
206.3778142874622
 20
35.96645289295094
 10
206.5511112554622
 20
35.53627767695096
 10
206.6099910698622
 20
35.07683315215095
  0
LWPOLYLINE
  5
103
330
2
100
AcDbEntity
  8
0
  6
CONTINUOUS
100
AcDbPolyline
 90
        3
 70
     0
 43
0.0
 10
205.8222027898622
 20
36.77107793775096
 10
206.2222296042622
 20
36.45805215375094
 10
206.5285867898622
 20
36.05368254895094
  0
LINE
  5
108
330
2
100
AcDbEntity
  8
0
  6
CONTINUOUS
100
AcDbLine
 10
203.5064961594622
 20
36.55960473935095
 30
0.0
 11
203.6175374378622
 21
36.43346734735095
 31
0.0
  0
LWPOLYLINE
  5
109
330
2
100
AcDbEntity
  8
0
  6
CONTINUOUS
100
AcDbPolyline
 90
        6
 70
     0
 43
0.0
 10
202.8345792618622
 20
35.07683318575095
 10
202.8625504010622
 20
35.40789796335096
 10
202.9559063818622
 20
35.75804814415096
 10
203.1113157306622
 20
36.08447427695094
 10
203.2996231786622
 20
36.34898203055096
 10
203.5064961610622
 20
36.55960473615095
  0
LINE
  5
111
330
2
100
AcDbEntity
  8
CENTER
100
AcDbLine
 10
199.8086774922622
 20
37.7830095574692
 30
0.0
 11
199.8086774922622
 21
32.3706567468327
 31
0.0
  0
LWPOLYLINE
  5
112
330
2
100
AcDbEntity
  8
0
  6
CONTINUOUS
100
AcDbPolyline
 90
        9
 70
     0
 43
0.0
 10
203.6175356410622
 20
36.43346939535095
 10
203.9323657050622
 20
36.65579081455095
 10
204.2473882330622
 20
36.79387715215094
 10
204.5482267034622
 20
36.86519275375096
 10
204.8270566058622
 20
36.88483055055096
 10
205.0771212602622
 20
36.86570280495095
 10
205.3023701642622
 20
36.81760970415095
 10
205.5173310970622
 20
36.74170545135095
 10
205.7363010490622
 20
36.62940759055095
  0
LWPOLYLINE
  5
11D
330
2
100
AcDbEntity
  8
0
  6
CONTINUOUS
100
AcDbPolyline
 90
       13
 70
     0
 43
0.0
 10
208.9224237402622
 20
36.30592965135096
 10
208.8532734202622
 20
36.80652787535092
 10
208.7493535658622
 20
37.35543878095095
 10
208.6028930698622
 20
37.94800696015096
 10
208.4030955722622
 20
38.58602510255096
 10
208.1362577274622
 20
39.27106575215094
 10
207.7884498666622
 20
39.99780243695096
 10
207.3407932186622
 20
40.76424979215096
 10
206.7711232650622
 20
41.56224883855094
 10
206.0497967098622
 20
42.38020698095096
 10
205.1506624506622
 20
43.19069379215096
 10
204.0361540442622
 20
43.96304723695095
 10
202.6636734234622
 20
44.64417790255097
  0
LINE
  5
12C
330
2
100
AcDbEntity
  8
CENTER
100
AcDbLine
 10
204.8086774922622
 20
39.55722168032792
 30
0.0
 11
204.8086774922622
 21
30.59644462397398
 31
0.0
  0
LWPOLYLINE
  5
12D
330
2
100
AcDbEntity
  8
0
  6
HIDDEN
100
AcDbPolyline
 90
       19
 70
     0
 43
0.0
 10
200.3552181978622
 20
35.81517923695094
 10
200.3601769386622
 20
35.81156503215092
 10
200.3629599402622
 20
35.80950921615095
 10
200.3659775626622
 20
35.80725811375094
 10
200.3692449674622
 20
35.80479507855093
 10
200.3727539322622
 20
35.80212043695095
 10
200.3764826570622
 20
35.79924485135094
 10
200.3804270410622
 20
35.79616542575095
 10
200.3846177898622
 20
35.79285126575095
 10
200.3891001610622
 20
35.78925788175095
 10
200.3939169434622
 20
35.78533999375096
 10
200.3991091882622
 20
35.78105060495096
 10
200.4047165130622
 20
35.77634033135092
 10
200.4107690122622
 20
35.77116385295096
 10
200.4172798074622
 20
35.76548658255095
 10
200.4242519914622
 20
35.75927930895096
 10
200.4316978346622
 20
35.75250101455094
 10
200.4396598410622
 20
35.74507750575094
 10
200.4420213114622
 20
35.74284009455095
  0
LWPOLYLINE
  5
143
330
2
100
AcDbEntity
  8
0
  6
HIDDEN
100
AcDbPolyline
 90
       11
 70
     0
 43
0.0
 10
200.6609175226622
 20
34.74069470575094
 10
200.7011501162622
 20
34.86996425775092
 10
200.7218922554622
 20
35.00375156175095
 10
200.7226909594622
 20
35.13913487375095
 10
200.7035287850622
 20
35.27315759695096
 10
200.6648242090622
 20
35.40289284495094
 10
200.6074224890622
 20
35.52550736975095
 10
200.5325772058622
 20
35.63832342575094
 10
200.4419228826622
 20
35.73887725775094
 10
200.3374392954622
 20
35.82497289615094
 10
200.2214082314622
 20
35.89473012495094
  0
LWPOLYLINE
  5
150
330
2
100
AcDbEntity
  8
0
  6
HIDDEN
100
AcDbPolyline
 90
       23
 70
     0
 43
0.0
 10
200.6320515114622
 20
35.48517723375096
 10
200.5622474922622
 20
35.60297184015095
 10
200.4757177354622
 20
35.70908862255098
 10
200.3743827962622
 20
35.80117228015097
 10
200.2604918362622
 20
35.87717899215096
 10
200.1365727050622
 20
35.93542175695094
 10
200.0053758330622
 20
35.97460786095095
 10
199.8698131738622
 20
35.99386755215096
 10
199.7328935866622
 20
35.99277336015095
 10
199.5976560490622
 20
35.97134956495094
 10
199.4671022042622
 20
35.93007168015094
 10
199.3441297370622
 20
35.86985588015096
 10
199.2314680618622
 20
35.79203867375096
 10
199.1316177434622
 20
35.69834724015092
 10
199.0467949962622
 20
35.59086109455094
 10
198.9788824842622
 20
35.47196592655097
 10
198.9293875514622
 20
35.34430065135095
 10
198.8994087530622
 20
35.21069884655094
 10
198.8896114810622
 20
35.07412584815094
 10
198.9002131850622
 20
34.93761294095094
 10
198.9309785610622
 20
34.80419007055095
 10
198.9812247594622
 20
34.67681860495096
 10
199.0498365466622
 20
34.55832559695096
  0
LWPOLYLINE
  5
169
330
2
100
AcDbEntity
  8
0
  6
HIDDEN
100
AcDbPolyline
 90
       16
 70
     0
 43
0.0
 10
200.4871663450622
 20
35.69242636175096
 10
200.3890344442623
 20
35.78569698415094
 10
200.2782282922622
 20
35.86348693135096
 10
200.1571677562622
 20
35.92409737135094
 10
200.0284966410622
 20
35.96620465135095
 10
199.8950249562622
 20
35.98888920175096
 10
199.7596675562622
 20
35.99165561935098
 10
199.6253804698622
 20
35.97444349295094
 10
199.4950963530622
 20
35.93762870895094
 10
199.3716604474622
 20
35.88201525775096
 10
199.2577684298622
 20
35.80881766415098
 10
199.1559075594622
 20
35.71963447055094
 10
199.0683023450622
 20
35.61641332335094
 10
198.9968659706622
 20
35.50140843855095
 10
198.9431585162622
 20
35.37713137615094
 10
198.9083528826622
 20
35.24629618575096
  0
LWPOLYLINE
  5
17B
330
2
100
AcDbEntity
  8
0
  6
HIDDEN
100
AcDbPolyline
 90
       22
 70
     0
 43
0.0
 10
198.9220141514622
 20
35.07683315215095
 10
198.9324176714622
 20
35.20374857295095
 10
198.9612830346622
 20
35.32903692815094
 10
199.0082313786622
 20
35.44926656335096
 10
199.0717014506622
 20
35.56060935215095
 10
199.1499366042622
 20
35.66078906735095
 10
199.2420288090622
 20
35.74885900335095
 10
199.3453134394622
 20
35.82233995055094
 10
199.4580167018622
 20
35.88014036335096
 10
199.5775818650622
 20
35.92101583535094
 10
199.7019790650622
 20
35.94426947215095
 10
199.8280612394622
 20
35.94932486895095
 10
199.9536075562622
 20
35.93613464175095
 10
200.0756652042622
 20
35.90503148655094
 10
200.1919097578622
 20
35.85665361135096
 10
200.2997948202622
 20
35.79208542735094
 10
200.3971122794622
 20
35.71269802255093
 10
200.4818769898622
 20
35.62013887215096
 10
200.5522080586622
 20
35.51654347055094
 10
200.6067630234622
 20
35.40401713615094
 10
200.6444677770622
 20
35.28480387695094
 10
200.6645363578622
 20
35.16112789295096
  0
LWPOLYLINE
  5
193
330
2
100
AcDbEntity
  8
0
  6
HIDDEN
100
AcDbPolyline
 90
        9
 70
     0
 43
0.0
 10
200.0915989594622
 20
34.20547928175094
 10
200.2169256842622
 20
34.25668954415096
 10
200.3333367946622
 20
34.32581068815096
 10
200.4382900202622
 20
34.41133319695095
 10
200.5294933162622
 20
34.51138936975095
 10
200.6049549242622
 20
34.62379410735096
 10
200.6630268554622
 20
34.74609263375092
 10
200.7024408954622
 20
34.87561410895091
 10
200.7223362922622
 20
35.00952994895095
  0
LWPOLYLINE
  5
19E
330
2
100
AcDbEntity
  8
0
  6
HIDDEN
100
AcDbPolyline
 90
       23
 70
     0
 43
0.0
 10
198.9695918810622
 20
34.70183315215095
 10
198.9894660346622
 20
34.66020111855096
 10
199.0604551754622
 20
34.54311690735096
 10
199.1480513642622
 20
34.43787870735096
 10
199.2503103674622
 20
34.34682231695095
 10
199.3649625178622
 20
34.27196876175094
 10
199.4894630714622
 20
34.21497944175095
 10
199.6210486970622
 20
34.17711925295091
 10
199.7567988042622
 20
34.15922851695091
 10
199.8937003770622
 20
34.16170432175096
 10
200.0287148410622
 20
34.18449172015096
 10
200.1588455002622
 20
34.22708493455095
 10
200.2812040634622
 20
34.28853859695095
 10
200.3930747386622
 20
34.36748871855096
 10
200.4919745242622
 20
34.46218298095095
 10
200.5757083018622
 20
34.57051960975096
 10
200.6424175722622
 20
34.69009403535094
 10
200.6906217034622
 20
34.81825226575091
 10
200.7192507866622
 20
34.95214978735095
 10
200.7276693898622
 20
35.08881469935096
 10
200.7156906602622
 20
35.22521367215094
 10
200.6835804698622
 20
35.35831929135096
 10
200.6320515114622
 20
35.48517723375096
  0
LWPOLYLINE
  5
1B7
330
2
100
AcDbEntity
  8
0
  6
HIDDEN
100
AcDbPolyline
 90
       19
 70
     0
 43
0.0
 10
198.9023748362622
 20
35.22949342575094
 10
198.8897913338622
 20
35.09521501455094
 10
198.8969945706622
 20
34.96054077935096
 10
198.9238294362622
 20
34.82837071695096
 10
198.9697180826622
 20
34.70155089295096
 10
199.0336723754622
 20
34.58281216655092
 10
199.1143151594622
 20
34.47471139215096
 10
199.2099099178622
 20
34.37957634255096
 10
199.3183981770622
 20
34.29945560015096
 10
199.4374438154622
 20
34.23607443375095
 10
199.5644833754622
 20
34.19079765615094
 10
199.6967812602622
 20
34.16460023215091
 10
199.8314886522622
 20
34.15804628015095
 10
199.9657048458622
 20
34.17127692655091
 10
200.0965397050622
 20
34.20400727535096
 10
200.2211759130622
 20
34.25553252495092
 10
200.3369296282622
 20
34.32474316655091
 10
200.4413082858622
 20
34.41014885935095
 10
200.5320642522622
 20
34.50991052815095
  0
LWPOLYLINE
  5
1CC
330
2
100
AcDbEntity
  8
0
  6
HIDDEN
100
AcDbPolyline
 90
       22
 70
     0
 43
0.0
 10
200.7228642826622
 20
35.07683315215095
 10
200.7113822042622
 20
34.94092952815094
 10
200.6794433546622
 20
34.80720164495096
 10
200.6279600426622
 20
34.68021332495095
 10
200.5590063930622
 20
34.56383662575092
 10
200.4737389738622
 20
34.45918859695092
 10
200.3737470074622
 20
34.36823070575096
 10
200.2617748778622
 20
34.29340355375094
 10
200.1397086314622
 20
34.23593396655096
 10
200.0111116362622
 20
34.19742467055096
 10
199.8783422058622
 20
34.17842703535095
 10
199.7433332890622
 20
34.17942072655091
 10
199.6099393082622
 20
34.20061783055095
 10
199.4822740138622
 20
34.24115267535091
 10
199.3614649914622
 20
34.30059816335094
 10
199.2509065018622
 20
34.37749814895096
 10
199.1539902138622
 20
34.46919623695094
 10
199.0720347242622
 20
34.57397875215096
 10
199.0064330362622
 20
34.69009020495096
 10
198.9590061114622
 20
34.81436007695092
 10
198.9306454090622
 20
34.94431725135092
 10
198.9220141514622
 20
35.07683315215095
  0
LWPOLYLINE
  5
1E4
330
2
100
AcDbEntity
  8
0
  6
HIDDEN
100
AcDbPolyline
 90
       16
 70
     0
 43
0.0
 10
199.0653603002622
 20
34.54131314735096
 10
199.1523992730622
 20
34.43761408015095
 10
199.2537705162622
 20
34.34787473615091
 10
199.3672602154622
 20
34.27405490735091
 10
199.4903899002622
 20
34.21776672175096
 10
199.6204705770622
 20
34.18023944175095
 10
199.7546614506622
 20
34.16229261615095
 10
199.8900319642622
 20
34.16431818095091
 10
200.0236258010622
 20
34.18627189775091
 10
200.1525254442622
 20
34.22767432655095
 10
200.2739158890622
 20
34.28762129295091
 10
200.3851461274622
 20
34.36480363215096
 10
200.4837870298622
 20
34.45753577935096
 10
200.5676844106622
 20
34.56379258575092
 10
200.6350060538622
 20
34.68125353775096
 10
200.6842817450622
 20
34.80735344015096
  0
CIRCLE
  5
1F6
330
2
100
AcDbEntity
  8
0
  6
HIDDEN
100
AcDbCircle
 10
199.8086774922622
 20
35.07683315215095
 30
0.0
 40
1.125
  0
CIRCLE
  5
1F7
330
2
100
AcDbEntity
  8
0
  6
HIDDEN
100
AcDbCircle
 10
199.8086774922622
 20
35.07683315215095
 30
0.0
 40
0.6725
  0
CIRCLE
  5
1F8
330
2
100
AcDbEntity
  8
0
  6
HIDDEN
100
AcDbCircle
 10
199.8086774922622
 20
35.07683315215095
 30
0.0
 40
0.9375
  0
CIRCLE
  5
1F9
330
2
100
AcDbEntity
  8
0
  6
HIDDEN
100
AcDbCircle
 10
199.8086774922622
 20
35.07683315215095
 30
0.0
 40
0.8599999999999999
  0
CIRCLE
  5
1FA
330
2
100
AcDbEntity
  8
0
  6
HIDDEN
100
AcDbCircle
 10
199.8086774922622
 20
35.07683315215095
 30
0.0
 40
1.0937499776
  0
CIRCLE
  5
1FB
330
2
100
AcDbEntity
  8
0
  6
HIDDEN
100
AcDbCircle
 10
199.8086774922622
 20
35.07683315215095
 30
0.0
 40
0.7975
  0
LWPOLYLINE
  5
1FC
330
2
100
AcDbEntity
  8
0
  6
HIDDEN
100
AcDbPolyline
 90
       48
 70
     0
 43
0.0
 10
200.5706310362622
 20
35.58548717935096
 10
200.4866719706622
 20
35.69297080655096
 10
200.3876861898622
 20
35.78679868015092
 10
200.2758675610622
 20
35.86489124655094
 10
200.1536943770622
 20
35.92551770575096
 10
200.0238744170622
 20
35.96733436175094
 10
199.8892849450622
 20
35.98941441455096
 10
199.7529089306622
 20
35.99126849135092
 10
199.6177689434622
 20
35.97285549935094
 10
199.4868601530622
 20
35.93458353615094
 10
199.3630839530622
 20
35.87730084015092
 10
199.2491836570622
 20
35.80227699535092
 10
199.1476836906622
 20
35.71117479215095
 10
199.0608336474622
 20
35.60601337135094
 10
198.9905584234622
 20
35.48912347535096
 10
198.9384155642622
 20
35.36309579215094
 10
198.9055607386622
 20
35.23072353295094
 10
198.8927221194622
 20
35.09494052815094
 10
198.9001842586622
 20
34.95875620015095
 10
198.9277817690622
 20
34.82518886895096
 10
198.9749029914622
 20
34.69719884975091
 10
199.0405035578622
 20
34.57762284655092
 10
199.1231295306622
 20
34.46911108175092
 10
199.2209496314622
 20
34.37406855055096
 10
199.3317958266622
 20
34.29460172975092
 10
199.4532113770622
 20
34.23247187695094
 10
199.5825052938622
 20
34.18905600655091
 10
199.7168119738622
 20
34.16531636655093
 10
199.8531547114622
 20
34.16177910895092
 10
199.9885116810622
 20
34.17852263375095
 10
200.1198828986622
 20
34.21517584335092
 10
200.2443567226622
 20
34.27092637615095
 10
200.3591743786622
 20
34.34453860655094
 10
200.4617911098622
 20
34.43438103055092
 10
200.5499325690622
 20
34.53846243055096
 10
200.6216452394622
 20
34.65447599695096
 10
200.6753397146622
 20
34.77985046735094
 10
200.7098259418622
 20
34.91180710735093
 10
200.7243395834622
 20
35.04742129935095
 10
200.7185589690622
 20
35.18368735855094
 10
200.6926122154622
 20
35.31758515855094
 10
200.6470743930622
 20
35.44614705455094
 10
200.5829547802622
 20
35.56652367215096
 10
200.5016744874622
 20
35.67604704335096
 10
200.4050349722622
 20
35.77228974895095
 10
200.2951781002622
 20
35.85311871855094
 10
200.1745386810622
 20
35.91674249935095
 10
200.0457905066622
 20
35.96175096815096
  0
LWPOLYLINE
  5
22E
330
2
100
AcDbEntity
  8
0
  6
HIDDEN
100
AcDbPolyline
 90
       23
 70
     0
 43
0.0
 10
200.4883415338622
 20
35.69549821135092
 10
200.3888855866622
 20
35.78960817455095
 10
200.2765517274622
 20
35.86789785615096
 10
200.1538332426622
 20
35.92862959055094
 10
200.0234539082622
 20
35.97045541935094
 10
199.8883075386622
 20
35.99244700015094
 10
199.7513937562622
 20
35.99411622575095
 10
199.6157514058622
 20
35.97542604655098
 10
199.4843911130622
 20
35.93679129455094
 10
199.3602284634622
 20
35.87906948335094
 10
199.2460192938622
 20
35.80354176975097
 10
199.1442985114622
 20
35.71188451375096
 10
199.0573238410622
 20
35.60613207855095
 10
198.9870257178622
 20
35.48863167695094
 10
198.9349644314622
 20
35.36199126895096
 10
198.9022955002622
 20
35.22902168335096
 10
198.8897440218622
 20
35.09267421775095
 10
198.8975885786622
 20
34.95597515535095
 10
198.9256550602622
 20
34.82195857935096
 10
198.9733205194622
 20
34.69359902895095
 10
199.0395270090622
 20
34.57374548815096
 10
199.1228050506622
 20
34.46505814415095
 10
199.2213062602622
 20
34.36994935535094
  0
LWPOLYLINE
  5
247
330
2
100
AcDbEntity
  8
0
  6
HIDDEN
100
AcDbPolyline
 90
       55
 70
     0
 43
0.0
 10
200.6020731018622
 20
34.61876598255094
 10
200.6613590474622
 20
34.74181630255091
 10
200.7016913882622
 20
34.87231345455092
 10
200.7221736058622
 20
35.00735671855096
 10
200.7223504170622
 20
35.14394432175098
 10
200.7022178938622
 20
35.27904016175094
 10
200.6622235434622
 20
35.40964129615096
 10
200.6032563722622
 20
35.53284469455096
 10
200.5266271146622
 20
35.64591176015096
 10
200.4340391050622
 20
35.74632921295094
 10
200.3275504106622
 20
35.83186495055096
 10
200.2095280874622
 20
35.90061766415095
 10
200.0825955626623
 20
35.95105910255094
 10
199.9495743226622
 20
35.98206804175095
 10
199.8134211962622
 20
35.99295520655096
 10
199.6771626234622
 20
35.98347859535095
 10
199.5438273962622
 20
35.95384885775095
 10
199.4163793178622
 20
35.90472460815095
 10
199.2976513354622
 20
35.83719779375096
 10
199.1902825626622
 20
35.75276941615095
 10
199.0966596170622
 20
35.65331616655092
 10
199.0188635722622
 20
35.54104872015094
 10
198.9586236970622
 20
35.41846257935094
 10
198.9172790154622
 20
35.28828261935092
 10
198.8957485498622
 20
35.15340251215096
 10
198.8945108826622
 20
35.01682040175094
 10
198.9135935242622
 20
34.88157227055092
 10
198.9525723034622
 20
34.75066444335095
 10
199.0105807882622
 20
34.62700676975094
 10
199.0863295546622
 20
34.51334794415092
 10
199.1781348410622
 20
34.41221439855095
 10
199.2839559770622
 20
34.32585415535095
 10
199.4014407466622
 20
34.25618684815091
 10
199.5279776682622
 20
34.20476106095091
 10
199.6607540538622
 20
34.17271989615096
 10
199.7968185146622
 20
34.16077557295094
 10
199.9331465802622
 20
34.16919359215091
 10
200.0667079162622
 20
34.19778683695094
 10
200.1945336938622
 20
34.24591972975096
 10
200.3137825674622
 20
34.31252236015095
 10
200.4218038474622
 20
34.39611427055095
 10
200.5161964122622
 20
34.49483736015094
 10
200.5948620794622
 20
34.60649718735095
 10
200.6560522506622
 20
34.72861175375095
 10
200.6984067786622
 20
34.85846666735094
 10
200.7209841946622
 20
34.99317548335094
 10
200.7232826426622
 20
35.12974385935095
 10
200.7052510330622
 20
35.26513612495094
 10
200.6672901770622
 20
35.39634274735095
 10
200.6102438762622
 20
35.52044723695095
 10
200.5353801690622
 20
35.63469096655095
 10
200.4443631466622
 20
35.73653450255093
 10
200.3392159530622
 20
35.82371404335094
 10
200.2222758250622
 20
35.89429173935096
 10
200.0961421370622
 20
35.94669877295095
  0
LWPOLYLINE
  5
280
330
2
100
AcDbEntity
  8
0
  6
HIDDEN
100
AcDbPolyline
 90
       23
 70
     0
 43
0.0
 10
199.0498365466622
 20
34.55832559695096
 10
199.1352910634622
 20
34.45134104015096
 10
199.2356916202622
 20
34.35823948655095
 10
199.3488097898622
 20
34.28108736175096
 10
199.4721348762622
 20
34.22159708335096
 10
199.6029296378622
 20
34.18108905615096
 10
199.7382910442622
 20
34.16046236815091
 10
199.8752147034622
 20
34.16017483695091
 10
200.0106615434622
 20
34.18023284495095
 10
200.1416252794622
 20
34.22019119855096
 10
200.2651991290622
 20
34.27916300655096
 10
200.3786403290622
 20
34.35583937135095
 10
200.4794310106622
 20
34.44851843535096
 10
200.5653340922622
 20
34.55514315215092
 10
200.6344429290622
 20
34.67334695695092
 10
200.6852236250622
 20
34.80050627375095
 10
200.7165490842622
 20
34.93379875535095
 10
200.7277240298622
 20
35.07026593455094
 10
200.7185004282622
 20
35.20687887535092
 10
200.6890830026622
 20
35.34060540975096
 10
200.6401246810622
 20
35.46847742735096
 10
200.5727121098622
 20
35.58765676815096
 10
200.4883415338622
 20
35.69549821135092
  0
LWPOLYLINE
  5
299
330
2
100
AcDbEntity
  8
0
  6
HIDDEN
100
AcDbPolyline
 90
       64
 70
     0
 43
0.0
 10
199.0660777994622
 20
34.54031864335096
 10
199.1539585850622
 20
34.43601704975091
 10
199.2563502202622
 20
34.34591817295091
 10
199.3709833482622
 20
34.27201891215094
 10
199.4953173018622
 20
34.21595713615096
 10
199.6265964058622
 20
34.17897536655095
 10
199.7619110618622
 20
34.16189324975096
 10
199.8982622234622
 20
34.16508938415091
 10
200.0326278762622
 20
34.18849292975096
 10
200.1620300090622
 20
34.23158518735096
 10
200.2836006218622
 20
34.29341107855091
 10
200.3946452858623
 20
34.37260032975092
 10
200.4927028650622
 20
34.46739782895096
 10
200.5756000618622
 20
34.57570253455091
 10
200.6414995866622
 20
34.69511403855094
 10
200.6889408778622
 20
34.82298576495091
 10
200.7168724698622
 20
34.95648363375096
 10
200.7246753018622
 20
35.09264886575095
 10
200.7121764362622
 20
35.22846356655094
 10
200.6796528906622
 20
35.36091760975094
 10
200.6278255002622
 20
35.48707535375095
 10
200.5578429402622
 20
35.60414070255095
 10
200.4712562682622
 20
35.70951908335095
 10
200.3699845466622
 20
35.80087494095096
 10
200.2562723066622
 20
35.87618351535096
 10
200.1326398106622
 20
35.93377570415094
 10
200.0018271802622
 20
35.97237506575095
 10
199.8667336826622
 20
35.99112610255096
 10
199.7303534570622
 20
35.98961322735096
 10
199.5957091642622
 20
35.96786997135097
 10
199.4657849914622
 20
35.92637823855094
 10
199.3434605098622
 20
35.86605763215095
 10
199.2314468538623
 20
35.78824506575094
 10
199.1322266362622
 20
35.69466513615094
 10
199.0479989226622
 20
35.58739190095096
 10
198.9806304938622
 20
35.46880290735094
 10
198.9316144650622
 20
35.34152650095094
 10
198.9020372058622
 20
35.20838356815096
 10
198.8925542474622
 20
35.07232502255095
 10
198.9033757690622
 20
34.93636639055094
 10
198.9342619242622
 20
34.80352099215096
 10
198.9845281706622
 20
34.67673314095091
 10
199.0530604330622
 20
34.55881289775095
 10
199.1383397994622
 20
34.45237378575095
 10
199.2384761786622
 20
34.35977486575095
 10
199.3512502042622
 20
34.28306845135091
 10
199.4741624090622
 20
34.22395462415096
 10
199.6044886314622
 20
34.18374355215096
 10
199.7393403898622
 20
34.16332645295094
 10
199.8757288986622
 20
34.16315583855094
 10
200.0106313162622
 20
34.18323549295095
 10
200.1410577338622
 20
34.22312037935091
 10
200.2641174506622
 20
34.28192651055096
 10
200.3770830314622
 20
34.35835053775096
 10
200.4774507690622
 20
34.45069864015096
 10
200.5629961642622
 20
34.55692405935096
 10
200.6318232346622
 20
34.67467247535092
 10
200.6824065322622
 20
34.80133416815096
 10
200.7136249530622
 20
34.93410187855096
 10
200.7247865914622
 20
35.07003300975094
 10
200.7156440650622
 20
35.20611485615094
 10
200.6864000042622
 20
35.33933136975096
 10
200.6377025594622
 20
35.46673000975096
 10
200.5704809226622
 20
35.58571197455094
  0
LWPOLYLINE
  5
2DB
330
2
100
AcDbEntity
  8
0
  6
HIDDEN
100
AcDbPolyline
 90
       23
 70
     0
 43
0.0
 10
199.2213062602622
 20
34.36994935535094
 10
199.3328443722622
 20
34.29053008975091
 10
199.4549437610622
 20
34.22856308175096
 10
199.5848943882622
 20
34.18542371375096
 10
199.7198119546622
 20
34.16206947695096
 10
199.8567019210622
 20
34.15901872655095
 10
199.9925259722622
 20
34.17633917455091
 10
200.1242694442622
 20
34.21364639055096
 10
200.2490082458622
 20
34.27011232495095
 10
200.3639737578622
 20
34.34448369775092
 10
200.4666142842622
 20
34.43510981295094
 10
200.5546516842622
 20
34.53997919535092
 10
200.6261319338622
 20
34.65676422735092
 10
200.6794685098622
 20
34.78287283055095
 10
200.7134775866622
 20
34.91550598415094
 10
200.7274043226622
 20
35.05171984815092
 10
200.7209396074622
 20
35.18849110895095
 10
200.6942269290622
 20
35.32278408335093
 10
200.6478591834622
 20
35.45161809615092
 10
200.5828655178622
 20
35.57213363215092
 10
200.5006884922622
 20
35.68165580495096
 10
200.4031520490622
 20
35.77775373615094
 10
200.2924210426622
 20
35.85829450255096
  0
LWPOLYLINE
  5
2F4
330
2
100
AcDbEntity
  8
0
  6
HIDDEN
100
AcDbPolyline
 90
      115
 70
     0
 43
0.0
 10
200.0457905066622
 20
35.96175096815096
 10
199.9115506538622
 20
35.98717332655096
 10
199.7750228346622
 20
35.99234911855095
 10
199.6392435162622
 20
35.97716323055095
 10
199.5072325210622
 20
35.94195340495096
 10
199.3819258634622
 20
35.88750273135096
 10
199.2661104426622
 20
35.81502223215096
 10
199.1623620730622
 20
35.72612391855094
 10
199.0729881850622
 20
35.62278494895096
 10
198.9999765146622
 20
35.50730364975092
 10
198.9449508890622
 20
35.38224840175095
 10
198.9091351130622
 20
35.25040051695095
 10
198.8933257562622
 20
35.11469237935094
 10
198.8978744266622
 20
34.97814222735096
 10
198.9226799610622
 20
34.84378702575091
 10
198.9671906666622
 20
34.71461492655095
 10
199.0304165946622
 20
34.59349879855094
 10
199.1109515610622
 20
34.48313234575095
 10
199.2070044122622
 20
34.38597019215094
 10
199.3164388730622
 20
34.30417328815096
 10
199.4368210442622
 20
34.23956085135091
 10
199.5654735498622
 20
34.19356990415096
 10
199.6995350730622
 20
34.16722331535092
 10
199.8360239946622
 20
34.16110705135094
 10
199.9719047114622
 20
34.17535714095095
 10
200.1041551482622
 20
34.20965665455094
 10
200.2298339658622
 20
34.26324274575091
 10
200.3461459850622
 20
34.33492362735091
 10
200.4505043482622
 20
34.42310506575092
 10
200.5405880586622
 20
34.52582585135095
 10
200.6143935946622
 20
34.64080140175096
 10
200.6702794698622
 20
34.76547458895092
 10
200.7070027482622
 20
34.89707259535094
 10
200.7237466778622
 20
35.03266859535094
 10
200.7201388650622
 20
35.16924684495094
 10
200.6962595466622
 20
35.30376975215094
 10
200.6526398170622
 20
35.43324543855095
 10
200.5902498058622
 20
35.55479428175095
 10
200.5104771098622
 20
35.66571295215095
 10
200.4150959274622
 20
35.76353454575095
 10
200.3062275962622
 20
35.84608344655094
 10
200.1862934218622
 20
35.91152371215097
 10
200.0579608202623
 20
35.95839990735092
 10
199.9240839914622
 20
35.98566947535096
 10
199.7876404458622
 20
35.99272592175094
 10
199.6516647786622
 20
35.97941230575094
 10
199.5191811786622
 20
35.94602473295094
 10
199.3931361674622
 20
35.89330576495092
 10
199.2763330698623
 20
35.82242790575094
 10
199.1713696650622
 20
35.73496752655094
 10
199.0805804074622
 20
35.63286980175095
 10
199.0059845114622
 20
35.51840545615096
 10
198.9492410378622
 20
35.39412024815095
 10
198.9116119994622
 20
35.26277836655094
 10
198.8939342906622
 20
35.12730094095096
 10
198.8966010762622
 20
34.99070107695095
 10
198.9195530458622
 20
34.85601684815091
 10
198.9622797306622
 20
34.72624371855096
 10
199.0238308602622
 20
34.60426793135096
 10
199.1028375002622
 20
34.49280230735095
 10
199.1975424874622
 20
34.39432591535092
 10
199.3058395226622
 20
34.31102893455096
 10
199.4253200058622
 20
34.24476394735092
 10
199.5533266122622
 20
34.19700472975091
 10
199.6870123930622
 20
34.16881347855095
 10
199.8234040858622
 20
34.16081718575091
 10
199.9594682490622
 20
34.17319369295091
 10
200.0921787258622
 20
34.20566774095096
 10
200.2185839482622
 20
34.25751708335096
 10
200.3358725786622
 20
34.32758855695095
 10
200.4414360426622
 20
34.41432372495091
 10
200.5329265386622
 20
34.51579354255096
 10
200.6083092554622
 20
34.62974125135096
 10
200.6659076330622
 20
34.75363257935095
 10
200.7044406458622
 20
34.88471210415096
 10
200.7230512922622
 20
35.02006452655095
 10
200.7213256618622
 20
35.15667952015096
 10
200.6993021322622
 20
35.29151867855094
 10
200.6574705210622
 20
35.42158308815095
 10
200.5967611914622
 20
35.54398003215095
 10
200.5185243578622
 20
35.65598732015095
 10
200.4245000618622
 20
35.75511383535095
 10
200.3167794634622
 20
35.83915493935094
 10
200.1977583418622
 20
35.90624150415095
 10
200.0700838058622
 20
35.95488147695096
 10
199.9365954186622
 20
35.98399307535092
 10
199.8002620522622
 20
35.99292883535096
 10
199.6641158522622
 20
35.98149002255095
 10
199.5311847978622
 20
35.94993104175094
 10
199.4044253642622
 20
35.89895378735096
 10
199.2866567658622
 20
35.82969202575094
 10
199.1804982538622
 20
35.74368618415096
 10
199.0883108634622
 20
35.64284908975094
 10
199.0121449034622
 20
35.52942342735096
 10
198.9536943562622
 20
35.40593185615094
 10
198.9142591978622
 20
35.27512091375095
 10
198.8947164954622
 20
35.13989992015095
 10
198.8955008890622
 20
35.00327627855094
 10
198.9165949354622
 20
34.86828859215092
 10
198.9575294874622
 20
34.73793907375096
 10
199.0173941354622
 20
34.61512678415096
 10
199.0948574474622
 20
34.50258314895092
 10
199.1881965898622
 20
34.40281121455092
 10
199.2953356378622
 20
34.31802997455093
 10
199.4138917482622
 20
34.25012501775091
 10
199.5412281546622
 20
34.20060659695096
 10
199.6745128122622
 20
34.17057603535096
 10
199.8107813802622
 20
34.16070123055095
 10
199.9470031562622
 20
34.17120180655095
 10
200.0801484794622
 20
34.20184422255096
 10
200.2072561066622
 20
34.25194697135092
 10
200.3254990826622
 20
34.32039573455091
 10
200.4322476042622
 20
34.40566816495095
 10
200.5251275146622
 20
34.50586775055092
 10
200.6020731018622
 20
34.61876598255094
  0
LWPOLYLINE
  5
369
330
2
100
AcDbEntity
  8
0
  6
HIDDEN
100
AcDbPolyline
 90
       40
 70
     0
 43
0.0
 10
199.9636186186622
 20
35.97977023215094
 10
199.8276510314622
 20
35.99277099215092
 10
199.6912616970622
 20
35.98541207055097
 10
199.5574823066622
 20
35.95785704495094
 10
199.4292865434622
 20
35.91071841295095
 10
199.3095239706622
 20
35.84504398415095
 10
199.2008566986622
 20
35.76229358415094
 10
199.1057002106622
 20
35.66430660975092
 10
199.0261696666622
 20
35.55326113775092
 10
198.9640328906622
 20
35.43162551215095
 10
198.9206710730622
 20
35.30210347855094
 10
198.8970480698622
 20
35.16757408335095
 10
198.8936889786622
 20
35.03102767695094
 10
198.9106684666622
 20
34.89549944495095
 10
198.9476091114622
 20
34.76400194255091
 10
199.0036897850622
 20
34.63945812495095
 10
199.0776639146622
 20
34.52463638255096
 10
199.1678871866622
 20
34.42208899855092
 10
199.2723540938622
 20
34.33409542255091
 10
199.3887425242622
 20
34.26261159375096
 10
199.5144653674622
 20
34.20922647375096
 10
199.6467280282622
 20
34.17512671695095
 10
199.7825905386622
 20
34.16107030415094
 10
199.9190329146622
 20
34.16736968175095
 10
200.0530222858622
 20
34.19388482735095
 10
200.1815803034622
 20
34.24002635375094
 10
200.3018493498622
 20
34.30476861935096
 10
200.4111560570622
 20
34.38667251695096
 10
200.5070707290622
 20
34.48391746575095
 10
200.5874613514622
 20
34.59434188495094
 10
200.6505409850622
 20
34.71549123215095
 10
200.6949074794622
 20
34.84467257135094
 10
200.7195746442622
 20
34.97901443215096
 10
200.7239941738622
 20
35.11553063055095
 10
200.7080678314622
 20
35.25118665135096
 10
200.6721496266622
 20
35.38296710095096
 10
200.6170379626622
 20
35.50794273455096
 10
200.5439578730622
 20
35.62333556335096
 10
200.4545337978622
 20
35.72658060815095
 10
200.3507534762622
 20
35.81538291375096
  0
LWPOLYLINE
  5
393
330
2
100
AcDbEntity
  8
0
  6
HIDDEN
100
AcDbPolyline
 90
       17
 70
     0
 43
0.0
 10
200.4193641690622
 20
34.38999150415091
 10
200.5133063706622
 20
34.48675874095096
 10
200.5920755226622
 20
34.59623228655095
 10
200.6539754554622
 20
34.71605480015091
 10
200.6976732522622
 20
34.84364609295096
 10
200.7222279530622
 20
34.97625869455095
 10
200.7271108122622
 20
35.11103700975096
 10
200.7122166826622
 20
35.24507879855096
 10
200.6778662874622
 20
35.37549768495094
 10
200.6247993082622
 20
35.49948531055096
 10
200.5541584538622
 20
35.61437180175096
 10
200.4674648634622
 20
35.71768326255096
 10
200.3665853466622
 20
35.80719504335096
 10
200.2536921802622
 20
35.88097965135094
 10
200.1312163354622
 20
35.93744825775095
 10
200.0017951322622
 20
35.97538489935095
 10
199.8682154538622
 20
35.99397267055095
  0
LWPOLYLINE
  5
3A6
330
2
100
AcDbEntity
  8
0
  6
HIDDEN
100
AcDbPolyline
 90
       15
 70
     0
 43
0.0
 10
200.1088049754622
 20
34.20814842255092
 10
200.2333414746622
 20
34.26175636495094
 10
200.3486359274622
 20
34.33310299055094
 10
200.4521791562623
 20
34.42063556495091
 10
200.5417177274622
 20
34.52244909775095
 10
200.6153029962622
 20
34.63632780335092
 10
200.6713335130622
 20
34.75979331695091
 10
200.7085898714622
 20
34.89015863215096
 10
200.7262612554622
 20
35.02458658095096
 10
200.7239630794622
 20
35.16015158415092
 10
200.7017453578622
 20
35.29390331215094
 10
200.6600916202622
 20
35.42293089615094
 10
200.5999083866622
 20
35.54442628495095
 10
200.5225054330622
 20
35.65574535215094
 10
200.4420213210622
 20
35.74284010415095
  0
LWPOLYLINE
  5
3B7
330
2
100
AcDbEntity
  8
0
  6
HIDDEN
100
AcDbPolyline
 90
       17
 70
     0
 43
0.0
 10
199.8929722330622
 20
34.22097428655095
 10
200.0222762506622
 20
34.24013255535095
 10
200.1475808346622
 20
34.27874297455096
 10
200.2659768138622
 20
34.33601563055091
 10
200.3747026026622
 20
34.41072704335096
 10
200.4712135754622
 20
34.50125093135094
 10
200.5532351642622
 20
34.60559162255091
 10
200.6188193498622
 20
34.72143307055091
 10
200.6663872842622
 20
34.84619068015095
 10
200.6947642554622
 20
34.97706459855095
 10
200.7032101434622
 20
35.11110539375096
 10
200.6914387434622
 20
35.24527686255092
 10
200.6596191434622
 20
35.37655787055095
 10
200.6083730058622
 20
35.50196591695092
 10
200.5387631162622
 20
35.61864319215095
 10
200.4522687226622
 20
35.72392197295096
 10
200.3507534762622
 20
35.81538291375096
  0
LWPOLYLINE
  5
3CA
330
2
100
AcDbEntity
  8
0
  6
HIDDEN
100
AcDbPolyline
 90
       10
 70
     0
 43
0.0
 10
198.9668761018622
 20
34.71534658095094
 10
199.0293422266622
 20
34.59523304175096
 10
199.1088280314622
 20
34.48563702895091
 10
199.2035976490622
 20
34.38895198095096
 10
199.3115814314622
 20
34.30728937135091
 10
199.4304211530622
 20
34.24243260975095
 10
199.5575215066622
 20
34.19579808175092
 10
199.6901067850622
 20
34.16840422735091
 10
199.8252814938622
 20
34.16084929295095
 10
199.9600935930622
 20
34.17329826735095
  0
LWPOLYLINE
  5
3D6
330
2
100
AcDbEntity
  8
0
  6
HIDDEN
100
AcDbPolyline
 90
       13
 70
     0
 43
0.0
 10
198.8975498506622
 20
34.95626747055095
 10
198.9252022042622
 20
34.82353277775095
 10
198.9720818090622
 20
34.69631071215096
 10
199.0371684154622
 20
34.57737003055092
 10
199.1190455290622
 20
34.46929926735092
 10
199.2159312410622
 20
34.37445038735091
 10
199.3257170106622
 20
34.29488760495095
 10
199.4460135466622
 20
34.23234246095091
 10
199.5742028122622
 20
34.18817613775095
 10
199.7074949946622
 20
34.16334983695091
 10
199.8429892330622
 20
34.15840385615095
 10
199.9777367402622
 20
34.17344584015092
 10
200.1088049754622
 20
34.20814842255092
  0
LWPOLYLINE
  5
3E5
330
2
100
AcDbEntity
  8
0
  6
HIDDEN
100
AcDbPolyline
 90
       18
 70
     0
 43
0.0
 10
200.3300213674622
 20
35.83126292175094
 10
200.3291006490622
 20
35.83198715215095
 10
200.3286546010622
 20
35.83234270255096
 10
200.3282359322622
 20
35.83268061935092
 10
200.3278564746622
 20
35.83299190895095
 10
200.3275156778622
 20
35.83327761615092
 10
200.3272071210622
 20
35.83354443695094
 10
200.3269252346622
 20
35.83380090575096
 10
200.3266685194622
 20
35.83406346735094
 10
200.3266696346622
 20
35.83425496495095
 10
200.3269697930622
 20
35.83414175375094
 10
200.3273266170622
 20
35.83396560815094
 10
200.3277067434622
 20
35.83376068815096
 10
200.3281157866622
 20
35.83352960335094
 10
200.3285456618622
 20
35.83327923055094
 10
200.3289867658622
 20
35.83301667855096
 10
200.3294307770622
 20
35.83274804015096
 10
200.3298796682622
 20
35.83247292335096
  0
LINE
  5
3F9
330
2
100
AcDbEntity
  8
0
  6
HIDDEN
100
AcDbLine
 10
200.3309383674622
 20
35.83055003375093
 30
0.0
 11
200.3300213674622
 21
35.83126292175094
 31
0.0
  0
LINE
  5
3FA
330
2
100
AcDbEntity
  8
0
  6
HIDDEN
100
AcDbLine
 10
200.3324158570622
 20
35.82941182735092
 30
0.0
 11
200.3309383674622
 21
35.83055003375093
 31
0.0
  0
LINE
  5
3FB
330
2
100
AcDbEntity
  8
0
  6
HIDDEN
100
AcDbLine
 10
200.3507534762622
 20
35.81538291375096
 30
0.0
 11
200.3468932042622
 21
35.81835941615094
 31
0.0
  0
LINE
  5
3FC
330
2
100
AcDbEntity
  8
0
  6
HIDDEN
100
AcDbLine
 10
200.3468932042622
 20
35.81835941615094
 30
0.0
 11
200.3324158570622
 21
35.82941182735092
 31
0.0
  0
LINE
  5
3FD
330
2
100
AcDbEntity
  8
0
  6
HIDDEN
100
AcDbLine
 10
200.3509092634622
 20
35.81826779855095
 30
0.0
 11
200.3552181978622
 21
35.81517923695094
 31
0.0
  0
LINE
  5
3FE
330
2
100
AcDbEntity
  8
0
  6
HIDDEN
100
AcDbLine
 10
200.3471164986622
 20
35.82094469295094
 30
0.0
 11
200.3509092634622
 21
35.81826779855095
 31
0.0
  0
LINE
  5
3FF
330
2
100
AcDbEntity
  8
0
  6
HIDDEN
100
AcDbLine
 10
200.3438073802622
 20
35.82324651855094
 30
0.0
 11
200.3471164986622
 21
35.82094469295094
 31
0.0
  0
LINE
  5
400
330
2
100
AcDbEntity
  8
0
  6
HIDDEN
100
AcDbLine
 10
200.3409407706622
 20
35.82521317455095
 30
0.0
 11
200.3438073802622
 21
35.82324651855094
 31
0.0
  0
LINE
  5
401
330
2
100
AcDbEntity
  8
0
  6
HIDDEN
100
AcDbLine
 10
200.3384461226622
 20
35.82690189295095
 30
0.0
 11
200.3409407706622
 21
35.82521317455095
 31
0.0
  0
LINE
  5
402
330
2
100
AcDbEntity
  8
0
  6
HIDDEN
100
AcDbLine
 10
200.3363329290622
 20
35.82831369775095
 30
0.0
 11
200.3384461226622
 21
35.82690189295095
 31
0.0
  0
LINE
  5
403
330
2
100
AcDbEntity
  8
0
  6
HIDDEN
100
AcDbLine
 10
200.3345733658622
 20
35.82947409455096
 30
0.0
 11
200.3363329290622
 21
35.82831369775095
 31
0.0
  0
LINE
  5
404
330
2
100
AcDbEntity
  8
0
  6
HIDDEN
100
AcDbLine
 10
200.3331084474623
 20
35.83042768975096
 30
0.0
 11
200.3345733658622
 21
35.82947409455096
 31
0.0
  0
LINE
  5
405
330
2
100
AcDbEntity
  8
0
  6
HIDDEN
100
AcDbLine
 10
200.3318784506622
 20
35.83121766575095
 30
0.0
 11
200.3331084474623
 21
35.83042768975096
 31
0.0
  0
LINE
  5
406
330
2
100
AcDbEntity
  8
0
  6
HIDDEN
100
AcDbLine
 10
200.3308227098622
 20
35.83188594575094
 30
0.0
 11
200.3318784506622
 21
35.83121766575095
 31
0.0
  0
LINE
  5
407
330
2
100
AcDbEntity
  8
0
  6
HIDDEN
100
AcDbLine
 10
200.3298796682622
 20
35.83247292335096
 30
0.0
 11
200.3308227098622
 21
35.83188594575094
 31
0.0
  0
LWPOLYLINE
  5
408
330
2
100
AcDbEntity
  8
0
  6
HIDDEN
100
AcDbPolyline
 90
        3
 70
     0
 43
0.0
 10
200.2924210426622
 20
35.85829450255096
 10
200.1709531850622
 20
35.92149047055096
 10
200.0465503130622
 20
35.96458660015096
  0
LINE
  5
40D
330
2
100
AcDbEntity
  8
0
  6
HIDDEN
100
AcDbLine
 10
200.0963636570622
 20
35.94662553615094
 30
0.0
 11
199.9636186186622
 21
35.97977023215094
 31
0.0
  0
ARC
  5
40E
330
2
100
AcDbEntity
  8
0
  6
HIDDEN
100
AcDbCircle
 10
199.4504468122622
 20
34.91673446415095
 30
0.0
 40
0.5266915984000001
100
AcDbArc
 50
162.3037649711999
 51
204.0805871283
  0
LINE
  5
40F
330
2
100
AcDbEntity
  8
0
  6
HIDDEN
100
AcDbLine
 10
198.9412749690622
 20
34.78201967695096
 30
0.0
 11
198.9946556058622
 21
34.65651126255096
 31
0.0
  0
LINE
  5
410
330
2
100
AcDbEntity
  8
0
  6
HIDDEN
100
AcDbLine
 10
198.9945544202622
 20
34.65670728175095
 30
0.0
 11
199.0660777994622
 21
34.54031864335096
 31
0.0
  0
LINE
  5
411
330
2
100
AcDbEntity
  8
0
  6
HIDDEN
100
AcDbLine
 10
199.0540497946622
 20
35.60145368335094
 30
0.0
 11
198.9847631002622
 21
35.48408582415092
 31
0.0
  0
LINE
  5
412
330
2
100
AcDbEntity
  8
0
  6
HIDDEN
100
AcDbLine
 10
198.9853979514622
 20
35.48536768015094
 30
0.0
 11
198.9344741114622
 21
35.36048454255094
 31
0.0
  0
LWPOLYLINE
  5
413
330
2
100
AcDbEntity
  8
0
  6
HIDDEN
100
AcDbPolyline
 90
        4
 70
     0
 43
0.0
 10
198.9847631002622
 20
35.48408582415092
 10
198.9338129050622
 20
35.35843858255094
 10
198.9019025658622
 20
35.22666270735095
 10
198.8897265498622
 20
35.09162605935094
  0
LWPOLYLINE
  5
419
330
2
100
AcDbEntity
  8
0
  6
HIDDEN
100
AcDbPolyline
 90
        6
 70
     0
 43
0.0
 10
198.9688671322622
 20
35.44292150255094
 10
198.9240849370622
 20
35.31515674255095
 10
198.8986211066622
 20
35.18218730095094
 10
198.8930317370622
 20
35.04691706095096
 10
198.9074388938622
 20
34.91230014895094
 10
198.9415279418622
 20
34.78127642575091
  0
LWPOLYLINE
  5
421
330
2
100
AcDbEntity
  8
0
  6
HIDDEN
100
AcDbPolyline
 90
        4
 70
     0
 43
0.0
 10
198.9083528826622
 20
35.24629618575096
 10
198.8932091818622
 20
35.11176014095096
 10
198.8980581322622
 20
34.97646133615095
 10
198.9227938362622
 20
34.84335452175093
  0
LWPOLYLINE
  5
427
330
2
100
AcDbEntity
  8
0
  6
HIDDEN
100
AcDbPolyline
 90
        3
 70
     0
 43
0.0
 10
199.2388458618622
 20
35.79793063215092
 10
199.1389574618622
 20
35.70624934415096
 10
199.0536443114622
 20
35.60086994415096
  0
LWPOLYLINE
  5
42C
330
2
100
AcDbEntity
  8
0
  6
HIDDEN
100
AcDbPolyline
 90
        4
 70
     0
 43
0.0
 10
199.6029273834622
 20
35.97257672975095
 10
199.4733829642622
 20
35.93255930095094
 10
199.3511356250622
 20
35.87391853135097
 10
199.2382743546622
 20
35.79747864335095
  0
LWPOLYLINE
  5
432
330
2
100
AcDbEntity
  8
0
  6
HIDDEN
100
AcDbPolyline
 90
        4
 70
     0
 43
0.0
 10
199.7333537210622
 20
35.99281131375096
 10
199.6001139642622
 20
35.97192583855095
 10
199.4713652858622
 20
35.93176597935095
 10
199.3498800858622
 20
35.87319651375094
  0
LWPOLYLINE
  5
438
330
2
100
AcDbEntity
  8
0
  6
HIDDEN
100
AcDbPolyline
 90
       10
 70
     0
 43
0.0
 10
199.9650363882622
 20
35.97952580015092
 10
199.8302944410622
 20
35.99271241775096
 10
199.6950804090622
 20
35.98589740975095
 10
199.5623471898622
 20
35.95922960655096
 10
199.4349935082622
 20
35.91329140015094
 10
199.3158006042622
 20
35.84908602095095
 10
199.2073714970622
 20
35.76801563375096
 10
199.1120741402622
 20
35.67185070895095
 10
199.0319897050622
 20
35.56269136495098
 10
198.9688671322622
 20
35.44292150255094
  0
CIRCLE
  5
444
330
2
100
AcDbEntity
  8
0
  6
CONTINUOUS
100
AcDbCircle
 10
204.8086774922622
 20
35.07683315215095
 30
0.0
 40
1.323217497599999
  0
CIRCLE
  5
445
330
2
100
AcDbEntity
  8
0
  6
CONTINUOUS
100
AcDbCircle
 10
204.8086774922622
 20
35.07683315215095
 30
0.0
 40
1.411608345599999
  0
LWPOLYLINE
  5
446
330
2
100
AcDbEntity
  8
0
  6
CONTINUOUS
100
AcDbPolyline
 90
       16
 70
     0
 43
0.0
 10
205.8222027754622
 20
33.38258839695095
 10
205.7498662554622
 20
33.34225004015095
 10
205.6683928010623
 20
33.30146408975096
 10
205.5771158810622
 20
33.26116407535096
 10
205.4753998458622
 20
33.22244092655092
 10
205.3625846362622
 20
33.18654788335095
 10
205.2378902474622
 20
33.15496263695095
 10
205.1003618490622
 20
33.12952760655096
 10
204.9490406554622
 20
33.11263432655096
 10
204.7830847322622
 20
33.10733079215092
 10
204.6020431034622
 20
33.11739726575092
 10
204.4059244410622
 20
33.14741795215096
 10
204.1953435370622
 20
33.20295427695092
 10
203.9723789370622
 20
33.29056595215095
 10
203.7406626634622
 20
33.41799627375095
 10
203.5064961626622
 20
33.59406156655092
  0
LWPOLYLINE
  5
458
330
2
100
AcDbEntity
  8
0
  6
CONTINUOUS
100
AcDbPolyline
 90
       16
 70
     0
 43
0.0
 10
205.7363010490622
 20
33.52425871215095
 10
205.6706830250622
 20
33.48650111855096
 10
205.5966792282622
 20
33.44824095535094
 10
205.5136239610622
 20
33.41038466735094
 10
205.4208619354622
 20
33.37402944175096
 10
205.3177191162622
 20
33.34046410255095
 10
205.2034489594622
 20
33.31118772175094
 10
205.0772094506622
 20
33.28797883055094
 10
204.9382151786622
 20
33.27302429455096
 10
204.7858132954622
 20
33.26902509935095
 10
204.6196955690622
 20
33.27930716815095
 10
204.4399388122622
 20
33.30793076495095
 10
204.2471372826622
 20
33.35987339215091
 10
204.0431942666622
 20
33.44105206575096
 10
203.8314080378622
 20
33.55849421455096
 10
203.6175356410622
 20
33.72019690895095
  0
LWPOLYLINE
  5
46A
330
2
100
AcDbEntity
  8
0
  6
CONTINUOUS
100
AcDbPolyline
 90
        4
 70
     0
 43
0.0
 10
203.6175356410622
 20
33.72019690895095
 10
203.2871859706622
 20
34.10562815055095
 10
203.0759755946622
 20
34.57134804975092
 10
203.0037826938622
 20
35.07683315215095
  0
LWPOLYLINE
  5
470
330
2
100
AcDbEntity
  8
0
  6
CONTINUOUS
100
AcDbPolyline
 90
        4
 70
     0
 43
0.0
 10
203.5064961562622
 20
33.59406156015092
 10
203.1447813130622
 20
34.01487676015094
 10
202.9136088810622
 20
34.52396118575094
 10
202.8345792586622
 20
35.07683318575095
  0
LINE
  5
476
330
2
100
AcDbEntity
  8
0
  6
CONTINUOUS
100
AcDbLine
 10
203.5064961562622
 20
33.59406156015092
 30
0.0
 11
203.6175383098622
 21
33.72019994575095
 31
0.0
  0
LWPOLYLINE
  5
477
330
2
100
AcDbEntity
  8
0
  6
HIDDEN
100
AcDbPolyline
 90
        3
 70
     0
 43
0.0
 10
200.7022689466622
 20
35.27881442735096
 10
200.7182012666622
 20
35.17824109295094
 10
200.7228642826622
 20
35.07683315215095
  0
LINE
  5
47C
330
2
100
AcDbEntity
  8
0
  6
HIDDEN
100
AcDbLine
 10
200.5320642522622
 20
34.50991052815095
 30
0.0
 11
200.6046154602622
 21
34.61729815215096
 31
0.0
  0
LWPOLYLINE
  5
47D
330
2
100
AcDbEntity
  8
0
  6
HIDDEN
100
AcDbPolyline
 90
        6
 70
     0
 43
0.0
 10
200.6842817450622
 20
34.80735344015096
 10
200.7144353658622
 20
34.93933843215094
 10
200.7248083994622
 20
35.07432613135094
 10
200.7151743114622
 20
35.20936858255092
 10
200.6857434986622
 20
35.34151662895095
 10
200.6371586922622
 20
35.46788432975094
  0
LINE
  5
485
330
2
100
AcDbEntity
  8
0
  6
HIDDEN
100
AcDbLine
 10
200.7223362922622
 20
35.00952994895095
 30
0.0
 11
200.7222785562622
 21
35.14491560495093
 31
0.0
  0
LWPOLYLINE
  5
486
330
2
100
AcDbEntity
  8
0
  6
HIDDEN
100
AcDbPolyline
 90
       20
 70
     0
 43
0.0
 10
200.4420213114622
 20
35.74284009455095
 10
200.4481978682622
 20
35.73690930415094
 10
200.4573590378622
 20
35.72789763855095
 10
200.4671459050622
 20
35.71797644015095
 10
200.4775332762622
 20
35.70709920015096
 10
200.4885581018622
 20
35.69514311375096
 10
200.5003175258622
 20
35.68189622735096
 10
200.5128596762622
 20
35.66716784815094
 10
200.5261380186622
 20
35.65084845455095
 10
200.5401435098622
 20
35.63275401135095
 10
200.5549207930622
 20
35.61258095535094
 10
200.5704010490622
 20
35.59011515215095
 10
200.5865248122622
 20
35.56506186735095
 10
200.6032387114622
 20
35.53701431695094
 10
200.6203880554622
 20
35.50559830735096
 10
200.6377924538622
 20
35.47031484335096
 10
200.6551526474622
 20
35.43066448495096
 10
200.6720804794622
 20
35.38602581135094
 10
200.6880386138622
 20
35.33567332335096
 10
200.7022689466622
 20
35.27881442735096
  0
LWPOLYLINE
  5
49C
330
2
100
AcDbEntity
  8
0
  6
CONTINUOUS
100
AcDbPolyline
 90
        6
 70
     0
 43
0.0
 10
203.0037826938622
 20
35.07683315215095
 10
203.0293339210622
 20
35.37951420495096
 10
203.1146227050622
 20
35.69971608655094
 10
203.2565929658622
 20
35.99830480655095
 10
203.4286021226622
 20
36.24041848495096
 10
203.6175356410622
 20
36.43346939535095
  0
LWPOLYLINE
  5
4A4
330
2
100
AcDbEntity
  8
0
  6
CONTINUOUS
100
AcDbPolyline
 90
        5
 70
     0
 43
0.0
 10
208.9473167306622
 20
33.96066492015092
 10
208.9709815802622
 20
34.27723827375095
 10
208.9836770330622
 20
34.56604063215095
 10
208.9882263882622
 20
34.83110825615094
 10
208.9865068122622
 20
35.07683234415094
  0
LWPOLYLINE
  5
4AB
330
2
100
AcDbEntity
  8
0
  6
CONTINUOUS
100
AcDbPolyline
 90
        5
 70
     0
 43
0.0
 10
206.6099910698622
 20
35.07683315215095
 10
206.5511020314622
 20
34.61735403215095
 10
206.3778554746622
 20
34.18728668495091
 10
206.1008023882622
 20
33.81484456175096
 10
205.7363010490622
 20
33.52425871215095
  0
LWPOLYLINE
  5
4B2
330
2
100
AcDbEntity
  8
0
  6
CONTINUOUS
100
AcDbPolyline
 90
        5
 70
     0
 43
0.0
 10
206.5545601706622
 20
34.14692012655095
 10
206.6482191514622
 20
34.37403764175096
 10
206.7138226314622
 20
34.60326851695092
 10
206.7522006954622
 20
34.82841078095091
 10
206.7660778954622
 20
35.04427023695098
  0
LWPOLYLINE
  5
4B9
330
2
100
AcDbEntity
  8
0
  6
CONTINUOUS
100
AcDbPolyline
 90
        4
 70
     0
 43
0.0
 10
206.5545623690622
 20
34.14692466095095
 10
206.3586609450622
 20
33.84950608335091
 10
206.1118253178622
 20
33.59183598895091
 10
205.8222027898622
 20
33.38258836495092
  0
LWPOLYLINE
  5
4BF
330
2
100
AcDbEntity
  8
0
  6
CONTINUOUS
100
AcDbPolyline
 90
        3
 70
     0
 43
0.0
 10
205.8222027754622
 20
33.38258839695095
 10
205.7907809770622
 20
33.43455319375095
 10
205.7363010426622
 20
33.52425872495095
  0
LWPOLYLINE
  5
4C4
330
2
100
AcDbEntity
  8
0
  6
CONTINUOUS
100
AcDbPolyline
 90
        3
 70
     0
 43
0.0
 10
206.7660840410622
 20
35.04427035855096
 10
206.7662799514622
 20
35.06071508655094
 10
206.7663464010622
 20
35.07683281295095
  0
LWPOLYLINE
  5
4C9
330
2
100
AcDbEntity
  8
0
  6
CONTINUOUS
100
AcDbPolyline
 90
        5
 70
     0
 43
0.0
 10
206.7663305738622
 20
35.07683281455095
 10
206.7531303690622
 20
35.31253567375094
 10
206.7107285018622
 20
35.55897524975094
 10
206.6359892938622
 20
35.80880593455094
 10
206.5285862474622
 20
36.05368361615095
  0
LWPOLYLINE
  5
4D0
330
2
100
AcDbEntity
  8
0
  6
CONTINUOUS
100
AcDbPolyline
 90
        5
 70
     0
 43
0.0
 10
208.9864050378622
 20
35.07652980175092
 10
208.9833558346622
 20
35.34609472335094
 10
208.9727547098622
 20
35.63783027375095
 10
208.9523092602622
 20
35.95614683695095
 10
208.9185015402622
 20
36.30593053935095
  0
LWPOLYLINE
  5
4D7
330
2
100
AcDbEntity
  8
0
  6
CONTINUOUS
100
AcDbPolyline
 90
        4
 70
     0
 43
0.0
 10
202.6636904874622
 20
44.64422112975094
 10
201.8714538362622
 20
44.92546307855096
 10
201.0620850058622
 20
45.13794641935095
 10
200.2121220106622
 20
45.28455229935096
  0
LWPOLYLINE
  5
4DD
330
2
100
AcDbEntity
  8
0
  6
CONTINUOUS
100
AcDbPolyline
 90
        9
 70
     0
 43
0.0
 10
203.5064961594622
 20
36.55960473935095
 10
203.8511698042622
 20
36.80153041615094
 10
204.1956306698622
 20
36.95080146895094
 10
204.5241092762622
 20
37.02676967375094
 10
204.8280061322622
 20
37.04626061775096
 10
205.1002726730622
 20
37.02416789455094
 10
205.3458095434622
 20
36.97184264815095
 10
205.5811843530622
 20
36.89083715375096
 10
205.8222027866622
 20
36.77107792975096
  0
LWPOLYLINE
  5
4E8
330
2
100
AcDbEntity
  8
0
  6
CONTINUOUS
100
AcDbPolyline
 90
        3
 70
     0
 43
0.0
 10
205.8222027898622
 20
36.77107793775096
 10
205.7615539242622
 20
36.67091137295094
 10
205.7362979850622
 20
36.62940246575095
  0
LWPOLYLINE
  5
4ED
330
2
100
AcDbEntity
  8
0
  6
CONTINUOUS
100
AcDbPolyline
 90
        4
 70
     0
 43
0.0
 10
194.5950147162622
 20
45.78337361135095
 10
190.4301396106622
 20
45.94751957775094
 10
186.1578502010622
 20
45.94352915055094
 10
181.8943542842622
 20
45.76772420335092
  0
LINE
  5
4F3
330
2
100
AcDbEntity
  8
0
  6
CONTINUOUS
100
AcDbLine
 10
189.1698518525824
 20
53.07636159513901
 30
0.0
 11
198.3405350266622
 21
52.12368315215096
 31
0.0
  0
LWPOLYLINE
  5
4F4
330
2
100
AcDbEntity
  8
0
  6
CONTINUOUS
100
AcDbPolyline
 90
        4
 70
     0
 43
0.0
 10
174.2316367274622
 20
49.27309535535096
 10
182.0031508810622
 20
50.08496036495095
 10
190.1087954602622
 20
50.08524233615094
 10
197.8857182586622
 20
49.27309535535096
  0
LINE
  5
4FA
330
2
100
AcDbEntity
  8
0
  6
CONTINUOUS
100
AcDbLine
 10
173.7768199578622
 20
52.12368315215096
 30
0.0
 11
182.8762978050262
 21
53.07341332164736
 31
0.0
  0
LWPOLYLINE
  5
4FB
330
2
100
AcDbEntity
  8
0
  6
CONTINUOUS
100
AcDbPolyline
 90
        5
 70
     0
 43
0.0
 10
181.8943544346622
 20
45.76772212975098
 10
181.2041994634622
 20
45.72313382415095
 10
180.5529180474622
 20
45.67701339215093
 10
179.9595810346622
 20
45.63155943215096
 10
179.4427561466622
 20
45.58928995695095
  0
LINE
  5
502
330
2
100
AcDbEntity
  8
0
  6
CONTINUOUS
100
AcDbLine
 10
173.7768199562622
 20
52.12368316655093
 30
0.0
 11
173.7549567194622
 21
52.12018795535096
 31
0.0
  0
LINE
  5
503
330
2
100
AcDbEntity
  8
0
  6
CONTINUOUS
100
AcDbLine
 10
182.8762978050262
 20
53.07341332164736
 30
0.0
 11
189.1698518525824
 21
53.07636159513901
 31
0.0
  0
LINE
  5
504
330
2
100
AcDbEntity
  8
0
  6
CONTINUOUS
100
AcDbLine
 10
198.3623982618622
 20
52.12018792655095
 30
0.0
 11
198.3405350250622
 21
52.12368313775096
 31
0.0
  0
LWPOLYLINE
  5
505
330
2
100
AcDbEntity
  8
0
  6
CONTINUOUS
100
AcDbPolyline
 90
        5
 70
     0
 43
0.0
 10
212.2015627402622
 20
35.07683315215095
 10
212.1968707530622
 20
34.73855845455094
 10
212.1707380938622
 20
34.42277748175095
 10
212.1270070762622
 20
34.15071526895096
 10
212.0712509082622
 20
33.94108825615091
  0
LWPOLYLINE
  5
50C
330
2
100
AcDbEntity
  8
0
  6
CONTINUOUS
100
AcDbPolyline
 90
        7
 70
     0
 43
0.0
 10
211.9493863914622
 20
33.76433315215095
 10
211.8940732394622
 20
33.80826745295095
 10
211.8454855882622
 20
33.93920333935094
 10
211.8050490138622
 20
34.14730343055095
 10
211.7726478602622
 20
34.41921703375095
 10
211.7476622042622
 20
34.73700978735095
 10
211.7305349258622
 20
35.07683315215095
  0
LWPOLYLINE
  5
515
330
2
100
AcDbEntity
  8
0
  6
CONTINUOUS
100
AcDbPolyline
 90
        5
 70
     0
 43
0.0
 10
212.0490769402622
 20
33.97612016175091
 10
212.0197110826622
 20
34.14154104495094
 10
211.9948875962622
 20
34.34268382415095
 10
211.9742701546622
 20
34.57210172335095
 10
211.9576730698622
 20
34.82127080815095
  0
LINE
  5
51C
330
2
100
AcDbEntity
  8
0
  6
CONTINUOUS
100
AcDbLine
 10
212.0634124410622
 20
33.92420191695094
 30
0.0
 11
212.0490769402622
 21
33.97612016175091
 31
0.0
  0
LWPOLYLINE
  5
51D
330
2
100
AcDbEntity
  8
0
  6
CONTINUOUS
100
AcDbPolyline
 90
        3
 70
     0
 43
0.0
 10
212.0712509082622
 20
33.94108825615091
 10
212.0099892618622
 20
33.80911283695096
 10
211.9493863914622
 20
33.76433315215095
  0
LWPOLYLINE
  5
522
330
2
100
AcDbEntity
  8
0
  6
CONTINUOUS
100
AcDbPolyline
 90
        5
 70
     0
 43
0.0
 10
212.0392579578622
 20
36.21645222735094
 10
212.1028217322622
 20
36.01012741135096
 10
212.1550223162622
 20
35.73929758095096
 10
212.1895518154622
 20
35.42058938575095
 10
212.2015627402622
 20
35.07683315215095
  0
LINE
  5
529
330
2
100
AcDbEntity
  8
0
  6
CONTINUOUS
100
AcDbLine
 10
212.0083980346622
 20
36.18536363375094
 30
0.0
 11
212.0236738074622
 21
36.24626487855096
 31
0.0
  0
LINE
  5
52A
330
2
100
AcDbEntity
  8
0
  6
CONTINUOUS
100
AcDbLine
 10
211.9036723050622
 20
36.38911390255094
 30
0.0
 11
211.9073254810622
 21
36.38933315215095
 31
0.0
  0
LINE
  5
52B
330
2
100
AcDbEntity
  8
0
  6
CONTINUOUS
100
AcDbLine
 10
211.9454905098622
 20
35.08099982415098
 30
0.0
 11
211.9477076842622
 21
35.33949676655092
 31
0.0
  0
LINE
  5
52C
330
2
100
AcDbEntity
  8
0
  6
CONTINUOUS
100
AcDbLine
 10
211.9576730698622
 20
34.82127080815095
 30
0.0
 11
211.9454905098622
 21
35.08099982415098
 31
0.0
  0
LWPOLYLINE
  5
52D
330
2
100
AcDbEntity
  8
0
  6
CONTINUOUS
100
AcDbPolyline
 90
        7
 70
     0
 43
0.0
 10
211.7305349258622
 20
35.07683315215095
 10
211.7346582186622
 20
35.41470050415094
 10
211.7473978426622
 20
35.73051419855096
 10
211.7700058778622
 20
36.00295151855096
 10
211.8040596090622
 20
36.21286827055095
 10
211.8502342746622
 20
36.34474196015094
 10
211.9036723050622
 20
36.38911390255094
  0
LWPOLYLINE
  5
536
330
2
100
AcDbEntity
  8
0
  6
CONTINUOUS
100
AcDbPolyline
 90
        5
 70
     0
 43
0.0
 10
211.9477076842622
 20
35.33949676655092
 10
211.9546358730622
 20
35.58833178095096
 10
211.9665989194622
 20
35.81791099375095
 10
211.9842934682622
 20
36.01942041455098
 10
212.0083980346622
 20
36.18536363375094
  0
LWPOLYLINE
  5
53D
330
2
100
AcDbEntity
  8
0
  6
CONTINUOUS
100
AcDbPolyline
 90
        3
 70
     0
 43
0.0
 10
211.9073254810622
 20
36.38933315215095
 10
211.9715889754622
 20
36.34590374255094
 10
212.0392579578622
 20
36.21645222735094
  0
ENDSEC
  0
SECTION
  2
OBJECTS
  0
DICTIONARY
  5
1A
330
0
100
AcDbDictionary
  3
ACAD_GROUP
350
18
  3
ACAD_LAYOUT
350
549
  3
ACAD_MLINESTYLE
350
19
  3
ACAD_PLOTSETTINGS
350
54A
  3
ACAD_PLOTSTYLENAME
350
547
  3
ACDBHEADERROUNDTRIPXREC
350
58A
  3
ACDBVARIABLEDICTIONARY
350
587
  0
DICTIONARY
  5
5AB
330
2
100
AcDbDictionary
280
     1
  3
ACAD_LAYOUTSELFREF
360
5AC
  0
DICTIONARY
  5
5AD
330
7
100
AcDbDictionary
280
     1
  3
ACAD_LAYOUTSELFREF
360
5AE
  0
DICTIONARY
  5
18
102
{ACAD_REACTORS
330
1A
102
}
330
1A
100
AcDbDictionary
  0
DICTIONARY
  5
549
102
{ACAD_REACTORS
330
1A
102
}
330
1A
100
AcDbDictionary
  0
DICTIONARY
  5
19
102
{ACAD_REACTORS
330
1A
102
}
330
1A
100
AcDbDictionary
  3
STANDARD
350
1B
  0
DICTIONARY
  5
54A
102
{ACAD_REACTORS
330
1A
102
}
330
1A
100
AcDbDictionary
  0
ACDBDICTIONARYWDFLT
  5
547
102
{ACAD_REACTORS
330
1A
102
}
330
1A
100
AcDbDictionary
281
     1
  3
Normal
350
548
100
AcDbDictionaryWithDefault
340
548
  0
DICTIONARY
  5
58A
102
{ACAD_REACTORS
330
1A
102
}
330
1A
100
AcDbDictionary
  3
CEPSNTYPE
350
594
  3
DIMSTYLEDATA
350
598
  3
FINGERPRINTGUID
350
595
  3
HYPERLINKBASE
350
58D
  3
INSUNITS
350
593
  3
LAYOUTDICT
350
58F
  3
LWETCUNION
350
592
  3
PLOTSETDICT
350
590
  3
PLOTSTYLNAMDICT
350
591
  3
PSVPSCALE
350
597
  3
PUCSBASE
350
59B
  3
PUCSORGBACK
350
5A1
  3
PUCSORGBOTTOM
350
59D
  3
PUCSORGFRONT
350
5A0
  3
PUCSORGLEFT
350
59E
  3
PUCSORGRIGHT
350
59F
  3
PUCSORGTOP
350
59C
  3
PUCSORTHOREF
350
599
  3
PUCSORTHOVIEW
350
59A
  3
STYLESHEET
350
58E
  3
TSTACKALIGN
350
58B
  3
TSTACKSIZE
350
58C
  3
UCSBASE
350
5A4
  3
UCSORGBACK
350
5AA
  3
UCSORGBOTTOM
350
5A6
  3
UCSORGFRONT
350
5A9
  3
UCSORGLEFT
350
5A7
  3
UCSORGRIGHT
350
5A8
  3
UCSORGTOP
350
5A5
  3
UCSORTHOREF
350
5A2
  3
UCSORTHOVIEW
350
5A3
  3
VERSIONGUID
350
596
  0
DICTIONARY
  5
587
102
{ACAD_REACTORS
330
1A
102
}
330
1A
100
AcDbDictionary
  3
DIMASSOC
350
588
  0
XRECORD
  5
5AC
102
{ACAD_REACTORS
330
5AB
102
}
330
5AB
100
AcDbXrecord
340
2
  0
XRECORD
  5
5AE
102
{ACAD_REACTORS
330
5AD
102
}
330
5AD
100
AcDbXrecord
340
7
  0
MLINESTYLE
  5
1B
102
{ACAD_REACTORS
330
19
102
}
330
19
100
AcDbMlineStyle
  2
STANDARD
 70
     0
  3

 62
   256
 51
90.0
 52
90.0
 71
     2
 49
0.5
 62
   256
  6
BYLAYER
 49
-0.5
 62
   256
  6
BYLAYER
  0
ACDBPLACEHOLDER
  5
548
102
{ACAD_REACTORS
330
547
102
}
330
547
100
AcDbPlaceHolder
280
     0
  0
XRECORD
  5
594
102
{ACAD_REACTORS
330
58A
102
}
330
58A
100
AcDbXrecord
 90
        0
  0
XRECORD
  5
598
102
{ACAD_REACTORS
330
58A
102
}
330
58A
100
AcDbXrecord
1000
DSTYLE
1002
{
1070
   341
340
1D
1070
   342
340
1D
1002
}
  0
XRECORD
  5
595
102
{ACAD_REACTORS
330
58A
102
}
330
58A
100
AcDbXrecord
  1
{40FC7715-1530-48B9-B8AF-B2F53BACEEF1}
  0
XRECORD
  5
58D
102
{ACAD_REACTORS
330
58A
102
}
330
58A
100
AcDbXrecord
  1

  0
XRECORD
  5
593
102
{ACAD_REACTORS
330
58A
102
}
330
58A
100
AcDbXrecord
 90
        0
  0
XRECORD
  5
58F
102
{ACAD_REACTORS
330
58A
102
}
330
58A
100
AcDbXrecord
340
549
  0
XRECORD
  5
592
102
{ACAD_REACTORS
330
58A
102
}
330
58A
100
AcDbXrecord
 90
    14877
  0
XRECORD
  5
590
102
{ACAD_REACTORS
330
58A
102
}
330
58A
100
AcDbXrecord
340
54A
  0
XRECORD
  5
591
102
{ACAD_REACTORS
330
58A
102
}
330
58A
100
AcDbXrecord
340
547
  0
XRECORD
  5
597
102
{ACAD_REACTORS
330
58A
102
}
330
58A
100
AcDbXrecord
 40
0.0
  0
XRECORD
  5
59B
102
{ACAD_REACTORS
330
58A
102
}
330
58A
100
AcDbXrecord
340
0
  0
XRECORD
  5
5A1
102
{ACAD_REACTORS
330
58A
102
}
330
58A
100
AcDbXrecord
 10
0.0
 20
0.0
 30
0.0
  0
XRECORD
  5
59D
102
{ACAD_REACTORS
330
58A
102
}
330
58A
100
AcDbXrecord
 10
0.0
 20
0.0
 30
0.0
  0
XRECORD
  5
5A0
102
{ACAD_REACTORS
330
58A
102
}
330
58A
100
AcDbXrecord
 10
0.0
 20
0.0
 30
0.0
  0
XRECORD
  5
59E
102
{ACAD_REACTORS
330
58A
102
}
330
58A
100
AcDbXrecord
 10
0.0
 20
0.0
 30
0.0
  0
XRECORD
  5
59F
102
{ACAD_REACTORS
330
58A
102
}
330
58A
100
AcDbXrecord
 10
0.0
 20
0.0
 30
0.0
  0
XRECORD
  5
59C
102
{ACAD_REACTORS
330
58A
102
}
330
58A
100
AcDbXrecord
 10
0.0
 20
0.0
 30
0.0
  0
XRECORD
  5
599
102
{ACAD_REACTORS
330
58A
102
}
330
58A
100
AcDbXrecord
340
0
  0
XRECORD
  5
59A
102
{ACAD_REACTORS
330
58A
102
}
330
58A
100
AcDbXrecord
 70
     0
  0
XRECORD
  5
58E
102
{ACAD_REACTORS
330
58A
102
}
330
58A
100
AcDbXrecord
  1

  0
XRECORD
  5
58B
102
{ACAD_REACTORS
330
58A
102
}
330
58A
100
AcDbXrecord
 90
        1
  0
XRECORD
  5
58C
102
{ACAD_REACTORS
330
58A
102
}
330
58A
100
AcDbXrecord
 90
       70
  0
XRECORD
  5
5A4
102
{ACAD_REACTORS
330
58A
102
}
330
58A
100
AcDbXrecord
340
0
  0
XRECORD
  5
5AA
102
{ACAD_REACTORS
330
58A
102
}
330
58A
100
AcDbXrecord
 10
0.0
 20
0.0
 30
0.0
  0
XRECORD
  5
5A6
102
{ACAD_REACTORS
330
58A
102
}
330
58A
100
AcDbXrecord
 10
0.0
 20
0.0
 30
0.0
  0
XRECORD
  5
5A9
102
{ACAD_REACTORS
330
58A
102
}
330
58A
100
AcDbXrecord
 10
0.0
 20
0.0
 30
0.0
  0
XRECORD
  5
5A7
102
{ACAD_REACTORS
330
58A
102
}
330
58A
100
AcDbXrecord
 10
0.0
 20
0.0
 30
0.0
  0
XRECORD
  5
5A8
102
{ACAD_REACTORS
330
58A
102
}
330
58A
100
AcDbXrecord
 10
0.0
 20
0.0
 30
0.0
  0
XRECORD
  5
5A5
102
{ACAD_REACTORS
330
58A
102
}
330
58A
100
AcDbXrecord
 10
0.0
 20
0.0
 30
0.0
  0
XRECORD
  5
5A2
102
{ACAD_REACTORS
330
58A
102
}
330
58A
100
AcDbXrecord
340
0
  0
XRECORD
  5
5A3
102
{ACAD_REACTORS
330
58A
102
}
330
58A
100
AcDbXrecord
 70
     0
  0
XRECORD
  5
596
102
{ACAD_REACTORS
330
58A
102
}
330
58A
100
AcDbXrecord
  1
{10A8220F-2112-4133-8260-61C63663BFF5}
  0
DICTIONARYVAR
  5
588
102
{ACAD_REACTORS
330
587
102
}
330
587
100
DictionaryVariables
280
     0
  1
1
  0
ENDSEC
  0
EOF
