  0
SECTION
  2
HEADER
  9
$ACADVER
  1
AC1014
  9
$ACADMAINTVER
 70
     9
  9
$DWGCODEPAGE
  3
ANSI_1252
  9
$INSBASE
 10
53.18622668827867
 20
-26.61126304100828
 30
0.0
  9
$EXTMIN
 10
35.18093632509604
 20
-29.07284318964204
 30
-0.0000000349181948
  9
$EXTMAX
 10
71.18958245941607
 20
0.9949353155808893
 30
0.0000000814935746
  9
$LIMMIN
 10
0.0
 20
0.0
  9
$LIMMAX
 10
17.0
 20
11.0
  9
$ORTHOMODE
 70
     1
  9
$REGENMODE
 70
     1
  9
$FILLMODE
 70
     1
  9
$QTEXTMODE
 70
     0
  9
$MIRRTEXT
 70
     1
  9
$DRAGMODE
 70
     2
  9
$LTSCALE
 40
8.0
  9
$OSMODE
 70
    55
  9
$ATTMODE
 70
     1
  9
$TEXTSIZE
 40
0.2
  9
$TRACEWID
 40
0.05
  9
$TEXTSTYLE
  7
STANDARD
  9
$CLAYER
  8
0
  9
$CELTYPE
  6
BYLAYER
  9
$CECOLOR
 62
   256
  9
$CELTSCALE
 40
1.0
  9
$DELOBJ
 70
     1
  9
$DISPSILH
 70
     0
  9
$DIMSCALE
 40
16.0
  9
$DIMASZ
 40
0.1875
  9
$DIMEXO
 40
0.10625
  9
$DIMDLI
 40
0.6459999999999999
  9
$DIMRND
 40
0.0
  9
$DIMDLE
 40
0.0
  9
$DIMEXE
 40
0.306
  9
$DIMTP
 40
0.0
  9
$DIMTM
 40
0.0
  9
$DIMTXT
 40
0.125
  9
$DIMCEN
 40
0.153
  9
$DIMTSZ
 40
0.0
  9
$DIMTOL
 70
     0
  9
$DIMLIM
 70
     0
  9
$DIMTIH
 70
     1
  9
$DIMTOH
 70
     1
  9
$DIMSE1
 70
     0
  9
$DIMSE2
 70
     0
  9
$DIMTAD
 70
     0
  9
$DIMZIN
 70
     0
  9
$DIMBLK
  1
_FILLED
  9
$DIMASO
 70
     1
  9
$DIMSHO
 70
     1
  9
$DIMPOST
  1

  9
$DIMAPOST
  1

  9
$DIMALT
 70
     0
  9
$DIMALTD
 70
     2
  9
$DIMALTF
 40
25.4
  9
$DIMLFAC
 40
1.0
  9
$DIMTOFL
 70
     0
  9
$DIMTVP
 40
0.0
  9
$DIMTIX
 70
     0
  9
$DIMSOXD
 70
     0
  9
$DIMSAH
 70
     0
  9
$DIMBLK1
  1

  9
$DIMBLK2
  1

  9
$DIMSTYLE
  2
STANDARD
  9
$DIMCLRD
 70
     0
  9
$DIMCLRE
 70
     0
  9
$DIMCLRT
 70
     0
  9
$DIMTFAC
 40
1.0
  9
$DIMGAP
 40
0.09
  9
$DIMJUST
 70
     0
  9
$DIMSD1
 70
     0
  9
$DIMSD2
 70
     0
  9
$DIMTOLJ
 70
     1
  9
$DIMTZIN
 70
     0
  9
$DIMALTZ
 70
     0
  9
$DIMALTTZ
 70
     0
  9
$DIMFIT
 70
     3
  9
$DIMUPT
 70
     0
  9
$DIMUNIT
 70
     2
  9
$DIMDEC
 70
     4
  9
$DIMTDEC
 70
     4
  9
$DIMALTU
 70
     2
  9
$DIMALTTD
 70
     2
  9
$DIMTXSTY
  7
STANDARD
  9
$DIMAUNIT
 70
     0
  9
$LUNITS
 70
     2
  9
$LUPREC
 70
     4
  9
$SKETCHINC
 40
0.1
  9
$FILLETRAD
 40
0.0
  9
$AUNITS
 70
     0
  9
$AUPREC
 70
     0
  9
$MENU
  1
acad
  9
$ELEVATION
 40
0.0
  9
$PELEVATION
 40
0.0
  9
$THICKNESS
 40
0.0
  9
$LIMCHECK
 70
     0
  9
$BLIPMODE
 70
     0
  9
$CHAMFERA
 40
0.0
  9
$CHAMFERB
 40
0.0
  9
$CHAMFERC
 40
0.0
  9
$CHAMFERD
 40
0.0
  9
$SKPOLY
 70
     0
  9
$TDCREATE
 40
2453679.095380312
  9
$TDUPDATE
 40
2453689.429623263
  9
$TDINDWG
 40
0.0115510880
  9
$TDUSRTIMER
 40
0.0115510880
  9
$USRTIMER
 70
     1
  9
$ANGBASE
 50
0.0
  9
$ANGDIR
 70
     0
  9
$PDMODE
 70
     3
  9
$PDSIZE
 40
0.3125
  9
$PLINEWID
 40
0.0
  9
$COORDS
 70
     1
  9
$SPLFRAME
 70
     0
  9
$SPLINETYPE
 70
     6
  9
$SPLINESEGS
 70
     8
  9
$ATTDIA
 70
     0
  9
$ATTREQ
 70
     1
  9
$HANDLING
 70
 22529
  9
$HANDSEED
  5
A26
  9
$SURFTAB1
 70
     6
  9
$SURFTAB2
 70
     6
  9
$SURFTYPE
 70
     6
  9
$SURFU
 70
     6
  9
$SURFV
 70
     6
  9
$UCSNAME
  2

  9
$UCSORG
 10
0.0
 20
0.0
 30
0.0
  9
$UCSXDIR
 10
1.0
 20
0.0
 30
0.0
  9
$UCSYDIR
 10
0.0
 20
1.0
 30
0.0
  9
$PUCSNAME
  2

  9
$PUCSORG
 10
0.0
 20
0.0
 30
0.0
  9
$PUCSXDIR
 10
1.0
 20
0.0
 30
0.0
  9
$PUCSYDIR
 10
0.0
 20
1.0
 30
0.0
  9
$USERI1
 70
     0
  9
$USERI2
 70
     0
  9
$USERI3
 70
     0
  9
$USERI4
 70
     0
  9
$USERI5
 70
     0
  9
$USERR1
 40
0.0
  9
$USERR2
 40
0.0
  9
$USERR3
 40
0.0
  9
$USERR4
 40
0.0
  9
$USERR5
 40
0.0
  9
$WORLDVIEW
 70
     1
  9
$SHADEDGE
 70
     3
  9
$SHADEDIF
 70
    70
  9
$TILEMODE
 70
     1
  9
$MAXACTVP
 70
    16
  9
$PINSBASE
 10
0.0
 20
0.0
 30
0.0
  9
$PLIMCHECK
 70
     0
  9
$PEXTMIN
 10
1.000000000000000E+20
 20
1.000000000000000E+20
 30
1.000000000000000E+20
  9
$PEXTMAX
 10
-1.000000000000000E+20
 20
-1.000000000000000E+20
 30
-1.000000000000000E+20
  9
$PLIMMIN
 10
0.0
 20
0.0
  9
$PLIMMAX
 10
12.0
 20
9.0
  9
$UNITMODE
 70
     0
  9
$VISRETAIN
 70
     0
  9
$PLINEGEN
 70
     1
  9
$PSLTSCALE
 70
     0
  9
$TREEDEPTH
 70
  3020
  9
$PICKSTYLE
 70
     1
  9
$CMLSTYLE
  2
STANDARD
  9
$CMLJUST
 70
     0
  9
$CMLSCALE
 40
1.0
  9
$PROXYGRAPHICS
 70
     1
  9
$MEASUREMENT
 70
     0
  0
ENDSEC
  0
SECTION
  2
CLASSES
  0
CLASS
  1
LWPOLYLINE
  2
AcDbPolyline
  3
AutoCAD 2000
 90
        0
280
     0
281
     1
  0
CLASS
  1
XRECORD
  2
AcDbXrecord
  3
AutoCAD 2000
 90
        0
280
     0
281
     0
  0
CLASS
  1
ACDBDICTIONARYWDFLT
  2
AcDbDictionaryWithDefault
  3
AutoCAD 2000
 90
        0
280
     0
281
     0
  0
CLASS
  1
ACDBPLACEHOLDER
  2
AcDbPlaceHolder
  3
AutoCAD 2000
 90
        0
280
     0
281
     0
  0
CLASS
  1
LAYOUT
  2
AcDbLayout
  3
AutoCAD 2000
 90
        0
280
     0
281
     0
  0
CLASS
  1
DICTIONARYVAR
  2
AcDbDictionaryVar
  3
AutoCAD 2000
 90
        0
280
     0
281
     0
  0
CLASS
  1
LONG_TRANSACTION
  2
AcDbLongTransaction
  3
AutoCAD 2000
 90
        0
280
     0
281
     0
  0
CLASS
  1
LWPOLYLINE
  2
AcDbPolyline
  3
AutoCAD 2000
 90
        0
280
     0
281
     1
  0
CLASS
  1
HATCH
  2
AcDbHatch
  3
AutoCAD 2000
 90
        0
280
     0
281
     1
  0
CLASS
  1
XRECORD
  2
AcDbXrecord
  3
AutoCAD 2000
 90
        0
280
     0
281
     0
  0
ENDSEC
  0
SECTION
  2
TABLES
  0
TABLE
  2
VPORT
  5
12
330
0
100
AcDbSymbolTable
 70
     3
  0
VPORT
  5
A00
330
12
100
AcDbSymbolTableRecord
100
AcDbViewportTableRecord
  2
*ACTIVE
 70
     0
 10
0.0
 20
0.0
 11
1.0
 21
1.0
 12
53.18525921717366
 22
-14.03895396740215
 13
0.0
 23
0.0
 14
1.0
 24
1.0
 15
0.0
 25
0.0
 16
0.0
 26
0.0
 36
1.0
 17
0.0
 27
0.0
 37
0.0
 40
39.83386094685691
 41
1.786792452830188
 42
50.0
 43
0.0
 44
0.0
 50
0.0
 51
0.0
 71
     0
 72
   100
 73
     1
 74
     1
 75
     0
 76
     0
 77
     0
 78
     0
  0
ENDTAB
  0
TABLE
  2
LTYPE
  5
D
330
0
100
AcDbSymbolTable
 70
     3
  0
LTYPE
  5
E
330
D
100
AcDbSymbolTableRecord
100
AcDbLinetypeTableRecord
  2
BYBLOCK
 70
     0
  3

 72
    65
 73
     0
 40
0.0
  0
LTYPE
  5
F
330
D
100
AcDbSymbolTableRecord
100
AcDbLinetypeTableRecord
  2
BYLAYER
 70
     0
  3

 72
    65
 73
     0
 40
0.0
  0
LTYPE
  5
5
330
D
100
AcDbSymbolTableRecord
100
AcDbLinetypeTableRecord
  2
CONTINUOUS
 70
     0
  3
Solid line
 72
    65
 73
     0
 40
0.0
  0
LTYPE
  5
25
330
D
100
AcDbSymbolTableRecord
100
AcDbLinetypeTableRecord
  2
CENTER
 70
     0
  3
____ _ ____ _ ____ _ ____ _ ____ _ ____ _ ____
 72
    65
 73
     4
 40
0.6
 49
0.375
 74
     0
 49
-0.075
 74
     0
 49
0.075
 74
     0
 49
-0.075
 74
     0
  0
LTYPE
  5
28
330
D
100
AcDbSymbolTableRecord
100
AcDbLinetypeTableRecord
  2
HIDDEN
 70
     0
  3
- - - - - - - - - - - - - - - - - - - -
 72
    65
 73
     2
 40
0.2
 49
0.1
 74
     0
 49
-0.1
 74
     0
  0
ENDTAB
  0
TABLE
  2
LAYER
  5
A
330
0
100
AcDbSymbolTable
 70
     2
  0
LAYER
  5
4
330
A
100
AcDbSymbolTableRecord
100
AcDbLayerTableRecord
  2
0
 70
     0
 62
     7
  6
CONTINUOUS
  0
LAYER
  5
22
330
A
100
AcDbSymbolTableRecord
100
AcDbLayerTableRecord
  2
CENTER
 70
     0
 62
     1
  6
CENTER
  0
ENDTAB
  0
TABLE
  2
STYLE
  5
B
330
0
100
AcDbSymbolTable
 70
     1
  0
STYLE
  5
C
330
B
100
AcDbSymbolTableRecord
100
AcDbTextStyleTableRecord
  2
STANDARD
 70
     0
 40
0.0
 41
0.8
 50
0.0
 71
     0
 42
0.2
  3
txt
  4

  0
ENDTAB
  0
TABLE
  2
VIEW
  5
10
330
0
100
AcDbSymbolTable
 70
     0
  0
ENDTAB
  0
TABLE
  2
UCS
  5
11
330
0
100
AcDbSymbolTable
 70
     0
  0
ENDTAB
  0
TABLE
  2
APPID
  5
14
330
0
100
AcDbSymbolTable
 70
     1
  0
APPID
  5
15
330
14
100
AcDbSymbolTableRecord
100
AcDbRegAppTableRecord
  2
ACAD
 70
     0
  0
ENDTAB
  0
TABLE
  2
DIMSTYLE
  5
16
330
0
100
AcDbSymbolTable
 70
     1
  0
DIMSTYLE
105
1C
330
16
100
AcDbSymbolTableRecord
100
AcDbDimStyleTableRecord
  2
STANDARD
 70
     0
  3

  4

  5
_FILLED
  6
_FILLED
  7
_FILLED
 40
1.0
 41
0.1875
 42
0.0625
 43
0.38
 44
0.18
 45
0.0
 46
0.0
 47
0.00001
 48
0.00001
140
0.125
141
0.09
142
0.0
143
25.4
144
1.0
145
0.0
146
1.0
147
0.09
 71
     0
 72
     0
 73
     1
 74
     1
 75
     0
 76
     0
 77
     0
 78
     4
170
     0
171
     2
172
     0
173
     0
174
     0
175
     0
176
     0
177
     0
178
     0
270
     2
271
     4
272
     4
273
     2
274
     2
340
C
275
     0
280
     0
281
     0
282
     0
283
     1
284
     0
285
     0
286
     0
287
     3
288
     0
  0
ENDTAB
  0
TABLE
  2
BLOCK_RECORD
  5
1
330
0
100
AcDbSymbolTable
 70
     1
  0
BLOCK_RECORD
  5
2
102
{ACAD_XDICTIONARY
360
A22
102
}
330
1
100
AcDbSymbolTableRecord
100
AcDbBlockTableRecord
  2
*MODEL_SPACE
  0
BLOCK_RECORD
  5
7
102
{ACAD_XDICTIONARY
360
A24
102
}
330
1
100
AcDbSymbolTableRecord
100
AcDbBlockTableRecord
  2
*PAPER_SPACE
  0
BLOCK_RECORD
  5
1D
330
1
100
AcDbSymbolTableRecord
100
AcDbBlockTableRecord
  2
_FILLED
  0
ENDTAB
  0
ENDSEC
  0
SECTION
  2
BLOCKS
  0
BLOCK
  5
3
330
2
100
AcDbEntity
  8
0
100
AcDbBlockBegin
  2
*MODEL_SPACE
 70
     0
 10
0.0
 20
0.0
 30
0.0
  3
*MODEL_SPACE
  1

  0
ENDBLK
  5
6
330
2
100
AcDbEntity
  8
0
100
AcDbBlockEnd
  0
BLOCK
  5
8
330
7
100
AcDbEntity
 67
     1
  8
0
100
AcDbBlockBegin
  2
*PAPER_SPACE
 70
     0
 10
0.0
 20
0.0
 30
0.0
  3
*PAPER_SPACE
  1

  0
ENDBLK
  5
9
330
7
100
AcDbEntity
 67
     1
  8
0
100
AcDbBlockEnd
  0
BLOCK
  5
1F
330
1D
100
AcDbEntity
  8
0
100
AcDbBlockBegin
  2
_FILLED
 70
     0
 10
0.0
 20
0.0
 30
0.0
  3
_FILLED
  1

  0
SOLID
  5
1E
330
1D
100
AcDbEntity
  8
0
  6
BYBLOCK
 62
     0
100
AcDbTrace
 10
0.0
 20
0.0
 30
0.0
 11
-1.0
 21
0.1666666667
 31
0.0
 12
-1.0
 22
-0.1666666667
 32
0.0
 13
-1.0
 23
-0.1666666667
 33
0.0
  0
ENDBLK
  5
20
330
1D
100
AcDbEntity
  8
0
  6
BYBLOCK
 62
     0
100
AcDbBlockEnd
  0
ENDSEC
  0
SECTION
  2
ENTITIES
  0
LINE
  5
21
330
2
100
AcDbEntity
  8
CENTER
100
AcDbLine
 10
50.51397166754623
 20
-3.965298128420496
 30
0.0
 11
55.85650285154094
 21
-3.965298128420496
 31
0.0
  0
LWPOLYLINE
  5
26
330
2
100
AcDbEntity
  8
0
  6
HIDDEN
100
AcDbPolyline
 90
        6
 70
     0
 43
0.0
 10
54.3611973907436
 20
-3.296623552420495
 10
54.3248563347436
 20
-3.229593757220495
 10
54.11853152034362
 20
-2.963797803620519
 10
53.84770168994362
 20
-2.759277829220518
 10
53.52899349474359
 20
-2.629113989220495
 10
53.18523725954358
 20
-2.584581270820518
  0
LWPOLYLINE
  5
2F
330
2
100
AcDbEntity
  8
0
  6
HIDDEN
100
AcDbPolyline
 90
        6
 70
     0
 43
0.0
 10
54.2940514947436
 20
-3.190535706020494
 10
54.1291805731436
 20
-2.997104442020496
 10
53.92858336994359
 20
-2.838874293220495
 10
53.6993263267436
 20
-2.720928965220519
 10
53.4493559187436
 20
-2.6474274788205
 10
53.18740506114361
 20
-2.622468861220507
  0
LWPOLYLINE
  5
37
330
2
100
AcDbEntity
  8
0
  6
CONTINUOUS
100
AcDbPolyline
 90
        4
 70
     0
 43
0.0
 10
54.29047404834361
 20
-3.262471595620507
 10
54.04559165474359
 20
-2.982832810020507
 10
53.7310084659436
 20
-2.782787520420495
 10
53.37221013794359
 20
-2.67854220842052
  0
LINE
  5
3D
330
2
100
AcDbEntity
  8
0
  6
CONTINUOUS
100
AcDbLine
 10
44.66632652597814
 20
-20.55473637802052
 30
0.0
 11
61.50319185954359
 21
-20.55473637802052
 31
0.0
  0
LINE
  5
3E
330
2
100
AcDbEntity
  8
0
  6
HIDDEN
 62
     9
100
AcDbLine
 10
54.49499205954359
 20
-20.05473637802052
 30
0.0
 11
51.8754824611436
 21
-20.05473637802052
 31
0.0
  0
LINE
  5
3F
330
2
100
AcDbEntity
  8
0
  6
HIDDEN
 62
     9
100
AcDbLine
 10
54.50846056514362
 20
-20.27348637802052
 30
0.0
 11
51.8754824611436
 21
-20.27348637802052
 31
0.0
  0
LINE
  5
40
330
2
100
AcDbEntity
  8
0
  6
CONTINUOUS
100
AcDbLine
 10
52.32524426434358
 20
-22.05473637802052
 30
0.0
 11
54.04523025474361
 21
-22.05473637802052
 31
0.0
  0
LWPOLYLINE
  5
41
330
2
100
AcDbEntity
  8
0
  6
CONTINUOUS
100
AcDbPolyline
 90
       12
 70
     0
 43
0.0
 10
51.8714397603436
 20
-3.965298128420496
 10
51.9246577907436
 20
-4.3315470500205
 10
52.08000047234358
 20
-4.668124661220499
 10
52.3248828643436
 20
-4.947763446820498
 10
52.63946605474359
 20
-5.147808736420497
 10
52.9982643811436
 20
-5.2520540484205
 10
53.37221013794359
 20
-5.2520540484205
 10
53.7310084659436
 20
-5.147808736420497
 10
54.04559165474359
 20
-4.947763446820498
 10
54.29047404834361
 20
-4.668124661220499
 10
54.4458167299436
 20
-4.3315470500205
 10
54.49903475874362
 20
-3.965298128420496
  0
LWPOLYLINE
  5
4F
330
2
100
AcDbEntity
  8
0
  6
CONTINUOUS
100
AcDbPolyline
 90
        6
 70
     0
 43
0.0
 10
53.37221013794359
 20
-5.215901680420497
 10
53.7310084659436
 20
-5.111656368420494
 10
54.04559165474359
 20
-4.911611078820495
 10
54.29047404834361
 20
-4.631972293220496
 10
54.4458167299436
 20
-4.295394682020496
 10
54.49389023714357
 20
-3.964550600420519
  0
LWPOLYLINE
  5
57
330
2
100
AcDbEntity
  8
0
  6
CONTINUOUS
100
AcDbPolyline
 90
        5
 70
     0
 43
0.0
 10
53.5231046115436
 20
-5.124514678820499
 10
53.83891830754359
 20
-4.994852584420495
 10
54.11135562594359
 20
-4.7878364148205
 10
54.32127237794358
 20
-4.517096968420499
 10
54.4531460691436
 20
-4.202521056420518
  0
LINE
  5
5E
330
2
100
AcDbEntity
  8
0
  6
CONTINUOUS
100
AcDbLine
 10
53.44790087394358
 20
-5.184229530020498
 30
0.0
 11
53.69673588834359
 21
-5.11010988842052
 31
0.0
  0
LWPOLYLINE
  5
5F
330
2
100
AcDbEntity
  8
0
  6
CONTINUOUS
100
AcDbPolyline
 90
       14
 70
     0
 43
0.0
 10
53.18523725954358
 20
-15.05474150922052
 10
53.72099037154359
 20
-14.99531466602051
 10
54.2957215891436
 20
-14.79839234282053
 10
54.88850174594358
 20
-14.44612974922049
 10
55.47846641954359
 20
-13.9349421316205
 10
56.0512084499436
 20
-13.2678325828205
 10
56.5979130243436
 20
-12.44734804682049
 10
57.1125405763436
 20
-11.47326175562052
 10
57.59018275394359
 20
-10.34245095562052
 10
58.02616596834361
 20
-9.04926781162052
 10
58.41525774274359
 20
-7.585765334820518
 10
58.75006614274361
 20
-5.878908597220497
 10
59.01695639874361
 20
-4.0408130596205
 10
59.18564896345328
 20
-1.992236378020517
  0
LINE
  5
6F
330
2
100
AcDbEntity
  8
0
  6
CONTINUOUS
100
AcDbLine
 10
52.09148725954358
 20
-21.33598637802052
 30
0.0
 11
54.27898012194361
 21
-21.33598637802052
 31
0.0
  0
LINE
  5
70
330
2
100
AcDbEntity
  8
0
  6
CONTINUOUS
100
AcDbLine
 10
54.31023725954358
 20
-21.30473637802052
 30
0.0
 11
52.06023725954358
 21
-21.30473637802052
 31
0.0
  0
LINE
  5
71
330
2
100
AcDbEntity
  8
0
  6
CONTINUOUS
100
AcDbLine
 10
36.0183505123436
 20
-0.4922363780205182
 30
0.0
 11
70.35212400834359
 21
-0.4922363780205182
 31
0.0
  0
LINE
  5
72
330
2
100
AcDbEntity
  8
0
  6
CONTINUOUS
100
AcDbLine
 10
35.77917660834362
 20
-0.6589030564204954
 30
0.0
 11
70.59129791074358
 21
-0.6589030564204954
 31
0.0
  0
LINE
  5
73
330
2
100
AcDbEntity
  8
0
  6
CONTINUOUS
100
AcDbLine
 10
70.13164948834361
 20
-1.177083674020519
 30
0.0
 11
36.47298906114361
 21
-1.177189797220517
 31
0.0
  0
LINE
  5
74
330
2
100
AcDbEntity
  8
0
  6
CONTINUOUS
100
AcDbLine
 10
35.18523725954358
 20
-1.992236378020518
 30
0.0
 11
71.18523725954358
 21
-1.992236378020518
 31
0.0
  0
LINE
  5
76
330
2
100
AcDbEntity
  8
0
  6
CONTINUOUS
 62
     9
100
AcDbLine
 10
54.96326876354363
 20
-0.9691615060204945
 30
0.0
 11
46.51863343874362
 21
-0.9691155044204968
 31
0.0
  0
LINE
  5
77
330
2
100
AcDbEntity
  8
CENTER
100
AcDbLine
 10
53.18523725954358
 20
-23.6547363780205
 30
0.0
 11
53.18523725954358
 21
0.9940643456591722
 31
0.0
  0
LWPOLYLINE
  5
78
330
2
100
AcDbEntity
  8
0
  6
HIDDEN
 62
     9
100
AcDbPolyline
 90
        7
 70
     0
 43
0.0
 10
38.5533183091436
 20
-1.1928058276205
 10
38.9645185763436
 20
-4.073444478820515
 10
39.48372329474361
 20
-7.112519408420507
 10
40.07529491234359
 20
-9.966658976420507
 10
40.73725834274358
 20
-12.71612094442049
 10
41.45270784354361
 20
-15.31788173642049
 10
42.09084622434358
 20
-17.39949163242053
  0
LWPOLYLINE
  5
81
330
2
100
AcDbEntity
  8
0
  6
HIDDEN
 62
     9
100
AcDbPolyline
 90
        7
 70
     0
 43
0.0
 10
38.77033412514359
 20
-1.165155395620498
 10
39.18042558914359
 20
-4.0382295588205
 10
39.69833406754358
 20
-7.070137131620494
 10
40.28844980994361
 20
-9.917480946020507
 10
40.9488536643436
 20
-12.66062439562049
 10
41.66264074754358
 20
-15.25639984042051
 10
42.29914020354359
 20
-17.33266739562049
  0
LWPOLYLINE
  5
8A
330
2
100
AcDbEntity
  8
0
  6
CONTINUOUS
100
AcDbPolyline
 90
       14
 70
     0
 43
0.0
 10
47.184825556262
 20
-1.992236378020517
 10
47.35351812194361
 20
-4.0408130596205
 10
47.62040837634359
 20
-5.878908597220497
 10
47.95521677794361
 20
-7.585765334820518
 10
48.34430855074359
 20
-9.04926781162052
 10
48.7802917651436
 20
-10.34245095562052
 10
49.25793394274359
 20
-11.47326175562052
 10
49.7725614963436
 20
-12.44734804682049
 10
50.3192660707436
 20
-13.2678325828205
 10
50.8920080995436
 20
-13.9349421316205
 10
51.48197277314361
 20
-14.44612974922049
 10
52.07475293154359
 20
-14.79839234282053
 10
52.64948414754361
 20
-14.99531466602051
 10
53.18523725954358
 20
-15.05474150922052
  0
LWPOLYLINE
  5
9A
330
2
100
AcDbEntity
  8
0
  6
CONTINUOUS
100
AcDbPolyline
 90
        5
 70
     0
 43
0.0
 10
36.93562736566774
 20
-1.992236378020518
 10
38.18821316834359
 20
-5.71741165962052
 10
39.02147452834361
 20
-9.761457968420497
 10
39.51068155714361
 20
-13.80551077482049
 10
39.7821528979436
 20
-17.71831075402052
  0
LWPOLYLINE
  5
A1
330
2
100
AcDbEntity
  8
0
  6
CONTINUOUS
100
AcDbPolyline
 90
        7
 70
     0
 43
0.0
 10
41.4288809667436
 20
-24.81626380682049
 10
41.3320329043436
 20
-25.0122992132205
 10
41.26051755074359
 20
-25.21344603562052
 10
41.2179029235436
 20
-25.4077168980205
 10
41.20344374754358
 20
-25.6003651908205
 10
41.21806403234359
 20
-25.78224934282053
 10
41.26150215714358
 20
-25.95243468202049
  0
LWPOLYLINE
  5
AA
330
2
100
AcDbEntity
  8
0
  6
CONTINUOUS
100
AcDbPolyline
 90
        4
 70
     0
 43
0.0
 10
43.82454431074358
 20
-25.05564568682051
 10
43.7799866995436
 20
-25.10821164522052
 10
43.73297190114359
 20
-25.1612850708205
 10
43.6834481203436
 20
-25.2149121412205
  0
LINE
  5
B0
330
2
100
AcDbEntity
  8
CENTER
100
AcDbLine
 10
42.14810460034359
 20
-29.07039763593803
 30
0.0
 11
42.14810460034359
 21
-22.9536379757475
 31
0.0
  0
LINE
  5
B1
330
2
100
AcDbEntity
  8
0
  6
CONTINUOUS
100
AcDbLine
 10
42.77737295714359
 20
-26.48319857962052
 30
0.0
 11
42.63609947234357
 21
-26.61723637802051
 31
0.0
  0
LINE
  5
B2
330
2
100
AcDbEntity
  8
0
  6
CONTINUOUS
100
AcDbLine
 10
41.50629342754358
 20
-26.31918185322052
 30
0.0
 11
41.51171797634358
 21
-26.33423890762049
 31
0.0
  0
LINE
  5
B3
330
2
100
AcDbEntity
  8
0
  6
CONTINUOUS
100
AcDbLine
 10
41.26150215714358
 20
-25.95243468202049
 30
0.0
 11
41.31647608514359
 21
-26.07695955722051
 31
0.0
  0
LINE
  5
B4
330
2
100
AcDbEntity
  8
0
  6
CONTINUOUS
100
AcDbLine
 10
41.31592423554359
 20
-26.0759187300205
 30
0.0
 11
41.31647608514359
 21
-26.07695955722051
 31
0.0
  0
LINE
  5
B5
330
2
100
AcDbEntity
  8
0
  6
CONTINUOUS
100
AcDbLine
 10
41.31647608514359
 20
-26.07695955722051
 30
0.0
 11
41.35515844674358
 21
-26.14320280202051
 31
0.0
  0
LWPOLYLINE
  5
B6
330
2
100
AcDbEntity
  8
0
  6
CONTINUOUS
100
AcDbPolyline
 90
        3
 70
     0
 43
0.0
 10
41.31592423554359
 20
-26.0759187300205
 10
41.38712491074358
 20
-26.1901329940205
 10
41.46248486914358
 20
-26.28242575082051
  0
LINE
  5
BB
330
2
100
AcDbEntity
  8
0
  6
CONTINUOUS
100
AcDbLine
 10
41.35515844674358
 20
-26.14320280202051
 30
0.0
 11
41.4620776883436
 21
-26.28197194762051
 31
0.0
  0
LINE
  5
BC
330
2
100
AcDbEntity
  8
0
  6
CONTINUOUS
100
AcDbLine
 10
41.4620776883436
 20
-26.28197194762051
 30
0.0
 11
41.46248486914358
 21
-26.28242575082051
 31
0.0
  0
LINE
  5
BD
330
2
100
AcDbEntity
  8
0
  6
CONTINUOUS
100
AcDbLine
 10
41.4620776883436
 20
-26.28197194762051
 30
0.0
 11
41.48018584354359
 21
-26.30146654762052
 31
0.0
  0
LWPOLYLINE
  5
BE
330
2
100
AcDbEntity
  8
0
  6
CONTINUOUS
100
AcDbPolyline
 90
        4
 70
     0
 43
0.0
 10
41.6352205987436
 20
-26.46200522442049
 10
41.67915879874359
 20
-26.50880349322051
 10
41.73307818914359
 20
-26.56766749002051
 10
41.77733721474358
 20
-26.61723637802051
  0
LWPOLYLINE
  5
C4
330
2
100
AcDbEntity
  8
0
  6
CONTINUOUS
100
AcDbPolyline
 90
        3
 70
     0
 43
0.0
 10
41.4802073827436
 20
-26.30148940842049
 10
41.4957170339436
 20
-26.3177594516205
 10
41.5531992947436
 20
-26.37669638602051
  0
LINE
  5
C9
330
2
100
AcDbEntity
  8
0
  6
CONTINUOUS
100
AcDbLine
 10
41.4893554115436
 20
-26.31113632842049
 30
0.0
 11
41.50498113634356
 21
-26.3273454708205
 31
0.0
  0
LWPOLYLINE
  5
CA
330
2
100
AcDbEntity
  8
0
  6
CONTINUOUS
100
AcDbPolyline
 90
        3
 70
     0
 43
0.0
 10
41.5531992947436
 20
-26.37669638602051
 10
41.60081089794357
 20
-26.42596066122052
 10
41.6352224787436
 20
-26.46200720522049
  0
LINE
  5
CF
330
2
100
AcDbEntity
  8
0
  6
CONTINUOUS
100
AcDbLine
 10
41.77733629954359
 20
-26.61723637802051
 30
0.0
 11
42.63609947074357
 21
-26.61723637802051
 31
0.0
  0
LWPOLYLINE
  5
D0
330
2
100
AcDbEntity
  8
0
  6
CONTINUOUS
100
AcDbPolyline
 90
        9
 70
     0
 43
0.0
 10
43.6813816019436
 20
-25.21710374602052
 10
43.59391426114357
 20
-25.32708902762049
 10
43.51243004194357
 20
-25.4569435428205
 10
43.43312164834358
 20
-25.59887808362051
 10
43.35303446754358
 20
-25.74585992842052
 10
43.27137594754358
 20
-25.8896322436205
 10
43.18105896514359
 20
-26.03433584682051
 10
43.07761220034358
 20
-26.17798359242049
 10
42.9576651283436
 20
-26.31462203242049
  0
LWPOLYLINE
  5
DB
330
2
100
AcDbEntity
  8
0
  6
CONTINUOUS
100
AcDbPolyline
 90
        4
 70
     0
 43
0.0
 10
42.90560294434359
 20
-26.36442711402052
 10
42.86204272674356
 20
-26.4041494356205
 10
42.81926002754359
 20
-26.44377728522052
 10
42.77737295714359
 20
-26.48319857962052
  0
LWPOLYLINE
  5
E1
330
2
100
AcDbEntity
  8
0
  6
CONTINUOUS
100
AcDbPolyline
 90
        4
 70
     0
 43
0.0
 10
42.9576651283436
 20
-26.31462203242049
 10
42.9408072835436
 20
-26.33135134122051
 10
42.9234583779436
 20
-26.34795960842049
 10
42.90560294434359
 20
-26.36442711402052
  0
LINE
  5
E7
330
2
100
AcDbEntity
  8
0
  6
CONTINUOUS
100
AcDbLine
 10
43.6834481203436
 20
-25.2149121412205
 30
0.0
 11
43.6813816019436
 21
-25.21710374602052
 31
0.0
  0
LINE
  5
E8
330
2
100
AcDbEntity
  8
0
  6
HIDDEN
 62
     9
100
AcDbLine
 10
45.67921428194359
 20
-19.39232068362049
 30
0.0
 11
51.1090388579436
 21
-19.54296953642051
 31
0.0
  0
LINE
  5
E9
330
2
100
AcDbEntity
  8
0
  6
HIDDEN
 62
     9
100
AcDbLine
 10
45.66374978114359
 20
-19.6105233700205
 30
0.0
 11
51.22252548514362
 21
-19.77638381962051
 31
0.0
  0
LWPOLYLINE
  5
EA
330
2
100
AcDbEntity
  8
0
  6
CONTINUOUS
100
AcDbPolyline
 90
        8
 70
     0
 43
0.0
 10
43.09507383394358
 20
-22.2281929972205
 10
42.9099247331436
 20
-21.91360171882049
 10
42.74772754754359
 20
-21.55708427882049
 10
42.61088147074359
 20
-21.16355242122049
 10
42.5021984675436
 20
-20.74090665482052
 10
42.42318744674358
 20
-20.29501002602052
 10
42.37539802274358
 20
-19.83492961322049
 10
42.35938400994358
 20
-19.36723637802051
  0
LWPOLYLINE
  5
F4
330
2
100
AcDbEntity
  8
0
  6
CONTINUOUS
100
AcDbPolyline
 90
        7
 70
     0
 43
0.0
 10
42.78326659234358
 20
-22.2228653364205
 10
42.59846238114358
 20
-21.9088600948205
 10
42.43656705794358
 20
-21.55300617002049
 10
42.2999750867436
 20
-21.1602046612205
 10
42.19149460674357
 20
-20.7383455204205
 10
42.11263122914357
 20
-20.29328118122051
 10
42.06493093794359
 20
-19.83405839562049
  0
LWPOLYLINE
  5
104
330
2
100
AcDbEntity
  8
0
  6
CONTINUOUS
100
AcDbPolyline
 90
        5
 70
     0
 43
0.0
 10
41.89489673314358
 20
-19.62108523882051
 10
41.9333042883436
 20
-20.0287500372205
 10
42.00104434114358
 20
-20.43396918442051
 10
42.09681128514358
 20
-20.82624705642052
 10
42.2180040099436
 20
-21.19565604202049
  0
LWPOLYLINE
  5
10B
330
2
100
AcDbEntity
  8
0
  6
CONTINUOUS
100
AcDbPolyline
 90
        5
 70
     0
 43
0.0
 10
41.89489673314358
 20
-19.62108523882051
 10
41.71559162594356
 20
-19.93741067882051
 10
41.58527335394359
 20
-20.22941005802051
 10
41.5057818915436
 20
-20.49226357322051
 10
41.4769359347436
 20
-20.7220118772205
  0
LWPOLYLINE
  5
126
330
2
100
AcDbEntity
  8
0
  6
CONTINUOUS
100
AcDbPolyline
 90
        5
 70
     0
 43
0.0
 10
42.8961400083436
 20
-19.62108523882051
 10
42.87674380194359
 20
-20.02722893802052
 10
42.88063859394358
 20
-20.43147749642052
 10
42.90748875394357
 20
-20.8234758884205
 10
42.9559711491436
 20
-21.19338446122049
  0
LWPOLYLINE
  5
12D
330
2
100
AcDbEntity
  8
0
  6
CONTINUOUS
100
AcDbPolyline
 90
        5
 70
     0
 43
0.0
 10
42.72260417572396
 20
-19.5214150542175
 10
42.7127235107436
 20
-19.9232667636205
 10
42.72711709794358
 20
-20.3323710148205
 10
42.76555397954358
 20
-20.72940370282051
 10
42.82656677954359
 20
-21.1044990900205
  0
LWPOLYLINE
  5
134
330
2
100
AcDbEntity
  8
0
  6
CONTINUOUS
100
AcDbPolyline
 90
       11
 70
     0
 43
0.0
 10
42.73242871394358
 20
-21.0467292276205
 10
42.70386422594358
 20
-20.94687365002051
 10
42.67484357954358
 20
-20.8365781668205
 10
42.64567378914359
 20
-20.71455443722052
 10
42.61680308834359
 20
-20.57949356042049
 10
42.5888318275436
 20
-20.43002981802052
 10
42.56252460034359
 20
-20.2646422052205
 10
42.5388508467436
 20
-20.0815849124205
 10
42.51904533474357
 20
-19.8787343684205
 10
42.50471637954357
 20
-19.65325983242049
 10
42.49807918434357
 20
-19.4023828884205
  0
LWPOLYLINE
  5
141
330
2
100
AcDbEntity
  8
0
  6
CONTINUOUS
100
AcDbPolyline
 90
        3
 70
     0
 43
0.0
 10
45.01834603234359
 20
-20.7220118772205
 10
44.5147570915436
 20
-20.49111150602049
 10
44.24342674434359
 20
-20.3583401300205
  0
LWPOLYLINE
  5
146
330
2
100
AcDbEntity
  8
0
  6
CONTINUOUS
100
AcDbPolyline
 90
        3
 70
     0
 43
0.0
 10
44.95433303234359
 20
-20.6838529876205
 10
44.46394043874359
 20
-20.46400438122051
 10
44.24382299234357
 20
-20.35752102282052
  0
LWPOLYLINE
  5
14B
330
2
100
AcDbEntity
  8
0
  6
CONTINUOUS
100
AcDbPolyline
 90
        4
 70
     0
 43
0.0
 10
42.54461982754359
 20
-21.88832406922049
 10
42.60742054274358
 20
-21.99131587722051
 10
42.6721814467436
 20
-22.09015300682052
 10
42.80692510114358
 20
-22.2665059572205
  0
LWPOLYLINE
  5
151
330
2
100
AcDbEntity
  8
0
  6
CONTINUOUS
100
AcDbPolyline
 90
        5
 70
     0
 43
0.0
 10
42.8619625491436
 20
-21.4238096692205
 10
42.83146435394357
 20
-21.34400584202051
 10
42.8000751331436
 20
-21.25669962762052
 10
42.76780091234357
 20
-21.16064195082051
 10
42.7347437427436
 20
-21.05449409002051
  0
LINE
  5
15F
330
2
100
AcDbEntity
  8
0
  6
CONTINUOUS
100
AcDbLine
 10
42.0675976547436
 20
-24.15039022282051
 30
0.0
 11
42.89559094594356
 21
-23.25348101322052
 31
0.0
  0
LWPOLYLINE
  5
160
330
2
100
AcDbEntity
  8
0
  6
CONTINUOUS
100
AcDbPolyline
 90
        3
 70
     0
 43
0.0
 10
42.94441395234357
 20
-23.49640238602052
 10
42.81031000194359
 20
-23.6397176740205
 10
42.6775219635436
 20
-23.78092713322049
  0
LWPOLYLINE
  5
165
330
2
100
AcDbEntity
  8
0
  6
CONTINUOUS
100
AcDbPolyline
 90
        6
 70
     0
 43
0.0
 10
42.58333981154357
 20
-23.25937561322052
 10
42.6535422739436
 20
-23.16815613802052
 10
42.71491028674357
 20
-23.05650525642052
 10
42.76573436834358
 20
-22.92744903882051
 10
42.8046064723436
 20
-22.78453801002051
 10
42.83047718754359
 20
-22.6316687684205
  0
LINE
  5
16D
330
2
100
AcDbEntity
  8
0
  6
CONTINUOUS
100
AcDbLine
 10
42.50128511554357
 20
-22.8196048436205
 30
0.0
 11
42.69779087459563
 21
-23.08765173439137
 31
0.0
  0
LWPOLYLINE
  5
16E
330
2
100
AcDbEntity
  8
0
  6
CONTINUOUS
100
AcDbPolyline
 90
        4
 70
     0
 43
0.0
 10
42.46052108834358
 20
-24.0100103796205
 10
42.3579286051436
 20
-24.11736962442051
 10
42.25609908354357
 20
-24.22344616042051
 10
42.15498100834358
 20
-24.32829941482052
  0
LWPOLYLINE
  5
174
330
2
100
AcDbEntity
  8
0
  6
CONTINUOUS
100
AcDbPolyline
 90
        3
 70
     0
 43
0.0
 10
41.98621032674356
 20
-24.6045576644205
 10
42.0065370195436
 20
-24.54831531402052
 10
42.02934216994358
 20
-24.49580084842052
  0
LINE
  5
179
330
2
100
AcDbEntity
  8
0
  6
CONTINUOUS
100
AcDbLine
 10
41.9846932147436
 20
-24.60921633962049
 30
0.0
 11
41.98621032994357
 21
-24.6045576308205
 31
0.0
  0
LWPOLYLINE
  5
17A
330
2
100
AcDbEntity
  8
0
  6
CONTINUOUS
100
AcDbPolyline
 90
        4
 70
     0
 43
0.0
 10
41.9599415459436
 20
-24.6985372772205
 10
41.96687067234357
 20
-24.67052347242051
 10
41.97506484674359
 20
-24.6406924692205
 10
41.9846932147436
 20
-24.60921634602049
  0
LWPOLYLINE
  5
180
330
2
100
AcDbEntity
  8
0
  6
CONTINUOUS
100
AcDbPolyline
 90
        3
 70
     0
 43
0.0
 10
42.15498100834358
 20
-24.32829941482052
 10
42.0897841843436
 20
-24.40515134282049
 10
42.02934215554356
 20
-24.49580094602049
  0
LINE
  5
185
330
2
100
AcDbEntity
  8
0
  6
CONTINUOUS
100
AcDbLine
 10
42.51558276674358
 20
-23.95213665002052
 30
0.0
 11
42.46052108834358
 21
-24.0100103796205
 31
0.0
  0
LINE
  5
186
330
2
100
AcDbEntity
  8
0
  6
CONTINUOUS
100
AcDbLine
 10
42.6775219635436
 20
-23.78092713322049
 30
0.0
 11
42.51558276674358
 21
-23.95213665002052
 31
0.0
  0
LWPOLYLINE
  5
187
330
2
100
AcDbEntity
  8
0
  6
CONTINUOUS
100
AcDbPolyline
 90
        7
 70
     0
 43
0.0
 10
41.49690129794358
 20
-25.1155156324205
 10
41.49443946274359
 20
-24.9535593396205
 10
41.50621475714358
 20
-24.7929761668205
 10
41.53204070914358
 20
-24.63761357162051
 10
41.57108312514357
 20
-24.49271237802052
 10
41.62245040834357
 20
-24.36157951562051
 10
41.68437913954359
 20
-24.24859360042052
  0
LWPOLYLINE
  5
190
330
2
100
AcDbEntity
  8
0
  6
CONTINUOUS
100
AcDbPolyline
 90
        3
 70
     0
 43
0.0
 10
41.80752653954357
 20
-25.09861151562049
 10
41.81885364194359
 20
-25.0950804548205
 10
41.83019914274357
 20
-25.0878597924205
  0
LINE
  5
195
330
2
100
AcDbEntity
  8
0
  6
CONTINUOUS
100
AcDbLine
 10
41.43196116194359
 20
-24.81085470122051
 30
0.0
 11
41.4287715715436
 21
-24.81645657322052
 31
0.0
  0
LWPOLYLINE
  5
196
330
2
100
AcDbEntity
  8
0
  6
CONTINUOUS
100
AcDbPolyline
 90
        7
 70
     0
 43
0.0
 10
41.49639317474357
 20
-25.1298408196205
 10
41.5123461683436
 20
-25.12928423082049
 10
41.53072719234359
 20
-25.12848307242052
 10
41.55204069474357
 20
-25.12729941802052
 10
41.57682257634356
 20
-25.1255517204205
 10
41.60565340834359
 20
-25.12306408362051
 10
41.63920046274357
 20
-25.11970273962051
  0
LWPOLYLINE
  5
19F
330
2
100
AcDbEntity
  8
0
  6
CONTINUOUS
100
AcDbPolyline
 90
        5
 70
     0
 43
0.0
 10
41.6392004227436
 20
-25.11970272522052
 10
41.68308069794358
 20
-25.11488705322052
 10
41.72689812354359
 20
-25.10957860842052
 10
41.76893716674359
 20
-25.10410546762052
 10
41.80752654274357
 20
-25.09861151882051
  0
LWPOLYLINE
  5
1A6
330
2
100
AcDbEntity
  8
0
  6
CONTINUOUS
100
AcDbPolyline
 90
        4
 70
     0
 43
0.0
 10
41.49639317474357
 20
-25.1298408196205
 10
41.4969648979436
 20
-25.12509962762052
 10
41.49713489634357
 20
-25.12030822122051
 10
41.49690138914357
 20
-25.11551679882051
  0
LINE
  5
1AC
330
2
100
AcDbEntity
  8
0
  6
CONTINUOUS
100
AcDbLine
 10
41.48337954914359
 20
-25.06585861962052
 30
0.0
 11
41.48338089154358
 21
-25.06589918122049
 31
0.0
  0
LWPOLYLINE
  5
1AD
330
2
100
AcDbEntity
  8
0
  6
CONTINUOUS
100
AcDbPolyline
 90
        4
 70
     0
 43
0.0
 10
41.80752653954357
 20
-25.09861151562049
 10
41.80704111394359
 20
-25.09396894922049
 10
41.8064468643436
 20
-25.0892645780205
 10
41.80574992354358
 20
-25.08454709482052
  0
LINE
  5
1B3
330
2
100
AcDbEntity
  8
0
  6
CONTINUOUS
100
AcDbLine
 10
41.52849474087981
 20
-24.65894524729137
 30
0.0
 11
41.43196122594356
 21
-24.8108545908205
 31
0.0
  0
LINE
  5
1B4
330
2
100
AcDbEntity
  8
0
  6
CONTINUOUS
100
AcDbLine
 10
41.68437913954359
 20
-24.24859360042052
 30
0.0
 11
41.7553465187436
 21
-24.1562848228205
 31
0.0
  0
LINE
  5
1B5
330
2
100
AcDbEntity
  8
0
  6
CONTINUOUS
100
AcDbLine
 10
41.7553465187436
 20
-24.1562848228205
 30
0.0
 11
42.58333981154357
 21
-23.25937561322052
 31
0.0
  0
LWPOLYLINE
  5
1B6
330
2
100
AcDbEntity
  8
0
  6
CONTINUOUS
100
AcDbPolyline
 90
       13
 70
     0
 43
0.0
 10
41.8057499011436
 20
-25.0845471044205
 10
41.80431129474359
 20
-25.03386907082052
 10
41.80435958434358
 20
-24.97630160042052
 10
41.8064957379436
 20
-24.91269418602049
 10
41.81130401154359
 20
-24.84384360362052
 10
41.81937624994357
 20
-24.7703922148205
 10
41.83148761634359
 20
-24.69211020042049
 10
41.84878989954358
 20
-24.60822693002052
 10
41.8726691059436
 20
-24.51898445802051
 10
41.9043933923436
 20
-24.42642276682052
 10
41.94598102434357
 20
-24.33173624522049
 10
41.9997430179436
 20
-24.2378206548205
 10
42.0675976547436
 20
-24.15039022282051
  0
LWPOLYLINE
  5
1C5
330
2
100
AcDbEntity
  8
0
  6
CONTINUOUS
100
AcDbPolyline
 90
       11
 70
     0
 43
0.0
 10
41.83020283554357
 20
-25.08786430282053
 10
41.85080821634358
 20
-25.0651289636205
 10
41.86710889954357
 20
-25.03740358282049
 10
41.88096812834358
 20
-25.0060831796205
 10
41.8931448051436
 20
-24.97206938602051
 10
41.90445157154358
 20
-24.9347253876205
 10
41.9152621379436
 20
-24.8939257668205
 10
41.92583268354358
 20
-24.84989779882052
 10
41.9365167555436
 20
-24.80262143082049
 10
41.94770172994357
 20
-24.75221484682052
 10
41.9599415459436
 20
-24.6985372708205
  0
LWPOLYLINE
  5
1D2
330
2
100
AcDbEntity
  8
0
  6
CONTINUOUS
100
AcDbPolyline
 90
        4
 70
     0
 43
0.0
 10
42.22073026594358
 20
-21.20292893482051
 10
42.3171023171436
 20
-21.4404011124205
 10
42.4236304195436
 20
-21.66667299882049
 10
42.54461982754359
 20
-21.88832406922049
  0
LINE
  5
1D8
330
2
100
AcDbEntity
  8
0
  6
CONTINUOUS
100
AcDbLine
 10
42.34264715074357
 20
-22.59743763722049
 30
0.0
 11
42.50131412994359
 21
-22.81964440522052
 31
0.0
  0
LWPOLYLINE
  5
1D9
330
2
100
AcDbEntity
  8
0
  6
CONTINUOUS
100
AcDbPolyline
 90
        3
 70
     0
 43
0.0
 10
42.0775889043436
 20
-22.19659102602052
 10
42.19599684194358
 20
-22.38059012522052
 10
42.34264715074357
 20
-22.59743763722049
  0
LINE
  5
1E3
330
2
100
AcDbEntity
  8
0
  6
CONTINUOUS
100
AcDbLine
 10
42.49845828514359
 20
-22.81446784522052
 30
0.0
 11
42.50800460194358
 21
-22.82876899722051
 31
0.0
  0
LINE
  5
1E4
330
2
100
AcDbEntity
  8
0
  6
CONTINUOUS
100
AcDbLine
 10
42.50128511554357
 20
-22.8196048436205
 30
0.0
 11
42.50131412994359
 21
-22.81964440522052
 31
0.0
  0
LWPOLYLINE
  5
1E5
330
2
100
AcDbEntity
  8
0
  6
CONTINUOUS
100
AcDbPolyline
 90
        3
 70
     0
 43
0.0
 10
41.4840815171436
 20
-20.81843776202049
 10
41.62638491554356
 20
-21.27151176202049
 10
41.82549620514358
 20
-21.74214644842052
  0
LWPOLYLINE
  5
1EA
330
2
100
AcDbEntity
  8
0
  6
CONTINUOUS
100
AcDbPolyline
 90
        3
 70
     0
 43
0.0
 10
41.4769359347436
 20
-20.7220118772205
 10
41.47817222754357
 20
-20.78090810762051
 10
41.4840815171436
 20
-20.81843776202049
  0
LINE
  5
1F5
330
2
100
AcDbEntity
  8
0
  6
CONTINUOUS
100
AcDbLine
 10
41.82549620514358
 20
-21.74214644842052
 30
0.0
 11
42.07367606754359
 21
-22.19036864362049
 31
0.0
  0
LINE
  5
1F6
330
2
100
AcDbEntity
  8
0
  6
CONTINUOUS
100
AcDbLine
 10
45.33124114114357
 20
-22.2522203940205
 30
0.0
 11
44.82636666914357
 21
-22.90332298442051
 31
0.0
  0
LWPOLYLINE
  5
1F7
330
2
100
AcDbEntity
  8
0
  6
CONTINUOUS
100
AcDbPolyline
 90
        7
 70
     0
 43
0.0
 10
42.89559094594356
 20
-23.25348101322052
 10
42.96532210114359
 20
-23.16286994762052
 10
43.02626145154359
 20
-23.0519879380205
 10
43.0767222339436
 20
-22.9238439140205
 10
43.11532371874357
 20
-22.78191523242049
 10
43.1410098451436
 20
-22.63011944042051
 10
43.15310417794358
 20
-22.47264039402049
  0
LWPOLYLINE
  5
200
330
2
100
AcDbEntity
  8
0
  6
CONTINUOUS
100
AcDbPolyline
 90
        4
 70
     0
 43
0.0
 10
43.20637890754357
 20
-22.91933136522052
 10
43.2398087491436
 20
-22.76498946282049
 10
43.2615838691436
 20
-22.61369000362051
 10
43.27292053794359
 20
-22.47709210922052
  0
LWPOLYLINE
  5
206
330
2
100
AcDbEntity
  8
0
  6
CONTINUOUS
100
AcDbPolyline
 90
        4
 70
     0
 43
0.0
 10
44.55644548034359
 20
-23.23556464842052
 10
44.52710841154359
 20
-23.27122673642049
 10
44.49935233154358
 20
-23.30724378922051
 10
44.4727769283436
 20
-23.34399458122051
  0
LWPOLYLINE
  5
20C
330
2
100
AcDbEntity
  8
0
  6
CONTINUOUS
100
AcDbPolyline
 90
        6
 70
     0
 43
0.0
 10
44.3739071795436
 20
-23.50333217002052
 10
44.2983301107436
 20
-23.65660926922049
 10
44.23117227554359
 20
-23.82831098442049
 10
44.17842681954357
 20
-24.00508121002052
 10
44.1417306131436
 20
-24.17824762282052
 10
44.12083824674357
 20
-24.3505706900205
  0
LWPOLYLINE
  5
214
330
2
100
AcDbEntity
  8
0
  6
CONTINUOUS
100
AcDbPolyline
 90
        4
 70
     0
 43
0.0
 10
44.1170180179436
 20
-24.40066880202051
 10
44.09840361794359
 20
-24.53533984842052
 10
44.0685256035436
 20
-24.65659980842049
 10
44.02821753474358
 20
-24.7629013188205
  0
LWPOLYLINE
  5
21A
330
2
100
AcDbEntity
  8
0
  6
CONTINUOUS
100
AcDbPolyline
 90
        4
 70
     0
 43
0.0
 10
43.99375974594359
 20
-24.82616593642049
 10
43.94392763394357
 20
-24.90020904842052
 10
43.8875362291436
 20
-24.97673553642052
 10
43.82454431074358
 20
-25.05564568682051
  0
LINE
  5
220
330
2
100
AcDbEntity
  8
0
  6
CONTINUOUS
100
AcDbLine
 10
43.99609938434358
 20
-24.82247495562052
 30
0.0
 11
43.99375974594359
 21
-24.82616593642049
 31
0.0
  0
LWPOLYLINE
  5
221
330
2
100
AcDbEntity
  8
0
  6
CONTINUOUS
100
AcDbPolyline
 90
        4
 70
     0
 43
0.0
 10
44.02634053794358
 20
-24.76696389482052
 10
44.01713349794359
 20
-24.7856975588205
 10
44.00707659394359
 20
-24.8041669668205
 10
43.99609938434358
 20
-24.82247495562052
  0
LINE
  5
227
330
2
100
AcDbEntity
  8
0
  6
CONTINUOUS
100
AcDbLine
 10
44.02821753474358
 20
-24.7629013188205
 30
0.0
 11
44.02634053794358
 21
-24.76696389482052
 31
0.0
  0
LWPOLYLINE
  5
228
330
2
100
AcDbEntity
  8
0
  6
CONTINUOUS
100
AcDbPolyline
 90
        4
 70
     0
 43
0.0
 10
44.12083824674357
 20
-24.3505706900205
 10
44.1193156403436
 20
-24.37273030122051
 10
44.11822230274358
 20
-24.38676599402052
 10
44.1170180179436
 20
-24.40066880202051
  0
LWPOLYLINE
  5
22E
330
2
100
AcDbEntity
  8
0
  6
CONTINUOUS
100
AcDbPolyline
 90
        4
 70
     0
 43
0.0
 10
44.4727769283436
 20
-23.34399458122051
 10
44.4383460899436
 20
-23.39522624362052
 10
44.40507348034357
 20
-23.4488978868205
 10
44.3739071795436
 20
-23.50333217002052
  0
LWPOLYLINE
  5
234
330
2
100
AcDbEntity
  8
0
  6
CONTINUOUS
100
AcDbPolyline
 90
        4
 70
     0
 43
0.0
 10
42.98273956034357
 20
-23.45145754762052
 10
42.9701854451436
 20
-23.46706548682049
 10
42.9574063027436
 20
-23.48205187082052
 10
42.94441395234357
 20
-23.49640238602052
  0
LINE
  5
23A
330
2
100
AcDbEntity
  8
0
  6
CONTINUOUS
100
AcDbLine
 10
42.9896867347436
 20
-23.44242778282049
 30
0.0
 11
42.98273956034357
 21
-23.45145754762052
 31
0.0
  0
LWPOLYLINE
  5
23B
330
2
100
AcDbEntity
  8
0
  6
CONTINUOUS
100
AcDbPolyline
 90
        5
 70
     0
 43
0.0
 10
43.2063781011436
 20
-22.9193320852205
 10
43.1678011603436
 20
-23.0717676260205
 10
43.11815865154357
 20
-23.21180296362052
 10
43.05832444354358
 20
-23.33641610122052
 10
42.9896867347436
 20
-23.44242778282049
  0
LINE
  5
242
330
2
100
AcDbEntity
  8
0
  6
CONTINUOUS
100
AcDbLine
 10
44.56574837794359
 20
-23.22460861642051
 30
0.0
 11
44.55644548034359
 21
-23.23556464842052
 31
0.0
  0
LWPOLYLINE
  5
243
330
2
100
AcDbEntity
  8
0
  6
CONTINUOUS
100
AcDbPolyline
 90
        4
 70
     0
 43
0.0
 10
44.82636666914357
 20
-22.90332298442051
 10
44.74115095874357
 20
-23.01156081642052
 10
44.65411632674359
 20
-23.11884516522052
 10
44.56574837794359
 20
-23.22460861642051
  0
LWPOLYLINE
  5
249
330
2
100
AcDbEntity
  8
0
  6
CONTINUOUS
100
AcDbPolyline
 90
        4
 70
     0
 43
0.0
 10
42.82803138434359
 20
-21.11185966442052
 10
42.87775231874359
 20
-21.33345044842052
 10
42.93637494594359
 20
-21.5453336340205
 10
43.0032104179436
 20
-21.7453723684205
  0
LWPOLYLINE
  5
24F
330
2
100
AcDbEntity
  8
0
  6
CONTINUOUS
100
AcDbPolyline
 90
        4
 70
     0
 43
0.0
 10
42.95717284994357
 20
-21.20064601322052
 10
43.00274688994359
 20
-21.43751918282049
 10
43.05865572994357
 20
-21.66283094442052
 10
43.1240622675436
 20
-21.87394947722052
  0
LWPOLYLINE
  5
25C
330
2
100
AcDbEntity
  8
0
  6
CONTINUOUS
100
AcDbPolyline
 90
        4
 70
     0
 43
0.0
 10
42.96990252034357
 20
-21.6754024260205
 10
42.93513589154357
 20
-21.59888632682051
 10
42.8990812435436
 20
-21.51522361002052
 10
42.86196251074357
 20
-21.42380971882051
  0
LINE
  5
262
330
2
100
AcDbEntity
  8
0
  6
CONTINUOUS
100
AcDbLine
 10
42.83047718754359
 20
-22.6316687684205
 30
0.0
 11
42.8426601891436
 21
-22.47305530442051
 31
0.0
  0
LWPOLYLINE
  5
263
330
2
100
AcDbEntity
  8
0
  6
CONTINUOUS
100
AcDbPolyline
 90
       12
 70
     0
 43
0.0
 10
42.8426601891436
 20
-22.47305530442051
 10
42.8429347347436
 20
-22.4503333140205
 10
42.8420101827436
 20
-22.42261722762052
 10
42.83944385154359
 20
-22.39282783082051
 10
42.8352314707436
 20
-22.36341720522051
 10
42.82961272514358
 20
-22.33573456042051
 10
42.82283430754358
 20
-22.31019109322049
 10
42.81516644514359
 20
-22.28704190282051
 10
42.80692510114358
 20
-22.2665059572205
 10
42.7985222707436
 20
-22.24884215562049
 10
42.79045278114359
 20
-22.23425681642051
 10
42.78326659234358
 20
-22.2228653364205
  0
LWPOLYLINE
  5
271
330
2
100
AcDbEntity
  8
0
  6
CONTINUOUS
100
AcDbPolyline
 90
        4
 70
     0
 43
0.0
 10
43.21441477474357
 20
-22.14267516202049
 10
43.1527110819436
 20
-22.03601364042051
 10
43.09291050274359
 20
-21.9257449540205
 10
43.0353213315436
 20
-21.81220727402049
  0
LINE
  5
27D
330
2
100
AcDbEntity
  8
0
  6
CONTINUOUS
100
AcDbLine
 10
43.1240622675436
 20
-21.87394947722052
 30
0.0
 11
43.12723680354357
 21
-21.8831435028205
 31
0.0
  0
LINE
  5
27E
330
2
100
AcDbEntity
  8
0
  6
CONTINUOUS
100
AcDbLine
 10
43.2730410515436
 20
-22.36977056362052
 30
0.0
 11
43.27858721474357
 21
-22.31221814442051
 31
0.0
  0
LWPOLYLINE
  5
293
330
2
100
AcDbEntity
  8
0
  6
CONTINUOUS
100
AcDbPolyline
 90
        4
 70
     0
 43
0.0
 10
43.28209908994359
 20
-22.2612439124205
 10
43.27158366754358
 20
-22.23963232682051
 10
43.26044048034358
 20
-22.2196532084205
 10
43.24973026434358
 20
-22.20145712202053
  0
LINE
  5
29E
330
2
100
AcDbEntity
  8
0
  6
CONTINUOUS
100
AcDbLine
 10
43.24973026434358
 20
-22.20145712202053
 30
0.0
 11
43.21441476834358
 21
-22.1426751716205
 31
0.0
  0
LWPOLYLINE
  5
2A4
330
2
100
AcDbEntity
  8
0
  6
CONTINUOUS
100
AcDbPolyline
 90
        4
 70
     0
 43
0.0
 10
43.2729204723436
 20
-22.47709203242052
 10
43.27425160514359
 20
-22.44175257162051
 10
43.27431642914358
 20
-22.4059908036205
 10
43.2730410403436
 20
-22.36977066122051
  0
LWPOLYLINE
  5
2AA
330
2
100
AcDbEntity
  8
0
  6
CONTINUOUS
100
AcDbPolyline
 90
       12
 70
     0
 43
0.0
 10
43.15310417794358
 20
-22.47264039402049
 10
43.15339076194359
 20
-22.45417457002051
 10
43.15293908994358
 20
-22.43282038282049
 10
43.15146261794359
 20
-22.40932941802051
 10
43.1487442931436
 20
-22.38443554922051
 10
43.14463584354358
 20
-22.35880559082049
 10
43.13902565954358
 20
-22.33294541642051
 10
43.13184812194358
 20
-22.30736989002049
 10
43.12312429794359
 20
-22.28269416042051
 10
43.11328881634359
 20
-22.26019969962051
 10
43.10344774754359
 20
-22.24162733642052
 10
43.09507383394358
 20
-22.2281929972205
  0
LWPOLYLINE
  5
2B8
330
2
100
AcDbEntity
  8
0
  6
CONTINUOUS
100
AcDbPolyline
 90
        3
 70
     0
 43
0.0
 10
43.03010936354358
 20
-21.80154656202051
 10
43.01659391714358
 20
-21.77355951242051
 10
42.96990252034357
 20
-21.6754024260205
  0
LINE
  5
2C3
330
2
100
AcDbEntity
  8
0
  6
CONTINUOUS
100
AcDbLine
 10
43.0353213251436
 20
-21.81220728202049
 30
0.0
 11
43.03010936354358
 21
-21.80154656202051
 31
0.0
  0
LWPOLYLINE
  5
2C4
330
2
100
AcDbEntity
  8
0
  6
CONTINUOUS
100
AcDbPolyline
 90
        4
 70
     0
 43
0.0
 10
43.12723680354357
 20
-21.8831435028205
 10
43.16451050914358
 20
-21.98512567082049
 10
43.20413753474358
 20
-22.08300218602051
 10
43.28209908994359
 20
-22.2612439124205
  0
LWPOLYLINE
  5
2CA
330
2
100
AcDbEntity
  8
0
  6
CONTINUOUS
100
AcDbPolyline
 90
        3
 70
     0
 43
0.0
 10
43.27858721474357
 20
-22.31221814442051
 10
43.2806492403436
 20
-22.28881173482052
 10
43.28209908994359
 20
-22.2612439124205
  0
LWPOLYLINE
  5
2CF
330
2
100
AcDbEntity
  8
0
  6
CONTINUOUS
100
AcDbPolyline
 90
        9
 70
     0
 43
0.0
 10
45.94611081954359
 20
-21.30643390602049
 10
45.9760806787436
 20
-21.23941694282051
 10
45.99428777154358
 20
-21.16988749642052
 10
45.99904236354357
 20
-21.1024037124205
 10
45.9901285011436
 20
-21.03917959082049
 10
45.96738905954357
 20
-20.9820704628205
 10
45.9321048435436
 20
-20.93474929162051
 10
45.88594538754359
 20
-20.8989122468205
 10
45.8738098835436
 20
-20.89234726122052
  0
LWPOLYLINE
  5
2DA
330
2
100
AcDbEntity
  8
0
  6
CONTINUOUS
100
AcDbPolyline
 90
        3
 70
     0
 43
0.0
 10
45.6394031139436
 20
-20.80687957322052
 10
45.6845657683436
 20
-20.81073213482051
 10
45.72834655874358
 20
-20.82216053642051
  0
LINE
  5
2E4
330
2
100
AcDbEntity
  8
0
  6
CONTINUOUS
100
AcDbLine
 10
45.83403655714358
 20
-20.87248298442051
 30
0.0
 11
45.7764447075436
 21
-20.84410241482049
 31
0.0
  0
LWPOLYLINE
  5
2E5
330
2
100
AcDbEntity
  8
0
  6
CONTINUOUS
100
AcDbPolyline
 90
        3
 70
     0
 43
0.0
 10
45.83127444834357
 20
-20.8759840116205
 10
45.7986914211436
 20
-20.86917454442049
 10
45.7655449507436
 20
-20.86647187082049
  0
LINE
  5
2EA
330
2
100
AcDbEntity
  8
0
  6
CONTINUOUS
100
AcDbLine
 10
45.7764447075436
 20
-20.84410241482049
 30
0.0
 11
45.75103419554356
 21
-20.8317208708205
 31
0.0
  0
LINE
  5
2EC
330
2
100
AcDbEntity
  8
0
  6
CONTINUOUS
100
AcDbLine
 10
45.72834655874358
 20
-20.82216053642051
 30
0.0
 11
45.7510543459436
 21
-20.83173064842049
 31
0.0
  0
LINE
  5
2ED
330
2
100
AcDbEntity
  8
0
  6
CONTINUOUS
100
AcDbLine
 10
45.8737968691436
 20
-20.89234072842052
 30
0.0
 11
45.83403655714358
 21
-20.87248298442051
 31
0.0
  0
LINE
  5
2EE
330
2
100
AcDbEntity
  8
0
  6
CONTINUOUS
100
AcDbLine
 10
45.8738098835436
 20
-20.89234726122052
 30
0.0
 11
45.83127444834357
 21
-20.8759840116205
 31
0.0
  0
LINE
  5
2EF
330
2
100
AcDbEntity
  8
0
  6
CONTINUOUS
100
AcDbLine
 10
45.01834603234359
 20
-20.7220118772205
 30
0.0
 11
44.95433303234359
 21
-20.6838529876205
 31
0.0
  0
LINE
  5
2F0
330
2
100
AcDbEntity
  8
0
  6
CONTINUOUS
100
AcDbLine
 10
45.10218036354357
 20
-20.7365748644205
 30
0.0
 11
44.95433303234359
 21
-20.6838529876205
 31
0.0
  0
LWPOLYLINE
  5
2F1
330
2
100
AcDbEntity
  8
0
  6
CONTINUOUS
100
AcDbPolyline
 90
        4
 70
     0
 43
0.0
 10
45.94611184194358
 20
-21.30643201642049
 10
45.7565585171436
 20
-21.63520298442049
 10
45.55126095714359
 20
-21.95097321642051
 10
45.33124114114357
 20
-22.2522203940205
  0
LWPOLYLINE
  5
2F7
330
2
100
AcDbEntity
  8
0
  6
CONTINUOUS
100
AcDbPolyline
 90
        5
 70
     0
 43
0.0
 10
45.7655471923436
 20
-20.86647192202049
 10
45.55470745954358
 20
-20.85369866442052
 10
45.35876892834358
 20
-20.82517311882049
 10
45.17919339074359
 20
-20.78108149802051
 10
45.01834603234359
 20
-20.7220118772205
  0
LWPOLYLINE
  5
2FE
330
2
100
AcDbEntity
  8
0
  6
CONTINUOUS
100
AcDbPolyline
 90
        4
 70
     0
 43
0.0
 10
45.63939958754358
 20
-20.8068795540205
 10
45.44632076834358
 20
-20.79827385002051
 10
45.2667288419436
 20
-20.77481883402052
 10
45.10218036354357
 20
-20.7365748644205
  0
LWPOLYLINE
  5
304
330
2
100
AcDbEntity
  8
0
  6
CONTINUOUS
100
AcDbPolyline
 90
        4
 70
     0
 43
0.0
 10
44.24342674434359
 20
-20.3583401300205
 10
43.99175624994359
 20
-20.23026618922052
 10
43.45138795874357
 20
-19.93999151242051
 10
42.72260417572396
 20
-19.52141505421751
  0
LWPOLYLINE
  5
30A
330
2
100
AcDbEntity
  8
0
  6
HIDDEN
 62
     9
100
AcDbPolyline
 90
        5
 70
     0
 43
0.0
 10
42.09080710914361
 20
-17.3994016820205
 10
42.30479545634361
 20
-17.89585784522049
 10
42.74858059554361
 20
-18.4974161940205
 10
43.20232192834362
 20
-18.88171082762049
 10
43.59214784674358
 20
-19.11096228682049
  0
LWPOLYLINE
  5
311
330
2
100
AcDbEntity
  8
0
  6
HIDDEN
 62
     9
100
AcDbPolyline
 90
        6
 70
     0
 43
0.0
 10
42.2991017811436
 20
-17.33258178282051
 10
42.49717532034359
 20
-17.79172204682049
 10
42.9127080147436
 20
-18.35246573482051
 10
43.33273303554361
 20
-18.70590505642051
 10
43.6929612323436
 20
-18.91679241482052
 10
43.9618357571436
 20
-19.03607963722049
  0
ARC
  5
319
330
2
100
AcDbEntity
  8
0
  6
CONTINUOUS
100
AcDbCircle
 10
42.7776894099436
 20
-17.55473637802051
 30
0.0
 40
3.0
100
AcDbArc
 50
183.1257408186999
 51
246.1445338377458
  0
LWPOLYLINE
  5
31A
330
2
100
AcDbEntity
  8
0
100
AcDbPolyline
 90
        4
 70
   128
 43
0.0
 10
42.49807918434357
 20
-19.4023828884205
 10
42.43420724034358
 20
-19.36723637802051
 10
42.35938400994358
 20
-19.36723637802051
 10
42.04894676674359
 20
-19.36723637802051
  0
LINE
  5
31B
330
2
100
AcDbEntity
  8
0
  6
CONTINUOUS
100
AcDbLine
 10
42.06493093794359
 20
-19.83405839562049
 30
0.0
 11
42.04894676674359
 21
-19.36723637802051
 31
0.0
  0
LWPOLYLINE
  5
31C
330
2
100
AcDbEntity
  8
0
  6
CONTINUOUS
100
AcDbPolyline
 90
        3
 70
     0
 43
0.0
 10
42.05137085846425
 20
-19.43803262849378
 10
42.0125276435436
 20
-19.46881690762052
 10
41.97220992994357
 20
-19.51246087882051
  0
LINE
  5
322
330
2
100
AcDbEntity
  8
0
100
AcDbLine
 10
42.49807918434357
 20
-19.4023828884205
 30
0.0
 11
42.72260417572396
 21
-19.52141505421751
 31
0.0
  0
LWPOLYLINE
  5
323
330
2
100
AcDbEntity
  8
0
  6
CONTINUOUS
100
AcDbPolyline
 90
        4
 70
     0
 43
0.0
 10
41.97220992994357
 20
-19.51246087882051
 10
41.94340337954358
 20
-19.5500136356205
 10
41.9173918627436
 20
-19.58658078122051
 10
41.89489673314358
 20
-19.62108523882051
  0
LINE
  5
329
330
2
100
AcDbEntity
  8
0
  6
HIDDEN
 62
     9
100
AcDbLine
 10
44.53235582114359
 20
-19.4419889844205
 30
0.0
 11
44.87111127074359
 21
-19.5170607172205
 31
0.0
  0
LWPOLYLINE
  5
32A
330
2
100
AcDbEntity
  8
0
  6
HIDDEN
 62
     9
100
AcDbPolyline
 90
        6
 70
     0
 43
0.0
 10
44.86780712514359
 20
-19.51639469482051
 10
44.96222937474359
 20
-19.53410293002049
 10
45.15230758434358
 20
-19.56253356522052
 10
45.33148008834359
 20
-19.58276501642049
 10
45.52145502274359
 20
-19.59976571562052
 10
45.66374978114359
 20
-19.6105233700205
  0
LINE
  5
332
330
2
100
AcDbEntity
  8
0
  6
CONTINUOUS
100
AcDbLine
 10
52.06023725954358
 20
-21.30473637802052
 30
0.0
 11
52.06023725954358
 21
-20.55473637802052
 31
0.0
  0
LINE
  5
333
330
2
100
AcDbEntity
  8
0
  6
CONTINUOUS
100
AcDbLine
 10
52.2695373443436
 20
-21.37979030282049
 30
0.0
 11
52.28170237474358
 21
-21.37806834762051
 31
0.0
  0
LINE
  5
334
330
2
100
AcDbEntity
  8
0
  6
CONTINUOUS
100
AcDbLine
 10
52.26953319394358
 20
-21.46968057482051
 30
0.0
 11
52.32515908034361
 21
-21.49490875242052
 31
0.0
  0
LINE
  5
335
330
2
100
AcDbEntity
  8
0
  6
CONTINUOUS
100
AcDbLine
 10
52.26953319394358
 20
-21.3896805748205
 30
0.0
 11
52.32515908034361
 21
-21.4149087524205
 31
0.0
  0
LINE
  5
336
330
2
100
AcDbEntity
  8
0
  6
CONTINUOUS
100
AcDbLine
 10
52.28481219394359
 20
-21.3730613124205
 30
0.0
 11
52.24773725954358
 21
-21.33598637802052
 31
0.0
  0
LINE
  5
337
330
2
100
AcDbEntity
  8
0
  6
CONTINUOUS
100
AcDbLine
 10
52.3252372595436
 20
-21.4347363780205
 30
0.0
 11
52.3252372595436
 21
-21.41473637802052
 31
0.0
  0
LWPOLYLINE
  5
338
330
2
100
AcDbEntity
  8
0
  6
CONTINUOUS
100
AcDbPolyline
 90
        5
 70
     0
 43
0.0
 10
52.2695373443436
 20
-21.37979030282049
 10
52.2679825347436
 20
-21.38079881322049
 10
52.26616874434359
 20
-21.38461911242049
 10
52.26782554434359
 20
-21.3885262516205
 10
52.2695276819436
 20
-21.38967806762049
  0
LWPOLYLINE
  5
33F
330
2
100
AcDbEntity
  8
0
  6
CONTINUOUS
100
AcDbPolyline
 90
        5
 70
     0
 43
0.0
 10
52.2695373443436
 20
-21.45979030282052
 10
52.2679825347436
 20
-21.46079881322052
 10
52.26616874434359
 20
-21.46461911242052
 10
52.26782554434359
 20
-21.4685262516205
 10
52.2695276819436
 20
-21.46967806762052
  0
LINE
  5
346
330
2
100
AcDbEntity
  8
0
  6
CONTINUOUS
100
AcDbLine
 10
52.28497670914359
 20
-21.37278819242051
 30
0.0
 11
52.26953319394358
 21
-21.37979218122049
 31
0.0
  0
LINE
  5
347
330
2
100
AcDbEntity
  8
0
  6
CONTINUOUS
100
AcDbLine
 10
52.3256955715436
 20
-21.43432068202051
 30
0.0
 11
52.26953319394358
 21
-21.45979218122052
 31
0.0
  0
LINE
  5
348
330
2
100
AcDbEntity
  8
0
  6
CONTINUOUS
100
AcDbLine
 10
52.3252372611436
 20
-21.4147358180205
 30
0.0
 11
52.32937839554359
 21
-21.41348637802052
 31
0.0
  0
LINE
  5
349
330
2
100
AcDbEntity
  8
0
  6
CONTINUOUS
100
AcDbLine
 10
52.26953319394358
 20
-21.94968057482051
 30
0.0
 11
52.32515908034361
 21
-21.9749087524205
 31
0.0
  0
LINE
  5
34A
330
2
100
AcDbEntity
  8
0
  6
CONTINUOUS
100
AcDbLine
 10
52.26953319394358
 20
-21.86968057482052
 30
0.0
 11
52.32515908034361
 21
-21.89490875242051
 31
0.0
  0
LINE
  5
34B
330
2
100
AcDbEntity
  8
0
  6
CONTINUOUS
100
AcDbLine
 10
52.26953319394358
 20
-21.78968057482049
 30
0.0
 11
52.32515908034361
 21
-21.81490875242052
 31
0.0
  0
LINE
  5
34C
330
2
100
AcDbEntity
  8
0
  6
CONTINUOUS
100
AcDbLine
 10
52.26953319394358
 20
-21.70968057482049
 30
0.0
 11
52.32515908034361
 21
-21.73490875242049
 31
0.0
  0
LINE
  5
34D
330
2
100
AcDbEntity
  8
0
  6
CONTINUOUS
100
AcDbLine
 10
52.26953319394358
 20
-21.6296805748205
 30
0.0
 11
52.32515908034361
 21
-21.65490875242049
 31
0.0
  0
LINE
  5
34E
330
2
100
AcDbEntity
  8
0
  6
CONTINUOUS
100
AcDbLine
 10
52.26953319394358
 20
-21.54968057482052
 30
0.0
 11
52.32515908034361
 21
-21.57490875242051
 31
0.0
  0
LINE
  5
34F
330
2
100
AcDbEntity
  8
0
  6
CONTINUOUS
100
AcDbLine
 10
52.3252372595436
 20
-22.05473637802052
 30
0.0
 11
52.3252372595436
 21
-21.97473637802049
 31
0.0
  0
LINE
  5
350
330
2
100
AcDbEntity
  8
0
  6
CONTINUOUS
100
AcDbLine
 10
52.3252372595436
 20
-21.91473637802052
 30
0.0
 11
52.3252372595436
 21
-21.89473637802049
 31
0.0
  0
LINE
  5
351
330
2
100
AcDbEntity
  8
0
  6
CONTINUOUS
100
AcDbLine
 10
52.3252372595436
 20
-21.83473637802049
 30
0.0
 11
52.3252372595436
 21
-21.81473637802051
 31
0.0
  0
LINE
  5
352
330
2
100
AcDbEntity
  8
0
  6
CONTINUOUS
100
AcDbLine
 10
52.3252372595436
 20
-21.75473637802049
 30
0.0
 11
52.3252372595436
 21
-21.73473637802052
 31
0.0
  0
LINE
  5
353
330
2
100
AcDbEntity
  8
0
  6
CONTINUOUS
100
AcDbLine
 10
52.3252372595436
 20
-21.67473637802051
 30
0.0
 11
52.3252372595436
 21
-21.6547363780205
 31
0.0
  0
LINE
  5
354
330
2
100
AcDbEntity
  8
0
  6
CONTINUOUS
100
AcDbLine
 10
52.3252372595436
 20
-21.59473637802052
 30
0.0
 11
52.3252372595436
 21
-21.5747363780205
 31
0.0
  0
LWPOLYLINE
  5
355
330
2
100
AcDbEntity
  8
0
  6
CONTINUOUS
100
AcDbPolyline
 90
        5
 70
     0
 43
0.0
 10
52.2695373443436
 20
-21.53979030282053
 10
52.2679825347436
 20
-21.54079881322052
 10
52.26616874434359
 20
-21.54461911242053
 10
52.26782554434359
 20
-21.5485262516205
 10
52.2695276819436
 20
-21.54967806762051
  0
LWPOLYLINE
  5
35C
330
2
100
AcDbEntity
  8
0
  6
CONTINUOUS
100
AcDbPolyline
 90
        5
 70
     0
 43
0.0
 10
52.2695373443436
 20
-21.6997903028205
 10
52.2679825347436
 20
-21.7007988132205
 10
52.26616874434359
 20
-21.7046191124205
 10
52.26782554434359
 20
-21.70852625162051
 10
52.2695276819436
 20
-21.7096780676205
  0
LWPOLYLINE
  5
363
330
2
100
AcDbEntity
  8
0
  6
CONTINUOUS
100
AcDbPolyline
 90
        5
 70
     0
 43
0.0
 10
52.2695373443436
 20
-21.7797903028205
 10
52.2679825347436
 20
-21.78079881322052
 10
52.26616874434359
 20
-21.78461911242051
 10
52.26782554434359
 20
-21.78852625162049
 10
52.2695276819436
 20
-21.78967806762052
  0
LWPOLYLINE
  5
36A
330
2
100
AcDbEntity
  8
0
  6
CONTINUOUS
100
AcDbPolyline
 90
        5
 70
     0
 43
0.0
 10
52.2695373443436
 20
-21.85979030282052
 10
52.2679825347436
 20
-21.86079881322051
 10
52.26616874434359
 20
-21.86461911242052
 10
52.26782554434359
 20
-21.86852625162049
 10
52.2695276819436
 20
-21.86967806762051
  0
LWPOLYLINE
  5
371
330
2
100
AcDbEntity
  8
0
  6
CONTINUOUS
100
AcDbPolyline
 90
        5
 70
     0
 43
0.0
 10
52.2695373443436
 20
-21.93979030282051
 10
52.2679825347436
 20
-21.94079881322049
 10
52.26616874434359
 20
-21.94461911242049
 10
52.26782554434359
 20
-21.94852625162053
 10
52.2695276819436
 20
-21.94967806762049
  0
LWPOLYLINE
  5
378
330
2
100
AcDbEntity
  8
0
  6
CONTINUOUS
100
AcDbPolyline
 90
        5
 70
     0
 43
0.0
 10
52.2695379859436
 20
-21.61979001322049
 10
52.26804336514359
 20
-21.6207445300205
 10
52.2661761395436
 20
-21.62444886602051
 10
52.26774990754359
 20
-21.6284509124205
 10
52.26952557794359
 20
-21.62967710602049
  0
LINE
  5
37F
330
2
100
AcDbEntity
  8
0
  6
CONTINUOUS
100
AcDbLine
 10
52.3256955715436
 20
-21.51432068202049
 30
0.0
 11
52.26953319394358
 21
-21.53979218122052
 31
0.0
  0
LINE
  5
380
330
2
100
AcDbEntity
  8
0
  6
CONTINUOUS
100
AcDbLine
 10
52.3256955715436
 20
-21.59432068202049
 30
0.0
 11
52.26953319394358
 21
-21.6197921812205
 31
0.0
  0
LINE
  5
381
330
2
100
AcDbEntity
  8
0
  6
CONTINUOUS
100
AcDbLine
 10
52.3256955715436
 20
-21.67432068202052
 30
0.0
 11
52.26953319394358
 21
-21.6997921812205
 31
0.0
  0
LINE
  5
382
330
2
100
AcDbEntity
  8
0
  6
CONTINUOUS
100
AcDbLine
 10
52.3256955715436
 20
-21.75432068202053
 30
0.0
 11
52.26953319394358
 21
-21.77979218122051
 31
0.0
  0
LINE
  5
383
330
2
100
AcDbEntity
  8
0
  6
CONTINUOUS
100
AcDbLine
 10
52.3256955715436
 20
-21.8343206820205
 30
0.0
 11
52.26953319394358
 21
-21.85979218122051
 31
0.0
  0
LINE
  5
384
330
2
100
AcDbEntity
  8
0
  6
CONTINUOUS
100
AcDbLine
 10
52.3256955715436
 20
-21.9143206820205
 30
0.0
 11
52.26953319394358
 21
-21.93979218122049
 31
0.0
  0
LINE
  5
385
330
2
100
AcDbEntity
  8
0
  6
CONTINUOUS
100
AcDbLine
 10
52.3252372595436
 20
-21.5147363780205
 30
0.0
 11
52.3252372595436
 21
-21.49473637802052
 31
0.0
  0
ARC
  5
386
330
2
100
AcDbEntity
  8
0
  6
CONTINUOUS
100
AcDbCircle
 10
52.09148725954358
 20
-21.30473637802052
 30
0.0
 40
0.03125
100
AcDbArc
 50
180.0
 51
270.0
  0
ARC
  5
388
330
2
100
AcDbEntity
  8
0
  6
HIDDEN
 62
     9
100
AcDbCircle
 10
51.86201395554357
 20
-19.92973637802052
 30
0.0
 40
0.34375
100
AcDbArc
 50
225.0
 51
270.0
  0
LINE
  5
389
330
2
100
AcDbEntity
  8
0
  6
HIDDEN
 62
     9
100
AcDbLine
 10
51.77362631234359
 20
-20.0181254308205
 30
0.0
 11
51.37720942114359
 21
-19.62170853962052
 31
0.0
  0
LINE
  5
38A
330
2
100
AcDbEntity
  8
0
  6
HIDDEN
 62
     9
100
AcDbLine
 10
51.61894599874361
 20
-20.17280433322051
 30
0.0
 11
51.22252548514362
 21
-19.77638381962051
 31
0.0
  0
LWPOLYLINE
  5
38B
330
2
100
AcDbEntity
  8
0
  6
HIDDEN
 62
     9
100
AcDbPolyline
 90
        6
 70
     0
 43
0.0
 10
51.21748671874363
 20
-19.54918540202051
 10
51.22803928354361
 20
-19.55007741642052
 10
51.25887642274358
 20
-19.55543408202049
 10
51.3028425043436
 20
-19.57042962282051
 10
51.34829417314361
 20
-19.59690006922049
 10
51.37721008034361
 20
-19.62170918762049
  0
LINE
  5
393
330
2
100
AcDbEntity
  8
0
  6
HIDDEN
 62
     9
100
AcDbLine
 10
51.1090388579436
 20
-19.54296953642051
 30
0.0
 11
51.21747964194361
 21
-19.54918506442052
 31
0.0
  0
LINE
  5
394
330
2
100
AcDbEntity
  8
0
  6
HIDDEN
 62
     9
100
AcDbLine
 10
51.21748890914358
 20
-19.54918553002049
 30
0.0
 11
51.22580137474361
 21
-19.54946805642049
 31
0.0
  0
ARC
  5
395
330
2
100
AcDbEntity
  8
0
  6
HIDDEN
 62
     9
100
AcDbCircle
 10
51.86201395554357
 20
-19.92973637802052
 30
0.0
 40
0.125
100
AcDbArc
 50
225.0004568872999
 51
270.0
  0
LINE
  5
396
330
2
100
AcDbEntity
  8
0
  6
HIDDEN
 62
     9
100
AcDbLine
 10
51.86201518434359
 20
-20.05473637802052
 30
0.0
 11
51.8754824611436
 21
-20.05473637802052
 31
0.0
  0
LINE
  5
397
330
2
100
AcDbEntity
  8
0
  6
HIDDEN
 62
     9
100
AcDbLine
 10
51.86177801474361
 20
-20.27348637802052
 30
0.0
 11
51.8754824611436
 21
-20.27348637802052
 31
0.0
  0
LWPOLYLINE
  5
398
330
2
100
AcDbEntity
  8
0
  6
CONTINUOUS
100
AcDbPolyline
 90
       11
 70
     0
 43
0.0
 10
46.51863343874362
 20
-0.9691155044204968
 10
45.26989400994361
 20
-0.9694589492205203
 10
44.1407150899436
 20
-0.9697007956205077
 10
43.0239307795436
 20
-0.9695512116204945
 10
41.87448375554359
 20
-0.9691448612204958
 10
40.73185990434359
 20
-0.9690965668205073
 10
39.62342028194359
 20
-0.9691644452204961
 10
38.5896391523436
 20
-0.9691012932205005
 10
37.6629499043436
 20
-0.9692709780204999
 10
36.90995253474361
 20
-0.9692645716204957
 10
36.40964303714361
 20
-0.9691126772205187
  0
ARC
  5
3A5
330
2
100
AcDbEntity
  8
0
  6
HIDDEN
 62
     9
100
AcDbCircle
 10
35.30813116194361
 20
-0.4922363780205182
 30
0.0
 40
0.71875
100
AcDbArc
 50
287.4894516161999
 51
340.5196406255
  0
LINE
  5
3A6
330
2
100
AcDbEntity
  8
0
  6
CONTINUOUS
100
AcDbLine
 10
36.2388228003436
 20
-1.177083397220496
 30
0.0
 11
35.45264557154359
 21
-1.176896520420495
 31
0.0
  0
LINE
  5
3A7
330
2
100
AcDbEntity
  8
0
  6
HIDDEN
100
AcDbLine
 10
35.28539514274359
 20
-1.177075091620519
 30
0.0
 11
36.2388228259436
 21
-1.177083182820506
 31
0.0
  0
LINE
  5
3A8
330
2
100
AcDbEntity
  8
0
  6
CONTINUOUS
100
AcDbLine
 10
35.62548398594358
 20
-0.9689954836204996
 30
0.0
 11
35.45839611234359
 21
-0.9691224596205181
 31
0.0
  0
ARC
  5
3A9
330
2
100
AcDbEntity
  8
0
  6
CONTINUOUS
100
AcDbCircle
 10
35.30813116194361
 20
-0.4922363780205182
 30
0.0
 40
0.5
100
AcDbArc
 50
287.4894479637999
 51
340.5196142591999
  0
LINE
  5
3AA
330
2
100
AcDbEntity
  8
0
  6
CONTINUOUS
100
AcDbLine
 10
35.45264557154359
 20
-1.176896520420495
 30
0.0
 11
35.28539514274359
 21
-1.177075090020519
 31
0.0
  0
LWPOLYLINE
  5
3AD
330
2
100
AcDbEntity
  8
0
  6
CONTINUOUS
100
AcDbPolyline
 90
       15
 70
     0
 43
0.0
 10
35.4583962051436
 20
-0.9691224308205157
 10
35.4555086931436
 20
-0.9700515700204981
 10
35.43818910594359
 20
-0.97645871402052
 10
35.4208147267436
 20
-0.9844163540205208
 10
35.40353150754359
 20
-0.9940222804205198
 10
35.3865154467436
 20
-1.005359973220517
 10
35.36999316194359
 20
-1.018472680420497
 10
35.35421029634361
 20
-1.033367706020495
 10
35.33941829794361
 20
-1.050018339620518
 10
35.32586952834361
 20
-1.068361984420516
 10
35.31381190434359
 20
-1.088299098020495
 10
35.3034832099436
 20
-1.109693070820494
 10
35.29510526114359
 20
-1.132371096420495
 10
35.28887810114361
 20
-1.156126070820516
 10
35.2853945651436
 20
-1.177079789220496
  0
LWPOLYLINE
  5
3BE
330
2
100
AcDbEntity
  8
0
  6
HIDDEN
100
AcDbPolyline
 90
        3
 70
     0
 43
0.0
 10
35.5241372195436
 20
-1.177760115620497
 10
35.51183471714358
 20
-1.185072622820495
 10
35.50251201474361
 20
-1.203754786020507
  0
LINE
  5
3C3
330
2
100
AcDbEntity
  8
0
  6
HIDDEN
 62
     9
100
AcDbLine
 10
35.5025046355436
 20
-1.203753877220517
 30
0.0
 11
35.40563203342695
 21
-1.992236378020518
 31
0.0
  0
LINE
  5
3C4
330
2
100
AcDbEntity
  8
0
  6
CONTINUOUS
100
AcDbLine
 10
35.28538713954358
 20
-1.177078875620519
 30
0.0
 11
35.18523725954358
 21
-1.992236378020518
 31
0.0
  0
LINE
  5
3C6
330
2
100
AcDbEntity
  8
0
  6
CONTINUOUS
100
AcDbLine
 10
36.4080560339436
 20
-0.969113062820508
 30
0.0
 11
35.62548398594358
 21
-0.9689954836204996
 31
0.0
  0
ARC
  5
3C7
330
2
100
AcDbEntity
  8
0
  6
CONTINUOUS
100
AcDbCircle
 10
36.0148793747436
 20
-0.7422363780205182
 30
0.0
 40
0.25
100
AcDbArc
 50
90.0
 51
160.5197046108
  0
LINE
  5
3C8
330
2
100
AcDbEntity
  8
0
  6
HIDDEN
100
AcDbLine
 10
35.6051359571436
 20
-0.9689974180205176
 30
0.0
 11
35.62548398594358
 21
-0.9689954836204996
 31
0.0
  0
LINE
  5
3C9
330
2
100
AcDbEntity
  8
0
  6
CONTINUOUS
100
AcDbLine
 10
36.47298906114361
 20
-1.177189797220517
 30
0.0
 11
36.23882377954359
 21
-1.17708351882052
 31
0.0
  0
LWPOLYLINE
  5
3CC
330
2
100
AcDbEntity
  8
0
  6
HIDDEN
 62
     9
100
AcDbPolyline
 90
        4
 70
     0
 43
0.0
 10
38.5306098483436
 20
-1.166761229220494
 10
38.52984466274358
 20
-1.166669952420516
 10
38.53069414274358
 20
-1.166862789220498
 10
38.53354109634361
 20
-1.167729134820501
  0
LWPOLYLINE
  5
3D2
330
2
100
AcDbEntity
  8
0
  6
HIDDEN
 62
     9
100
AcDbPolyline
 90
        4
 70
     0
 43
0.0
 10
38.54541605314361
 20
-1.167764155620499
 10
38.53775652514357
 20
-1.1673356500205
 10
38.53252855074359
 20
-1.16694806442052
 10
38.5306098483436
 20
-1.166761229220494
  0
LWPOLYLINE
  5
3D8
330
2
100
AcDbEntity
  8
0
  6
HIDDEN
 62
     9
100
AcDbPolyline
 90
        5
 70
     0
 43
0.0
 10
38.60823704194359
 20
-0.9621280436205204
 10
38.6140983123436
 20
-0.9643438980204983
 10
38.67267598434358
 20
-0.9970742612205008
 10
38.7400611427436
 20
-1.073904925220499
 10
38.77033368034358
 20
-1.165155733220498
  0
LWPOLYLINE
  5
3DF
330
2
100
AcDbEntity
  8
0
  6
HIDDEN
 62
     9
100
AcDbPolyline
 90
        3
 70
     0
 43
0.0
 10
38.53354109634361
 20
-1.167729134820501
 10
38.54268828034358
 20
-1.173094877220517
 10
38.55333699554359
 20
-1.192783070820507
  0
ARC
  5
3E5
330
2
100
AcDbEntity
  8
0
  6
HIDDEN
 62
     9
100
AcDbCircle
 10
38.7791145875436
 20
-0.4922363780205182
 30
0.0
 40
0.71874796
100
AcDbArc
 50
199.4616976920999
 51
250.0164599341
  0
ARC
  5
3E6
330
2
100
AcDbEntity
  8
0
  6
HIDDEN
 62
     9
100
AcDbCircle
 10
38.7791145875436
 20
-0.4922363780205182
 30
0.0
 40
0.4999985808
100
AcDbArc
 50
199.4616679011
 51
250.0164290418
  0
ARC
  5
3E7
330
2
100
AcDbEntity
  8
0
  6
HIDDEN
 62
     9
100
AcDbCircle
 10
38.07163383394359
 20
-0.7422363780205182
 30
0.0
 40
0.2500000096
100
AcDbArc
 50
19.461770083
 51
90.00002688899998
  0
LWPOLYLINE
  5
3E8
330
2
100
AcDbEntity
  8
0
  6
CONTINUOUS
100
AcDbPolyline
 90
        6
 70
     0
 43
0.0
 10
51.91667156194362
 20
-4.206542341220494
 10
52.04760744834359
 20
-4.520174595620499
 10
52.25570753954361
 20
-4.789714938020519
 10
52.52762114274358
 20
-4.996116373220498
 10
52.84541389634359
 20
-5.125923277220518
 10
53.18523725954358
 20
-5.168627595620531
  0
LWPOLYLINE
  5
3F0
330
2
100
AcDbEntity
  8
0
  6
CONTINUOUS
100
AcDbPolyline
 90
        6
 70
     0
 43
0.0
 10
51.87658428194362
 20
-3.964550600420519
 10
51.9246577907436
 20
-4.295394682020496
 10
52.08000047234358
 20
-4.631972293220496
 10
52.3248828643436
 20
-4.911611078820495
 10
52.63946605474359
 20
-5.111656368420494
 10
52.9982643811436
 20
-5.215901680420497
  0
LWPOLYLINE
  5
3F8
330
2
100
AcDbEntity
  8
0
  6
HIDDEN
100
AcDbPolyline
 90
        3
 70
     0
 43
0.0
 10
51.8844574547436
 20
-4.165122757220498
 10
51.96104797154359
 20
-4.409633277220518
 10
52.06399171554358
 20
-4.597286469220517
  0
LINE
  5
3FD
330
2
100
AcDbEntity
  8
0
  6
CONTINUOUS
100
AcDbLine
 10
52.0845242691436
 20
-4.634714672420496
 30
0.0
 11
52.24994515394357
 21
-4.831349291620494
 31
0.0
  0
LINE
  5
3FE
330
2
100
AcDbEntity
  8
0
  6
CONTINUOUS
100
AcDbLine
 10
52.06399171554358
 20
-4.597286469220517
 30
0.0
 11
52.0845242691436
 21
-4.634714672420496
 31
0.0
  0
LINE
  5
3FF
330
2
100
AcDbEntity
  8
0
  6
CONTINUOUS
100
AcDbLine
 10
52.92967491554358
 20
-5.185176917220498
 30
0.0
 11
53.18940393314361
 21
-5.209191904420531
 31
0.0
  0
LINE
  5
400
330
2
100
AcDbEntity
  8
0
  6
CONTINUOUS
100
AcDbLine
 10
52.9982643811436
 20
-5.215901680420497
 30
0.0
 11
53.37221013794359
 21
-5.215901680420497
 31
0.0
  0
LINE
  5
401
330
2
100
AcDbEntity
  8
0
  6
CONTINUOUS
100
AcDbLine
 10
53.18940393314361
 20
-5.209191904420531
 30
0.0
 11
53.44790087394358
 21
-5.184229530020498
 31
0.0
  0
LINE
  5
402
330
2
100
AcDbEntity
  8
0
  6
CONTINUOUS
100
AcDbLine
 10
53.18523725954358
 20
-5.168627595620531
 30
0.0
 11
53.5231046115436
 21
-5.124514678820499
 31
0.0
  0
LINE
  5
403
330
2
100
AcDbEntity
  8
0
  6
CONTINUOUS
100
AcDbLine
 10
53.18523725954358
 20
-5.168627595620531
 30
0.0
 11
53.18940393314361
 21
-5.209191904420531
 31
0.0
  0
LWPOLYLINE
  5
404
330
2
100
AcDbEntity
  8
0
  6
CONTINUOUS
100
AcDbPolyline
 90
        4
 70
     0
 43
0.0
 10
52.24994515394357
 20
-4.831349291620494
 10
52.45108793314361
 20
-4.992124750820519
 10
52.68050583234359
 20
-5.111456538020515
 10
52.92967491554358
 20
-5.185176917220498
  0
LINE
  5
40A
330
2
100
AcDbEntity
  8
0
  6
CONTINUOUS
100
AcDbLine
 10
53.37221013794359
 20
-2.67854220842052
 30
0.0
 11
52.9982643811436
 21
-2.67854220842052
 31
0.0
  0
LINE
  5
40B
330
2
100
AcDbEntity
  8
0
  6
HIDDEN
100
AcDbLine
 10
53.18523725954358
 20
-2.584581270820518
 30
0.0
 11
53.18740506114361
 21
-2.622468861220507
 31
0.0
  0
LWPOLYLINE
  5
40C
330
2
100
AcDbEntity
  8
0
  6
HIDDEN
100
AcDbPolyline
 90
        7
 70
     0
 43
0.0
 10
53.18740506114361
 20
-2.622468861220507
 10
52.92921224994362
 20
-2.647077026020507
 10
52.68051066914359
 20
-2.719731232420496
 10
52.45098588994361
 20
-2.837497006820495
 10
52.24955518114359
 20
-2.996500910820497
 10
52.08377281954361
 20
-3.191141533220498
 10
51.96029650914358
 20
-3.41444679402053
  0
LWPOLYLINE
  5
415
330
2
100
AcDbEntity
  8
0
  6
HIDDEN
100
AcDbPolyline
 90
        6
 70
     0
 43
0.0
 10
53.18523725954358
 20
-2.584581270820518
 10
52.8469625635436
 20
-2.628720640420507
 10
52.53118158914358
 20
-2.756538405220506
 10
52.25911937634359
 20
-2.960235442020501
 10
52.04949236514361
 20
-3.227297323620515
 10
51.9519011507436
 20
-3.432817118820519
  0
LWPOLYLINE
  5
41D
330
2
100
AcDbEntity
  8
0
  6
CONTINUOUS
100
AcDbPolyline
 90
        4
 70
     0
 43
0.0
 10
52.9982643811436
 20
-2.67854220842052
 10
52.63946605474359
 20
-2.782787520420495
 10
52.3248828643436
 20
-2.982832810020507
 10
52.08000047234358
 20
-3.262471595620507
  0
LINE
  5
423
330
2
100
AcDbEntity
  8
0
  6
HIDDEN
100
AcDbLine
 10
51.96029650914358
 20
-3.41444679402053
 30
0.0
 11
51.93712708034363
 21
-3.472645514020495
 31
0.0
  0
LINE
  5
424
330
2
100
AcDbEntity
  8
0
  6
HIDDEN
100
AcDbLine
 10
51.95183512354361
 20
-3.432792578020507
 30
0.0
 11
51.93705883074358
 21
-3.472620290020497
 31
0.0
  0
LINE
  5
425
330
2
100
AcDbEntity
  8
0
  6
CONTINUOUS
100
AcDbLine
 10
51.88455387074359
 20
-3.963564656420498
 30
0.0
 11
51.91667156194362
 21
-4.206542341220494
 31
0.0
  0
LINE
  5
426
330
2
100
AcDbEntity
  8
0
  6
HIDDEN
100
AcDbLine
 10
51.87273725954359
 20
-3.8741692900205
 30
0.0
 11
51.88455387074359
 21
-3.963564656420498
 31
0.0
  0
LINE
  5
427
330
2
100
AcDbEntity
  8
0
  6
CONTINUOUS
100
AcDbLine
 10
51.9246577907436
 20
-3.59904920682052
 30
0.0
 11
51.8714397603436
 21
-3.965298128420496
 31
0.0
  0
LINE
  5
428
330
2
100
AcDbEntity
  8
0
  6
HIDDEN
100
AcDbLine
 10
51.8841510899436
 20
-3.657884269220499
 30
0.0
 11
51.8588989715436
 21
-3.911410568420517
 31
0.0
  0
LINE
  5
429
330
2
100
AcDbEntity
  8
0
  6
HIDDEN
100
AcDbLine
 10
51.8588989715436
 20
-3.911410568420517
 30
0.0
 11
51.8844574547436
 21
-4.165122757220498
 31
0.0
  0
LINE
  5
42A
330
2
100
AcDbEntity
  8
0
  6
HIDDEN
100
AcDbLine
 10
51.87273725954359
 20
-3.8741692900205
 30
0.0
 11
51.8588989715436
 21
-3.911410568420517
 31
0.0
  0
LINE
  5
42B
330
2
100
AcDbEntity
  8
0
  6
HIDDEN
100
AcDbLine
 10
51.91751694434358
 20
-3.539480963620516
 30
0.0
 11
51.87273725954359
 21
-3.8741692900205
 31
0.0
  0
LINE
  5
42C
330
2
100
AcDbEntity
  8
0
  6
HIDDEN
100
AcDbLine
 10
51.9519011507436
 20
-3.432817118820519
 30
0.0
 11
51.91751694434358
 21
-3.539480963620516
 31
0.0
  0
LINE
  5
42D
330
2
100
AcDbEntity
  8
0
  6
CONTINUOUS
100
AcDbLine
 10
52.08000047234358
 20
-3.262471595620507
 30
0.0
 11
51.9246577907436
 21
-3.59904920682052
 31
0.0
  0
LINE
  5
42E
330
2
100
AcDbEntity
  8
0
  6
HIDDEN
100
AcDbLine
 10
51.93712708034363
 20
-3.472645514020495
 30
0.0
 11
51.8841510899436
 21
-3.657884269220499
 31
0.0
  0
LWPOLYLINE
  5
42F
330
2
100
AcDbEntity
  8
0
  6
HIDDEN
 62
     9
100
AcDbPolyline
 90
        7
 70
     0
 43
0.0
 10
67.60014039394357
 20
-1.165155395620498
 10
67.19004892994357
 20
-4.0382295588205
 10
66.67214045154358
 20
-7.070137131620494
 10
66.08202470914355
 20
-9.917480946020507
 10
65.42162085474356
 20
-12.66062439562049
 10
64.70783377154359
 20
-15.25639984042051
 10
64.07133431554356
 20
-17.33266739562049
  0
LWPOLYLINE
  5
438
330
2
100
AcDbEntity
  8
0
  6
HIDDEN
 62
     9
100
AcDbPolyline
 90
        7
 70
     0
 43
0.0
 10
67.81715620994356
 20
-1.1928058276205
 10
67.40595594274356
 20
-4.073444478820515
 10
66.88675122434355
 20
-7.112519408420507
 10
66.29517960674357
 20
-9.966658976420507
 10
65.63321617634358
 20
-12.71612094442049
 10
64.91776667554356
 20
-15.31788173642049
 10
64.27962829474359
 20
-17.39949163242053
  0
LWPOLYLINE
  5
441
330
2
100
AcDbEntity
  8
0
  6
CONTINUOUS
100
AcDbPolyline
 90
        5
 70
     0
 43
0.0
 10
66.58832161794359
 20
-17.71831081482051
 10
66.85979477154361
 20
-13.8054904996205
 10
67.3490030099436
 20
-9.761438965220531
 10
68.18226456034361
 20
-5.71739964362052
 10
69.43484715360991
 20
-1.992236378020516
  0
LINE
  5
4AA
330
2
100
AcDbEntity
  8
0
  6
CONTINUOUS
100
AcDbLine
 10
54.31023725954358
 20
-21.30473637802052
 30
0.0
 11
54.31023725954358
 21
-20.55473637802052
 31
0.0
  0
LINE
  5
4AB
330
2
100
AcDbEntity
  8
0
  6
CONTINUOUS
100
AcDbLine
 10
54.10094132514362
 20
-21.49979218122051
 30
0.0
 11
54.04531543874361
 21
-21.47456400362051
 31
0.0
  0
LINE
  5
4AC
330
2
100
AcDbEntity
  8
0
  6
CONTINUOUS
100
AcDbLine
 10
54.10094132514362
 20
-21.41979218122051
 30
0.0
 11
54.05796919234359
 21
-21.40030304202049
 31
0.0
  0
LINE
  5
4AD
330
2
100
AcDbEntity
  8
0
  6
CONTINUOUS
100
AcDbLine
 10
54.04523725954359
 20
-21.47473637802049
 30
0.0
 11
54.04523725954359
 21
-21.45473637802052
 31
0.0
  0
LINE
  5
4AE
330
2
100
AcDbEntity
  8
0
  6
CONTINUOUS
100
AcDbLine
 10
54.05813887714359
 20
-21.40058476042051
 30
0.0
 11
54.12273725954358
 21
-21.33598637802052
 31
0.0
  0
LWPOLYLINE
  5
4AF
330
2
100
AcDbEntity
  8
0
  6
CONTINUOUS
100
AcDbPolyline
 90
        5
 70
     0
 43
0.0
 10
54.10094683714357
 20
-21.42967806762051
 10
54.1026489747436
 20
-21.42852625162049
 10
54.10430577634361
 20
-21.4246191124205
 10
54.1024919859436
 20
-21.42079881322051
 10
54.10093717474359
 20
-21.4197903028205
  0
LWPOLYLINE
  5
4B6
330
2
100
AcDbEntity
  8
0
  6
CONTINUOUS
100
AcDbPolyline
 90
        5
 70
     0
 43
0.0
 10
54.10094683714357
 20
-21.50967806762052
 10
54.1026489747436
 20
-21.50852625162049
 10
54.10430577634361
 20
-21.50461911242052
 10
54.1024919859436
 20
-21.50079881322052
 10
54.10093717474359
 20
-21.49979030282051
  0
LINE
  5
4BD
330
2
100
AcDbEntity
  8
0
  6
CONTINUOUS
100
AcDbLine
 10
54.04477894754359
 20
-21.4551520740205
 30
0.0
 11
54.10094132514362
 21
-21.42968057482049
 31
0.0
  0
LINE
  5
4BE
330
2
100
AcDbEntity
  8
0
  6
CONTINUOUS
100
AcDbLine
 10
54.09729330914359
 20
-21.42138425962049
 30
0.0
 11
54.10094132514362
 21
-21.41979218122051
 31
0.0
  0
ARC
  5
4BF
330
2
100
AcDbEntity
  8
0
  6
CONTINUOUS
100
AcDbCircle
 10
54.27898725954358
 20
-21.30473637802052
 30
0.0
 40
0.03125
100
AcDbArc
 50
270.0
 51
0.0
  0
LINE
  5
4C0
330
2
100
AcDbEntity
  8
0
  6
CONTINUOUS
100
AcDbLine
 10
54.10094132514362
 20
-21.89979218122052
 30
0.0
 11
54.04531543874361
 21
-21.87456400362052
 31
0.0
  0
LINE
  5
4C1
330
2
100
AcDbEntity
  8
0
  6
CONTINUOUS
100
AcDbLine
 10
54.10094132514362
 20
-21.81979218122052
 30
0.0
 11
54.04531543874361
 21
-21.79456400362052
 31
0.0
  0
LINE
  5
4C2
330
2
100
AcDbEntity
  8
0
  6
CONTINUOUS
100
AcDbLine
 10
54.10094132514362
 20
-21.73979218122049
 30
0.0
 11
54.04531543874361
 21
-21.71456400362049
 31
0.0
  0
LINE
  5
4C3
330
2
100
AcDbEntity
  8
0
  6
CONTINUOUS
100
AcDbLine
 10
54.10094132514362
 20
-21.65979218122049
 30
0.0
 11
54.04531543874361
 21
-21.63456400362049
 31
0.0
  0
LINE
  5
4C4
330
2
100
AcDbEntity
  8
0
  6
CONTINUOUS
100
AcDbLine
 10
54.10094132514362
 20
-21.57979218122051
 30
0.0
 11
54.04531543874361
 21
-21.55456400362052
 31
0.0
  0
LINE
  5
4C5
330
2
100
AcDbEntity
  8
0
  6
CONTINUOUS
100
AcDbLine
 10
54.04523725954359
 20
-22.05473637802052
 30
0.0
 11
54.04523725954359
 21
-21.9347363780205
 31
0.0
  0
LINE
  5
4C6
330
2
100
AcDbEntity
  8
0
  6
CONTINUOUS
100
AcDbLine
 10
54.04523725954359
 20
-21.87473637802051
 30
0.0
 11
54.04523725954359
 21
-21.8547363780205
 31
0.0
  0
LINE
  5
4C7
330
2
100
AcDbEntity
  8
0
  6
CONTINUOUS
100
AcDbLine
 10
54.04523725954359
 20
-21.7947363780205
 30
0.0
 11
54.04523725954359
 21
-21.77473637802052
 31
0.0
  0
LINE
  5
4C8
330
2
100
AcDbEntity
  8
0
  6
CONTINUOUS
100
AcDbLine
 10
54.04523725954359
 20
-21.7147363780205
 30
0.0
 11
54.04523725954359
 21
-21.69473637802052
 31
0.0
  0
LINE
  5
4C9
330
2
100
AcDbEntity
  8
0
  6
CONTINUOUS
100
AcDbLine
 10
54.04523725954359
 20
-21.63473637802052
 30
0.0
 11
54.04523725954359
 21
-21.61473637802049
 31
0.0
  0
LINE
  5
4CA
330
2
100
AcDbEntity
  8
0
  6
CONTINUOUS
100
AcDbLine
 10
54.04523725954359
 20
-21.55473637802052
 30
0.0
 11
54.04523725954359
 21
-21.53473637802049
 31
0.0
  0
LINE
  5
4CB
330
2
100
AcDbEntity
  8
0
  6
CONTINUOUS
100
AcDbLine
 10
54.09953021154359
 20
-21.90098982602052
 30
0.0
 11
54.10094132514362
 21
-21.89979218122052
 31
0.0
  0
LWPOLYLINE
  5
4CC
330
2
100
AcDbEntity
  8
0
  6
CONTINUOUS
100
AcDbPolyline
 90
        5
 70
     0
 43
0.0
 10
54.10094683714357
 20
-21.58967806762051
 10
54.1026489747436
 20
-21.58852625162052
 10
54.10430577634361
 20
-21.58461911242051
 10
54.1024919859436
 20
-21.58079881322049
 10
54.10093717474359
 20
-21.57979030282051
  0
LWPOLYLINE
  5
4D3
330
2
100
AcDbEntity
  8
0
  6
CONTINUOUS
100
AcDbPolyline
 90
        5
 70
     0
 43
0.0
 10
54.10094683714357
 20
-21.66967806762049
 10
54.1026489747436
 20
-21.66852625162053
 10
54.10430577634361
 20
-21.66461911242049
 10
54.1024919859436
 20
-21.66079881322049
 10
54.10093717474359
 20
-21.65979030282049
  0
LWPOLYLINE
  5
4DA
330
2
100
AcDbEntity
  8
0
  6
CONTINUOUS
100
AcDbPolyline
 90
        5
 70
     0
 43
0.0
 10
54.10094683714357
 20
-21.74967806762052
 10
54.1026489747436
 20
-21.7485262516205
 10
54.10430577634361
 20
-21.74461911242049
 10
54.1024919859436
 20
-21.74079881322052
 10
54.10093717474359
 20
-21.73979030282049
  0
LWPOLYLINE
  5
4E1
330
2
100
AcDbEntity
  8
0
  6
CONTINUOUS
100
AcDbPolyline
 90
        5
 70
     0
 43
0.0
 10
54.10094683714357
 20
-21.82967806762051
 10
54.1026489747436
 20
-21.8285262516205
 10
54.10430577634361
 20
-21.82461911242052
 10
54.1024919859436
 20
-21.82079881322053
 10
54.10093717474359
 20
-21.81979030282052
  0
LWPOLYLINE
  5
4E8
330
2
100
AcDbEntity
  8
0
  6
CONTINUOUS
100
AcDbPolyline
 90
        5
 70
     0
 43
0.0
 10
54.10094683714357
 20
-21.9096780676205
 10
54.1026489747436
 20
-21.90852625162051
 10
54.10430577634361
 20
-21.90461911242052
 10
54.1024919859436
 20
-21.9007988132205
 10
54.10093717474359
 20
-21.89979030282053
  0
LINE
  5
4EF
330
2
100
AcDbEntity
  8
0
  6
CONTINUOUS
100
AcDbLine
 10
54.09781852194362
 20
-21.82130415082049
 30
0.0
 11
54.10094132514362
 21
-21.81979218122052
 31
0.0
  0
LINE
  5
4F0
330
2
100
AcDbEntity
  8
0
  6
CONTINUOUS
100
AcDbLine
 10
54.04477894754359
 20
-21.61515207402052
 30
0.0
 11
54.10094132514362
 21
-21.58968057482052
 31
0.0
  0
LINE
  5
4F1
330
2
100
AcDbEntity
  8
0
  6
CONTINUOUS
100
AcDbLine
 10
54.04477894754359
 20
-21.69515207402051
 30
0.0
 11
54.10094132514362
 21
-21.6696805748205
 31
0.0
  0
LINE
  5
4F2
330
2
100
AcDbEntity
  8
0
  6
CONTINUOUS
100
AcDbLine
 10
54.04477894754359
 20
-21.77515207402049
 30
0.0
 11
54.10094132514362
 21
-21.7496805748205
 31
0.0
  0
LINE
  5
4F3
330
2
100
AcDbEntity
  8
0
  6
CONTINUOUS
100
AcDbLine
 10
54.04477894754359
 20
-21.85515207402049
 30
0.0
 11
54.10094132514362
 21
-21.82968057482051
 31
0.0
  0
LINE
  5
4F4
330
2
100
AcDbEntity
  8
0
  6
CONTINUOUS
100
AcDbLine
 10
54.04477894754359
 20
-21.93515207402052
 30
0.0
 11
54.10094132514362
 21
-21.90968057482052
 31
0.0
  0
LINE
  5
4F5
330
2
100
AcDbEntity
  8
0
  6
CONTINUOUS
100
AcDbLine
 10
54.09407358274359
 20
-21.6617906084205
 30
0.0
 11
54.10094132514362
 21
-21.65979218122049
 31
0.0
  0
LINE
  5
4F6
330
2
100
AcDbEntity
  8
0
  6
CONTINUOUS
100
AcDbLine
 10
54.04477894754359
 20
-21.5351520740205
 30
0.0
 11
54.10094132514362
 21
-21.50968057482052
 31
0.0
  0
LINE
  5
517
330
2
100
AcDbEntity
  8
0
  6
HIDDEN
 62
     9
100
AcDbLine
 10
60.70672473794357
 20
-19.6105233700205
 30
0.0
 11
55.14794903394355
 21
-19.77638381962051
 31
0.0
  0
LINE
  5
518
330
2
100
AcDbEntity
  8
0
  6
HIDDEN
 62
     9
100
AcDbLine
 10
60.69126023714358
 20
-19.39232068362049
 30
0.0
 11
55.26143566114356
 21
-19.54296953642051
 31
0.0
  0
ARC
  5
519
330
2
100
AcDbEntity
  8
0
  6
HIDDEN
 62
     9
100
AcDbCircle
 10
54.50846056354359
 20
-19.92973637802052
 30
0.0
 40
0.125
100
AcDbArc
 50
270.0
 51
314.9995431127
  0
ARC
  5
51A
330
2
100
AcDbEntity
  8
0
  6
HIDDEN
 62
     9
100
AcDbCircle
 10
54.50846056354359
 20
-19.92973637802052
 30
0.0
 40
0.34375
100
AcDbArc
 50
270.0
 51
315.0
  0
LWPOLYLINE
  5
51B
330
2
100
AcDbEntity
  8
0
  6
HIDDEN
 62
     9
100
AcDbPolyline
 90
        6
 70
     0
 43
0.0
 10
55.15298825794357
 20
-19.54918540202051
 10
55.14243569314359
 20
-19.55007741642052
 10
55.11159855394362
 20
-19.55543408202049
 10
55.0676324723436
 20
-19.57042962282051
 10
55.02218080354359
 20
-19.59690006922049
 10
54.99326489634359
 20
-19.62170918762049
  0
LINE
  5
523
330
2
100
AcDbEntity
  8
0
  6
HIDDEN
 62
     9
100
AcDbLine
 10
54.75152852034355
 20
-20.17280433322051
 30
0.0
 11
55.14794903394355
 21
-19.77638381962051
 31
0.0
  0
LINE
  5
524
330
2
100
AcDbEntity
  8
0
  6
HIDDEN
 62
     9
100
AcDbLine
 10
54.59684820674358
 20
-20.0181254308205
 30
0.0
 11
54.99326509794357
 21
-19.62170853962052
 31
0.0
  0
LWPOLYLINE
  5
732
330
2
100
AcDbEntity
  8
0
  6
CONTINUOUS
100
AcDbPolyline
 90
        9
 70
     0
 43
0.0
 10
69.44103307554357
 20
-0.9692683828204984
 10
67.59134744994361
 20
-0.9691065156205205
 10
66.45031335714358
 20
-0.9691565604204974
 10
65.23263830914359
 20
-0.9690704372205196
 10
63.9817593107436
 20
-0.9693282196205181
 10
62.74000440514362
 20
-0.9696766308204978
 10
61.52203866594359
 20
-0.9695923828205188
 10
60.20973610274359
 20
-0.9691788868204973
 10
58.6817677811436
 20
-0.9690553492205076
  0
ARC
  5
73D
330
2
100
AcDbEntity
  8
0
  6
HIDDEN
 62
     9
100
AcDbCircle
 10
67.59135993154359
 20
-0.4922363780205182
 30
0.0
 40
0.71874796
100
AcDbArc
 50
290.4193231791999
 51
340.5383023022999
  0
ARC
  5
73E
330
2
100
AcDbEntity
  8
0
  6
HIDDEN
 62
     9
100
AcDbCircle
 10
67.59135993154359
 20
-0.4922363780205182
 30
0.0
 40
0.4999985808
100
AcDbArc
 50
290.4193618721
 51
340.5383320931999
  0
LWPOLYLINE
  5
73F
330
2
100
AcDbEntity
  8
0
  6
HIDDEN
100
AcDbPolyline
 90
        5
 70
     0
 43
0.0
 10
54.09620675074359
 20
-4.853812134820497
 10
54.12782452194361
 20
-4.828448270820498
 10
54.29376774274359
 20
-4.631166277220497
 10
54.41744124994361
 20
-4.405677325220519
 10
54.49374440674361
 20
-4.160877797220518
  0
LINE
  5
746
330
2
100
AcDbEntity
  8
0
  6
CONTINUOUS
100
AcDbLine
 10
53.92631510274359
 20
-4.990099685220496
 30
0.0
 11
54.09620675074359
 21
-4.853812134820497
 31
0.0
  0
LINE
  5
747
330
2
100
AcDbEntity
  8
0
  6
CONTINUOUS
100
AcDbLine
 10
53.69673588834359
 20
-5.11010988842052
 30
0.0
 11
53.92631510274359
 21
-4.990099685220496
 31
0.0
  0
LINE
  5
748
330
2
100
AcDbEntity
  8
0
  6
HIDDEN
100
AcDbLine
 10
54.3836070419436
 20
-3.340815949220495
 30
0.0
 11
54.36124706274359
 21
-3.2965985380205
 31
0.0
  0
LINE
  5
749
330
2
100
AcDbEntity
  8
0
  6
HIDDEN
100
AcDbLine
 10
54.38360699074357
 20
-3.340815974820497
 30
0.0
 11
54.2940514947436
 21
-3.190535706020494
 31
0.0
  0
LINE
  5
74A
330
2
100
AcDbEntity
  8
0
  6
HIDDEN
100
AcDbLine
 10
54.41716831074359
 20
-3.412532152420507
 30
0.0
 11
54.38360699074357
 21
-3.340815974820497
 31
0.0
  0
LINE
  5
74B
330
2
100
AcDbEntity
  8
0
  6
HIDDEN
100
AcDbLine
 10
54.49773725954358
 20
-3.8680222708205
 30
0.0
 11
54.51908688514362
 21
-3.907156525220496
 31
0.0
  0
LINE
  5
74C
330
2
100
AcDbEntity
  8
0
  6
CONTINUOUS
100
AcDbLine
 10
54.49903475874362
 20
-3.965298128420496
 30
0.0
 11
54.4458167299436
 21
-3.59904920682052
 31
0.0
  0
LINE
  5
74D
330
2
100
AcDbEntity
  8
0
  6
HIDDEN
100
AcDbLine
 10
54.49374440674361
 20
-4.160877797220518
 30
0.0
 11
54.51908688514362
 21
-3.907156525220496
 31
0.0
  0
LINE
  5
74E
330
2
100
AcDbEntity
  8
0
  6
HIDDEN
100
AcDbLine
 10
54.51908688514362
 20
-3.907156525220496
 30
0.0
 11
54.49359646434359
 21
-3.654652779620516
 31
0.0
  0
LINE
  5
74F
330
2
100
AcDbEntity
  8
0
  6
CONTINUOUS
100
AcDbLine
 10
54.4531460691436
 20
-4.202521056420518
 30
0.0
 11
54.48501873794359
 21
-3.9634296884205
 31
0.0
  0
LINE
  5
750
330
2
100
AcDbEntity
  8
0
  6
HIDDEN
100
AcDbLine
 10
54.48501873794359
 20
-3.9634296884205
 30
0.0
 11
54.49773725954358
 21
-3.8680222708205
 31
0.0
  0
LINE
  5
751
330
2
100
AcDbEntity
  8
0
  6
HIDDEN
100
AcDbLine
 10
54.49773725954358
 20
-3.8680222708205
 30
0.0
 11
54.45430784994361
 21
-3.538901083620498
 31
0.0
  0
LINE
  5
752
330
2
100
AcDbEntity
  8
0
  6
HIDDEN
100
AcDbLine
 10
54.45430784994361
 20
-3.538901083620498
 30
0.0
 11
54.3611973907436
 21
-3.296623552420495
 31
0.0
  0
LINE
  5
753
330
2
100
AcDbEntity
  8
0
  6
CONTINUOUS
100
AcDbLine
 10
54.4458167299436
 20
-3.59904920682052
 30
0.0
 11
54.29047404834361
 21
-3.262471595620507
 31
0.0
  0
LINE
  5
754
330
2
100
AcDbEntity
  8
0
  6
HIDDEN
100
AcDbLine
 10
54.49359646434359
 20
-3.654652779620516
 30
0.0
 11
54.41716831074359
 21
-3.412532152420507
 31
0.0
  0
LINE
  5
755
330
2
100
AcDbEntity
  8
0
  6
CONTINUOUS
 62
     9
100
AcDbLine
 10
58.6817677811436
 20
-0.9690553492205076
 30
0.0
 11
54.96326876354363
 21
-0.9691615060204945
 31
0.0
  0
LWPOLYLINE
  5
757
330
2
100
AcDbEntity
  8
0
  6
HIDDEN
 62
     9
100
AcDbPolyline
 90
        5
 70
     0
 43
0.0
 10
67.60492243074359
 20
-1.1649656372205
 10
67.61938547554359
 20
-1.106311595620507
 10
67.67107712194363
 20
-1.023693926820495
 10
67.73548288834359
 20
-0.9744668884205189
 10
67.7658016659436
 20
-0.9608164836205155
  0
LINE
  5
764
330
2
100
AcDbEntity
  8
0
  6
CONTINUOUS
100
AcDbLine
 10
69.96241802114361
 20
-0.969112598820498
 30
0.0
 11
69.44103307554357
 21
-0.9692683828204984
 31
0.0
  0
ARC
  5
766
330
2
100
AcDbEntity
  8
0
  6
HIDDEN
 62
     9
100
AcDbCircle
 10
68.2988406851436
 20
-0.7422363780205182
 30
0.0
 40
0.2500000096
100
AcDbArc
 50
89.9999731099
 51
160.5382299113999
  0
LINE
  5
769
330
2
100
AcDbEntity
  8
0
  6
HIDDEN
100
AcDbLine
 10
70.13165172034362
 20
-1.177083411620497
 30
0.0
 11
71.0850793763436
 21
-1.177075090020519
 31
0.0
  0
LINE
  5
76A
330
2
100
AcDbEntity
  8
0
  6
CONTINUOUS
100
AcDbLine
 10
70.91207840674361
 20
-0.9691224596205181
 30
0.0
 11
69.96430096674362
 21
-0.9691130724204946
 31
0.0
  0
LINE
  5
76B
330
2
100
AcDbEntity
  8
0
  6
CONTINUOUS
100
AcDbLine
 10
70.80853620194361
 20
-1.176913554020497
 30
0.0
 11
70.13165169314359
 21
-1.177083168420519
 31
0.0
  0
LINE
  5
76D
330
2
100
AcDbEntity
  8
0
  6
HIDDEN
100
AcDbLine
 10
69.96241850274358
 20
-0.9691130676204942
 30
0.0
 11
69.96430096674362
 21
-0.9691130724204946
 31
0.0
  0
LWPOLYLINE
  5
76E
330
2
100
AcDbEntity
  8
0
  6
CONTINUOUS
100
AcDbPolyline
 90
       12
 70
     0
 43
0.0
 10
71.08507995554359
 20
-1.177079789220496
 10
71.08397962274358
 20
-1.169169814820516
 10
71.07712056514362
 20
-1.138167907620495
 10
71.06663571554358
 20
-1.108861440420508
 10
71.05293656354362
 20
-1.081676877220498
 10
71.03648411554357
 20
-1.05695201322052
 10
71.01777080354361
 20
-1.034932114020516
 10
70.99730283074359
 20
-1.015769782820495
 10
70.97558370594359
 20
-0.9995282180204974
 10
70.95310201154359
 20
-0.9861886276205176
 10
70.93038502434359
 20
-0.9756838484204983
 10
70.9120783155436
 20
-0.9691224308205157
  0
LINE
  5
77C
330
2
100
AcDbEntity
  8
0
  6
CONTINUOUS
100
AcDbLine
 10
71.0850793779436
 20
-1.177075091620519
 30
0.0
 11
70.80853620194361
 21
-1.176913554020497
 31
0.0
  0
LINE
  5
77E
330
2
100
AcDbEntity
  8
0
  6
HIDDEN
 62
     9
100
AcDbLine
 10
70.96484248571264
 20
-1.992236378020518
 30
0.0
 11
70.86796988514362
 21
-1.203753877220517
 31
0.0
  0
LINE
  5
786
330
2
100
AcDbEntity
  8
0
  6
CONTINUOUS
100
AcDbLine
 10
71.18523725954358
 20
-1.992236378020518
 30
0.0
 11
71.08508737954361
 21
-1.177078875620519
 31
0.0
  0
LINE
  5
788
330
2
100
AcDbEntity
  8
0
  6
HIDDEN
100
AcDbLine
 10
70.31008178754359
 20
-0.9690773028205192
 30
0.0
 11
70.31475186594358
 21
-0.9690763892205005
 31
0.0
  0
ARC
  5
789
330
2
100
AcDbEntity
  8
0
  6
HIDDEN
 62
     9
100
AcDbCircle
 10
71.06234335874361
 20
-0.4922363780205182
 30
0.0
 40
0.71875
100
AcDbArc
 50
199.4803593744999
 51
252.5105483828999
  0
ARC
  5
78A
330
2
100
AcDbEntity
  8
0
  6
CONTINUOUS
100
AcDbCircle
 10
71.06234335874361
 20
-0.4922363780205182
 30
0.0
 40
0.5
100
AcDbArc
 50
199.4803857408
 51
252.5105520353
  0
ARC
  5
78B
330
2
100
AcDbEntity
  8
0
  6
CONTINUOUS
100
AcDbCircle
 10
70.3555951459436
 20
-0.7422363780205182
 30
0.0
 40
0.25
100
AcDbArc
 50
19.4802953892
 51
90.0
  0
LINE
  5
790
330
2
100
AcDbEntity
  8
0
  6
HIDDEN
 62
     9
100
AcDbLine
 10
35.9857369381552
 20
-0.7319277932708051
 30
0.0
 11
38.10143270135494
 21
-0.7317063993926018
 31
0.0
  0
LINE
  5
791
330
2
100
AcDbEntity
  8
0
  6
HIDDEN
 62
     9
100
AcDbLine
 10
68.26904181770884
 20
-0.7317063994588376
 30
0.0
 11
70.38473758253203
 21
-0.7319277932708051
 31
0.0
  0
LWPOLYLINE
  5
792
330
2
100
AcDbEntity
  8
0
  6
CONTINUOUS
100
AcDbPolyline
 90
        4
 70
     0
 43
0.0
 10
60.42436267714357
 20
-21.30643201642049
 10
60.61391600194356
 20
-21.63520298442049
 10
60.81921356194357
 20
-21.95097321642051
 10
61.03923337794359
 20
-22.2522203940205
  0
LWPOLYLINE
  5
798
330
2
100
AcDbEntity
  8
0
  6
CONTINUOUS
100
AcDbPolyline
 90
        4
 70
     0
 43
0.0
 10
63.40057199874359
 20
-21.6754024260205
 10
63.43533862754359
 20
-21.59888632682051
 10
63.47139327554357
 20
-21.51522361002052
 10
63.50851200834359
 20
-21.42380971882051
  0
LWPOLYLINE
  5
79E
330
2
100
AcDbEntity
  8
0
  6
CONTINUOUS
100
AcDbPolyline
 90
        4
 70
     0
 43
0.0
 10
63.41330166914359
 20
-21.20064601322052
 10
63.36772762914358
 20
-21.43751918282049
 10
63.31181878914359
 20
-21.66283094442052
 10
63.24641225154357
 20
-21.87394947722052
  0
LWPOLYLINE
  5
7A4
330
2
100
AcDbEntity
  8
0
  6
CONTINUOUS
100
AcDbPolyline
 90
        4
 70
     0
 43
0.0
 10
63.54244313474357
 20
-21.11185966442052
 10
63.49272220034357
 20
-21.33345044842052
 10
63.43409957314356
 20
-21.5453336340205
 10
63.36726410114357
 20
-21.7453723684205
  0
LWPOLYLINE
  5
7AA
330
2
100
AcDbEntity
  8
0
  6
CONTINUOUS
100
AcDbPolyline
 90
        4
 70
     0
 43
0.0
 10
64.14974425314358
 20
-21.20292893482051
 10
64.05337220194358
 20
-21.4404011124205
 10
63.94684409954357
 20
-21.66667299882049
 10
63.82585469154356
 20
-21.88832406922049
  0
LWPOLYLINE
  5
7B0
330
2
100
AcDbEntity
  8
0
  6
CONTINUOUS
100
AcDbPolyline
 90
        3
 70
     0
 43
0.0
 10
64.88639300194356
 20
-20.81843776202049
 10
64.74408960354359
 20
-21.27151176202049
 10
64.54497831394357
 20
-21.74214644842052
  0
LWPOLYLINE
  5
7B5
330
2
100
AcDbEntity
  8
0
  6
CONTINUOUS
100
AcDbPolyline
 90
        7
 70
     0
 43
0.0
 10
63.58720792674358
 20
-22.2228653364205
 10
63.77201213794357
 20
-21.9088600948205
 10
63.93390746114358
 20
-21.55300617002049
 10
64.07049943234357
 20
-21.1602046612205
 10
64.17897991234361
 20
-20.7383455204205
 10
64.25784328994359
 20
-20.29328118122051
 10
64.30554358114356
 20
-19.83405839562049
  0
LWPOLYLINE
  5
7BE
330
2
100
AcDbEntity
  8
0
  6
CONTINUOUS
100
AcDbPolyline
 90
        8
 70
     0
 43
0.0
 10
63.27540068514358
 20
-22.2281929972205
 10
63.46054978594356
 20
-21.91360171882049
 10
63.62274697154357
 20
-21.55708427882049
 10
63.75959304834356
 20
-21.16355242122049
 10
63.86827605154357
 20
-20.74090665482052
 10
63.94728707234358
 20
-20.29501002602052
 10
63.99507649634359
 20
-19.83492961322049
 10
64.01109050914358
 20
-19.36723637802051
  0
LINE
  5
7C8
330
2
100
AcDbEntity
  8
CENTER
100
AcDbLine
 10
64.22236991874356
 20
-29.07039763593803
 30
0.0
 11
64.22236991874356
 21
-22.9536379757475
 31
0.0
  0
LWPOLYLINE
  5
7C9
330
2
100
AcDbEntity
  8
0
  6
CONTINUOUS
100
AcDbPolyline
 90
        4
 70
     0
 43
0.0
 10
62.25345650114356
 20
-24.40066880202051
 10
62.27207090114357
 20
-24.53533984842052
 10
62.30194891554357
 20
-24.65659980842049
 10
62.34225698434358
 20
-24.7629013188205
  0
LWPOLYLINE
  5
7CF
330
2
100
AcDbEntity
  8
0
  6
CONTINUOUS
100
AcDbPolyline
 90
       13
 70
     0
 43
0.0
 10
64.56472461794357
 20
-25.0845471044205
 10
64.56616322434356
 20
-25.03386907082052
 10
64.56611493474358
 20
-24.97630160042052
 10
64.56397878114356
 20
-24.91269418602049
 10
64.55917050754357
 20
-24.84384360362052
 10
64.55109826914359
 20
-24.7703922148205
 10
64.53898690274357
 20
-24.69211020042049
 10
64.52168461954357
 20
-24.60822693002052
 10
64.49780541314357
 20
-24.51898445802051
 10
64.46608112674358
 20
-24.42642276682052
 10
64.42449349474358
 20
-24.33173624522049
 10
64.37073150114357
 20
-24.2378206548205
 10
64.30287686434358
 20
-24.15039022282051
  0
LINE
  5
7DE
330
2
100
AcDbEntity
  8
0
  6
CONTINUOUS
100
AcDbLine
 10
64.84197977820734
 20
-24.65894524729137
 30
0.0
 11
64.9385132931436
 21
-24.8108545908205
 31
0.0
  0
LWPOLYLINE
  5
7DF
330
2
100
AcDbEntity
  8
0
  6
CONTINUOUS
100
AcDbPolyline
 90
        7
 70
     0
 43
0.0
 10
64.87357322114357
 20
-25.1155156324205
 10
64.87603505634357
 20
-24.9535593396205
 10
64.86425976194358
 20
-24.7929761668205
 10
64.83843380994358
 20
-24.63761357162051
 10
64.79939139394359
 20
-24.49271237802052
 10
64.74802411074358
 20
-24.36157951562051
 10
64.68609537954359
 20
-24.24859360042052
  0
LWPOLYLINE
  5
7E8
330
2
100
AcDbEntity
  8
0
  6
CONTINUOUS
100
AcDbPolyline
 90
        4
 70
     0
 43
0.0
 10
64.41053297314358
 20
-24.6985372772205
 10
64.4036038467436
 20
-24.67052347242051
 10
64.39540967234356
 20
-24.6406924692205
 10
64.38578130434357
 20
-24.60921634602049
  0
LWPOLYLINE
  5
7EE
330
2
100
AcDbEntity
  8
0
  6
CONTINUOUS
100
AcDbPolyline
 90
        4
 70
     0
 43
0.0
 10
62.37671477314357
 20
-24.82616593642049
 10
62.4265468851436
 20
-24.90020904842052
 10
62.48293828994357
 20
-24.97673553642052
 10
62.54593020834358
 20
-25.05564568682051
  0
LINE
  5
7F4
330
2
100
AcDbEntity
  8
0
  6
CONTINUOUS
100
AcDbLine
 10
65.01531607234358
 20
-26.14320280202051
 30
0.0
 11
64.90839683074357
 21
-26.28197194762051
 31
0.0
  0
LWPOLYLINE
  5
7F5
330
2
100
AcDbEntity
  8
0
  6
CONTINUOUS
100
AcDbPolyline
 90
        3
 70
     0
 43
0.0
 10
65.05455028354356
 20
-26.0759187300205
 10
64.98334960834359
 20
-26.1901329940205
 10
64.90798964994358
 20
-26.28242575082051
  0
LWPOLYLINE
  5
7FA
330
2
100
AcDbEntity
  8
0
  6
CONTINUOUS
100
AcDbPolyline
 90
        9
 70
     0
 43
0.0
 10
62.68909291714357
 20
-25.21710374602052
 10
62.77656025794359
 20
-25.32708902762049
 10
62.85804447714359
 20
-25.4569435428205
 10
62.93735287074358
 20
-25.59887808362051
 10
63.01744005154358
 20
-25.74585992842052
 10
63.09909857154359
 20
-25.8896322436205
 10
63.18941555394356
 20
-26.03433584682051
 10
63.29286231874358
 20
-26.17798359242049
 10
63.41280939074357
 20
-26.31462203242049
  0
LINE
  5
805
330
2
100
AcDbEntity
  8
0
  6
CONTINUOUS
100
AcDbLine
 10
64.59313821954356
 20
-26.61723637802051
 30
0.0
 11
63.7343750483436
 21
-26.61723637802051
 31
0.0
  0
LWPOLYLINE
  5
806
330
2
100
AcDbEntity
  8
0
  6
CONTINUOUS
100
AcDbPolyline
 90
        3
 70
     0
 43
0.0
 10
64.81727522434358
 20
-26.37669638602051
 10
64.76966362114359
 20
-26.42596066122052
 10
64.73525204034356
 20
-26.46200720522049
  0
LINE
  5
80B
330
2
100
AcDbEntity
  8
0
  6
CONTINUOUS
100
AcDbLine
 10
64.88111910754357
 20
-26.31113632842049
 30
0.0
 11
64.86549338274361
 21
-26.3273454708205
 31
0.0
  0
LWPOLYLINE
  5
80C
330
2
100
AcDbEntity
  8
0
  6
CONTINUOUS
100
AcDbPolyline
 90
        3
 70
     0
 43
0.0
 10
64.89026713634356
 20
-26.30148940842049
 10
64.87475748514356
 20
-26.3177594516205
 10
64.81727522434358
 20
-26.37669638602051
  0
LWPOLYLINE
  5
811
330
2
100
AcDbEntity
  8
0
  6
CONTINUOUS
100
AcDbPolyline
 90
        4
 70
     0
 43
0.0
 10
64.73525392034357
 20
-26.46200522442049
 10
64.69131572034356
 20
-26.50880349322051
 10
64.63739632994357
 20
-26.56766749002051
 10
64.59313730434359
 20
-26.61723637802051
  0
LINE
  5
817
330
2
100
AcDbEntity
  8
0
  6
CONTINUOUS
100
AcDbLine
 10
64.90839683074357
 20
-26.28197194762051
 30
0.0
 11
64.89028867554359
 21
-26.30146654762052
 31
0.0
  0
LINE
  5
818
330
2
100
AcDbEntity
  8
0
  6
CONTINUOUS
100
AcDbLine
 10
64.90839683074357
 20
-26.28197194762051
 30
0.0
 11
64.90798964994358
 21
-26.28242575082051
 31
0.0
  0
LINE
  5
819
330
2
100
AcDbEntity
  8
0
  6
CONTINUOUS
100
AcDbLine
 10
64.86418109154358
 20
-26.31918185322052
 30
0.0
 11
64.85875654274358
 21
-26.33423890762049
 31
0.0
  0
LWPOLYLINE
  5
81A
330
2
100
AcDbEntity
  8
0
  6
CONTINUOUS
100
AcDbPolyline
 90
        4
 70
     0
 43
0.0
 10
63.41280939074357
 20
-26.31462203242049
 10
63.42966723554357
 20
-26.33135134122051
 10
63.44701614114357
 20
-26.34795960842049
 10
63.46487157474356
 20
-26.36442711402052
  0
LWPOLYLINE
  5
820
330
2
100
AcDbEntity
  8
0
  6
CONTINUOUS
100
AcDbPolyline
 90
        4
 70
     0
 43
0.0
 10
63.46487157474356
 20
-26.36442711402052
 10
63.5084317923436
 20
-26.4041494356205
 10
63.55121449154356
 20
-26.44377728522052
 10
63.59310156194357
 20
-26.48319857962052
  0
LINE
  5
826
330
2
100
AcDbEntity
  8
0
  6
CONTINUOUS
100
AcDbLine
 10
63.59310156194357
 20
-26.48319857962052
 30
0.0
 11
63.7343750467436
 21
-26.61723637802051
 31
0.0
  0
LWPOLYLINE
  5
827
330
2
100
AcDbEntity
  8
0
  6
CONTINUOUS
100
AcDbPolyline
 90
        7
 70
     0
 43
0.0
 10
64.94159355234356
 20
-24.81626380682049
 10
65.03844161474356
 20
-25.0122992132205
 10
65.10995696834356
 20
-25.21344603562052
 10
65.15257159554358
 20
-25.4077168980205
 10
65.16703077154358
 20
-25.6003651908205
 10
65.15241048674358
 20
-25.78224934282053
 10
65.10897236194359
 20
-25.95243468202049
  0
LINE
  5
830
330
2
100
AcDbEntity
  8
0
  6
CONTINUOUS
100
AcDbLine
 10
65.05399843394357
 20
-26.07695955722051
 30
0.0
 11
65.01531607234358
 21
-26.14320280202051
 31
0.0
  0
LINE
  5
831
330
2
100
AcDbEntity
  8
0
  6
CONTINUOUS
100
AcDbLine
 10
65.05455028354356
 20
-26.0759187300205
 30
0.0
 11
65.05399843394357
 21
-26.07695955722051
 31
0.0
  0
LINE
  5
832
330
2
100
AcDbEntity
  8
0
  6
CONTINUOUS
100
AcDbLine
 10
65.10897236194359
 20
-25.95243468202049
 30
0.0
 11
65.05399843394357
 21
-26.07695955722051
 31
0.0
  0
LWPOLYLINE
  5
833
330
2
100
AcDbEntity
  8
0
  6
CONTINUOUS
100
AcDbPolyline
 90
       11
 70
     0
 43
0.0
 10
64.54027168354359
 20
-25.08786430282053
 10
64.51966630274359
 20
-25.0651289636205
 10
64.50336561954358
 20
-25.03740358282049
 10
64.48950639074358
 20
-25.0060831796205
 10
64.47732971394356
 20
-24.97206938602051
 10
64.46602294754359
 20
-24.9347253876205
 10
64.45521238114356
 20
-24.8939257668205
 10
64.44464183554359
 20
-24.84989779882052
 10
64.43395776354356
 20
-24.80262143082049
 10
64.42277278914359
 20
-24.75221484682052
 10
64.41053297314358
 20
-24.6985372708205
  0
LWPOLYLINE
  5
840
330
2
100
AcDbEntity
  8
0
  6
CONTINUOUS
100
AcDbPolyline
 90
        4
 70
     0
 43
0.0
 10
64.5629479795436
 20
-25.09861151562049
 10
64.56343340514357
 20
-25.09396894922049
 10
64.56402765474357
 20
-25.0892645780205
 10
64.56472459554358
 20
-25.08454709482052
  0
LINE
  5
846
330
2
100
AcDbEntity
  8
0
  6
CONTINUOUS
100
AcDbLine
 10
64.88709496994357
 20
-25.06585861962052
 30
0.0
 11
64.88709362754358
 21
-25.06589918122049
 31
0.0
  0
LWPOLYLINE
  5
847
330
2
100
AcDbEntity
  8
0
  6
CONTINUOUS
100
AcDbPolyline
 90
        4
 70
     0
 43
0.0
 10
64.87408134434359
 20
-25.1298408196205
 10
64.87350962114357
 20
-25.12509962762052
 10
64.8733396227436
 20
-25.12030822122051
 10
64.87357312994359
 20
-25.11551679882051
  0
LWPOLYLINE
  5
84D
330
2
100
AcDbEntity
  8
0
  6
CONTINUOUS
100
AcDbPolyline
 90
        5
 70
     0
 43
0.0
 10
64.73127409634357
 20
-25.11970272522052
 10
64.68739382114359
 20
-25.11488705322052
 10
64.64357639554356
 20
-25.10957860842052
 10
64.60153735234356
 20
-25.10410546762052
 10
64.5629479763436
 20
-25.09861151882051
  0
LWPOLYLINE
  5
854
330
2
100
AcDbEntity
  8
0
  6
CONTINUOUS
100
AcDbPolyline
 90
        7
 70
     0
 43
0.0
 10
64.87408134434359
 20
-25.1298408196205
 10
64.85812835074357
 20
-25.12928423082049
 10
64.83974732674358
 20
-25.12848307242052
 10
64.8184338243436
 20
-25.12729941802052
 10
64.79365194274359
 20
-25.1255517204205
 10
64.76482111074357
 20
-25.12306408362051
 10
64.73127405634359
 20
-25.11970273962051
  0
LINE
  5
85D
330
2
100
AcDbEntity
  8
0
  6
CONTINUOUS
100
AcDbLine
 10
64.93851335714357
 20
-24.81085470122051
 30
0.0
 11
64.94170294754358
 21
-24.81645657322052
 31
0.0
  0
LWPOLYLINE
  5
85E
330
2
100
AcDbEntity
  8
0
  6
CONTINUOUS
100
AcDbPolyline
 90
        3
 70
     0
 43
0.0
 10
64.5629479795436
 20
-25.09861151562049
 10
64.55162087714358
 20
-25.0950804548205
 10
64.5402753763436
 20
-25.0878597924205
  0
LINE
  5
863
330
2
100
AcDbEntity
  8
0
  6
CONTINUOUS
100
AcDbLine
 10
62.68702639874357
 20
-25.2149121412205
 30
0.0
 11
62.68909291714357
 21
-25.21710374602052
 31
0.0
  0
LWPOLYLINE
  5
864
330
2
100
AcDbEntity
  8
0
  6
CONTINUOUS
100
AcDbPolyline
 90
        4
 70
     0
 43
0.0
 10
62.54593020834358
 20
-25.05564568682051
 10
62.59048781954357
 20
-25.10821164522052
 10
62.63750261794356
 20
-25.1612850708205
 10
62.68702639874357
 20
-25.2149121412205
  0
LINE
  5
86A
330
2
100
AcDbEntity
  8
0
  6
CONTINUOUS
100
AcDbLine
 10
62.34225698434358
 20
-24.7629013188205
 30
0.0
 11
62.34413398114359
 21
-24.76696389482052
 31
0.0
  0
LWPOLYLINE
  5
86B
330
2
100
AcDbEntity
  8
0
  6
CONTINUOUS
100
AcDbPolyline
 90
        4
 70
     0
 43
0.0
 10
62.34413398114359
 20
-24.76696389482052
 10
62.35334102114357
 20
-24.7856975588205
 10
62.36339792514358
 20
-24.8041669668205
 10
62.37437513474358
 20
-24.82247495562052
  0
LINE
  5
871
330
2
100
AcDbEntity
  8
0
  6
CONTINUOUS
100
AcDbLine
 10
62.37437513474358
 20
-24.82247495562052
 30
0.0
 11
62.37671477314357
 21
-24.82616593642049
 31
0.0
  0
LWPOLYLINE
  5
872
330
2
100
AcDbEntity
  8
0
  6
CONTINUOUS
100
AcDbPolyline
 90
        7
 70
     0
 43
0.0
 10
63.4748835731436
 20
-23.25348101322052
 10
63.40515241794356
 20
-23.16286994762052
 10
63.34421306754357
 20
-23.0519879380205
 10
63.29375228514357
 20
-22.9238439140205
 10
63.25515080034359
 20
-22.78191523242049
 10
63.22946467394356
 20
-22.63011944042051
 10
63.21737034114359
 20
-22.47264039402049
  0
LWPOLYLINE
  5
87B
330
2
100
AcDbEntity
  8
0
  6
CONTINUOUS
100
AcDbPolyline
 90
        6
 70
     0
 43
0.0
 10
63.78713470754359
 20
-23.25937561322052
 10
63.71693224514356
 20
-23.16815613802052
 10
63.6555642323436
 20
-23.05650525642052
 10
63.60474015074358
 20
-22.92744903882051
 10
63.56586804674357
 20
-22.78453801002051
 10
63.53999733154356
 20
-22.6316687684205
  0
LWPOLYLINE
  5
883
330
2
100
AcDbEntity
  8
0
  6
CONTINUOUS
100
AcDbPolyline
 90
        5
 70
     0
 43
0.0
 10
63.16409641794357
 20
-22.9193320852205
 10
63.20267335874357
 20
-23.0717676260205
 10
63.25231586754359
 20
-23.21180296362052
 10
63.31215007554359
 20
-23.33641610122052
 10
63.38078778434357
 20
-23.44242778282049
  0
LINE
  5
88A
330
2
100
AcDbEntity
  8
0
  6
CONTINUOUS
100
AcDbLine
 10
63.69295255554356
 20
-23.78092713322049
 30
0.0
 11
63.85489175234358
 21
-23.95213665002052
 31
0.0
  0
LINE
  5
88B
330
2
100
AcDbEntity
  8
0
  6
CONTINUOUS
100
AcDbLine
 10
64.61512800034356
 20
-24.1562848228205
 30
0.0
 11
63.78713470754359
 21
-23.25937561322052
 31
0.0
  0
LINE
  5
88C
330
2
100
AcDbEntity
  8
0
  6
CONTINUOUS
100
AcDbLine
 10
64.30287686434358
 20
-24.15039022282051
 30
0.0
 11
63.4748835731436
 21
-23.25348101322052
 31
0.0
  0
LINE
  5
88D
330
2
100
AcDbEntity
  8
0
  6
CONTINUOUS
100
AcDbLine
 10
64.68609537954359
 20
-24.24859360042052
 30
0.0
 11
64.61512800034356
 21
-24.1562848228205
 31
0.0
  0
LINE
  5
88E
330
2
100
AcDbEntity
  8
0
  6
CONTINUOUS
100
AcDbLine
 10
63.85489175234358
 20
-23.95213665002052
 30
0.0
 11
63.90995343074358
 21
-24.0100103796205
 31
0.0
  0
LWPOLYLINE
  5
88F
330
2
100
AcDbEntity
  8
0
  6
CONTINUOUS
100
AcDbPolyline
 90
        3
 70
     0
 43
0.0
 10
64.21549351074358
 20
-24.32829941482052
 10
64.28069033474357
 20
-24.40515134282049
 10
64.3411323635436
 20
-24.49580094602049
  0
LINE
  5
894
330
2
100
AcDbEntity
  8
0
  6
CONTINUOUS
100
AcDbLine
 10
64.38578130434357
 20
-24.60921633962049
 30
0.0
 11
64.38426418914359
 21
-24.6045576308205
 31
0.0
  0
LWPOLYLINE
  5
895
330
2
100
AcDbEntity
  8
0
  6
CONTINUOUS
100
AcDbPolyline
 90
        3
 70
     0
 43
0.0
 10
64.3842641923436
 20
-24.6045576644205
 10
64.36393749954357
 20
-24.54831531402052
 10
64.34113234914358
 20
-24.49580084842052
  0
LWPOLYLINE
  5
89A
330
2
100
AcDbEntity
  8
0
  6
CONTINUOUS
100
AcDbPolyline
 90
        4
 70
     0
 43
0.0
 10
63.90995343074358
 20
-24.0100103796205
 10
64.01254591394357
 20
-24.11736962442051
 10
64.1143754355436
 20
-24.22344616042051
 10
64.21549351074358
 20
-24.32829941482052
  0
LINE
  5
8A0
330
2
100
AcDbEntity
  8
0
  6
CONTINUOUS
100
AcDbLine
 10
63.38078778434357
 20
-23.44242778282049
 30
0.0
 11
63.3877349587436
 21
-23.45145754762052
 31
0.0
  0
LWPOLYLINE
  5
8A1
330
2
100
AcDbEntity
  8
0
  6
CONTINUOUS
100
AcDbPolyline
 90
        4
 70
     0
 43
0.0
 10
63.3877349587436
 20
-23.45145754762052
 10
63.40028907394357
 20
-23.46706548682049
 10
63.41306821634357
 20
-23.48205187082052
 10
63.42606056674359
 20
-23.49640238602052
  0
LWPOLYLINE
  5
8A7
330
2
100
AcDbEntity
  8
0
  6
CONTINUOUS
100
AcDbPolyline
 90
        3
 70
     0
 43
0.0
 10
63.42606056674359
 20
-23.49640238602052
 10
63.56016451714356
 20
-23.6397176740205
 10
63.69295255554356
 20
-23.78092713322049
  0
LINE
  5
8AC
330
2
100
AcDbEntity
  8
0
  6
CONTINUOUS
100
AcDbLine
 10
63.86918940354359
 20
-22.8196048436205
 30
0.0
 11
63.67268364449152
 21
-23.08765173439137
 31
0.0
  0
LWPOLYLINE
  5
8AD
330
2
100
AcDbEntity
  8
0
  6
CONTINUOUS
100
AcDbPolyline
 90
        3
 70
     0
 43
0.0
 10
64.29288561474357
 20
-22.19659102602052
 10
64.17447767714358
 20
-22.38059012522052
 10
64.02782736834359
 20
-22.59743763722049
  0
LINE
  5
8B2
330
2
100
AcDbEntity
  8
0
  6
CONTINUOUS
100
AcDbLine
 10
63.86918940354359
 20
-22.8196048436205
 30
0.0
 11
63.86916038914358
 21
-22.81964440522052
 31
0.0
  0
LINE
  5
8B3
330
2
100
AcDbEntity
  8
0
  6
CONTINUOUS
100
AcDbLine
 10
63.87201623394357
 20
-22.81446784522052
 30
0.0
 11
63.86246991714358
 21
-22.82876899722051
 31
0.0
  0
LINE
  5
8B4
330
2
100
AcDbEntity
  8
0
  6
CONTINUOUS
100
AcDbLine
 10
64.02782736834359
 20
-22.59743763722049
 30
0.0
 11
63.86916038914358
 21
-22.81964440522052
 31
0.0
  0
LINE
  5
8B5
330
2
100
AcDbEntity
  8
0
  6
CONTINUOUS
100
AcDbLine
 10
64.54497831394357
 20
-21.74214644842052
 30
0.0
 11
64.29679845154358
 21
-22.19036864362049
 31
0.0
  0
LWPOLYLINE
  5
8B6
330
2
100
AcDbEntity
  8
0
  6
CONTINUOUS
100
AcDbPolyline
 90
       12
 70
     0
 43
0.0
 10
63.21737034114359
 20
-22.47264039402049
 10
63.21708375714358
 20
-22.45417457002051
 10
63.21753542914358
 20
-22.43282038282049
 10
63.21901190114356
 20
-22.40932941802051
 10
63.22173022594356
 20
-22.38443554922051
 10
63.22583867554358
 20
-22.35880559082049
 10
63.23144885954358
 20
-22.33294541642051
 10
63.23862639714358
 20
-22.30736989002049
 10
63.24735022114357
 20
-22.28269416042051
 10
63.25718570274357
 20
-22.26019969962051
 10
63.26702677154357
 20
-22.24162733642052
 10
63.27540068514358
 20
-22.2281929972205
  0
LINE
  5
8C4
330
2
100
AcDbEntity
  8
0
  6
CONTINUOUS
100
AcDbLine
 10
63.09743346754356
 20
-22.36977056362052
 30
0.0
 11
63.09188730434359
 21
-22.31221814442051
 31
0.0
  0
LWPOLYLINE
  5
8C5
330
2
100
AcDbEntity
  8
0
  6
CONTINUOUS
100
AcDbPolyline
 90
       12
 70
     0
 43
0.0
 10
63.52781432994357
 20
-22.47305530442051
 10
63.52753978434357
 20
-22.4503333140205
 10
63.52846433634357
 20
-22.42261722762052
 10
63.53103066754357
 20
-22.39282783082051
 10
63.53524304834357
 20
-22.36341720522051
 10
63.54086179394358
 20
-22.33573456042051
 10
63.54764021154358
 20
-22.31019109322049
 10
63.55530807394357
 20
-22.28704190282051
 10
63.56354941794357
 20
-22.2665059572205
 10
63.57195224834357
 20
-22.24884215562049
 10
63.58002173794357
 20
-22.23425681642051
 10
63.58720792674358
 20
-22.2228653364205
  0
LWPOLYLINE
  5
8D3
330
2
100
AcDbEntity
  8
0
  6
CONTINUOUS
100
AcDbPolyline
 90
        4
 70
     0
 43
0.0
 10
63.16409561154358
 20
-22.91933136522052
 10
63.13066576994357
 20
-22.76498946282049
 10
63.10889064994356
 20
-22.61369000362051
 10
63.09755398114357
 20
-22.47709210922052
  0
LINE
  5
8D9
330
2
100
AcDbEntity
  8
0
  6
CONTINUOUS
100
AcDbLine
 10
63.53999733154356
 20
-22.6316687684205
 30
0.0
 11
63.52781432994357
 21
-22.47305530442051
 31
0.0
  0
LWPOLYLINE
  5
8DA
330
2
100
AcDbEntity
  8
0
  6
CONTINUOUS
100
AcDbPolyline
 90
        4
 70
     0
 43
0.0
 10
63.09755404674357
 20
-22.47709203242052
 10
63.09622291394357
 20
-22.44175257162051
 10
63.09615808994359
 20
-22.4059908036205
 10
63.09743347874356
 20
-22.36977066122051
  0
LWPOLYLINE
  5
8E0
330
2
100
AcDbEntity
  8
0
  6
CONTINUOUS
100
AcDbPolyline
 90
        4
 70
     0
 43
0.0
 10
63.24323771554359
 20
-21.8831435028205
 10
63.20596400994358
 20
-21.98512567082049
 10
63.16633698434358
 20
-22.08300218602051
 10
63.08837542914357
 20
-22.2612439124205
  0
LINE
  5
8E6
330
2
100
AcDbEntity
  8
0
  6
CONTINUOUS
100
AcDbLine
 10
63.12074425474358
 20
-22.20145712202053
 30
0.0
 11
63.15605975074358
 21
-22.1426751716205
 31
0.0
  0
LINE
  5
8E7
330
2
100
AcDbEntity
  8
0
  6
CONTINUOUS
100
AcDbLine
 10
63.33515319394357
 20
-21.81220728202049
 30
0.0
 11
63.34036515554358
 21
-21.80154656202051
 31
0.0
  0
LWPOLYLINE
  5
8E8
330
2
100
AcDbEntity
  8
0
  6
CONTINUOUS
100
AcDbPolyline
 90
        3
 70
     0
 43
0.0
 10
63.34036515554358
 20
-21.80154656202051
 10
63.35388060194358
 20
-21.77355951242051
 10
63.40057199874359
 20
-21.6754024260205
  0
LINE
  5
8ED
330
2
100
AcDbEntity
  8
0
  6
CONTINUOUS
100
AcDbLine
 10
63.24641225154357
 20
-21.87394947722052
 30
0.0
 11
63.24323771554359
 21
-21.8831435028205
 31
0.0
  0
LWPOLYLINE
  5
8EE
330
2
100
AcDbEntity
  8
0
  6
CONTINUOUS
100
AcDbPolyline
 90
        4
 70
     0
 43
0.0
 10
63.15605974434359
 20
-22.14267516202049
 10
63.21776343714357
 20
-22.03601364042051
 10
63.27756401634356
 20
-21.9257449540205
 10
63.33515318754357
 20
-21.81220727402049
  0
LWPOLYLINE
  5
8F4
330
2
100
AcDbEntity
  8
0
  6
CONTINUOUS
100
AcDbPolyline
 90
        4
 70
     0
 43
0.0
 10
63.82585469154356
 20
-21.88832406922049
 10
63.76305397634358
 20
-21.99131587722051
 10
63.69829307234357
 20
-22.09015300682052
 10
63.56354941794357
 20
-22.2665059572205
  0
LWPOLYLINE
  5
8FA
330
2
100
AcDbEntity
  8
0
  6
CONTINUOUS
100
AcDbPolyline
 90
        3
 70
     0
 43
0.0
 10
63.09188730434359
 20
-22.31221814442051
 10
63.08982527874356
 20
-22.28881173482052
 10
63.08837542914357
 20
-22.2612439124205
  0
LWPOLYLINE
  5
8FF
330
2
100
AcDbEntity
  8
0
  6
CONTINUOUS
100
AcDbPolyline
 90
        4
 70
     0
 43
0.0
 10
63.08837542914357
 20
-22.2612439124205
 10
63.09889085154359
 20
-22.23963232682051
 10
63.11003403874359
 20
-22.2196532084205
 10
63.12074425474358
 20
-22.20145712202053
  0
LWPOLYLINE
  5
905
330
2
100
AcDbEntity
  8
0
  6
CONTINUOUS
100
AcDbPolyline
 90
        4
 70
     0
 43
0.0
 10
61.54410784994359
 20
-22.90332298442051
 10
61.62932356034359
 20
-23.01156081642052
 10
61.71635819234357
 20
-23.11884516522052
 10
61.80472614114357
 20
-23.22460861642051
  0
LWPOLYLINE
  5
90B
330
2
100
AcDbEntity
  8
0
  6
CONTINUOUS
100
AcDbPolyline
 90
        6
 70
     0
 43
0.0
 10
61.99656733954356
 20
-23.50333217002052
 10
62.07214440834357
 20
-23.65660926922049
 10
62.13930224354356
 20
-23.82831098442049
 10
62.19204769954359
 20
-24.00508121002052
 10
62.22874390594356
 20
-24.17824762282052
 10
62.2496362723436
 20
-24.3505706900205
  0
LWPOLYLINE
  5
913
330
2
100
AcDbEntity
  8
0
  6
CONTINUOUS
100
AcDbPolyline
 90
        4
 70
     0
 43
0.0
 10
62.2496362723436
 20
-24.3505706900205
 10
62.25115887874356
 20
-24.37273030122051
 10
62.25225221634358
 20
-24.38676599402052
 10
62.25345650114356
 20
-24.40066880202051
  0
LINE
  5
919
330
2
100
AcDbEntity
  8
0
  6
CONTINUOUS
100
AcDbLine
 10
61.80472614114357
 20
-23.22460861642051
 30
0.0
 11
61.81402903874356
 21
-23.23556464842052
 31
0.0
  0
LWPOLYLINE
  5
91A
330
2
100
AcDbEntity
  8
0
  6
CONTINUOUS
100
AcDbPolyline
 90
        4
 70
     0
 43
0.0
 10
61.89769759074357
 20
-23.34399458122051
 10
61.93212842914356
 20
-23.39522624362052
 10
61.96540103874359
 20
-23.4488978868205
 10
61.99656733954356
 20
-23.50333217002052
  0
LWPOLYLINE
  5
920
330
2
100
AcDbEntity
  8
0
  6
CONTINUOUS
100
AcDbPolyline
 90
        4
 70
     0
 43
0.0
 10
61.81402903874356
 20
-23.23556464842052
 10
61.84336610754358
 20
-23.27122673642049
 10
61.87112218754357
 20
-23.30724378922051
 10
61.89769759074357
 20
-23.34399458122051
  0
LINE
  5
926
330
2
100
AcDbEntity
  8
0
  6
CONTINUOUS
100
AcDbLine
 10
61.03923337794359
 20
-22.2522203940205
 30
0.0
 11
61.54410784994359
 21
-22.90332298442051
 31
0.0
  0
ARC
  5
927
330
2
100
AcDbEntity
  8
0
  6
CONTINUOUS
100
AcDbCircle
 10
63.59278510914356
 20
-17.55473637802051
 30
0.0
 40
3.0
100
AcDbArc
 50
293.8554661622541
 51
356.8742591813
  0
LWPOLYLINE
  5
928
330
2
100
AcDbEntity
  8
0
  6
HIDDEN
 62
     9
100
AcDbPolyline
 90
        5
 70
     0
 43
0.0
 10
64.27966740994356
 20
-17.3994016820205
 10
64.06567906274355
 20
-17.89585784522049
 10
63.62189392354355
 20
-18.4974161940205
 10
63.16815259074354
 20
-18.88171082762049
 10
62.77832667234358
 20
-19.11096228682049
  0
LWPOLYLINE
  5
92F
330
2
100
AcDbEntity
  8
0
  6
HIDDEN
 62
     9
100
AcDbPolyline
 90
        6
 70
     0
 43
0.0
 10
64.07137273794356
 20
-17.33258178282051
 10
63.87329919874358
 20
-17.79172204682049
 10
63.45776650434356
 20
-18.35246573482051
 10
63.03774148354356
 20
-18.70590505642051
 10
62.67751328674356
 20
-18.91679241482052
 10
62.40863876194357
 20
-19.03607963722049
  0
LWPOLYLINE
  5
937
330
2
100
AcDbEntity
  8
0
  6
CONTINUOUS
100
AcDbPolyline
 90
        4
 70
     0
 43
0.0
 10
62.12704777474358
 20
-20.3583401300205
 10
62.37871826914357
 20
-20.23026618922052
 10
62.91908656034359
 20
-19.93999151242051
 10
63.64787034336321
 20
-19.52141505421751
  0
LWPOLYLINE
  5
93D
330
2
100
AcDbEntity
  8
0
  6
CONTINUOUS
100
AcDbPolyline
 90
       11
 70
     0
 43
0.0
 10
63.63804580514358
 20
-21.0467292276205
 10
63.66661029314358
 20
-20.94687365002051
 10
63.69563093954358
 20
-20.8365781668205
 10
63.72480072994356
 20
-20.71455443722052
 10
63.75367143074358
 20
-20.57949356042049
 10
63.78164269154357
 20
-20.43002981802052
 10
63.80794991874356
 20
-20.2646422052205
 10
63.83162367234357
 20
-20.0815849124205
 10
63.85142918434359
 20
-19.8787343684205
 10
63.86575813954359
 20
-19.65325983242049
 10
63.87239533474359
 20
-19.4023828884205
  0
LWPOLYLINE
  5
94A
330
2
100
AcDbEntity
  8
0
  6
CONTINUOUS
100
AcDbPolyline
 90
        5
 70
     0
 43
0.0
 10
64.47557778594358
 20
-19.62108523882051
 10
64.65488289314359
 20
-19.93741067882051
 10
64.78520116514357
 20
-20.22941005802051
 10
64.86469262754358
 20
-20.49226357322051
 10
64.89353858434355
 20
-20.7220118772205
  0
LWPOLYLINE
  5
951
330
2
100
AcDbEntity
  8
0
  6
CONTINUOUS
100
AcDbPolyline
 90
        5
 70
     0
 43
0.0
 10
63.64787034336321
 20
-19.5214150542175
 10
63.65775100834357
 20
-19.9232667636205
 10
63.64335742114358
 20
-20.3323710148205
 10
63.60492053954359
 20
-20.72940370282051
 10
63.54390773954357
 20
-21.1044990900205
  0
LWPOLYLINE
  5
958
330
2
100
AcDbEntity
  8
0
  6
CONTINUOUS
100
AcDbPolyline
 90
        5
 70
     0
 43
0.0
 10
63.47433451074357
 20
-19.62108523882051
 10
63.49373071714357
 20
-20.02722893802052
 10
63.48983592514358
 20
-20.43147749642052
 10
63.46298576514359
 20
-20.8234758884205
 10
63.41450336994356
 20
-21.19338446122049
  0
LWPOLYLINE
  5
95F
330
2
100
AcDbEntity
  8
0
  6
CONTINUOUS
100
AcDbPolyline
 90
        5
 70
     0
 43
0.0
 10
64.47557778594358
 20
-19.62108523882051
 10
64.43717023074356
 20
-20.0287500372205
 10
64.36943017794359
 20
-20.43396918442051
 10
64.27366323394358
 20
-20.82624705642052
 10
64.15247050914357
 20
-21.19565604202049
  0
LWPOLYLINE
  5
966
330
2
100
AcDbEntity
  8
0
  6
CONTINUOUS
100
AcDbPolyline
 90
        3
 70
     0
 43
0.0
 10
64.89353858434355
 20
-20.7220118772205
 10
64.89230229154358
 20
-20.78090810762051
 10
64.88639300194356
 20
-20.81843776202049
  0
LWPOLYLINE
  5
96B
330
2
100
AcDbEntity
  8
0
  6
CONTINUOUS
100
AcDbPolyline
 90
        5
 70
     0
 43
0.0
 10
63.50851196994357
 20
-21.4238096692205
 10
63.5390101651436
 20
-21.34400584202051
 10
63.57039938594357
 20
-21.25669962762052
 10
63.6026736067436
 20
-21.16064195082051
 10
63.63573077634357
 20
-21.05449409002051
  0
LINE
  5
972
330
2
100
AcDbEntity
  8
0
100
AcDbLine
 10
63.87239533474359
 20
-19.4023828884205
 30
0.0
 11
63.64787034336321
 21
-19.52141505421751
 31
0.0
  0
LWPOLYLINE
  5
973
330
2
100
AcDbEntity
  8
0
  6
CONTINUOUS
100
AcDbPolyline
 90
        4
 70
     0
 43
0.0
 10
64.39826458914359
 20
-19.51246087882051
 10
64.42707113954359
 20
-19.5500136356205
 10
64.45308265634356
 20
-19.58658078122051
 10
64.47557778594358
 20
-19.62108523882051
  0
LWPOLYLINE
  5
979
330
2
100
AcDbEntity
  8
0
  6
CONTINUOUS
100
AcDbPolyline
 90
        3
 70
     0
 43
0.0
 10
64.31910366062291
 20
-19.43803262849378
 10
64.35794687554357
 20
-19.46881690762052
 10
64.39826458914359
 20
-19.51246087882051
  0
LINE
  5
97E
330
2
100
AcDbEntity
  8
0
  6
CONTINUOUS
100
AcDbLine
 10
64.30554358114356
 20
-19.83405839562049
 30
0.0
 11
64.32152775234357
 21
-19.36723637802051
 31
0.0
  0
LWPOLYLINE
  5
97F
330
2
100
AcDbEntity
  8
0
100
AcDbPolyline
 90
        4
 70
   128
 43
0.0
 10
63.87239533474359
 20
-19.4023828884205
 10
63.93626727874359
 20
-19.36723637802051
 10
64.01109050914358
 20
-19.36723637802051
 10
64.32152775234357
 20
-19.36723637802051
  0
LWPOLYLINE
  5
980
330
2
100
AcDbEntity
  8
0
  6
CONTINUOUS
100
AcDbPolyline
 90
        4
 70
     0
 43
0.0
 10
60.73107493154359
 20
-20.8068795540205
 10
60.92415375074359
 20
-20.79827385002051
 10
61.10374567714356
 20
-20.77481883402052
 10
61.26829415554359
 20
-20.7365748644205
  0
LWPOLYLINE
  5
986
330
2
100
AcDbEntity
  8
0
  6
CONTINUOUS
100
AcDbPolyline
 90
        5
 70
     0
 43
0.0
 10
60.60492732674356
 20
-20.86647192202049
 10
60.81576705954359
 20
-20.85369866442052
 10
61.01170559074359
 20
-20.82517311882049
 10
61.19128112834356
 20
-20.78108149802051
 10
61.35212848674356
 20
-20.7220118772205
  0
LWPOLYLINE
  5
98D
330
2
100
AcDbEntity
  8
0
  6
CONTINUOUS
100
AcDbPolyline
 90
        3
 70
     0
 43
0.0
 10
61.41614148674357
 20
-20.6838529876205
 10
61.90653408034357
 20
-20.46400438122051
 10
62.12665152674359
 20
-20.35752102282052
  0
LWPOLYLINE
  5
992
330
2
100
AcDbEntity
  8
0
  6
CONTINUOUS
100
AcDbPolyline
 90
        3
 70
     0
 43
0.0
 10
61.35212848674356
 20
-20.7220118772205
 10
61.85571742754357
 20
-20.49111150602049
 10
62.12704777474358
 20
-20.3583401300205
  0
LINE
  5
997
330
2
100
AcDbEntity
  8
0
  6
CONTINUOUS
100
AcDbLine
 10
61.26829415554359
 20
-20.7365748644205
 30
0.0
 11
61.41614148674357
 21
-20.6838529876205
 31
0.0
  0
LINE
  5
998
330
2
100
AcDbEntity
  8
0
  6
CONTINUOUS
100
AcDbLine
 10
61.35212848674356
 20
-20.7220118772205
 30
0.0
 11
61.41614148674357
 21
-20.6838529876205
 31
0.0
  0
LINE
  5
999
330
2
100
AcDbEntity
  8
0
  6
CONTINUOUS
100
AcDbLine
 10
60.64212796034358
 20
-20.82216053642051
 30
0.0
 11
60.61942017314357
 21
-20.83173064842049
 31
0.0
  0
LINE
  5
99A
330
2
100
AcDbEntity
  8
0
  6
CONTINUOUS
100
AcDbLine
 10
60.49666463554356
 20
-20.89234726122052
 30
0.0
 11
60.53920007074359
 21
-20.8759840116205
 31
0.0
  0
LINE
  5
99B
330
2
100
AcDbEntity
  8
0
  6
CONTINUOUS
100
AcDbLine
 10
60.49667764994357
 20
-20.89234072842052
 30
0.0
 11
60.53643796194357
 21
-20.87248298442051
 31
0.0
  0
LINE
  5
99C
330
2
100
AcDbEntity
  8
0
  6
CONTINUOUS
100
AcDbLine
 10
60.59402981154356
 20
-20.84410241482049
 30
0.0
 11
60.6194403235436
 21
-20.8317208708205
 31
0.0
  0
LWPOLYLINE
  5
99D
330
2
100
AcDbEntity
  8
0
  6
CONTINUOUS
100
AcDbPolyline
 90
        3
 70
     0
 43
0.0
 10
60.53920007074359
 20
-20.8759840116205
 10
60.57178309794356
 20
-20.86917454442049
 10
60.60492956834356
 20
-20.86647187082049
  0
LINE
  5
9A2
330
2
100
AcDbEntity
  8
0
  6
CONTINUOUS
100
AcDbLine
 10
60.53643796194357
 20
-20.87248298442051
 30
0.0
 11
60.59402981154356
 21
-20.84410241482049
 31
0.0
  0
LWPOLYLINE
  5
9A3
330
2
100
AcDbEntity
  8
0
  6
CONTINUOUS
100
AcDbPolyline
 90
        3
 70
     0
 43
0.0
 10
60.73107140514356
 20
-20.80687957322052
 10
60.68590875074356
 20
-20.81073213482051
 10
60.64212796034358
 20
-20.82216053642051
  0
LWPOLYLINE
  5
9A8
330
2
100
AcDbEntity
  8
0
  6
CONTINUOUS
100
AcDbPolyline
 90
        9
 70
     0
 43
0.0
 10
60.42436369954358
 20
-21.30643390602049
 10
60.39439384034356
 20
-21.23941694282051
 10
60.37618674754359
 20
-21.16988749642052
 10
60.37143215554358
 20
-21.1024037124205
 10
60.38034601794357
 20
-21.03917959082049
 10
60.40308545954359
 20
-20.9820704628205
 10
60.43836967554357
 20
-20.93474929162051
 10
60.48452913154356
 20
-20.8989122468205
 10
60.49666463554356
 20
-20.89234726122052
  0
LWPOLYLINE
  5
9B3
330
2
100
AcDbEntity
  8
0
  6
HIDDEN
 62
     9
100
AcDbPolyline
 90
        6
 70
     0
 43
0.0
 10
61.50266739394357
 20
-19.51639469482051
 10
61.40824514434356
 20
-19.53410293002049
 10
61.21816693474357
 20
-19.56253356522052
 10
61.03899443074357
 20
-19.58276501642049
 10
60.84901949634357
 20
-19.59976571562052
 10
60.70672473794357
 20
-19.6105233700205
  0
LINE
  5
9BB
330
2
100
AcDbEntity
  8
0
  6
HIDDEN
 62
     9
100
AcDbLine
 10
61.83811869794357
 20
-19.4419889844205
 30
0.0
 11
61.49936324834357
 21
-19.5170607172205
 31
0.0
  0
ENDSEC
  0
SECTION
  2
OBJECTS
  0
DICTIONARY
  5
1A
330
0
100
AcDbDictionary
  3
ACAD_GROUP
350
18
  3
ACAD_LAYOUT
350
9C2
  3
ACAD_MLINESTYLE
350
19
  3
ACAD_PLOTSETTINGS
350
9C3
  3
ACAD_PLOTSTYLENAME
350
9C0
  3
ACDBHEADERROUNDTRIPXREC
350
A01
  3
ACDBVARIABLEDICTIONARY
350
9FE
  0
DICTIONARY
  5
A22
330
2
100
AcDbDictionary
280
     1
  3
ACAD_LAYOUTSELFREF
360
A23
  0
DICTIONARY
  5
A24
330
7
100
AcDbDictionary
280
     1
  3
ACAD_LAYOUTSELFREF
360
A25
  0
DICTIONARY
  5
18
102
{ACAD_REACTORS
330
1A
102
}
330
1A
100
AcDbDictionary
  0
DICTIONARY
  5
9C2
102
{ACAD_REACTORS
330
1A
102
}
330
1A
100
AcDbDictionary
  0
DICTIONARY
  5
19
102
{ACAD_REACTORS
330
1A
102
}
330
1A
100
AcDbDictionary
  3
STANDARD
350
1B
  0
DICTIONARY
  5
9C3
102
{ACAD_REACTORS
330
1A
102
}
330
1A
100
AcDbDictionary
  0
ACDBDICTIONARYWDFLT
  5
9C0
102
{ACAD_REACTORS
330
1A
102
}
330
1A
100
AcDbDictionary
281
     1
  3
Normal
350
9C1
100
AcDbDictionaryWithDefault
340
9C1
  0
DICTIONARY
  5
A01
102
{ACAD_REACTORS
330
1A
102
}
330
1A
100
AcDbDictionary
  3
CEPSNTYPE
350
A0B
  3
DIMSTYLEDATA
350
A0F
  3
FINGERPRINTGUID
350
A0C
  3
HYPERLINKBASE
350
A04
  3
INSUNITS
350
A0A
  3
LAYOUTDICT
350
A06
  3
LWETCUNION
350
A09
  3
PLOTSETDICT
350
A07
  3
PLOTSTYLNAMDICT
350
A08
  3
PSVPSCALE
350
A0E
  3
PUCSBASE
350
A12
  3
PUCSORGBACK
350
A18
  3
PUCSORGBOTTOM
350
A14
  3
PUCSORGFRONT
350
A17
  3
PUCSORGLEFT
350
A15
  3
PUCSORGRIGHT
350
A16
  3
PUCSORGTOP
350
A13
  3
PUCSORTHOREF
350
A10
  3
PUCSORTHOVIEW
350
A11
  3
STYLESHEET
350
A05
  3
TSTACKALIGN
350
A02
  3
TSTACKSIZE
350
A03
  3
UCSBASE
350
A1B
  3
UCSORGBACK
350
A21
  3
UCSORGBOTTOM
350
A1D
  3
UCSORGFRONT
350
A20
  3
UCSORGLEFT
350
A1E
  3
UCSORGRIGHT
350
A1F
  3
UCSORGTOP
350
A1C
  3
UCSORTHOREF
350
A19
  3
UCSORTHOVIEW
350
A1A
  3
VERSIONGUID
350
A0D
  0
DICTIONARY
  5
9FE
102
{ACAD_REACTORS
330
1A
102
}
330
1A
100
AcDbDictionary
  3
DIMASSOC
350
9FF
  0
XRECORD
  5
A23
102
{ACAD_REACTORS
330
A22
102
}
330
A22
100
AcDbXrecord
340
2
  0
XRECORD
  5
A25
102
{ACAD_REACTORS
330
A24
102
}
330
A24
100
AcDbXrecord
340
7
  0
MLINESTYLE
  5
1B
102
{ACAD_REACTORS
330
19
102
}
330
19
100
AcDbMlineStyle
  2
STANDARD
 70
     0
  3

 62
   256
 51
90.0
 52
90.0
 71
     2
 49
0.5
 62
   256
  6
BYLAYER
 49
-0.5
 62
   256
  6
BYLAYER
  0
ACDBPLACEHOLDER
  5
9C1
102
{ACAD_REACTORS
330
9C0
102
}
330
9C0
100
AcDbPlaceHolder
280
     0
  0
XRECORD
  5
A0B
102
{ACAD_REACTORS
330
A01
102
}
330
A01
100
AcDbXrecord
 90
        0
  0
XRECORD
  5
A0F
102
{ACAD_REACTORS
330
A01
102
}
330
A01
100
AcDbXrecord
1000
DSTYLE
1002
{
1070
   341
340
1D
1070
   342
340
1D
1002
}
  0
XRECORD
  5
A0C
102
{ACAD_REACTORS
330
A01
102
}
330
A01
100
AcDbXrecord
  1
{F4351F89-CF12-4D59-A135-22B06A9214E3}
  0
XRECORD
  5
A04
102
{ACAD_REACTORS
330
A01
102
}
330
A01
100
AcDbXrecord
  1

  0
XRECORD
  5
A0A
102
{ACAD_REACTORS
330
A01
102
}
330
A01
100
AcDbXrecord
 90
        0
  0
XRECORD
  5
A06
102
{ACAD_REACTORS
330
A01
102
}
330
A01
100
AcDbXrecord
340
9C2
  0
XRECORD
  5
A09
102
{ACAD_REACTORS
330
A01
102
}
330
A01
100
AcDbXrecord
 90
    14877
  0
XRECORD
  5
A07
102
{ACAD_REACTORS
330
A01
102
}
330
A01
100
AcDbXrecord
340
9C3
  0
XRECORD
  5
A08
102
{ACAD_REACTORS
330
A01
102
}
330
A01
100
AcDbXrecord
340
9C0
  0
XRECORD
  5
A0E
102
{ACAD_REACTORS
330
A01
102
}
330
A01
100
AcDbXrecord
 40
0.0
  0
XRECORD
  5
A12
102
{ACAD_REACTORS
330
A01
102
}
330
A01
100
AcDbXrecord
340
0
  0
XRECORD
  5
A18
102
{ACAD_REACTORS
330
A01
102
}
330
A01
100
AcDbXrecord
 10
0.0
 20
0.0
 30
0.0
  0
XRECORD
  5
A14
102
{ACAD_REACTORS
330
A01
102
}
330
A01
100
AcDbXrecord
 10
0.0
 20
0.0
 30
0.0
  0
XRECORD
  5
A17
102
{ACAD_REACTORS
330
A01
102
}
330
A01
100
AcDbXrecord
 10
0.0
 20
0.0
 30
0.0
  0
XRECORD
  5
A15
102
{ACAD_REACTORS
330
A01
102
}
330
A01
100
AcDbXrecord
 10
0.0
 20
0.0
 30
0.0
  0
XRECORD
  5
A16
102
{ACAD_REACTORS
330
A01
102
}
330
A01
100
AcDbXrecord
 10
0.0
 20
0.0
 30
0.0
  0
XRECORD
  5
A13
102
{ACAD_REACTORS
330
A01
102
}
330
A01
100
AcDbXrecord
 10
0.0
 20
0.0
 30
0.0
  0
XRECORD
  5
A10
102
{ACAD_REACTORS
330
A01
102
}
330
A01
100
AcDbXrecord
340
0
  0
XRECORD
  5
A11
102
{ACAD_REACTORS
330
A01
102
}
330
A01
100
AcDbXrecord
 70
     0
  0
XRECORD
  5
A05
102
{ACAD_REACTORS
330
A01
102
}
330
A01
100
AcDbXrecord
  1

  0
XRECORD
  5
A02
102
{ACAD_REACTORS
330
A01
102
}
330
A01
100
AcDbXrecord
 90
        1
  0
XRECORD
  5
A03
102
{ACAD_REACTORS
330
A01
102
}
330
A01
100
AcDbXrecord
 90
       70
  0
XRECORD
  5
A1B
102
{ACAD_REACTORS
330
A01
102
}
330
A01
100
AcDbXrecord
340
0
  0
XRECORD
  5
A21
102
{ACAD_REACTORS
330
A01
102
}
330
A01
100
AcDbXrecord
 10
0.0
 20
0.0
 30
0.0
  0
XRECORD
  5
A1D
102
{ACAD_REACTORS
330
A01
102
}
330
A01
100
AcDbXrecord
 10
0.0
 20
0.0
 30
0.0
  0
XRECORD
  5
A20
102
{ACAD_REACTORS
330
A01
102
}
330
A01
100
AcDbXrecord
 10
0.0
 20
0.0
 30
0.0
  0
XRECORD
  5
A1E
102
{ACAD_REACTORS
330
A01
102
}
330
A01
100
AcDbXrecord
 10
0.0
 20
0.0
 30
0.0
  0
XRECORD
  5
A1F
102
{ACAD_REACTORS
330
A01
102
}
330
A01
100
AcDbXrecord
 10
0.0
 20
0.0
 30
0.0
  0
XRECORD
  5
A1C
102
{ACAD_REACTORS
330
A01
102
}
330
A01
100
AcDbXrecord
 10
0.0
 20
0.0
 30
0.0
  0
XRECORD
  5
A19
102
{ACAD_REACTORS
330
A01
102
}
330
A01
100
AcDbXrecord
340
0
  0
XRECORD
  5
A1A
102
{ACAD_REACTORS
330
A01
102
}
330
A01
100
AcDbXrecord
 70
     0
  0
XRECORD
  5
A0D
102
{ACAD_REACTORS
330
A01
102
}
330
A01
100
AcDbXrecord
  1
{179B3F87-036A-418F-99FB-80815B508DA3}
  0
DICTIONARYVAR
  5
9FF
102
{ACAD_REACTORS
330
9FE
102
}
330
9FE
100
DictionaryVariables
280
     0
  1
1
  0
ENDSEC
  0
EOF
