  0
SECTION
  2
HEADER
  9
$ACADVER
  1
AC1014
  9
$ACADMAINTVER
 70
     9
  9
$DWGCODEPAGE
  3
ANSI_1252
  9
$INSBASE
 10
-50.72958240326712
 20
-81.27373841722361
 30
0.0
  9
$EXTMIN
 10
-86.52471958839766
 20
-81.28185390614271
 30
-0.0000000349181948
  9
$EXTMAX
 10
-14.93367851643489
 20
-54.38669040472587
 30
0.0000000814935746
  9
$LIMMIN
 10
0.0
 20
0.0
  9
$LIMMAX
 10
100.5024158491978
 20
51.69854817198938
  9
$ORTHOMODE
 70
     1
  9
$REGENMODE
 70
     1
  9
$FILLMODE
 70
     1
  9
$QTEXTMODE
 70
     0
  9
$MIRRTEXT
 70
     1
  9
$DRAGMODE
 70
     2
  9
$LTSCALE
 40
2.0
  9
$OSMODE
 70
    55
  9
$ATTMODE
 70
     1
  9
$TEXTSIZE
 40
0.1
  9
$TRACEWID
 40
1.0
  9
$TEXTSTYLE
  7
CARTOUCHE
  9
$CLAYER
  8
0
  9
$CELTYPE
  6
BYLAYER
  9
$CECOLOR
 62
   256
  9
$CELTSCALE
 40
10.0
  9
$DELOBJ
 70
     1
  9
$DISPSILH
 70
     0
  9
$DIMSCALE
 40
16.0
  9
$DIMASZ
 40
0.1
  9
$DIMEXO
 40
0.0625
  9
$DIMDLI
 40
0.25
  9
$DIMRND
 40
0.0
  9
$DIMDLE
 40
0.0
  9
$DIMEXE
 40
0.1
  9
$DIMTP
 40
0.0
  9
$DIMTM
 40
0.0
  9
$DIMTXT
 40
0.1
  9
$DIMCEN
 40
0.09
  9
$DIMTSZ
 40
0.0
  9
$DIMTOL
 70
     0
  9
$DIMLIM
 70
     0
  9
$DIMTIH
 70
     1
  9
$DIMTOH
 70
     1
  9
$DIMSE1
 70
     0
  9
$DIMSE2
 70
     0
  9
$DIMTAD
 70
     0
  9
$DIMZIN
 70
     4
  9
$DIMBLK
  1

  9
$DIMASO
 70
     1
  9
$DIMSHO
 70
     1
  9
$DIMPOST
  1
\X
  9
$DIMAPOST
  1
cm
  9
$DIMALT
 70
     1
  9
$DIMALTD
 70
     1
  9
$DIMALTF
 40
2.54
  9
$DIMLFAC
 40
1.0
  9
$DIMTOFL
 70
     0
  9
$DIMTVP
 40
0.0
  9
$DIMTIX
 70
     0
  9
$DIMSOXD
 70
     0
  9
$DIMSAH
 70
     0
  9
$DIMBLK1
  1

  9
$DIMBLK2
  1

  9
$DIMSTYLE
  2
STANDARD
  9
$DIMCLRD
 70
     0
  9
$DIMCLRE
 70
     0
  9
$DIMCLRT
 70
     0
  9
$DIMTFAC
 40
1.0
  9
$DIMGAP
 40
0.08
  9
$DIMJUST
 70
     0
  9
$DIMSD1
 70
     0
  9
$DIMSD2
 70
     0
  9
$DIMTOLJ
 70
     1
  9
$DIMTZIN
 70
     4
  9
$DIMALTZ
 70
     4
  9
$DIMALTTZ
 70
     4
  9
$DIMFIT
 70
     3
  9
$DIMUPT
 70
     0
  9
$DIMUNIT
 70
     5
  9
$DIMDEC
 70
     3
  9
$DIMTDEC
 70
     3
  9
$DIMALTU
 70
     2
  9
$DIMALTTD
 70
     1
  9
$DIMTXSTY
  7
ROMANS
  9
$DIMAUNIT
 70
     0
  9
$LUNITS
 70
     2
  9
$LUPREC
 70
     2
  9
$SKETCHINC
 40
1.0
  9
$FILLETRAD
 40
2.5
  9
$AUNITS
 70
     0
  9
$AUPREC
 70
     0
  9
$MENU
  1
.
  9
$ELEVATION
 40
0.0
  9
$PELEVATION
 40
0.0
  9
$THICKNESS
 40
0.0
  9
$LIMCHECK
 70
     0
  9
$BLIPMODE
 70
     0
  9
$CHAMFERA
 40
0.0
  9
$CHAMFERB
 40
0.0
  9
$CHAMFERC
 40
20.0
  9
$CHAMFERD
 40
0.0
  9
$SKPOLY
 70
     0
  9
$TDCREATE
 40
2452062.343093519
  9
$TDUPDATE
 40
2453686.447852998
  9
$TDINDWG
 40
1.8911303704
  9
$TDUSRTIMER
 40
1.8911303704
  9
$USRTIMER
 70
     1
  9
$ANGBASE
 50
0.0
  9
$ANGDIR
 70
     0
  9
$PDMODE
 70
    34
  9
$PDSIZE
 40
-5.0
  9
$PLINEWID
 40
0.0
  9
$COORDS
 70
     1
  9
$SPLFRAME
 70
     0
  9
$SPLINETYPE
 70
     6
  9
$SPLINESEGS
 70
     8
  9
$ATTDIA
 70
     0
  9
$ATTREQ
 70
     1
  9
$HANDLING
 70
 22529
  9
$HANDSEED
  5
20D
  9
$SURFTAB1
 70
     6
  9
$SURFTAB2
 70
     6
  9
$SURFTYPE
 70
     6
  9
$SURFU
 70
     6
  9
$SURFV
 70
     6
  9
$UCSNAME
  2

  9
$UCSORG
 10
0.0
 20
0.0
 30
0.0
  9
$UCSXDIR
 10
1.0
 20
0.0
 30
0.0
  9
$UCSYDIR
 10
0.0
 20
1.0
 30
0.0
  9
$PUCSNAME
  2

  9
$PUCSORG
 10
0.0
 20
0.0
 30
0.0
  9
$PUCSXDIR
 10
1.0
 20
0.0
 30
0.0
  9
$PUCSYDIR
 10
0.0
 20
1.0
 30
0.0
  9
$USERI1
 70
     0
  9
$USERI2
 70
     0
  9
$USERI3
 70
     0
  9
$USERI4
 70
     0
  9
$USERI5
 70
     0
  9
$USERR1
 40
0.0
  9
$USERR2
 40
0.0
  9
$USERR3
 40
0.0
  9
$USERR4
 40
0.0
  9
$USERR5
 40
0.0
  9
$WORLDVIEW
 70
     1
  9
$SHADEDGE
 70
     3
  9
$SHADEDIF
 70
    70
  9
$TILEMODE
 70
     1
  9
$MAXACTVP
 70
    48
  9
$PINSBASE
 10
0.0
 20
0.0
 30
0.0
  9
$PLIMCHECK
 70
     0
  9
$PEXTMIN
 10
0.0
 20
0.0
 30
0.0
  9
$PEXTMAX
 10
0.0
 20
0.0
 30
0.0
  9
$PLIMMIN
 10
0.0
 20
0.0
  9
$PLIMMAX
 10
12.0
 20
9.0
  9
$UNITMODE
 70
     0
  9
$VISRETAIN
 70
     1
  9
$PLINEGEN
 70
     0
  9
$PSLTSCALE
 70
     1
  9
$TREEDEPTH
 70
  3020
  9
$PICKSTYLE
 70
     1
  9
$CMLSTYLE
  2
STANDARD
  9
$CMLJUST
 70
     0
  9
$CMLSCALE
 40
20.0
  9
$PROXYGRAPHICS
 70
     1
  9
$MEASUREMENT
 70
     0
  0
ENDSEC
  0
SECTION
  2
CLASSES
  0
CLASS
  1
ACDBDICTIONARYWDFLT
  2
AcDbDictionaryWithDefault
  3
AutoCAD 2000
 90
        0
280
     0
281
     0
  0
CLASS
  1
ACDBPLACEHOLDER
  2
AcDbPlaceHolder
  3
AutoCAD 2000
 90
        0
280
     0
281
     0
  0
CLASS
  1
LAYOUT
  2
AcDbLayout
  3
AutoCAD 2000
 90
        0
280
     0
281
     0
  0
CLASS
  1
DICTIONARYVAR
  2
AcDbDictionaryVar
  3
AutoCAD 2000
 90
        0
280
     0
281
     0
  0
CLASS
  1
IMAGEDEF
  2
AcDbRasterImageDef
  3
ISM
 90
        0
280
     0
281
     0
  0
CLASS
  1
LONG_TRANSACTION
  2
AcDbLongTransaction
  3
AutoCAD 2000
 90
        0
280
     0
281
     0
  0
CLASS
  1
LWPOLYLINE
  2
AcDbPolyline
  3
AutoCAD 2000
 90
        0
280
     0
281
     1
  0
CLASS
  1
HATCH
  2
AcDbHatch
  3
AutoCAD 2000
 90
        0
280
     0
281
     1
  0
CLASS
  1
XRECORD
  2
AcDbXrecord
  3
AutoCAD 2000
 90
        0
280
     0
281
     0
  0
CLASS
  1
LONG_TRANSACTION
  2
AcDbLongTransaction
  3
AutoCAD 2000
 90
        0
280
     0
281
     0
  0
CLASS
  1
LWPOLYLINE
  2
AcDbPolyline
  3
AutoCAD 2000
 90
        0
280
     0
281
     1
  0
CLASS
  1
HATCH
  2
AcDbHatch
  3
AutoCAD 2000
 90
        0
280
     0
281
     1
  0
CLASS
  1
XRECORD
  2
AcDbXrecord
  3
AutoCAD 2000
 90
        0
280
     0
281
     0
  0
CLASS
  1
LONG_TRANSACTION
  2
AcDbLongTransaction
  3
AutoCAD 2000
 90
        0
280
     0
281
     0
  0
CLASS
  1
LWPOLYLINE
  2
AcDbPolyline
  3
AutoCAD 2000
 90
        0
280
     0
281
     1
  0
CLASS
  1
HATCH
  2
AcDbHatch
  3
AutoCAD 2000
 90
        0
280
     0
281
     1
  0
CLASS
  1
XRECORD
  2
AcDbXrecord
  3
AutoCAD 2000
 90
        0
280
     0
281
     0
  0
ENDSEC
  0
SECTION
  2
TABLES
  0
TABLE
  2
VPORT
  5
1D
330
0
100
AcDbSymbolTable
 70
     4
  0
VPORT
  5
1E9
330
1D
100
AcDbSymbolTableRecord
100
AcDbViewportTableRecord
  2
*ACTIVE
 70
     0
 10
0.0
 20
0.0
 11
1.0
 21
1.0
 12
-50.72919900864604
 22
-67.83427207116232
 13
0.0
 23
0.0
 14
10.0
 24
10.0
 15
10.0
 25
10.0
 16
0.0
 26
0.0
 36
1.0
 17
0.0
 27
0.0
 37
0.0
 40
47.57779915190153
 41
1.786792452830188
 42
50.0
 43
0.0
 44
0.0
 50
0.0
 51
0.0
 71
     0
 72
   100
 73
     1
 74
     3
 75
     0
 76
     0
 77
     0
 78
     2
  0
ENDTAB
  0
TABLE
  2
LTYPE
  5
18
330
0
100
AcDbSymbolTable
 70
     3
  0
LTYPE
  5
19
330
18
100
AcDbSymbolTableRecord
100
AcDbLinetypeTableRecord
  2
BYBLOCK
 70
     0
  3

 72
    65
 73
     0
 40
0.0
  0
LTYPE
  5
1A
330
18
100
AcDbSymbolTableRecord
100
AcDbLinetypeTableRecord
  2
BYLAYER
 70
     0
  3

 72
    65
 73
     0
 40
0.0
  0
LTYPE
  5
8
330
18
100
AcDbSymbolTableRecord
100
AcDbLinetypeTableRecord
  2
CONTINUOUS
 70
     0
  3
Solid line
 72
    65
 73
     0
 40
0.0
  0
LTYPE
  5
62
330
18
100
AcDbSymbolTableRecord
100
AcDbLinetypeTableRecord
  2
CENTER
 70
     0
  3
Center ____ _ ____ _ ____ _ ____ _ ____ _ ____
 72
    65
 73
     4
 40
50.8
 49
31.75
 74
     0
 49
-6.349999999999999
 74
     0
 49
6.349999999999999
 74
     0
 49
-6.349999999999999
 74
     0
  0
LTYPE
  5
31
330
18
100
AcDbSymbolTableRecord
100
AcDbLinetypeTableRecord
  2
HIDDEN
 70
     0
  3
Hidden __ __ __ __ __ __ __ __ __ __ __ __ __ _
 72
    65
 73
     2
 40
9.524999999999998
 49
6.349999999999999
 74
     0
 49
-3.174999999999999
 74
     0
  0
ENDTAB
  0
TABLE
  2
LAYER
  5
10
102
{ACAD_XDICTIONARY
360
11
102
}
330
0
100
AcDbSymbolTable
 70
     3
  0
LAYER
  5
4
330
10
100
AcDbSymbolTableRecord
100
AcDbLayerTableRecord
  2
0
 70
     0
 62
     7
  6
CONTINUOUS
  0
LAYER
  5
61
330
10
100
AcDbSymbolTableRecord
100
AcDbLayerTableRecord
  2
CENTER
 70
     0
 62
     1
  6
CENTER
  0
LAYER
  5
E3
330
10
100
AcDbSymbolTableRecord
100
AcDbLayerTableRecord
  2
DEFPOINTS
 70
     0
 62
     7
  6
CONTINUOUS
  0
ENDTAB
  0
TABLE
  2
STYLE
  5
15
330
0
100
AcDbSymbolTable
 70
     3
  0
STYLE
  5
16
330
15
100
AcDbSymbolTableRecord
100
AcDbTextStyleTableRecord
  2
STANDARD
 70
     0
 40
0.0
 41
1.0
 50
0.0
 71
     0
 42
0.125
  3
txt
  4

  0
STYLE
  5
2B
330
15
100
AcDbSymbolTableRecord
100
AcDbTextStyleTableRecord
  2
CARTOUCHE
 70
     0
 40
0.0
 41
1.0
 50
0.0
 71
     0
 42
0.1
  3
romans.shx
  4

  0
STYLE
  5
23
330
15
100
AcDbSymbolTableRecord
100
AcDbTextStyleTableRecord
  2
ROMANS
 70
     0
 40
0.0
 41
1.0
 50
0.0
 71
     0
 42
1.0
  3
romans.shx
  4

  0
ENDTAB
  0
TABLE
  2
VIEW
  5
1B
330
0
100
AcDbSymbolTable
 70
     0
  0
ENDTAB
  0
TABLE
  2
UCS
  5
1C
330
0
100
AcDbSymbolTable
 70
     0
  0
ENDTAB
  0
TABLE
  2
APPID
  5
1F
330
0
100
AcDbSymbolTable
 70
     2
  0
APPID
  5
20
330
1F
100
AcDbSymbolTableRecord
100
AcDbRegAppTableRecord
  2
ACAD
 70
     0
  0
APPID
  5
8C
330
1F
100
AcDbSymbolTableRecord
100
AcDbRegAppTableRecord
  2
DCO15
 70
     0
  0
ENDTAB
  0
TABLE
  2
DIMSTYLE
  5
21
330
0
100
AcDbSymbolTable
 70
     1
  0
DIMSTYLE
105
22
330
21
100
AcDbSymbolTableRecord
100
AcDbDimStyleTableRecord
  2
STANDARD
 70
     0
  3
\X
  4
cm
  5

  6

  7

 40
16.0
 41
0.1
 42
0.0625
 43
0.25
 44
0.1
 45
0.0
 46
0.0
 47
0.0
 48
0.0
140
0.1
141
0.09
142
0.0
143
2.54
144
1.0
145
0.0
146
1.0
147
0.08
 71
     0
 72
     0
 73
     1
 74
     1
 75
     0
 76
     0
 77
     0
 78
     4
170
     1
171
     1
172
     0
173
     0
174
     0
175
     0
176
     0
177
     0
178
     0
270
     5
271
     3
272
     3
273
     2
274
     1
340
23
275
     0
280
     0
281
     0
282
     0
283
     1
284
     4
285
     4
286
     4
287
     3
288
     0
  0
ENDTAB
  0
TABLE
  2
BLOCK_RECORD
  5
1
330
0
100
AcDbSymbolTable
 70
     1
  0
BLOCK_RECORD
  5
2
102
{ACAD_XDICTIONARY
360
9D
102
}
330
1
100
AcDbSymbolTableRecord
100
AcDbBlockTableRecord
  2
*MODEL_SPACE
  0
BLOCK_RECORD
  5
90
102
{ACAD_XDICTIONARY
360
9F
102
}
330
1
100
AcDbSymbolTableRecord
100
AcDbBlockTableRecord
  2
*PAPER_SPACE
  0
ENDTAB
  0
ENDSEC
  0
SECTION
  2
BLOCKS
  0
BLOCK
  5
3
330
2
100
AcDbEntity
  8
0
100
AcDbBlockBegin
  2
*MODEL_SPACE
 70
     0
 10
0.0
 20
0.0
 30
0.0
  3
*MODEL_SPACE
  1

  0
ENDBLK
  5
9
330
2
100
AcDbEntity
  8
0
100
AcDbBlockEnd
  0
BLOCK
  5
92
330
90
100
AcDbEntity
 67
     1
  8
0
 48
10.0
100
AcDbBlockBegin
  2
*PAPER_SPACE
 70
     0
 10
0.0
 20
0.0
 30
0.0
  3
*PAPER_SPACE
  1

  0
ENDBLK
  5
93
330
90
100
AcDbEntity
 67
     1
  8
0
 48
10.0
100
AcDbBlockEnd
  0
ENDSEC
  0
SECTION
  2
ENTITIES
  0
SPLINE
  5
2D
330
2
100
AcDbEntity
  8
0
100
AcDbSpline
210
0.0
220
0.0
230
1.0
 70
     8
 71
     3
 72
     9
 73
     5
 74
     0
 42
0.0000000001
 43
0.0000000001
 40
0.0
 40
0.0
 40
0.0
 40
0.0
 40
0.9994137019544735
 40
1.525864362177392
 40
1.525864362177392
 40
1.525864362177392
 40
1.525864362177392
 10
-65.8523132875721
 20
-76.20568515887828
 30
0.0
 10
-66.28507268155582
 20
-76.7938996872398
 30
0.0
 10
-66.74458353723858
 20
-77.06644770639759
 30
0.0
 10
-67.32372781557436
 20
-77.53367221081352
 30
0.0
 10
-67.74033550052994
 20
-77.77659492159182
 30
0.0
  0
LINE
  5
2E
330
2
100
AcDbEntity
  8
0
100
AcDbLine
 10
-65.05461681204798
 20
-75.52373982456966
 30
0.0
 11
-70.22543784417985
 21
-75.52373982456966
 31
0.0
  0
SPLINE
  5
2F
330
2
100
AcDbEntity
  8
0
100
AcDbSpline
210
0.0
220
0.0
230
1.0
 70
     8
 71
     3
 72
    13
 73
     9
 74
     0
 42
0.0000000001
 43
0.0000000001
 40
0.4878700717319635
 40
0.4878700717319635
 40
0.4878700717319635
 40
0.4878700717319635
 40
1.08312367147034
 40
2.0859340797442
 40
3.765122773212139
 40
4.406276593233115
 40
5.158132486197269
 40
5.600336725610043
 40
5.600336725610043
 40
5.600336725610043
 40
5.600336725610043
 10
-65.14311667226151
 20
-75.24962474986006
 30
0.0
 10
-65.29021405941901
 20
-74.93105630820931
 30
0.0
 10
-66.4315908568698
 20
-74.29618950323432
 30
0.0
 10
-67.48491998039995
 20
-73.27732280832591
 30
0.0
 10
-69.34235645015886
 20
-74.86869799432033
 30
0.0
 10
-70.42091180649677
 20
-75.26706737198392
 30
0.0
 10
-70.0618613526491
 20
-75.9341383604103
 30
0.0
 10
-69.52235434015941
 20
-76.10893506709785
 30
0.0
 10
-69.37439539915806
 20
-76.14690312312543
 30
0.0
  0
LINE
  5
30
330
2
100
AcDbEntity
  8
0
  6
HIDDEN
 62
     9
 48
0.1
100
AcDbLine
 10
-50.74044827829144
 20
-74.52373982456951
 30
0.0
 11
-71.02021460205617
 21
-74.16975518665909
 31
0.0
  0
LINE
  5
33
330
2
100
AcDbEntity
  8
0
100
AcDbLine
 10
-15.1462490699338
 20
-54.99514434536057
 30
0.0
 11
-86.31291573660043
 21
-54.99514434536056
 31
0.0
  0
LINE
  5
34
330
2
100
AcDbEntity
  8
0
100
AcDbLine
 10
-15.68668918445367
 20
-54.52373982456951
 30
0.0
 11
-85.77247562208055
 21
-54.52373982456951
 31
0.0
  0
LINE
  5
35
330
2
100
AcDbEntity
  8
0
100
AcDbLine
 10
-14.97958240326711
 20
-56.02373982456953
 30
0.0
 11
-86.47958240326708
 21
-56.02373982456953
 31
0.0
  0
SPLINE
  5
36
330
2
100
AcDbEntity
  8
0
100
AcDbSpline
210
0.0
220
0.0
230
1.0
 70
     8
 71
     3
 72
     9
 73
     5
 74
     0
 42
0.0000000001
 43
0.0000000001
 40
0.0
 40
0.0
 40
0.0
 40
0.0
 40
8.768238813899515
 40
18.49151160645958
 40
18.49151160645958
 40
18.49151160645958
 40
18.49151160645958
 10
-85.06904921781609
 20
-56.02373982456953
 30
0.0
 10
-85.06904921781609
 20
-56.02373982456953
 30
0.0
 10
-79.49896812235465
 20
-62.1292159930714
 30
0.0
 10
-78.57310398738404
 20
-70.28072472751261
 30
0.0
 10
-77.60466438967466
 20
-73.41053178638333
 30
0.0
  0
LINE
  5
37
330
2
100
AcDbEntity
  8
0
  6
HIDDEN
 62
     9
 48
0.1
100
AcDbLine
 10
-82.04036864348475
 20
-54.52373982456951
 30
0.0
 11
-73.68678074385428
 21
-72.43806688641202
 31
0.0
  0
SPLINE
  5
38
330
2
100
AcDbEntity
  8
0
100
AcDbSpline
210
0.0
220
0.0
230
1.0
 70
     8
 71
     3
 72
     8
 73
     4
 74
     0
 42
0.0000000001
 43
0.0000000001
 40
0.0211458261930273
 40
0.0211458261930273
 40
0.0211458261930273
 40
0.0211458261930273
 40
0.6639280349399677
 40
0.6639280349399677
 40
0.6639280349399677
 40
0.6639280349399677
 10
-69.37439539915807
 20
-76.14690312312543
 30
0.0
 10
-69.10639645568403
 20
-76.49357458365516
 30
0.0
 10
-68.8969531302142
 20
-76.85248519267638
 30
0.0
 10
-68.8969531302142
 20
-76.85248519267638
 30
0.0
  0
LINE
  5
39
330
2
100
AcDbEntity
  8
0
100
AcDbLine
 10
-67.74052890572537
 20
-77.14357398171195
 30
0.0
 11
-67.74052890572537
 21
-73.12453774985489
 31
0.0
  0
SPLINE
  5
3A
330
2
100
AcDbEntity
  8
0
100
AcDbSpline
210
0.0
220
0.0
230
1.0
 70
     8
 71
     3
 72
    13
 73
     9
 74
     7
 42
0.0000000001
 43
0.0000000001
 44
0.0000000001
 40
0.0
 40
0.0
 40
0.0
 40
0.0
 40
0.9155579813610433
 40
2.363172381852003
 40
3.45048573453948
 40
4.316914763916404
 40
5.280480737079596
 40
5.811449012911249
 40
5.811449012911249
 40
5.811449012911249
 40
5.811449012911249
 10
-68.8969531302142
 20
-76.85248519267638
 30
0.0
 10
-69.0472533240963
 20
-77.12147745910951
 30
0.0
 10
-69.43519736958556
 20
-77.81578094169351
 30
0.0
 10
-70.42714478819239
 20
-78.47410509246905
 30
0.0
 10
-71.36211196798317
 20
-79.06749133562553
 30
0.0
 10
-71.81455342014206
 20
-80.18228324360583
 30
0.0
 10
-70.94635038566313
 20
-80.62733989108625
 30
0.0
 10
-70.78710596471579
 20
-81.10429053615879
 30
0.0
 10
-70.73053065660018
 20
-81.27373841722361
 30
0.0
 11
-68.8969531302142
 21
-76.85248519267638
 31
0.0
 11
-69.39159617053594
 21
-77.62292317194219
 31
0.0
 11
-70.52030819973694
 21
-78.5293428361407
 31
0.0
 11
-71.35034015878187
 21
-79.23169408295137
 31
0.0
 11
-71.58501723327383
 21
-80.0657360085492
 31
0.0
 11
-70.94952554441892
 21
-80.79003546183788
 31
0.0
 11
-70.73053065660018
 21
-81.27373841722361
 31
0.0
  0
SPLINE
  5
3B
330
2
100
AcDbEntity
  8
0
100
AcDbSpline
210
0.0
220
0.0
230
1.0
 70
     8
 71
     3
 72
    11
 73
     7
 74
     5
 42
0.0000000001
 43
0.0000000001
 44
0.0000000001
 40
0.0
 40
0.0
 40
0.0
 40
0.0
 40
0.3472343963756704
 40
1.066563199790449
 40
2.065213042572357
 40
3.950384023904478
 40
3.950384023904478
 40
3.950384023904478
 40
3.950384023904478
 10
-69.37973647815036
 20
-81.27373841722361
 30
0.0
 10
-69.3553077184917
 20
-81.15735900970657
 30
0.0
 10
-69.28027247906722
 20
-80.79988868255382
 30
0.0
 10
-68.54604785191792
 20
-80.44250731873862
 30
0.0
 10
-68.78816253918036
 20
-79.05861805890897
 30
0.0
 10
-68.15453900670144
 20
-78.28337558183676
 30
0.0
 10
-67.74033550052994
 20
-77.77659492159182
 30
0.0
 11
-69.37973647815036
 21
-81.27373841722361
 31
0.0
 11
-69.27421286015396
 21
-80.94292654913038
 31
0.0
 11
-68.77266871130416
 21
-80.42728384902046
 31
0.0
 11
-68.62937074658225
 21
-79.43896851381873
 31
0.0
 11
-67.74033550052994
 21
-77.77659492159182
 31
0.0
  0
LINE
  5
3C
330
2
100
AcDbEntity
  8
0
100
AcDbLine
 10
-69.37973647815036
 20
-81.27373841722361
 30
0.0
 11
-70.73053065660019
 21
-81.27373841722359
 31
0.0
  0
ARC
  5
3D
330
2
100
AcDbEntity
  8
0
100
AcDbCircle
 10
-74.73872649494248
 20
-72.52373982456963
 30
0.0
 40
3.0
100
AcDbArc
 50
197.1933587779244
 51
270.0
  0
LINE
  5
3E
330
2
100
AcDbEntity
  8
0
100
AcDbLine
 10
-74.73872649494248
 20
-75.52373982456957
 30
0.0
 11
-70.22543784417985
 21
-75.52373982456966
 31
0.0
  0
ARC
  5
3F
330
2
100
AcDbEntity
  8
0
  6
HIDDEN
 62
     9
 48
0.1
100
AcDbCircle
 10
-70.96785738274434
 20
-71.17021210118991
 30
0.0
 40
3.0
100
AcDbArc
 50
205.0
 51
268.9999999999998
  0
LINE
  5
40
330
2
100
AcDbEntity
  8
0
100
AcDbLine
 10
-67.99052890572537
 20
-74.54621255648672
 30
0.0
 11
-67.49052890572537
 21
-74.54621255648672
 31
0.0
  0
LINE
  5
41
330
2
100
AcDbEntity
  8
0
100
AcDbLine
 10
-67.99052890572537
 20
-75.52373982456964
 30
0.0
 11
-67.99052890572537
 21
-74.54621255648672
 31
0.0
  0
LINE
  5
42
330
2
100
AcDbEntity
  8
0
100
AcDbLine
 10
-67.49052890572537
 20
-75.52373982456964
 30
0.0
 11
-67.49052890572537
 21
-74.54621255648672
 31
0.0
  0
ARC
  5
43
330
2
100
AcDbEntity
  8
0
100
AcDbCircle
 10
-86.47958240326712
 20
-54.52373982456953
 30
0.0
 40
0.5
100
AcDbArc
 50
289.4712206344914
 51
340.5287793655106
  0
ARC
  5
44
330
2
100
AcDbEntity
  8
0
100
AcDbCircle
 10
-85.77247562208055
 20
-54.77373982456952
 30
0.0
 40
0.25
100
AcDbArc
 50
90.0
 51
160.5287793655101
  0
ARC
  5
45
330
2
100
AcDbEntity
  8
0
100
AcDbCircle
 10
-86.22958240326711
 20
-55.23084660575609
 30
0.0
 40
0.25
100
AcDbArc
 50
109.4712206344887
 51
179.9999999999967
  0
LINE
  5
46
330
2
100
AcDbEntity
  8
0
100
AcDbLine
 10
-86.47958240326708
 20
-56.02373982456953
 30
0.0
 11
-86.47958240326712
 21
-56.02373982456952
 31
0.0
  0
LINE
  5
47
330
2
100
AcDbEntity
  8
0
100
AcDbLine
 10
-86.47958240326712
 20
-56.02373982456953
 30
0.0
 11
-86.47958240326712
 21
-55.23084660575607
 31
0.0
  0
SPLINE
  5
48
330
2
100
AcDbEntity
  8
0
100
AcDbSpline
210
0.0
220
0.0
230
1.0
 70
     8
 71
     3
 72
     9
 73
     5
 74
     0
 42
0.0000000001
 43
0.0000000001
 40
0.0
 40
0.0
 40
0.0
 40
0.0
 40
8.768238813899515
 40
18.49151160645958
 40
18.49151160645958
 40
18.49151160645958
 40
18.49151160645958
 10
-16.41168608389881
 20
-56.02373982456953
 30
0.0
 10
-16.41168608389881
 20
-56.02373982456953
 30
0.0
 10
-21.98176717936024
 20
-62.1292159930714
 30
0.0
 10
-22.90763131433085
 20
-70.28072472751261
 30
0.0
 10
-23.87607091204023
 20
-73.41053178638333
 30
0.0
  0
LINE
  5
49
330
2
100
AcDbEntity
  8
0
  6
HIDDEN
 62
     9
 48
0.1
100
AcDbLine
 10
-19.61523203003827
 20
-54.89873982456952
 30
0.0
 11
-27.79395455786058
 21
-72.43806688641202
 31
0.0
  0
SPLINE
  5
4A
330
2
100
AcDbEntity
  8
0
100
AcDbSpline
210
0.0
220
0.0
230
1.0
 70
     8
 71
     3
 72
     9
 73
     5
 74
     0
 42
0.0000000001
 43
0.0000000001
 40
0.0
 40
0.0
 40
0.0
 40
0.0
 40
0.9994137019544735
 40
1.525864362177392
 40
1.525864362177392
 40
1.525864362177392
 40
1.525864362177392
 10
-35.62842201414285
 20
-76.20568515887828
 30
0.0
 10
-35.19566262015914
 20
-76.7938996872398
 30
0.0
 10
-34.73615176447637
 20
-77.06644770639759
 30
0.0
 10
-34.1570074861406
 20
-77.53367221081352
 30
0.0
 10
-33.74039980118502
 20
-77.77659492159182
 30
0.0
  0
LINE
  5
4B
330
2
100
AcDbEntity
  8
0
  6
HIDDEN
 62
     9
 48
0.1
100
AcDbLine
 10
-36.17746204511871
 20
-75.77373841722361
 30
0.0
 11
-32.45485015491635
 21
-75.77373841722361
 31
0.0
  0
SPLINE
  5
4C
330
2
100
AcDbEntity
  8
0
100
AcDbSpline
210
0.0
220
0.0
230
1.0
 70
     8
 71
     3
 72
    13
 73
     9
 74
     0
 42
0.0000000001
 43
0.0000000001
 40
0.4878700717319635
 40
0.4878700717319635
 40
0.4878700717319635
 40
0.4878700717319635
 40
1.08312367147034
 40
2.0859340797442
 40
3.765122773212139
 40
4.406276593233115
 40
5.158132486197269
 40
5.600336725610043
 40
5.600336725610043
 40
5.600336725610043
 40
5.600336725610043
 10
-36.33761862945344
 20
-75.24962474986006
 30
0.0
 10
-36.19052124229594
 20
-74.93105630820931
 30
0.0
 10
-35.04914444484515
 20
-74.29618950323432
 30
0.0
 10
-33.99581532131501
 20
-73.27732280832591
 30
0.0
 10
-32.13837885155609
 20
-74.86869799432033
 30
0.0
 10
-31.05982349521818
 20
-75.26706737198392
 30
0.0
 10
-31.41887394906585
 20
-75.9341383604103
 30
0.0
 10
-31.95838096155554
 20
-76.10893506709785
 30
0.0
 10
-32.10633990255689
 20
-76.14690312312543
 30
0.0
  0
LINE
  5
4D
330
2
100
AcDbEntity
  8
0
100
AcDbLine
 10
-36.42611848966697
 20
-75.52373982456966
 30
0.0
 11
-31.2552974575351
 21
-75.52373982456966
 31
0.0
  0
LINE
  5
4E
330
2
100
AcDbEntity
  8
0
  6
HIDDEN
 62
     9
 48
0.1
100
AcDbLine
 10
-50.74044827829144
 20
-74.52373982456951
 30
0.0
 11
-30.46052069965867
 21
-74.16975518665909
 31
0.0
  0
LINE
  5
4F
330
2
100
AcDbEntity
  8
0
  6
HIDDEN
 62
     9
 48
0.1
100
AcDbLine
 10
-51.98233145577472
 20
-74.95051651986614
 30
0.0
 11
-49.43943823696128
 21
-74.95051651986614
 31
0.0
  0
LINE
  5
50
330
2
100
AcDbEntity
  8
0
  6
HIDDEN
 62
     9
 48
0.1
100
AcDbLine
 10
-49.4394382369613
 20
-74.95051651986614
 30
0.0
 11
-51.98233145577475
 21
-74.95051651986614
 31
0.0
  0
LINE
  5
51
330
2
100
AcDbEntity
  8
0
100
AcDbLine
 10
-51.72966303070109
 20
-76.0237384172236
 30
0.0
 11
-49.72966303070109
 21
-76.02373841722361
 31
0.0
  0
LINE
  5
52
330
2
100
AcDbEntity
  8
0
100
AcDbLine
 10
-49.72966303070109
 20
-75.77373841722361
 30
0.0
 11
-51.72966303070109
 21
-75.77373841722359
 31
0.0
  0
LINE
  5
53
330
2
100
AcDbEntity
  8
0
100
AcDbLine
 10
-36.40454799448628
 20
-75.52373982457085
 30
0.0
 11
-65.05461681204798
 21
-75.52373982456964
 31
0.0
  0
SPLINE
  5
54
330
2
100
AcDbEntity
  8
0
100
AcDbSpline
210
0.0
220
0.0
230
1.0
 70
     8
 71
     3
 72
    10
 73
     6
 74
     4
 42
0.0000000001
 43
0.0000000001
 44
0.0000000001
 40
0.0
 40
0.0
 40
0.0
 40
0.0
 40
0.1891386361067874
 40
0.7678150318203283
 40
1.310073935325183
 40
1.310073935325183
 40
1.310073935325183
 40
1.310073935325183
 10
-65.14311667226152
 20
-75.24962474986008
 30
0.0
 10
-65.10797399821652
 20
-75.30747587732429
 30
0.0
 10
-64.96531106088372
 20
-75.54232459035884
 30
0.0
 10
-65.4459529582673
 20
-75.88632924538697
 30
0.0
 10
-65.71982574869306
 20
-76.10156407236053
 30
0.0
 10
-65.8523132875721
 20
-76.20568515887828
 30
0.0
 11
-65.14311667226152
 21
-75.24962474986008
 31
0.0
 11
-65.06343892088458
 21
-75.42116156691067
 31
0.0
 11
-65.42270160633361
 21
-75.87480977180071
 31
0.0
 11
-65.8523132875721
 21
-76.20568515887828
 31
0.0
  0
ARC
  5
55
330
2
100
AcDbEntity
  8
0
  6
HIDDEN
 62
     9
 48
0.1
100
AcDbCircle
 10
-52.78269991493471
 20
-74.960808232486
 30
0.0
 40
0.5
100
AcDbArc
 50
45.00000000000115
 51
69.9594794419314
  0
ARC
  5
56
330
2
100
AcDbEntity
  8
0
  6
HIDDEN
 62
     9
 48
0.1
100
AcDbCircle
 10
-51.98233145577472
 20
-74.70051651986614
 30
0.0
 40
0.25
100
AcDbArc
 50
225.0000000000005
 51
270.0
  0
LINE
  5
57
330
2
100
AcDbEntity
  8
0
  6
HIDDEN
 62
     9
 48
0.1
100
AcDbLine
 10
-51.97966303070109
 20
-75.2737384172236
 30
0.0
 11
-51.85466303070109
 21
-75.5237384172236
 31
0.0
  0
LINE
  5
58
330
2
100
AcDbEntity
  8
0
100
AcDbLine
 10
-51.72966303070109
 20
-75.77373841722359
 30
0.0
 11
-51.72966303070109
 21
-76.0237384172236
 31
0.0
  0
LINE
  5
59
330
2
100
AcDbEntity
  8
0
100
AcDbLine
 10
-51.85466303070109
 20
-75.5237384172236
 30
0.0
 11
-51.72966303070109
 21
-75.77373841722359
 31
0.0
  0
LINE
  5
5C
330
2
100
AcDbEntity
  8
0
  6
HIDDEN
 62
     9
 48
0.1
100
AcDbLine
 10
-51.66716303070109
 20
-76.0237384172236
 30
0.0
 11
-51.66716303070109
 21
-74.50756395839626
 31
0.0
  0
LINE
  5
5D
330
2
100
AcDbEntity
  8
0
  6
HIDDEN
 62
     9
 48
0.1
100
AcDbLine
 10
-51.97966303070109
 20
-75.2737384172236
 30
0.0
 11
-51.97966303070109
 21
-74.50210925060621
 31
0.0
  0
LINE
  5
5E
330
2
100
AcDbEntity
  8
0
  6
HIDDEN
 62
     9
 48
0.1
100
AcDbLine
 10
-52.1591081510714
 20
-74.87729321516278
 30
0.0
 11
-52.42914652434146
 21
-74.60725484189272
 31
0.0
  0
LINE
  5
5F
330
2
100
AcDbEntity
  8
0
  6
HIDDEN
 62
     9
 48
0.1
100
AcDbLine
 10
-52.1591081510714
 20
-74.87729321516278
 30
0.0
 11
-52.42914652434146
 21
-74.60725484189271
 31
0.0
  0
LINE
  5
60
330
2
100
AcDbEntity
  8
CENTER
 48
0.05
100
AcDbLine
 10
-50.72958240326714
 20
-71.32825952394464
 30
0.0
 11
-50.72958240326712
 21
-79.71922012519584
 31
0.0
  0
LINE
  5
63
330
2
100
AcDbEntity
  8
0
100
AcDbLine
 10
-49.72966303070109
 20
-75.77373841722361
 30
0.0
 11
-36.17746204511871
 21
-75.77373841722361
 31
0.0
  0
ARC
  5
64
330
2
100
AcDbEntity
  8
0
  6
HIDDEN
 62
     9
 48
0.1
100
AcDbCircle
 10
-49.4394382369613
 20
-74.70051651986614
 30
0.0
 40
0.25
100
AcDbArc
 50
270.0
 51
314.9999999999995
  0
LINE
  5
65
330
2
100
AcDbEntity
  8
0
  6
HIDDEN
 62
     9
 48
0.1
100
AcDbLine
 10
-49.47966303070109
 20
-75.27373841722362
 30
0.0
 11
-49.60466303070109
 21
-75.52373841722363
 31
0.0
  0
LINE
  5
66
330
2
100
AcDbEntity
  8
0
  6
HIDDEN
 62
     9
 48
0.1
100
AcDbLine
 10
-49.4076558004613
 20
-74.94848804389687
 30
0.0
 11
-49.4076558004613
 21
-74.94848804389687
 31
0.0
  0
LINE
  5
67
330
2
100
AcDbEntity
  8
0
100
AcDbLine
 10
-49.60466303070109
 20
-75.52373841722363
 30
0.0
 11
-49.72966303070109
 21
-75.77373841722361
 31
0.0
  0
LINE
  5
68
330
2
100
AcDbEntity
  8
0
100
AcDbLine
 10
-49.72966303070109
 20
-76.02373841722361
 30
0.0
 11
-49.72966303070109
 21
-75.77373841722361
 31
0.0
  0
LINE
  5
69
330
2
100
AcDbEntity
  8
0
  6
HIDDEN
 62
     9
 48
0.1
100
AcDbLine
 10
-49.47966303070109
 20
-75.27373841722362
 30
0.0
 11
-49.47966303070109
 21
-74.50173291120058
 31
0.0
  0
LINE
  5
6A
330
2
100
AcDbEntity
  8
0
  6
HIDDEN
 62
     9
 48
0.1
100
AcDbLine
 10
-49.79216303070109
 20
-76.02373841722358
 30
0.0
 11
-49.79216303070109
 21
-74.5071875756178
 31
0.0
  0
ARC
  5
6B
330
2
100
AcDbEntity
  8
0
  6
HIDDEN
 62
     9
 48
0.1
100
AcDbCircle
 10
-48.63906977780132
 20
-74.960808232486
 30
0.0
 40
0.5
100
AcDbArc
 50
109.6746738800384
 51
134.9999999999988
  0
LINE
  5
6C
330
2
100
AcDbEntity
  8
0
  6
HIDDEN
 62
     9
 48
0.1
100
AcDbLine
 10
-49.26266154166467
 20
-74.87729321516278
 30
0.0
 11
-48.9926231683946
 21
-74.60725484189272
 31
0.0
  0
SPLINE
  5
6D
330
2
100
AcDbEntity
  8
0
100
AcDbSpline
210
0.0
220
0.0
230
1.0
 70
     8
 71
     3
 72
    10
 73
     6
 74
     4
 42
0.0000000001
 43
0.0000000001
 44
0.0000000001
 40
0.0
 40
0.0
 40
0.0
 40
0.0
 40
0.1891386361067874
 40
0.7678150318203283
 40
1.310073935325183
 40
1.310073935325183
 40
1.310073935325183
 40
1.310073935325183
 10
-36.33761862945343
 20
-75.24962474986008
 30
0.0
 10
-36.37276130349842
 20
-75.30747587732429
 30
0.0
 10
-36.51542424083121
 20
-75.54232459035884
 30
0.0
 10
-36.03478234344767
 20
-75.88632924538697
 30
0.0
 10
-35.7609095530219
 20
-76.10156407236053
 30
0.0
 10
-35.62842201414285
 20
-76.20568515887828
 30
0.0
 11
-36.33761862945343
 21
-75.24962474986008
 31
0.0
 11
-36.41729638083038
 21
-75.42116156691067
 31
0.0
 11
-36.05803369538134
 21
-75.87480977180071
 31
0.0
 11
-35.62842201414285
 21
-76.20568515887828
 31
0.0
  0
SPLINE
  5
6E
330
2
100
AcDbEntity
  8
0
100
AcDbSpline
210
0.0
220
0.0
230
1.0
 70
     8
 71
     3
 72
     8
 73
     4
 74
     0
 42
0.0000000001
 43
0.0000000001
 40
0.0211458261930273
 40
0.0211458261930273
 40
0.0211458261930273
 40
0.0211458261930273
 40
0.6639280349399677
 40
0.6639280349399677
 40
0.6639280349399677
 40
0.6639280349399677
 10
-32.10633990255688
 20
-76.14690312312543
 30
0.0
 10
-32.07625914336436
 20
-76.49357458365516
 30
0.0
 10
-32.34808352108695
 20
-76.83844177356492
 30
0.0
 10
-32.43419663766118
 20
-77.1266592096978
 30
0.0
  0
LINE
  5
6F
330
2
100
AcDbEntity
  8
CENTER
 48
0.05
100
AcDbLine
 10
-33.74020639598958
 20
-78.75431340904992
 30
0.0
 11
-33.74020639598958
 21
-71.96122597526887
 31
0.0
  0
LINE
  5
70
330
2
100
AcDbEntity
  8
0
 48
10.0
100
AcDbLine
 10
-30.75020464511476
 20
-81.27373841722359
 30
0.0
 11
-32.10099882356459
 21
-81.27373841722361
 31
0.0
  0
SPLINE
  5
72
330
2
100
AcDbEntity
  8
0
100
AcDbSpline
210
0.0
220
0.0
230
1.0
 70
     8
 71
     3
 72
    13
 73
     9
 74
     7
 42
0.0000000001
 43
0.0000000001
 44
0.0000000001
 40
0.0
 40
0.0
 40
0.0
 40
0.0
 40
0.6089522211758498
 40
2.05656662166681
 40
3.143879974354287
 40
4.010309003731212
 40
4.973874976894403
 40
5.504843252726057
 40
5.504843252726057
 40
5.504843252726057
 40
5.504843252726057
 10
-32.4320936663116
 20
-77.11972838410452
 30
0.0
 10
-32.32453125327455
 20
-77.29323723420806
 30
0.0
 10
-31.9612691438585
 20
-77.87921507824596
 30
0.0
 10
-31.05257233024894
 20
-78.47280784427349
 30
0.0
 10
-30.11880815691132
 20
-79.06772681536904
 30
0.0
 10
-29.66613083690367
 20
-80.18221820855101
 30
0.0
 10
-30.53439156500517
 20
-80.62734836239282
 30
0.0
 10
-30.69363107996579
 20
-81.10429275683985
 30
0.0
 10
-30.75020464511478
 20
-81.27373841722361
 30
0.0
 11
-32.4320936663116
 21
-77.11972838410452
 31
0.0
 11
-32.08913913117902
 21
-77.62292317194219
 31
0.0
 11
-30.96042710197801
 21
-78.5293428361407
 31
0.0
 11
-30.13039514293308
 21
-79.23169408295137
 31
0.0
 11
-29.89571806844113
 21
-80.0657360085492
 31
0.0
 11
-30.53120975729604
 21
-80.79003546183788
 31
0.0
 11
-30.75020464511478
 21
-81.27373841722361
 31
0.0
  0
SPLINE
  5
73
330
2
100
AcDbEntity
  8
0
100
AcDbSpline
210
0.0
220
0.0
230
1.0
 70
     8
 71
     3
 72
    11
 73
     7
 74
     5
 42
0.0000000001
 43
0.0000000001
 44
0.0000000001
 40
0.0
 40
0.0
 40
0.0
 40
0.0
 40
0.3472343963756704
 40
1.066563199790449
 40
2.065213042572357
 40
3.950384023904478
 40
3.950384023904478
 40
3.950384023904478
 40
3.950384023904478
 10
-32.10099882356459
 20
-81.27373841722361
 30
0.0
 10
-32.12542758322327
 20
-81.15735900970657
 30
0.0
 10
-32.20046282264775
 20
-80.79988868255382
 30
0.0
 10
-32.93468744979701
 20
-80.44250731873862
 30
0.0
 10
-32.69257276253461
 20
-79.05861805890897
 30
0.0
 10
-33.32619629501353
 20
-78.28337558183676
 30
0.0
 10
-33.74039980118502
 20
-77.77659492159182
 30
0.0
 11
-32.10099882356459
 21
-81.27373841722361
 31
0.0
 11
-32.20652244156099
 21
-80.94292654913038
 31
0.0
 11
-32.70806659041079
 21
-80.42728384902046
 31
0.0
 11
-32.8513645551327
 21
-79.43896851381873
 31
0.0
 11
-33.74039980118502
 21
-77.77659492159182
 31
0.0
  0
LINE
  5
74
330
2
100
AcDbEntity
  8
0
100
AcDbLine
 10
-31.255458712403
 20
-75.52373982456953
 30
0.0
 11
-26.85616430778691
 21
-75.52373982456953
 31
0.0
  0
LINE
  5
75
330
2
100
AcDbEntity
  8
0
100
AcDbLine
 10
-31.255458712403
 20
-75.52373982456953
 30
0.0
 11
-26.74200995904604
 21
-75.52373982456953
 31
0.0
  0
LINE
  5
76
330
2
100
AcDbEntity
  8
0
  6
HIDDEN
 62
     9
 48
0.1
100
AcDbLine
 10
-33.49020639598959
 20
-74.54621255648672
 30
0.0
 11
-33.99020639598958
 21
-74.54621255648672
 31
0.0
  0
LINE
  5
77
330
2
100
AcDbEntity
  8
0
  6
HIDDEN
 62
     9
 48
0.1
100
AcDbLine
 10
-33.99020639598958
 20
-75.52373982456964
 30
0.0
 11
-33.99020639598958
 21
-74.54621255648672
 31
0.0
  0
LINE
  5
78
330
2
100
AcDbEntity
  8
0
  6
HIDDEN
 62
     9
 48
0.1
100
AcDbLine
 10
-33.49020639598959
 20
-75.52373982456964
 30
0.0
 11
-33.49020639598959
 21
-74.54621255648672
 31
0.0
  0
LINE
  5
79
330
2
100
AcDbEntity
  8
0
  6
HIDDEN
 62
     9
 48
0.1
100
AcDbLine
 10
-32.45485015491635
 20
-75.77373841722361
 30
0.0
 11
-32.20485156226237
 21
-75.52373982456966
 31
0.0
  0
ARC
  5
7A
330
2
100
AcDbEntity
  8
0
  6
HIDDEN
 62
     9
 48
0.1
100
AcDbCircle
 10
-30.51287791897056
 20
-71.17021210118991
 30
0.0
 40
3.0
100
AcDbArc
 50
271.0000000000001
 51
335.0
  0
ARC
  5
7B
330
2
100
AcDbEntity
  8
0
100
AcDbCircle
 10
-26.74200995904607
 20
-72.52373982456955
 30
0.0
 40
3.0
100
AcDbArc
 50
270.0000000000001
 51
342.8071168934318
  0
CIRCLE
  5
7C
330
2
100
AcDbEntity
  8
0
100
AcDbCircle
 10
-50.72958240326712
 20
-58.58623841722361
 30
0.0
 40
1.1875
  0
LINE
  5
7D
330
2
100
AcDbEntity
  8
CENTER
 48
0.05
100
AcDbLine
 10
-46.53410210264131
 20
-58.58623841722359
 30
0.0
 11
-54.92506270389252
 21
-58.58623841722362
 31
0.0
  0
LINE
  5
7E
330
2
100
AcDbEntity
  8
CENTER
 48
0.05
100
AcDbLine
 10
-50.72958240326713
 20
-54.39075811659801
 30
0.0
 11
-50.7295824032671
 21
-62.78171871784921
 31
0.0
  0
ARC
  5
7F
330
2
100
AcDbEntity
  8
0
100
AcDbCircle
 10
-15.68668918445367
 20
-54.77373982456952
 30
0.0
 40
0.25
100
AcDbArc
 50
19.4712206344899
 51
90.0
  0
ARC
  5
80
330
2
100
AcDbEntity
  8
0
100
AcDbCircle
 10
-14.97958240326711
 20
-54.52373982456953
 30
0.0
 40
0.5
100
AcDbArc
 50
199.4712206344893
 51
250.5287793655085
  0
LINE
  5
81
330
2
100
AcDbEntity
  8
0
100
AcDbLine
 10
-14.97958240326711
 20
-56.02373982456953
 30
0.0
 11
-14.97958240326711
 21
-55.23084660575607
 31
0.0
  0
ARC
  5
82
330
2
100
AcDbEntity
  8
0
100
AcDbCircle
 10
-15.22958240326711
 20
-55.23084660575609
 30
0.0
 40
0.25
100
AcDbArc
 50
0.0000000000032639
 51
70.52877936551119
  0
ENDSEC
  0
SECTION
  2
OBJECTS
  0
DICTIONARY
  5
7
330
0
100
AcDbDictionary
  3
ACAD_GROUP
350
28
  3
ACAD_LAYOUT
350
B
  3
ACAD_MLINESTYLE
350
29
  3
ACAD_PLOTSETTINGS
350
2A
  3
ACAD_PLOTSTYLENAME
350
6
  3
ACDBHEADERROUNDTRIPXREC
350
1EA
  3
ACDBVARIABLEDICTIONARY
350
83
  3
ASE_INDEX_DICTIONARY
350
8B
  0
DICTIONARY
  5
11
330
10
100
AcDbDictionary
280
     1
  3
ACAD_LAYERFILTERS
360
12
  0
DICTIONARY
  5
9D
330
2
100
AcDbDictionary
280
     1
  3
ACAD_LAYOUTSELFREF
360
20B
  0
DICTIONARY
  5
9F
330
90
100
AcDbDictionary
280
     1
  3
ACAD_LAYOUTSELFREF
360
20C
  0
DICTIONARY
  5
28
102
{ACAD_REACTORS
330
7
102
}
330
7
100
AcDbDictionary
  0
DICTIONARY
  5
B
102
{ACAD_REACTORS
330
7
102
}
330
7
100
AcDbDictionary
  0
DICTIONARY
  5
29
102
{ACAD_REACTORS
330
7
102
}
330
7
100
AcDbDictionary
  3
STANDARD
350
2C
  0
DICTIONARY
  5
2A
102
{ACAD_REACTORS
330
7
102
}
330
7
100
AcDbDictionary
  0
ACDBDICTIONARYWDFLT
  5
6
102
{ACAD_REACTORS
330
7
102
}
330
7
100
AcDbDictionary
281
     1
  3
Normal
350
5
100
AcDbDictionaryWithDefault
340
5
  0
DICTIONARY
  5
1EA
102
{ACAD_REACTORS
330
7
102
}
330
7
100
AcDbDictionary
  3
CEPSNTYPE
350
1F4
  3
DIMSTYLEDATA
350
1F8
  3
FINGERPRINTGUID
350
1F5
  3
HYPERLINKBASE
350
1ED
  3
INSUNITS
350
1F3
  3
LAYOUTDICT
350
1EF
  3
LWETCUNION
350
1F2
  3
PLOTSETDICT
350
1F0
  3
PLOTSTYLNAMDICT
350
1F1
  3
PSVPSCALE
350
1F7
  3
PUCSBASE
350
1FB
  3
PUCSORGBACK
350
201
  3
PUCSORGBOTTOM
350
1FD
  3
PUCSORGFRONT
350
200
  3
PUCSORGLEFT
350
1FE
  3
PUCSORGRIGHT
350
1FF
  3
PUCSORGTOP
350
1FC
  3
PUCSORTHOREF
350
1F9
  3
PUCSORTHOVIEW
350
1FA
  3
STYLESHEET
350
1EE
  3
TSTACKALIGN
350
1EB
  3
TSTACKSIZE
350
1EC
  3
UCSBASE
350
204
  3
UCSORGBACK
350
20A
  3
UCSORGBOTTOM
350
206
  3
UCSORGFRONT
350
209
  3
UCSORGLEFT
350
207
  3
UCSORGRIGHT
350
208
  3
UCSORGTOP
350
205
  3
UCSORTHOREF
350
202
  3
UCSORTHOVIEW
350
203
  3
VERSIONGUID
350
1F6
  0
DICTIONARY
  5
83
102
{ACAD_REACTORS
330
7
102
}
330
7
100
AcDbDictionary
  3
DIMASSOC
350
85
  3
HIDETEXT
350
84
  0
DICTIONARY
  5
8B
102
{ACAD_REACTORS
330
7
102
}
330
7
100
AcDbDictionary
  3
ASEBLOCKHIERARCHYINDEXRECORD
350
8D
1001
DCO15
1040
1542965767.349
  0
DICTIONARY
  5
12
102
{ACAD_REACTORS
330
11
102
}
330
11
100
AcDbDictionary
280
     1
  3
DIM-1_12
360
13
  3
DIM-1_16
360
14
  0
XRECORD
  5
20B
102
{ACAD_REACTORS
330
9D
102
}
330
9D
100
AcDbXrecord
340
2
  0
XRECORD
  5
20C
102
{ACAD_REACTORS
330
9F
102
}
330
9F
100
AcDbXrecord
340
90
  0
MLINESTYLE
  5
2C
102
{ACAD_REACTORS
330
29
102
}
330
29
100
AcDbMlineStyle
  2
STANDARD
 70
     0
  3

 62
   256
 51
90.0
 52
90.0
 71
     2
 49
0.5
 62
   256
  6
BYLAYER
 49
-0.5
 62
   256
  6
BYLAYER
  0
ACDBPLACEHOLDER
  5
5
102
{ACAD_REACTORS
330
6
102
}
330
6
100
AcDbPlaceHolder
280
     0
  0
XRECORD
  5
1F4
102
{ACAD_REACTORS
330
1EA
102
}
330
1EA
100
AcDbXrecord
 90
        0
  0
XRECORD
  5
1F8
102
{ACAD_REACTORS
330
1EA
102
}
330
1EA
100
AcDbXrecord
1000
DSTYLE
1002
{
1070
    79
 70
     1
1070
   276
 70
     1
1070
   277
 70
     5
1002
}
  0
XRECORD
  5
1F5
102
{ACAD_REACTORS
330
1EA
102
}
330
1EA
100
AcDbXrecord
  1
{6A4AC8E0-4F58-11D5-8420-0003476D26AB}
  0
XRECORD
  5
1ED
102
{ACAD_REACTORS
330
1EA
102
}
330
1EA
100
AcDbXrecord
  1

  0
XRECORD
  5
1F3
102
{ACAD_REACTORS
330
1EA
102
}
330
1EA
100
AcDbXrecord
 90
        1
  0
XRECORD
  5
1EF
102
{ACAD_REACTORS
330
1EA
102
}
330
1EA
100
AcDbXrecord
340
B
  0
XRECORD
  5
1F2
102
{ACAD_REACTORS
330
1EA
102
}
330
1EA
100
AcDbXrecord
 90
    10781
  0
XRECORD
  5
1F0
102
{ACAD_REACTORS
330
1EA
102
}
330
1EA
100
AcDbXrecord
340
2A
  0
XRECORD
  5
1F1
102
{ACAD_REACTORS
330
1EA
102
}
330
1EA
100
AcDbXrecord
340
6
  0
XRECORD
  5
1F7
102
{ACAD_REACTORS
330
1EA
102
}
330
1EA
100
AcDbXrecord
 40
0.0
  0
XRECORD
  5
1FB
102
{ACAD_REACTORS
330
1EA
102
}
330
1EA
100
AcDbXrecord
340
0
  0
XRECORD
  5
201
102
{ACAD_REACTORS
330
1EA
102
}
330
1EA
100
AcDbXrecord
 10
0.0
 20
0.0
 30
0.0
  0
XRECORD
  5
1FD
102
{ACAD_REACTORS
330
1EA
102
}
330
1EA
100
AcDbXrecord
 10
0.0
 20
0.0
 30
0.0
  0
XRECORD
  5
200
102
{ACAD_REACTORS
330
1EA
102
}
330
1EA
100
AcDbXrecord
 10
0.0
 20
0.0
 30
0.0
  0
XRECORD
  5
1FE
102
{ACAD_REACTORS
330
1EA
102
}
330
1EA
100
AcDbXrecord
 10
0.0
 20
0.0
 30
0.0
  0
XRECORD
  5
1FF
102
{ACAD_REACTORS
330
1EA
102
}
330
1EA
100
AcDbXrecord
 10
0.0
 20
0.0
 30
0.0
  0
XRECORD
  5
1FC
102
{ACAD_REACTORS
330
1EA
102
}
330
1EA
100
AcDbXrecord
 10
0.0
 20
0.0
 30
0.0
  0
XRECORD
  5
1F9
102
{ACAD_REACTORS
330
1EA
102
}
330
1EA
100
AcDbXrecord
340
0
  0
XRECORD
  5
1FA
102
{ACAD_REACTORS
330
1EA
102
}
330
1EA
100
AcDbXrecord
 70
     0
  0
XRECORD
  5
1EE
102
{ACAD_REACTORS
330
1EA
102
}
330
1EA
100
AcDbXrecord
  1

  0
XRECORD
  5
1EB
102
{ACAD_REACTORS
330
1EA
102
}
330
1EA
100
AcDbXrecord
 90
        1
  0
XRECORD
  5
1EC
102
{ACAD_REACTORS
330
1EA
102
}
330
1EA
100
AcDbXrecord
 90
       70
  0
XRECORD
  5
204
102
{ACAD_REACTORS
330
1EA
102
}
330
1EA
100
AcDbXrecord
340
0
  0
XRECORD
  5
20A
102
{ACAD_REACTORS
330
1EA
102
}
330
1EA
100
AcDbXrecord
 10
0.0
 20
0.0
 30
0.0
  0
XRECORD
  5
206
102
{ACAD_REACTORS
330
1EA
102
}
330
1EA
100
AcDbXrecord
 10
0.0
 20
0.0
 30
0.0
  0
XRECORD
  5
209
102
{ACAD_REACTORS
330
1EA
102
}
330
1EA
100
AcDbXrecord
 10
0.0
 20
0.0
 30
0.0
  0
XRECORD
  5
207
102
{ACAD_REACTORS
330
1EA
102
}
330
1EA
100
AcDbXrecord
 10
0.0
 20
0.0
 30
0.0
  0
XRECORD
  5
208
102
{ACAD_REACTORS
330
1EA
102
}
330
1EA
100
AcDbXrecord
 10
0.0
 20
0.0
 30
0.0
  0
XRECORD
  5
205
102
{ACAD_REACTORS
330
1EA
102
}
330
1EA
100
AcDbXrecord
 10
0.0
 20
0.0
 30
0.0
  0
XRECORD
  5
202
102
{ACAD_REACTORS
330
1EA
102
}
330
1EA
100
AcDbXrecord
340
0
  0
XRECORD
  5
203
102
{ACAD_REACTORS
330
1EA
102
}
330
1EA
100
AcDbXrecord
 70
     1
  0
XRECORD
  5
1F6
102
{ACAD_REACTORS
330
1EA
102
}
330
1EA
100
AcDbXrecord
  1
{D8D15377-A34F-472A-8885-B3BC3EEAD36D}
  0
DICTIONARYVAR
  5
85
102
{ACAD_REACTORS
330
83
102
}
330
83
100
DictionaryVariables
280
     0
  1
1
  0
DICTIONARYVAR
  5
84
102
{ACAD_REACTORS
330
83
102
}
330
83
100
DictionaryVariables
280
     0
  1
1
  0
XRECORD
  5
8D
102
{ACAD_REACTORS
330
8B
102
}
330
8B
100
AcDbXrecord
  0
XRECORD
  5
13
102
{ACAD_REACTORS
330
12
102
}
330
12
100
AcDbXrecord
  1
DIM-1_12
  1
DIM-1_12
  1
*
  1
*
 70
     0
  1
*
  1
*
  0
XRECORD
  5
14
102
{ACAD_REACTORS
330
12
102
}
330
12
100
AcDbXrecord
  1
dim-1_16
  1
*
  1
*
  1
*
 70
     0
  1
*
  1
*
  0
ENDSEC
  0
EOF
