  0
SECTION
  2
HEADER
  9
$ACADVER
  1
AC1014
  9
$ACADMAINTVER
 70
     9
  9
$DWGCODEPAGE
  3
ANSI_1252
  9
$INSBASE
 10
-50.74036765085748
 20
8.918032692375007
 30
0.0
  9
$EXTMIN
 10
-86.49599943231294
 20
-2.708994214427434
 30
-0.0015258207003583
  9
$EXTMAX
 10
-14.97847858740942
 20
37.16858889863364
 30
0.0000000349246037
  9
$LIMMIN
 10
0.0
 20
0.0
  9
$LIMMAX
 10
100.5024158491978
 20
51.69854817198938
  9
$ORTHOMODE
 70
     1
  9
$REGENMODE
 70
     1
  9
$FILLMODE
 70
     1
  9
$QTEXTMODE
 70
     0
  9
$MIRRTEXT
 70
     1
  9
$DRAGMODE
 70
     2
  9
$LTSCALE
 40
2.0
  9
$OSMODE
 70
    55
  9
$ATTMODE
 70
     1
  9
$TEXTSIZE
 40
0.1
  9
$TRACEWID
 40
1.0
  9
$TEXTSTYLE
  7
CARTOUCHE
  9
$CLAYER
  8
0
  9
$CELTYPE
  6
BYLAYER
  9
$CECOLOR
 62
   256
  9
$CELTSCALE
 40
10.0
  9
$DELOBJ
 70
     1
  9
$DISPSILH
 70
     0
  9
$DIMSCALE
 40
16.0
  9
$DIMASZ
 40
0.1
  9
$DIMEXO
 40
0.0625
  9
$DIMDLI
 40
0.25
  9
$DIMRND
 40
0.0
  9
$DIMDLE
 40
0.0
  9
$DIMEXE
 40
0.1
  9
$DIMTP
 40
0.0
  9
$DIMTM
 40
0.0
  9
$DIMTXT
 40
0.1
  9
$DIMCEN
 40
0.09
  9
$DIMTSZ
 40
0.0
  9
$DIMTOL
 70
     0
  9
$DIMLIM
 70
     0
  9
$DIMTIH
 70
     1
  9
$DIMTOH
 70
     1
  9
$DIMSE1
 70
     0
  9
$DIMSE2
 70
     0
  9
$DIMTAD
 70
     0
  9
$DIMZIN
 70
     4
  9
$DIMBLK
  1

  9
$DIMASO
 70
     1
  9
$DIMSHO
 70
     1
  9
$DIMPOST
  1
\X
  9
$DIMAPOST
  1
cm
  9
$DIMALT
 70
     1
  9
$DIMALTD
 70
     1
  9
$DIMALTF
 40
2.54
  9
$DIMLFAC
 40
1.0
  9
$DIMTOFL
 70
     0
  9
$DIMTVP
 40
0.0
  9
$DIMTIX
 70
     0
  9
$DIMSOXD
 70
     0
  9
$DIMSAH
 70
     0
  9
$DIMBLK1
  1

  9
$DIMBLK2
  1

  9
$DIMSTYLE
  2
STANDARD
  9
$DIMCLRD
 70
     0
  9
$DIMCLRE
 70
     0
  9
$DIMCLRT
 70
     0
  9
$DIMTFAC
 40
1.0
  9
$DIMGAP
 40
0.08
  9
$DIMJUST
 70
     0
  9
$DIMSD1
 70
     0
  9
$DIMSD2
 70
     0
  9
$DIMTOLJ
 70
     1
  9
$DIMTZIN
 70
     4
  9
$DIMALTZ
 70
     4
  9
$DIMALTTZ
 70
     4
  9
$DIMFIT
 70
     3
  9
$DIMUPT
 70
     0
  9
$DIMUNIT
 70
     5
  9
$DIMDEC
 70
     3
  9
$DIMTDEC
 70
     3
  9
$DIMALTU
 70
     2
  9
$DIMALTTD
 70
     1
  9
$DIMTXSTY
  7
ROMANS
  9
$DIMAUNIT
 70
     0
  9
$LUNITS
 70
     2
  9
$LUPREC
 70
     2
  9
$SKETCHINC
 40
1.0
  9
$FILLETRAD
 40
2.5
  9
$AUNITS
 70
     0
  9
$AUPREC
 70
     0
  9
$MENU
  1
.
  9
$ELEVATION
 40
0.0
  9
$PELEVATION
 40
0.0
  9
$THICKNESS
 40
0.0
  9
$LIMCHECK
 70
     0
  9
$BLIPMODE
 70
     0
  9
$CHAMFERA
 40
0.0
  9
$CHAMFERB
 40
0.0
  9
$CHAMFERC
 40
20.0
  9
$CHAMFERD
 40
0.0
  9
$SKPOLY
 70
     0
  9
$TDCREATE
 40
2452062.343093519
  9
$TDUPDATE
 40
2453686.452541226
  9
$TDINDWG
 40
1.8861216898
  9
$TDUSRTIMER
 40
1.8861216898
  9
$USRTIMER
 70
     1
  9
$ANGBASE
 50
0.0
  9
$ANGDIR
 70
     0
  9
$PDMODE
 70
    34
  9
$PDSIZE
 40
-5.0
  9
$PLINEWID
 40
0.0
  9
$COORDS
 70
     1
  9
$SPLFRAME
 70
     0
  9
$SPLINETYPE
 70
     6
  9
$SPLINESEGS
 70
     8
  9
$ATTDIA
 70
     0
  9
$ATTREQ
 70
     1
  9
$HANDLING
 70
 22529
  9
$HANDSEED
  5
204
  9
$SURFTAB1
 70
     6
  9
$SURFTAB2
 70
     6
  9
$SURFTYPE
 70
     6
  9
$SURFU
 70
     6
  9
$SURFV
 70
     6
  9
$UCSNAME
  2

  9
$UCSORG
 10
0.0
 20
0.0
 30
0.0
  9
$UCSXDIR
 10
1.0
 20
0.0
 30
0.0
  9
$UCSYDIR
 10
0.0
 20
1.0
 30
0.0
  9
$PUCSNAME
  2

  9
$PUCSORG
 10
0.0
 20
0.0
 30
0.0
  9
$PUCSXDIR
 10
1.0
 20
0.0
 30
0.0
  9
$PUCSYDIR
 10
0.0
 20
1.0
 30
0.0
  9
$USERI1
 70
     0
  9
$USERI2
 70
     0
  9
$USERI3
 70
     0
  9
$USERI4
 70
     0
  9
$USERI5
 70
     0
  9
$USERR1
 40
0.0
  9
$USERR2
 40
0.0
  9
$USERR3
 40
0.0
  9
$USERR4
 40
0.0
  9
$USERR5
 40
0.0
  9
$WORLDVIEW
 70
     1
  9
$SHADEDGE
 70
     3
  9
$SHADEDIF
 70
    70
  9
$TILEMODE
 70
     1
  9
$MAXACTVP
 70
    48
  9
$PINSBASE
 10
0.0
 20
0.0
 30
0.0
  9
$PLIMCHECK
 70
     0
  9
$PEXTMIN
 10
0.0
 20
0.0
 30
0.0
  9
$PEXTMAX
 10
0.0
 20
0.0
 30
0.0
  9
$PLIMMIN
 10
0.0
 20
0.0
  9
$PLIMMAX
 10
12.0
 20
9.0
  9
$UNITMODE
 70
     0
  9
$VISRETAIN
 70
     1
  9
$PLINEGEN
 70
     0
  9
$PSLTSCALE
 70
     1
  9
$TREEDEPTH
 70
  3020
  9
$PICKSTYLE
 70
     1
  9
$CMLSTYLE
  2
STANDARD
  9
$CMLJUST
 70
     0
  9
$CMLSCALE
 40
20.0
  9
$PROXYGRAPHICS
 70
     1
  9
$MEASUREMENT
 70
     0
  0
ENDSEC
  0
SECTION
  2
CLASSES
  0
CLASS
  1
ACDBDICTIONARYWDFLT
  2
AcDbDictionaryWithDefault
  3
AutoCAD 2000
 90
        0
280
     0
281
     0
  0
CLASS
  1
ACDBPLACEHOLDER
  2
AcDbPlaceHolder
  3
AutoCAD 2000
 90
        0
280
     0
281
     0
  0
CLASS
  1
LAYOUT
  2
AcDbLayout
  3
AutoCAD 2000
 90
        0
280
     0
281
     0
  0
CLASS
  1
DICTIONARYVAR
  2
AcDbDictionaryVar
  3
AutoCAD 2000
 90
        0
280
     0
281
     0
  0
CLASS
  1
IMAGEDEF
  2
AcDbRasterImageDef
  3
ISM
 90
        0
280
     0
281
     0
  0
CLASS
  1
LONG_TRANSACTION
  2
AcDbLongTransaction
  3
AutoCAD 2000
 90
        0
280
     0
281
     0
  0
CLASS
  1
LWPOLYLINE
  2
AcDbPolyline
  3
AutoCAD 2000
 90
        0
280
     0
281
     1
  0
CLASS
  1
HATCH
  2
AcDbHatch
  3
AutoCAD 2000
 90
        0
280
     0
281
     1
  0
CLASS
  1
XRECORD
  2
AcDbXrecord
  3
AutoCAD 2000
 90
        0
280
     0
281
     0
  0
CLASS
  1
LONG_TRANSACTION
  2
AcDbLongTransaction
  3
AutoCAD 2000
 90
        0
280
     0
281
     0
  0
CLASS
  1
LWPOLYLINE
  2
AcDbPolyline
  3
AutoCAD 2000
 90
        0
280
     0
281
     1
  0
CLASS
  1
HATCH
  2
AcDbHatch
  3
AutoCAD 2000
 90
        0
280
     0
281
     1
  0
CLASS
  1
XRECORD
  2
AcDbXrecord
  3
AutoCAD 2000
 90
        0
280
     0
281
     0
  0
CLASS
  1
LONG_TRANSACTION
  2
AcDbLongTransaction
  3
AutoCAD 2000
 90
        0
280
     0
281
     0
  0
CLASS
  1
LWPOLYLINE
  2
AcDbPolyline
  3
AutoCAD 2000
 90
        0
280
     0
281
     1
  0
CLASS
  1
HATCH
  2
AcDbHatch
  3
AutoCAD 2000
 90
        0
280
     0
281
     1
  0
CLASS
  1
XRECORD
  2
AcDbXrecord
  3
AutoCAD 2000
 90
        0
280
     0
281
     0
  0
CLASS
  1
LONG_TRANSACTION
  2
AcDbLongTransaction
  3
AutoCAD 2000
 90
        0
280
     0
281
     0
  0
CLASS
  1
LWPOLYLINE
  2
AcDbPolyline
  3
AutoCAD 2000
 90
        0
280
     0
281
     1
  0
CLASS
  1
HATCH
  2
AcDbHatch
  3
AutoCAD 2000
 90
        0
280
     0
281
     1
  0
CLASS
  1
XRECORD
  2
AcDbXrecord
  3
AutoCAD 2000
 90
        0
280
     0
281
     0
  0
ENDSEC
  0
SECTION
  2
TABLES
  0
TABLE
  2
VPORT
  5
1D
330
0
100
AcDbSymbolTable
 70
     3
  0
VPORT
  5
1E0
330
1D
100
AcDbSymbolTableRecord
100
AcDbViewportTableRecord
  2
*ACTIVE
 70
     0
 10
0.0
 20
0.0
 11
1.0
 21
1.0
 12
-50.73723923005018
 22
17.22979731491534
 13
0.0
 23
0.0
 14
10.0
 24
10.0
 15
10.0
 25
10.0
 16
0.0
 26
0.0
 36
1.0
 17
0.0
 27
0.0
 37
0.0
 40
47.99252185664232
 41
1.786792452830188
 42
50.0
 43
0.0
 44
0.0
 50
0.0
 51
0.0
 71
     0
 72
   100
 73
     1
 74
     3
 75
     0
 76
     0
 77
     0
 78
     2
  0
ENDTAB
  0
TABLE
  2
LTYPE
  5
18
330
0
100
AcDbSymbolTable
 70
     3
  0
LTYPE
  5
19
330
18
100
AcDbSymbolTableRecord
100
AcDbLinetypeTableRecord
  2
BYBLOCK
 70
     0
  3

 72
    65
 73
     0
 40
0.0
  0
LTYPE
  5
1A
330
18
100
AcDbSymbolTableRecord
100
AcDbLinetypeTableRecord
  2
BYLAYER
 70
     0
  3

 72
    65
 73
     0
 40
0.0
  0
LTYPE
  5
8
330
18
100
AcDbSymbolTableRecord
100
AcDbLinetypeTableRecord
  2
CONTINUOUS
 70
     0
  3
Solid line
 72
    65
 73
     0
 40
0.0
  0
LTYPE
  5
4A
330
18
100
AcDbSymbolTableRecord
100
AcDbLinetypeTableRecord
  2
CENTER
 70
     0
  3
Center ____ _ ____ _ ____ _ ____ _ ____ _ ____
 72
    65
 73
     4
 40
50.8
 49
31.75
 74
     0
 49
-6.349999999999999
 74
     0
 49
6.349999999999999
 74
     0
 49
-6.349999999999999
 74
     0
  0
LTYPE
  5
2E
330
18
100
AcDbSymbolTableRecord
100
AcDbLinetypeTableRecord
  2
HIDDEN
 70
     0
  3
Hidden __ __ __ __ __ __ __ __ __ __ __ __ __ _
 72
    65
 73
     2
 40
9.524999999999998
 49
6.349999999999999
 74
     0
 49
-3.174999999999999
 74
     0
  0
ENDTAB
  0
TABLE
  2
LAYER
  5
10
102
{ACAD_XDICTIONARY
360
11
102
}
330
0
100
AcDbSymbolTable
 70
     3
  0
LAYER
  5
4
330
10
100
AcDbSymbolTableRecord
100
AcDbLayerTableRecord
  2
0
 70
     0
 62
     7
  6
CONTINUOUS
  0
LAYER
  5
49
330
10
100
AcDbSymbolTableRecord
100
AcDbLayerTableRecord
  2
CENTER
 70
     0
 62
     1
  6
CENTER
  0
LAYER
  5
AF
330
10
100
AcDbSymbolTableRecord
100
AcDbLayerTableRecord
  2
DEFPOINTS
 70
     0
 62
     7
  6
CONTINUOUS
  0
ENDTAB
  0
TABLE
  2
STYLE
  5
15
330
0
100
AcDbSymbolTable
 70
     3
  0
STYLE
  5
16
330
15
100
AcDbSymbolTableRecord
100
AcDbTextStyleTableRecord
  2
STANDARD
 70
     0
 40
0.0
 41
1.0
 50
0.0
 71
     0
 42
0.125
  3
txt
  4

  0
STYLE
  5
2B
330
15
100
AcDbSymbolTableRecord
100
AcDbTextStyleTableRecord
  2
CARTOUCHE
 70
     0
 40
0.0
 41
1.0
 50
0.0
 71
     0
 42
0.1
  3
romans.shx
  4

  0
STYLE
  5
23
330
15
100
AcDbSymbolTableRecord
100
AcDbTextStyleTableRecord
  2
ROMANS
 70
     0
 40
0.0
 41
1.0
 50
0.0
 71
     0
 42
1.0
  3
romans.shx
  4

  0
ENDTAB
  0
TABLE
  2
VIEW
  5
1B
330
0
100
AcDbSymbolTable
 70
     0
  0
ENDTAB
  0
TABLE
  2
UCS
  5
1C
330
0
100
AcDbSymbolTable
 70
     0
  0
ENDTAB
  0
TABLE
  2
APPID
  5
1F
330
0
100
AcDbSymbolTable
 70
     2
  0
APPID
  5
20
330
1F
100
AcDbSymbolTableRecord
100
AcDbRegAppTableRecord
  2
ACAD
 70
     0
  0
APPID
  5
61
330
1F
100
AcDbSymbolTableRecord
100
AcDbRegAppTableRecord
  2
DCO15
 70
     0
  0
ENDTAB
  0
TABLE
  2
DIMSTYLE
  5
21
330
0
100
AcDbSymbolTable
 70
     1
  0
DIMSTYLE
105
22
330
21
100
AcDbSymbolTableRecord
100
AcDbDimStyleTableRecord
  2
STANDARD
 70
     0
  3
\X
  4
cm
  5

  6

  7

 40
16.0
 41
0.1
 42
0.0625
 43
0.25
 44
0.1
 45
0.0
 46
0.0
 47
0.0
 48
0.0
140
0.1
141
0.09
142
0.0
143
2.54
144
1.0
145
0.0
146
1.0
147
0.08
 71
     0
 72
     0
 73
     1
 74
     1
 75
     0
 76
     0
 77
     0
 78
     4
170
     1
171
     1
172
     0
173
     0
174
     0
175
     0
176
     0
177
     0
178
     0
270
     5
271
     3
272
     3
273
     2
274
     1
340
23
275
     0
280
     0
281
     0
282
     0
283
     1
284
     4
285
     4
286
     4
287
     3
288
     0
  0
ENDTAB
  0
TABLE
  2
BLOCK_RECORD
  5
1
330
0
100
AcDbSymbolTable
 70
     0
  0
BLOCK_RECORD
  5
2
102
{ACAD_XDICTIONARY
360
69
102
}
330
1
100
AcDbSymbolTableRecord
100
AcDbBlockTableRecord
  2
*MODEL_SPACE
  0
BLOCK_RECORD
  5
58
102
{ACAD_XDICTIONARY
360
6B
102
}
330
1
100
AcDbSymbolTableRecord
100
AcDbBlockTableRecord
  2
*PAPER_SPACE
  0
ENDTAB
  0
ENDSEC
  0
SECTION
  2
BLOCKS
  0
BLOCK
  5
3
330
2
100
AcDbEntity
  8
0
100
AcDbBlockBegin
  2
*MODEL_SPACE
 70
     0
 10
0.0
 20
0.0
 30
0.0
  3
*MODEL_SPACE
  1

  0
ENDBLK
  5
9
330
2
100
AcDbEntity
  8
0
100
AcDbBlockEnd
  0
BLOCK
  5
5A
330
58
100
AcDbEntity
 67
     1
  8
0
 48
10.0
100
AcDbBlockBegin
  2
*PAPER_SPACE
 70
     0
 10
0.0
 20
0.0
 30
0.0
  3
*PAPER_SPACE
  1

  0
ENDBLK
  5
5B
330
58
100
AcDbEntity
 67
     1
  8
0
 48
10.0
100
AcDbBlockEnd
  0
ENDSEC
  0
SECTION
  2
ENTITIES
  0
SPLINE
  5
2D
330
2
100
AcDbEntity
  8
0
  6
HIDDEN
 62
     9
 48
0.1
100
AcDbSpline
210
0.0
220
0.0
230
1.0
 70
     8
 71
     3
 72
    28
 73
    24
 74
     0
 42
0.0000000001
 43
0.0000000001
 40
0.0
 40
0.0
 40
0.0
 40
0.0
 40
0.7202671860568805
 40
0.7202671860568805
 40
1.407304589324429
 40
1.407304589324429
 40
2.094341992591977
 40
2.094341992591977
 40
3.468416799127075
 40
3.468416799127075
 40
6.21656641219727
 40
6.21656641219727
 40
10.25029881379412
 40
10.25029881379412
 40
14.28403121539098
 40
14.28403121539098
 40
18.79136158017507
 40
18.79136158017507
 40
21.77264554717882
 40
21.77264554717882
 40
24.75392951418257
 40
24.75392951418257
 40
29.47838081446407
 40
29.47838081446407
 40
29.47838081446407
 40
29.47838081446407
 10
-84.74037065992652
 20
16.99471332532706
 30
0.0
 10
-84.74262742194071
 20
16.75470517447799
 30
0.0
 10
-84.74464296147774
 20
16.52689118158973
 30
0.0
 10
-84.73980716629135
 20
16.10512135152999
 30
0.0
 10
-84.73303619463733
 20
15.90540642963206
 30
0.0
 10
-84.70997892507721
 20
15.49953343774396
 30
0.0
 10
-84.69381767731123
 20
15.29625811007219
 30
0.0
 10
-84.6316333032446
 20
14.68610237667235
 30
0.0
 10
-84.57190381041273
 20
14.27888883687786
 30
0.0
 10
-84.33967129675064
 20
13.06157753364173
 30
0.0
 10
-84.11403573599042
 20
12.4728697911885
 30
0.0
 10
-83.39681726411825
 20
10.53679418293274
 30
0.0
 10
-82.83079424271809
 20
9.432570506287387
 30
0.0
 10
-81.4616752811168
 20
7.406063997239936
 30
0.0
 10
-80.65248070171735
 20
6.471751169880636
 30
0.0
 10
-78.73432390493134
 20
4.676930287968733
 30
0.0
 10
-77.60131268838387
 20
3.838362660040637
 30
0.0
 10
-75.59444490620298
 20
2.647244802055692
 30
0.0
 10
-74.76437057310151
 20
2.227170297013409
 30
0.0
 10
-73.06067603492519
 20
1.495812574454248
 30
0.0
 10
-72.18428563113672
 20
1.182387896081941
 30
0.0
 10
-69.86599107299851
 20
0.3941639381696572
 30
0.0
 10
-68.3926331055339
 20
0.0784950933790034
 30
0.0
 10
-66.88899105030064
 20
-0.1594686203928441
 30
0.0
  0
SPLINE
  5
2F
330
2
100
AcDbEntity
  8
0
100
AcDbSpline
210
0.0
220
0.0
230
1.0
 70
     8
 71
     3
 72
    28
 73
    24
 74
     0
 42
0.0000000001
 43
0.0000000001
 40
0.0
 40
0.0
 40
0.0
 40
0.0
 40
0.7458422934298273
 40
0.7458422934298273
 40
2.237526880289482
 40
2.237526880289482
 40
3.729211467149136
 40
3.729211467149136
 40
6.712580640868445
 40
6.712580640868445
 40
10.19805190813248
 40
10.19805190813248
 40
17.24099178245666
 40
17.24099178245666
 40
21.00408532961859
 40
21.00408532961859
 40
28.53027242394245
 40
28.53027242394245
 40
33.29652586604442
 40
33.29652586604442
 40
45.00490182987316
 40
45.00490182987316
 40
46.03594618862999
 40
46.03594618862999
 40
46.03594618862999
 40
46.03594618862999
 10
-85.99031540503064
 20
17.00646637542395
 30
0.0
 10
-85.99265229971219
 20
16.75793606176198
 30
0.0
 10
-85.99491250545602
 20
16.51314209320731
 30
0.0
 10
-85.98552247761467
 20
15.78930457768386
 30
0.0
 10
-85.95541809318902
 20
15.30885393103804
 30
0.0
 10
-85.84832681872381
 20
14.34614844472578
 30
0.0
 10
-85.7715165600187
 20
13.86560625105758
 30
0.0
 10
-85.47423504867378
 20
12.4333923981864
 30
0.0
 10
-85.18687868347601
 20
11.70819874571136
 30
0.0
 10
-84.38840274537158
 20
9.732941432807997
 30
0.0
 10
-83.84789200414592
 20
8.711686390278995
 30
0.0
 10
-81.92322559251412
 20
5.843606528437726
 30
0.0
 10
-80.23588809904927
 20
4.204079209643097
 30
0.0
 10
-77.30292155167309
 20
2.167992760672094
 30
0.0
 10
-76.21776726168085
 20
1.548277305479345
 30
0.0
 10
-72.85501311461063
 20
-0.1196094043838896
 30
0.0
 10
-70.46563976715217
 20
-0.7917616943124476
 30
0.0
 10
-66.46105233420833
 20
-1.518370187658308
 30
0.0
 10
-64.88355337593913
 20
-1.70895760585299
 30
0.0
 10
-59.42696469981386
 20
-2.187138374248932
 30
0.0
 10
-55.67214437847282
 20
-2.205967512067286
 30
0.0
 10
-51.4277746081264
 20
-2.207062382297114
 30
0.0
 10
-51.08413872647636
 20
-2.207014858468167
 30
0.0
 10
-50.74043681843789
 20
-2.206967312409153
 30
0.0
  0
SPLINE
  5
30
330
2
100
AcDbEntity
  8
0
100
AcDbSpline
210
0.0
220
0.0
230
1.0
 70
     8
 71
     3
 72
    13
 73
     9
 74
     7
 42
0.0000000001
 43
0.0000000001
 44
0.0000000001
 40
0.0
 40
0.0
 40
0.0
 40
0.0
 40
0.8372418225556401
 40
9.820383947291302
 40
21.01940233985806
 40
32.93822621740964
 40
44.70822854288851
 40
45.76339247046132
 40
45.76339247046132
 40
45.76339247046132
 40
45.76339247046132
 10
-86.49029330307229
 20
17.01116759546271
 30
0.0
 10
-86.49311731606152
 20
16.73211554511668
 30
0.0
 10
-86.52624142797199
 20
13.45898918920688
 30
0.0
 10
-84.10234430974085
 20
6.428010648465503
 30
0.0
 10
-75.29368829293916
 20
-0.6261468512256706
 30
0.0
 10
-63.59056306185793
 20
-2.653100814165441
 30
0.0
 10
-55.36753939289326
 20
-2.707833043608214
 30
0.0
 10
-51.09211898856693
 20
-2.707033119703559
 30
0.0
 10
-50.74036765085772
 20
-2.706967307624999
 30
0.0
 11
-86.49029330307229
 21
17.01116759546271
 31
0.0
 11
-86.49029330307229
 21
16.17392577290706
 31
0.0
 11
-83.72177379441893
 21
7.628041256755089
 31
0.0
 11
-75.16002512470949
 21
0.4090058174614773
 31
0.0
 11
-63.55938619468237
 21
-2.326599972712429
 31
0.0
 11
-51.79553157843054
 21
-2.706967307624999
 31
0.0
 11
-50.74036765085772
 21
-2.706967307624999
 31
0.0
  0
SPLINE
  5
31
330
2
100
AcDbEntity
  8
0
  6
HIDDEN
 62
     9
 48
0.1
100
AcDbSpline
210
0.0
220
0.0
230
1.0
 70
     8
 71
     3
 72
    34
 73
    30
 74
     0
 42
0.0000000001
 43
0.0000000001
 40
0.0
 40
0.0
 40
0.0
 40
0.0
 40
0.7202671860568805
 40
0.7202671860568805
 40
1.407304589324429
 40
1.407304589324429
 40
2.094341992591977
 40
2.094341992591977
 40
3.468416799127075
 40
3.468416799127075
 40
6.21656641219727
 40
6.21656641219727
 40
10.25029881379412
 40
10.25029881379412
 40
14.28403121539098
 40
14.28403121539098
 40
18.79136158017507
 40
18.79136158017507
 40
21.77264554717882
 40
21.77264554717882
 40
24.75392951418257
 40
24.75392951418257
 40
31.63684495707669
 40
31.63684495707669
 40
35.36782643122476
 40
35.36782643122476
 40
39.09880790537283
 40
39.09880790537283
 40
46.03594618862999
 40
46.03594618862999
 40
46.03594618862999
 40
46.03594618862999
 10
-84.74037065992652
 20
17.02963272231316
 30
0.0
 10
-84.74262742194071
 20
17.26964087316223
 30
0.0
 10
-84.74464296147774
 20
17.49745486605049
 30
0.0
 10
-84.73980716629135
 20
17.91922469611022
 30
0.0
 10
-84.73303619463733
 20
18.11893961800816
 30
0.0
 10
-84.70997892507721
 20
18.52481260989625
 30
0.0
 10
-84.69381767731123
 20
18.72808793756802
 30
0.0
 10
-84.6316333032446
 20
19.33824367096787
 30
0.0
 10
-84.57190381041273
 20
19.74545721076236
 30
0.0
 10
-84.33967129675064
 20
20.96276851399849
 30
0.0
 10
-84.11403573599042
 20
21.76853968837508
 30
0.0
 10
-83.39681726411825
 20
23.70461529663085
 30
0.0
 10
-82.83079424271809
 20
24.8088389732762
 30
0.0
 10
-81.4616752811168
 20
27.11412825135687
 30
0.0
 10
-80.65248070171735
 20
28.04844107871618
 30
0.0
 10
-78.73432390493134
 20
29.84326196062808
 30
0.0
 10
-77.60131268838387
 20
30.68182958855617
 30
0.0
 10
-75.59444490620298
 20
31.87294744654112
 30
0.0
 10
-74.76437057310151
 20
32.2930219515834
 30
0.0
 10
-73.06067603492519
 20
33.02437967414256
 30
0.0
 10
-72.18428563113672
 20
33.33780435251487
 30
0.0
 10
-69.21661038417579
 20
34.22896736440915
 30
0.0
 10
-67.03551210867757
 20
34.64780900146058
 30
0.0
 10
-63.60545982681173
 20
35.03858710352346
 30
0.0
 10
-62.38859087378939
 20
35.13855339711345
 30
0.0
 10
-59.95277462613404
 20
35.28664142095855
 30
0.0
 10
-58.73112150543186
 20
35.33412152727152
 30
0.0
 10
-55.35018615148224
 20
35.42089043298242
 30
0.0
 10
-53.05312679257789
 20
35.41835261154021
 30
0.0
 10
-50.74060973738833
 20
35.41803270911953
 30
0.0
  0
SPLINE
  5
32
330
2
100
AcDbEntity
  8
0
100
AcDbSpline
210
0.0
220
0.0
230
1.0
 70
     8
 71
     3
 72
    28
 73
    24
 74
     0
 42
0.0000000001
 43
0.0000000001
 40
0.0
 40
0.0
 40
0.0
 40
0.0
 40
0.7458422934298273
 40
0.7458422934298273
 40
2.237526880289482
 40
2.237526880289482
 40
3.729211467149136
 40
3.729211467149136
 40
6.712580640868445
 40
6.712580640868445
 40
10.19805190813213
 40
10.19805190813213
 40
17.24099178246525
 40
17.24099178246525
 40
21.00408532962731
 40
21.00408532962731
 40
28.53027242395143
 40
28.53027242395143
 40
33.29652586604916
 40
33.29652586604916
 40
45.00490182986751
 40
45.00490182986751
 40
46.03594618862999
 40
46.03594618862999
 40
46.03594618862999
 40
46.03594618862999
 10
-85.99031540503064
 20
17.01787967221627
 30
0.0
 10
-85.99265229971219
 20
17.26640998587824
 30
0.0
 10
-85.99491250545602
 20
17.5112039544329
 30
0.0
 10
-85.98552247761467
 20
18.23504146995635
 30
0.0
 10
-85.95541809318902
 20
18.71549211660218
 30
0.0
 10
-85.84832681872381
 20
19.67819760291443
 30
0.0
 10
-85.7715165600187
 20
20.15873979658263
 30
0.0
 10
-85.47423504867378
 20
21.59095364945382
 30
0.0
 10
-85.18687868347601
 20
22.53321073385222
 30
0.0
 10
-84.38840274537161
 20
24.50846804675549
 30
0.0
 10
-83.84789200414603
 20
25.80850585831761
 30
0.0
 10
-81.92322559251271
 20
28.67658572016127
 30
0.0
 10
-80.23588809904522
 20
30.31611303895765
 30
0.0
 10
-77.30292155166576
 20
32.35219948792919
 30
0.0
 10
-76.21776726167327
 20
32.97191494312154
 30
0.0
 10
-72.85501311460244
 20
34.54773822106012
 30
0.0
 10
-70.46563976714363
 20
35.219890510988
 30
0.0
 10
-66.46105233420087
 20
35.97943557240931
 30
0.0
 10
-64.88355337593302
 20
36.17002299060363
 30
0.0
 10
-59.42696469981259
 20
36.64820375899878
 30
0.0
 10
-55.672144378475
 20
36.66703289681727
 30
0.0
 10
-51.42777460813017
 20
36.66812776704712
 30
0.0
 10
-51.08413872647825
 20
36.66808024321816
 30
0.0
 10
-50.7404368184379
 20
36.66803269715915
 30
0.0
  0
SPLINE
  5
33
330
2
100
AcDbEntity
  8
0
100
AcDbSpline
210
0.0
220
0.0
230
1.0
 70
     8
 71
     3
 72
    13
 73
     9
 74
     7
 42
0.0000000001
 43
0.0000000001
 44
0.0000000001
 40
0.0
 40
0.0
 40
0.0
 40
0.0
 40
0.8372418225556401
 40
10.29332952469223
 40
21.43322495854214
 40
33.35965151364606
 40
45.12965383912493
 40
46.18481776669773
 40
46.18481776669773
 40
46.18481776669773
 40
46.18481776669773
 10
-86.49029330307229
 20
17.01317845217751
 30
0.0
 10
-86.49269915170792
 20
17.29211222590434
 30
0.0
 10
-86.52227745528279
 20
20.72141684398006
 30
0.0
 10
-84.31227055122567
 20
28.00070633957368
 30
0.0
 10
-75.23481612687453
 20
35.02581021424412
 30
0.0
 10
-63.60573846074533
 20
37.13241412394218
 30
0.0
 10
-55.36733616556398
 20
37.16860497118062
 30
0.0
 10
-51.09210353950023
 20
37.16807619623581
 30
0.0
 10
-50.74036765085773
 20
37.168032692375
 30
0.0
 11
-86.49029330307229
 21
17.01317845217751
 31
0.0
 11
-86.49029330307229
 21
17.85042027473315
 31
0.0
 11
-83.72177379441893
 21
26.89215099184172
 31
0.0
 11
-75.16002512470949
 21
34.01912299921195
 31
0.0
 11
-63.55938619468238
 21
36.78766535746243
 31
0.0
 11
-51.79553157843055
 21
37.168032692375
 31
0.0
 11
-50.74036765085773
 21
37.168032692375
 31
0.0
  0
SPLINE
  5
34
330
2
100
AcDbEntity
  8
0
100
AcDbSpline
210
0.0
220
0.0
230
1.0
 70
     8
 71
     3
 72
    30
 73
    26
 74
     0
 42
0.0000000001
 43
0.0000000001
 40
0.0
 40
0.0
 40
0.0
 40
0.0
 40
0.65850966288644
 40
0.65850966288644
 40
1.686762086003359
 40
1.686762086003359
 40
2.715014509120279
 40
2.715014509120279
 40
4.771519355354119
 40
4.771519355354119
 40
8.884529047821798
 40
8.884529047821798
 40
12.99753874028947
 40
12.99753874028947
 40
17.07270938001616
 40
17.07270938001616
 40
20.3084671468072
 40
20.3084671468072
 40
23.54422491359824
 40
23.54422491359824
 40
28.25098257418556
 40
28.25098257418556
 40
36.78596721404064
 40
36.78596721404064
 40
38.53625931349068
 40
38.53625931349068
 40
38.53625931349068
 40
38.53625931349068
 10
-82.24045461220773
 20
16.97348146931958
 30
0.0
 10
-82.24351637965545
 20
16.75403589688193
 30
0.0
 10
-82.24669411736313
 20
16.53027078361184
 30
0.0
 10
-82.23971831293679
 20
15.94580232085466
 30
0.0
 10
-82.21802868547255
 20
15.58294409247898
 30
0.0
 10
-82.13843609841321
 20
14.86558704350856
 30
0.0
 10
-82.08109782605603
 20
14.5083056866992
 30
0.0
 10
-81.85975311295228
 20
13.44475225348656
 30
0.0
 10
-81.64645486286701
 20
12.74677922030903
 30
0.0
 10
-80.83436855587446
 20
10.93504590855232
 30
0.0
 10
-80.0625948770738
 20
9.669596133791984
 30
0.0
 10
-78.18718926232363
 20
7.481186217051469
 30
0.0
 10
-77.08665457324155
 20
6.550833818740176
 30
0.0
 10
-74.69973774738789
 20
4.988433319828452
 30
0.0
 10
-73.41496110194611
 20
4.353368461445393
 30
0.0
 10
-71.04070419543602
 20
3.436266263344207
 30
0.0
 10
-69.96763291413678
 20
3.109481730464885
 30
0.0
 10
-67.8175693810351
 20
2.589463210541716
 30
0.0
 10
-66.73702138684494
 20
2.394688218895832
 30
0.0
 10
-64.07936526887358
 20
2.029079576701063
 30
0.0
 10
-62.49981875656563
 20
1.909297619978896
 30
0.0
 10
-58.06830138888525
 20
1.679042766820374
 30
0.0
 10
-55.3406043130053
 20
1.644197710442437
 30
0.0
 10
-51.90787690379166
 20
1.635312949459842
 30
0.0
 10
-51.32376133804287
 20
1.635056495459845
 30
0.0
 10
-50.74033368778454
 20
1.635096125451876
 30
0.0
  0
SPLINE
  5
35
330
2
100
AcDbEntity
  8
0
100
AcDbSpline
210
0.0
220
0.0
230
1.0
 70
     8
 71
     3
 72
    13
 73
     9
 74
     7
 42
0.0000000001
 43
0.0000000001
 44
0.0000000001
 40
0.0
 40
0.0
 40
0.0
 40
0.0
 40
0.8372418225556401
 40
8.07564558431525
 40
18.80052687316787
 40
28.43597455658119
 40
37.86279288209567
 40
38.2083705498191
 40
38.2083705498191
 40
38.2083705498191
 40
38.2083705498191
 10
-81.74050327167662
 20
16.96650600509451
 30
0.0
 10
-81.74470316834854
 20
16.68741061894221
 30
0.0
 10
-81.78521342010531
 20
13.99538620966967
 30
0.0
 10
-79.15051230902313
 20
7.737814928312646
 30
0.0
 10
-70.50080993291398
 20
3.077522125468008
 30
0.0
 10
-60.58243540478852
 20
2.17704447057725
 30
0.0
 10
-54.11302473287583
 20
2.134833634002241
 30
0.0
 10
-50.85556017927194
 20
2.135087158987011
 30
0.0
 10
-50.74036765085771
 20
2.135096124298386
 30
0.0
 11
-81.74050327167662
 21
16.96650600509451
 31
0.0
 11
-81.74050327167662
 21
16.12926418253887
 31
0.0
 11
-79.13372138036091
 21
9.376547900229649
 31
0.0
 11
-70.04883801946836
 21
3.676725711866329
 31
0.0
 11
-60.51118918212265
 21
2.307380351749614
 31
0.0
 11
-51.08594531858113
 21
2.135096124298386
 31
0.0
 11
-50.74036765085771
 21
2.135096124298386
 31
0.0
  0
SPLINE
  5
36
330
2
100
AcDbEntity
  8
0
100
AcDbSpline
210
0.0
220
0.0
230
1.0
 70
     8
 71
     3
 72
    12
 73
     8
 74
     6
 42
0.0000000001
 43
0.0000000001
 44
0.0000000001
 40
0.0
 40
0.0
 40
0.0
 40
0.0
 40
0.0839939960667664
 40
5.278504058536936
 40
18.01396168201166
 40
27.05385240511953
 40
28.22423947177402
 40
28.22423947177402
 40
28.22423947177402
 40
28.22423947177402
 10
-73.24036765085749
 20
17.01217302382011
 30
0.0
 10
-73.240400063406
 20
16.98418237446373
 30
0.0
 10
-73.24243699195834
 20
15.22514288179223
 30
0.0
 10
-71.93882500296971
 20
8.924903529215207
 30
0.0
 10
-61.95191376570951
 20
5.099689674796472
 30
0.0
 10
-54.53855743549354
 20
5.104327846584716
 30
0.0
 10
-51.13097331904328
 20
5.104245854373521
 30
0.0
 10
-50.74036765085769
 20
5.104236455743482
 30
0.0
 11
-73.24036765085749
 21
17.01217302382011
 31
0.0
 11
-73.24036765085749
 21
16.92817902775334
 31
0.0
 11
-72.03617861040824
 21
11.87517363056982
 31
0.0
 11
-60.93514017879876
 21
5.633473011407623
 31
0.0
 11
-51.91075471751219
 21
5.104236455743482
 31
0.0
 11
-50.74036765085769
 21
5.104236455743482
 31
0.0
  0
SPLINE
  5
37
330
2
100
AcDbEntity
  8
0
100
AcDbSpline
210
0.0
220
0.0
230
1.0
 70
     8
 71
     3
 72
    30
 73
    26
 74
     0
 42
0.0000000001
 43
0.0000000001
 40
0.0
 40
0.0
 40
0.0
 40
0.0
 40
0.65850966288644
 40
0.65850966288644
 40
1.686762086004357
 40
1.686762086004357
 40
2.715014509122275
 40
2.715014509122275
 40
4.77151935535811
 40
4.77151935535811
 40
8.884529047829779
 40
8.884529047829779
 40
12.99753874030145
 40
12.99753874030145
 40
17.0727093799465
 40
17.0727093799465
 40
20.3084671467517
 40
20.3084671467517
 40
23.5442249135569
 40
23.5442249135569
 40
28.25098257416274
 40
28.25098257416274
 40
36.78596721397433
 40
36.78596721397433
 40
38.53625931349068
 40
38.53625931349068
 40
38.53625931349068
 40
38.53625931349068
 10
-82.24045461220773
 20
17.05086457832064
 30
0.0
 10
-82.24351637965545
 20
17.27031015075829
 30
0.0
 10
-82.24669411736313
 20
17.49407526402837
 30
0.0
 10
-82.23971831293679
 20
18.0785437267859
 30
0.0
 10
-82.2180286854725
 20
18.44140195516193
 30
0.0
 10
-82.13843609841301
 20
19.15875900413304
 30
0.0
 10
-82.08109782605573
 20
19.51604036094273
 30
0.0
 10
-81.85975311295157
 20
20.57959379415638
 30
0.0
 10
-81.64645486286593
 20
21.27756682733454
 30
0.0
 10
-80.83436855587192
 20
23.30636357101634
 30
0.0
 10
-80.06259487706989
 20
24.57181334577755
 30
0.0
 10
-78.18718926231662
 20
27.03900603155214
 30
0.0
 10
-77.08665457323282
 20
27.96935842986357
 30
0.0
 10
-74.69973774740066
 20
29.5317589287588
 30
0.0
 10
-73.41496110198614
 20
30.1668237871312
 30
0.0
 10
-71.04070419550033
 20
31.08392598523153
 30
0.0
 10
-69.9676329141966
 20
31.41071051811517
 30
0.0
 10
-67.81756938108589
 20
31.93072903804509
 30
0.0
 10
-66.73702138689114
 20
32.12550402969345
 30
0.0
 10
-64.07936526890899
 20
32.4911126718926
 30
0.0
 10
-62.49981875659478
 20
32.61089462861603
 30
0.0
 10
-58.06830138892263
 20
32.84114948177516
 30
0.0
 10
-55.34060431305725
 20
32.8759945381538
 30
0.0
 10
-51.9078769038359
 20
32.88487929913694
 30
0.0
 10
-51.32376133806498
 20
32.88513575313697
 30
0.0
 10
-50.74033368778454
 20
32.88509612314494
 30
0.0
  0
SPLINE
  5
38
330
2
100
AcDbEntity
  8
0
100
AcDbSpline
210
0.0
220
0.0
230
1.0
 70
     8
 71
     3
 72
    13
 73
     9
 74
     7
 42
0.0000000001
 43
0.0000000001
 44
0.0000000001
 40
0.0
 40
0.0
 40
0.0
 40
0.0
 40
0.8372418225556401
 40
8.278554952227025
 40
19.15416173610942
 40
28.78960941952274
 40
38.21642774503722
 40
38.56200541276065
 40
38.56200541276065
 40
38.56200541276065
 40
38.56200541276065
 10
-81.74050327167662
 20
17.05784004254571
 30
0.0
 10
-81.74445768568478
 20
17.33693878321519
 30
0.0
 10
-81.78355849597435
 20
20.09663639922395
 30
0.0
 10
-79.19041731630051
 20
26.46946600740655
 30
0.0
 10
-70.58287106081602
 20
31.49799977149357
 30
0.0
 10
-60.57404822166944
 20
32.32738926313485
 30
0.0
 10
-54.11307721537821
 20
32.38545722294515
 30
0.0
 10
-50.85556197180286
 20
32.38510845756123
 30
0.0
 10
-50.74036765085771
 20
32.38509612429842
 30
0.0
 11
-81.74050327167662
 21
17.05784004254571
 31
0.0
 11
-81.74050327167662
 21
17.89508186510134
 31
0.0
 11
-79.13372138036091
 21
24.86486157933394
 31
0.0
 11
-70.04883801946836
 21
30.84346653673048
 31
0.0
 11
-60.51118918212265
 21
32.2128118968472
 31
0.0
 11
-51.08594531858113
 21
32.38509612429842
 31
0.0
 11
-50.74036765085771
 21
32.38509612429842
 31
0.0
  0
SPLINE
  5
39
330
2
100
AcDbEntity
  8
0
100
AcDbSpline
210
0.0
220
0.0
230
1.0
 70
     8
 71
     3
 72
    12
 73
     8
 74
     6
 42
0.0000000001
 43
0.0000000001
 44
0.0000000001
 40
0.0
 40
0.0
 40
0.0
 40
0.0
 40
0.0839939960667664
 40
5.489888622182054
 40
18.36427240843773
 40
27.4041631315456
 40
28.5745501982001
 40
28.5745501982001
 40
28.5745501982001
 40
28.5745501982001
 10
-73.24036765085749
 20
17.01217302382011
 30
0.0
 10
-73.24039643396779
 20
17.04016395940869
 30
0.0
 10
-73.24227771212052
 20
18.86966518578041
 30
0.0
 10
-72.01461457702904
 20
25.29234612877935
 30
0.0
 10
-62.02440193970906
 20
29.47946120359123
 30
0.0
 10
-54.53800600524082
 20
29.41468716187852
 30
0.0
 10
-51.13091660998067
 20
29.41582532690041
 30
0.0
 10
-50.74036765085769
 20
29.41595579285333
 30
0.0
 11
-73.24036765085749
 21
17.01217302382011
 31
0.0
 11
-73.24036765085749
 21
17.09616701988687
 31
0.0
 11
-72.03617861040824
 21
22.36623584899376
 31
0.0
 11
-60.93514017879876
 21
28.88671923718919
 31
0.0
 11
-51.91075471751219
 21
29.41595579285333
 31
0.0
 11
-50.74036765085769
 21
29.41595579285333
 31
0.0
  0
SPLINE
  5
3A
330
2
100
AcDbEntity
  8
0
  6
HIDDEN
 62
     9
 48
0.1
100
AcDbSpline
210
0.0
220
0.0
230
1.0
 70
     8
 71
     3
 72
    34
 73
    30
 74
     0
 42
0.0000000001
 43
0.0000000001
 40
0.0
 40
0.0
 40
0.0
 40
0.0
 40
0.7202671860568805
 40
0.7202671860568805
 40
1.407304589324429
 40
1.407304589324429
 40
2.094341992591977
 40
2.094341992591977
 40
3.468416799127075
 40
3.468416799127075
 40
6.21656641219727
 40
6.21656641219727
 40
10.25029881379412
 40
10.25029881379412
 40
14.28403121539098
 40
14.28403121539098
 40
18.79136158017507
 40
18.79136158017507
 40
21.77264554717882
 40
21.77264554717882
 40
24.75392951418257
 40
24.75392951418257
 40
31.63684495707669
 40
31.63684495707669
 40
35.36782643122476
 40
35.36782643122476
 40
39.09880790537283
 40
39.09880790537283
 40
46.03594618862999
 40
46.03594618862999
 40
46.03594618862999
 40
46.03594618862999
 10
-16.74084881485015
 20
17.02963272231316
 30
0.0
 10
-16.73859205283595
 20
17.26964087316223
 30
0.0
 10
-16.73657651329892
 20
17.49745486605049
 30
0.0
 10
-16.74141230848531
 20
17.91922469611022
 30
0.0
 10
-16.74818328013934
 20
18.11893961800816
 30
0.0
 10
-16.77124054969945
 20
18.52481260989625
 30
0.0
 10
-16.78740179746543
 20
18.72808793756802
 30
0.0
 10
-16.84958617153205
 20
19.33824367096787
 30
0.0
 10
-16.90931566436393
 20
19.74545721076236
 30
0.0
 10
-17.14154817802602
 20
20.96276851399849
 30
0.0
 10
-17.36718373878625
 20
21.76853968837508
 30
0.0
 10
-18.08440221065841
 20
23.70461529663085
 30
0.0
 10
-18.65042523205858
 20
24.8088389732762
 30
0.0
 10
-20.01954419365985
 20
27.11412825135687
 30
0.0
 10
-20.82873877305931
 20
28.04844107871618
 30
0.0
 10
-22.74689556984532
 20
29.84326196062808
 30
0.0
 10
-23.87990678639279
 20
30.68182958855617
 30
0.0
 10
-25.88677456857368
 20
31.87294744654112
 30
0.0
 10
-26.71684890167515
 20
32.2930219515834
 30
0.0
 10
-28.42054343985147
 20
33.02437967414256
 30
0.0
 10
-29.29693384363995
 20
33.33780435251487
 30
0.0
 10
-32.26460909060087
 20
34.22896736440915
 30
0.0
 10
-34.44570736609909
 20
34.64780900146058
 30
0.0
 10
-37.87575964796494
 20
35.03858710352346
 30
0.0
 10
-39.09262860098729
 20
35.13855339711345
 30
0.0
 10
-41.52844484864264
 20
35.28664142095855
 30
0.0
 10
-42.75009796934481
 20
35.33412152727152
 30
0.0
 10
-46.13103332329441
 20
35.42089043298242
 30
0.0
 10
-48.42809268219877
 20
35.41835261154021
 30
0.0
 10
-50.74060973738833
 20
35.41803270911953
 30
0.0
  0
SPLINE
  5
3B
330
2
100
AcDbEntity
  8
0
100
AcDbSpline
210
0.0
220
0.0
230
1.0
 70
     8
 71
     3
 72
    28
 73
    24
 74
     0
 42
0.0000000001
 43
0.0000000001
 40
0.0
 40
0.0
 40
0.0
 40
0.0
 40
0.7458422934298273
 40
0.7458422934298273
 40
2.237526880289482
 40
2.237526880289482
 40
3.729211467149136
 40
3.729211467149136
 40
6.712580640868445
 40
6.712580640868445
 40
10.19805190813185
 40
10.19805190813185
 40
17.2409917824957
 40
17.2409917824957
 40
21.00408532965903
 40
21.00408532965903
 40
28.53027242398571
 40
28.53027242398571
 40
33.29652586606716
 40
33.29652586606716
 40
45.00490183092826
 40
45.00490183092826
 40
46.03594618862999
 40
46.03594618862999
 40
46.03594618862999
 40
46.03594618862999
 10
-15.49058115155223
 20
17.01787967221627
 30
0.0
 10
-15.48824425687068
 20
17.26640998587824
 30
0.0
 10
-15.48598405112684
 20
17.5112039544329
 30
0.0
 10
-15.49537407896819
 20
18.23504146995635
 30
0.0
 10
-15.52547846339384
 20
18.71549211660218
 30
0.0
 10
-15.63256973785907
 20
19.67819760291443
 30
0.0
 10
-15.70937999656419
 20
20.15873979658263
 30
0.0
 10
-16.00666150790911
 20
21.59095364945382
 30
0.0
 10
-16.29401787310687
 20
22.53321073385222
 30
0.0
 10
-17.09249381121122
 20
24.5084680467554
 30
0.0
 10
-17.63300455243675
 20
25.80850585831745
 30
0.0
 10
-19.55767096407558
 20
28.67658572016942
 30
0.0
 10
-21.24500845755215
 20
30.31611303897177
 30
0.0
 10
-24.17797500494327
 20
32.3521994879452
 30
0.0
 10
-25.26312929493697
 20
32.97191494313622
 30
0.0
 10
-28.62588344201076
 20
34.54773822107057
 30
0.0
 10
-31.01525678947135
 20
35.21989051099598
 30
0.0
 10
-35.01984422241057
 20
35.97943557241311
 30
0.0
 10
-36.59734318067313
 20
36.17002299060608
 30
0.0
 10
-42.05393185713353
 20
36.64820375902963
 30
0.0
 10
-45.93375217881779
 20
36.66703289682063
 30
0.0
 10
-50.0531219491598
 20
36.66812776704702
 30
0.0
 10
-50.39675783045822
 20
36.66808024321811
 30
0.0
 10
-50.74045973814497
 20
36.66803269715915
 30
0.0
  0
SPLINE
  5
3C
330
2
100
AcDbEntity
  8
0
100
AcDbSpline
210
0.0
220
0.0
230
1.0
 70
     8
 71
     3
 72
    13
 73
     9
 74
     7
 42
0.0000000001
 43
0.0000000001
 44
0.0000000001
 40
0.0
 40
0.0
 40
0.0
 40
0.0
 40
0.8372418225556401
 40
10.29332952469223
 40
21.43322495854214
 40
33.35965151364607
 40
45.12965383912493
 40
46.18481776669773
 40
46.18481776669773
 40
46.18481776669773
 40
46.18481776669773
 10
-14.99060325351058
 20
17.01317845217751
 30
0.0
 10
-14.98819740487495
 20
17.29211222590434
 30
0.0
 10
-14.95861910130006
 20
20.72141684398006
 30
0.0
 10
-17.1686260053572
 20
28.00070633957368
 30
0.0
 10
-26.24608042970833
 20
35.02581021424412
 30
0.0
 10
-37.87515809583759
 20
37.13241412394217
 30
0.0
 10
-46.11356039101884
 20
37.16860497118062
 30
0.0
 10
-50.38879301708264
 20
37.16807619623581
 30
0.0
 10
-50.74052890572514
 20
37.168032692375
 30
0.0
 11
-14.99060325351058
 21
17.01317845217751
 31
0.0
 11
-14.99060325351058
 21
17.85042027473315
 31
0.0
 11
-17.75912276216394
 21
26.89215099184172
 31
0.0
 11
-26.32087143187338
 21
34.01912299921195
 31
0.0
 11
-37.92151036190051
 21
36.78766535746243
 31
0.0
 11
-49.68536497815232
 21
37.168032692375
 31
0.0
 11
-50.74052890572514
 21
37.168032692375
 31
0.0
  0
SPLINE
  5
3D
330
2
100
AcDbEntity
  8
0
100
AcDbSpline
210
0.0
220
0.0
230
1.0
 70
     8
 71
     3
 72
    30
 73
    26
 74
     0
 42
0.0000000001
 43
0.0000000001
 40
0.0
 40
0.0
 40
0.0
 40
0.0
 40
0.65850966288644
 40
0.65850966288644
 40
1.686762086004492
 40
1.686762086004492
 40
2.715014509122544
 40
2.715014509122544
 40
4.771519355358648
 40
4.771519355358648
 40
8.884529047830858
 40
8.884529047830858
 40
12.99753874030306
 40
12.99753874030306
 40
17.07270937996305
 40
17.07270937996305
 40
20.30846714683578
 40
20.30846714683578
 40
23.54422491370852
 40
23.54422491370852
 40
28.25098257408893
 40
28.25098257408893
 40
36.78596721372972
 40
36.78596721372972
 40
38.53625931349068
 40
38.53625931349068
 40
38.53625931349068
 40
38.53625931349068
 10
-19.24044194437514
 20
17.05086457832064
 30
0.0
 10
-19.23738017692741
 20
17.27031015075829
 30
0.0
 10
-19.23420243921973
 20
17.49407526402837
 30
0.0
 10
-19.24117824364608
 20
18.07854372678594
 30
0.0
 10
-19.26286787111038
 20
18.44140195516202
 30
0.0
 10
-19.34246045816989
 20
19.15875900413323
 30
0.0
 10
-19.39979873052718
 20
19.51604036094297
 30
0.0
 10
-19.62114344363139
 20
20.57959379415675
 30
0.0
 10
-19.83444169371709
 20
21.27756682733499
 30
0.0
 10
-20.6465280007113
 20
23.30636357101702
 30
0.0
 10
-21.41830167951352
 20
24.57181334577835
 30
0.0
 10
-23.2937072942672
 20
27.03900603155306
 30
0.0
 10
-24.39424198335124
 20
27.9693584298645
 30
0.0
 10
-26.78115880918806
 20
29.53175892876245
 30
0.0
 10
-28.06593545460771
 20
30.16682378713657
 30
0.0
 10
-30.44019236112085
 20
31.08392598524543
 30
0.0
 10
-31.51326364244736
 20
31.4107105181334
 30
0.0
 10
-33.66332717560352
 20
31.9307290380674
 30
0.0
 10
-34.74387516982114
 20
32.12550402971557
 30
0.0
 10
-37.40153128775097
 20
32.49111267189691
 30
0.0
 10
-38.9810777999893
 20
32.61089462861491
 30
0.0
 10
-43.41259516752923
 20
32.8411494817705
 30
0.0
 10
-46.14029224333738
 20
32.8759945381517
 30
0.0
 10
-49.57301965258374
 20
32.88487929913685
 30
0.0
 10
-50.15713521843635
 20
32.88513575313698
 30
0.0
 10
-50.74056286879831
 20
32.88509612314494
 30
0.0
  0
SPLINE
  5
3E
330
2
100
AcDbEntity
  8
0
100
AcDbSpline
210
0.0
220
0.0
230
1.0
 70
     8
 71
     3
 72
    13
 73
     9
 74
     7
 42
0.0000000001
 43
0.0000000001
 44
0.0000000001
 40
0.0
 40
0.0
 40
0.0
 40
0.0
 40
0.8372418225556401
 40
8.278554952227025
 40
19.15416173610942
 40
28.78960941952274
 40
38.2164277450372
 40
38.56200541276063
 40
38.56200541276063
 40
38.56200541276063
 40
38.56200541276063
 10
-19.74039328490624
 20
17.05784004254571
 30
0.0
 10
-19.7364388708981
 20
17.33693878321519
 30
0.0
 10
-19.69733806060855
 20
20.09663639922395
 30
0.0
 10
-22.29047924028233
 20
26.46946600740655
 30
0.0
 10
-30.89802549576683
 20
31.49799977149357
 30
0.0
 10
-40.90684833491346
 20
32.32738926313484
 30
0.0
 10
-47.3678193412046
 20
32.38545722294515
 30
0.0
 10
-50.62533458478
 20
32.38510845756123
 30
0.0
 10
-50.74052890572516
 20
32.38509612429842
 30
0.0
 11
-19.74039328490624
 21
17.05784004254571
 31
0.0
 11
-19.74039328490624
 21
17.89508186510134
 31
0.0
 11
-22.34717517622196
 21
24.86486157933394
 31
0.0
 11
-31.43205853711451
 21
30.84346653673048
 31
0.0
 11
-40.96970737446022
 21
32.2128118968472
 31
0.0
 11
-50.39495123800173
 21
32.38509612429842
 31
0.0
 11
-50.74052890572516
 21
32.38509612429842
 31
0.0
  0
SPLINE
  5
3F
330
2
100
AcDbEntity
  8
0
100
AcDbSpline
210
0.0
220
0.0
230
1.0
 70
     8
 71
     3
 72
    12
 73
     8
 74
     6
 42
0.0000000001
 43
0.0000000001
 44
0.0000000001
 40
0.0
 40
0.0
 40
0.0
 40
0.0
 40
0.0839939960667664
 40
5.489888622182054
 40
18.36427240843773
 40
27.40416313154558
 40
28.57455019820008
 40
28.57455019820008
 40
28.57455019820008
 40
28.57455019820008
 10
-28.24052890572538
 20
17.01217302382011
 30
0.0
 10
-28.24050012261508
 20
17.04016395940869
 30
0.0
 10
-28.23861884446232
 20
18.86966518578041
 30
0.0
 10
-29.46628197955391
 20
25.29234612877935
 30
0.0
 10
-39.45649461687382
 20
29.47946120359125
 30
0.0
 10
-46.942890551342
 20
29.41468716187848
 30
0.0
 10
-50.3499799466022
 20
29.41582532690042
 30
0.0
 10
-50.74052890572517
 20
29.41595579285333
 30
0.0
 11
-28.24052890572538
 21
17.01217302382011
 31
0.0
 11
-28.24052890572538
 21
17.09616701988687
 31
0.0
 11
-29.44471794617463
 21
22.36623584899376
 31
0.0
 11
-40.54575637778412
 21
28.88671923718919
 31
0.0
 11
-49.57014183907067
 21
29.41595579285333
 31
0.0
 11
-50.74052890572517
 21
29.41595579285333
 31
0.0
  0
SPLINE
  5
40
330
2
100
AcDbEntity
  8
0
100
AcDbSpline
210
0.0
220
0.0
230
1.0
 70
     8
 71
     3
 72
    28
 73
    24
 74
     0
 42
0.0000000001
 43
0.0000000001
 40
0.0
 40
0.0
 40
0.0
 40
0.0
 40
0.7458422934295662
 40
0.7458422934295662
 40
2.237526880288698
 40
2.237526880288698
 40
3.72921146714783
 40
3.72921146714783
 40
6.712580640866095
 40
6.712580640866095
 40
10.19805190812983
 40
10.19805190812983
 40
17.24099178251915
 40
17.24099178251915
 40
21.00408532968252
 40
21.00408532968252
 40
28.53027242400924
 40
28.53027242400924
 40
33.29652586607721
 40
33.29652586607721
 40
45.00490183091929
 40
45.00490183091929
 40
46.03594618862999
 40
46.03594618862999
 40
46.03594618862999
 40
46.03594618862999
 10
-15.49058115155223
 20
17.00646637542396
 30
0.0
 10
-15.48824425687069
 20
16.75793606176207
 30
0.0
 10
-15.48598405112685
 20
16.51314209320749
 30
0.0
 10
-15.49537407896818
 20
15.78930457768428
 30
0.0
 10
-15.52547846339381
 20
15.30885393103863
 30
0.0
 10
-15.63256973785893
 20
14.34614844472671
 30
0.0
 10
-15.70937999656399
 20
13.86560625105867
 30
0.0
 10
-16.00666150790869
 20
12.43339239818798
 30
0.0
 10
-16.29401787310625
 20
11.70819874571325
 30
0.0
 10
-17.09249381121023
 20
9.732941432810184
 30
0.0
 10
-17.63300455243569
 20
8.711686390281183
 30
0.0
 10
-19.5576709640789
 20
5.843606528421938
 30
0.0
 10
-21.24500845756284
 20
4.204079209614499
 30
0.0
 10
-24.17797500496315
 20
2.167992760639468
 30
0.0
 10
-25.26312929495749
 20
1.54827730544957
 30
0.0
 10
-28.62588344203263
 20
-0.1196094044046434
 30
0.0
 10
-31.01525678949395
 20
-0.7917616943281547
 30
0.0
 10
-35.01984422242941
 20
-1.518370187665588
 30
0.0
 10
-36.59734318068758
 20
-1.708957605857563
 30
0.0
 10
-42.05393185713721
 20
-2.187138374279405
 30
0.0
 10
-45.93375217881513
 20
-2.205967512070605
 30
0.0
 10
-50.05312194915379
 20
-2.207062382297017
 30
0.0
 10
-50.39675783045523
 20
-2.207014858468118
 30
0.0
 10
-50.74045973814496
 20
-2.206967312409153
 30
0.0
  0
SPLINE
  5
41
330
2
100
AcDbEntity
  8
0
100
AcDbSpline
210
0.0
220
0.0
230
1.0
 70
     8
 71
     3
 72
    13
 73
     9
 74
     7
 42
0.0000000001
 43
0.0000000001
 44
0.0000000001
 40
0.0
 40
0.0
 40
0.0
 40
0.0
 40
0.8372418225556401
 40
9.820383947291302
 40
21.01940233985806
 40
32.93822621740964
 40
44.7082285428885
 40
45.76339247046131
 40
45.76339247046131
 40
45.76339247046131
 40
45.76339247046131
 10
-14.99060325351058
 20
17.01116759546271
 30
0.0
 10
-14.98777924052134
 20
16.73211554511668
 30
0.0
 10
-14.9546551286109
 20
13.45898918920688
 30
0.0
 10
-17.37855224684201
 20
6.428010648465503
 30
0.0
 10
-26.18720826364372
 20
-0.6261468512256706
 30
0.0
 10
-37.89033349472492
 20
-2.653100814165441
 30
0.0
 10
-46.11335716368961
 20
-2.707833043608216
 30
0.0
 10
-50.38877756801593
 20
-2.707033119703559
 30
0.0
 10
-50.74052890572513
 20
-2.706967307624999
 30
0.0
 11
-14.99060325351058
 21
17.01116759546271
 31
0.0
 11
-14.99060325351058
 21
16.17392577290706
 31
0.0
 11
-17.75912276216394
 21
7.628041256755089
 31
0.0
 11
-26.32087143187338
 21
0.4090058174614773
 31
0.0
 11
-37.9215103619005
 21
-2.326599972712429
 31
0.0
 11
-49.68536497815232
 21
-2.706967307624999
 31
0.0
 11
-50.74052890572513
 21
-2.706967307624999
 31
0.0
  0
SPLINE
  5
42
330
2
100
AcDbEntity
  8
0
  6
HIDDEN
 62
     9
 48
0.1
100
AcDbSpline
210
0.0
220
0.0
230
1.0
 70
     8
 71
     3
 72
    11
 73
     7
 74
     5
 42
0.0000000001
 43
0.0000000001
 44
0.0000000001
 40
0.0
 40
0.0
 40
0.0
 40
0.0
 40
1.734707604954246
 40
6.130724386788491
 40
9.005601208303501
 40
16.40482237273195
 40
16.40482237273195
 40
16.40482237273195
 40
16.40482237273195
 10
-50.74036765085761
 20
1.741544427346263
 30
0.0
 10
-50.16072290854149
 20
1.746927242556704
 30
0.0
 10
-48.11216893481008
 20
1.765950942219967
 30
0.0
 10
-45.1854362650022
 20
0.9390711636104303
 30
0.0
 10
-40.59798682271909
 20
-0.8613233492687514
 30
0.0
 10
-37.10635493513279
 20
-0.4533114645166397
 30
0.0
 10
-34.59174425141451
 20
-0.1594686203928457
 30
0.0
 11
-50.74036765085761
 21
1.741544427346263
 31
0.0
 11
-49.00592719155425
 21
1.711101565824116
 31
0.0
 11
-44.72372734977291
 21
0.7172564766798222
 31
0.0
 11
-41.9909482652189
 21
-0.1753997919411883
 31
0.0
 11
-34.59174425141451
 21
-0.1594686203928457
 31
0.0
  0
SPLINE
  5
43
330
2
100
AcDbEntity
  8
0
100
AcDbSpline
210
0.0
220
0.0
230
1.0
 70
     8
 71
     3
 72
    30
 73
    26
 74
     0
 42
0.0000000001
 43
0.0000000001
 40
0.0
 40
0.0
 40
0.0
 40
0.0
 40
0.658509662886427
 40
0.658509662886427
 40
1.686762086004126
 40
1.686762086004126
 40
2.715014509121825
 40
2.715014509121825
 40
4.771519355357224
 40
4.771519355357224
 40
8.884529047828021
 40
8.884529047828021
 40
12.99753874029881
 40
12.99753874029881
 40
17.07270937995253
 40
17.07270937995253
 40
20.30846714683451
 40
20.30846714683451
 40
23.5442249137165
 40
23.5442249137165
 40
28.250982574081
 40
28.250982574081
 40
36.78596721345423
 40
36.78596721345423
 40
38.53625931349068
 40
38.53625931349068
 40
38.53625931349068
 40
38.53625931349068
 10
-19.24044194437514
 20
16.97348146931957
 30
0.0
 10
-19.23738017692741
 20
16.75403589688193
 30
0.0
 10
-19.23420243921974
 20
16.53027078361185
 30
0.0
 10
-19.24117824364609
 20
15.9458023208544
 30
0.0
 10
-19.26286787111038
 20
15.58294409247845
 30
0.0
 10
-19.34246045816983
 20
14.86558704350749
 30
0.0
 10
-19.39979873052708
 20
14.50830568669787
 30
0.0
 10
-19.62114344363115
 20
13.44475225348444
 30
0.0
 10
-19.83444169371671
 20
12.74677922030642
 30
0.0
 10
-20.6465280007104
 20
10.93504590854837
 30
0.0
 10
-21.41830167951213
 20
9.669596133787354
 30
0.0
 10
-23.29370729426472
 20
7.48118621704617
 30
0.0
 10
-24.39424198334813
 20
6.550833818734767
 30
0.0
 10
-26.7811588091823
 20
4.988433319837685
 30
0.0
 10
-28.06593545459968
 20
4.353368461464057
 30
0.0
 10
-30.44019236111343
 20
3.436266263353671
 30
0.0
 10
-31.51326364244302
 20
3.109481730464507
 30
0.0
 10
-33.66332717560534
 20
2.589463210528926
 30
0.0
 10
-34.74387516982607
 20
2.394688218880336
 30
0.0
 10
-37.40153128775371
 20
2.029079576699862
 30
0.0
 10
-38.98107779998666
 20
1.909297619982167
 30
0.0
 10
-43.4125951674317
 20
1.679042766831142
 30
0.0
 10
-46.14029224315038
 20
1.644197710447405
 30
0.0
 10
-49.57301965239989
 20
1.635312949460063
 30
0.0
 10
-50.15713521834456
 20
1.635056495459832
 30
0.0
 10
-50.74056286879831
 20
1.635096125451876
 30
0.0
  0
SPLINE
  5
44
330
2
100
AcDbEntity
  8
0
100
AcDbSpline
210
0.0
220
0.0
230
1.0
 70
     8
 71
     3
 72
    13
 73
     9
 74
     7
 42
0.0000000001
 43
0.0000000001
 44
0.0000000001
 40
0.0
 40
0.0
 40
0.0
 40
0.0
 40
0.8372418225556401
 40
8.07564558431525
 40
18.80052687316787
 40
28.43597455658119
 40
37.86279288209566
 40
38.20837054981908
 40
38.20837054981908
 40
38.20837054981908
 40
38.20837054981908
 10
-19.74039328490624
 20
16.96650600509451
 30
0.0
 10
-19.73619338823434
 20
16.68741061894221
 30
0.0
 10
-19.69568313647756
 20
13.99538620966967
 30
0.0
 10
-22.33038424755976
 20
7.737814928312647
 30
0.0
 10
-30.9800866236689
 20
3.077522125468006
 30
0.0
 10
-40.89846115179435
 20
2.177044470577254
 30
0.0
 10
-47.36787182370699
 20
2.134833634002234
 30
0.0
 10
-50.62533637731092
 20
2.135087158987012
 30
0.0
 10
-50.74052890572516
 20
2.135096124298386
 30
0.0
 11
-19.74039328490624
 21
16.96650600509451
 31
0.0
 11
-19.74039328490624
 21
16.12926418253887
 31
0.0
 11
-22.34717517622196
 21
9.376547900229649
 31
0.0
 11
-31.43205853711451
 21
3.676725711866329
 31
0.0
 11
-40.96970737446022
 21
2.307380351749614
 31
0.0
 11
-50.39495123800173
 21
2.135096124298386
 31
0.0
 11
-50.74052890572516
 21
2.135096124298386
 31
0.0
  0
SPLINE
  5
45
330
2
100
AcDbEntity
  8
0
100
AcDbSpline
210
0.0
220
0.0
230
1.0
 70
     8
 71
     3
 72
    12
 73
     8
 74
     6
 42
0.0000000001
 43
0.0000000001
 44
0.0000000001
 40
0.0
 40
0.0
 40
0.0
 40
0.0
 40
0.0839939960667664
 40
5.278504058536936
 40
18.01396168201166
 40
27.05385240511951
 40
28.22423947177401
 40
28.22423947177401
 40
28.22423947177401
 40
28.22423947177401
 10
-28.24052890572538
 20
17.01217302382011
 30
0.0
 10
-28.24049649317688
 20
16.98418237446373
 30
0.0
 10
-28.23845956462431
 20
15.22514288179223
 30
0.0
 10
-29.5420715536134
 20
8.924903529215207
 30
0.0
 10
-39.52898279087329
 20
5.099689674796472
 30
0.0
 10
-46.94233912108933
 20
5.10432784658472
 30
0.0
 10
-50.34992323753958
 20
5.104245854373521
 30
0.0
 10
-50.74052890572517
 20
5.104236455743482
 30
0.0
 11
-28.24052890572538
 21
17.01217302382011
 31
0.0
 11
-28.24052890572538
 21
16.92817902775334
 31
0.0
 11
-29.44471794617463
 21
11.87517363056982
 31
0.0
 11
-40.54575637778412
 21
5.633473011407623
 31
0.0
 11
-49.57014183907067
 21
5.104236455743482
 31
0.0
 11
-50.74052890572517
 21
5.104236455743482
 31
0.0
  0
SPLINE
  5
46
330
2
100
AcDbEntity
  8
0
  6
HIDDEN
 62
     9
 48
0.1
100
AcDbSpline
210
0.0
220
0.0
230
1.0
 70
     8
 71
     3
 72
    11
 73
     7
 74
     5
 42
0.0000000001
 43
0.0000000001
 44
0.0000000001
 40
0.0
 40
0.0
 40
0.0
 40
0.0
 40
1.734707604954246
 40
6.130724386788505
 40
9.005601208303515
 40
16.40482237273196
 40
16.40482237273196
 40
16.40482237273196
 40
16.40482237273196
 10
-50.74036765085754
 20
1.741544427346263
 30
0.0
 10
-51.32001239317364
 20
1.746927242556703
 30
0.0
 10
-53.36856636690509
 20
1.765950942219967
 30
0.0
 10
-56.29529903671293
 20
0.9390711636104327
 30
0.0
 10
-60.88274847899608
 20
-0.8613233492687522
 30
0.0
 10
-64.37438036658237
 20
-0.4533114645166398
 30
0.0
 10
-66.88899105030064
 20
-0.1594686203928457
 30
0.0
 11
-50.74036765085754
 21
1.741544427346263
 31
0.0
 11
-52.47480811016089
 21
1.711101565824116
 31
0.0
 11
-56.75700795194224
 21
0.7172564766798222
 31
0.0
 11
-59.48978703649625
 21
-0.1753997919411883
 31
0.0
 11
-66.88899105030064
 21
-0.1594686203928457
 31
0.0
  0
CIRCLE
  5
47
330
2
100
AcDbEntity
  8
0
100
AcDbCircle
 10
-50.74036765085761
 20
14.08226683986188
 30
0.0
 40
1.25
  0
CIRCLE
  5
4B
330
2
100
AcDbEntity
  8
0
100
AcDbCircle
 10
-50.74036765085748
 20
8.918032692375
 30
0.0
 40
1.25
  0
CIRCLE
  5
4C
330
2
100
AcDbEntity
  8
0
100
AcDbCircle
 10
-50.74036765085748
 20
8.918032692375
 30
0.0
 40
1.89014635623478
  0
LINE
  5
4D
330
2
100
AcDbEntity
  8
CENTER
 48
0.05
100
AcDbLine
 10
-46.54488735023187
 20
8.918032692375014
 30
0.0
 11
-54.93584795148308
 21
8.918032692375
 31
0.0
  0
LINE
  5
4F
330
2
100
AcDbEntity
  8
CENTER
 48
0.05
100
AcDbLine
 10
-50.74036765085748
 20
13.1135129930006
 30
0.0
 11
-50.74036765085747
 21
4.722552391749395
 31
0.0
  0
SPLINE
  5
50
330
2
100
AcDbEntity
  8
0
  6
HIDDEN
 62
     9
 48
0.1
100
AcDbSpline
210
0.0
220
0.0
230
1.0
 70
     8
 71
     3
 72
    28
 73
    24
 74
     0
 42
0.0000000001
 43
0.0000000001
 40
0.0
 40
0.0
 40
0.0
 40
0.0
 40
0.7202671860568805
 40
0.7202671860568805
 40
1.407304589324429
 40
1.407304589324429
 40
2.094341992591977
 40
2.094341992591977
 40
3.468416799127075
 40
3.468416799127075
 40
6.21656641219727
 40
6.21656641219727
 40
10.25029881379412
 40
10.25029881379412
 40
14.28403121539098
 40
14.28403121539098
 40
18.79136158017507
 40
18.79136158017507
 40
21.77264554717882
 40
21.77264554717882
 40
24.75392951418257
 40
24.75392951418257
 40
29.48041808508541
 40
29.48041808508541
 40
29.48041808508541
 40
29.48041808508541
 10
-16.74084881485015
 20
16.99471332532706
 30
0.0
 10
-16.73859205283595
 20
16.75470517447799
 30
0.0
 10
-16.73657651329892
 20
16.52689118158973
 30
0.0
 10
-16.74141230848531
 20
16.10512135152999
 30
0.0
 10
-16.74818328013934
 20
15.90540642963206
 30
0.0
 10
-16.77124054969945
 20
15.49953343774396
 30
0.0
 10
-16.78740179746543
 20
15.29625811007219
 30
0.0
 10
-16.84958617153205
 20
14.68610237667235
 30
0.0
 10
-16.90931566436393
 20
14.27888883687786
 30
0.0
 10
-17.14154817802602
 20
13.06157753364173
 30
0.0
 10
-17.36718373878625
 20
12.4728697911885
 30
0.0
 10
-18.08440221065841
 20
10.53679418293274
 30
0.0
 10
-18.65042523205858
 20
9.432570506287387
 30
0.0
 10
-20.01954419365985
 20
7.406063997239936
 30
0.0
 10
-20.82873877305931
 20
6.471751169880636
 30
0.0
 10
-22.74689556984532
 20
4.676930287968733
 30
0.0
 10
-23.87990678639279
 20
3.838362660040637
 30
0.0
 10
-25.88677456857368
 20
2.647244802055692
 30
0.0
 10
-26.71684890167515
 20
2.227170297013409
 30
0.0
 10
-28.42054343985147
 20
1.495812574454248
 30
0.0
 10
-29.29693384363995
 20
1.182387896081941
 30
0.0
 10
-31.61584132101701
 20
0.3939798846902506
 30
0.0
 10
-33.08985705722271
 20
0.0782228695806273
 30
0.0
 10
-34.59417363600949
 20
-0.1597764200875335
 30
0.0
  0
LINE
  5
5D
330
2
100
AcDbEntity
  8
CENTER
 48
0.05
100
AcDbLine
 10
-46.54488735023201
 20
14.08226683986189
 30
0.0
 11
-54.93584795148322
 21
14.08226683986188
 31
0.0
  0
LINE
  5
5E
330
2
100
AcDbEntity
  8
CENTER
 48
0.05
100
AcDbLine
 10
-50.74036765085762
 20
18.27774714048748
 30
0.0
 11
-50.74036765085761
 21
9.886786539236279
 31
0.0
  0
ENDSEC
  0
SECTION
  2
OBJECTS
  0
DICTIONARY
  5
7
330
0
100
AcDbDictionary
  3
ACAD_GROUP
350
28
  3
ACAD_LAYOUT
350
B
  3
ACAD_MLINESTYLE
350
29
  3
ACAD_PLOTSETTINGS
350
2A
  3
ACAD_PLOTSTYLENAME
350
6
  3
ACDBHEADERROUNDTRIPXREC
350
1E1
  3
ACDBVARIABLEDICTIONARY
350
51
  3
ASE_INDEX_DICTIONARY
350
60
  0
DICTIONARY
  5
11
330
10
100
AcDbDictionary
280
     1
  3
ACAD_LAYERFILTERS
360
12
  0
DICTIONARY
  5
69
330
2
100
AcDbDictionary
280
     1
  3
ACAD_LAYOUTSELFREF
360
202
  0
DICTIONARY
  5
6B
330
58
100
AcDbDictionary
280
     1
  3
ACAD_LAYOUTSELFREF
360
203
  0
DICTIONARY
  5
28
102
{ACAD_REACTORS
330
7
102
}
330
7
100
AcDbDictionary
  0
DICTIONARY
  5
B
102
{ACAD_REACTORS
330
7
102
}
330
7
100
AcDbDictionary
  0
DICTIONARY
  5
29
102
{ACAD_REACTORS
330
7
102
}
330
7
100
AcDbDictionary
  3
STANDARD
350
2C
  0
DICTIONARY
  5
2A
102
{ACAD_REACTORS
330
7
102
}
330
7
100
AcDbDictionary
  0
ACDBDICTIONARYWDFLT
  5
6
102
{ACAD_REACTORS
330
7
102
}
330
7
100
AcDbDictionary
281
     1
  3
Normal
350
5
100
AcDbDictionaryWithDefault
340
5
  0
DICTIONARY
  5
1E1
102
{ACAD_REACTORS
330
7
102
}
330
7
100
AcDbDictionary
  3
CEPSNTYPE
350
1EB
  3
DIMSTYLEDATA
350
1EF
  3
FINGERPRINTGUID
350
1EC
  3
HYPERLINKBASE
350
1E4
  3
INSUNITS
350
1EA
  3
LAYOUTDICT
350
1E6
  3
LWETCUNION
350
1E9
  3
PLOTSETDICT
350
1E7
  3
PLOTSTYLNAMDICT
350
1E8
  3
PSVPSCALE
350
1EE
  3
PUCSBASE
350
1F2
  3
PUCSORGBACK
350
1F8
  3
PUCSORGBOTTOM
350
1F4
  3
PUCSORGFRONT
350
1F7
  3
PUCSORGLEFT
350
1F5
  3
PUCSORGRIGHT
350
1F6
  3
PUCSORGTOP
350
1F3
  3
PUCSORTHOREF
350
1F0
  3
PUCSORTHOVIEW
350
1F1
  3
STYLESHEET
350
1E5
  3
TSTACKALIGN
350
1E2
  3
TSTACKSIZE
350
1E3
  3
UCSBASE
350
1FB
  3
UCSORGBACK
350
201
  3
UCSORGBOTTOM
350
1FD
  3
UCSORGFRONT
350
200
  3
UCSORGLEFT
350
1FE
  3
UCSORGRIGHT
350
1FF
  3
UCSORGTOP
350
1FC
  3
UCSORTHOREF
350
1F9
  3
UCSORTHOVIEW
350
1FA
  3
VERSIONGUID
350
1ED
  0
DICTIONARY
  5
51
102
{ACAD_REACTORS
330
7
102
}
330
7
100
AcDbDictionary
  3
DIMASSOC
350
53
  3
HIDETEXT
350
52
  0
DICTIONARY
  5
60
102
{ACAD_REACTORS
330
7
102
}
330
7
100
AcDbDictionary
  3
ASEBLOCKHIERARCHYINDEXRECORD
350
62
1001
DCO15
1040
1542966044.357
  0
DICTIONARY
  5
12
102
{ACAD_REACTORS
330
11
102
}
330
11
100
AcDbDictionary
280
     1
  3
DIM-1_12
360
13
  3
DIM-1_16
360
14
  0
XRECORD
  5
202
102
{ACAD_REACTORS
330
69
102
}
330
69
100
AcDbXrecord
340
2
  0
XRECORD
  5
203
102
{ACAD_REACTORS
330
6B
102
}
330
6B
100
AcDbXrecord
340
58
  0
MLINESTYLE
  5
2C
102
{ACAD_REACTORS
330
29
102
}
330
29
100
AcDbMlineStyle
  2
STANDARD
 70
     0
  3

 62
   256
 51
90.0
 52
90.0
 71
     2
 49
0.5
 62
   256
  6
BYLAYER
 49
-0.5
 62
   256
  6
BYLAYER
  0
ACDBPLACEHOLDER
  5
5
102
{ACAD_REACTORS
330
6
102
}
330
6
100
AcDbPlaceHolder
280
     0
  0
XRECORD
  5
1EB
102
{ACAD_REACTORS
330
1E1
102
}
330
1E1
100
AcDbXrecord
 90
        0
  0
XRECORD
  5
1EF
102
{ACAD_REACTORS
330
1E1
102
}
330
1E1
100
AcDbXrecord
1000
DSTYLE
1002
{
1070
    79
 70
     1
1070
   276
 70
     1
1070
   277
 70
     5
1002
}
  0
XRECORD
  5
1EC
102
{ACAD_REACTORS
330
1E1
102
}
330
1E1
100
AcDbXrecord
  1
{6A4AC8E0-4F58-11D5-8420-0003476D26AB}
  0
XRECORD
  5
1E4
102
{ACAD_REACTORS
330
1E1
102
}
330
1E1
100
AcDbXrecord
  1

  0
XRECORD
  5
1EA
102
{ACAD_REACTORS
330
1E1
102
}
330
1E1
100
AcDbXrecord
 90
        1
  0
XRECORD
  5
1E6
102
{ACAD_REACTORS
330
1E1
102
}
330
1E1
100
AcDbXrecord
340
B
  0
XRECORD
  5
1E9
102
{ACAD_REACTORS
330
1E1
102
}
330
1E1
100
AcDbXrecord
 90
    10781
  0
XRECORD
  5
1E7
102
{ACAD_REACTORS
330
1E1
102
}
330
1E1
100
AcDbXrecord
340
2A
  0
XRECORD
  5
1E8
102
{ACAD_REACTORS
330
1E1
102
}
330
1E1
100
AcDbXrecord
340
6
  0
XRECORD
  5
1EE
102
{ACAD_REACTORS
330
1E1
102
}
330
1E1
100
AcDbXrecord
 40
0.0
  0
XRECORD
  5
1F2
102
{ACAD_REACTORS
330
1E1
102
}
330
1E1
100
AcDbXrecord
340
0
  0
XRECORD
  5
1F8
102
{ACAD_REACTORS
330
1E1
102
}
330
1E1
100
AcDbXrecord
 10
0.0
 20
0.0
 30
0.0
  0
XRECORD
  5
1F4
102
{ACAD_REACTORS
330
1E1
102
}
330
1E1
100
AcDbXrecord
 10
0.0
 20
0.0
 30
0.0
  0
XRECORD
  5
1F7
102
{ACAD_REACTORS
330
1E1
102
}
330
1E1
100
AcDbXrecord
 10
0.0
 20
0.0
 30
0.0
  0
XRECORD
  5
1F5
102
{ACAD_REACTORS
330
1E1
102
}
330
1E1
100
AcDbXrecord
 10
0.0
 20
0.0
 30
0.0
  0
XRECORD
  5
1F6
102
{ACAD_REACTORS
330
1E1
102
}
330
1E1
100
AcDbXrecord
 10
0.0
 20
0.0
 30
0.0
  0
XRECORD
  5
1F3
102
{ACAD_REACTORS
330
1E1
102
}
330
1E1
100
AcDbXrecord
 10
0.0
 20
0.0
 30
0.0
  0
XRECORD
  5
1F0
102
{ACAD_REACTORS
330
1E1
102
}
330
1E1
100
AcDbXrecord
340
0
  0
XRECORD
  5
1F1
102
{ACAD_REACTORS
330
1E1
102
}
330
1E1
100
AcDbXrecord
 70
     0
  0
XRECORD
  5
1E5
102
{ACAD_REACTORS
330
1E1
102
}
330
1E1
100
AcDbXrecord
  1

  0
XRECORD
  5
1E2
102
{ACAD_REACTORS
330
1E1
102
}
330
1E1
100
AcDbXrecord
 90
        1
  0
XRECORD
  5
1E3
102
{ACAD_REACTORS
330
1E1
102
}
330
1E1
100
AcDbXrecord
 90
       70
  0
XRECORD
  5
1FB
102
{ACAD_REACTORS
330
1E1
102
}
330
1E1
100
AcDbXrecord
340
0
  0
XRECORD
  5
201
102
{ACAD_REACTORS
330
1E1
102
}
330
1E1
100
AcDbXrecord
 10
0.0
 20
0.0
 30
0.0
  0
XRECORD
  5
1FD
102
{ACAD_REACTORS
330
1E1
102
}
330
1E1
100
AcDbXrecord
 10
0.0
 20
0.0
 30
0.0
  0
XRECORD
  5
200
102
{ACAD_REACTORS
330
1E1
102
}
330
1E1
100
AcDbXrecord
 10
0.0
 20
0.0
 30
0.0
  0
XRECORD
  5
1FE
102
{ACAD_REACTORS
330
1E1
102
}
330
1E1
100
AcDbXrecord
 10
0.0
 20
0.0
 30
0.0
  0
XRECORD
  5
1FF
102
{ACAD_REACTORS
330
1E1
102
}
330
1E1
100
AcDbXrecord
 10
0.0
 20
0.0
 30
0.0
  0
XRECORD
  5
1FC
102
{ACAD_REACTORS
330
1E1
102
}
330
1E1
100
AcDbXrecord
 10
0.0
 20
0.0
 30
0.0
  0
XRECORD
  5
1F9
102
{ACAD_REACTORS
330
1E1
102
}
330
1E1
100
AcDbXrecord
340
0
  0
XRECORD
  5
1FA
102
{ACAD_REACTORS
330
1E1
102
}
330
1E1
100
AcDbXrecord
 70
     1
  0
XRECORD
  5
1ED
102
{ACAD_REACTORS
330
1E1
102
}
330
1E1
100
AcDbXrecord
  1
{21470A07-1D4B-437E-8B53-62D6C9891040}
  0
DICTIONARYVAR
  5
53
102
{ACAD_REACTORS
330
51
102
}
330
51
100
DictionaryVariables
280
     0
  1
1
  0
DICTIONARYVAR
  5
52
102
{ACAD_REACTORS
330
51
102
}
330
51
100
DictionaryVariables
280
     0
  1
1
  0
XRECORD
  5
62
102
{ACAD_REACTORS
330
60
102
}
330
60
100
AcDbXrecord
  0
XRECORD
  5
13
102
{ACAD_REACTORS
330
12
102
}
330
12
100
AcDbXrecord
  1
DIM-1_12
  1
DIM-1_12
  1
*
  1
*
 70
     0
  1
*
  1
*
  0
XRECORD
  5
14
102
{ACAD_REACTORS
330
12
102
}
330
12
100
AcDbXrecord
  1
dim-1_16
  1
*
  1
*
  1
*
 70
     0
  1
*
  1
*
  0
ENDSEC
  0
EOF
