  0
SECTION
  2
HEADER
  9
$ACADVER
  1
AC1014
  9
$ACADMAINTVER
 70
     9
  9
$DWGCODEPAGE
  3
ANSI_1252
  9
$INSBASE
 10
0.0
 20
0.0
 30
0.0
  9
$EXTMIN
 10
-0.0517766952966369
 20
-0.0517766952966546
 30
0.0
  9
$EXTMAX
 10
62.04666560190402
 20
32.05177669529663
 30
0.0
  9
$LIMMIN
 10
0.0
 20
0.0
  9
$LIMMAX
 10
17.0
 20
11.0
  9
$ORTHOMODE
 70
     1
  9
$REGENMODE
 70
     1
  9
$FILLMODE
 70
     1
  9
$QTEXTMODE
 70
     0
  9
$MIRRTEXT
 70
     1
  9
$DRAGMODE
 70
     2
  9
$LTSCALE
 40
0.9350000000000001
  9
$OSMODE
 70
    37
  9
$ATTMODE
 70
     1
  9
$TEXTSIZE
 40
0.2
  9
$TRACEWID
 40
0.05
  9
$TEXTSTYLE
  7
STANDARD
  9
$CLAYER
  8
0
  9
$CELTYPE
  6
BYLAYER
  9
$CECOLOR
 62
   256
  9
$CELTSCALE
 40
1.0
  9
$DELOBJ
 70
     1
  9
$DISPSILH
 70
     0
  9
$DIMSCALE
 40
1.0
  9
$DIMASZ
 40
0.1875
  9
$DIMEXO
 40
0.10625
  9
$DIMDLI
 40
0.646
  9
$DIMRND
 40
0.0
  9
$DIMDLE
 40
0.0
  9
$DIMEXE
 40
0.306
  9
$DIMTP
 40
0.0
  9
$DIMTM
 40
0.0
  9
$DIMTXT
 40
0.125
  9
$DIMCEN
 40
0.153
  9
$DIMTSZ
 40
0.0
  9
$DIMTOL
 70
     0
  9
$DIMLIM
 70
     0
  9
$DIMTIH
 70
     1
  9
$DIMTOH
 70
     1
  9
$DIMSE1
 70
     0
  9
$DIMSE2
 70
     0
  9
$DIMTAD
 70
     0
  9
$DIMZIN
 70
     0
  9
$DIMBLK
  1
_FILLED
  9
$DIMASO
 70
     1
  9
$DIMSHO
 70
     1
  9
$DIMPOST
  1

  9
$DIMAPOST
  1

  9
$DIMALT
 70
     0
  9
$DIMALTD
 70
     2
  9
$DIMALTF
 40
25.4
  9
$DIMLFAC
 40
1.0
  9
$DIMTOFL
 70
     0
  9
$DIMTVP
 40
0.0
  9
$DIMTIX
 70
     0
  9
$DIMSOXD
 70
     0
  9
$DIMSAH
 70
     0
  9
$DIMBLK1
  1

  9
$DIMBLK2
  1

  9
$DIMSTYLE
  2
STANDARD
  9
$DIMCLRD
 70
     0
  9
$DIMCLRE
 70
     0
  9
$DIMCLRT
 70
     0
  9
$DIMTFAC
 40
1.0
  9
$DIMGAP
 40
0.09
  9
$DIMJUST
 70
     0
  9
$DIMSD1
 70
     0
  9
$DIMSD2
 70
     0
  9
$DIMTOLJ
 70
     1
  9
$DIMTZIN
 70
     0
  9
$DIMALTZ
 70
     0
  9
$DIMALTTZ
 70
     0
  9
$DIMFIT
 70
     3
  9
$DIMUPT
 70
     0
  9
$DIMUNIT
 70
     2
  9
$DIMDEC
 70
     4
  9
$DIMTDEC
 70
     4
  9
$DIMALTU
 70
     2
  9
$DIMALTTD
 70
     2
  9
$DIMTXSTY
  7
STANDARD
  9
$DIMAUNIT
 70
     0
  9
$LUNITS
 70
     2
  9
$LUPREC
 70
     4
  9
$SKETCHINC
 40
0.1
  9
$FILLETRAD
 40
1.0
  9
$AUNITS
 70
     0
  9
$AUPREC
 70
     0
  9
$MENU
  1
acad
  9
$ELEVATION
 40
0.0
  9
$PELEVATION
 40
0.0
  9
$THICKNESS
 40
0.0
  9
$LIMCHECK
 70
     0
  9
$BLIPMODE
 70
     0
  9
$CHAMFERA
 40
0.0
  9
$CHAMFERB
 40
0.0
  9
$CHAMFERC
 40
0.0
  9
$CHAMFERD
 40
0.0
  9
$SKPOLY
 70
     0
  9
$TDCREATE
 40
2454041.682260359
  9
$TDUPDATE
 40
2454043.626400231
  9
$TDINDWG
 40
0.2918174421
  9
$TDUSRTIMER
 40
0.2918174421
  9
$USRTIMER
 70
     1
  9
$ANGBASE
 50
0.0
  9
$ANGDIR
 70
     0
  9
$PDMODE
 70
     3
  9
$PDSIZE
 40
0.03125
  9
$PLINEWID
 40
0.0
  9
$COORDS
 70
     0
  9
$SPLFRAME
 70
     0
  9
$SPLINETYPE
 70
     6
  9
$SPLINESEGS
 70
     8
  9
$ATTDIA
 70
     0
  9
$ATTREQ
 70
     1
  9
$HANDLING
 70
-16383
  9
$HANDSEED
  5
9EA
  9
$SURFTAB1
 70
     6
  9
$SURFTAB2
 70
     6
  9
$SURFTYPE
 70
     6
  9
$SURFU
 70
     6
  9
$SURFV
 70
     6
  9
$UCSNAME
  2

  9
$UCSORG
 10
0.0
 20
0.0
 30
0.0
  9
$UCSXDIR
 10
1.0
 20
0.0
 30
0.0
  9
$UCSYDIR
 10
0.0
 20
1.0
 30
0.0
  9
$PUCSNAME
  2

  9
$PUCSORG
 10
0.0
 20
0.0
 30
0.0
  9
$PUCSXDIR
 10
1.0
 20
0.0
 30
0.0
  9
$PUCSYDIR
 10
0.0
 20
1.0
 30
0.0
  9
$USERI1
 70
     0
  9
$USERI2
 70
     0
  9
$USERI3
 70
     0
  9
$USERI4
 70
     0
  9
$USERI5
 70
     0
  9
$USERR1
 40
0.0
  9
$USERR2
 40
0.0
  9
$USERR3
 40
0.0
  9
$USERR4
 40
0.0
  9
$USERR5
 40
0.0
  9
$WORLDVIEW
 70
     1
  9
$SHADEDGE
 70
     3
  9
$SHADEDIF
 70
    70
  9
$TILEMODE
 70
     1
  9
$MAXACTVP
 70
    16
  9
$PINSBASE
 10
0.0
 20
0.0
 30
0.0
  9
$PLIMCHECK
 70
     0
  9
$PEXTMIN
 10
1.09999997597041
 20
0.850000036044384
 30
0.0
  9
$PEXTMAX
 10
9.899999783733697
 20
7.650000324399452
 30
0.0
  9
$PLIMMIN
 10
0.0
 20
0.0
  9
$PLIMMAX
 10
12.0
 20
9.0
  9
$UNITMODE
 70
     0
  9
$VISRETAIN
 70
     0
  9
$PLINEGEN
 70
     1
  9
$PSLTSCALE
 70
     0
  9
$TREEDEPTH
 70
  3020
  9
$PICKSTYLE
 70
     1
  9
$CMLSTYLE
  2
STANDARD
  9
$CMLJUST
 70
     0
  9
$CMLSCALE
 40
1.0
  9
$PROXYGRAPHICS
 70
     0
  9
$MEASUREMENT
 70
     0
  0
ENDSEC
  0
SECTION
  2
CLASSES
  0
CLASS
  1
ACDBDICTIONARYWDFLT
  2
AcDbDictionaryWithDefault
  3
AutoCAD 2000
 90
        0
280
     0
281
     0
  0
CLASS
  1
ACDBPLACEHOLDER
  2
AcDbPlaceHolder
  3
AutoCAD 2000
 90
        0
280
     0
281
     0
  0
CLASS
  1
LAYOUT
  2
AcDbLayout
  3
AutoCAD 2000
 90
        0
280
     0
281
     0
  0
CLASS
  1
LWPOLYLINE
  2
AcDbPolyline
  3
AutoCAD 2000
 90
        0
280
     0
281
     1
  0
CLASS
  1
IMAGE
  2
AcDbRasterImage
  3
ISM
 90
      127
280
     0
281
     1
  0
CLASS
  1
OLE2FRAME
  2
AcDbOle2Frame
  3
AutoCAD 2000
 90
        0
280
     0
281
     1
  0
CLASS
  1
HATCH
  2
AcDbHatch
  3
AutoCAD 2000
 90
        0
280
     0
281
     1
  0
CLASS
  1
DICTIONARYVAR
  2
AcDbDictionaryVar
  3
AutoCAD 2000
 90
        0
280
     0
281
     0
  0
CLASS
  1
RASTERVARIABLES
  2
AcDbRasterVariables
  3
ISM
 90
        0
280
     0
281
     0
  0
CLASS
  1
IMAGEDEF
  2
AcDbRasterImageDef
  3
ISM
 90
        0
280
     0
281
     0
  0
CLASS
  1
IMAGEDEF_REACTOR
  2
AcDbRasterImageDefReactor
  3
ISM
 90
        1
280
     0
281
     0
  0
CLASS
  1
IDBUFFER
  2
AcDbIdBuffer
  3
AutoCAD 2000
 90
        0
280
     0
281
     0
  0
CLASS
  1
SPATIAL_FILTER
  2
AcDbSpatialFilter
  3
AutoCAD 2000
 90
        0
280
     0
281
     0
  0
CLASS
  1
XRECORD
  2
AcDbXrecord
  3
AutoCAD 2000
 90
        0
280
     0
281
     0
  0
CLASS
  1
SORTENTSTABLE
  2
AcDbSortentsTable
  3
AutoCAD 2000
 90
        0
280
     0
281
     0
  0
CLASS
  1
LAYER_INDEX
  2
AcDbLayerIndex
  3
AutoCAD 2000
 90
        0
280
     0
281
     0
  0
CLASS
  1
SPATIAL_INDEX
  2
AcDbSpatialIndex
  3
AutoCAD 2000
 90
        0
280
     0
281
     0
  0
CLASS
  1
OBJECT_PTR
  2
CAseDLPNTableRecord
  3
ASE-LPNTableRecord
 90
        1
280
     0
281
     0
  0
CLASS
  1
PLOTSETTINGS
  2
AcDbPlotSettings
  3
AutoCAD 2000
 90
        0
280
     0
281
     0
  0
CLASS
  1
VBA_PROJECT
  2
AcDbVbaProject
  3
acadvba
 90
        0
280
     0
281
     0
  0
CLASS
  1
WIPEOUT
  2
AcDbWipeout
  3
WipeOut|AutoCAD Express Tool|expresstools@autodesk.com
 90
      127
280
     0
281
     1
  0
CLASS
  1
WIPEOUTVARIABLES
  2
AcDbWipeoutVariables
  3
WipeOut|AutoCAD Express Tool|expresstools@autodesk.com
 90
        0
280
     0
281
     0
  0
CLASS
  1
RTEXT
  2
RText
  3
RText|AutoCAD Express Tool|expresstools@autodesk.com
 90
        0
280
     0
281
     1
  0
CLASS
  1
ARCALIGNEDTEXT
  2
AcDbArcAlignedText
  3
ATEXT|AutoCAD Express Tool|expresstools@autodesk.com
 90
        0
280
     0
281
     1
  0
CLASS
  1
LONG_TRANSACTION
  2
AcDbLongTransaction
  3
AutoCAD 2000
 90
        0
280
     0
281
     0
  0
CLASS
  1
LWPOLYLINE
  2
AcDbPolyline
  3
AutoCAD 2000
 90
        0
280
     0
281
     1
  0
CLASS
  1
HATCH
  2
AcDbHatch
  3
AutoCAD 2000
 90
        0
280
     0
281
     1
  0
CLASS
  1
XRECORD
  2
AcDbXrecord
  3
AutoCAD 2000
 90
        0
280
     0
281
     0
  0
ENDSEC
  0
SECTION
  2
TABLES
  0
TABLE
  2
VPORT
  5
8
330
0
100
AcDbSymbolTable
 70
     3
  0
VPORT
  5
9C4
330
8
100
AcDbSymbolTableRecord
100
AcDbViewportTableRecord
  2
*ACTIVE
 70
     0
 10
0.0
 20
0.0
 11
1.0
 21
1.0
 12
30.99642924963681
 22
16.13171355985803
 13
0.0
 23
0.0
 14
1.0
 24
1.0
 15
0.0
 25
0.0
 16
0.0
 26
0.0
 36
1.0
 17
0.0
 27
0.0
 37
0.0
 40
39.7683915376756
 41
1.745424292845257
 42
50.0
 43
0.0
 44
0.0
 50
0.0
 51
0.0
 71
     0
 72
   100
 73
     1
 74
     1
 75
     0
 76
     0
 77
     0
 78
     0
  0
ENDTAB
  0
TABLE
  2
LTYPE
  5
5
330
0
100
AcDbSymbolTable
 70
     2
  0
LTYPE
  5
14
330
5
100
AcDbSymbolTableRecord
100
AcDbLinetypeTableRecord
  2
BYBLOCK
 70
     0
  3

 72
    65
 73
     0
 40
0.0
  0
LTYPE
  5
15
330
5
100
AcDbSymbolTableRecord
100
AcDbLinetypeTableRecord
  2
BYLAYER
 70
     0
  3

 72
    65
 73
     0
 40
0.0
  0
LTYPE
  5
16
330
5
100
AcDbSymbolTableRecord
100
AcDbLinetypeTableRecord
  2
CONTINUOUS
 70
     0
  3
Solid line
 72
    65
 73
     0
 40
0.0
  0
LTYPE
  5
910
330
5
100
AcDbSymbolTableRecord
100
AcDbLinetypeTableRecord
  2
CENTERX2
 70
     0
  3
Center (2x) ________  __  ________  __  _____
 72
    65
 73
     4
 40
4.0
 49
2.5
 74
     0
 49
-0.5
 74
     0
 49
0.5
 74
     0
 49
-0.5
 74
     0
  0
ENDTAB
  0
TABLE
  2
LAYER
  5
2
330
0
100
AcDbSymbolTable
 70
     2
  0
LAYER
  5
10
330
2
100
AcDbSymbolTableRecord
100
AcDbLayerTableRecord
  2
0
 70
     0
 62
     7
  6
CONTINUOUS
  0
LAYER
  5
911
330
2
100
AcDbSymbolTableRecord
100
AcDbLayerTableRecord
  2
CENTER
 70
     0
 62
     1
  6
CENTERX2
  0
ENDTAB
  0
TABLE
  2
STYLE
  5
3
330
0
100
AcDbSymbolTable
 70
     2
  0
STYLE
  5
11
330
3
100
AcDbSymbolTableRecord
100
AcDbTextStyleTableRecord
  2
STANDARD
 70
     0
 40
0.0
 41
0.8
 50
0.0
 71
     0
 42
0.2
  3
txt
  4

  0
STYLE
  5
212
330
3
100
AcDbSymbolTableRecord
100
AcDbTextStyleTableRecord
  2
TEXTSTYLE_1
 70
     0
 40
0.0
 41
0.8
 50
0.0
 71
     0
 42
0.2
  3
txt
  4

  0
ENDTAB
  0
TABLE
  2
VIEW
  5
6
330
0
100
AcDbSymbolTable
 70
     0
  0
ENDTAB
  0
TABLE
  2
UCS
  5
7
330
0
100
AcDbSymbolTable
 70
     0
  0
ENDTAB
  0
TABLE
  2
APPID
  5
9
330
0
100
AcDbSymbolTable
 70
     2
  0
APPID
  5
216
330
9
100
AcDbSymbolTableRecord
100
AcDbRegAppTableRecord
  2
ACAD
 70
     0
  0
APPID
  5
90C
330
9
100
AcDbSymbolTableRecord
100
AcDbRegAppTableRecord
  2
DCO15
 70
     0
  0
ENDTAB
  0
TABLE
  2
DIMSTYLE
  5
A
330
0
100
AcDbSymbolTable
 70
     1
  0
DIMSTYLE
105
237
330
A
100
AcDbSymbolTableRecord
100
AcDbDimStyleTableRecord
  2
STANDARD
 70
     0
  3

  4

  5
_FILLED
  6
_FILLED
  7
_FILLED
 40
1.0
 41
0.1875
 42
0.0625
 43
0.38
 44
0.18
 45
0.0
 46
0.0
 47
0.00001
 48
0.00001
140
0.125
141
0.09
142
0.0
143
25.4
144
1.0
145
0.0
146
1.0
147
0.09
 71
     0
 72
     0
 73
     1
 74
     1
 75
     0
 76
     0
 77
     0
 78
     4
170
     0
171
     2
172
     0
173
     0
174
     0
175
     0
176
     0
177
     0
178
     0
270
     2
271
     5
272
     5
273
     2
274
     2
340
11
275
     0
280
     0
281
     0
282
     0
283
     1
284
     4
285
     0
286
     0
287
     3
288
     0
  0
ENDTAB
  0
TABLE
  2
BLOCK_RECORD
  5
1
330
0
100
AcDbSymbolTable
 70
     1
  0
BLOCK_RECORD
  5
1F
102
{ACAD_XDICTIONARY
360
9E8
102
}
330
1
100
AcDbSymbolTableRecord
100
AcDbBlockTableRecord
  2
*MODEL_SPACE
  0
BLOCK_RECORD
  5
1B
102
{ACAD_XDICTIONARY
360
9E6
102
}
330
1
100
AcDbSymbolTableRecord
100
AcDbBlockTableRecord
  2
*PAPER_SPACE
  0
BLOCK_RECORD
  5
217
330
1
100
AcDbSymbolTableRecord
100
AcDbBlockTableRecord
  2
_FILLED
  0
ENDTAB
  0
ENDSEC
  0
SECTION
  2
BLOCKS
  0
BLOCK
  5
20
330
1F
100
AcDbEntity
  8
0
100
AcDbBlockBegin
  2
*MODEL_SPACE
 70
     0
 10
0.0
 20
0.0
 30
0.0
  3
*MODEL_SPACE
  1

  0
ENDBLK
  5
21
330
1F
100
AcDbEntity
  8
0
100
AcDbBlockEnd
  0
BLOCK
  5
1C
330
1B
100
AcDbEntity
 67
     1
  8
0
100
AcDbBlockBegin
  2
*PAPER_SPACE
 70
     0
 10
0.0
 20
0.0
 30
0.0
  3
*PAPER_SPACE
  1

  0
ENDBLK
  5
1D
330
1B
100
AcDbEntity
 67
     1
  8
0
100
AcDbBlockEnd
  0
BLOCK
  5
442
330
217
100
AcDbEntity
  8
0
100
AcDbBlockBegin
  2
_FILLED
 70
     0
 10
0.0
 20
0.0
 30
0.0
  3
_FILLED
  1

  0
SOLID
  5
443
330
217
100
AcDbEntity
  8
0
  6
BYBLOCK
 62
     0
100
AcDbTrace
 10
0.0
 20
0.0
 30
0.0
 11
-1.0
 21
0.1666666667
 31
0.0
 12
-1.0
 22
-0.1666666667
 32
0.0
 13
-1.0
 23
-0.1666666667
 33
0.0
  0
ENDBLK
  5
444
330
217
100
AcDbEntity
  8
0
  6
BYBLOCK
 62
     0
100
AcDbBlockEnd
  0
ENDSEC
  0
SECTION
  2
ENTITIES
  0
LINE
  5
718
330
1F
100
AcDbEntity
  8
0
100
AcDbLine
 10
0.0
 20
31.74999999999997
 30
0.0
 11
0.0
 21
0.2499999999999964
 31
0.0
  0
LWPOLYLINE
  5
71F
330
1F
100
AcDbEntity
  8
0
100
AcDbPolyline
 90
       11
 70
     0
 43
0.0
 10
3.431918515199996
 20
15.99999999999998
 10
3.448273633599995
 20
15.26830791519999
 10
3.497578684799997
 20
14.53568872159999
 10
3.579833278399995
 20
13.80451761759999
 10
3.694786676799999
 20
13.07762206079999
 10
3.841761593599997
 20
12.35866841119998
 10
4.020071907199998
 20
11.64986085279998
 10
4.229041886399997
 20
10.95237569599998
 10
4.467955811199999
 20
10.26741363839998
 10
4.735641494399999
 20
9.597415729599983
 10
5.030570887999999
 20
8.945155207999984
  0
LWPOLYLINE
  5
720
330
1F
100
AcDbEntity
  8
0
100
AcDbPolyline
 90
       11
 70
     0
 43
0.0
 10
3.431918515199996
 20
15.99999999999998
 10
3.448273060799998
 20
16.73167930079999
 10
3.497577663999997
 20
17.46429991839998
 10
3.579831939199998
 20
18.19547248159999
 10
3.694785151999994
 20
18.9223695232
 10
3.841760015999994
 20
19.64132466399997
 10
4.020070403199994
 20
20.35013369119998
 10
4.229040582399996
 20
21.0476202816
 10
4.467954828799996
 20
21.73258373279999
 10
4.735640948799996
 20
22.4025829888
 10
5.030570887999999
 20
23.05484479359999
  0
LWPOLYLINE
  5
721
330
1F
100
AcDbEntity
  8
0
100
AcDbPolyline
 90
        9
 70
     0
 43
0.0
 10
5.030570887999999
 20
23.05484479359999
 10
5.185419001599996
 20
23.40473724479998
 10
5.320001575999995
 20
23.7603314928
 10
5.434397836799995
 20
24.12115037439998
 10
5.528613790399994
 20
24.48664333119999
 10
5.602276279999998
 20
24.85492139999998
 10
5.655158769599999
 20
25.22383081599998
 10
5.687322129599998
 20
25.5918616352
 10
5.698949059199996
 20
25.95761421599998
  0
LWPOLYLINE
  5
723
330
1F
100
AcDbEntity
  8
0
100
AcDbPolyline
 90
        9
 70
     0
 43
0.0
 10
5.030570887999999
 20
8.945155207999984
 10
5.185419001599996
 20
8.595262756799993
 10
5.320001575999995
 20
8.23966850879999
 10
5.434397836799995
 20
7.878849627199993
 10
5.528613790399994
 20
7.513356670399982
 10
5.602276279999998
 20
7.145078601599987
 10
5.655158769599999
 20
6.776169183999993
 10
5.687322129599998
 20
6.408138366399992
 10
5.698949059199996
 20
6.042385783999986
  0
LWPOLYLINE
  5
724
330
1F
100
AcDbEntity
  8
0
100
AcDbPolyline
 90
       19
 70
     0
 43
0.0
 10
5.701346975999996
 20
4.759382985599994
 10
5.704202459199997
 20
4.681528814399992
 10
5.714444688
 20
4.604254006399994
 10
5.731915969599995
 20
4.528483887999993
 10
5.7563859264
 20
4.455061364799984
 10
5.787746836799996
 20
4.384375763199994
 10
5.825914910399994
 20
4.316625319999982
 10
5.870491180799994
 20
4.252544467199992
 10
5.921108430399996
 20
4.192736553599981
 10
5.977593662399996
 20
4.137593027199994
 10
6.040127310399995
 20
4.087168531199989
 10
6.108796401599995
 20
4.041651271999992
 10
6.183217153599997
 20
4.001662367999994
 10
6.2631831168
 20
3.967659966399988
 10
6.348713806399999
 20
3.939961646399989
 10
6.439779747199999
 20
3.918683449599992
 10
6.536070484799999
 20
3.904011361599994
 10
6.6370802944
 20
3.896094199999989
 10
6.742227230399997
 20
3.89500838719999
  0
LWPOLYLINE
  5
725
330
1F
100
AcDbEntity
  8
0
100
AcDbPolyline
 90
        4
 70
     0
 43
0.0
 10
5.698949059199996
 20
6.042385783999986
 10
5.700541343999994
 20
5.606961902399984
 10
5.701358431999999
 20
5.179314847999986
 10
5.701347147199996
 20
4.759383035199984
  0
LINE
  5
726
330
1F
100
AcDbEntity
  8
0
100
AcDbLine
 10
5.267344342399994
 20
27.24999975839999
 30
0.0
 11
5.267344342399994
 21
25.95432517759998
 31
0.0
  0
LINE
  5
727
330
1F
100
AcDbEntity
  8
0
100
AcDbLine
 10
5.267344342399994
 20
6.045674823999984
 30
0.0
 11
5.267344342399994
 21
4.750000241599988
 31
0.0
  0
LWPOLYLINE
  5
728
330
1F
100
AcDbEntity
  8
0
100
AcDbPolyline
 90
        4
 70
     0
 43
0.0
 10
5.698949059199996
 20
25.95761421599998
 10
5.700541343999994
 20
26.39303809919998
 10
5.701358431999999
 20
26.82068515199999
 10
5.701347147199996
 20
27.24061696639999
  0
LWPOLYLINE
  5
729
330
1F
100
AcDbEntity
  8
0
100
AcDbPolyline
 90
       19
 70
     0
 43
0.0
 10
5.701346975999996
 20
27.240617016
 10
5.704202459199997
 20
27.31847118719998
 10
5.714444688
 20
27.39574599519998
 10
5.731915969599995
 20
27.471516112
 10
5.7563859264
 20
27.54493863679998
 10
5.787746836799996
 20
27.6156242384
 10
5.825914910399994
 20
27.68337468159999
 10
5.870491180799994
 20
27.7474555328
 10
5.921108430399996
 20
27.80726344799999
 10
5.977593662399996
 20
27.8624069744
 10
6.040127310399995
 20
27.91283147039997
 10
6.108796401599995
 20
27.95834872959998
 10
6.183217153599997
 20
27.9983376336
 10
6.2631831168
 20
28.03234003519999
 10
6.348713806399999
 20
28.06003835519997
 10
6.439779747199999
 20
28.08131655199998
 10
6.536070484799999
 20
28.09598863999998
 10
6.6370802944
 20
28.10390580159999
 10
6.742227230399997
 20
28.10499161439999
  0
LWPOLYLINE
  5
72A
330
1F
100
AcDbEntity
  8
0
100
AcDbPolyline
 90
       13
 70
     0
 43
0.0
 10
9.531718580799996
 20
15.99999999999998
 10
9.547494076799999
 20
15.30121376959999
 10
9.594646028799999
 20
14.60137646559999
 10
9.6732669728
 20
13.90181582719999
 10
9.783313731199996
 20
13.20439628799999
 10
9.924485384
 20
12.51168509119999
 10
10.09602409119999
 20
11.82724561279999
 10
10.29647975839999
 20
11.15578451999999
 10
10.51824035679999
 20
10.51722710239998
 10
10.75175457919999
 20
9.927746993599992
 10
10.99042860639999
 20
9.391141201599989
 10
11.23139856159999
 20
8.903025702399983
 10
11.47486163039999
 20
8.455421049599987
  0
LWPOLYLINE
  5
72B
330
1F
100
AcDbEntity
  8
0
100
AcDbPolyline
 90
       13
 70
     0
 43
0.0
 10
9.531718580799996
 20
15.99999999999998
 10
9.547494076799999
 20
16.69878623199998
 10
9.594646028799999
 20
17.39862353599998
 10
9.6732669728
 20
18.0981841744
 10
9.783313731199996
 20
18.79560371359998
 10
9.924485384
 20
19.48831491039997
 10
10.09602409119999
 20
20.17275438879998
 10
10.29647975839999
 20
20.84421548159998
 10
10.51824035679999
 20
21.48277289759998
 10
10.75175457919999
 20
22.0722530064
 10
10.99042860639999
 20
22.60885879999999
 10
11.23139856159999
 20
23.09697429919999
 10
11.47486163039999
 20
23.54457895039997
  0
LWPOLYLINE
  5
72C
330
1F
100
AcDbEntity
  8
0
100
AcDbPolyline
 90
       43
 70
     0
 43
0.0
 10
10.36329371999999
 20
15.99999999999998
 10
10.3644939072
 20
15.79334634239999
 10
10.36827067679999
 20
15.58848504319997
 10
10.37460444319999
 20
15.38548043039999
 10
10.38347270239999
 20
15.18439272799998
 10
10.39485155199999
 20
14.98525664319998
 10
10.40871623679999
 20
14.78809486719998
 10
10.425062296
 20
14.59269185279998
 10
10.44395915839999
 20
14.39823243359998
 10
10.46537940159999
 20
14.20510877119998
 10
10.48925472479999
 20
14.01386616319999
 10
10.51551595839999
 20
13.82484765279998
 10
10.54412243679999
 20
13.63809473279999
 10
10.57510998399999
 20
13.45319629599998
 10
10.6085626096
 20
13.26961288479999
 10
10.64435613439999
 20
13.08798140959998
 10
10.6823633168
 20
12.90878069599999
 10
10.72252487359999
 20
12.73207547359998
 10
10.76478389279999
 20
12.55790264479999
 10
10.80909972799999
 20
12.38622679199998
 10
10.85544549599999
 20
12.21696922079999
 10
10.9037926576
 20
12.05007165439998
 10
10.95409431199999
 20
11.88554461279998
 10
11.00632893599999
 20
11.72331783199998
 10
11.06048528159999
 20
11.56330319839999
 10
11.11655606239999
 20
11.40541673439998
 10
11.17451949599999
 20
11.24962151039998
 10
11.23435229599999
 20
11.09588640799999
 10
11.2960581472
 20
10.94411995839999
 10
11.35960345119999
 20
10.79433119359998
 10
11.42494967839999
 20
10.64653847039998
 10
11.49209880319999
 20
10.50067093759998
 10
11.56101843679999
 20
10.35673884159998
 10
11.63166803199999
 20
10.21476728479998
 10
11.70404046239999
 20
10.07471461279999
 10
11.77811624959999
 20
9.93656816799999
 10
11.85386271359999
 20
9.800341123199995
 10
11.93124299199999
 20
9.666052830399987
 10
12.01022156959999
 20
9.533718790399984
 10
12.09076274399999
 20
9.403353716799994
 10
12.1728369696
 20
9.274962027199986
 10
12.25641264639999
 20
9.148551833599992
 10
12.34145597599999
 20
9.024134748799991
  0
LWPOLYLINE
  5
72D
330
1F
100
AcDbEntity
  8
0
100
AcDbPolyline
 90
        7
 70
     0
 43
0.0
 10
11.47486163039999
 20
23.54457895039997
 10
11.70585596959999
 20
23.93275029439997
 10
11.92738044
 20
24.27510518719999
 10
12.14366844319999
 20
24.5829929792
 10
12.35347739359999
 20
24.85771383359998
 10
12.5546398352
 20
25.09921427039999
 10
12.75141453279999
 20
25.31434529119998
  0
LWPOLYLINE
  5
72E
330
1F
100
AcDbEntity
  8
0
100
AcDbPolyline
 90
       43
 70
     0
 43
0.0
 10
12.34145597599999
 20
22.9758652528
 10
12.25642687999999
 20
22.85146933759999
 10
12.1728647968
 20
22.72508077439998
 10
12.0908035872
 20
22.59671126719997
 10
12.0102746464
 20
22.46636860799999
 10
11.93130818719999
 20
22.33405832479998
 10
11.85393969439999
 20
22.19979486879999
 10
11.77820446079999
 20
22.06359337599998
 10
11.7041389456
 20
21.92547247039998
 10
11.63177508959999
 20
21.78544379839997
 10
11.5611346592
 20
21.64349919359998
 10
11.49222537119999
 20
21.49959857279999
 10
11.42508570559999
 20
21.35376297119999
 10
11.35974613279999
 20
21.20599822719999
 10
11.2962042256
 20
21.05623176319998
 10
11.23449988639999
 20
20.90448455039999
 10
11.17467109279999
 20
20.75077669599998
 10
11.1167174128
 20
20.59502692959999
 10
11.0606570048
 20
20.43719199519999
 10
11.006502032
 20
20.27720642559999
 10
10.95426639199999
 20
20.1150035696
 10
10.90396391199999
 20
19.95050346239999
 10
10.855617496
 20
19.783641376
 10
10.80927256799999
 20
19.61442327359999
 10
10.76495091679999
 20
19.44276440479999
 10
10.72268977439999
 20
19.26862595199999
 10
10.68254313119999
 20
19.09203724799997
 10
10.644571856
 20
18.91307278079999
 10
10.60882776639999
 20
18.7317855584
 10
10.57539739839999
 20
18.54844750239997
 10
10.54432554719999
 20
18.36317173759998
 10
10.51563798239999
 20
18.17598678079998
 10
10.4893577136
 20
17.98691320319998
 10
10.46549010719999
 20
17.7958306112
 10
10.44406649599999
 20
17.60280067679998
 10
10.42511645599999
 20
17.40790766879997
 10
10.40868653439999
 20
17.21151776319997
 10
10.39482514879999
 20
17.01432790079998
 10
10.38346048639999
 20
16.81536639359999
 10
10.37460091839999
 20
16.61442695519998
 10
10.368267216
 20
16.4113756432
 10
10.3644914128
 20
16.20644707039998
 10
10.36329371999999
 20
15.99999999999998
  0
LWPOLYLINE
  5
72F
330
1F
100
AcDbEntity
  8
0
100
AcDbPolyline
 90
        4
 70
     0
 43
0.0
 10
12.54687493599999
 20
23.26031071039998
 10
12.477581928
 20
23.16677954239998
 10
12.40910399839999
 20
23.07196429279998
 10
12.34145597599999
 20
22.9758652528
  0
LWPOLYLINE
  5
731
330
1F
100
AcDbEntity
  8
0
100
AcDbPolyline
 90
       17
 70
     0
 43
0.0
 10
12.54687493599999
 20
8.73968929119999
 10
12.63248649759999
 20
8.627334275199995
 10
12.71930116
 20
8.516843323199989
 10
12.80727997919999
 20
8.408238019199995
 10
12.89638192959999
 20
8.301537779199986
 10
12.986566904
 20
8.196758007999985
 10
13.07780037119999
 20
8.093907563199987
 10
13.1700339856
 20
7.99301063519999
 10
13.2631851712
 20
7.894125961599993
 10
13.3571811168
 20
7.797297137599993
 10
13.45194615039999
 20
7.702567043199987
 10
13.54737857439999
 20
7.609999868799985
 10
13.64330569439999
 20
7.519719487999989
 10
13.73945185759999
 20
7.431928958399989
 10
13.8355389472
 20
7.34681004319999
 10
13.93130475519999
 20
7.264508910399992
 10
14.026485416
 20
7.185154097599987
  0
LWPOLYLINE
  5
732
330
1F
100
AcDbEntity
  8
0
100
AcDbPolyline
 90
        4
 70
     0
 43
0.0
 10
12.34145597599999
 20
9.024134748799991
 10
12.40910389439999
 20
8.92803585439999
 10
12.4775818592
 20
8.833220551999982
 10
12.54687493599999
 20
8.73968929119999
  0
LWPOLYLINE
  5
733
330
1F
100
AcDbEntity
  8
0
100
AcDbPolyline
 90
        7
 70
     0
 43
0.0
 10
11.47486163039999
 20
8.455421049599987
 10
11.70585596959999
 20
8.067249707199987
 10
11.92738044
 20
7.724894814399984
 10
12.14366844319999
 20
7.417007022399982
 10
12.35347739359999
 20
7.142286167999994
 10
12.5546398352
 20
6.900785731199984
 10
12.75141453279999
 20
6.685654708799983
  0
LWPOLYLINE
  5
734
330
1F
100
AcDbEntity
  8
0
100
AcDbPolyline
 90
       17
 70
     0
 43
0.0
 10
14.026485416
 20
24.81484590399999
 10
13.93116595519999
 20
24.73537360319998
 10
13.83541198879999
 20
24.65307918399998
 10
13.73941642079999
 20
24.56803917119999
 10
13.64337115839999
 20
24.48034119679998
 10
13.5474851488
 20
24.39010195679999
 10
13.45203121919999
 20
24.29751672159998
 10
13.3572597696
 20
24.20278267519999
 10
13.2632425312
 20
24.10593401919997
 10
13.17007601279999
 20
24.00703465439998
 10
13.07783907839999
 20
23.90613542079999
 10
12.98657630239999
 20
23.8032527504
 10
12.89636795039999
 20
23.69844573279997
 10
12.80725891839999
 20
23.59173637599998
 10
12.71928451039999
 20
23.48313580799999
 10
12.6324787936
 20
23.37265577119999
 10
12.54687493599999
 20
23.26031071039998
  0
LWPOLYLINE
  5
735
330
1F
100
AcDbEntity
  8
0
100
AcDbPolyline
 90
        8
 70
     0
 43
0.0
 10
14.61654882239999
 20
25.25561696959998
 10
14.53645929279999
 20
25.20077510879998
 10
14.45482470079999
 20
25.14329153279997
 10
14.3717725968
 20
25.08316241599997
 10
14.28739133759999
 20
25.02034780319998
 10
14.20193379999999
 20
24.95493581599999
 10
14.11548986879999
 20
24.88689926719997
 10
14.02809947359999
 20
24.8161708832
  0
LWPOLYLINE
  5
736
330
1F
100
AcDbEntity
  8
0
100
AcDbPolyline
 90
        4
 70
     0
 43
0.0
 10
14.81966785119999
 20
25.38779511679997
 10
14.7531646288
 20
25.34550670879998
 10
14.6854610352
 20
25.30147118239999
 10
14.61655010559999
 20
25.25563943679999
  0
LINE
  5
73A
330
1F
100
AcDbEntity
  8
0
100
AcDbLine
 10
0.25
 20
0.0
 30
0.0
 11
59.75
 21
-0.0000000000000142
 31
0.0
  0
LWPOLYLINE
  5
73F
330
1F
100
AcDbEntity
  8
0
100
AcDbPolyline
 90
       34
 70
     0
 43
0.0
 10
14.81966785119999
 20
6.612204884799989
 10
14.92446470239999
 20
6.547470035199989
 10
15.02939787039999
 20
6.484940087999984
 10
15.13436743199999
 20
6.424635257599984
 10
15.23932155359999
 20
6.366544510399986
 10
15.34435460319999
 20
6.310579503999985
 10
15.44943956639999
 20
6.256723699199991
 10
15.5545980848
 20
6.204938612799988
 10
15.65999493599999
 20
6.155124366399984
 10
15.76569290079999
 20
6.107235779199992
 10
15.8717082
 20
6.061253974399985
 10
15.9779483744
 20
6.017207599999988
 10
16.08432086239999
 20
5.97512056959999
 10
16.19076987679999
 20
5.934998617599983
 10
16.29729018239999
 20
5.896828228799986
 10
16.40389376799999
 20
5.86059196319999
 10
16.51068223679999
 20
5.826249478399983
 10
16.6177285024
 20
5.793777009599988
 10
16.72498919039999
 20
5.763184310399989
 10
16.8325537936
 20
5.734445798399985
 10
16.94065274559999
 20
5.707510735999985
 10
17.04901232479999
 20
5.682459486399988
 10
17.15712109439999
 20
5.659403428799986
 10
17.26486927039999
 20
5.638344966399994
 10
17.3721933056
 20
5.619273515199989
 10
17.47915815519999
 20
5.602159737599986
 10
17.5858064512
 20
5.586980102399987
 10
17.69207000639999
 20
5.573724775999988
 10
17.79786502399999
 20
5.562383217599982
 10
17.90312829599999
 20
5.552939860799991
 10
18.0077908464
 20
5.545377649599995
 10
18.1117580656
 20
5.539678593599983
 10
18.21493357279999
 20
5.535820577599988
 10
18.31721911999999
 20
5.533777452799991
  0
LWPOLYLINE
  5
740
330
1F
100
AcDbEntity
  8
0
100
AcDbPolyline
 90
        4
 70
     0
 43
0.0
 10
14.61655010559999
 20
6.744360564799986
 10
14.68549120159999
 20
6.698505420799985
 10
14.75319493279999
 20
6.654474591999981
 10
14.81966785119999
 20
6.612204884799989
  0
LWPOLYLINE
  5
741
330
1F
100
AcDbEntity
  8
0
100
AcDbPolyline
 90
        8
 70
     0
 43
0.0
 10
14.02809947359999
 20
7.183829118399994
 10
14.11535070879999
 20
7.113211796799983
 10
14.20162717919999
 20
7.045302183999989
 10
14.28688079039999
 20
6.980037559999981
 10
14.371066872
 20
6.917355894399985
 10
14.45412333279999
 20
6.857208505599995
 10
14.53597700959999
 20
6.799563073599994
 10
14.61654882239999
 20
6.744383031999984
  0
LINE
  5
742
330
1F
100
AcDbEntity
  8
0
100
AcDbLine
 10
14.026485416
 20
7.185154097599987
 30
0.0
 11
14.02809947359999
 21
7.183829118399994
 31
0.0
  0
LWPOLYLINE
  5
744
330
1F
100
AcDbEntity
  8
0
100
AcDbPolyline
 90
       19
 70
     0
 43
0.0
 10
56.4561035536
 20
3.894995409599982
 10
56.5349275744
 20
3.897938742399983
 10
56.61335097759999
 20
3.907722627199984
 10
56.690488792
 20
3.924235710399994
 10
56.76548853759999
 20
3.947270985599981
 10
56.8378247232
 20
3.976659427199987
 10
56.9074498768
 20
4.012398659199984
 10
56.97374342879999
 20
4.054173681599987
 10
57.0358545552
 20
4.101424979199986
 10
57.093268768
 20
4.153721086399993
 10
57.1457448016
 20
4.210847068799989
 10
57.19307931839999
 20
4.272526772799988
 10
57.2348583312
 20
4.338217297599992
 10
57.27055336959999
 20
4.407059516799986
 10
57.29989962719999
 20
4.478475590399991
 10
57.3229231248
 20
4.552442046399985
 10
57.33946473599999
 20
4.628436219199993
 10
57.3493297616
 20
4.705629041599987
 10
57.35241639839999
 20
4.783167815999984
  0
LWPOLYLINE
  5
748
330
1F
100
AcDbEntity
  8
0
100
AcDbPolyline
 90
       64
 70
     0
 43
0.0
 10
52.7257205856
 20
5.587840555199985
 10
52.78092152959999
 20
5.589600788799995
 10
52.83650279039999
 20
5.592553921599982
 10
52.8924148432
 20
5.596712964799987
 10
52.94860711679999
 20
5.602089281599983
 10
53.005018136
 20
5.608691036799992
 10
53.06158729919999
 20
5.616523827199994
 10
53.1182463392
 20
5.625589263999994
 10
53.1749025104
 20
5.635881004799994
 10
53.2314900128
 20
5.647393188799991
 10
53.28798021439999
 20
5.66012585919999
 10
53.34433272
 20
5.674075897599987
 10
53.4004928608
 20
5.689235563199982
 10
53.4563647984
 20
5.705581561599995
 10
53.511894208
 20
5.723098228799994
 10
53.56710816959999
 20
5.741796311999987
 10
53.62202481759999
 20
5.761686927999985
 10
53.676641272
 20
5.782767697599989
 10
53.73094832639999
 20
5.80503694559999
 10
53.7849360272
 20
5.828495081599992
 10
53.83855634239999
 20
5.853126395199989
 10
53.8917562672
 20
5.878910702399988
 10
53.94449744319999
 20
5.905832641599982
 10
53.99673886239999
 20
5.933874190399986
 10
54.0484343728
 20
5.963012735999992
 10
54.09953536959999
 20
5.993222326399983
 10
54.1499834688
 20
6.024467995199994
 10
54.19972351519999
 20
6.056713167999983
 10
54.24870627999999
 20
6.089921155199984
 10
54.2968772144
 20
6.124048039999987
 10
54.34421451519999
 20
6.159070323199994
 10
54.3907434688
 20
6.195001262399994
 10
54.4364998208
 20
6.231863655999983
 10
54.4815041504
 20
6.269669483199987
 10
54.52575626079999
 20
6.308417836799986
 10
54.56921821599999
 20
6.348075604799984
 10
54.61185797119999
 20
6.388612919999982
 10
54.6536502352
 20
6.430004542399995
 10
54.69453488639999
 20
6.472187847999986
 10
54.73446472799999
 20
6.515107230399987
 10
54.7734144768
 20
6.558726580799994
 10
54.8113561456
 20
6.603004347199995
 10
54.848263144
 20
6.647897715199984
 10
54.88411432159999
 20
6.693367721599994
 10
54.91887213759999
 20
6.739351391999985
 10
54.9524662768
 20
6.785732854399991
 10
54.9849180032
 20
6.832515211199986
 10
55.01626522079999
 20
6.879733588799989
 10
55.04654153279999
 20
6.927426238399984
 10
55.0758340464
 20
6.975723487999982
 10
55.1041664672
 20
7.024672707199993
 10
55.1313817968
 20
7.073998385599988
 10
55.1574891952
 20
7.12369736319999
 10
55.18248956959999
 20
7.173754897599987
 10
55.2063597888
 20
7.224106955199982
 10
55.22907942399999
 20
7.274687764799988
 10
55.2506060656
 20
7.325368291199989
 10
55.27080398879999
 20
7.375754415999988
 10
55.28968104319999
 20
7.425751995199984
 10
55.3073539824
 20
7.475567905599984
 10
55.32391668319999
 20
7.525409737599982
 10
55.339437112
 20
7.575464700799994
 10
55.3539688624
 20
7.625938263999994
 10
55.3675454512
 20
7.677040628799982
  0
LINE
  5
75A
330
1F
100
AcDbEntity
  8
0
100
AcDbLine
 10
6.517345878399993
 20
3.499999999999982
 30
0.0
 11
56.50016546879999
 21
3.499999999999982
 31
0.0
  0
LWPOLYLINE
  5
76A
330
1F
100
AcDbEntity
  8
0
100
AcDbPolyline
 90
       24
 70
     0
 43
0.0
 10
52.0
 20
14.00491212159998
 10
51.87256768640001
 20
14.00849662399998
 10
51.7374689232
 20
14.02101818879998
 10
51.6061088032
 20
14.04210679199999
 10
51.47898360159999
 20
14.07122267199998
 10
51.353708744
 20
14.10871745919999
 10
51.2305763472
 20
14.15462674399999
 10
51.11000582079999
 20
14.20896286079998
 10
50.9924377152
 20
14.27173736959998
 10
50.8783352368
 20
14.34296207039998
 10
50.7682401984
 20
14.42260841119998
 10
50.6628969712
 20
14.51046942079998
 10
50.56303803679999
 20
14.60626061919998
 10
50.4694371776
 20
14.70954732639998
 10
50.382840648
 20
14.81977128159999
 10
50.30393117919999
 20
14.93626974239998
 10
50.233327096
 20
15.05825320959999
 10
50.17152216959999
 20
15.18488645599998
 10
50.1188565216
 20
15.31539375999998
 10
50.07557511839999
 20
15.44900564639999
 10
50.04183550079999
 20
15.58498439999997
 10
50.0177270368
 20
15.72261421759999
 10
50.0032825424
 20
15.8611844448
 10
49.99848084159999
 20
15.99999999999998
  0
LWPOLYLINE
  5
76B
330
1F
100
AcDbEntity
  8
0
100
AcDbPolyline
 90
       22
 70
     0
 43
0.0
 10
57.7664264208
 20
14.81249999999998
 10
57.7652440736
 20
14.81254489759998
 10
57.75462866559999
 20
14.81704197759999
 10
57.7442938736
 20
14.82882022559999
 10
57.73431174719999
 20
14.84768883999998
 10
57.72471572799999
 20
14.87346645919998
 10
57.715555928
 20
14.90589692479998
 10
57.7068444032
 20
14.94482483039999
 10
57.698626136
 20
14.98993682719999
 10
57.69090820159999
 20
15.04107904479998
 10
57.6837229936
 20
15.09792650399998
 10
57.677081864
 20
15.16026942719999
 10
57.67100497119999
 20
15.22780552959998
 10
57.66551284319999
 20
15.30017229439998
 10
57.6606146688
 20
15.37711963679998
 10
57.65633385440001
 20
15.45814080319999
 10
57.65267967039999
 20
15.54291162719998
 10
57.6496762128
 20
15.63067344799999
 10
57.64732979359999
 20
15.72096518559997
 10
57.6456518192
 20
15.81300891519999
 10
57.64464408799999
 20
15.90626636
 10
57.6443085968
 20
15.99999999999998
  0
LWPOLYLINE
  5
76C
330
1F
100
AcDbEntity
  8
0
100
AcDbPolyline
 90
       22
 70
     0
 43
0.0
 10
52.0
 20
17.99508748799997
 10
52.15251980799999
 20
17.98920052479997
 10
52.3046918064
 20
17.97193676479998
 10
52.45540490879999
 20
17.94335708799998
 10
52.60360681599999
 20
17.90363952639999
 10
52.7483899952
 20
17.85303246399997
 10
52.88893039359999
 20
17.79183355519999
 10
53.0243694752
 20
17.72043088639999
 10
53.1538509936
 20
17.63930862239997
 10
53.27661094399999
 20
17.54899723039998
 10
53.391972416
 20
17.45005388159999
 10
53.4992544624
 20
17.34313427359999
 10
53.5978260096
 20
17.22897000639998
 10
53.68717635039999
 20
17.108284592
 10
53.7668107904
 20
16.98191999199998
 10
53.83634671039999
 20
16.85072354879998
 10
53.89563199839999
 20
16.71520812319998
 10
53.9445354784
 20
16.57573879519999
 10
53.9827507552
 20
16.43315966399999
 10
54.009992296
 20
16.28877864639998
 10
54.0261957088
 20
16.14394904799997
 10
54.03152418559999
 20
15.99999999999998
  0
LWPOLYLINE
  5
76D
330
1F
100
AcDbEntity
  8
0
100
AcDbPolyline
 90
       35
 70
     0
 43
0.0
 10
18.31721911999999
 20
26.46622254879998
 10
18.21787979999999
 20
26.46426313759998
 10
18.11781001599999
 20
26.46059728799998
 10
18.01702034079999
 20
26.45520151679998
 10
17.91551362879999
 20
26.44805021599999
 10
17.8134090032
 20
26.43912694879999
 10
17.71080777119999
 20
26.4284189744
 10
17.6077516656
 20
26.4159102672
 10
17.504312944
 20
26.40159002719998
 10
17.40056969919999
 20
26.38545106879997
 10
17.29650017759999
 20
26.3674733232
 10
17.19204530399999
 20
26.34763207359999
 10
17.08722911199999
 20
26.32591171999997
 10
16.98212109279999
 20
26.30230621759999
 10
16.87705489919999
 20
26.27687825759998
 10
16.77242927519999
 20
26.24972924639997
 10
16.66820939199999
 20
26.22086265439999
 10
16.56421248959999
 20
26.19023229919998
 10
16.46043200319999
 20
26.15783374559999
 10
16.3568771104
 20
26.12366747999997
 10
16.25344969759999
 20
26.08770050559998
 10
16.15008559679999
 20
26.04990133439998
 10
16.0467867152
 20
26.01025742399998
 10
15.9435740256
 20
25.9687622192
 10
15.8405105856
 20
25.9254263552
 10
15.73768762559999
 20
25.88027579359997
 10
15.6351762464
 20
25.83333196319999
 10
15.53294077599999
 20
25.7845674672
 10
15.43090102879999
 20
25.73392916799998
 10
15.32891417759999
 20
25.68132801599999
 10
15.22697904479999
 20
25.62673721439999
 10
15.12511296479999
 20
25.57013731039999
 10
15.0232285568
 20
25.5114461584
 10
14.9213822496
 20
25.45065872159999
 10
14.81966785119999
 20
25.38779511679997
  0
LINE
  5
77C
330
1F
100
AcDbEntity
  8
0
100
AcDbLine
 10
57.76642645119999
 20
17.18749999999998
 30
0.0
 11
57.77605530879999
 21
17.18457154559997
 31
0.0
  0
LWPOLYLINE
  5
781
330
1F
100
AcDbEntity
  8
0
100
AcDbPolyline
 90
       19
 70
     0
 43
0.0
 10
56.4561035536
 20
28.10500459039998
 10
56.5349275744
 20
28.10206125919999
 10
56.61335097759999
 20
28.09227737439998
 10
56.690488792
 20
28.0757642912
 10
56.76548853759999
 20
28.05272901599998
 10
56.8378247232
 20
28.02334057439999
 10
56.9074498768
 20
27.98760134239999
 10
56.97374342879999
 20
27.94582631839999
 10
57.0358545552
 20
27.89857502239998
 10
57.093268768
 20
27.84627891519998
 10
57.1457448016
 20
27.78915293119997
 10
57.19307931839999
 20
27.72747322719997
 10
57.2348583312
 20
27.6617827024
 10
57.27055336959999
 20
27.59294048479999
 10
57.29989962719999
 20
27.52152441119998
 10
57.3229231248
 20
27.44755795519999
 10
57.33946473599999
 20
27.37156378239999
 10
57.3493297616
 20
27.29437095999999
 10
57.35241639839999
 20
27.21683218399998
  0
LINE
  5
784
330
1F
100
AcDbEntity
  8
0
100
AcDbLine
 10
0.25
 20
31.99999999999997
 30
0.0
 11
59.75000000000001
 21
31.99999999999999
 31
0.0
  0
LWPOLYLINE
  5
788
330
1F
100
AcDbEntity
  8
0
100
AcDbPolyline
 90
       24
 70
     0
 43
0.0
 10
49.99848084159999
 20
15.99999999999998
 10
50.0033290832
 20
16.13948579519999
 10
50.01791454879999
 20
16.27872693119998
 10
50.0422592496
 20
16.41701583359998
 10
50.0763295408
 20
16.55362916159999
 10
50.12003350079999
 20
16.68783838079998
 10
50.1732084528
 20
16.81889159039998
 10
50.23560362879999
 20
16.94600909439999
 10
50.30686884639999
 20
17.06840115039998
 10
50.38649630879999
 20
17.18521895199999
 10
50.473857384
 20
17.2956698688
 10
50.56825840799999
 20
17.39908856319997
 10
50.6689349184
 20
17.494909144
 10
50.77510705439999
 20
17.5827031312
 10
50.88603548639999
 20
17.66218978879997
 10
51.0009758528
 20
17.73316932799998
 10
51.119375096
 20
17.79561108319999
 10
51.240719752
 20
17.84951032799999
 10
51.3645976096
 20
17.89490134879998
 10
51.490676176
 20
17.93182364959998
 10
51.61881285119999
 20
17.96032587839998
 10
51.7504839376
 20
17.98058748639998
 10
51.88134343359999
 20
17.99200289439998
 10
52.0
 20
17.99508805919999
  0
LWPOLYLINE
  5
789
330
1F
100
AcDbEntity
  8
0
100
AcDbPolyline
 90
       20
 70
     0
 43
0.0
 10
57.78209507999999
 20
17.1788902784
 10
57.7753295216
 20
17.17117910719998
 10
57.76534786559999
 20
17.15231082559999
 10
57.7557526048
 20
17.12653463999999
 10
57.7465930672
 20
17.09410417119998
 10
57.737882016
 20
17.05517679039997
 10
57.72966445119999
 20
17.01006637439998
 10
57.72194677759999
 20
16.958922576
 10
57.7147624768
 20
16.90207780479998
 10
57.70812152159999
 20
16.83973048639999
 10
57.7020455696
 20
16.77219698879998
 10
57.69655381439999
 20
16.69982536319998
 10
57.6916563488
 20
16.62287680479998
 10
57.68737613759999
 20
16.54185212479999
 10
57.68372271359999
 20
16.45708130239999
 10
57.6807201072
 20
16.36932500479998
 10
57.67837420159999
 20
16.27903198719998
 10
57.6766967248
 20
16.18699298079998
 10
57.67568922399999
 20
16.09373352319998
 10
57.675353824
 20
15.99999999999998
  0
LWPOLYLINE
  5
78A
330
1F
100
AcDbEntity
  8
0
100
AcDbPolyline
 90
        3
 70
     0
 43
0.0
 10
57.78700328479999
 20
14.82572830079999
 10
57.77606041599999
 20
14.81543154719998
 10
57.7664264208
 20
14.81249999999998
  0
LINE
  5
78B
330
1F
100
AcDbEntity
  8
0
100
AcDbLine
 10
57.77605530879999
 20
17.18457154559997
 30
0.0
 11
57.78699816159999
 21
17.17427822879998
 31
0.0
  0
LINE
  5
78C
330
1F
100
AcDbEntity
  8
0
100
AcDbLine
 10
57.7753310896
 20
14.82881852639998
 30
0.0
 11
57.78209527199999
 21
14.82111007839999
 31
0.0
  0
LWPOLYLINE
  5
792
330
1F
100
AcDbEntity
  8
0
100
AcDbPolyline
 90
       22
 70
     0
 43
0.0
 10
54.03152418559999
 20
15.99999999999998
 10
54.02619100799999
 20
15.8559875632
 10
54.0099774864
 20
15.71112259999999
 10
53.982725992
 20
15.56673172479999
 10
53.9445056336
 20
15.42416459359999
 10
53.89560398559999
 20
15.28472068639999
 10
53.83631798879999
 20
15.14921697759998
 10
53.76677527999999
 20
15.01801867519999
 10
53.68713430879999
 20
14.89165393119999
 10
53.5977816752
 20
14.77097458079998
 10
53.4992104416
 20
14.65681844159999
 10
53.3919318656
 20
14.54990862079999
 10
53.2765758064
 20
14.45097484319998
 10
53.1538179296
 20
14.36066890559999
 10
53.0243374608
 20
14.27955068159998
 10
52.888901144
 20
14.20815239199998
 10
52.7483648784
 20
14.14695769439998
 10
52.60358340479999
 20
14.09635325599998
 10
52.45538087839999
 20
14.05663742239998
 10
52.30466978399999
 20
14.02805990399998
 10
52.15250540319999
 20
14.01079838239999
 10
52.0
 20
14.00491251359998
  0
LWPOLYLINE
  5
793
330
1F
100
AcDbEntity
  8
0
100
AcDbPolyline
 90
       19
 70
     0
 43
0.0
 10
57.78699816159999
 20
17.17427822879998
 10
57.7979632608
 20
17.15665801439997
 10
57.8088907968
 20
17.13179669759999
 10
57.81968293279999
 20
17.09989603999998
 10
57.8302825952
 20
17.06108351199999
 10
57.84058692159999
 20
17.01567521119998
 10
57.85053026719999
 20
16.96388668639998
 10
57.8600211456
 20
16.9060959952
 10
57.8689867968
 20
16.84263457919997
 10
57.87735221279999
 20
16.77389310559997
 10
57.88503950559999
 20
16.700363432
 10
57.89199357120001
 20
16.62239519999998
 10
57.8981434992
 20
16.5405870432
 10
57.9034439248
 20
16.45532765919999
 10
57.907833872
 20
16.36740543039998
 10
57.91128363519999
 20
16.27727102879999
 10
57.9137612544
 20
16.18565274399999
 10
57.9152534528
 20
16.09301097279999
 10
57.91575087839999
 20
15.99999999999998
  0
LWPOLYLINE
  5
794
330
1F
100
AcDbEntity
  8
0
100
AcDbPolyline
 90
       18
 70
     0
 43
0.0
 10
56.385574304
 20
15.99999999999998
 10
56.3840090992
 20
16.3234679712
 10
56.3792149168
 20
16.65183003039997
 10
56.37105186399999
 20
16.98475241919997
 10
56.359426896
 20
17.32099052959999
 10
56.3442161296
 20
17.66088485119997
 10
56.32522298079999
 20
18.00572113919998
 10
56.3023970144
 20
18.35392249759997
 10
56.2754893728
 20
18.707133248
 10
56.24437502719999
 20
19.064850136
 10
56.20882353919999
 20
19.42779253599998
 10
56.16904106719999
 20
19.79257682559999
 10
56.1251447472
 20
20.15768925759997
 10
56.07762017759999
 20
20.51941999039998
 10
56.02629811679999
 20
20.87957196959997
 10
55.97063081279999
 20
21.24184080959998
 10
55.91063532159999
 20
21.60560533599997
 10
55.84679492639999
 20
21.96782674239999
  0
LWPOLYLINE
  5
795
330
1F
100
AcDbEntity
  8
0
100
AcDbPolyline
 90
       18
 70
     0
 43
0.0
 10
55.84679492639999
 20
10.03217325759999
 10
55.91063528639999
 20
10.39439445919998
 10
55.97063075199999
 20
10.75815881439998
 10
56.0262980352
 20
11.12042748479998
 10
56.0776200768
 20
11.48057927519998
 10
56.1251446256
 20
11.84230977439999
 10
56.1690409264
 20
12.20742194239998
 10
56.2088233936
 20
12.57220604959999
 10
56.24437487359999
 20
12.93514821439998
 10
56.27548922239999
 20
13.29286490239999
 10
56.3023968736
 20
13.64607553759999
 10
56.3252228544
 20
13.99427675679998
 10
56.34421602079999
 20
14.33911295999999
 10
56.35942681919999
 20
14.67900755359998
 10
56.3710517984
 20
15.01524534399998
 10
56.37921486879999
 20
15.34816750079998
 10
56.3840090848
 20
15.67653051519998
 10
56.385574304
 20
15.99999999999998
  0
LWPOLYLINE
  5
796
330
1F
100
AcDbEntity
  8
0
100
AcDbPolyline
 90
        3
 70
     0
 43
0.0
 10
55.811998296
 20
9.843921987199987
 10
55.82953273599999
 20
9.938032993599986
 10
55.84679492639999
 20
10.03217325759999
  0
LWPOLYLINE
  5
797
330
1F
100
AcDbEntity
  8
0
100
AcDbPolyline
 90
        4
 70
     0
 43
0.0
 10
55.59704546719999
 20
8.738977996799984
 10
55.6705923184
 20
9.107574148799994
 10
55.7422002016
 20
9.475762363199986
 10
55.811998296
 20
9.843921987199987
  0
LINE
  5
798
330
1F
100
AcDbEntity
  8
0
100
AcDbLine
 10
55.5493320288
 20
8.504888667199988
 30
0.0
 11
55.59704546719999
 21
8.738977996799984
 31
0.0
  0
LWPOLYLINE
  5
799
330
1F
100
AcDbEntity
  8
0
100
AcDbPolyline
 90
        4
 70
     0
 43
0.0
 10
55.4265274304
 20
7.933056171199989
 10
55.46858606399999
 20
8.123843897599993
 10
55.50951348959999
 20
8.314435247999991
 10
55.5493320288
 20
8.504888667199988
  0
LINE
  5
79A
330
1F
100
AcDbEntity
  8
0
100
AcDbLine
 10
55.3974224624
 20
7.805466580799983
 30
0.0
 11
55.4265274304
 21
7.933056171199989
 31
0.0
  0
LINE
  5
79B
330
1F
100
AcDbEntity
  8
0
100
AcDbLine
 10
55.367542696
 20
7.677044646399988
 30
0.0
 11
55.3974224624
 21
7.805466580799983
 31
0.0
  0
LWPOLYLINE
  5
79C
330
1F
100
AcDbEntity
  8
0
100
AcDbPolyline
 90
       64
 70
     0
 43
0.0
 10
55.3675454512
 20
24.32295937119998
 10
55.35446024319999
 20
24.37228405439999
 10
55.34019570399999
 20
24.42199361759999
 10
55.32477201439999
 20
24.47192222399998
 10
55.30820016799999
 20
24.52196419679999
 10
55.29046271359999
 20
24.57211015839997
 10
55.2715305776
 20
24.62237610719999
 10
55.251354912
 20
24.6728153952
 10
55.22986089439999
 20
24.72352177919999
 10
55.207083744
 20
24.77432315039997
 10
55.18312267999999
 20
24.8249433408
 10
55.1580729696
 20
24.87516240159997
 10
55.1319623328
 20
24.92492291039998
 10
55.1047612288
 20
24.97427443039999
 10
55.0764580144
 20
25.02322303839998
 10
55.0471112496
 20
25.07165538079997
 10
55.0167897888
 20
25.11945791519998
 10
54.98546115679999
 20
25.16668421599997
 10
54.95308593439999
 20
25.21339263999998
 10
54.9195959936
 20
25.25966992959997
 10
54.8849131456
 20
25.30559702719999
 10
54.84903986879999
 20
25.35113717439999
 10
54.81210456639999
 20
25.39610360639998
 10
54.77416030879999
 20
25.44042047199998
 10
54.735218856
 20
25.4840650576
 10
54.6952903344
 20
25.52701629119998
 10
54.6543992064
 20
25.5692380528
 10
54.61260679199999
 20
25.61066020319999
 10
54.56995728479999
 20
25.6512357616
 10
54.5264787424
 20
25.69093614239998
 10
54.48220693279999
 20
25.72972754559999
 10
54.43718095679999
 20
25.76757579199998
 10
54.391432568
 20
25.80445508159998
 10
54.34491391999999
 20
25.84040079039997
 10
54.29755932799999
 20
25.87545791839998
 10
54.2493803344
 20
25.90961158239998
 10
54.20039490239999
 20
25.94284152959998
 10
54.1506509088
 20
25.97510887839997
 10
54.100194016
 20
26.00637894079998
 10
54.04907824
 20
26.0366154032
 10
53.99738039199999
 20
26.0657728112
 10
53.9451380304
 20
26.09383188159999
 10
53.8923825472
 20
26.12077765599998
 10
53.83915038559999
 20
26.14659311359998
 10
53.7854948624
 20
26.17125511999999
 10
53.73148397119999
 20
26.19473679359999
 10
53.67715495039999
 20
26.21702781279999
 10
53.6225018704
 20
26.23813471839998
 10
53.5675373424
 20
26.25805317119998
 10
53.5122702752
 20
26.27677873759999
 10
53.45669684159999
 20
26.29431759679998
 10
53.4007989072
 20
26.31067837119998
 10
53.3446139088
 20
26.32585127039997
 10
53.2882307104
 20
26.33981495039999
 10
53.2317113152
 20
26.35255928959999
 10
53.175098816
 20
26.364081248
 10
53.11842331519999
 20
26.374380496
 10
53.0617374432
 20
26.38345378559999
 10
53.00514939359999
 20
26.39129215199998
 10
52.94871429759999
 20
26.39789931999997
 10
52.89248760639999
 20
26.40328085919999
 10
52.83653566879999
 20
26.40744396319997
 10
52.78092474080001
 20
26.41039915199998
 10
52.7257205856
 20
26.41215944479999
  0
LINE
  5
79D
330
1F
100
AcDbEntity
  8
0
100
AcDbLine
 10
55.39741838079999
 20
24.19455113439998
 30
0.0
 11
55.367542696
 21
24.32295535359999
 31
0.0
  0
LINE
  5
79E
330
1F
100
AcDbEntity
  8
0
100
AcDbLine
 10
55.4265274304
 20
24.06694383039997
 30
0.0
 11
55.39741838079999
 21
24.19455113439998
 31
0.0
  0
LWPOLYLINE
  5
79F
330
1F
100
AcDbEntity
  8
0
100
AcDbPolyline
 90
        4
 70
     0
 43
0.0
 10
55.5493320288
 20
23.49511133439999
 10
55.5095132944
 20
23.68556568159998
 10
55.46858639039999
 20
23.87615459839998
 10
55.4265274304
 20
24.06694383039997
  0
LINE
  5
7A0
330
1F
100
AcDbEntity
  8
0
100
AcDbLine
 10
55.59704546719999
 20
23.26102200479998
 30
0.0
 11
55.5493320288
 21
23.49511133439999
 31
0.0
  0
LWPOLYLINE
  5
7A1
330
1F
100
AcDbEntity
  8
0
100
AcDbPolyline
 90
        3
 70
     0
 43
0.0
 10
55.74219889599999
 20
22.5242444384
 10
55.67059144319999
 20
22.89243029759999
 10
55.59704546719999
 20
23.26102200479998
  0
LINE
  5
7A2
330
1F
100
AcDbEntity
  8
0
100
AcDbLine
 10
55.8237179808
 20
22.09334163999999
 30
0.0
 11
55.74219889599999
 21
22.5242444384
 31
0.0
  0
LINE
  5
7A3
330
1F
100
AcDbEntity
  8
0
100
AcDbLine
 10
55.84679492639999
 20
21.96782674239999
 30
0.0
 11
55.8237179808
 21
22.09334163999999
 31
0.0
  0
LWPOLYLINE
  5
7A4
330
1F
100
AcDbEntity
  8
0
100
AcDbPolyline
 90
        7
 70
     0
 43
0.0
 10
57.35417050239999
 20
26.07389367519997
 10
57.35845914879999
 20
25.76906615039997
 10
57.37020471360001
 20
25.46467778719998
 10
57.38938458879999
 20
25.16078659199997
 10
57.4159883376
 20
24.85745257279999
 10
57.4500176432
 20
24.5547366576
 10
57.4914865584
 20
24.25269934719999
  0
LWPOLYLINE
  5
7A5
330
1F
100
AcDbEntity
  8
0
100
AcDbPolyline
 90
       19
 70
     0
 43
0.0
 10
57.675353824
 20
15.99999999999998
 10
57.67568922079999
 20
15.90626708159997
 10
57.67669667039999
 20
15.81301072799997
 10
57.67837419519999
 20
15.72096831039997
 10
57.6807200192
 20
15.63067794399999
 10
57.6837227632
 20
15.54291739679997
 10
57.6873761584
 20
15.45814743839998
 10
57.69165616319999
 20
15.37712640799999
 10
57.6965535504
 20
15.30017844479999
 10
57.70204494719999
 20
15.22781053119999
 10
57.70812118079999
 20
15.16027299359998
 10
57.7147617456
 20
15.09792850239999
 10
57.721946488
 20
15.04107952319999
 10
57.72966406079999
 20
14.98993598719999
 10
57.7378820592
 20
14.94482300159998
 10
57.74659339679999
 20
14.90589451519998
 10
57.75575307359999
 20
14.87346390399998
 10
57.7653490176
 20
14.84768654559999
 10
57.7753310896
 20
14.82881852639998
  0
LINE
  5
7A6
330
1F
100
AcDbEntity
  8
0
100
AcDbLine
 10
57.35241640639999
 20
27.21683219679998
 30
0.0
 11
57.35417050239999
 21
26.07389367519997
 31
0.0
  0
LINE
  5
7A8
330
1F
100
AcDbEntity
  8
0
100
AcDbLine
 10
57.7501657856
 20
27.2499988224
 30
0.0
 11
57.7501657856
 21
26.10389484639999
 31
0.0
  0
LINE
  5
7A9
330
1F
100
AcDbEntity
  8
0
100
AcDbLine
 10
57.7501657856
 20
5.896105155199986
 30
0.0
 11
57.7501657856
 21
4.750001191999995
 31
0.0
  0
LINE
  5
7AB
330
1F
100
AcDbEntity
  8
0
100
AcDbLine
 10
57.35241640639999
 20
4.783167804799983
 30
0.0
 11
57.35417050239999
 21
5.926106324799985
 31
0.0
  0
LWPOLYLINE
  5
7AC
330
1F
100
AcDbEntity
  8
0
100
AcDbPolyline
 90
       22
 70
     0
 43
0.0
 10
57.6443085968
 20
15.99999999999998
 10
57.64464409279999
 20
16.09373423679998
 10
57.645651872
 20
16.18699477439998
 10
57.64732979839999
 20
16.27903507519998
 10
57.6496762992
 20
16.36932944639998
 10
57.6526796176
 20
16.45708699679998
 10
57.6563338304
 20
16.5418586816
 10
57.66061485119999
 20
16.62288350559999
 10
57.6655131024
 20
16.69983145279998
 10
57.6710055888
 20
16.77220193279999
 10
57.6770822
 20
16.83973399839997
 10
57.68372372
 20
16.9020797552
 10
57.69090848479999
 20
16.95892301119998
 10
57.69862651999999
 20
17.01006549279999
 10
57.70684435359999
 20
17.05517492319999
 10
57.7155555904
 20
17.09410172959998
 10
57.7247152512
 20
17.12653205919998
 10
57.73431058559999
 20
17.1523085088
 10
57.74429229439999
 20
17.17117739039998
 10
57.75462538239999
 20
17.18295546719998
 10
57.76524036159999
 20
17.18745482079999
 10
57.76642645119999
 20
17.18749999999998
  0
LWPOLYLINE
  5
7AD
330
1F
100
AcDbEntity
  8
0
100
AcDbPolyline
 90
       19
 70
     0
 43
0.0
 10
57.91575087839999
 20
15.99999999999998
 10
57.91525352799999
 20
15.90699611839998
 10
57.91376145600001
 20
15.81435665919998
 10
57.91128419999999
 20
15.72274627199997
 10
57.90783472
 20
15.63261380159998
 10
57.90344544799999
 20
15.54469956799998
 10
57.89814549119999
 20
15.45944202079999
 10
57.89199583199999
 20
15.37763236479999
 10
57.88504214399999
 20
15.29966386559999
 10
57.877354904
 20
15.22613074079998
 10
57.86899020479999
 20
15.15739140959999
 10
57.8600243472
 20
15.09392503199998
 10
57.85053430399999
 20
15.03613606879998
 10
57.8405908304
 20
14.98434354719999
 10
57.83028710399999
 20
14.93893465279998
 10
57.8196874112
 20
14.90011875679999
 10
57.80889552159999
 20
14.86821564959998
 10
57.79796834879999
 20
14.84335185919999
 10
57.78700328479999
 20
14.82572830079999
  0
LWPOLYLINE
  5
7AE
330
1F
100
AcDbEntity
  8
0
100
AcDbPolyline
 90
        7
 70
     0
 43
0.0
 10
57.35417050239999
 20
5.926106324799985
 10
57.35845914879999
 20
6.230933851199988
 10
57.37020471360001
 20
6.535322214399993
 10
57.38938458879999
 20
6.839213409599988
 10
57.4159883376
 20
7.142547428799982
 10
57.4500176432
 20
7.445263342399993
 10
57.67863973439999
 20
9.114459244799984
  0
LWPOLYLINE
  5
7AF
330
1F
100
AcDbEntity
  8
0
100
AcDbPolyline
 90
        6
 70
     0
 43
0.0
 10
57.67863973439999
 20
9.114459244799984
 10
57.83201889599999
 20
10.48659110719999
 10
57.95144617919999
 20
11.86247285279999
 10
58.03678685119999
 20
13.24084241119998
 10
58.08798348959999
 20
14.62043151039999
 10
58.1050411984
 20
15.99999999999998
  0
LWPOLYLINE
  5
7B0
330
1F
100
AcDbEntity
  8
0
100
AcDbPolyline
 90
        6
 70
     0
 43
0.0
 10
57.4914865584
 20
24.25269934719999
 10
57.7120214752
 20
22.61149296959997
 10
57.8838722
 20
20.96344161759999
 10
58.0067468992
 20
19.3107187952
 10
58.08047655839999
 20
17.65550626879997
 10
58.1050411984
 20
15.99999999999998
  0
LINE
  5
7B5
330
1F
100
AcDbEntity
  8
0
100
AcDbLine
 10
60.0
 20
0.2499999999999822
 30
0.0
 11
60.00000000000001
 21
31.74999999999999
 31
0.0
  0
ARC
  5
8DB
330
1F
100
AcDbEntity
  8
0
100
AcDbCircle
 10
19.60424360479999
 20
15.99999999999998
 30
0.0
 40
16.6041161424
100
AcDbArc
 50
154.3381604699999
 51
205.6618395294
  0
ARC
  5
8DC
330
1F
100
AcDbEntity
  8
0
100
AcDbCircle
 10
-1.114593519999999
 20
6.045680993599983
 30
0.0
 40
6.381937860799999
100
AcDbArc
 50
0.0
 51
25.6618531992
  0
ARC
  5
8DD
330
1F
100
AcDbEntity
  8
0
100
AcDbCircle
 10
6.517344342399994
 20
4.749999999999982
 30
0.0
 40
1.25
100
AcDbArc
 50
179.9999889624
 51
270.0000704619999
  0
ARC
  5
8DE
330
1F
100
AcDbEntity
  8
0
100
AcDbCircle
 10
56.5001657856
 20
4.749999999999982
 30
0.0
 40
1.25
100
AcDbArc
 50
269.9999855039
 51
0.0000546224
  0
ARC
  5
8DF
330
1F
100
AcDbEntity
  8
0
100
AcDbCircle
 10
69.75016578560001
 20
5.896107924799988
 30
0.0
 40
12.0
100
AcDbArc
 50
171.5095785554
 51
180.0
  0
ARC
  5
8E0
330
1F
100
AcDbEntity
  8
0
100
AcDbCircle
 10
2.066075737599987
 20
15.99999999999998
 30
0.0
 40
56.434090048
100
AcDbArc
 50
351.5095738041
 51
8.490426241399999
  0
ARC
  5
8E1
330
1F
100
AcDbEntity
  8
0
100
AcDbCircle
 10
69.75016578560001
 20
26.10389207519999
 30
0.0
 40
12.0
100
AcDbArc
 50
179.9999867744
 51
188.4904212303999
  0
ARC
  5
8E2
330
1F
100
AcDbEntity
  8
0
100
AcDbCircle
 10
56.5001657856
 20
27.24999999999998
 30
0.0
 40
1.25
100
AcDbArc
 50
359.9999459969
 51
90.00001454179999
  0
ARC
  5
8E3
330
1F
100
AcDbEntity
  8
0
100
AcDbCircle
 10
6.517344342399994
 20
27.24999999999998
 30
0.0
 40
1.25
100
AcDbArc
 50
89.99993109280001
 51
180.0000110672
  0
ARC
  5
8E4
330
1F
100
AcDbEntity
  8
0
100
AcDbCircle
 10
-1.114593519999999
 20
25.95431900799998
 30
0.0
 40
6.381937860799999
100
AcDbArc
 50
334.338111237
 51
0.0000553934
  0
CIRCLE
  5
8E5
330
1F
100
AcDbEntity
  8
0
100
AcDbCircle
 10
52.0
 20
15.99999999999998
 30
0.0
 40
1.2714466064
  0
ARC
  5
901
330
1F
100
AcDbEntity
  8
0
100
AcDbCircle
 10
0.25
 20
0.2499999999999964
 30
0.0
 40
0.25
100
AcDbArc
 50
180.0
 51
270.0
  0
ARC
  5
903
330
1F
100
AcDbEntity
  8
0
100
AcDbCircle
 10
59.75
 20
0.2499999999999822
 30
0.0
 40
0.25
100
AcDbArc
 50
270.0
 51
0.0
  0
ARC
  5
904
330
1F
100
AcDbEntity
  8
0
100
AcDbCircle
 10
59.75000000000001
 20
31.74999999999999
 30
0.0
 40
0.25
100
AcDbArc
 50
0.0
 51
90.0
  0
ARC
  5
905
330
1F
100
AcDbEntity
  8
0
100
AcDbCircle
 10
0.25
 20
31.74999999999997
 30
0.0
 40
0.25
100
AcDbArc
 50
90.00000000000003
 51
180.0
  0
LINE
  5
906
330
1F
100
AcDbEntity
  8
0
100
AcDbLine
 10
0.3048379855999883
 20
0.3048379855999705
 30
0.0
 11
59.6951620144
 21
0.3048379855999705
 31
0.0
  0
LINE
  5
907
330
1F
100
AcDbEntity
  8
0
100
AcDbLine
 10
0.3048379855999883
 20
31.69516201439998
 30
0.0
 11
0.3048379855999883
 21
0.3048379855999705
 31
0.0
  0
LINE
  5
908
330
1F
100
AcDbEntity
  8
0
100
AcDbLine
 10
0.3048379855999883
 20
31.69516201439998
 30
0.0
 11
59.69516201440002
 21
31.6951620144
 31
0.0
  0
LINE
  5
909
330
1F
100
AcDbEntity
  8
0
100
AcDbLine
 10
59.6951620144
 20
0.3048379855999705
 30
0.0
 11
59.69516201440002
 21
31.6951620144
 31
0.0
  0
LINE
  5
91D
330
1F
100
AcDbEntity
  8
CENTER
  6
CENTERX2
100
AcDbLine
 10
62.04666560190402
 20
15.99999999843737
 30
0.0
 11
49.32264860248858
 21
16.0000000015626
 31
0.0
  0
LINE
  5
91E
330
1F
100
AcDbEntity
  8
CENTER
  6
CENTERX2
100
AcDbLine
 10
51.99999999843793
 20
13.32357520129627
 30
0.0
 11
52.00000000156316
 21
18.67827799631912
 31
0.0
  0
LINE
  5
929
330
1F
100
AcDbEntity
  8
0
100
AcDbLine
 10
52.7257205856
 20
26.41215944479999
 30
0.0
 11
18.3171154208
 21
26.46625098559998
 31
0.0
  0
LINE
  5
92A
330
1F
100
AcDbEntity
  8
0
100
AcDbLine
 10
52.7257205856
 20
5.587840555199985
 30
0.0
 11
18.31721911999999
 21
5.533777452799991
 31
0.0
  0
LINE
  5
92C
330
1F
100
AcDbEntity
  8
0
100
AcDbLine
 10
6.742227230399997
 20
3.89500838719999
 30
0.0
 11
56.4561035536
 21
3.894995409599982
 31
0.0
  0
LINE
  5
92D
330
1F
100
AcDbEntity
  8
0
100
AcDbLine
 10
6.742227230399997
 20
28.10499161439999
 30
0.0
 11
56.4561035536
 21
28.10500459039998
 31
0.0
  0
LINE
  5
92E
330
1F
100
AcDbEntity
  8
0
100
AcDbLine
 10
56.50016546834715
 20
28.49999999999994
 30
0.0
 11
6.517345845721891
 21
28.49999999999907
 31
0.0
  0
ENDSEC
  0
SECTION
  2
OBJECTS
  0
DICTIONARY
  5
C
330
0
100
AcDbDictionary
  3
ACAD_GROUP
350
D
  3
ACAD_LAYOUT
350
1A
  3
ACAD_MLINESTYLE
350
17
  3
ACAD_PLOTSETTINGS
350
19
  3
ACAD_PLOTSTYLENAME
350
E
  3
ACDBHEADERROUNDTRIPXREC
350
9C5
  0
DICTIONARY
  5
9E8
330
1F
100
AcDbDictionary
280
     1
  3
ACAD_LAYOUTSELFREF
360
9E9
  0
DICTIONARY
  5
9E6
330
1B
100
AcDbDictionary
280
     1
  3
ACAD_LAYOUTSELFREF
360
9E7
  0
DICTIONARY
  5
D
102
{ACAD_REACTORS
330
C
102
}
330
C
100
AcDbDictionary
  0
DICTIONARY
  5
1A
102
{ACAD_REACTORS
330
C
102
}
330
C
100
AcDbDictionary
  0
DICTIONARY
  5
17
102
{ACAD_REACTORS
330
C
102
}
330
C
100
AcDbDictionary
  3
STANDARD
350
18
  0
DICTIONARY
  5
19
102
{ACAD_REACTORS
330
C
102
}
330
C
100
AcDbDictionary
  0
ACDBDICTIONARYWDFLT
  5
E
102
{ACAD_REACTORS
330
C
102
}
330
C
100
AcDbDictionary
281
     1
  3
Normal
350
F
100
AcDbDictionaryWithDefault
340
F
  0
DICTIONARY
  5
9C5
102
{ACAD_REACTORS
330
C
102
}
330
C
100
AcDbDictionary
  3
CEPSNTYPE
350
9CF
  3
DIMSTYLEDATA
350
9D3
  3
FINGERPRINTGUID
350
9D0
  3
HYPERLINKBASE
350
9C8
  3
INSUNITS
350
9CE
  3
LAYOUTDICT
350
9CA
  3
LWETCUNION
350
9CD
  3
PLOTSETDICT
350
9CB
  3
PLOTSTYLNAMDICT
350
9CC
  3
PSVPSCALE
350
9D2
  3
PUCSBASE
350
9D6
  3
PUCSORGBACK
350
9DC
  3
PUCSORGBOTTOM
350
9D8
  3
PUCSORGFRONT
350
9DB
  3
PUCSORGLEFT
350
9D9
  3
PUCSORGRIGHT
350
9DA
  3
PUCSORGTOP
350
9D7
  3
PUCSORTHOREF
350
9D4
  3
PUCSORTHOVIEW
350
9D5
  3
STYLESHEET
350
9C9
  3
TSTACKALIGN
350
9C6
  3
TSTACKSIZE
350
9C7
  3
UCSBASE
350
9DF
  3
UCSORGBACK
350
9E5
  3
UCSORGBOTTOM
350
9E1
  3
UCSORGFRONT
350
9E4
  3
UCSORGLEFT
350
9E2
  3
UCSORGRIGHT
350
9E3
  3
UCSORGTOP
350
9E0
  3
UCSORTHOREF
350
9DD
  3
UCSORTHOVIEW
350
9DE
  3
VERSIONGUID
350
9D1
  0
XRECORD
  5
9E9
102
{ACAD_REACTORS
330
9E8
102
}
330
9E8
100
AcDbXrecord
340
1F
  0
XRECORD
  5
9E7
102
{ACAD_REACTORS
330
9E6
102
}
330
9E6
100
AcDbXrecord
340
1B
  0
MLINESTYLE
  5
18
102
{ACAD_REACTORS
330
17
102
}
330
17
100
AcDbMlineStyle
  2
STANDARD
 70
     0
  3

 62
   256
 51
90.0
 52
90.0
 71
     2
 49
0.5
 62
   256
  6
BYLAYER
 49
-0.5
 62
   256
  6
BYLAYER
  0
ACDBPLACEHOLDER
  5
F
102
{ACAD_REACTORS
330
E
102
}
330
0
100
AcDbPlaceHolder
280
     0
  0
XRECORD
  5
9CF
102
{ACAD_REACTORS
330
9C5
102
}
330
9C5
100
AcDbXrecord
 90
        0
  0
XRECORD
  5
9D3
102
{ACAD_REACTORS
330
9C5
102
}
330
9C5
100
AcDbXrecord
1000
DSTYLE
1002
{
1070
   278
 70
     0
1070
   342
340
217
1070
   371
 70
     0
1070
   372
 70
     0
1002
}
  0
XRECORD
  5
9D0
102
{ACAD_REACTORS
330
9C5
102
}
330
9C5
100
AcDbXrecord
  1

  0
XRECORD
  5
9C8
102
{ACAD_REACTORS
330
9C5
102
}
330
9C5
100
AcDbXrecord
  1

  0
XRECORD
  5
9CE
102
{ACAD_REACTORS
330
9C5
102
}
330
9C5
100
AcDbXrecord
 90
        1
  0
XRECORD
  5
9CA
102
{ACAD_REACTORS
330
9C5
102
}
330
9C5
100
AcDbXrecord
340
1A
  0
XRECORD
  5
9CD
102
{ACAD_REACTORS
330
9C5
102
}
330
9C5
100
AcDbXrecord
 90
    10781
  0
XRECORD
  5
9CB
102
{ACAD_REACTORS
330
9C5
102
}
330
9C5
100
AcDbXrecord
340
19
  0
XRECORD
  5
9CC
102
{ACAD_REACTORS
330
9C5
102
}
330
9C5
100
AcDbXrecord
340
E
  0
XRECORD
  5
9D2
102
{ACAD_REACTORS
330
9C5
102
}
330
9C5
100
AcDbXrecord
 40
0.0
  0
XRECORD
  5
9D6
102
{ACAD_REACTORS
330
9C5
102
}
330
9C5
100
AcDbXrecord
340
0
  0
XRECORD
  5
9DC
102
{ACAD_REACTORS
330
9C5
102
}
330
9C5
100
AcDbXrecord
 10
0.0
 20
0.0
 30
0.0
  0
XRECORD
  5
9D8
102
{ACAD_REACTORS
330
9C5
102
}
330
9C5
100
AcDbXrecord
 10
0.0
 20
0.0
 30
0.0
  0
XRECORD
  5
9DB
102
{ACAD_REACTORS
330
9C5
102
}
330
9C5
100
AcDbXrecord
 10
0.0
 20
0.0
 30
0.0
  0
XRECORD
  5
9D9
102
{ACAD_REACTORS
330
9C5
102
}
330
9C5
100
AcDbXrecord
 10
0.0
 20
0.0
 30
0.0
  0
XRECORD
  5
9DA
102
{ACAD_REACTORS
330
9C5
102
}
330
9C5
100
AcDbXrecord
 10
0.0
 20
0.0
 30
0.0
  0
XRECORD
  5
9D7
102
{ACAD_REACTORS
330
9C5
102
}
330
9C5
100
AcDbXrecord
 10
0.0
 20
0.0
 30
0.0
  0
XRECORD
  5
9D4
102
{ACAD_REACTORS
330
9C5
102
}
330
9C5
100
AcDbXrecord
340
0
  0
XRECORD
  5
9D5
102
{ACAD_REACTORS
330
9C5
102
}
330
9C5
100
AcDbXrecord
 70
     0
  0
XRECORD
  5
9C9
102
{ACAD_REACTORS
330
9C5
102
}
330
9C5
100
AcDbXrecord
  1

  0
XRECORD
  5
9C6
102
{ACAD_REACTORS
330
9C5
102
}
330
9C5
100
AcDbXrecord
 90
        1
  0
XRECORD
  5
9C7
102
{ACAD_REACTORS
330
9C5
102
}
330
9C5
100
AcDbXrecord
 90
       70
  0
XRECORD
  5
9DF
102
{ACAD_REACTORS
330
9C5
102
}
330
9C5
100
AcDbXrecord
340
0
  0
XRECORD
  5
9E5
102
{ACAD_REACTORS
330
9C5
102
}
330
9C5
100
AcDbXrecord
 10
0.0
 20
0.0
 30
0.0
  0
XRECORD
  5
9E1
102
{ACAD_REACTORS
330
9C5
102
}
330
9C5
100
AcDbXrecord
 10
0.0
 20
0.0
 30
0.0
  0
XRECORD
  5
9E4
102
{ACAD_REACTORS
330
9C5
102
}
330
9C5
100
AcDbXrecord
 10
0.0
 20
0.0
 30
0.0
  0
XRECORD
  5
9E2
102
{ACAD_REACTORS
330
9C5
102
}
330
9C5
100
AcDbXrecord
 10
0.0
 20
0.0
 30
0.0
  0
XRECORD
  5
9E3
102
{ACAD_REACTORS
330
9C5
102
}
330
9C5
100
AcDbXrecord
 10
0.0
 20
0.0
 30
0.0
  0
XRECORD
  5
9E0
102
{ACAD_REACTORS
330
9C5
102
}
330
9C5
100
AcDbXrecord
 10
0.0
 20
0.0
 30
0.0
  0
XRECORD
  5
9DD
102
{ACAD_REACTORS
330
9C5
102
}
330
9C5
100
AcDbXrecord
340
0
  0
XRECORD
  5
9DE
102
{ACAD_REACTORS
330
9C5
102
}
330
9C5
100
AcDbXrecord
 70
     0
  0
XRECORD
  5
9D1
102
{ACAD_REACTORS
330
9C5
102
}
330
9C5
100
AcDbXrecord
  1
{B3FA3C17-2045-4422-A7CF-CAF657366080}
  0
ENDSEC
  0
EOF
