  0
SECTION
  2
HEADER
  9
$ACADVER
  1
AC1015
  9
$ACADMAINTVER
 70
    13
  9
$DWGCODEPAGE
  3
ANSI_1252
  9
$INSBASE
 10
-125.092567720323
 20
34.73869848653773
 30
0.0
  9
$EXTMIN
 10
-173.8510457122852
 20
31.10546113990997
 30
-0.0000000000000077
  9
$EXTMAX
 10
-113.828766077484
 20
54.90288135308564
 30
0.0000000000000076
  9
$LIMMIN
 10
0.0
 20
0.0
  9
$LIMMAX
 10
17.0
 20
11.0
  9
$ORTHOMODE
 70
     1
  9
$REGENMODE
 70
     1
  9
$FILLMODE
 70
     1
  9
$QTEXTMODE
 70
     0
  9
$MIRRTEXT
 70
     1
  9
$LTSCALE
 40
12.0
  9
$ATTMODE
 70
     1
  9
$TEXTSIZE
 40
0.2
  9
$TRACEWID
 40
0.05
  9
$TEXTSTYLE
  7
STANDARD
  9
$CLAYER
  8
0
  9
$CELTYPE
  6
ByLayer
  9
$CECOLOR
 62
   256
  9
$CELTSCALE
 40
1.0
  9
$DISPSILH
 70
     0
  9
$DIMSCALE
 40
16.0
  9
$DIMASZ
 40
0.1875
  9
$DIMEXO
 40
0.10625
  9
$DIMDLI
 40
0.646
  9
$DIMRND
 40
0.0
  9
$DIMDLE
 40
0.0
  9
$DIMEXE
 40
0.306
  9
$DIMTP
 40
0.0
  9
$DIMTM
 40
0.0
  9
$DIMTXT
 40
0.125
  9
$DIMCEN
 40
0.153
  9
$DIMTSZ
 40
0.0
  9
$DIMTOL
 70
     0
  9
$DIMLIM
 70
     0
  9
$DIMTIH
 70
     1
  9
$DIMTOH
 70
     1
  9
$DIMSE1
 70
     0
  9
$DIMSE2
 70
     0
  9
$DIMTAD
 70
     0
  9
$DIMZIN
 70
     0
  9
$DIMBLK
  1
_FILLED
  9
$DIMASO
 70
     1
  9
$DIMSHO
 70
     1
  9
$DIMPOST
  1

  9
$DIMAPOST
  1

  9
$DIMALT
 70
     0
  9
$DIMALTD
 70
     2
  9
$DIMALTF
 40
25.4
  9
$DIMLFAC
 40
1.0
  9
$DIMTOFL
 70
     0
  9
$DIMTVP
 40
0.0
  9
$DIMTIX
 70
     0
  9
$DIMSOXD
 70
     0
  9
$DIMSAH
 70
     1
  9
$DIMBLK1
  1
_FILLED
  9
$DIMBLK2
  1
_FILLED
  9
$DIMSTYLE
  2
STANDARD
  9
$DIMCLRD
 70
     0
  9
$DIMCLRE
 70
     0
  9
$DIMCLRT
 70
     0
  9
$DIMTFAC
 40
1.0
  9
$DIMGAP
 40
0.09
  9
$DIMJUST
 70
     0
  9
$DIMSD1
 70
     0
  9
$DIMSD2
 70
     0
  9
$DIMTOLJ
 70
     1
  9
$DIMTZIN
 70
     0
  9
$DIMALTZ
 70
     0
  9
$DIMALTTZ
 70
     0
  9
$DIMUPT
 70
     0
  9
$DIMDEC
 70
     4
  9
$DIMTDEC
 70
     4
  9
$DIMALTU
 70
     2
  9
$DIMALTTD
 70
     2
  9
$DIMTXSTY
  7
STANDARD
  9
$DIMAUNIT
 70
     0
  9
$DIMADEC
 70
     0
  9
$DIMALTRND
 40
0.0
  9
$DIMAZIN
 70
     0
  9
$DIMDSEP
 70
    46
  9
$DIMATFIT
 70
     3
  9
$DIMFRAC
 70
     0
  9
$DIMLDRBLK
  1
_FILLED
  9
$DIMLUNIT
 70
     2
  9
$DIMLWD
 70
    -2
  9
$DIMLWE
 70
    -2
  9
$DIMTMOVE
 70
     0
  9
$LUNITS
 70
     2
  9
$LUPREC
 70
     4
  9
$SKETCHINC
 40
0.1
  9
$FILLETRAD
 40
0.0
  9
$AUNITS
 70
     0
  9
$AUPREC
 70
     0
  9
$MENU
  1
acad
  9
$ELEVATION
 40
0.0
  9
$PELEVATION
 40
0.0
  9
$THICKNESS
 40
0.0
  9
$LIMCHECK
 70
     0
  9
$CHAMFERA
 40
0.0
  9
$CHAMFERB
 40
0.0
  9
$CHAMFERC
 40
0.0
  9
$CHAMFERD
 40
0.0
  9
$SKPOLY
 70
     0
  9
$TDCREATE
 40
2453683.493156655
  9
$TDUCREATE
 40
2453683.701489988
  9
$TDUPDATE
 40
2453689.474577720
  9
$TDUUPDATE
 40
2453689.682911053
  9
$TDINDWG
 40
0.0142627778
  9
$TDUSRTIMER
 40
0.0142627778
  9
$USRTIMER
 70
     1
  9
$ANGBASE
 50
0.0
  9
$ANGDIR
 70
     0
  9
$PDMODE
 70
     3
  9
$PDSIZE
 40
0.3125
  9
$PLINEWID
 40
0.0
  9
$SPLFRAME
 70
     0
  9
$SPLINETYPE
 70
     6
  9
$SPLINESEGS
 70
     8
  9
$HANDSEED
  5
E2
  9
$SURFTAB1
 70
     6
  9
$SURFTAB2
 70
     6
  9
$SURFTYPE
 70
     6
  9
$SURFU
 70
     6
  9
$SURFV
 70
     6
  9
$UCSBASE
  2

  9
$UCSNAME
  2

  9
$UCSORG
 10
0.0
 20
0.0
 30
0.0
  9
$UCSXDIR
 10
1.0
 20
0.0
 30
0.0
  9
$UCSYDIR
 10
0.0
 20
1.0
 30
0.0
  9
$UCSORTHOREF
  2

  9
$UCSORTHOVIEW
 70
     0
  9
$UCSORGTOP
 10
0.0
 20
0.0
 30
0.0
  9
$UCSORGBOTTOM
 10
0.0
 20
0.0
 30
0.0
  9
$UCSORGLEFT
 10
0.0
 20
0.0
 30
0.0
  9
$UCSORGRIGHT
 10
0.0
 20
0.0
 30
0.0
  9
$UCSORGFRONT
 10
0.0
 20
0.0
 30
0.0
  9
$UCSORGBACK
 10
0.0
 20
0.0
 30
0.0
  9
$PUCSBASE
  2

  9
$PUCSNAME
  2

  9
$PUCSORG
 10
0.0
 20
0.0
 30
0.0
  9
$PUCSXDIR
 10
1.0
 20
0.0
 30
0.0
  9
$PUCSYDIR
 10
0.0
 20
1.0
 30
0.0
  9
$PUCSORTHOREF
  2

  9
$PUCSORTHOVIEW
 70
     0
  9
$PUCSORGTOP
 10
0.0
 20
0.0
 30
0.0
  9
$PUCSORGBOTTOM
 10
0.0
 20
0.0
 30
0.0
  9
$PUCSORGLEFT
 10
0.0
 20
0.0
 30
0.0
  9
$PUCSORGRIGHT
 10
0.0
 20
0.0
 30
0.0
  9
$PUCSORGFRONT
 10
0.0
 20
0.0
 30
0.0
  9
$PUCSORGBACK
 10
0.0
 20
0.0
 30
0.0
  9
$USERI1
 70
     0
  9
$USERI2
 70
     0
  9
$USERI3
 70
     0
  9
$USERI4
 70
     0
  9
$USERI5
 70
     0
  9
$USERR1
 40
0.0
  9
$USERR2
 40
0.0
  9
$USERR3
 40
0.0
  9
$USERR4
 40
0.0
  9
$USERR5
 40
0.0
  9
$WORLDVIEW
 70
     1
  9
$SHADEDGE
 70
     3
  9
$SHADEDIF
 70
    70
  9
$TILEMODE
 70
     1
  9
$MAXACTVP
 70
    16
  9
$PINSBASE
 10
0.0
 20
0.0
 30
0.0
  9
$PLIMCHECK
 70
     0
  9
$PEXTMIN
 10
1.000000000000000E+20
 20
1.000000000000000E+20
 30
1.000000000000000E+20
  9
$PEXTMAX
 10
-1.000000000000000E+20
 20
-1.000000000000000E+20
 30
-1.000000000000000E+20
  9
$PLIMMIN
 10
0.0
 20
0.0
  9
$PLIMMAX
 10
12.0
 20
9.0
  9
$UNITMODE
 70
     0
  9
$VISRETAIN
 70
     0
  9
$PLINEGEN
 70
     1
  9
$PSLTSCALE
 70
     0
  9
$TREEDEPTH
 70
  3020
  9
$CMLSTYLE
  2
Standard
  9
$CMLJUST
 70
     0
  9
$CMLSCALE
 40
1.0
  9
$PROXYGRAPHICS
 70
     0
  9
$MEASUREMENT
 70
     0
  9
$CELWEIGHT
370
    -1
  9
$ENDCAPS
280
     0
  9
$JOINSTYLE
280
     0
  9
$LWDISPLAY
290
     0
  9
$INSUNITS
 70
     0
  9
$HYPERLINKBASE
  1

  9
$STYLESHEET
  1

  9
$XEDIT
290
     1
  9
$CEPSNTYPE
380
     0
  9
$PSTYLEMODE
290
     1
  9
$FINGERPRINTGUID
  2
{AAF8F700-442D-46BA-AFD8-B4DD26D5BD54}
  9
$VERSIONGUID
  2
{928CD8BA-4901-45E4-88C6-E9DA8D103E4D}
  9
$EXTNAMES
290
     1
  9
$PSVPSCALE
 40
0.0
  9
$OLESTARTUP
290
     0
  0
ENDSEC
  0
SECTION
  2
CLASSES
  0
CLASS
  1
ACDBDICTIONARYWDFLT
  2
AcDbDictionaryWithDefault
  3
AutoCAD 2000
 90
        0
280
     1
281
     0
  0
CLASS
  1
ACDBPLACEHOLDER
  2
AcDbPlaceHolder
  3
AutoCAD 2000
 90
        0
280
     1
281
     0
  0
CLASS
  1
LAYOUT
  2
AcDbLayout
  3
AutoCAD 2000
 90
        0
280
     1
281
     0
  0
CLASS
  1
LWPOLYLINE
  2
AcDbPolyline
  3
AutoCAD 2000
 90
    32768
280
     0
281
     1
  0
CLASS
  1
IMAGE
  2
AcDbRasterImage
  3
ISM
 90
    32895
280
     1
281
     1
  0
CLASS
  1
OLE2FRAME
  2
AcDbOle2Frame
  3
AutoCAD 2000
 90
    32768
280
     0
281
     1
  0
CLASS
  1
HATCH
  2
AcDbHatch
  3
AutoCAD 2000
 90
    32768
280
     0
281
     1
  0
CLASS
  1
DICTIONARYVAR
  2
AcDbDictionaryVar
  3
AutoCAD 2000
 90
        0
280
     0
281
     0
  0
CLASS
  1
RASTERVARIABLES
  2
AcDbRasterVariables
  3
ISM
 90
    32768
280
     1
281
     0
  0
CLASS
  1
IMAGEDEF
  2
AcDbRasterImageDef
  3
ISM
 90
    32768
280
     1
281
     0
  0
CLASS
  1
IMAGEDEF_REACTOR
  2
AcDbRasterImageDefReactor
  3
ISM
 90
    32769
280
     1
281
     0
  0
CLASS
  1
IDBUFFER
  2
AcDbIdBuffer
  3
AutoCAD 2000
 90
    32768
280
     0
281
     0
  0
CLASS
  1
SPATIAL_FILTER
  2
AcDbSpatialFilter
  3
AutoCAD 2000
 90
    32768
280
     0
281
     0
  0
CLASS
  1
XRECORD
  2
AcDbXrecord
  3
AutoCAD 2000
 90
    32768
280
     0
281
     0
  0
CLASS
  1
SORTENTSTABLE
  2
AcDbSortentsTable
  3
AutoCAD 2000
 90
    32768
280
     0
281
     0
  0
CLASS
  1
LAYER_INDEX
  2
AcDbLayerIndex
  3
AutoCAD 2000
 90
    32768
280
     0
281
     0
  0
CLASS
  1
SPATIAL_INDEX
  2
AcDbSpatialIndex
  3
AutoCAD 2000
 90
    32768
280
     0
281
     0
  0
CLASS
  1
OBJECT_PTR
  2
CAseDLPNTableRecord
  3
ASE-LPNTableRecord
 90
    32769
280
     0
281
     0
  0
CLASS
  1
PLOTSETTINGS
  2
AcDbPlotSettings
  3
AutoCAD 2000
 90
    32768
280
     1
281
     0
  0
CLASS
  1
VBA_PROJECT
  2
AcDbVbaProject
  3
acadvba
 90
    32768
280
     1
281
     0
  0
CLASS
  1
WIPEOUT
  2
AcDbWipeout
  3
WipeOut|AutoCAD Express Tool|expresstools@autodesk.com
 90
    32895
280
     1
281
     1
  0
CLASS
  1
WIPEOUTVARIABLES
  2
AcDbWipeoutVariables
  3
WipeOut|AutoCAD Express Tool|expresstools@autodesk.com
 90
    32768
280
     1
281
     0
  0
CLASS
  1
RTEXT
  2
RText
  3
RText|AutoCAD Express Tool|expresstools@autodesk.com
 90
    32768
280
     1
281
     1
  0
CLASS
  1
ARCALIGNEDTEXT
  2
AcDbArcAlignedText
  3
ATEXT|AutoCAD Express Tool|expresstools@autodesk.com
 90
    32768
280
     1
281
     1
  0
CLASS
  1
LONG_TRANSACTION
  2
AcDbLongTransaction
  3
AutoCAD 2000
 90
    32768
280
     1
281
     0
  0
CLASS
  1
LWPOLYLINE
  2
AcDbPolyline
  3
AutoCAD 2000
 90
    32768
280
     0
281
     1
  0
CLASS
  1
HATCH
  2
AcDbHatch
  3
AutoCAD 2000
 90
    32768
280
     0
281
     1
  0
CLASS
  1
XRECORD
  2
AcDbXrecord
  3
AutoCAD 2000
 90
    32768
280
     0
281
     0
  0
CLASS
  1
LONG_TRANSACTION
  2
AcDbLongTransaction
  3
AutoCAD 2000
 90
    32768
280
     0
281
     0
  0
CLASS
  1
LWPOLYLINE
  2
AcDbPolyline
  3
AutoCAD 2000
 90
    32768
280
     0
281
     1
  0
CLASS
  1
HATCH
  2
AcDbHatch
  3
AutoCAD 2000
 90
    32768
280
     0
281
     1
  0
CLASS
  1
XRECORD
  2
AcDbXrecord
  3
AutoCAD 2000
 90
    32768
280
     0
281
     0
  0
ENDSEC
  0
SECTION
  2
TABLES
  0
TABLE
  2
VPORT
  5
1A
330
0
100
AcDbSymbolTable
 70
     3
  0
VPORT
  5
E1
330
1A
100
AcDbSymbolTableRecord
100
AcDbViewportTableRecord
  2
*Active
 70
     0
 10
0.0
 20
0.0
 11
1.0
 21
1.0
 12
-143.8399060070728
 22
43.00417119375073
 13
0.0
 23
0.0
 14
1.0
 24
1.0
 15
0.0
 25
0.0
 16
0.0
 26
0.0
 36
1.0
 17
0.0
 27
0.0
 37
0.0
 40
37.86118224279833
 41
1.786792452830188
 42
50.0
 43
0.0
 44
0.0
 50
0.0
 51
0.0
 71
     0
 72
   100
 73
     1
 74
     1
 75
     0
 76
     0
 77
     0
 78
     0
281
     0
 65
     1
110
0.0
120
0.0
130
0.0
111
1.0
121
0.0
131
0.0
112
0.0
122
1.0
132
0.0
 79
     0
146
0.0
  0
ENDTAB
  0
TABLE
  2
LTYPE
  5
11
330
0
100
AcDbSymbolTable
 70
     3
  0
LTYPE
  5
12
330
11
100
AcDbSymbolTableRecord
100
AcDbLinetypeTableRecord
  2
ByBlock
 70
     0
  3

 72
    65
 73
     0
 40
0.0
  0
LTYPE
  5
15
330
11
100
AcDbSymbolTableRecord
100
AcDbLinetypeTableRecord
  2
ByLayer
 70
     0
  3

 72
    65
 73
     0
 40
0.0
  0
LTYPE
  5
7
330
11
100
AcDbSymbolTableRecord
100
AcDbLinetypeTableRecord
  2
CONTINUOUS
 70
     0
  3
Solid line
 72
    65
 73
     0
 40
0.0
  0
LTYPE
  5
42
330
11
100
AcDbSymbolTableRecord
100
AcDbLinetypeTableRecord
  2
CENTER
 70
     0
  3
____ _ ____ _ ____ _ ____ _ ____ _ ____ _ ____
 72
    65
 73
     4
 40
0.6
 49
0.375
 74
     0
 49
-0.075
 74
     0
 49
0.075
 74
     0
 49
-0.075
 74
     0
  0
LTYPE
  5
54
330
11
100
AcDbSymbolTableRecord
100
AcDbLinetypeTableRecord
  2
HIDDEN
 70
     0
  3
- - - - - - - - - - - - - - - - - - - -
 72
    65
 73
     2
 40
0.2
 49
0.1
 74
     0
 49
-0.1
 74
     0
  0
ENDTAB
  0
TABLE
  2
LAYER
  5
E
330
0
100
AcDbSymbolTable
 70
     1
  0
LAYER
  5
6
330
E
100
AcDbSymbolTableRecord
100
AcDbLayerTableRecord
  2
0
 70
     0
 62
     7
  6
CONTINUOUS
370
    -3
390
63
  0
ENDTAB
  0
TABLE
  2
STYLE
  5
F
330
0
100
AcDbSymbolTable
 70
     1
  0
STYLE
  5
10
330
F
100
AcDbSymbolTableRecord
100
AcDbTextStyleTableRecord
  2
STANDARD
 70
     0
 40
0.0
 41
0.8
 50
0.0
 71
     0
 42
0.2
  3
txt
  4

  0
ENDTAB
  0
TABLE
  2
VIEW
  5
18
330
0
100
AcDbSymbolTable
 70
     0
  0
ENDTAB
  0
TABLE
  2
UCS
  5
19
330
0
100
AcDbSymbolTable
 70
     0
  0
ENDTAB
  0
TABLE
  2
APPID
  5
1C
330
0
100
AcDbSymbolTable
 70
     2
  0
APPID
  5
1D
330
1C
100
AcDbSymbolTableRecord
100
AcDbRegAppTableRecord
  2
ACAD
 70
     0
  0
APPID
  5
DF
330
1C
100
AcDbSymbolTableRecord
100
AcDbRegAppTableRecord
  2
DCO15
 70
     0
  0
ENDTAB
  0
TABLE
  2
DIMSTYLE
  5
1E
330
0
100
AcDbSymbolTable
 70
     1
100
AcDbDimStyleTable
 71
     0
  0
DIMSTYLE
105
26
330
1E
100
AcDbSymbolTableRecord
100
AcDbDimStyleTableRecord
  2
STANDARD
 70
     0
 41
0.1875
 42
0.10625
 43
0.646
 44
0.306
140
0.125
141
0.153
340
10
341
29
342
29
343
29
344
29
  0
ENDTAB
  0
TABLE
  2
BLOCK_RECORD
  5
1
330
0
100
AcDbSymbolTable
 70
     1
  0
BLOCK_RECORD
  5
2
102
{ACAD_XDICTIONARY
360
3
102
}
330
1
100
AcDbSymbolTableRecord
100
AcDbBlockTableRecord
  2
*MODEL_SPACE
340
66
  0
BLOCK_RECORD
  5
9
102
{ACAD_XDICTIONARY
360
A
102
}
330
1
100
AcDbSymbolTableRecord
100
AcDbBlockTableRecord
  2
*PAPER_SPACE
340
67
  0
BLOCK_RECORD
  5
29
330
1
100
AcDbSymbolTableRecord
100
AcDbBlockTableRecord
  2
_FILLED
340
0
  0
ENDTAB
  0
ENDSEC
  0
SECTION
  2
BLOCKS
  0
BLOCK
  5
5
330
2
100
AcDbEntity
  8
0
100
AcDbBlockBegin
  2
*MODEL_SPACE
 70
     0
 10
0.0
 20
0.0
 30
0.0
  3
*MODEL_SPACE
  1

  0
ENDBLK
  5
8
330
2
100
AcDbEntity
  8
0
100
AcDbBlockEnd
  0
BLOCK
  5
C
330
9
100
AcDbEntity
 67
     1
  8
0
100
AcDbBlockBegin
  2
*PAPER_SPACE
 70
     0
 10
0.0
 20
0.0
 30
0.0
  3
*PAPER_SPACE
  1

  0
ENDBLK
  5
D
330
9
100
AcDbEntity
 67
     1
  8
0
100
AcDbBlockEnd
  0
BLOCK
  5
2B
330
29
100
AcDbEntity
  8
0
100
AcDbBlockBegin
  2
_FILLED
 70
     0
 10
0.0
 20
0.0
 30
0.0
  3
_FILLED
  1

  0
SOLID
  5
2A
330
29
100
AcDbEntity
  8
0
  6
ByBlock
 62
     0
100
AcDbTrace
 10
0.0
 20
0.0
 30
0.0
 11
-1.0
 21
0.1666666667
 31
0.0
 12
-1.0
 22
-0.1666666667
 32
0.0
 13
-1.0
 23
-0.1666666667
 33
0.0
  0
ENDBLK
  5
2C
330
29
100
AcDbEntity
  8
0
  6
ByBlock
 62
     0
100
AcDbBlockEnd
  0
ENDSEC
  0
SECTION
  2
ENTITIES
  0
LINE
  5
2D
330
2
100
AcDbEntity
  8
0
100
AcDbLine
 10
-117.3725927873136
 20
53.36369848653773
 30
0.0
 11
-120.707413400323
 21
38.03441742733773
 31
0.0
  0
LINE
  5
2E
330
2
100
AcDbEntity
  8
0
100
AcDbLine
 10
-163.019320945923
 20
38.58611036813772
 30
0.0
 11
-169.934006609923
 21
53.36369848653774
 31
0.0
  0
LINE
  5
2F
330
2
100
AcDbEntity
  8
0
  6
Continuous
100
AcDbLine
 10
-128.127201387523
 20
34.73869848653774
 30
0.0
 11
-155.589141165123
 21
34.73869848653774
 31
0.0
  0
LINE
  5
30
330
2
100
AcDbEntity
  8
0
100
AcDbLine
 10
-160.648573675523
 20
37.04073673773773
 30
0.0
 11
-124.081678883523
 21
36.01760198413774
 31
0.0
  0
ARC
  5
31
330
2
100
AcDbEntity
  8
0
  6
Continuous
100
AcDbCircle
 10
-159.812705702723
 20
36.26505979053773
 30
0.0
 40
0.7499870368
100
AcDbArc
 50
0.0000666196
 51
88.2663810332
  0
ARC
  5
32
330
2
100
AcDbEntity
  8
0
100
AcDbCircle
 10
-160.4650836259772
 20
39.92892429761301
 30
0.0
 40
2.894010362680258
100
AcDbArc
 50
212.3290655250872
 51
266.3648153584426
  0
LWPOLYLINE
  5
33
330
2
100
AcDbEntity
  8
0
  6
Continuous
100
AcDbPolyline
 90
        5
 70
     0
 43
0.0
 10
-163.019326808323
 20
38.58607747533773
 10
-163.012017315523
 20
38.57090127373773
 10
-162.979602699523
 20
38.50632921293772
 10
-162.945742069123
 20
38.44310873133773
 10
-162.910495333123
 20
38.38126233133773
  0
LWPOLYLINE
  5
34
330
2
100
AcDbEntity
  8
0
  6
Continuous
100
AcDbPolyline
 90
       14
 70
     0
 43
0.0
 10
-156.887169976323
 20
36.90621572493773
 10
-156.827334377923
 20
36.88495783853773
 10
-156.766961256323
 20
36.85741592013773
 10
-156.707216843523
 20
36.82335691373773
 10
-156.649327241923
 20
36.78279830893773
 10
-156.594497609923
 20
36.73601680813773
 10
-156.543730062723
 20
36.68340978093773
 10
-156.497579993923
 20
36.62506582093773
 10
-156.456673161923
 20
36.56110073773773
 10
-156.421720133123
 20
36.49168932013773
 10
-156.393515534723
 20
36.41708825453773
 10
-156.372936049923
 20
36.33766574253773
 10
-156.360932497923
 20
36.25393438413773
 10
-156.358163141123
 20
36.18954244493773
  0
LINE
  5
35
330
2
100
AcDbEntity
  8
0
  6
Continuous
100
AcDbLine
 10
-155.608171277123
 20
34.73869848653774
 30
0.0
 11
-158.293705840323
 21
34.73869848653774
 31
0.0
  0
ARC
  5
36
330
2
100
AcDbEntity
  8
0
  6
Continuous
100
AcDbCircle
 10
-158.312735950723
 20
35.48869848653774
 30
0.0
 40
0.75
100
AcDbArc
 50
180.0
 51
270.0
  0
LINE
  5
37
330
2
100
AcDbEntity
  8
0
  6
Continuous
100
AcDbLine
 10
-158.293705840323
 20
34.73869848653774
 30
0.0
 11
-158.312729051523
 21
34.73869848653774
 31
0.0
  0
LINE
  5
38
330
2
100
AcDbEntity
  8
0
  6
Continuous
100
AcDbLine
 10
-159.062735950723
 20
35.48869848653774
 30
0.0
 11
-159.062735950723
 21
36.26506062733773
 31
0.0
  0
LINE
  5
39
330
2
100
AcDbEntity
  8
0
  6
Continuous
100
AcDbLine
 10
-155.589141165123
 20
34.73869848653774
 30
0.0
 11
-155.608171277123
 21
34.73869848653774
 31
0.0
  0
LINE
  5
3A
330
2
100
AcDbEntity
  8
0
  6
Continuous
100
AcDbLine
 10
-156.358171277123
 20
35.48869848653774
 30
0.0
 11
-156.358171277123
 21
36.18901998573773
 31
0.0
  0
ARC
  5
3B
330
2
100
AcDbEntity
  8
0
  6
Continuous
100
AcDbCircle
 10
-155.608171277123
 20
35.48869848653774
 30
0.0
 40
0.75
100
AcDbArc
 50
180.0
 51
270.0
  0
LWPOLYLINE
  5
3C
330
2
100
AcDbEntity
  8
0
  6
Continuous
100
AcDbPolyline
 90
        4
 70
     0
 43
0.0
 10
-156.925290209923
 20
36.93648183853773
 10
-157.066401337923
 20
36.93931025933773
 10
-157.068675360323
 20
36.93804888173773
 10
-157.055770897923
 20
36.93755563373773
  0
LWPOLYLINE
  5
3D
330
2
100
AcDbEntity
  8
0
  6
Continuous
100
AcDbPolyline
 90
        6
 70
     0
 43
0.0
 10
-157.056112485123
 20
36.93756869133773
 10
-157.054935022723
 20
36.93749504813773
 10
-157.041574881923
 20
36.93647691213773
 10
-157.000803816323
 20
36.93176136653773
 10
-156.945453336323
 20
36.92164210093773
 10
-156.887169976323
 20
36.90621572493773
  0
LINE
  5
3E
330
2
100
AcDbEntity
  8
0
  6
Continuous
100
AcDbLine
 10
-157.054322270723
 20
36.93748224973774
 30
0.0
 11
-157.055770897923
 21
36.93755563373773
 31
0.0
  0
LINE
  5
3F
330
2
100
AcDbEntity
  8
0
  6
Continuous
100
AcDbLine
 10
-126.415791024323
 20
35.51994848653774
 30
0.0
 11
-123.769344414723
 21
35.51994848653774
 31
0.0
  0
ARC
  5
40
330
2
100
AcDbEntity
  8
0
100
AcDbCircle
 10
-123.5313675665797
 20
38.92798705657316
 30
0.0
 40
2.961956079250808
100
AcDbArc
 50
259.2926184407526
 51
342.4413278788753
  0
LINE
  5
41
330
2
100
AcDbEntity
  8
0
  6
CENTER
 62
     1
 48
0.75
100
AcDbLine
 10
-125.092567720323
 20
31.10877143533773
 30
0.0
 11
-125.092567720323
 21
41.01736329293773
 31
0.0
  0
ARC
  5
43
330
2
100
AcDbEntity
  8
0
  6
Continuous
100
AcDbCircle
 10
-126.415791024323
 20
35.86369848653774
 30
0.0
 40
0.34375
100
AcDbArc
 50
225.0000024403
 51
270.0
  0
LINE
  5
44
330
2
100
AcDbEntity
  8
0
  6
Continuous
100
AcDbLine
 10
-126.658858981123
 20
35.62063053133772
 30
0.0
 11
-127.029390793923
 21
35.99116234413773
 31
0.0
  0
LWPOLYLINE
  5
45
330
2
100
AcDbEntity
  8
0
  6
Continuous
100
AcDbPolyline
 90
        5
 70
     0
 43
0.0
 10
-126.895466635523
 20
36.06186834413773
 10
-126.799478641923
 20
36.09337079373773
 10
-126.720112813123
 20
36.10890375053773
 10
-126.682374515523
 20
36.11293555853773
 10
-126.678260857923
 20
36.11320332813773
  0
LINE
  5
46
330
2
100
AcDbEntity
  8
0
  6
Continuous
100
AcDbLine
 10
-128.108178176323
 20
34.73869848653774
 30
0.0
 11
-128.127201387523
 21
34.73869848653774
 31
0.0
  0
ARC
  5
47
330
2
100
AcDbEntity
  8
0
  6
Continuous
100
AcDbCircle
 10
-128.108171277123
 20
35.48869848653774
 30
0.0
 40
0.75
100
AcDbArc
 50
270.0
 51
355.3639707424999
  0
LWPOLYLINE
  5
48
330
2
100
AcDbEntity
  8
0
  6
Continuous
100
AcDbPolyline
 90
        8
 70
     0
 43
0.0
 10
-127.360631075523
 20
35.42800811853773
 10
-127.351845491523
 20
35.49669956653773
 10
-127.315982166723
 20
35.62890780173773
 10
-127.257927651523
 20
35.75026086733773
 10
-127.181607845123
 20
35.85640645933773
 10
-127.091934149123
 20
35.94443891373773
 10
-126.994558769923
 20
36.01288305773773
 10
-126.895466635523
 20
36.06186834413773
  0
ARC
  5
49
330
2
100
AcDbEntity
  8
0
  6
Continuous
100
AcDbCircle
 10
-123.769344414723
 20
35.86369848653774
 30
0.0
 40
0.34375
100
AcDbArc
 50
270.0
 51
314.9999977589999
  0
LINE
  5
4A
330
2
100
AcDbEntity
  8
0
  6
Continuous
100
AcDbLine
 10
-123.526276459523
 20
35.62063053133772
 30
0.0
 11
-123.136574534723
 21
36.01033245453773
 31
0.0
  0
LINE
  5
4B
330
2
100
AcDbEntity
  8
0
  6
Continuous
100
AcDbLine
 10
-113.942666246723
 20
54.17884995373773
 30
0.0
 11
-170.427475707523
 21
54.17797609453773
 31
0.0
  0
LINE
  5
4C
330
2
100
AcDbEntity
  8
0
  6
Continuous
100
AcDbLine
 10
-173.012676377923
 20
54.86369848653773
 30
0.0
 11
-114.672459062723
 21
54.86369848653773
 31
0.0
  0
LINE
  5
4D
330
2
100
AcDbEntity
  8
0
  6
Continuous
100
AcDbLine
 10
-173.842567720323
 20
53.36369848653774
 30
0.0
 11
-113.842567720323
 21
53.36369848653774
 31
0.0
  0
LINE
  5
4E
330
2
100
AcDbEntity
  8
0
  6
Continuous
100
AcDbLine
 10
-170.427475707523
 20
54.17797609453773
 30
0.0
 11
-173.742475022723
 21
54.17885001773773
 31
0.0
  0
ARC
  5
4F
330
2
100
AcDbEntity
  8
0
  6
Continuous
100
AcDbCircle
 10
-173.012676693123
 20
54.61369848653774
 30
0.0
 40
0.25
100
AcDbArc
 50
89.9999278804
 51
160.5287553256
  0
LINE
  5
50
330
2
100
AcDbEntity
  8
0
  6
Continuous
100
AcDbLine
 10
-173.842567720323
 20
53.36369848653774
 30
0.0
 11
-173.742478782723
 21
54.17885048013773
 31
0.0
  0
ARC
  5
51
330
2
100
AcDbEntity
  8
0
  6
Continuous
100
AcDbCircle
 10
-173.494333515523
 20
54.14838436493774
 30
0.0
 40
0.2500000416
100
AcDbArc
 50
107.4949307829
 51
173.0005217355999
  0
ARC
  5
52
330
2
100
AcDbEntity
  8
0
  6
Continuous
100
AcDbCircle
 10
-173.719783158723
 20
54.86369848653773
 30
0.0
 40
0.5
100
AcDbArc
 50
287.4929138223
 51
340.5287793654999
  0
LINE
  5
53
330
2
100
AcDbEntity
  8
0
  6
HIDDEN
 62
     8
 48
0.125
100
AcDbLine
 10
-169.9340066099229
 20
53.36369848653774
 30
0.0
 11
-170.3150218126202
 21
54.17797783427753
 31
0.0
  0
ARC
  5
55
330
2
100
AcDbEntity
  8
0
  6
HIDDEN
 62
     8
 48
0.125
100
AcDbCircle
 10
-171.0806640775736
 20
54.61369951102138
 30
0.0
 40
0.25
100
AcDbArc
 50
19.4712446744
 51
90.00007211960001
  0
ARC
  5
56
330
2
100
AcDbEntity
  8
0
  6
HIDDEN
 62
     8
 48
0.125
100
AcDbCircle
 10
-170.3735576103736
 20
54.86369951102138
 30
0.0
 40
0.5
100
AcDbArc
 50
199.4712206344999
 51
252.5070146648999
  0
ARC
  5
57
330
2
100
AcDbEntity
  8
0
  6
HIDDEN
 62
     8
 48
0.125
100
AcDbCircle
 10
-170.5993623991868
 20
54.10248561817765
 30
0.0
 40
0.2941915088182197
100
AcDbArc
 50
14.86895238182358
 51
75.12748098974909
  0
LINE
  5
58
330
2
100
AcDbEntity
  8
0
  6
CENTER
 62
     1
 48
0.75
100
AcDbLine
 10
-121.245145467523
 20
51.96306504173773
 30
0.0
 11
-114.753448934723
 21
51.01433193293773
 31
0.0
  0
LINE
  5
59
330
2
100
AcDbEntity
  8
0
  6
HIDDEN
 62
     8
 48
0.125
100
AcDbLine
 10
-117.3725927873136
 20
53.36369848653774
 30
0.0
 11
-117.2725029249136
 21
54.17885101773773
 31
0.0
  0
ARC
  5
5A
330
2
100
AcDbEntity
  8
0
  6
HIDDEN
 62
     8
 48
0.125
100
AcDbCircle
 10
-117.0243576897136
 20
54.14838464653773
 30
0.0
 40
0.2500000416
100
AcDbArc
 50
107.4950022958999
 51
173.0004623087999
  0
ARC
  5
5B
330
2
100
AcDbEntity
  8
0
  6
HIDDEN
 62
     8
 48
0.125
100
AcDbCircle
 10
-117.2498082273136
 20
54.86369848653773
 30
0.0
 40
0.5
100
AcDbArc
 50
287.4929853350999
 51
340.5287793654999
  0
ARC
  5
5C
330
2
100
AcDbEntity
  8
0
  6
HIDDEN
 62
     8
 48
0.125
100
AcDbCircle
 10
-116.5427017601136
 20
54.61369848653774
 30
0.0
 40
0.25
100
AcDbArc
 50
89.9999278804
 51
160.5287553256
  0
LINE
  5
5D
330
2
100
AcDbEntity
  8
0
  6
Continuous
100
AcDbLine
 10
-113.842567720323
 20
53.36369848653774
 30
0.0
 11
-113.942657582723
 21
54.17885101773773
 31
0.0
  0
ARC
  5
5E
330
2
100
AcDbEntity
  8
0
  6
Continuous
100
AcDbCircle
 10
-114.190802817923
 20
54.14838464653773
 30
0.0
 40
0.2500000416
100
AcDbArc
 50
6.9995376912
 51
72.50499770410001
  0
ARC
  5
5F
330
2
100
AcDbEntity
  8
0
  6
Continuous
100
AcDbCircle
 10
-114.672458747523
 20
54.61369848653774
 30
0.0
 40
0.25
100
AcDbArc
 50
19.4712446744
 51
90.00007211960001
  0
ARC
  5
60
330
2
100
AcDbEntity
  8
0
  6
Continuous
100
AcDbCircle
 10
-113.965352280323
 20
54.86369848653773
 30
0.0
 40
0.5
100
AcDbArc
 50
199.4712206344999
 51
252.5070146648999
  0
ENDSEC
  0
SECTION
  2
OBJECTS
  0
DICTIONARY
  5
24
330
0
100
AcDbDictionary
281
     1
  3
ACAD_GROUP
350
20
  3
ACAD_LAYOUT
350
64
  3
ACAD_MLINESTYLE
350
21
  3
ACAD_PLOTSETTINGS
350
65
  3
ACAD_PLOTSTYLENAME
350
62
  3
AcDbVariableDictionary
350
A0
  3
ASE_INDEX_DICTIONARY
350
DE
  0
DICTIONARY
  5
3
330
2
100
AcDbDictionary
280
     1
281
     1
  0
DICTIONARY
  5
A
330
9
100
AcDbDictionary
280
     1
281
     1
  0
DICTIONARY
  5
20
102
{ACAD_REACTORS
330
24
102
}
330
24
100
AcDbDictionary
281
     1
  0
DICTIONARY
  5
64
102
{ACAD_REACTORS
330
24
102
}
330
24
100
AcDbDictionary
281
     1
  3
Layout1
350
67
  3
Model
350
66
  0
DICTIONARY
  5
21
102
{ACAD_REACTORS
330
24
102
}
330
24
100
AcDbDictionary
281
     1
  3
Standard
350
25
  0
DICTIONARY
  5
65
102
{ACAD_REACTORS
330
24
102
}
330
24
100
AcDbDictionary
281
     1
  0
ACDBDICTIONARYWDFLT
  5
62
102
{ACAD_REACTORS
330
24
102
}
330
24
100
AcDbDictionary
281
     1
  3
Normal
350
63
100
AcDbDictionaryWithDefault
340
63
  0
DICTIONARY
  5
A0
102
{ACAD_REACTORS
330
24
102
}
330
24
100
AcDbDictionary
281
     1
  3
DIMASSOC
350
A1
  0
DICTIONARY
  5
DE
102
{ACAD_REACTORS
330
24
102
}
330
24
100
AcDbDictionary
281
     1
  3
ASEBlockHierarchyIndexRecord
350
E0
1001
DCO15
1040
1545373099.515
  0
LAYOUT
  5
67
102
{ACAD_REACTORS
330
64
102
}
330
64
100
AcDbPlotSettings
  1

  2
HP DeskJet 1120C
  4

  6

 40
0.0
 41
0.0
 42
0.0
 43
0.0
 44
0.0
 45
0.0
 46
0.0
 47
0.0
 48
0.0
 49
0.0
140
0.0
141
0.0
142
1.0
143
1.0
 70
   688
 72
     0
 73
     0
 74
     5
  7

 75
    16
147
1.0
148
0.0
149
0.0
100
AcDbLayout
  1
Layout1
 70
     0
 71
     1
 10
0.0
 20
0.0
 11
12.0
 21
9.0
 12
0.0
 22
0.0
 32
0.0
 14
1.000000000000000E+20
 24
1.000000000000000E+20
 34
1.000000000000000E+20
 15
-1.000000000000000E+20
 25
-1.000000000000000E+20
 35
-1.000000000000000E+20
146
0.0
 13
0.0
 23
0.0
 33
0.0
 16
1.0
 26
0.0
 36
0.0
 17
0.0
 27
1.0
 37
0.0
 76
     0
330
9
  0
LAYOUT
  5
66
102
{ACAD_REACTORS
330
64
102
}
330
64
100
AcDbPlotSettings
  1

  2
HP DeskJet 1120C
  4

  6

 40
0.0
 41
0.0
 42
0.0
 43
0.0
 44
0.0
 45
0.0
 46
0.0
 47
0.0
 48
0.0
 49
0.0
140
0.0
141
0.0
142
1.0
143
1.0
 70
  1712
 72
     0
 73
     0
 74
     0
  7

 75
     0
147
1.0
148
0.0
149
0.0
100
AcDbLayout
  1
Model
 70
     1
 71
     0
 10
0.0
 20
0.0
 11
12.0
 21
9.0
 12
0.0
 22
0.0
 32
0.0
 14
0.0
 24
0.0
 34
0.0
 15
0.0
 25
0.0
 35
0.0
146
0.0
 13
0.0
 23
0.0
 33
0.0
 16
1.0
 26
0.0
 36
0.0
 17
0.0
 27
1.0
 37
0.0
 76
     0
330
2
  0
MLINESTYLE
  5
25
102
{ACAD_REACTORS
330
21
102
}
330
21
100
AcDbMlineStyle
  2
STANDARD
 70
     0
  3

 62
   256
 51
90.0
 52
90.0
 71
     2
 49
0.5
 62
   256
  6
BYLAYER
 49
-0.5
 62
   256
  6
BYLAYER
  0
ACDBPLACEHOLDER
  5
63
102
{ACAD_REACTORS
330
62
102
}
330
62
  0
DICTIONARYVAR
  5
A1
102
{ACAD_REACTORS
330
A0
102
}
330
A0
100
DictionaryVariables
280
     0
  1
1
  0
XRECORD
  5
E0
102
{ACAD_REACTORS
330
DE
102
}
330
DE
100
AcDbXrecord
280
     1
  0
ENDSEC
  0
EOF
