  0
SECTION
  2
HEADER
  9
$ACADVER
  1
AC1015
  9
$ACADMAINTVER
 70
    20
  9
$DWGCODEPAGE
  3
ANSI_1252
  9
$INSBASE
 10
0.0
 20
0.0
 30
0.0
  9
$EXTMIN
 10
95.5460714652
 20
15.25397923271118
 30
0.0
  9
$EXTMAX
 10
131.5460714652
 20
43.64526452464221
 30
0.0
  9
$LIMMIN
 10
0.0
 20
0.0
  9
$LIMMAX
 10
181.3333333333
 20
117.3333333333
  9
$ORTHOMODE
 70
     0
  9
$REGENMODE
 70
     1
  9
$FILLMODE
 70
     1
  9
$QTEXTMODE
 70
     0
  9
$MIRRTEXT
 70
     0
  9
$LTSCALE
 40
9.973333333300001
  9
$ATTMODE
 70
     1
  9
$TEXTSIZE
 40
0.2
  9
$TRACEWID
 40
0.05
  9
$TEXTSTYLE
  7
STANDARD
  9
$CLAYER
  8
0
  9
$CELTYPE
  6
CENTER
  9
$CECOLOR
 62
   256
  9
$CELTSCALE
 40
1.0
  9
$DISPSILH
 70
     0
  9
$DIMSCALE
 40
1.0
  9
$DIMASZ
 40
2.0
  9
$DIMEXO
 40
0.0625
  9
$DIMDLI
 40
6.890666666699999
  9
$DIMRND
 40
0.0
  9
$DIMDLE
 40
0.0
  9
$DIMEXE
 40
0.125
  9
$DIMTP
 40
0.0
  9
$DIMTM
 40
0.0
  9
$DIMTXT
 40
1.333333333299999
  9
$DIMCEN
 40
1.631999999999999
  9
$DIMTSZ
 40
0.0
  9
$DIMTOL
 70
     0
  9
$DIMLIM
 70
     0
  9
$DIMTIH
 70
     1
  9
$DIMTOH
 70
     1
  9
$DIMSE1
 70
     0
  9
$DIMSE2
 70
     0
  9
$DIMTAD
 70
     0
  9
$DIMZIN
 70
     0
  9
$DIMBLK
  1
_FILLED
  9
$DIMASO
 70
     1
  9
$DIMSHO
 70
     1
  9
$DIMPOST
  1

  9
$DIMAPOST
  1

  9
$DIMALT
 70
     0
  9
$DIMALTD
 70
     2
  9
$DIMALTF
 40
25.4
  9
$DIMLFAC
 40
1.0
  9
$DIMTOFL
 70
     0
  9
$DIMTVP
 40
0.0
  9
$DIMTIX
 70
     0
  9
$DIMSOXD
 70
     0
  9
$DIMSAH
 70
     0
  9
$DIMBLK1
  1

  9
$DIMBLK2
  1

  9
$DIMSTYLE
  2
STANDARD
  9
$DIMCLRD
 70
     0
  9
$DIMCLRE
 70
     0
  9
$DIMCLRT
 70
     0
  9
$DIMTFAC
 40
1.0
  9
$DIMGAP
 40
0.09
  9
$DIMJUST
 70
     0
  9
$DIMSD1
 70
     0
  9
$DIMSD2
 70
     0
  9
$DIMTOLJ
 70
     1
  9
$DIMTZIN
 70
     0
  9
$DIMALTZ
 70
     0
  9
$DIMALTTZ
 70
     0
  9
$DIMUPT
 70
     0
  9
$DIMDEC
 70
     4
  9
$DIMTDEC
 70
     4
  9
$DIMALTU
 70
     2
  9
$DIMALTTD
 70
     2
  9
$DIMTXSTY
  7
STANDARD
  9
$DIMAUNIT
 70
     0
  9
$DIMADEC
 70
     0
  9
$DIMALTRND
 40
0.0
  9
$DIMAZIN
 70
     0
  9
$DIMDSEP
 70
    46
  9
$DIMATFIT
 70
     3
  9
$DIMFRAC
 70
     0
  9
$DIMLDRBLK
  1

  9
$DIMLUNIT
 70
     2
  9
$DIMLWD
 70
    -2
  9
$DIMLWE
 70
    -2
  9
$DIMTMOVE
 70
     0
  9
$LUNITS
 70
     2
  9
$LUPREC
 70
     4
  9
$SKETCHINC
 40
0.1
  9
$FILLETRAD
 40
0.0
  9
$AUNITS
 70
     0
  9
$AUPREC
 70
     0
  9
$MENU
  1
.
  9
$ELEVATION
 40
0.0
  9
$PELEVATION
 40
0.0
  9
$THICKNESS
 40
0.0
  9
$LIMCHECK
 70
     0
  9
$CHAMFERA
 40
0.0
  9
$CHAMFERB
 40
0.0
  9
$CHAMFERC
 40
0.0
  9
$CHAMFERD
 40
0.0
  9
$SKPOLY
 70
     0
  9
$TDCREATE
 40
2456086.647553878
  9
$TDUCREATE
 40
2456086.814220544
  9
$TDUPDATE
 40
2456087.378707917
  9
$TDUUPDATE
 40
2456087.545374584
  9
$TDINDWG
 40
0.0137814468
  9
$TDUSRTIMER
 40
0.0137814468
  9
$USRTIMER
 70
     1
  9
$ANGBASE
 50
0.0
  9
$ANGDIR
 70
     0
  9
$PDMODE
 70
     3
  9
$PDSIZE
 40
0.03125
  9
$PLINEWID
 40
0.0
  9
$SPLFRAME
 70
     0
  9
$SPLINETYPE
 70
     6
  9
$SPLINESEGS
 70
     8
  9
$HANDSEED
  5
1EFB
  9
$SURFTAB1
 70
     6
  9
$SURFTAB2
 70
     6
  9
$SURFTYPE
 70
     6
  9
$SURFU
 70
     6
  9
$SURFV
 70
     6
  9
$UCSBASE
  2

  9
$UCSNAME
  2

  9
$UCSORG
 10
0.0
 20
0.0
 30
0.0
  9
$UCSXDIR
 10
1.0
 20
0.0
 30
0.0
  9
$UCSYDIR
 10
0.0
 20
1.0
 30
0.0
  9
$UCSORTHOREF
  2

  9
$UCSORTHOVIEW
 70
     0
  9
$UCSORGTOP
 10
0.0
 20
0.0
 30
0.0
  9
$UCSORGBOTTOM
 10
0.0
 20
0.0
 30
0.0
  9
$UCSORGLEFT
 10
0.0
 20
0.0
 30
0.0
  9
$UCSORGRIGHT
 10
0.0
 20
0.0
 30
0.0
  9
$UCSORGFRONT
 10
0.0
 20
0.0
 30
0.0
  9
$UCSORGBACK
 10
0.0
 20
0.0
 30
0.0
  9
$PUCSBASE
  2

  9
$PUCSNAME
  2

  9
$PUCSORG
 10
0.0
 20
0.0
 30
0.0
  9
$PUCSXDIR
 10
1.0
 20
0.0
 30
0.0
  9
$PUCSYDIR
 10
0.0
 20
1.0
 30
0.0
  9
$PUCSORTHOREF
  2

  9
$PUCSORTHOVIEW
 70
     0
  9
$PUCSORGTOP
 10
0.0
 20
0.0
 30
0.0
  9
$PUCSORGBOTTOM
 10
0.0
 20
0.0
 30
0.0
  9
$PUCSORGLEFT
 10
0.0
 20
0.0
 30
0.0
  9
$PUCSORGRIGHT
 10
0.0
 20
0.0
 30
0.0
  9
$PUCSORGFRONT
 10
0.0
 20
0.0
 30
0.0
  9
$PUCSORGBACK
 10
0.0
 20
0.0
 30
0.0
  9
$USERI1
 70
     0
  9
$USERI2
 70
     0
  9
$USERI3
 70
     0
  9
$USERI4
 70
     0
  9
$USERI5
 70
     0
  9
$USERR1
 40
0.0
  9
$USERR2
 40
0.0
  9
$USERR3
 40
0.0
  9
$USERR4
 40
0.0
  9
$USERR5
 40
0.0
  9
$WORLDVIEW
 70
     1
  9
$SHADEDGE
 70
     3
  9
$SHADEDIF
 70
    70
  9
$TILEMODE
 70
     1
  9
$MAXACTVP
 70
    64
  9
$PINSBASE
 10
0.0
 20
0.0
 30
0.0
  9
$PLIMCHECK
 70
     0
  9
$PEXTMIN
 10
1.000000000000000E+20
 20
1.000000000000000E+20
 30
1.000000000000000E+20
  9
$PEXTMAX
 10
-1.000000000000000E+20
 20
-1.000000000000000E+20
 30
-1.000000000000000E+20
  9
$PLIMMIN
 10
0.0
 20
0.0
  9
$PLIMMAX
 10
12.0
 20
9.0
  9
$UNITMODE
 70
     0
  9
$VISRETAIN
 70
     1
  9
$PLINEGEN
 70
     0
  9
$PSLTSCALE
 70
     1
  9
$TREEDEPTH
 70
  3020
  9
$CMLSTYLE
  2
Standard
  9
$CMLJUST
 70
     0
  9
$CMLSCALE
 40
1.0
  9
$PROXYGRAPHICS
 70
     1
  9
$MEASUREMENT
 70
     0
  9
$CELWEIGHT
370
    -1
  9
$ENDCAPS
280
     0
  9
$JOINSTYLE
280
     0
  9
$LWDISPLAY
290
     0
  9
$INSUNITS
 70
     1
  9
$HYPERLINKBASE
  1

  9
$STYLESHEET
  1

  9
$XEDIT
290
     1
  9
$CEPSNTYPE
380
     0
  9
$PSTYLEMODE
290
     1
  9
$FINGERPRINTGUID
  2
{86DB31D1-75E1-4F8A-949C-8DBB71A4827B}
  9
$VERSIONGUID
  2
{B82BFF21-A460-4395-97C9-94712570EFAD}
  9
$EXTNAMES
290
     1
  9
$PSVPSCALE
 40
0.0
  9
$OLESTARTUP
290
     0
  0
ENDSEC
  0
SECTION
  2
CLASSES
  0
CLASS
  1
ACDBDICTIONARYWDFLT
  2
AcDbDictionaryWithDefault
  3
ObjectDBX Classes
 90
        0
280
     0
281
     0
  0
CLASS
  1
ACDBPLACEHOLDER
  2
AcDbPlaceHolder
  3
ObjectDBX Classes
 90
        0
280
     0
281
     0
  0
CLASS
  1
LAYOUT
  2
AcDbLayout
  3
ObjectDBX Classes
 90
        0
280
     0
281
     0
  0
CLASS
  1
MATERIAL
  2
AcDbMaterial
  3
ObjectDBX Classes
 90
     1153
280
     0
281
     0
  0
CLASS
  1
VISUALSTYLE
  2
AcDbVisualStyle
  3
ObjectDBX Classes
 90
     4095
280
     0
281
     0
  0
CLASS
  1
TABLESTYLE
  2
AcDbTableStyle
  3
ObjectDBX Classes
 90
     4095
280
     0
281
     0
  0
CLASS
  1
SCALE
  2
AcDbScale
  3
ObjectDBX Classes
 90
     1153
280
     0
281
     0
  0
CLASS
  1
MLEADERSTYLE
  2
AcDbMLeaderStyle
  3
ACDB_MLEADERSTYLE_CLASS
 90
     4095
280
     0
281
     0
  0
CLASS
  1
CELLSTYLEMAP
  2
AcDbCellStyleMap
  3
ObjectDBX Classes
 90
     1152
280
     0
281
     0
  0
CLASS
  1
DICTIONARYVAR
  2
AcDbDictionaryVar
  3
ObjectDBX Classes
 90
        0
280
     0
281
     0
  0
ENDSEC
  0
SECTION
  2
TABLES
  0
TABLE
  2
VPORT
  5
8
102
{ACAD_XDICTIONARY
360
1E52
102
}
330
0
100
AcDbSymbolTable
 70
     1
  0
VPORT
  5
1F4
330
8
100
AcDbSymbolTableRecord
100
AcDbViewportTableRecord
  2
*ACTIVE
 70
     0
 10
0.0
 20
0.0
 11
1.0
 21
1.0
 12
72.46630769748998
 22
64.30130644382877
 13
0.0
 23
0.0
 14
1.0
 24
1.0
 15
0.0
 25
0.0
 16
0.0
 26
0.0
 36
1.0
 17
0.0
 27
0.0
 37
0.0
 40
108.1330458640853
 41
2.280385078219013
 42
50.0
 43
0.0
 44
0.0
 50
0.0
 51
0.0
 71
     0
 72
   100
 73
     1
 74
     1
 75
     0
 76
     0
 77
     0
 78
     0
281
     0
 65
     1
110
0.0
120
0.0
130
0.0
111
1.0
121
0.0
131
0.0
112
0.0
122
1.0
132
0.0
 79
     0
146
0.0
  0
ENDTAB
  0
TABLE
  2
LTYPE
  5
5
330
0
100
AcDbSymbolTable
 70
     6
  0
LTYPE
  5
14
330
5
100
AcDbSymbolTableRecord
100
AcDbLinetypeTableRecord
  2
BYBLOCK
 70
     0
  3

 72
    65
 73
     0
 40
0.0
  0
LTYPE
  5
15
330
5
100
AcDbSymbolTableRecord
100
AcDbLinetypeTableRecord
  2
BYLAYER
 70
     0
  3

 72
    65
 73
     0
 40
0.0
  0
LTYPE
  5
16
330
5
100
AcDbSymbolTableRecord
100
AcDbLinetypeTableRecord
  2
CONTINUOUS
 70
     0
  3
Solid line
 72
    65
 73
     0
 40
0.0
  0
LTYPE
  5
1F5
330
5
100
AcDbSymbolTableRecord
100
AcDbLinetypeTableRecord
  2
CENTER
 70
     0
  3
____ _ ____ _ ____ _ ____ _ ____ _ ____ _ ____
 72
    65
 73
     4
 40
0.6
 49
0.375
 74
     0
 49
-0.075
 74
     0
 49
0.075
 74
     0
 49
-0.075
 74
     0
  0
LTYPE
  5
1F6
330
5
100
AcDbSymbolTableRecord
100
AcDbLinetypeTableRecord
  2
HIDDEN
 70
     0
  3
- - - - - - - - - - - - - - - - - - - -
 72
    65
 73
     2
 40
0.2
 49
0.1
 74
     0
 49
-0.1
 74
     0
  0
LTYPE
  5
1F7
330
5
100
AcDbSymbolTableRecord
100
AcDbLinetypeTableRecord
  2
PHANTOM
 70
     0
  3
_____ _ _ _____ _ _ _____ _ _ _____
 72
    65
 73
     6
 40
0.8
 49
0.45
 74
     0
 49
-0.05
 74
     0
 49
0.1
 74
     0
 49
-0.05
 74
     0
 49
0.1
 74
     0
 49
-0.05
 74
     0
  0
LTYPE
  5
1F8
330
5
100
AcDbSymbolTableRecord
100
AcDbLinetypeTableRecord
  2
DOT
 70
     0
  3
. . . . . . . . . . . . . . . . . . . .
 72
    65
 73
     2
 40
0.2
 49
0.1
 74
     0
 49
-0.1
 74
     0
  0
LTYPE
  5
1F9
330
5
100
AcDbSymbolTableRecord
100
AcDbLinetypeTableRecord
  2
DASHED
 70
     0
  3
- - - - - - - - - - - - - - - - - - - -
 72
    65
 73
     2
 40
0.2
 49
0.1
 74
     0
 49
-0.1
 74
     0
  0
ENDTAB
  0
TABLE
  2
LAYER
  5
2
330
0
100
AcDbSymbolTable
 70
    23
  0
LAYER
  5
10
102
{ACAD_XDICTIONARY
360
1EA3
102
}
330
2
100
AcDbSymbolTableRecord
100
AcDbLayerTableRecord
  2
0
 70
     0
 62
     7
  6
CONTINUOUS
370
    -3
390
F
  0
LAYER
  5
1FA
102
{ACAD_XDICTIONARY
360
1EA5
102
}
330
2
100
AcDbSymbolTableRecord
100
AcDbLayerTableRecord
  2
DEFAULT_1
 70
     0
 62
     7
  6
CENTER
370
    -3
390
F
  0
LAYER
  5
1FB
102
{ACAD_XDICTIONARY
360
1EA7
102
}
330
2
100
AcDbSymbolTableRecord
100
AcDbLayerTableRecord
  2
DEFAULT_2
 70
     0
 62
     7
  6
HIDDEN
370
    -3
390
F
  0
LAYER
  5
1FC
102
{ACAD_XDICTIONARY
360
1EA9
102
}
330
2
100
AcDbSymbolTableRecord
100
AcDbLayerTableRecord
  2
DEFAULT_3
 70
     0
 62
     7
  6
PHANTOM
370
    -3
390
F
  0
LAYER
  5
1FD
102
{ACAD_XDICTIONARY
360
1EAB
102
}
330
2
100
AcDbSymbolTableRecord
100
AcDbLayerTableRecord
  2
1_CURVES
 70
     0
 62
     7
  6
CONTINUOUS
370
    -3
390
F
  0
LAYER
  5
1FE
102
{ACAD_XDICTIONARY
360
1EAD
102
}
330
2
100
AcDbSymbolTableRecord
100
AcDbLayerTableRecord
  2
1_CURVES-CONTOUR-REBORD
 70
     0
 62
     7
  6
CONTINUOUS
370
    -3
390
F
  0
LAYER
  5
1FF
102
{ACAD_XDICTIONARY
360
1EAF
102
}
330
2
100
AcDbSymbolTableRecord
100
AcDbLayerTableRecord
  2
1_CURVES-JETS
 70
     0
 62
     7
  6
CONTINUOUS
370
    -3
390
F
  0
LAYER
  5
200
102
{ACAD_XDICTIONARY
360
1EB1
102
}
330
2
100
AcDbSymbolTableRecord
100
AcDbLayerTableRecord
  2
1_CURVES-ROLL-EDGE
 70
     0
 62
     7
  6
CONTINUOUS
370
    -3
390
F
  0
LAYER
  5
201
102
{ACAD_XDICTIONARY
360
1EB3
102
}
330
2
100
AcDbSymbolTableRecord
100
AcDbLayerTableRecord
  2
1_CURVES-SPEC-FRONT
 70
     0
 62
     7
  6
CONTINUOUS
370
    -3
390
F
  0
LAYER
  5
202
102
{ACAD_XDICTIONARY
360
1EB5
102
}
330
2
100
AcDbSymbolTableRecord
100
AcDbLayerTableRecord
  2
2_PLANES
 70
     0
 62
     7
  6
CONTINUOUS
370
    -3
390
F
  0
LAYER
  5
203
102
{ACAD_XDICTIONARY
360
1EB7
102
}
330
2
100
AcDbSymbolTableRecord
100
AcDbLayerTableRecord
  2
3_POINTS
 70
     0
 62
     7
  6
CONTINUOUS
370
    -3
390
F
  0
LAYER
  5
204
102
{ACAD_XDICTIONARY
360
1EB9
102
}
330
2
100
AcDbSymbolTableRecord
100
AcDbLayerTableRecord
  2
3_POINTS-JETS
 70
     0
 62
     7
  6
CONTINUOUS
370
    -3
390
F
  0
LAYER
  5
205
102
{ACAD_XDICTIONARY
360
1EBB
102
}
330
2
100
AcDbSymbolTableRecord
100
AcDbLayerTableRecord
  2
4_CSYS
 70
     0
 62
     7
  6
CONTINUOUS
370
    -3
390
F
  0
LAYER
  5
206
102
{ACAD_XDICTIONARY
360
1EBD
102
}
330
2
100
AcDbSymbolTableRecord
100
AcDbLayerTableRecord
  2
5-AXIS-JETS
 70
     0
 62
     7
  6
CONTINUOUS
370
    -3
390
F
  0
LAYER
  5
207
102
{ACAD_XDICTIONARY
360
1EBF
102
}
330
2
100
AcDbSymbolTableRecord
100
AcDbLayerTableRecord
  2
5_AXIS
 70
     0
 62
     7
  6
CONTINUOUS
370
    -3
390
F
  0
LAYER
  5
208
102
{ACAD_XDICTIONARY
360
1EC1
102
}
330
2
100
AcDbSymbolTableRecord
100
AcDbLayerTableRecord
  2
6_SURFACE-OFFSET-FIBRE-ACRYLIQU
 70
     0
 62
     7
  6
CONTINUOUS
370
    -3
390
F
  0
LAYER
  5
209
102
{ACAD_XDICTIONARY
360
1EC3
102
}
330
2
100
AcDbSymbolTableRecord
100
AcDbLayerTableRecord
  2
6_SURFACES
 70
     0
 62
     7
  6
CONTINUOUS
370
    -3
390
F
  0
LAYER
  5
20A
102
{ACAD_XDICTIONARY
360
1EC5
102
}
330
2
100
AcDbSymbolTableRecord
100
AcDbLayerTableRecord
  2
6_SURFACES_TOOLING
 70
     0
 62
     7
  6
CONTINUOUS
370
    -3
390
F
  0
LAYER
  5
20B
102
{ACAD_XDICTIONARY
360
1EC7
102
}
330
2
100
AcDbSymbolTableRecord
100
AcDbLayerTableRecord
  2
6_SURFACE_FLAT_EDGE
 70
     0
 62
     7
  6
CONTINUOUS
370
    -3
390
F
  0
LAYER
  5
20C
102
{ACAD_XDICTIONARY
360
1EC9
102
}
330
2
100
AcDbSymbolTableRecord
100
AcDbLayerTableRecord
  2
6_SURFACE_ROLL_EDGE
 70
     0
 62
     7
  6
CONTINUOUS
370
    -3
390
F
  0
LAYER
  5
20D
102
{ACAD_XDICTIONARY
360
1ECB
102
}
330
2
100
AcDbSymbolTableRecord
100
AcDbLayerTableRecord
  2
7_NOTES
 70
     0
 62
     7
  6
CONTINUOUS
370
    -3
390
F
  0
LAYER
  5
20E
102
{ACAD_XDICTIONARY
360
1ECD
102
}
330
2
100
AcDbSymbolTableRecord
100
AcDbLayerTableRecord
  2
8_ZONE-ROBINETERIE
 70
     0
 62
     7
  6
CONTINUOUS
370
    -3
390
F
  0
LAYER
  5
20F
102
{ACAD_XDICTIONARY
360
1ECF
102
}
330
2
100
AcDbSymbolTableRecord
100
AcDbLayerTableRecord
  2
XSEC_DATUMS
 70
     0
 62
     7
  6
CONTINUOUS
370
    -3
390
F
  0
ENDTAB
  0
TABLE
  2
STYLE
  5
3
330
0
100
AcDbSymbolTable
 70
     8
  0
STYLE
  5
11
330
3
100
AcDbSymbolTableRecord
100
AcDbTextStyleTableRecord
  2
STANDARD
 70
     0
 40
0.0
 41
0.8
 50
0.0
 71
     0
 42
0.2
  3
txt
  4

  0
STYLE
  5
210
330
3
100
AcDbSymbolTableRecord
100
AcDbTextStyleTableRecord
  2
TEXTSTYLE_1
 70
     0
 40
0.0
 41
0.8
 50
0.0
 71
     0
 42
0.2
  3
gdt
  4

  0
STYLE
  5
211
330
3
100
AcDbSymbolTableRecord
100
AcDbTextStyleTableRecord
  2
TEXTSTYLE_2
 70
     0
 40
0.0
 41
1.0
 50
0.0
 71
     0
 42
0.2
  3
trium.ttf
  4

  0
STYLE
  5
212
330
3
100
AcDbSymbolTableRecord
100
AcDbTextStyleTableRecord
  2
TEXTSTYLE_3
 70
     0
 40
0.0
 41
1.0
 50
0.0
 71
     0
 42
0.2
  3
trium.ttf
  4

  0
STYLE
  5
213
330
3
100
AcDbSymbolTableRecord
100
AcDbTextStyleTableRecord
  2
TEXTSTYLE_4
 70
     0
 40
0.0
 41
1.0
 50
0.0
 71
     0
 42
0.2
  3
txt_____.ttf
  4

1001
ACAD
1000
txt
1071
        2
  0
STYLE
  5
214
330
3
100
AcDbSymbolTableRecord
100
AcDbTextStyleTableRecord
  2
TEXTSTYLE_5
 70
     0
 40
0.0
 41
1.0
 50
0.0
 71
     0
 42
0.2
  3
txt_____.ttf
  4

1001
ACAD
1000
txt
1071
        2
  0
STYLE
  5
215
330
3
100
AcDbSymbolTableRecord
100
AcDbTextStyleTableRecord
  2
TEXTSTYLE_6
 70
     0
 40
0.0
 41
1.0
 50
0.0
 71
     0
 42
0.2
  3
trium.ttf
  4

  0
STYLE
  5
216
330
3
100
AcDbSymbolTableRecord
100
AcDbTextStyleTableRecord
  2
TEXTSTYLE_7
 70
     0
 40
0.0
 41
0.8
 50
0.0
 71
     0
 42
0.2
  3
txt_____.ttf
  4

1001
ACAD
1000
txt
1071
        2
  0
ENDTAB
  0
TABLE
  2
VIEW
  5
6
330
0
100
AcDbSymbolTable
 70
     0
  0
ENDTAB
  0
TABLE
  2
UCS
  5
7
330
0
100
AcDbSymbolTable
 70
     0
  0
ENDTAB
  0
TABLE
  2
APPID
  5
9
330
0
100
AcDbSymbolTable
 70
     2
  0
APPID
  5
217
330
9
100
AcDbSymbolTableRecord
100
AcDbRegAppTableRecord
  2
ACAD
 70
     0
  0
APPID
  5
1E82
330
9
100
AcDbSymbolTableRecord
100
AcDbRegAppTableRecord
  2
ACAD_MLEADERVER
 70
     0
  0
ENDTAB
  0
TABLE
  2
DIMSTYLE
  5
A
330
0
100
AcDbSymbolTable
 70
     3
100
AcDbDimStyleTable
 71
     0
  0
DIMSTYLE
105
238
330
A
100
AcDbSymbolTableRecord
100
AcDbDimStyleTableRecord
  2
STANDARD
 70
     0
 41
2.0
 44
0.125
 47
0.00001
 48
0.00001
 78
     4
140
1.333333333299999
271
     5
272
     5
284
     4
340
11
341
21A
342
21A
343
21A
344
21A
  0
DIMSTYLE
105
239
330
A
100
AcDbSymbolTableRecord
100
AcDbDimStyleTableRecord
  2
DIMSTYLE_1
 70
     0
 41
2.0
 44
0.125
 78
     4
140
1.333333333299999
147
0.0625
271
     3
272
     3
284
     4
340
11
341
21A
342
21A
343
21A
344
21A
  0
DIMSTYLE
105
23A
330
A
100
AcDbSymbolTableRecord
100
AcDbDimStyleTableRecord
  2
DIMSTYLE_2
 70
     0
 41
2.0
 44
0.125
 78
     4
140
1.333333333299999
271
     0
272
     0
284
     4
340
11
341
21A
342
21A
343
21A
344
21A
  0
ENDTAB
  0
TABLE
  2
BLOCK_RECORD
  5
1
330
0
100
AcDbSymbolTable
 70
     7
  0
BLOCK_RECORD
  5
218
330
1
100
AcDbSymbolTableRecord
100
AcDbBlockTableRecord
  2
*Model_Space
340
1DF4
  0
BLOCK_RECORD
  5
219
330
1
100
AcDbSymbolTableRecord
100
AcDbBlockTableRecord
  2
*Paper_Space
340
1DF5
  0
BLOCK_RECORD
  5
21A
330
1
100
AcDbSymbolTableRecord
100
AcDbBlockTableRecord
  2
_FILLED
340
0
  0
BLOCK_RECORD
  5
232
330
1
100
AcDbSymbolTableRecord
100
AcDbBlockTableRecord
  2
SYMBOL_7_BL5
340
0
  0
BLOCK_RECORD
  5
233
330
1
100
AcDbSymbolTableRecord
100
AcDbBlockTableRecord
  2
SYMBOL_4_BL4
340
0
  0
BLOCK_RECORD
  5
234
330
1
100
AcDbSymbolTableRecord
100
AcDbBlockTableRecord
  2
SYMBOL_10_BL3
340
0
  0
BLOCK_RECORD
  5
235
330
1
100
AcDbSymbolTableRecord
100
AcDbBlockTableRecord
  2
SYMBOL_6_BL2
340
0
  0
BLOCK_RECORD
  5
236
330
1
100
AcDbSymbolTableRecord
100
AcDbBlockTableRecord
  2
SYMBOL_3_BL1
340
0
  0
BLOCK_RECORD
  5
237
330
1
100
AcDbSymbolTableRecord
100
AcDbBlockTableRecord
  2
SYMBOL_0_BL0
340
0
  0
ENDTAB
  0
ENDSEC
  0
SECTION
  2
BLOCKS
  0
BLOCK
  5
20
330
218
100
AcDbEntity
  8
0
100
AcDbBlockBegin
  2
*Model_Space
 70
     0
 10
0.0
 20
0.0
 30
0.0
  3
*Model_Space
  1

  0
ENDBLK
  5
21
330
218
100
AcDbEntity
  8
0
100
AcDbBlockEnd
  0
BLOCK
  5
1C
330
219
100
AcDbEntity
 67
     1
  8
0
100
AcDbBlockBegin
  2
*Paper_Space
 70
     0
 10
0.0
 20
0.0
 30
0.0
  3
*Paper_Space
  1

  0
ENDBLK
  5
1D
330
219
100
AcDbEntity
 67
     1
  8
0
100
AcDbBlockEnd
  0
BLOCK
  5
31A
330
21A
100
AcDbEntity
  8
0
100
AcDbBlockBegin
  2
_FILLED
 70
     0
 10
0.0
 20
0.0
 30
0.0
  3
_FILLED
  1

  0
SOLID
  5
31B
330
21A
100
AcDbEntity
  8
0
  6
ByBlock
 62
     0
100
AcDbTrace
 10
0.0
 20
0.0
 30
0.0
 11
-1.0
 21
0.1666666667
 31
0.0
 12
-1.0
 22
-0.1666666667
 32
0.0
 13
-1.0
 23
-0.1666666667
 33
0.0
  0
ENDBLK
  5
31C
330
21A
100
AcDbEntity
  8
0
  6
ByBlock
 62
     0
100
AcDbBlockEnd
  0
BLOCK
  5
23B
330
232
100
AcDbEntity
  8
0
  6
Continuous
 62
     7
100
AcDbBlockBegin
  2
SYMBOL_7_BL5
 70
     0
 10
61.7791764196
 20
67.1849258593
 30
0.0
  3
SYMBOL_7_BL5
  1

  0
TEXT
  5
23C
330
232
100
AcDbEntity
  8
0
  6
Continuous
 62
     7
100
AcDbText
 10
61.35596959699999
 20
66.420749455
 30
0.0
 40
1.333333852099999
  1
L
 50
10.0
  7
TEXTSTYLE_2
100
AcDbText
  0
TEXT
  5
23D
330
232
100
AcDbEntity
  8
0
  6
Continuous
 62
     7
100
AcDbText
 10
57.2218589652
 20
65.7043964945
 30
0.0
 40
1.333333852099999
  1
16
 50
10.0
  7
TEXTSTYLE_2
100
AcDbText
  0
TEXT
  5
23E
330
232
100
AcDbEntity
  8
0
  6
Continuous
 62
     7
100
AcDbText
 10
64.55463934489999
 20
66.99736351899999
 30
0.0
 40
1.333333852099999
  1
15
 50
10.0
  7
TEXTSTYLE_2
100
AcDbText
  0
ELLIPSE
  5
23F
330
232
100
AcDbEntity
  8
0
  6
Continuous
 62
     7
100
AcDbEllipse
 10
61.76057185609999
 20
67.16904308770001
 30
0.0
 11
-1.913370740099999
 21
-0.3373788856
 31
0.0
210
0.0
220
0.0
230
1.0
 40
0.6606458385
 41
0.0
 42
6.283185307179586
  0
ENDBLK
  5
240
330
232
100
AcDbEntity
  8
0
  6
ByBlock
 62
     0
100
AcDbBlockEnd
  0
BLOCK
  5
241
330
233
100
AcDbEntity
  8
0
  6
Continuous
 62
     7
100
AcDbBlockBegin
  2
SYMBOL_4_BL4
 70
     0
 10
75.82079054340001
 20
77.966753099
 30
0.0
  3
SYMBOL_4_BL4
  1

  0
TEXT
  5
242
330
233
100
AcDbEntity
  8
0
  6
Continuous
 62
     7
100
AcDbText
 10
75.25782736149999
 20
77.3000861729
 30
0.0
 40
1.333333852099999
  1
T
  7
TEXTSTYLE_2
100
AcDbText
  0
ELLIPSE
  5
243
330
233
100
AcDbEntity
  8
0
  6
Continuous
 62
     7
100
AcDbEllipse
 10
75.82079054340001
 20
77.966753099
 30
0.0
 11
-1.942887567899999
 21
0.0
 31
0.0
210
0.0
220
0.0
230
1.0
 40
0.6606458385
 41
0.0
 42
6.283185307179586
  0
ENDBLK
  5
244
330
233
100
AcDbEntity
  8
0
  6
ByBlock
 62
     0
100
AcDbBlockEnd
  0
BLOCK
  5
245
330
234
100
AcDbEntity
  8
0
  6
Continuous
 62
     7
100
AcDbBlockBegin
  2
SYMBOL_10_BL3
 70
     0
 10
109.221562367
 20
44.8326375423
 30
0.0
  3
SYMBOL_10_BL3
  1

  0
TEXT
  5
246
330
234
100
AcDbEntity
  8
0
  6
Continuous
 62
     7
100
AcDbText
 10
102.9075020652
 20
47.077671528
 30
0.0
 40
1.1626666667
  1
INTERNAL USE 
 50
10.0
  7
TEXTSTYLE_3
100
AcDbText
  0
TEXT
  5
247
330
234
100
AcDbEntity
  8
0
  6
Continuous
 62
     7
100
AcDbText
 10
102.1638178612
 20
45.07615035039999
 30
0.0
 40
1.1626666667
  1
DOCUMENT ONLY
 50
10.0
  7
TEXTSTYLE_3
100
AcDbText
  0
TEXT
  5
248
330
234
100
AcDbEntity
  8
0
  6
Continuous
 62
     7
100
AcDbText
 10
107.9485454245
 20
44.82772229979999
 30
0.0
 40
1.1626666667
  1
 
 50
10.0
  7
TEXTSTYLE_5
100
AcDbText
  0
TEXT
  5
249
330
234
100
AcDbEntity
  8
0
  6
Continuous
 62
     7
100
AcDbText
 10
99.5038975415
 20
40.6506278935
 30
0.0
 40
1.1626666667
  1
DOCUMENT POUR USAGE
 50
10.0
  7
TEXTSTYLE_3
100
AcDbText
  0
TEXT
  5
24A
330
234
100
AcDbEntity
  8
0
  6
Continuous
 62
     7
100
AcDbText
 10
99.9329969875
 20
38.6338794331
 30
0.0
 40
1.1626666667
  1
A L'INTERNE SEULEMENT
 50
10.0
  7
TEXTSTYLE_3
100
AcDbText
  0
LINE
  5
24B
330
234
100
AcDbEntity
  8
0
  6
Continuous
 62
     7
100
AcDbLine
 10
123.0781140903
 20
40.48910392429999
 30
0.0
 11
123.084873023
 21
40.4958628569
 31
0.0
  0
LINE
  5
24C
330
234
100
AcDbEntity
  8
0
  6
Continuous
 62
     7
100
AcDbLine
 10
122.3455445239
 20
40.3599321445
 30
0.0
 11
122.994425969
 21
41.0088135896
 31
0.0
  0
LINE
  5
24D
330
234
100
AcDbEntity
  8
0
  6
Continuous
 62
     7
100
AcDbLine
 10
121.6129749575
 20
40.2307603647
 30
0.0
 11
122.9039789151
 21
41.5217643223
 31
0.0
  0
LINE
  5
24E
330
234
100
AcDbEntity
  8
0
  6
Continuous
 62
     7
100
AcDbLine
 10
120.8804053911
 20
40.1015885849
 30
0.0
 11
122.8135318611
 21
42.03471505489999
 31
0.0
  0
LINE
  5
24F
330
234
100
AcDbEntity
  8
0
  6
Continuous
 62
     7
100
AcDbLine
 10
120.1478358246
 20
39.97241680510001
 30
0.0
 11
122.7230848072
 21
42.5476657876
 31
0.0
  0
LINE
  5
250
330
234
100
AcDbEntity
  8
0
  6
Continuous
 62
     7
100
AcDbLine
 10
119.4152662582
 20
39.8432450252
 30
0.0
 11
120.956270073
 21
41.38424883999999
 31
0.0
  0
LINE
  5
251
330
234
100
AcDbEntity
  8
0
  6
Continuous
 62
     7
100
AcDbLine
 10
121.5536152657
 20
41.9815940327
 30
0.0
 11
122.6326377532
 21
43.06061652029999
 31
0.0
  0
LINE
  5
252
330
234
100
AcDbEntity
  8
0
  6
Continuous
 62
     7
100
AcDbLine
 10
118.6826966918
 20
39.7140732454
 30
0.0
 11
120.2237005066
 21
41.2550770602
 31
0.0
  0
LINE
  5
253
330
234
100
AcDbEntity
  8
0
  6
Continuous
 62
     7
100
AcDbLine
 10
121.4631682118
 20
42.4945447654
 30
0.0
 11
122.5421906993
 21
43.57356725289999
 31
0.0
  0
LINE
  5
254
330
234
100
AcDbEntity
  8
0
  6
Continuous
 62
     7
100
AcDbLine
 10
117.9501271254
 20
39.5849014656
 30
0.0
 11
119.4911309402
 21
41.1259052804
 31
0.0
  0
LINE
  5
255
330
234
100
AcDbEntity
  8
0
  6
Continuous
 62
     7
100
AcDbLine
 10
121.3727211578
 20
43.0074954981
 30
0.0
 11
122.4517436454
 21
44.0865179856
 31
0.0
  0
LINE
  5
256
330
234
100
AcDbEntity
  8
0
  6
Continuous
 62
     7
100
AcDbLine
 10
117.217557559
 20
39.4557296858
 30
0.0
 11
118.7585613737
 21
40.9967335006
 31
0.0
  0
LINE
  5
257
330
234
100
AcDbEntity
  8
0
  6
Continuous
 62
     7
100
AcDbLine
 10
121.2822741039
 20
43.5204462308
 30
0.0
 11
122.3612965914
 21
44.5994687183
 31
0.0
  0
LINE
  5
258
330
234
100
AcDbEntity
  8
0
  6
Continuous
 62
     7
100
AcDbLine
 10
116.4849879926
 20
39.326557906
 30
0.0
 11
118.0259918073
 21
40.8675617208
 31
0.0
  0
LINE
  5
259
330
234
100
AcDbEntity
  8
0
  6
Continuous
 62
     7
100
AcDbLine
 10
121.1918270499
 20
44.0333969634
 30
0.0
 11
122.2708495375
 21
45.1124194509
 31
0.0
  0
LINE
  5
25A
330
234
100
AcDbEntity
  8
0
  6
Continuous
 62
     7
100
AcDbLine
 10
115.7524184261
 20
39.1973861262
 30
0.0
 11
117.2934222409
 21
40.73838994099999
 31
0.0
  0
LINE
  5
25B
330
234
100
AcDbEntity
  8
0
  6
Continuous
 62
     7
100
AcDbLine
 10
121.101379996
 20
44.5463476961
 30
0.0
 11
122.1804024835
 21
45.62537018359999
 31
0.0
  0
LINE
  5
25C
330
234
100
AcDbEntity
  8
0
  6
Continuous
 62
     7
100
AcDbLine
 10
115.0198488597
 20
39.0682143464
 30
0.0
 11
116.5608526745
 21
40.60921816119999
 31
0.0
  0
LINE
  5
25D
330
234
100
AcDbEntity
  8
0
  6
Continuous
 62
     7
100
AcDbLine
 10
121.0109329421
 20
45.05929842879999
 30
0.0
 11
122.0899554296
 21
46.1383209163
 31
0.0
  0
LINE
  5
25E
330
234
100
AcDbEntity
  8
0
  6
Continuous
 62
     7
100
AcDbLine
 10
114.2872792933
 20
38.9390425666
 30
0.0
 11
115.8282831081
 21
40.4800463814
 31
0.0
  0
LINE
  5
25F
330
234
100
AcDbEntity
  8
0
  6
Continuous
 62
     7
100
AcDbLine
 10
120.9204858881
 20
45.5722491614
 30
0.0
 11
121.9995083756
 21
46.6512716489
 31
0.0
  0
LINE
  5
260
330
234
100
AcDbEntity
  8
0
  6
Continuous
 62
     7
100
AcDbLine
 10
113.5547097269
 20
38.8098707868
 30
0.0
 11
115.0957135417
 21
40.35087460159999
 31
0.0
  0
LINE
  5
261
330
234
100
AcDbEntity
  8
0
  6
Continuous
 62
     7
100
AcDbLine
 10
120.8300388342
 20
46.0851998941
 30
0.0
 11
121.9090613217
 21
47.16422238159999
 31
0.0
  0
LINE
  5
262
330
234
100
AcDbEntity
  8
0
  6
Continuous
 62
     7
100
AcDbLine
 10
112.8221401605
 20
38.680699007
 30
0.0
 11
114.3631439752
 21
40.2217028218
 31
0.0
  0
LINE
  5
263
330
234
100
AcDbEntity
  8
0
  6
Continuous
 62
     7
100
AcDbLine
 10
120.5271592343
 20
46.3857180809
 30
0.0
 11
121.8186142677
 21
47.6771731143
 31
0.0
  0
LINE
  5
264
330
234
100
AcDbEntity
  8
0
  6
Continuous
 62
     7
100
AcDbLine
 10
112.089570594
 20
38.5515272272
 30
0.0
 11
113.6305744088
 21
40.09253104199999
 31
0.0
  0
LINE
  5
265
330
234
100
AcDbEntity
  8
0
  6
Continuous
 62
     7
100
AcDbLine
 10
119.7945896679
 20
46.25654630109999
 30
0.0
 11
121.7281672138
 21
48.19012384699999
 31
0.0
  0
LINE
  5
266
330
234
100
AcDbEntity
  8
0
  6
Continuous
 62
     7
100
AcDbLine
 10
111.3570010276
 20
38.4223554474
 30
0.0
 11
112.8980048424
 21
39.9633592622
 31
0.0
  0
LINE
  5
267
330
234
100
AcDbEntity
  8
0
  6
Continuous
 62
     7
100
AcDbLine
 10
119.0620201015
 20
46.1273745213
 30
0.0
 11
120.0893623998
 21
47.15471681949999
 31
0.0
  0
LINE
  5
268
330
234
100
AcDbEntity
  8
0
  6
Continuous
 62
     7
100
AcDbLine
 10
120.5586976723
 20
47.6240520921
 30
0.0
 11
121.6377201599
 21
48.7030745796
 31
0.0
  0
LINE
  5
269
330
234
100
AcDbEntity
  8
0
  6
Continuous
 62
     7
100
AcDbLine
 10
110.6244314612
 20
38.29318366760001
 30
0.0
 11
112.165435276
 21
39.8341874824
 31
0.0
  0
LINE
  5
26A
330
234
100
AcDbEntity
  8
0
  6
Continuous
 62
     7
100
AcDbLine
 10
118.3294505351
 20
45.99820274149999
 30
0.0
 11
119.3567926237
 21
47.0255448301
 31
0.0
  0
LINE
  5
26B
330
234
100
AcDbEntity
  8
0
  6
Continuous
 62
     7
100
AcDbLine
 10
120.4682506184
 20
48.13700282479999
 30
0.0
 11
121.5472731059
 21
49.2160253123
 31
0.0
  0
LINE
  5
26C
330
234
100
AcDbEntity
  8
0
  6
Continuous
 62
     7
100
AcDbLine
 10
109.8918618948
 20
38.1640118878
 30
0.0
 11
111.4328657096
 21
39.7050157026
 31
0.0
  0
LINE
  5
26D
330
234
100
AcDbEntity
  8
0
  6
Continuous
 62
     7
100
AcDbLine
 10
117.5968809687
 20
45.8690309617
 30
0.0
 11
118.6242228477
 21
46.89637284069999
 31
0.0
  0
LINE
  5
26E
330
234
100
AcDbEntity
  8
0
  6
Continuous
 62
     7
100
AcDbLine
 10
120.3778035645
 20
48.64995355739999
 30
0.0
 11
121.456826052
 21
49.728976045
 31
0.0
  0
LINE
  5
26F
330
234
100
AcDbEntity
  8
0
  6
Continuous
 62
     7
100
AcDbLine
 10
109.1592923284
 20
38.034840108
 30
0.0
 11
110.7002961431
 21
39.5758439227
 31
0.0
  0
LINE
  5
270
330
234
100
AcDbEntity
  8
0
  6
Continuous
 62
     7
100
AcDbLine
 10
116.8643114023
 20
45.73985918189999
 30
0.0
 11
117.8916530717
 21
46.7672008513
 31
0.0
  0
LINE
  5
271
330
234
100
AcDbEntity
  8
0
  6
Continuous
 62
     7
100
AcDbLine
 10
120.2873565105
 20
49.1629042901
 30
0.0
 11
121.366378998
 21
50.2419267776
 31
0.0
  0
LINE
  5
272
330
234
100
AcDbEntity
  8
0
  6
Continuous
 62
     7
100
AcDbLine
 10
108.426722762
 20
37.9056683282
 30
0.0
 11
109.9677265767
 21
39.4466721429
 31
0.0
  0
LINE
  5
273
330
234
100
AcDbEntity
  8
0
  6
Continuous
 62
     7
100
AcDbLine
 10
116.1317418358
 20
45.61068740199999
 30
0.0
 11
117.1590832957
 21
46.6380288619
 31
0.0
  0
LINE
  5
274
330
234
100
AcDbEntity
  8
0
  6
Continuous
 62
     7
100
AcDbLine
 10
120.1969094566
 20
49.6758550228
 30
0.0
 11
121.2759319441
 21
50.75487751029999
 31
0.0
  0
LINE
  5
275
330
234
100
AcDbEntity
  8
0
  6
Continuous
 62
     7
100
AcDbLine
 10
107.6941531955
 20
37.77649654840001
 30
0.0
 11
109.2351570103
 21
39.3175003631
 31
0.0
  0
LINE
  5
276
330
234
100
AcDbEntity
  8
0
  6
Continuous
 62
     7
100
AcDbLine
 10
115.3991722694
 20
45.4815156222
 30
0.0
 11
116.4265135196
 21
46.50885687249999
 31
0.0
  0
LINE
  5
277
330
234
100
AcDbEntity
  8
0
  6
Continuous
 62
     7
100
AcDbLine
 10
120.1064624026
 20
50.18880575539999
 30
0.0
 11
121.1854848901
 21
51.26782824300001
 31
0.0
  0
LINE
  5
278
330
234
100
AcDbEntity
  8
0
  6
Continuous
 62
     7
100
AcDbLine
 10
106.9615836291
 20
37.6473247686
 30
0.0
 11
108.5025874439
 21
39.1883285833
 31
0.0
  0
LINE
  5
279
330
234
100
AcDbEntity
  8
0
  6
Continuous
 62
     7
100
AcDbLine
 10
114.666602703
 20
45.35234384239999
 30
0.0
 11
115.6939437436
 21
46.379684883
 31
0.0
  0
LINE
  5
27A
330
234
100
AcDbEntity
  8
0
  6
Continuous
 62
     7
100
AcDbLine
 10
120.0160153487
 20
50.7017564881
 30
0.0
 11
121.0950378362
 21
51.78077897560001
 31
0.0
  0
LINE
  5
27B
330
234
100
AcDbEntity
  8
0
  6
Continuous
 62
     7
100
AcDbLine
 10
106.2290140627
 20
37.51815298869999
 30
0.0
 11
107.7700178775
 21
39.0591568035
 31
0.0
  0
LINE
  5
27C
330
234
100
AcDbEntity
  8
0
  6
Continuous
 62
     7
100
AcDbLine
 10
113.9340331366
 20
45.2231720626
 30
0.0
 11
114.9613739676
 21
46.25051289359999
 31
0.0
  0
LINE
  5
27D
330
234
100
AcDbEntity
  8
0
  6
Continuous
 62
     7
100
AcDbLine
 10
119.9255682947
 20
51.2147072208
 30
0.0
 11
121.0045907823
 21
52.2937297083
 31
0.0
  0
LINE
  5
27E
330
234
100
AcDbEntity
  8
0
  6
Continuous
 62
     7
100
AcDbLine
 10
105.4964444963
 20
37.3889812089
 30
0.0
 11
107.0374483111
 21
38.9299850237
 31
0.0
  0
LINE
  5
27F
330
234
100
AcDbEntity
  8
0
  6
Continuous
 62
     7
100
AcDbLine
 10
113.2014635702
 20
45.09400028279999
 30
0.0
 11
114.2288041915
 21
46.1213409042
 31
0.0
  0
LINE
  5
280
330
234
100
AcDbEntity
  8
0
  6
Continuous
 62
     7
100
AcDbLine
 10
119.8351212408
 20
51.72765795350001
 30
0.0
 11
120.9141437283
 21
52.806680441
 31
0.0
  0
LINE
  5
281
330
234
100
AcDbEntity
  8
0
  6
Continuous
 62
     7
100
AcDbLine
 10
104.7638749299
 20
37.2598094291
 30
0.0
 11
106.3048787446
 21
38.8008132439
 31
0.0
  0
LINE
  5
282
330
234
100
AcDbEntity
  8
0
  6
Continuous
 62
     7
100
AcDbLine
 10
112.4688940037
 20
44.964828503
 30
0.0
 11
113.4962344155
 21
45.9921689148
 31
0.0
  0
LINE
  5
283
330
234
100
AcDbEntity
  8
0
  6
Continuous
 62
     7
100
AcDbLine
 10
119.6602451394
 20
52.15617963859999
 30
0.0
 11
120.8236966744
 21
53.31963117359999
 31
0.0
  0
LINE
  5
284
330
234
100
AcDbEntity
  8
0
  6
Continuous
 62
     7
100
AcDbLine
 10
104.0313053634
 20
37.1306376493
 30
0.0
 11
105.5723091782
 21
38.6716414641
 31
0.0
  0
LINE
  5
285
330
234
100
AcDbEntity
  8
0
  6
Continuous
 62
     7
100
AcDbLine
 10
111.7363244373
 20
44.8356567232
 30
0.0
 11
112.7636646395
 21
45.86299692539999
 31
0.0
  0
LINE
  5
286
330
234
100
AcDbEntity
  8
0
  6
Continuous
 62
     7
100
AcDbLine
 10
118.927675573
 20
52.02700785880001
 30
0.0
 11
120.4686793877
 21
53.5680116736
 31
0.0
  0
LINE
  5
287
330
234
100
AcDbEntity
  8
0
  6
Continuous
 62
     7
100
AcDbLine
 10
103.298735797
 20
37.0014658695
 30
0.0
 11
104.8397396118
 21
38.5424696843
 31
0.0
  0
LINE
  5
288
330
234
100
AcDbEntity
  8
0
  6
Continuous
 62
     7
100
AcDbLine
 10
111.0037548709
 20
44.70648494339999
 30
0.0
 11
112.0310948635
 21
45.733824936
 31
0.0
  0
LINE
  5
289
330
234
100
AcDbEntity
  8
0
  6
Continuous
 62
     7
100
AcDbLine
 10
118.1951060065
 20
51.89783607899999
 30
0.0
 11
119.7361098213
 21
53.4388398938
 31
0.0
  0
LINE
  5
28A
330
234
100
AcDbEntity
  8
0
  6
Continuous
 62
     7
100
AcDbLine
 10
102.5661662306
 20
36.8722940897
 30
0.0
 11
104.1071700454
 21
38.4132979045
 31
0.0
  0
LINE
  5
28B
330
234
100
AcDbEntity
  8
0
  6
Continuous
 62
     7
100
AcDbLine
 10
110.2711853045
 20
44.57731316359999
 30
0.0
 11
111.2985250874
 21
45.6046529465
 31
0.0
  0
LINE
  5
28C
330
234
100
AcDbEntity
  8
0
  6
Continuous
 62
     7
100
AcDbLine
 10
117.4625364401
 20
51.7686642992
 30
0.0
 11
119.0035402549
 21
53.30966811399999
 31
0.0
  0
LINE
  5
28D
330
234
100
AcDbEntity
  8
0
  6
Continuous
 62
     7
100
AcDbLine
 10
101.8335966642
 20
36.7431223099
 30
0.0
 11
103.374600479
 21
38.2841261247
 31
0.0
  0
LINE
  5
28E
330
234
100
AcDbEntity
  8
0
  6
Continuous
 62
     7
100
AcDbLine
 10
109.5386157381
 20
44.44814138379999
 30
0.0
 11
110.5659553114
 21
45.4754809571
 31
0.0
  0
LINE
  5
28F
330
234
100
AcDbEntity
  8
0
  6
Continuous
 62
     7
100
AcDbLine
 10
116.7299668737
 20
51.6394925194
 30
0.0
 11
118.2709706885
 21
53.1804963342
 31
0.0
  0
LINE
  5
290
330
234
100
AcDbEntity
  8
0
  6
Continuous
 62
     7
100
AcDbLine
 10
101.1010270978
 20
36.61395053010001
 30
0.0
 11
102.6420309126
 21
38.1549543449
 31
0.0
  0
LINE
  5
291
330
234
100
AcDbEntity
  8
0
  6
Continuous
 62
     7
100
AcDbLine
 10
108.8060461717
 20
44.31896960399999
 30
0.0
 11
109.8333855354
 21
45.3463089677
 31
0.0
  0
LINE
  5
292
330
234
100
AcDbEntity
  8
0
  6
Continuous
 62
     7
100
AcDbLine
 10
115.9973973073
 20
51.51032073959999
 30
0.0
 11
117.5384011221
 21
53.05132455439999
 31
0.0
  0
LINE
  5
293
330
234
100
AcDbEntity
  8
0
  6
Continuous
 62
     7
100
AcDbLine
 10
100.3684575314
 20
36.4847787503
 30
0.0
 11
101.9094613461
 21
38.0257825651
 31
0.0
  0
LINE
  5
294
330
234
100
AcDbEntity
  8
0
  6
Continuous
 62
     7
100
AcDbLine
 10
108.0734766052
 20
44.1897978242
 30
0.0
 11
109.1008157593
 21
45.2171369783
 31
0.0
  0
LINE
  5
295
330
234
100
AcDbEntity
  8
0
  6
Continuous
 62
     7
100
AcDbLine
 10
115.2648277409
 20
51.38114895979999
 30
0.0
 11
116.8058315556
 21
52.9221527746
 31
0.0
  0
LINE
  5
296
330
234
100
AcDbEntity
  8
0
  6
Continuous
 62
     7
100
AcDbLine
 10
99.6358879649
 20
36.3556069705
 30
0.0
 11
101.1768917797
 21
37.89661078530001
 31
0.0
  0
LINE
  5
297
330
234
100
AcDbEntity
  8
0
  6
Continuous
 62
     7
100
AcDbLine
 10
107.3409070388
 20
44.06062604439999
 30
0.0
 11
108.3682459833
 21
45.0879649889
 31
0.0
  0
LINE
  5
298
330
234
100
AcDbEntity
  8
0
  6
Continuous
 62
     7
100
AcDbLine
 10
114.5322581745
 20
51.25197717999999
 30
0.0
 11
116.0732619892
 21
52.7929809948
 31
0.0
  0
LINE
  5
299
330
234
100
AcDbEntity
  8
0
  6
Continuous
 62
     7
100
AcDbLine
 10
98.9033183985
 20
36.2264351907
 30
0.0
 11
100.4443222133
 21
37.7674390055
 31
0.0
  0
LINE
  5
29A
330
234
100
AcDbEntity
  8
0
  6
Continuous
 62
     7
100
AcDbLine
 10
106.6083374724
 20
43.9314542646
 30
0.0
 11
107.6356762073
 21
44.9587929995
 31
0.0
  0
LINE
  5
29B
330
234
100
AcDbEntity
  8
0
  6
Continuous
 62
     7
100
AcDbLine
 10
113.799688608
 20
51.12280540020001
 30
0.0
 11
115.3406924228
 21
52.663809215
 31
0.0
  0
LINE
  5
29C
330
234
100
AcDbEntity
  8
0
  6
Continuous
 62
     7
100
AcDbLine
 10
98.17074883209999
 20
36.0972634109
 30
0.0
 11
99.71175264690002
 21
37.6382672257
 31
0.0
  0
LINE
  5
29D
330
234
100
AcDbEntity
  8
0
  6
Continuous
 62
     7
100
AcDbLine
 10
105.875767906
 20
43.80228248479999
 30
0.0
 11
106.9031064313
 21
44.82962101
 31
0.0
  0
LINE
  5
29E
330
234
100
AcDbEntity
  8
0
  6
Continuous
 62
     7
100
AcDbLine
 10
113.0671190416
 20
50.9936336204
 30
0.0
 11
114.6081228564
 21
52.53463743520001
 31
0.0
  0
LINE
  5
29F
330
234
100
AcDbEntity
  8
0
  6
Continuous
 62
     7
100
AcDbLine
 10
97.6194280596
 20
36.149340425
 30
0.0
 11
98.9791830805
 21
37.5090954459
 31
0.0
  0
LINE
  5
2A0
330
234
100
AcDbEntity
  8
0
  6
Continuous
 62
     7
100
AcDbLine
 10
105.1431983396
 20
43.673110705
 30
0.0
 11
106.1705366552
 21
44.7004490206
 31
0.0
  0
LINE
  5
2A1
330
234
100
AcDbEntity
  8
0
  6
Continuous
 62
     7
100
AcDbLine
 10
112.3345494752
 20
50.86446184060001
 30
0.0
 11
113.87555329
 21
52.4054656554
 31
0.0
  0
LINE
  5
2A2
330
234
100
AcDbEntity
  8
0
  6
Continuous
 62
     7
100
AcDbLine
 10
97.52898100559999
 20
36.6622911576
 30
0.0
 11
98.60800349320001
 21
37.7413136452
 31
0.0
  0
LINE
  5
2A3
330
234
100
AcDbEntity
  8
0
  6
Continuous
 62
     7
100
AcDbLine
 10
104.4106287732
 20
43.5439389252
 30
0.0
 11
105.4379668792
 21
44.5712770312
 31
0.0
  0
LINE
  5
2A4
330
234
100
AcDbEntity
  8
0
  6
Continuous
 62
     7
100
AcDbLine
 10
111.6019799088
 20
50.7352900608
 30
0.0
 11
113.1429837236
 21
52.2762938756
 31
0.0
  0
LINE
  5
2A5
330
234
100
AcDbEntity
  8
0
  6
Continuous
 62
     7
100
AcDbLine
 10
97.43853395169999
 20
37.1752418903
 30
0.0
 11
98.5175564392
 21
38.25426437780001
 31
0.0
  0
LINE
  5
2A6
330
234
100
AcDbEntity
  8
0
  6
Continuous
 62
     7
100
AcDbLine
 10
103.6780592067
 20
43.41476714539999
 30
0.0
 11
104.7053971032
 21
44.4421050418
 31
0.0
  0
LINE
  5
2A7
330
234
100
AcDbEntity
  8
0
  6
Continuous
 62
     7
100
AcDbLine
 10
110.8694103424
 20
50.606118281
 30
0.0
 11
112.4104141571
 21
52.1471220958
 31
0.0
  0
LINE
  5
2A8
330
234
100
AcDbEntity
  8
0
  6
Continuous
 62
     7
100
AcDbLine
 10
97.34808689780001
 20
37.688192623
 30
0.0
 11
98.42710938530002
 21
38.7672151105
 31
0.0
  0
LINE
  5
2A9
330
234
100
AcDbEntity
  8
0
  6
Continuous
 62
     7
100
AcDbLine
 10
102.9454896403
 20
43.2855953656
 30
0.0
 11
103.9728273271
 21
44.31293305239999
 31
0.0
  0
LINE
  5
2AA
330
234
100
AcDbEntity
  8
0
  6
Continuous
 62
     7
100
AcDbLine
 10
110.1368407759
 20
50.4769465012
 30
0.0
 11
111.6778445907
 21
52.017950316
 31
0.0
  0
LINE
  5
2AB
330
234
100
AcDbEntity
  8
0
  6
Continuous
 62
     7
100
AcDbLine
 10
97.2576398438
 20
38.2011433557
 30
0.0
 11
98.33666233129999
 21
39.2801658432
 31
0.0
  0
LINE
  5
2AC
330
234
100
AcDbEntity
  8
0
  6
Continuous
 62
     7
100
AcDbLine
 10
102.2129200739
 20
43.15642358569999
 30
0.0
 11
103.2402575511
 21
44.183761063
 31
0.0
  0
LINE
  5
2AD
330
234
100
AcDbEntity
  8
0
  6
Continuous
 62
     7
100
AcDbLine
 10
109.4042712095
 20
50.3477747214
 30
0.0
 11
110.9452750243
 21
51.8887785362
 31
0.0
  0
LINE
  5
2AE
330
234
100
AcDbEntity
  8
0
  6
Continuous
 62
     7
100
AcDbLine
 10
97.1671927899
 20
38.7140940883
 30
0.0
 11
98.24621527739999
 21
39.7931165758
 31
0.0
  0
LINE
  5
2AF
330
234
100
AcDbEntity
  8
0
  6
Continuous
 62
     7
100
AcDbLine
 10
101.4803505075
 20
43.0272518059
 30
0.0
 11
102.5076877751
 21
44.0545890735
 31
0.0
  0
LINE
  5
2B0
330
234
100
AcDbEntity
  8
0
  6
Continuous
 62
     7
100
AcDbLine
 10
108.6717016431
 20
50.21860294159999
 30
0.0
 11
110.2127054579
 21
51.7596067563
 31
0.0
  0
LINE
  5
2B1
330
234
100
AcDbEntity
  8
0
  6
Continuous
 62
     7
100
AcDbLine
 10
97.07674573590001
 20
39.227044821
 30
0.0
 11
98.1557682234
 21
40.30606730849999
 31
0.0
  0
LINE
  5
2B2
330
234
100
AcDbEntity
  8
0
  6
Continuous
 62
     7
100
AcDbLine
 10
100.7477809411
 20
42.8980800261
 30
0.0
 11
101.7751179991
 21
43.92541708409999
 31
0.0
  0
LINE
  5
2B3
330
234
100
AcDbEntity
  8
0
  6
Continuous
 62
     7
100
AcDbLine
 10
107.9391320767
 20
50.0894311618
 30
0.0
 11
109.4801358915
 21
51.6304349765
 31
0.0
  0
LINE
  5
2B4
330
234
100
AcDbEntity
  8
0
  6
Continuous
 62
     7
100
AcDbLine
 10
96.98629868200001
 20
39.7399955537
 30
0.0
 11
98.06532116950002
 21
40.8190180412
 31
0.0
  0
LINE
  5
2B5
330
234
100
AcDbEntity
  8
0
  6
Continuous
 62
     7
100
AcDbLine
 10
100.0152113746
 20
42.7689082463
 30
0.0
 11
101.042548223
 21
43.79624509470001
 31
0.0
  0
LINE
  5
2B6
330
234
100
AcDbEntity
  8
0
  6
Continuous
 62
     7
100
AcDbLine
 10
107.2065625103
 20
49.96025938199999
 30
0.0
 11
108.747566325
 21
51.5012631967
 31
0.0
  0
LINE
  5
2B7
330
234
100
AcDbEntity
  8
0
  6
Continuous
 62
     7
100
AcDbLine
 10
96.895851628
 20
40.2529462863
 30
0.0
 11
97.97487411549999
 21
41.3319687738
 31
0.0
  0
LINE
  5
2B8
330
234
100
AcDbEntity
  8
0
  6
Continuous
 62
     7
100
AcDbLine
 10
99.28264180820001
 20
42.6397364665
 30
0.0
 11
100.309978447
 21
43.66707310529999
 31
0.0
  0
LINE
  5
2B9
330
234
100
AcDbEntity
  8
0
  6
Continuous
 62
     7
100
AcDbLine
 10
106.4739929439
 20
49.8310876022
 30
0.0
 11
108.0149967586
 21
51.3720914169
 31
0.0
  0
LINE
  5
2BA
330
234
100
AcDbEntity
  8
0
  6
Continuous
 62
     7
100
AcDbLine
 10
96.8054045741
 20
40.765897019
 30
0.0
 11
97.88442706159999
 21
41.8449195065
 31
0.0
  0
LINE
  5
2BB
330
234
100
AcDbEntity
  8
0
  6
Continuous
 62
     7
100
AcDbLine
 10
98.55007224180001
 20
42.51056468669999
 30
0.0
 11
99.577408671
 21
43.5379011159
 31
0.0
  0
LINE
  5
2BC
330
234
100
AcDbEntity
  8
0
  6
Continuous
 62
     7
100
AcDbLine
 10
105.7414233774
 20
49.7019158223
 30
0.0
 11
107.2824271922
 21
51.2429196371
 31
0.0
  0
LINE
  5
2BD
330
234
100
AcDbEntity
  8
0
  6
Continuous
 62
     7
100
AcDbLine
 10
96.71495752010001
 20
41.2788477517
 30
0.0
 11
97.79398000770001
 21
42.3578702392
 31
0.0
  0
LINE
  5
2BE
330
234
100
AcDbEntity
  8
0
  6
Continuous
 62
     7
100
AcDbLine
 10
97.81750267540001
 20
42.3813929069
 30
0.0
 11
98.84483889489999
 21
43.4087291265
 31
0.0
  0
LINE
  5
2BF
330
234
100
AcDbEntity
  8
0
  6
Continuous
 62
     7
100
AcDbLine
 10
105.008853811
 20
49.5727440425
 30
0.0
 11
106.5498576258
 21
51.11374785729999
 31
0.0
  0
LINE
  5
2C0
330
234
100
AcDbEntity
  8
0
  6
Continuous
 62
     7
100
AcDbLine
 10
96.62451046620001
 20
41.79179848429999
 30
0.0
 11
98.11226911889999
 21
43.27955713709999
 31
0.0
  0
LINE
  5
2C1
330
234
100
AcDbEntity
  8
0
  6
Continuous
 62
     7
100
AcDbLine
 10
104.2762842446
 20
49.4435722627
 30
0.0
 11
105.8172880594
 21
50.9845760775
 31
0.0
  0
LINE
  5
2C2
330
234
100
AcDbEntity
  8
0
  6
Continuous
 62
     7
100
AcDbLine
 10
96.53406341230001
 20
42.30474921699999
 30
0.0
 11
97.6130858998
 21
43.3837717045
 31
0.0
  0
LINE
  5
2C3
330
234
100
AcDbEntity
  8
0
  6
Continuous
 62
     7
100
AcDbLine
 10
103.5437146782
 20
49.31440048289999
 30
0.0
 11
105.084718493
 21
50.8554042977
 31
0.0
  0
LINE
  5
2C4
330
234
100
AcDbEntity
  8
0
  6
Continuous
 62
     7
100
AcDbLine
 10
96.44361635830001
 20
42.8176999497
 30
0.0
 11
97.52263884580001
 21
43.8967224372
 31
0.0
  0
LINE
  5
2C5
330
234
100
AcDbEntity
  8
0
  6
Continuous
 62
     7
100
AcDbLine
 10
102.8111451118
 20
49.1852287031
 30
0.0
 11
104.3521489265
 21
50.7262325179
 31
0.0
  0
LINE
  5
2C6
330
234
100
AcDbEntity
  8
0
  6
Continuous
 62
     7
100
AcDbLine
 10
96.35316930440001
 20
43.33065068229999
 30
0.0
 11
97.43219179190001
 21
44.4096731699
 31
0.0
  0
LINE
  5
2C7
330
234
100
AcDbEntity
  8
0
  6
Continuous
 62
     7
100
AcDbLine
 10
102.0785755453
 20
49.05605692329999
 30
0.0
 11
103.6195793601
 21
50.59706073810001
 31
0.0
  0
LINE
  5
2C8
330
234
100
AcDbEntity
  8
0
  6
Continuous
 62
     7
100
AcDbLine
 10
96.26272225040001
 20
43.843601415
 30
0.0
 11
97.34174473790002
 21
44.9226239025
 31
0.0
  0
LINE
  5
2C9
330
234
100
AcDbEntity
  8
0
  6
Continuous
 62
     7
100
AcDbLine
 10
101.3460059789
 20
48.9268851435
 30
0.0
 11
102.8870097937
 21
50.4678889583
 31
0.0
  0
LINE
  5
2CA
330
234
100
AcDbEntity
  8
0
  6
Continuous
 62
     7
100
AcDbLine
 10
96.1722751965
 20
44.3565521477
 30
0.0
 11
97.251297684
 21
45.4355746352
 31
0.0
  0
LINE
  5
2CB
330
234
100
AcDbEntity
  8
0
  6
Continuous
 62
     7
100
AcDbLine
 10
100.6134364125
 20
48.7977133637
 30
0.0
 11
102.1544402273
 21
50.33871717850001
 31
0.0
  0
LINE
  5
2CC
330
234
100
AcDbEntity
  8
0
  6
Continuous
 62
     7
100
AcDbLine
 10
96.0818281425
 20
44.8695028804
 30
0.0
 11
97.1608506301
 21
45.94852536789999
 31
0.0
  0
LINE
  5
2CD
330
234
100
AcDbEntity
  8
0
  6
Continuous
 62
     7
100
AcDbLine
 10
99.88086684610001
 20
48.6685415839
 30
0.0
 11
101.4218706609
 21
50.2095453987
 31
0.0
  0
LINE
  5
2CE
330
234
100
AcDbEntity
  8
0
  6
Continuous
 62
     7
100
AcDbLine
 10
95.99138108860001
 20
45.382453613
 30
0.0
 11
97.07040357610001
 21
46.46147610049999
 31
0.0
  0
LINE
  5
2CF
330
234
100
AcDbEntity
  8
0
  6
Continuous
 62
     7
100
AcDbLine
 10
99.14829727969999
 20
48.5393698041
 30
0.0
 11
100.6893010945
 21
50.0803736189
 31
0.0
  0
LINE
  5
2D0
330
234
100
AcDbEntity
  8
0
  6
Continuous
 62
     7
100
AcDbLine
 10
95.90093403469998
 20
45.89540434569999
 30
0.0
 11
96.97995652220001
 21
46.9744268332
 31
0.0
  0
LINE
  5
2D1
330
234
100
AcDbEntity
  8
0
  6
Continuous
 62
     7
100
AcDbLine
 10
98.4157277133
 20
48.4101980243
 30
0.0
 11
99.956731528
 21
49.9512018391
 31
0.0
  0
LINE
  5
2D2
330
234
100
AcDbEntity
  8
0
  6
Continuous
 62
     7
100
AcDbLine
 10
95.81048698069999
 20
46.4083550784
 30
0.0
 11
96.8895094682
 21
47.4873775659
 31
0.0
  0
LINE
  5
2D3
330
234
100
AcDbEntity
  8
0
  6
Continuous
 62
     7
100
AcDbLine
 10
97.68315814680001
 20
48.2810262445
 30
0.0
 11
99.2241619616
 21
49.8220300593
 31
0.0
  0
LINE
  5
2D4
330
234
100
AcDbEntity
  8
0
  6
Continuous
 62
     7
100
AcDbLine
 10
95.7200399268
 20
46.921305811
 30
0.0
 11
96.7990624143
 21
48.0003282985
 31
0.0
  0
LINE
  5
2D5
330
234
100
AcDbEntity
  8
0
  6
Continuous
 62
     7
100
AcDbLine
 10
96.95058858040001
 20
48.1518544647
 30
0.0
 11
98.4915923952
 21
49.6928582795
 31
0.0
  0
LINE
  5
2D6
330
234
100
AcDbEntity
  8
0
  6
Continuous
 62
     7
100
AcDbLine
 10
95.62959287279999
 20
47.4342565437
 30
0.0
 11
97.75902282879998
 21
49.5636864997
 31
0.0
  0
LINE
  5
2D7
330
234
100
AcDbEntity
  8
0
  6
Continuous
 62
     7
100
AcDbLine
 10
95.53914581889999
 20
47.9472072764
 30
0.0
 11
97.0264532624
 21
49.43451471979999
 31
0.0
  0
LINE
  5
2D8
330
234
100
AcDbEntity
  8
0
  6
Continuous
 62
     7
100
AcDbLine
 10
95.4486987649
 20
48.460158009
 30
0.0
 11
96.29388369590001
 21
49.30534294
 31
0.0
  0
LINE
  5
2D9
330
234
100
AcDbEntity
  8
0
  6
Continuous
 62
     7
100
AcDbLine
 10
95.358251711
 20
48.9731087417
 30
0.0
 11
95.5613141295
 21
49.1761711602
 31
0.0
  0
ENDBLK
  5
2DA
330
234
100
AcDbEntity
  8
0
  6
ByBlock
 62
     0
100
AcDbBlockEnd
  0
BLOCK
  5
2DB
330
235
100
AcDbEntity
  8
0
  6
Continuous
 62
     7
100
AcDbBlockBegin
  2
SYMBOL_6_BL2
 70
     0
 10
38.4012627395
 20
88.88790978040001
 30
0.0
  3
SYMBOL_6_BL2
  1

  0
TEXT
  5
2DC
330
235
100
AcDbEntity
  8
0
  6
Continuous
 62
     7
100
AcDbText
 10
37.9780559169
 20
88.1237333762
 30
0.0
 40
1.333333852099999
  1
L
 50
10.0
  7
TEXTSTYLE_2
100
AcDbText
  0
TEXT
  5
2DD
330
235
100
AcDbEntity
  8
0
  6
Continuous
 62
     7
100
AcDbText
 10
34.3472916657
 20
87.4961339631
 30
0.0
 40
1.333333852099999
  1
5
 50
10.0
  7
TEXTSTYLE_2
100
AcDbText
  0
TEXT
  5
2DE
330
235
100
AcDbEntity
  8
0
  6
Continuous
 62
     7
100
AcDbText
 10
41.6800720455
 20
88.78910098770001
 30
0.0
 40
1.333333852099999
  1
4
 50
10.0
  7
TEXTSTYLE_2
100
AcDbText
  0
ELLIPSE
  5
2DF
330
235
100
AcDbEntity
  8
0
  6
Continuous
 62
     7
100
AcDbEllipse
 10
38.38265817590001
 20
88.87202700879999
 30
0.0
 11
-1.913370740099999
 21
-0.3373788856
 31
0.0
210
0.0
220
0.0
230
1.0
 40
0.6606458385
 41
0.0
 42
6.283185307179586
  0
ENDBLK
  5
2E0
330
235
100
AcDbEntity
  8
0
  6
ByBlock
 62
     0
100
AcDbBlockEnd
  0
BLOCK
  5
2E1
330
236
100
AcDbEntity
  8
0
  6
Continuous
 62
     7
100
AcDbBlockBegin
  2
SYMBOL_3_BL1
 70
     0
 10
58.2160710414
 20
93.44058608719999
 30
0.0
  3
SYMBOL_3_BL1
  1

  0
TEXT
  5
2E2
330
236
100
AcDbEntity
  8
0
  6
Continuous
 62
     7
100
AcDbText
 10
57.5494041154
 20
92.7739191612
 30
0.0
 40
1.333333852099999
  1
C
  7
TEXTSTYLE_2
100
AcDbText
  0
ELLIPSE
  5
2E3
330
236
100
AcDbEntity
  8
0
  6
Continuous
 62
     7
100
AcDbEllipse
 10
58.2160710414
 20
93.44058608719999
 30
0.0
 11
-1.942887567899999
 21
0.0
 31
0.0
210
0.0
220
0.0
230
1.0
 40
0.6606458385
 41
0.0
 42
6.283185307179586
  0
ENDBLK
  5
2E4
330
236
100
AcDbEntity
  8
0
  6
ByBlock
 62
     0
100
AcDbBlockEnd
  0
BLOCK
  5
2E5
330
237
100
AcDbEntity
  8
0
  6
Continuous
 62
     7
100
AcDbBlockBegin
  2
SYMBOL_0_BL0
 70
     0
 10
160.6666666667
 20
55.33333333329999
 30
0.0
  3
SYMBOL_0_BL0
  1

  0
TEXT
  5
2E6
330
237
100
AcDbEntity
  8
0
  6
Continuous
 62
     7
100
AcDbText
 10
144.4188815905
 20
63.10676672439999
 30
0.0
 40
0.5
  1
Infomations Techniques/Technical Infomations
  7
TEXTSTYLE_2
100
AcDbText
  0
TEXT
  5
2E7
330
237
100
AcDbEntity
  8
0
  6
Continuous
 62
     7
100
AcDbText
 10
144.6666666667
 20
61.6666666667
 30
0.0
 40
0.6666666667
  1
NOMBRE DE JETS:     
  7
TEXTSTYLE_2
100
AcDbText
  0
TEXT
  5
2E8
330
237
100
AcDbEntity
  8
0
  6
Continuous
 62
     7
100
AcDbText
 10
154.5111111111
 20
61.6666666667
 30
0.0
 40
0.6666666667
  1
38
  7
TEXTSTYLE_2
100
AcDbText
  0
TEXT
  5
2E9
330
237
100
AcDbEntity
  8
0
  6
Continuous
 62
     7
100
AcDbText
 10
144.6666666667
 20
60.6666666667
 30
0.0
 40
0.6666666667
  1
 
  7
TEXTSTYLE_2
100
AcDbText
  0
TEXT
  5
2EA
330
237
100
AcDbEntity
  8
0
  6
Continuous
 62
     7
100
AcDbText
 10
144.6666666667
 20
59.66666666670001
 30
0.0
 40
0.6666666667
  1
NIVEAU D'EAU              GALLONS(US)        LITRES        GALLONS(UK)
  7
TEXTSTYLE_2
100
AcDbText
  0
TEXT
  5
2EB
330
237
100
AcDbEntity
  8
0
  6
Continuous
 62
     7
100
AcDbText
 10
144.6666666667
 20
58.6666666667
 30
0.0
 40
0.6666666667
  1
PLEIN
  7
TEXTSTYLE_2
100
AcDbText
  0
TEXT
  5
2EC
330
237
100
AcDbEntity
  8
0
  6
Continuous
 62
     7
100
AcDbText
 10
144.6666666667
 20
57.6666666667
 30
0.0
 40
0.6666666667
  1
HAUT T.PLEIN
  7
TEXTSTYLE_2
100
AcDbText
  0
TEXT
  5
2ED
330
237
100
AcDbEntity
  8
0
  6
Continuous
 62
     7
100
AcDbText
 10
144.6666666667
 20
56.6666666667
 30
0.0
 40
0.6666666667
  1
MILIEU T.PLEIN
  7
TEXTSTYLE_2
100
AcDbText
  0
TEXT
  5
2EE
330
237
100
AcDbEntity
  8
0
  6
Continuous
 62
     7
100
AcDbText
 10
144.6666666667
 20
55.6666666667
 30
0.0
 40
0.6666666667
  1
BAS T.PLEIN
  7
TEXTSTYLE_2
100
AcDbText
  0
TEXT
  5
2EF
330
237
100
AcDbEntity
  8
0
  6
Continuous
 62
     7
100
AcDbText
 10
144.6666666667
 20
54.66666666670001
 30
0.0
 40
0.6666666667
  1
3" EN BAS T.PLEIN
  7
TEXTSTYLE_2
100
AcDbText
  0
TEXT
  5
2F0
330
237
100
AcDbEntity
  8
0
  6
Continuous
 62
     7
100
AcDbText
 10
144.6666666667
 20
53.6666666667
 30
0.0
 40
0.6666666667
  1
 
  7
TEXTSTYLE_2
100
AcDbText
  0
TEXT
  5
2F1
330
237
100
AcDbEntity
  8
0
  6
Continuous
 62
     7
100
AcDbText
 10
144.4665051611
 20
53.1198797418
 30
0.0
 40
0.5
  1
Legende/Legend
  7
TEXTSTYLE_2
100
AcDbText
  0
TEXT
  5
2F2
330
237
100
AcDbEntity
  8
0
  6
Continuous
 62
     7
100
AcDbText
 10
150.9953401051
 20
51.6086147641
 30
0.0
 40
0.6666666667
  1
ZONE DE ROBINETTERIE
  7
TEXTSTYLE_2
100
AcDbText
  0
TEXT
  5
2F3
330
237
100
AcDbEntity
  8
0
  6
Continuous
 62
     7
100
AcDbText
 10
145.9156155382
 20
50.1133702497
 30
0.0
 40
0.6666666667
  1
L   :  SYSTEME LED       DC   :  DOUBLE DOSSIER CHAUFFANT
  7
TEXTSTYLE_2
100
AcDbText
  0
TEXT
  5
2F4
330
237
100
AcDbEntity
  8
0
  6
Continuous
 62
     7
100
AcDbText
 10
145.9156155382
 20
48.7800369164
 30
0.0
 40
0.6666666667
  1
C   :  CONTROLE
  7
TEXTSTYLE_2
100
AcDbText
  0
TEXT
  5
2F5
330
237
100
AcDbEntity
  8
0
  6
Continuous
 62
     7
100
AcDbText
 10
145.9156155382
 20
47.4467035831
 30
0.0
 40
0.6666666667
  1
T   :  MOTEUR
  7
TEXTSTYLE_2
100
AcDbText
  0
TEXT
  5
2F6
330
237
100
AcDbEntity
  8
0
  6
Continuous
 62
     7
100
AcDbText
 10
157.499363366
 20
58.6666666667
 30
0.0
 40
0.6666666667
  1
82
  7
TEXTSTYLE_2
100
AcDbText
  0
TEXT
  5
2F7
330
237
100
AcDbEntity
  8
0
  6
Continuous
 62
     7
100
AcDbText
 10
157.499363366
 20
57.6666666667
 30
0.0
 40
0.6666666667
  1
69
  7
TEXTSTYLE_2
100
AcDbText
  0
TEXT
  5
2F8
330
237
100
AcDbEntity
  8
0
  6
Continuous
 62
     7
100
AcDbText
 10
157.499363366
 20
56.6666666667
 30
0.0
 40
0.6666666667
  1
63
  7
TEXTSTYLE_2
100
AcDbText
  0
TEXT
  5
2F9
330
237
100
AcDbEntity
  8
0
  6
Continuous
 62
     7
100
AcDbText
 10
157.499363366
 20
55.6666666667
 30
0.0
 40
0.6666666667
  1
57
  7
TEXTSTYLE_2
100
AcDbText
  0
TEXT
  5
2FA
330
237
100
AcDbEntity
  8
0
  6
Continuous
 62
     7
100
AcDbText
 10
157.499363366
 20
54.66666666670001
 30
0.0
 40
0.6666666667
  1
48
  7
TEXTSTYLE_2
100
AcDbText
  0
TEXT
  5
2FB
330
237
100
AcDbEntity
  8
0
  6
Continuous
 62
     7
100
AcDbText
 10
164.4195693097
 20
58.68374606879999
 30
0.0
 40
0.6666666667
  1
309
  7
TEXTSTYLE_2
100
AcDbText
  0
TEXT
  5
2FC
330
237
100
AcDbEntity
  8
0
  6
Continuous
 62
     7
100
AcDbText
 10
164.4195693097
 20
57.6837460688
 30
0.0
 40
0.6666666667
  1
262
  7
TEXTSTYLE_2
100
AcDbText
  0
TEXT
  5
2FD
330
237
100
AcDbEntity
  8
0
  6
Continuous
 62
     7
100
AcDbText
 10
164.4195693097
 20
56.6837460688
 30
0.0
 40
0.6666666667
  1
238
  7
TEXTSTYLE_2
100
AcDbText
  0
TEXT
  5
2FE
330
237
100
AcDbEntity
  8
0
  6
Continuous
 62
     7
100
AcDbText
 10
164.4195693097
 20
55.68374606879999
 30
0.0
 40
0.6666666667
  1
216
  7
TEXTSTYLE_2
100
AcDbText
  0
TEXT
  5
2FF
330
237
100
AcDbEntity
  8
0
  6
Continuous
 62
     7
100
AcDbText
 10
164.4195693097
 20
54.6837460688
 30
0.0
 40
0.6666666667
  1
183
  7
TEXTSTYLE_2
100
AcDbText
  0
TEXT
  5
300
330
237
100
AcDbEntity
  8
0
  6
Continuous
 62
     7
100
AcDbText
 10
171.3642082472
 20
58.6666666667
 30
0.0
 40
0.6666666667
  1
68
  7
TEXTSTYLE_2
100
AcDbText
  0
TEXT
  5
301
330
237
100
AcDbEntity
  8
0
  6
Continuous
 62
     7
100
AcDbText
 10
171.3642082472
 20
57.6666666667
 30
0.0
 40
0.6666666667
  1
58
  7
TEXTSTYLE_2
100
AcDbText
  0
TEXT
  5
302
330
237
100
AcDbEntity
  8
0
  6
Continuous
 62
     7
100
AcDbText
 10
171.3642082472
 20
56.6666666667
 30
0.0
 40
0.6666666667
  1
52
  7
TEXTSTYLE_2
100
AcDbText
  0
TEXT
  5
303
330
237
100
AcDbEntity
  8
0
  6
Continuous
 62
     7
100
AcDbText
 10
171.3642082472
 20
55.6666666667
 30
0.0
 40
0.6666666667
  1
48
  7
TEXTSTYLE_2
100
AcDbText
  0
TEXT
  5
304
330
237
100
AcDbEntity
  8
0
  6
Continuous
 62
     7
100
AcDbText
 10
171.3642082472
 20
54.66666666670001
 30
0.0
 40
0.6666666667
  1
40
  7
TEXTSTYLE_2
100
AcDbText
  0
LINE
  5
305
330
237
100
AcDbEntity
  8
0
  6
Continuous
 62
     7
100
AcDbLine
 10
144.0
 20
64.0
 30
0.0
 11
144.0
 21
46.6666666667
 31
0.0
  0
LINE
  5
306
330
237
100
AcDbEntity
  8
0
  6
Continuous
 62
     7
100
AcDbLine
 10
144.0
 20
64.0
 30
0.0
 11
177.3333333333
 21
64.0
 31
0.0
  0
LINE
  5
307
330
237
100
AcDbEntity
  8
0
  6
Continuous
 62
     7
100
AcDbLine
 10
177.3333333333
 20
64.0
 30
0.0
 11
177.3333333333
 21
46.6666666667
 31
0.0
  0
LINE
  5
308
330
237
100
AcDbEntity
  8
0
  6
Continuous
 62
     7
100
AcDbLine
 10
144.0
 20
46.6666666667
 30
0.0
 11
177.3333333333
 21
46.6666666667
 31
0.0
  0
LINE
  5
309
330
237
100
AcDbEntity
  8
0
  6
Continuous
 62
     7
100
AcDbLine
 10
145.3333333333
 20
54.0
 30
0.0
 11
176.0
 21
54.0
 31
0.0
  0
LINE
  5
30A
330
237
100
AcDbEntity
  8
0
  6
Continuous
 62
     7
100
AcDbLine
 10
145.3333333333
 20
61.0
 30
0.0
 11
176.0
 21
61.0
 31
0.0
  0
LINE
  5
30B
330
237
100
AcDbEntity
  8
0
  6
Continuous
 62
     7
100
AcDbLine
 10
144.8089065593
 20
52.3781645044
 30
0.0
 11
144.4398858169
 21
52.009143762
 31
0.0
  0
LINE
  5
30C
330
237
100
AcDbEntity
  8
0
  6
Continuous
 62
     7
100
AcDbLine
 10
145.4755732259
 20
52.3781645044
 30
0.0
 11
144.6775574355
 21
51.5801487139
 31
0.0
  0
LINE
  5
30D
330
237
100
AcDbEntity
  8
0
  6
Continuous
 62
     7
100
AcDbLine
 10
146.1422398926
 20
52.3781645044
 30
0.0
 11
145.3442241022
 21
51.5801487139
 31
0.0
  0
LINE
  5
30E
330
237
100
AcDbEntity
  8
0
  6
Continuous
 62
     7
100
AcDbLine
 10
146.8089065593
 20
52.3781645044
 30
0.0
 11
146.0108907688
 21
51.5801487139
 31
0.0
  0
LINE
  5
30F
330
237
100
AcDbEntity
  8
0
  6
Continuous
 62
     7
100
AcDbLine
 10
147.4755732259
 20
52.3781645044
 30
0.0
 11
146.6775574355
 21
51.5801487139
 31
0.0
  0
LINE
  5
310
330
237
100
AcDbEntity
  8
0
  6
Continuous
 62
     7
100
AcDbLine
 10
148.1422398926
 20
52.3781645044
 30
0.0
 11
147.3442241022
 21
51.5801487139
 31
0.0
  0
LINE
  5
311
330
237
100
AcDbEntity
  8
0
  6
Continuous
 62
     7
100
AcDbLine
 10
148.8089065593
 20
52.3781645044
 30
0.0
 11
148.0108907688
 21
51.5801487139
 31
0.0
  0
LINE
  5
312
330
237
100
AcDbEntity
  8
0
  6
Continuous
 62
     7
100
AcDbLine
 10
149.4755732259
 20
52.3781645044
 30
0.0
 11
148.6775574355
 21
51.5801487139
 31
0.0
  0
LINE
  5
313
330
237
100
AcDbEntity
  8
0
  6
Continuous
 62
     7
100
AcDbLine
 10
150.1422398926
 20
52.3781645044
 30
0.0
 11
149.3442241022
 21
51.5801487139
 31
0.0
  0
LINE
  5
314
330
237
100
AcDbEntity
  8
0
  6
Continuous
 62
     7
100
AcDbLine
 10
150.5857273268
 20
52.1549852718
 30
0.0
 11
150.0108907688
 21
51.5801487139
 31
0.0
  0
ELLIPSE
  5
315
330
237
100
AcDbEntity
  8
0
  6
Continuous
 62
     7
100
AcDbEllipse
 10
146.1454024822
 20
50.43094770689999
 30
0.0
 11
1.0473539356
 21
0.0
 31
0.0
210
0.0
220
0.0
230
1.0
 40
0.4938647983
 41
0.0
 42
6.283185307179586
  0
ELLIPSE
  5
316
330
237
100
AcDbEntity
  8
0
  6
Continuous
 62
     7
100
AcDbEllipse
 10
146.1454024822
 20
49.0976143736
 30
0.0
 11
1.0473539356
 21
0.0
 31
0.0
210
0.0
220
0.0
230
1.0
 40
0.4938647983
 41
0.0
 42
6.283185307179586
  0
ELLIPSE
  5
317
330
237
100
AcDbEntity
  8
0
  6
Continuous
 62
     7
100
AcDbEllipse
 10
146.1454024822
 20
47.76428104029999
 30
0.0
 11
1.0473539356
 21
0.0
 31
0.0
210
0.0
220
0.0
230
1.0
 40
0.4938647983
 41
0.0
 42
6.283185307179586
  0
ELLIPSE
  5
318
330
237
100
AcDbEntity
  8
0
  6
Continuous
 62
     7
100
AcDbEllipse
 10
157.1640380633
 20
50.45046906399999
 30
0.0
 11
1.0473539356
 21
0.0
 31
0.0
210
0.0
220
0.0
230
1.0
 40
0.4938647983
 41
0.0
 42
6.283185307179586
  0
ENDBLK
  5
319
330
237
100
AcDbEntity
  8
0
  6
ByBlock
 62
     0
100
AcDbBlockEnd
  0
ENDSEC
  0
SECTION
  2
ENTITIES
  0
LINE
  5
19FE
330
218
100
AcDbEntity
  8
0
  6
Continuous
 62
     7
100
AcDbLine
 10
95.59008634399999
 20
37.500341437
 30
0.0
 11
95.5460714652
 21
36.9972490703
 31
0.0
  0
LINE
  5
1A09
330
218
100
AcDbEntity
  8
0
  6
Continuous
 62
     7
100
AcDbLine
 10
102.3415957589
 20
21.6263845527
 30
0.0
 11
99.907089985
 21
36.9972490703
 31
0.0
  0
LINE
  5
1A13
330
218
100
AcDbEntity
  8
0
  6
Continuous
 62
     7
100
AcDbLine
 10
122.0221238662
 20
18.8823899127
 30
0.0
 11
122.3578223221
 21
18.9184694583
 31
0.0
  0
LINE
  5
1A14
330
218
100
AcDbEntity
  8
0
  6
Continuous
 62
     7
100
AcDbLine
 10
120.1603995287
 20
18.89322331
 30
0.0
 11
120.1418802399
 21
18.8914314949
 31
0.0
  0
LINE
  5
1A15
330
218
100
AcDbEntity
  8
0
  6
Continuous
 62
     7
100
AcDbLine
 10
120.1418802399
 20
18.8914314949
 30
0.0
 11
120.1222358865
 21
18.8896906421
 31
0.0
  0
LINE
  5
1A16
330
218
100
AcDbEntity
  8
0
  6
Continuous
 62
     7
100
AcDbLine
 10
120.1470022809
 20
18.8895124151
 30
0.0
 11
120.1307849647
 21
18.888150677
 31
0.0
  0
LINE
  5
1A17
330
218
100
AcDbEntity
  8
0
  6
Continuous
 62
     7
100
AcDbLine
 10
120.1307849647
 20
18.888150677
 30
0.0
 11
120.1110991203
 21
18.8866028732
 31
0.0
  0
LINE
  5
1A18
330
218
100
AcDbEntity
  8
0
  6
Continuous
 62
     7
100
AcDbLine
 10
117.0913331427
 20
19.1061578244
 30
0.0
 11
117.1288813337
 21
19.1087793522
 31
0.0
  0
LINE
  5
1A19
330
218
100
AcDbEntity
  8
0
  6
Continuous
 62
     7
100
AcDbLine
 10
117.1288813337
 20
19.1087793522
 30
0.0
 11
117.170024591
 21
19.1113395875
 31
0.0
  0
LINE
  5
1A1A
330
218
100
AcDbEntity
  8
0
  6
Continuous
 62
     7
100
AcDbLine
 10
117.1441388441
 20
19.1409948574
 30
0.0
 11
117.202603294
 21
19.1444178835
 31
0.0
  0
LINE
  5
1A1B
330
218
100
AcDbEntity
  8
0
  6
Continuous
 62
     7
100
AcDbLine
 10
117.170024591
 20
19.1113395875
 30
0.0
 11
117.2145901257
 21
19.1138301824
 31
0.0
  0
LINE
  5
1A1C
330
218
100
AcDbEntity
  8
0
  6
Continuous
 62
     7
100
AcDbLine
 10
117.2145901257
 20
19.1138301824
 30
0.0
 11
117.262410617
 21
19.1162437264
 31
0.0
  0
LINE
  5
1A1D
330
218
100
AcDbEntity
  8
0
  6
Continuous
 62
     7
100
AcDbLine
 10
117.202603294
 20
19.1444178835
 30
0.0
 11
117.2673710497
 21
19.1477132941
 31
0.0
  0
LINE
  5
1A1E
330
218
100
AcDbEntity
  8
0
  6
Continuous
 62
     7
100
AcDbLine
 10
117.2673710497
 20
19.1477132941
 30
0.0
 11
117.3378782185
 21
19.1508539289
 31
0.0
  0
LINE
  5
1A1F
330
218
100
AcDbEntity
  8
0
  6
Continuous
 62
     7
100
AcDbLine
 10
117.262410617
 20
19.1162437264
 30
0.0
 11
117.3400086021
 21
19.1197103315
 31
0.0
  0
LINE
  5
1A20
330
218
100
AcDbEntity
  8
0
  6
Continuous
 62
     7
100
AcDbLine
 10
117.3378782185
 20
19.1508539289
 30
0.0
 11
117.4138753603
 21
19.1538323419
 31
0.0
  0
LINE
  5
1A21
330
218
100
AcDbEntity
  8
0
  6
Continuous
 62
     7
100
AcDbLine
 10
117.3400086021
 20
19.1197103315
 30
0.0
 11
117.4244181449
 21
19.1229848472
 31
0.0
  0
LINE
  5
1A22
330
218
100
AcDbEntity
  8
0
  6
Continuous
 62
     7
100
AcDbLine
 10
117.4138753603
 20
19.1538323419
 30
0.0
 11
117.4952894674
 21
19.1566483831
 31
0.0
  0
LINE
  5
1A23
330
218
100
AcDbEntity
  8
0
  6
Continuous
 62
     7
100
AcDbLine
 10
117.4244181449
 20
19.1229848472
 30
0.0
 11
117.5153459133
 21
19.1260588057
 31
0.0
  0
LINE
  5
1A24
330
218
100
AcDbEntity
  8
0
  6
Continuous
 62
     7
100
AcDbLine
 10
117.4952894674
 20
19.1566483831
 30
0.0
 11
117.5819907031
 21
19.159298933
 31
0.0
  0
LINE
  5
1A25
330
218
100
AcDbEntity
  8
0
  6
Continuous
 62
     7
100
AcDbLine
 10
117.5153459133
 20
19.1260588057
 30
0.0
 11
117.6123761554
 21
19.1289220103
 31
0.0
  0
LWPOLYLINE
  5
1A26
330
218
100
AcDbEntity
  8
0
  6
Continuous
 62
     7
100
AcDbPolyline
 90
        3
 70
     0
 43
0.0
 10
117.5819907031
 20
19.159298933
 10
117.6736922275
 20
19.1617760468
 10
117.7212478799
 20
19.1629453919
  0
LINE
  5
1A27
330
218
100
AcDbEntity
  8
0
  6
Continuous
 62
     7
100
AcDbLine
 10
117.6123761554
 20
19.1289220103
 30
0.0
 11
117.7149963965
 21
19.1315637333
 31
0.0
  0
LINE
  5
1A28
330
218
100
AcDbEntity
  8
0
  6
Continuous
 62
     7
100
AcDbLine
 10
121.9095195122
 20
18.8455243328
 30
0.0
 11
121.9470930996
 21
18.8464940094
 31
0.0
  0
LINE
  5
1A29
330
218
100
AcDbEntity
  8
0
  6
Continuous
 62
     7
100
AcDbLine
 10
117.7149963965
 20
19.1315637333
 30
0.0
 11
117.8226700337
 21
19.1339741209
 31
0.0
  0
LINE
  5
1A2A
330
218
100
AcDbEntity
  8
0
  6
Continuous
 62
     7
100
AcDbLine
 10
121.9671277782
 20
18.8811898888
 30
0.0
 11
122.0221238662
 21
18.8823899127
 31
0.0
  0
LINE
  5
1A2B
330
218
100
AcDbEntity
  8
0
  6
Continuous
 62
     7
100
AcDbLine
 10
121.8509028018
 20
18.84433328
 30
0.0
 11
121.9095195122
 21
18.8455243328
 31
0.0
  0
LWPOLYLINE
  5
1A2C
330
218
100
AcDbEntity
  8
0
  6
Continuous
 62
     7
100
AcDbPolyline
 90
        3
 70
     0
 43
0.0
 10
117.8226700337
 20
19.1339741209
 10
117.934880607
 20
19.1361418361
 10
117.9732024881
 20
19.13680852109999
  0
LINE
  5
1A2D
330
218
100
AcDbEntity
  8
0
  6
Continuous
 62
     7
100
AcDbLine
 10
121.8985365412
 20
18.8800911407
 30
0.0
 11
121.9671277782
 21
18.8811898888
 31
0.0
  0
LINE
  5
1A2E
330
218
100
AcDbEntity
  8
0
  6
Continuous
 62
     7
100
AcDbLine
 10
121.7674508223
 20
18.8431293178
 30
0.0
 11
121.8509028018
 21
18.84433328
 31
0.0
  0
LINE
  5
1A2F
330
218
100
AcDbEntity
  8
0
  6
Continuous
 62
     7
100
AcDbLine
 10
121.7684022937
 20
18.8787409277
 30
0.0
 11
121.8985365412
 21
18.8800911407
 31
0.0
  0
LINE
  5
1A30
330
218
100
AcDbEntity
  8
0
  6
Continuous
 62
     7
100
AcDbLine
 10
121.620965132
 20
18.8418165624
 30
0.0
 11
121.7674508223
 21
18.8431293178
 31
0.0
  0
LINE
  5
1A31
330
218
100
AcDbEntity
  8
0
  6
Continuous
 62
     7
100
AcDbLine
 10
121.4966056469
 20
18.877303198
 30
0.0
 11
121.7684022937
 21
18.8787409277
 31
0.0
  0
LINE
  5
1A32
330
218
100
AcDbEntity
  8
0
  6
Continuous
 62
     7
100
AcDbLine
 10
121.2747873158
 20
18.8403488128
 30
0.0
 11
121.620965132
 21
18.8418165624
 31
0.0
  0
LINE
  5
1A33
330
218
100
AcDbEntity
  8
0
  6
Continuous
 62
     7
100
AcDbLine
 10
120.9714511071
 20
18.8398637845
 30
0.0
 11
121.2747873158
 21
18.8403488128
 31
0.0
  0
LINE
  5
1A34
330
218
100
AcDbEntity
  8
0
  6
Continuous
 62
     7
100
AcDbLine
 10
120.9436923985
 20
18.8763045302
 30
0.0
 11
121.4966056469
 21
18.877303198
 31
0.0
  0
LINE
  5
1A35
330
218
100
AcDbEntity
  8
0
  6
Continuous
 62
     7
100
AcDbLine
 10
120.0036414899
 20
18.8391751419
 30
0.0
 11
120.9714511071
 21
18.8398637845
 31
0.0
  0
LINE
  5
1A36
330
218
100
AcDbEntity
  8
0
  6
Continuous
 62
     7
100
AcDbLine
 10
120.0788999216
 20
18.8757581177
 30
0.0
 11
120.9436923985
 21
18.8763045302
 31
0.0
  0
LINE
  5
1A37
330
218
100
AcDbEntity
  8
0
  6
Continuous
 62
     7
100
AcDbLine
 10
121.3175180746
 20
18.3722490703
 30
0.0
 11
119.7163944521
 21
18.3722490703
 31
0.0
  0
LINE
  5
1A38
330
218
100
AcDbEntity
  8
0
  6
Continuous
 62
     7
100
AcDbLine
 10
113.5773214652
 20
18.372422779
 30
0.0
 11
113.5148214652
 21
18.372422779
 31
0.0
  0
LINE
  5
1A3A
330
218
100
AcDbEntity
  8
0
  6
Continuous
 62
     7
100
AcDbLine
 10
114.7302618619
 20
18.8868177905
 30
0.0
 11
114.5239776556
 21
18.895197608
 31
0.0
  0
LINE
  5
1A3B
330
218
100
AcDbEntity
  8
0
  6
Continuous
 62
     7
100
AcDbLine
 10
112.5434269582
 20
18.9756528869
 30
0.0
 11
112.3287400433
 21
18.9843740449
 31
0.0
  0
LINE
  5
1A3C
330
218
100
AcDbEntity
  8
0
  6
Continuous
 62
     7
100
AcDbLine
 10
110.1663890964
 20
19.0722145373
 30
0.0
 11
110.0656079288
 21
19.07630853849999
 31
0.0
  0
LINE
  5
1A3D
330
218
100
AcDbEntity
  8
0
  6
Continuous
 62
     7
100
AcDbLine
 10
106.7403674861
 20
19.2113887198
 30
0.0
 11
106.7005874619
 21
19.213004691
 31
0.0
  0
LINE
  5
1A3E
330
218
100
AcDbEntity
  8
0
  6
Continuous
 62
     7
100
AcDbLine
 10
109.3978068734
 20
19.2182305323
 30
0.0
 11
109.5316987182
 21
19.212836391
 31
0.0
  0
LINE
  5
1A3F
330
218
100
AcDbEntity
  8
0
  6
Continuous
 62
     7
100
AcDbLine
 10
109.508617391
 20
19.2165467937
 30
0.0
 11
109.6438339356
 21
19.2110041322
 31
0.0
  0
LINE
  5
1A40
330
218
100
AcDbEntity
  8
0
  6
Continuous
 62
     7
100
AcDbLine
 10
109.5316987182
 20
19.212836391
 30
0.0
 11
109.6541259666
 21
19.2074578849
 31
0.0
  0
LINE
  5
1A41
330
218
100
AcDbEntity
  8
0
  6
Continuous
 62
     7
100
AcDbLine
 10
109.6438339356
 20
19.2110041322
 30
0.0
 11
109.7676320582
 21
19.2054609262
 31
0.0
  0
LINE
  5
1A42
330
218
100
AcDbEntity
  8
0
  6
Continuous
 62
     7
100
AcDbLine
 10
109.6541259666
 20
19.2074578849
 30
0.0
 11
109.7635154203
 21
19.2021682688
 31
0.0
  0
LINE
  5
1A43
330
218
100
AcDbEntity
  8
0
  6
Continuous
 62
     7
100
AcDbLine
 10
109.7676320582
 20
19.2054609262
 30
0.0
 11
109.8787632867
 21
19.1999659334
 31
0.0
  0
LINE
  5
1A44
330
218
100
AcDbEntity
  8
0
  6
Continuous
 62
     7
100
AcDbLine
 10
109.8227305285
 20
19.2340789325
 30
0.0
 11
109.9228417905
 21
19.2288809767
 31
0.0
  0
LINE
  5
1A45
330
218
100
AcDbEntity
  8
0
  6
Continuous
 62
     7
100
AcDbLine
 10
109.8787632867
 20
19.1999659334
 30
0.0
 11
109.9453162394
 21
19.196354969
 31
0.0
  0
LINE
  5
1A46
330
218
100
AcDbEntity
  8
0
  6
Continuous
 62
     7
100
AcDbLine
 10
109.7635154203
 20
19.2021682688
 30
0.0
 11
109.8581148353
 21
19.197079188
 31
0.0
  0
LINE
  5
1A47
330
218
100
AcDbEntity
  8
0
  6
Continuous
 62
     7
100
AcDbLine
 10
109.9228417905
 20
19.2288809767
 30
0.0
 11
109.9810439631
 21
19.225563975
 31
0.0
  0
LINE
  5
1A48
330
218
100
AcDbEntity
  8
0
  6
Continuous
 62
     7
100
AcDbLine
 10
109.9453162394
 20
19.196354969
 30
0.0
 11
110.0055184985
 21
19.1928049074
 31
0.0
  0
LINE
  5
1A49
330
218
100
AcDbEntity
  8
0
  6
Continuous
 62
     7
100
AcDbLine
 10
109.8581148353
 20
19.197079188
 30
0.0
 11
109.9124298498
 21
19.193849902
 31
0.0
  0
LINE
  5
1A4A
330
218
100
AcDbEntity
  8
0
  6
Continuous
 62
     7
100
AcDbLine
 10
109.9810439631
 20
19.225563975
 30
0.0
 11
110.032403219
 21
19.2223881602
 31
0.0
  0
LINE
  5
1A4B
330
218
100
AcDbEntity
  8
0
  6
Continuous
 62
     7
100
AcDbLine
 10
109.9124298498
 20
19.193849902
 30
0.0
 11
109.9599641152
 21
19.1907598785
 31
0.0
  0
LINE
  5
1A4C
330
218
100
AcDbEntity
  8
0
  6
Continuous
 62
     7
100
AcDbLine
 10
110.0055184985
 20
19.1928049074
 30
0.0
 11
110.0590921577
 21
19.1893328911
 31
0.0
  0
LINE
  5
1A4D
330
218
100
AcDbEntity
  8
0
  6
Continuous
 62
     7
100
AcDbLine
 10
110.032403219
 20
19.2223881602
 30
0.0
 11
110.0771496635
 21
19.2193602793
 31
0.0
  0
LWPOLYLINE
  5
1A4E
330
218
100
AcDbEntity
  8
0
  6
Continuous
 62
     7
100
AcDbPolyline
 90
       16
 70
     0
 43
0.0
 10
109.9599641152
 20
19.1907598785
 10
110.0009706017
 20
19.1878108043
 10
110.019097621
 20
19.1863899992
 10
110.03568805
 20
19.1850048674
 10
110.0507809552
 20
19.1836551432
 10
110.0644001693
 20
19.182341179
 10
110.0765766472
 20
19.1810628702
 10
110.0873261167
 20
19.1798213217
 10
110.0966666099
 20
19.1786173499
 10
110.1046187532
 20
19.1774517167
 10
110.111200536
 20
19.1763252454
 10
110.1164339729
 20
19.1752385679
 10
110.1203380413
 20
19.1741924095
 10
110.1229356235
 20
19.1731873137
 10
110.1242542963
 20
19.172224164
 10
110.1242945025
 20
19.1713026663
  0
LWPOLYLINE
  5
1A4F
330
218
100
AcDbEntity
  8
0
  6
Continuous
 62
     7
100
AcDbPolyline
 90
       14
 70
     0
 43
0.0
 10
110.0590921577
 20
19.1893328911
 10
110.1057593284
 20
19.1859568314
 10
110.1264124942
 20
19.184310622
 10
110.145242218
 20
19.1826954154
 10
110.1622111323
 20
19.1811136398
 10
110.1773242688
 20
19.1795673783
 10
110.1905737347
 20
19.1780587933
 10
110.2019599653
 20
19.1765900752
 10
110.2114802225
 20
19.1751633855
 10
110.2191334394
 20
19.1737809734
 10
110.2249165607
 20
19.1724450511
 10
110.2288288313
 20
19.1711578924
 10
110.2308565215
 20
19.1699228846
 10
110.2311818122
 20
19.1691960648
  0
LWPOLYLINE
  5
1A50
330
218
100
AcDbEntity
  8
0
  6
Continuous
 62
     7
100
AcDbPolyline
 90
       16
 70
     0
 43
0.0
 10
110.0771496635
 20
19.2193602793
 10
110.1156279064
 20
19.2164775133
 10
110.1326221853
 20
19.2150886122
 10
110.1481694666
 20
19.2137335113
 10
110.1623083096
 20
19.2124111707
 10
110.1750720099
 20
19.2111211465
 10
110.1865000388
 20
19.2098627556
 10
110.1966121069
 20
19.2086356752
 10
110.2054400322
 20
19.2074389624
 10
110.2129873837
 20
19.2062737946
 10
110.219266019
 20
19.2051410442
 10
110.2242813556
 20
19.2040406831
 10
110.2280434104
 20
19.2029725526
 10
110.2305508709
 20
19.2019379171
 10
110.2318001043
 20
19.2009381393
 10
110.2319577966
 20
19.2004272612
  0
LINE
  5
1A51
330
218
100
AcDbEntity
  8
0
  6
Continuous
 62
     7
100
AcDbLine
 10
112.3287400433
 20
18.9843740449
 30
0.0
 11
112.3232240731
 21
18.9860502504
 31
0.0
  0
LINE
  5
1A52
330
218
100
AcDbEntity
  8
0
  6
Continuous
 62
     7
100
AcDbLine
 10
110.1664008772
 20
19.0725045425
 30
0.0
 11
110.1672003557
 21
19.0721815818
 31
0.0
  0
LWPOLYLINE
  5
1A55
330
218
100
AcDbEntity
  8
0
  6
Continuous
 62
     7
100
AcDbPolyline
 90
        9
 70
     0
 43
0.0
 10
106.7005874619
 20
19.213004691
 10
106.7002004458
 20
19.2134639928
 10
106.6998560363
 20
19.21479483369999
 10
106.698914419
 20
19.2170111489
 10
106.6977841059
 20
19.2200713041
 10
106.6962469083
 20
19.2239527817
 10
106.6945517412
 20
19.2286122532
 10
106.6925196132
 20
19.2340146852
 10
106.6903962491
 20
19.2398990024
  0
LINE
  5
1A56
330
218
100
AcDbEntity
  8
0
  6
Continuous
 62
     7
100
AcDbLine
 10
107.1750864732
 20
18.9190750559
 30
0.0
 11
107.1749904584
 21
18.9192857005
 31
0.0
  0
LINE
  5
1A6B
330
218
100
AcDbEntity
  8
0
  6
Continuous
 62
     7
100
AcDbLine
 10
112.4418575914
 20
19.297995737
 30
0.0
 11
112.4869687224
 21
19.2999727111
 31
0.0
  0
LINE
  5
1A6C
330
218
100
AcDbEntity
  8
0
  6
Continuous
 62
     7
100
AcDbLine
 10
112.4466846931
 20
19.2670041133
 30
0.0
 11
112.4945449152
 21
19.2690479647
 31
0.0
  0
LINE
  5
1A6D
330
218
100
AcDbEntity
  8
0
  6
Continuous
 62
     7
100
AcDbLine
 10
112.4869687224
 20
19.2999727111
 30
0.0
 11
112.5374924607
 21
19.3018250205
 31
0.0
  0
LINE
  5
1A6E
330
218
100
AcDbEntity
  8
0
  6
Continuous
 62
     7
100
AcDbLine
 10
112.4945449152
 20
19.2690479647
 30
0.0
 11
112.5481832314
 21
19.2709527115
 31
0.0
  0
LINE
  5
1A6F
330
218
100
AcDbEntity
  8
0
  6
Continuous
 62
     7
100
AcDbLine
 10
112.5374924607
 20
19.3018250205
 30
0.0
 11
112.5930176089
 21
19.3035398123
 31
0.0
  0
LINE
  5
1A70
330
218
100
AcDbEntity
  8
0
  6
Continuous
 62
     7
100
AcDbLine
 10
112.5481832314
 20
19.2709527115
 30
0.0
 11
112.607319777
 21
19.272710064
 31
0.0
  0
LINE
  5
1A71
330
218
100
AcDbEntity
  8
0
  6
Continuous
 62
     7
100
AcDbLine
 10
112.5930176089
 20
19.3035398123
 30
0.0
 11
112.6856445385
 21
19.305854484
 31
0.0
  0
LINE
  5
1A72
330
218
100
AcDbEntity
  8
0
  6
Continuous
 62
     7
100
AcDbLine
 10
112.607319777
 20
19.272710064
 30
0.0
 11
112.7056228751
 21
19.2750539959
 31
0.0
  0
LINE
  5
1A73
330
218
100
AcDbEntity
  8
0
  6
Continuous
 62
     7
100
AcDbLine
 10
117.7212478799
 20
19.1629453919
 30
0.0
 11
117.8694397941
 21
19.166149967
 31
0.0
  0
LINE
  5
1A74
330
218
100
AcDbEntity
  8
0
  6
Continuous
 62
     7
100
AcDbLine
 10
112.6856445385
 20
19.305854484
 30
0.0
 11
112.7893629
 21
19.3078605003
 31
0.0
  0
LINE
  5
1A75
330
218
100
AcDbEntity
  8
0
  6
Continuous
 62
     7
100
AcDbLine
 10
112.7056228751
 20
19.2750539959
 30
0.0
 11
112.8141026664
 21
19.2770365278
 31
0.0
  0
LINE
  5
1A76
330
218
100
AcDbEntity
  8
0
  6
Continuous
 62
     7
100
AcDbLine
 10
117.8694397941
 20
19.166149967
 30
0.0
 11
118.024316977
 21
19.1688746415
 31
0.0
  0
LINE
  5
1A77
330
218
100
AcDbEntity
  8
0
  6
Continuous
 62
     7
100
AcDbLine
 10
117.9732024881
 20
19.13680852109999
 30
0.0
 11
118.1305290148
 21
19.1391858394
 31
0.0
  0
LINE
  5
1A78
330
218
100
AcDbEntity
  8
0
  6
Continuous
 62
     7
100
AcDbLine
 10
106.2374109126
 20
19.4284574005
 30
0.0
 11
106.3863730843
 21
19.4306818343
 31
0.0
  0
LINE
  5
1A79
330
218
100
AcDbEntity
  8
0
  6
Continuous
 62
     7
100
AcDbLine
 10
112.7893629
 20
19.3078605003
 30
0.0
 11
112.9026612488
 21
19.3095282866
 31
0.0
  0
LINE
  5
1A7A
330
218
100
AcDbEntity
  8
0
  6
Continuous
 62
     7
100
AcDbLine
 10
118.024316977
 20
19.1688746415
 30
0.0
 11
118.185188974
 21
19.1711164121
 31
0.0
  0
LINE
  5
1A7B
330
218
100
AcDbEntity
  8
0
  6
Continuous
 62
     7
100
AcDbLine
 10
105.9095097611
 20
19.4223306135
 30
0.0
 11
106.2374109126
 21
19.4284574005
 31
0.0
  0
LINE
  5
1A7C
330
218
100
AcDbEntity
  8
0
  6
Continuous
 62
     7
100
AcDbLine
 10
112.8141026664
 20
19.2770365278
 30
0.0
 11
112.9311765602
 21
19.2786449678
 31
0.0
  0
LINE
  5
1A7D
330
218
100
AcDbEntity
  8
0
  6
Continuous
 62
     7
100
AcDbLine
 10
106.3863730843
 20
19.4306818343
 30
0.0
 11
106.5811544926
 21
19.4330240287
 31
0.0
  0
LINE
  5
1A7E
330
218
100
AcDbEntity
  8
0
  6
Continuous
 62
     7
100
AcDbLine
 10
118.1305290148
 20
19.1391858394
 30
0.0
 11
118.2929784702
 21
19.1410847789
 31
0.0
  0
LINE
  5
1A7F
330
218
100
AcDbEntity
  8
0
  6
Continuous
 62
     7
100
AcDbLine
 10
118.185188974
 20
19.1711164121
 30
0.0
 11
118.3514452864
 21
19.1728717296
 31
0.0
  0
LINE
  5
1A80
330
218
100
AcDbEntity
  8
0
  6
Continuous
 62
     7
100
AcDbLine
 10
112.9026612488
 20
19.3095282866
 30
0.0
 11
113.0228244042
 21
19.3108201425
 31
0.0
  0
LINE
  5
1A81
330
218
100
AcDbEntity
  8
0
  6
Continuous
 62
     7
100
AcDbLine
 10
106.7782597794
 20
19.2754237796
 30
0.0
 11
106.8108660522
 21
19.2757948492
 31
0.0
  0
LINE
  5
1A82
330
218
100
AcDbEntity
  8
0
  6
Continuous
 62
     7
100
AcDbLine
 10
106.7449039084
 20
19.3081260917
 30
0.0
 11
106.778711401
 21
19.30851469
 31
0.0
  0
LINE
  5
1A83
330
218
100
AcDbEntity
  8
0
  6
Continuous
 62
     7
100
AcDbLine
 10
106.5811544926
 20
19.4330240287
 30
0.0
 11
106.8022214564
 21
19.4351885189
 31
0.0
  0
LINE
  5
1A84
330
218
100
AcDbEntity
  8
0
  6
Continuous
 62
     7
100
AcDbLine
 10
106.7468396029
 20
19.2769408754
 30
0.0
 11
106.7814937484
 21
19.2773111304
 31
0.0
  0
LINE
  5
1A85
330
218
100
AcDbEntity
  8
0
  6
Continuous
 62
     7
100
AcDbLine
 10
112.9311765602
 20
19.2786449678
 30
0.0
 11
113.0552643885
 21
19.279862914
 31
0.0
  0
LINE
  5
1A86
330
218
100
AcDbEntity
  8
0
  6
Continuous
 62
     7
100
AcDbLine
 10
104.8277309912
 20
19.4141882369
 30
0.0
 11
105.0158942688
 21
19.4158453907
 31
0.0
  0
LINE
  5
1A87
330
218
100
AcDbEntity
  8
0
  6
Continuous
 62
     7
100
AcDbLine
 10
105.8551051105
 20
19.4217601443
 30
0.0
 11
105.9095097611
 21
19.4223306135
 31
0.0
  0
LINE
  5
1A88
330
218
100
AcDbEntity
  8
0
  6
Continuous
 62
     7
100
AcDbLine
 10
106.8022214564
 20
19.4351885189
 30
0.0
 11
107.0570877961
 21
19.4372494704
 31
0.0
  0
LINE
  5
1A89
330
218
100
AcDbEntity
  8
0
  6
Continuous
 62
     7
100
AcDbLine
 10
118.2929784702
 20
19.1410847789
 30
0.0
 11
118.4584948516
 21
19.1424905461
 31
0.0
  0
LINE
  5
1A8A
330
218
100
AcDbEntity
  8
0
  6
Continuous
 62
     7
100
AcDbLine
 10
105.0158942688
 20
19.4158453907
 30
0.0
 11
105.346569664
 21
19.418513481
 31
0.0
  0
LINE
  5
1A8B
330
218
100
AcDbEntity
  8
0
  6
Continuous
 62
     7
100
AcDbLine
 10
118.3514452864
 20
19.1728717296
 30
0.0
 11
118.5210779042
 21
19.1741206169
 31
0.0
  0
LINE
  5
1A8C
330
218
100
AcDbEntity
  8
0
  6
Continuous
 62
     7
100
AcDbLine
 10
107.0570877961
 20
19.4372494704
 30
0.0
 11
107.3708363376
 21
19.4393353228
 31
0.0
  0
LINE
  5
1A8D
330
218
100
AcDbEntity
  8
0
  6
Continuous
 62
     7
100
AcDbLine
 10
113.0228244042
 20
19.3108201425
 30
0.0
 11
113.1484700303
 21
19.3117224324
 31
0.0
  0
LINE
  5
1A8E
330
218
100
AcDbEntity
  8
0
  6
Continuous
 62
     7
100
AcDbLine
 10
105.346569664
 20
19.418513481
 30
0.0
 11
105.7197648656
 21
19.4209527815
 31
0.0
  0
LINE
  5
1A8F
330
218
100
AcDbEntity
  8
0
  6
Continuous
 62
     7
100
AcDbLine
 10
105.7197648656
 20
19.4209527815
 30
0.0
 11
105.8551051105
 21
19.4217601443
 31
0.0
  0
LINE
  5
1A90
330
218
100
AcDbEntity
  8
0
  6
Continuous
 62
     7
100
AcDbLine
 10
113.0552643885
 20
19.279862914
 30
0.0
 11
113.1848052623
 21
19.2806735338
 31
0.0
  0
LINE
  5
1A91
330
218
100
AcDbEntity
  8
0
  6
Continuous
 62
     7
100
AcDbLine
 10
107.3708363376
 20
19.4393353228
 30
0.0
 11
107.7260641947
 21
19.4412586692
 31
0.0
  0
LINE
  5
1A92
330
218
100
AcDbEntity
  8
0
  6
Continuous
 62
     7
100
AcDbLine
 10
118.4584948516
 20
19.1424905461
 30
0.0
 11
118.624980349
 21
19.1433952864
 31
0.0
  0
LINE
  5
1A93
330
218
100
AcDbEntity
  8
0
  6
Continuous
 62
     7
100
AcDbLine
 10
107.7260641947
 20
19.4412586692
 30
0.0
 11
108.1842981903
 21
19.4432265283
 31
0.0
  0
LINE
  5
1A94
330
218
100
AcDbEntity
  8
0
  6
Continuous
 62
     7
100
AcDbLine
 10
118.5210779042
 20
19.1741206169
 30
0.0
 11
118.6920644415
 21
19.1748485566
 31
0.0
  0
LINE
  5
1A95
330
218
100
AcDbEntity
  8
0
  6
Continuous
 62
     7
100
AcDbLine
 10
106.8108660522
 20
19.2757948492
 30
0.0
 11
106.8500300605
 21
19.2759715421
 31
0.0
  0
LINE
  5
1A96
330
218
100
AcDbEntity
  8
0
  6
Continuous
 62
     7
100
AcDbLine
 10
106.778711401
 20
19.30851469
 30
0.0
 11
106.819386185
 21
19.30870109
 31
0.0
  0
LINE
  5
1A97
330
218
100
AcDbEntity
  8
0
  6
Continuous
 62
     7
100
AcDbLine
 10
113.1484700303
 20
19.3117224324
 30
0.0
 11
113.2792082445
 21
19.3122316149
 31
0.0
  0
LINE
  5
1A98
330
218
100
AcDbEntity
  8
0
  6
Continuous
 62
     7
100
AcDbLine
 10
108.1842981903
 20
19.4432265283
 30
0.0
 11
108.68972506
 21
19.4448769548
 31
0.0
  0
LINE
  5
1A99
330
218
100
AcDbEntity
  8
0
  6
Continuous
 62
     7
100
AcDbLine
 10
106.7814937484
 20
19.2773111304
 30
0.0
 11
106.823022018
 21
19.2774774473
 31
0.0
  0
LINE
  5
1A9A
330
218
100
AcDbEntity
  8
0
  6
Continuous
 62
     7
100
AcDbLine
 10
108.68972506
 20
19.4448769548
 30
0.0
 11
109.2318607312
 21
19.4461601915
 31
0.0
  0
LINE
  5
1A9B
330
218
100
AcDbEntity
  8
0
  6
Continuous
 62
     7
100
AcDbLine
 10
113.1848052623
 20
19.2806735338
 30
0.0
 11
113.3183502756
 21
19.2810724917
 31
0.0
  0
LINE
  5
1A9C
330
218
100
AcDbEntity
  8
0
  6
Continuous
 62
     7
100
AcDbLine
 10
118.624980349
 20
19.1433952864
 30
0.0
 11
118.7901528566
 21
19.1437969459
 31
0.0
  0
LINE
  5
1A9D
330
218
100
AcDbEntity
  8
0
  6
Continuous
 62
     7
100
AcDbLine
 10
109.2318607312
 20
19.4461601915
 30
0.0
 11
109.8084616035
 21
19.4470614015
 31
0.0
  0
LINE
  5
1A9E
330
218
100
AcDbEntity
  8
0
  6
Continuous
 62
     7
100
AcDbLine
 10
109.8084616035
 20
19.4470614015
 30
0.0
 11
110.4187098415
 21
19.447567353
 31
0.0
  0
LINE
  5
1A9F
330
218
100
AcDbEntity
  8
0
  6
Continuous
 62
     7
100
AcDbLine
 10
118.6920644415
 20
19.1748485566
 30
0.0
 11
118.8595351739
 21
19.1750443594
 31
0.0
  0
LINE
  5
1AA0
330
218
100
AcDbEntity
  8
0
  6
Continuous
 62
     7
100
AcDbLine
 10
113.2792082445
 20
19.3122316149
 30
0.0
 11
113.4137196341
 21
19.3123383335
 31
0.0
  0
LINE
  5
1AA1
330
218
100
AcDbEntity
  8
0
  6
Continuous
 62
     7
100
AcDbLine
 10
110.4187098415
 20
19.447567353
 30
0.0
 11
111.061739698
 21
19.4476606575
 31
0.0
  0
LINE
  5
1AA2
330
218
100
AcDbEntity
  8
0
  6
Continuous
 62
     7
100
AcDbLine
 10
111.061739698
 20
19.4476606575
 30
0.0
 11
112.2638450798
 21
19.4468490815
 31
0.0
  0
LINE
  5
1AA3
330
218
100
AcDbEntity
  8
0
  6
Continuous
 62
     7
100
AcDbLine
 10
113.3183502756
 20
19.2810724917
 30
0.0
 11
113.4544872601
 21
19.2810574238
 31
0.0
  0
LINE
  5
1AA4
330
218
100
AcDbEntity
  8
0
  6
Continuous
 62
     7
100
AcDbLine
 10
118.7901528566
 20
19.1437969459
 30
0.0
 11
118.9556862707
 21
19.1436899952
 31
0.0
  0
LINE
  5
1AA5
330
218
100
AcDbEntity
  8
0
  6
Continuous
 62
     7
100
AcDbLine
 10
112.2638450798
 20
19.4468490815
 30
0.0
 11
114.087519509
 21
19.4436957586
 31
0.0
  0
LINE
  5
1AA6
330
218
100
AcDbEntity
  8
0
  6
Continuous
 62
     7
100
AcDbLine
 10
118.8595351739
 20
19.1750443594
 30
0.0
 11
119.0272272413
 21
19.1747134821
 31
0.0
  0
LINE
  5
1AA7
330
218
100
AcDbEntity
  8
0
  6
Continuous
 62
     7
100
AcDbLine
 10
106.8500300605
 20
19.2759715421
 30
0.0
 11
106.9208381687
 21
19.2758765551
 31
0.0
  0
LINE
  5
1AA8
330
218
100
AcDbEntity
  8
0
  6
Continuous
 62
     7
100
AcDbLine
 10
106.819386185
 20
19.30870109
 30
0.0
 11
106.8931021526
 21
19.308608735
 31
0.0
  0
LINE
  5
1AA9
330
218
100
AcDbEntity
  8
0
  6
Continuous
 62
     7
100
AcDbLine
 10
113.4137196341
 20
19.3123383335
 30
0.0
 11
113.5498208845
 21
19.3120329869
 31
0.0
  0
LINE
  5
1AAA
330
218
100
AcDbEntity
  8
0
  6
Continuous
 62
     7
100
AcDbLine
 10
106.823022018
 20
19.2774774473
 30
0.0
 11
106.8977054906
 21
19.2773547034
 31
0.0
  0
LINE
  5
1AAB
330
218
100
AcDbEntity
  8
0
  6
Continuous
 62
     7
100
AcDbLine
 10
114.087519509
 20
19.4436957586
 30
0.0
 11
114.4657813274
 21
19.4424183831
 31
0.0
  0
LINE
  5
1AAC
330
218
100
AcDbEntity
  8
0
  6
Continuous
 62
     7
100
AcDbLine
 10
113.4544872601
 20
19.2810574238
 30
0.0
 11
113.5918128565
 21
19.2806216358
 31
0.0
  0
LINE
  5
1AAD
330
218
100
AcDbEntity
  8
0
  6
Continuous
 62
     7
100
AcDbLine
 10
118.9556862707
 20
19.1436899952
 30
0.0
 11
119.1211002317
 21
19.143062108
 31
0.0
  0
LINE
  5
1AAE
330
218
100
AcDbEntity
  8
0
  6
Continuous
 62
     7
100
AcDbLine
 10
114.4657813274
 20
19.4424183831
 30
0.0
 11
114.8511095095
 21
19.4405171152
 31
0.0
  0
LINE
  5
1AAF
330
218
100
AcDbEntity
  8
0
  6
Continuous
 62
     7
100
AcDbLine
 10
119.0272272413
 20
19.1747134821
 30
0.0
 11
119.1921395797
 21
19.1738517219
 31
0.0
  0
LINE
  5
1AB0
330
218
100
AcDbEntity
  8
0
  6
Continuous
 62
     7
100
AcDbLine
 10
113.5498208845
 20
19.3120329869
 30
0.0
 11
113.6850721534
 21
19.3113137868
 31
0.0
  0
LINE
  5
1AB1
330
218
100
AcDbEntity
  8
0
  6
Continuous
 62
     7
100
AcDbLine
 10
114.8511095095
 20
19.4405171152
 30
0.0
 11
115.2049348658
 21
19.4382066362
 31
0.0
  0
LINE
  5
1AB2
330
218
100
AcDbEntity
  8
0
  6
Continuous
 62
     7
100
AcDbLine
 10
113.5918128565
 20
19.2806216358
 30
0.0
 11
113.7289130115
 21
19.2797564214
 31
0.0
  0
LINE
  5
1AB3
330
218
100
AcDbEntity
  8
0
  6
Continuous
 62
     7
100
AcDbLine
 10
106.8931021526
 20
19.308608735
 30
0.0
 11
107.0140335648
 21
19.3078078565
 31
0.0
  0
LINE
  5
1AB4
330
218
100
AcDbEntity
  8
0
  6
Continuous
 62
     7
100
AcDbLine
 10
119.1211002317
 20
19.143062108
 30
0.0
 11
119.2821338544
 21
19.1419095052
 31
0.0
  0
LINE
  5
1AB5
330
218
100
AcDbEntity
  8
0
  6
Continuous
 62
     7
100
AcDbLine
 10
106.9208381687
 20
19.2758765551
 30
0.0
 11
107.0370972723
 21
19.2750896818
 31
0.0
  0
LINE
  5
1AB6
330
218
100
AcDbEntity
  8
0
  6
Continuous
 62
     7
100
AcDbLine
 10
106.8977054906
 20
19.2773547034
 30
0.0
 11
107.0190342456
 21
19.2765225664
 31
0.0
  0
LINE
  5
1AB7
330
218
100
AcDbEntity
  8
0
  6
Continuous
 62
     7
100
AcDbLine
 10
115.2049348658
 20
19.4382066362
 30
0.0
 11
115.4994679912
 21
19.4358478004
 31
0.0
  0
LINE
  5
1AB8
330
218
100
AcDbEntity
  8
0
  6
Continuous
 62
     7
100
AcDbLine
 10
113.6850721534
 20
19.3113137868
 30
0.0
 11
113.8165547604
 21
19.3102032385
 31
0.0
  0
LINE
  5
1AB9
330
218
100
AcDbEntity
  8
0
  6
Continuous
 62
     7
100
AcDbLine
 10
115.4994679912
 20
19.4358478004
 30
0.0
 11
115.765161806
 21
19.4333622141
 31
0.0
  0
LINE
  5
1ABA
330
218
100
AcDbEntity
  8
0
  6
Continuous
 62
     7
100
AcDbLine
 10
119.1921395797
 20
19.1738517219
 30
0.0
 11
119.3507707503
 21
19.1724679613
 31
0.0
  0
LINE
  5
1ABB
330
218
100
AcDbEntity
  8
0
  6
Continuous
 62
     7
100
AcDbLine
 10
113.7289130115
 20
19.2797564214
 30
0.0
 11
113.864191525
 21
19.27846319
 31
0.0
  0
LINE
  5
1ABC
330
218
100
AcDbEntity
  8
0
  6
Continuous
 62
     7
100
AcDbLine
 10
115.765161806
 20
19.4333622141
 30
0.0
 11
116.0259419703
 21
19.4305800784
 31
0.0
  0
LINE
  5
1ABD
330
218
100
AcDbEntity
  8
0
  6
Continuous
 62
     7
100
AcDbLine
 10
107.0190342456
 20
19.2765225664
 30
0.0
 11
107.1633154343
 21
19.2749534295
 31
0.0
  0
LINE
  5
1ABE
330
218
100
AcDbEntity
  8
0
  6
Continuous
 62
     7
100
AcDbLine
 10
107.0140335648
 20
19.3078078565
 30
0.0
 11
107.1586412477
 21
19.3062551388
 31
0.0
  0
LINE
  5
1ABF
330
218
100
AcDbEntity
  8
0
  6
Continuous
 62
     7
100
AcDbLine
 10
107.0370972723
 20
19.2750896818
 30
0.0
 11
107.1754032435
 21
19.2735777959
 31
0.0
  0
LINE
  5
1AC0
330
218
100
AcDbEntity
  8
0
  6
Continuous
 62
     7
100
AcDbLine
 10
119.2821338544
 20
19.1419095052
 30
0.0
 11
119.4349620922
 21
19.1402590283
 31
0.0
  0
LINE
  5
1AC1
330
218
100
AcDbEntity
  8
0
  6
Continuous
 62
     7
100
AcDbLine
 10
116.0259419703
 20
19.4305800784
 30
0.0
 11
116.2799292213
 21
19.4275333069
 31
0.0
  0
LINE
  5
1AC2
330
218
100
AcDbEntity
  8
0
  6
Continuous
 62
     7
100
AcDbLine
 10
113.8165547604
 20
19.3102032385
 30
0.0
 11
113.9411639978
 21
19.308752932
 31
0.0
  0
LINE
  5
1AC3
330
218
100
AcDbEntity
  8
0
  6
Continuous
 62
     7
100
AcDbLine
 10
119.3507707503
 20
19.1724679613
 30
0.0
 11
119.5031955727
 21
19.1705520783
 31
0.0
  0
LINE
  5
1AC4
330
218
100
AcDbEntity
  8
0
  6
Continuous
 62
     7
100
AcDbLine
 10
116.2799292213
 20
19.4275333069
 30
0.0
 11
116.5476233866
 21
19.4239489329
 31
0.0
  0
LINE
  5
1AC5
330
218
100
AcDbEntity
  8
0
  6
Continuous
 62
     7
100
AcDbLine
 10
113.864191525
 20
19.27846319
 30
0.0
 11
113.9959365854
 21
19.2767494881
 31
0.0
  0
LINE
  5
1AC6
330
218
100
AcDbEntity
  8
0
  6
Continuous
 62
     7
100
AcDbLine
 10
107.1586412477
 20
19.3062551388
 30
0.0
 11
107.3246410158
 21
19.3039747417
 31
0.0
  0
LINE
  5
1AC7
330
218
100
AcDbEntity
  8
0
  6
Continuous
 62
     7
100
AcDbLine
 10
107.1633154343
 20
19.2749534295
 30
0.0
 11
107.3283037525
 21
19.2726736438
 31
0.0
  0
LINE
  5
1AC8
330
218
100
AcDbEntity
  8
0
  6
Continuous
 62
     7
100
AcDbLine
 10
107.1754032435
 20
19.2735777959
 30
0.0
 11
107.3340687498
 21
19.2713618349
 31
0.0
  0
LINE
  5
1AC9
330
218
100
AcDbEntity
  8
0
  6
Continuous
 62
     7
100
AcDbLine
 10
116.5476233866
 20
19.4239489329
 30
0.0
 11
116.8142209563
 21
19.41998288569999
 31
0.0
  0
LINE
  5
1ACA
330
218
100
AcDbEntity
  8
0
  6
Continuous
 62
     7
100
AcDbLine
 10
113.9411639978
 20
19.308752932
 30
0.0
 11
114.0569727106
 21
19.3070198785
 31
0.0
  0
LINE
  5
1ACB
330
218
100
AcDbEntity
  8
0
  6
Continuous
 62
     7
100
AcDbLine
 10
119.4349620922
 20
19.1402590283
 30
0.0
 11
119.5757863397
 21
19.1381824208
 31
0.0
  0
LINE
  5
1ACC
330
218
100
AcDbEntity
  8
0
  6
Continuous
 62
     7
100
AcDbLine
 10
107.3283037525
 20
19.2726736438
 30
0.0
 11
107.5113227722
 21
19.2697188821
 31
0.0
  0
LINE
  5
1ACD
330
218
100
AcDbEntity
  8
0
  6
Continuous
 62
     7
100
AcDbLine
 10
107.3246410158
 20
19.3039747417
 30
0.0
 11
107.5087773818
 21
19.301010524
 31
0.0
  0
LINE
  5
1ACE
330
218
100
AcDbEntity
  8
0
  6
Continuous
 62
     7
100
AcDbLine
 10
116.8142209563
 20
19.41998288569999
 30
0.0
 11
117.0553791473
 21
19.4160388255
 31
0.0
  0
LINE
  5
1ACF
330
218
100
AcDbEntity
  8
0
  6
Continuous
 62
     7
100
AcDbLine
 10
107.3340687498
 20
19.2713618349
 30
0.0
 11
107.5112205181
 21
19.2684645111
 31
0.0
  0
LINE
  5
1AD0
330
218
100
AcDbEntity
  8
0
  6
Continuous
 62
     7
100
AcDbLine
 10
113.9959365854
 20
19.2767494881
 30
0.0
 11
114.1224317764
 21
19.2746213468
 31
0.0
  0
LINE
  5
1AD1
330
218
100
AcDbEntity
  8
0
  6
Continuous
 62
     7
100
AcDbLine
 10
117.0553791473
 20
19.4160388255
 30
0.0
 11
117.2878068841
 21
19.411898834
 31
0.0
  0
LINE
  5
1AD2
330
218
100
AcDbEntity
  8
0
  6
Continuous
 62
     7
100
AcDbLine
 10
119.5031955727
 20
19.1705520783
 30
0.0
 11
119.646087085
 21
19.1681402943
 31
0.0
  0
LINE
  5
1AD3
330
218
100
AcDbEntity
  8
0
  6
Continuous
 62
     7
100
AcDbLine
 10
107.5113227722
 20
19.2697188821
 30
0.0
 11
107.7096265404
 21
19.2661171348
 31
0.0
  0
LINE
  5
1AD4
330
218
100
AcDbEntity
  8
0
  6
Continuous
 62
     7
100
AcDbLine
 10
107.5087773818
 20
19.301010524
 30
0.0
 11
107.7069829642
 21
19.2974171412
 31
0.0
  0
LINE
  5
1AD5
330
218
100
AcDbEntity
  8
0
  6
Continuous
 62
     7
100
AcDbLine
 10
107.5112205181
 20
19.2684645111
 30
0.0
 11
107.7022017086
 21
19.2649505371
 31
0.0
  0
LINE
  5
1AD6
330
218
100
AcDbEntity
  8
0
  6
Continuous
 62
     7
100
AcDbLine
 10
114.0569727106
 20
19.3070198785
 30
0.0
 11
114.1638236675
 21
19.3050396375
 31
0.0
  0
LINE
  5
1AD7
330
218
100
AcDbEntity
  8
0
  6
Continuous
 62
     7
100
AcDbLine
 10
117.2878068841
 20
19.411898834
 30
0.0
 11
117.5147311977
 21
19.4075163258
 31
0.0
  0
LINE
  5
1AD8
330
218
100
AcDbEntity
  8
0
  6
Continuous
 62
     7
100
AcDbLine
 10
107.7096265404
 20
19.2661171348
 30
0.0
 11
107.9202719148
 21
19.261894655
 31
0.0
  0
LINE
  5
1AD9
330
218
100
AcDbEntity
  8
0
  6
Continuous
 62
     7
100
AcDbLine
 10
107.7069829642
 20
19.2974171412
 30
0.0
 11
107.9174872867
 21
19.2932038211
 31
0.0
  0
LINE
  5
1ADA
330
218
100
AcDbEntity
  8
0
  6
Continuous
 62
     7
100
AcDbLine
 10
119.5757863397
 20
19.1381824208
 30
0.0
 11
119.700666459
 21
19.1358114641
 31
0.0
  0
LINE
  5
1ADB
330
218
100
AcDbEntity
  8
0
  6
Continuous
 62
     7
100
AcDbLine
 10
107.7022017086
 20
19.2649505371
 30
0.0
 11
107.9046547881
 21
19.2608442938
 31
0.0
  0
LINE
  5
1ADC
330
218
100
AcDbEntity
  8
0
  6
Continuous
 62
     7
100
AcDbLine
 10
117.5147311977
 20
19.4075163258
 30
0.0
 11
117.7403899189
 21
19.4028033002
 31
0.0
  0
LINE
  5
1ADD
330
218
100
AcDbEntity
  8
0
  6
Continuous
 62
     7
100
AcDbLine
 10
107.9202719148
 20
19.261894655
 30
0.0
 11
108.1393670401
 21
19.2571097332
 31
0.0
  0
LINE
  5
1ADE
330
218
100
AcDbEntity
  8
0
  6
Continuous
 62
     7
100
AcDbLine
 10
107.9174872867
 20
19.2932038211
 30
0.0
 11
108.1379498897
 21
19.2883940779
 31
0.0
  0
LINE
  5
1ADF
330
218
100
AcDbEntity
  8
0
  6
Continuous
 62
     7
100
AcDbLine
 10
107.9046547881
 20
19.2608442938
 30
0.0
 11
108.1159147026
 21
19.2561770069
 31
0.0
  0
LINE
  5
1AE0
330
218
100
AcDbEntity
  8
0
  6
Continuous
 62
     7
100
AcDbLine
 10
114.1224317764
 20
19.2746213468
 30
0.0
 11
114.2419886289
 21
19.272084903
 31
0.0
  0
LINE
  5
1AE1
330
218
100
AcDbEntity
  8
0
  6
Continuous
 62
     7
100
AcDbLine
 10
119.646087085
 20
19.1681402943
 30
0.0
 11
119.7703611132
 21
19.1654529433
 31
0.0
  0
LINE
  5
1AE2
330
218
100
AcDbEntity
  8
0
  6
Continuous
 62
     7
100
AcDbLine
 10
117.7403899189
 20
19.4028033002
 30
0.0
 11
118.0039649409
 21
19.3968125583
 31
0.0
  0
LINE
  5
1AE3
330
218
100
AcDbEntity
  8
0
  6
Continuous
 62
     7
100
AcDbLine
 10
114.1638236675
 20
19.3050396375
 30
0.0
 11
114.2626692215
 21
19.3028187318
 31
0.0
  0
LINE
  5
1AE4
330
218
100
AcDbEntity
  8
0
  6
Continuous
 62
     7
100
AcDbLine
 10
108.1393670401
 20
19.2571097332
 30
0.0
 11
108.3626747248
 21
19.2518255897
 31
0.0
  0
LINE
  5
1AE5
330
218
100
AcDbEntity
  8
0
  6
Continuous
 62
     7
100
AcDbLine
 10
108.1379498897
 20
19.2883940779
 30
0.0
 11
108.3634770547
 21
19.2830592542
 31
0.0
  0
LINE
  5
1AE6
330
218
100
AcDbEntity
  8
0
  6
Continuous
 62
     7
100
AcDbLine
 10
108.1159147026
 20
19.2561770069
 30
0.0
 11
108.3318676867
 21
19.251008328
 31
0.0
  0
LINE
  5
1AE7
330
218
100
AcDbEntity
  8
0
  6
Continuous
 62
     7
100
AcDbLine
 10
118.0039649409
 20
19.3968125583
 30
0.0
 11
118.2107344348
 21
19.391717849
 31
0.0
  0
LINE
  5
1AE8
330
218
100
AcDbEntity
  8
0
  6
Continuous
 62
     7
100
AcDbLine
 10
119.700666459
 20
19.1358114641
 30
0.0
 11
119.8072135941
 21
19.1333055818
 31
0.0
  0
LINE
  5
1AE9
330
218
100
AcDbEntity
  8
0
  6
Continuous
 62
     7
100
AcDbLine
 10
108.3634770547
 20
19.2830592542
 30
0.0
 11
108.5898702168
 21
19.2772571522
 31
0.0
  0
LINE
  5
1AEA
330
218
100
AcDbEntity
  8
0
  6
Continuous
 62
     7
100
AcDbLine
 10
108.3626747248
 20
19.2518255897
 30
0.0
 11
108.5938054773
 21
19.2458974106
 31
0.0
  0
LINE
  5
1AEB
330
218
100
AcDbEntity
  8
0
  6
Continuous
 62
     7
100
AcDbLine
 10
108.3318676867
 20
19.251008328
 30
0.0
 11
108.5573540139
 21
19.2451630272
 31
0.0
  0
LINE
  5
1AEC
330
218
100
AcDbEntity
  8
0
  6
Continuous
 62
     7
100
AcDbLine
 10
118.2107344348
 20
19.391717849
 30
0.0
 11
118.4408187721
 21
19.3856007953
 31
0.0
  0
LINE
  5
1AED
330
218
100
AcDbEntity
  8
0
  6
Continuous
 62
     7
100
AcDbLine
 10
114.2419886289
 20
19.272084903
 30
0.0
 11
114.3531513633
 21
19.2691573462
 31
0.0
  0
LINE
  5
1AEE
330
218
100
AcDbEntity
  8
0
  6
Continuous
 62
     7
100
AcDbLine
 10
114.2626692215
 20
19.3028187318
 30
0.0
 11
114.3542647407
 21
19.3003576196
 31
0.0
  0
LINE
  5
1AEF
330
218
100
AcDbEntity
  8
0
  6
Continuous
 62
     7
100
AcDbLine
 10
108.5938054773
 20
19.2458974106
 30
0.0
 11
108.8237299109
 21
19.2395038602
 31
0.0
  0
LINE
  5
1AF0
330
218
100
AcDbEntity
  8
0
  6
Continuous
 62
     7
100
AcDbLine
 10
108.5898702168
 20
19.2772571522
 30
0.0
 11
108.8169071973
 21
19.2709574263
 31
0.0
  0
LINE
  5
1AF1
330
218
100
AcDbEntity
  8
0
  6
Continuous
 62
     7
100
AcDbLine
 10
119.7703611132
 20
19.1654529433
 30
0.0
 11
119.873306431
 21
19.1627002001
 31
0.0
  0
LINE
  5
1AF2
330
218
100
AcDbEntity
  8
0
  6
Continuous
 62
     7
100
AcDbLine
 10
108.5573540139
 20
19.2451630272
 30
0.0
 11
108.781365211
 21
19.2388647945
 31
0.0
  0
LWPOLYLINE
  5
1AF3
330
218
100
AcDbEntity
  8
0
  6
Continuous
 62
     7
100
AcDbPolyline
 90
        6
 70
     0
 43
0.0
 10
118.4408187721
 20
19.3856007953
 10
118.7010711326
 20
19.3780535724
 10
118.8465281692
 20
19.3735057998
 10
118.9927372814
 20
19.3686932323
 10
119.132031003
 20
19.3638332237
 10
119.2617163659
 20
19.3590703057
  0
LINE
  5
1AF4
330
218
100
AcDbEntity
  8
0
  6
Continuous
 62
     7
100
AcDbLine
 10
119.8072135941
 20
19.1333055818
 30
0.0
 11
119.8972214948
 21
19.1307552681
 31
0.0
  0
LINE
  5
1AF5
330
218
100
AcDbEntity
  8
0
  6
Continuous
 62
     7
100
AcDbLine
 10
108.8169071973
 20
19.2709574263
 30
0.0
 11
109.0362352891
 21
19.264352671
 31
0.0
  0
LINE
  5
1AF6
330
218
100
AcDbEntity
  8
0
  6
Continuous
 62
     7
100
AcDbLine
 10
108.8237299109
 20
19.2395038602
 30
0.0
 11
109.0478050846
 21
19.2327302868
 31
0.0
  0
LINE
  5
1AF7
330
218
100
AcDbEntity
  8
0
  6
Continuous
 62
     7
100
AcDbLine
 10
108.781365211
 20
19.2388647945
 30
0.0
 11
108.997921444
 21
19.2322436258
 31
0.0
  0
LINE
  5
1AF8
330
218
100
AcDbEntity
  8
0
  6
Continuous
 62
     7
100
AcDbLine
 10
114.3531513633
 20
19.2691573462
 30
0.0
 11
114.4219414286
 21
19.267000097
 31
0.0
  0
LINE
  5
1AF9
330
218
100
AcDbEntity
  8
0
  6
Continuous
 62
     7
100
AcDbLine
 10
109.0362352891
 20
19.264352671
 30
0.0
 11
109.193616844
 21
19.2592388129
 31
0.0
  0
LINE
  5
1AFA
330
218
100
AcDbEntity
  8
0
  6
Continuous
 62
     7
100
AcDbLine
 10
109.0478050846
 20
19.2327302868
 30
0.0
 11
109.2092677964
 21
19.2274513245
 31
0.0
  0
LINE
  5
1AFB
330
218
100
AcDbEntity
  8
0
  6
Continuous
 62
     7
100
AcDbLine
 10
108.997921444
 20
19.2322436258
 30
0.0
 11
109.1538798741
 21
19.2270907963
 31
0.0
  0
LINE
  5
1AFC
330
218
100
AcDbEntity
  8
0
  6
Continuous
 62
     7
100
AcDbLine
 10
114.3542647407
 20
19.3003576196
 30
0.0
 11
114.4385832929
 21
19.2976630936
 31
0.0
  0
LINE
  5
1AFD
330
218
100
AcDbEntity
  8
0
  6
Continuous
 62
     7
100
AcDbLine
 10
119.873306431
 20
19.1627002001
 30
0.0
 11
119.9593687624
 21
19.159921404
 31
0.0
  0
LINE
  5
1AFE
330
218
100
AcDbEntity
  8
0
  6
Continuous
 62
     7
100
AcDbLine
 10
109.193616844
 20
19.2592388129
 30
0.0
 11
109.3450003756
 21
19.2539684204
 31
0.0
  0
LINE
  5
1AFF
330
218
100
AcDbEntity
  8
0
  6
Continuous
 62
     7
100
AcDbLine
 10
119.8972214948
 20
19.1307552681
 30
0.0
 11
119.9748947494
 21
19.1281438394
 31
0.0
  0
LINE
  5
1B00
330
218
100
AcDbEntity
  8
0
  6
Continuous
 62
     7
100
AcDbLine
 10
109.2092677964
 20
19.2274513245
 30
0.0
 11
109.3633168511
 21
19.222043441
 31
0.0
  0
LINE
  5
1B01
330
218
100
AcDbEntity
  8
0
  6
Continuous
 62
     7
100
AcDbLine
 10
109.1538798741
 20
19.2270907963
 30
0.0
 11
109.3030169123
 21
19.2218047974
 31
0.0
  0
LINE
  5
1B02
330
218
100
AcDbEntity
  8
0
  6
Continuous
 62
     7
100
AcDbLine
 10
114.4219414286
 20
19.267000097
 30
0.0
 11
114.4860181543
 21
19.2646869237
 31
0.0
  0
LINE
  5
1B03
330
218
100
AcDbEntity
  8
0
  6
Continuous
 62
     7
100
AcDbLine
 10
114.4385832929
 20
19.2976630936
 30
0.0
 11
114.4905847745
 21
19.2957415038
 31
0.0
  0
LINE
  5
1B04
330
218
100
AcDbEntity
  8
0
  6
Continuous
 62
     7
100
AcDbLine
 10
109.3030169123
 20
19.2218047974
 30
0.0
 11
109.3978068734
 21
19.2182305323
 31
0.0
  0
LINE
  5
1B05
330
218
100
AcDbEntity
  8
0
  6
Continuous
 62
     7
100
AcDbLine
 10
109.3450003756
 20
19.2539684204
 30
0.0
 11
109.4892050289
 21
19.248569157
 31
0.0
  0
LINE
  5
1B06
330
218
100
AcDbEntity
  8
0
  6
Continuous
 62
     7
100
AcDbLine
 10
109.3633168511
 20
19.222043441
 30
0.0
 11
109.508617391
 21
19.2165467937
 31
0.0
  0
LINE
  5
1B07
330
218
100
AcDbEntity
  8
0
  6
Continuous
 62
     7
100
AcDbLine
 10
119.9748947494
 20
19.1281438394
 30
0.0
 11
120.0267692473
 21
19.1261355685
 31
0.0
  0
LINE
  5
1B08
330
218
100
AcDbEntity
  8
0
  6
Continuous
 62
     7
100
AcDbLine
 10
119.9593687624
 20
19.159921404
 30
0.0
 11
120.0321817157
 21
19.1571305379
 31
0.0
  0
LINE
  5
1B09
330
218
100
AcDbEntity
  8
0
  6
Continuous
 62
     7
100
AcDbLine
 10
119.2617163659
 20
19.3590703057
 30
0.0
 11
119.4783765812
 21
19.3504975767
 31
0.0
  0
LINE
  5
1B0A
330
218
100
AcDbEntity
  8
0
  6
Continuous
 62
     7
100
AcDbLine
 10
117.045549321
 20
18.9178677021
 30
0.0
 11
114.7779590998
 21
19.0099832959
 31
0.0
  0
LINE
  5
1B0B
330
218
100
AcDbEntity
  8
0
  6
Continuous
 62
     7
100
AcDbLine
 10
112.2989008683
 20
19.1106892873
 30
0.0
 11
110.2331392676
 21
19.1946060615
 31
0.0
  0
LINE
  5
1B0C
330
218
100
AcDbEntity
  8
0
  6
Continuous
 62
     7
100
AcDbLine
 10
107.6981744719
 20
19.2975831274
 30
0.0
 11
104.8277309912
 21
19.4141882369
 31
0.0
  0
LINE
  5
1B0D
330
218
100
AcDbEntity
  8
0
  6
Continuous
 62
     7
100
AcDbLine
 10
109.4892050289
 20
19.248569157
 30
0.0
 11
109.6241736144
 21
19.2431049401
 31
0.0
  0
LINE
  5
1B0E
330
218
100
AcDbEntity
  8
0
  6
Continuous
 62
     7
100
AcDbLine
 10
114.4905847745
 20
19.2957415038
 30
0.0
 11
114.5392209963
 21
19.2937155487
 31
0.0
  0
LINE
  5
1B0F
330
218
100
AcDbEntity
  8
0
  6
Continuous
 62
     7
100
AcDbLine
 10
114.4860181543
 20
19.2646869237
 30
0.0
 11
114.5449890701
 21
19.2622254242
 31
0.0
  0
LINE
  5
1B10
330
218
100
AcDbEntity
  8
0
  6
Continuous
 62
     7
100
AcDbLine
 10
119.4783765812
 20
19.3504975767
 30
0.0
 11
119.6540531993
 21
19.3429087582
 31
0.0
  0
LINE
  5
1B11
330
218
100
AcDbEntity
  8
0
  6
Continuous
 62
     7
100
AcDbLine
 10
120.0321817157
 20
19.1571305379
 30
0.0
 11
120.0746434296
 21
19.155264306
 31
0.0
  0
LINE
  5
1B12
330
218
100
AcDbEntity
  8
0
  6
Continuous
 62
     7
100
AcDbLine
 10
120.0267692473
 20
19.1261355685
 30
0.0
 11
120.0738380348
 21
19.1240845839
 31
0.0
  0
LINE
  5
1B13
330
218
100
AcDbEntity
  8
0
  6
Continuous
 62
     7
100
AcDbLine
 10
109.6241736144
 20
19.2431049401
 30
0.0
 11
109.7477698822
 21
19.2376543109
 31
0.0
  0
LINE
  5
1B14
330
218
100
AcDbEntity
  8
0
  6
Continuous
 62
     7
100
AcDbLine
 10
119.6540531993
 20
19.3429087582
 30
0.0
 11
119.7981342736
 21
19.3361847811
 31
0.0
  0
LINE
  5
1B15
330
218
100
AcDbEntity
  8
0
  6
Continuous
 62
     7
100
AcDbLine
 10
109.7477698822
 20
19.2376543109
 30
0.0
 11
109.8227305285
 21
19.2340789325
 31
0.0
  0
LINE
  5
1B16
330
218
100
AcDbEntity
  8
0
  6
Continuous
 62
     7
100
AcDbLine
 10
114.5392209963
 20
19.2937155487
 30
0.0
 11
114.5844917994
 21
19.2915786923
 31
0.0
  0
LINE
  5
1B17
330
218
100
AcDbEntity
  8
0
  6
Continuous
 62
     7
100
AcDbLine
 10
120.0746434296
 20
19.155264306
 30
0.0
 11
120.1132214903
 21
19.1533746061
 31
0.0
  0
LWPOLYLINE
  5
1B18
330
218
100
AcDbEntity
  8
0
  6
Continuous
 62
     7
100
AcDbPolyline
 90
       18
 70
     0
 43
0.0
 10
114.5449890701
 20
19.2622254242
 10
114.5984989859
 20
19.259625399
 10
114.6231149344
 20
19.2582775852
 10
114.6462564147
 20
19.2569002811
 10
114.6678891218
 20
19.2554952287
 10
114.6879761056
 20
19.2540643151
 10
114.7064825376
 20
19.2526093426
 10
114.7233728078
 20
19.2511322854
 10
114.738600435
 20
19.2496349169
 10
114.7521676859
 20
19.2481196168
 10
114.7640504136
 20
19.2465884379
 10
114.7742834706
 20
19.2450441078
 10
114.7828856677
 20
19.2434891391
 10
114.7898800068
 20
19.2419262085
 10
114.7952875489
 20
19.2403579206
 10
114.7991307231
 20
19.2387869896
 10
114.8014346727
 20
19.2372174556
 10
114.8022090485
 20
19.23564793589999
  0
LINE
  5
1B19
330
218
100
AcDbEntity
  8
0
  6
Continuous
 62
     7
100
AcDbLine
 10
119.7981342736
 20
19.3361847811
 30
0.0
 11
119.9168631817
 21
19.3302508774
 31
0.0
  0
LINE
  5
1B1A
330
218
100
AcDbEntity
  8
0
  6
Continuous
 62
     7
100
AcDbLine
 10
120.0738380348
 20
19.1240845839
 30
0.0
 11
120.1165806493
 21
19.1219849724
 31
0.0
  0
LINE
  5
1B1B
330
218
100
AcDbEntity
  8
0
  6
Continuous
 62
     7
100
AcDbLine
 10
119.9168631817
 20
19.3302508774
 30
0.0
 11
120.0580520704
 21
19.3226561515
 31
0.0
  0
LINE
  5
1B1C
330
218
100
AcDbEntity
  8
0
  6
Continuous
 62
     7
100
AcDbLine
 10
120.1165806493
 20
19.1219849724
 30
0.0
 11
120.1428990186
 21
19.1205548387
 31
0.0
  0
LWPOLYLINE
  5
1B1D
330
218
100
AcDbEntity
  8
0
  6
Continuous
 62
     7
100
AcDbPolyline
 90
       18
 70
     0
 43
0.0
 10
114.5844917994
 20
19.2915786923
 10
114.62633052
 20
19.2893256441
 10
114.6458475686
 20
19.2881583367
 10
114.6643880871
 20
19.2869639837
 10
114.6819257646
 20
19.2857427145
 10
114.6984184482
 20
19.2844945612
 10
114.7138225001
 20
19.2832207427
 10
114.7281205597
 20
19.2819178168
 10
114.7412900126
 20
19.280584343
 10
114.7533084445
 20
19.2792155192
 10
114.7641714185
 20
19.2778060673
 10
114.7738102487
 20
19.2763559536
 10
114.7821906031
 20
19.2748614619
 10
114.7892143162
 20
19.2733283368
 10
114.7947951037
 20
19.2717597852
 10
114.7988702514
 20
19.2701596763
 10
114.8013293855
 20
19.2685335726
 10
114.8022344962
 20
19.2668795748
  0
LINE
  5
1B1E
330
218
100
AcDbEntity
  8
0
  6
Continuous
 62
     7
100
AcDbLine
 10
120.1132214903
 20
19.1533746061
 30
0.0
 11
120.1483513118
 21
19.1514573207
 31
0.0
  0
LINE
  5
1B1F
330
218
100
AcDbEntity
  8
0
  6
Continuous
 62
     7
100
AcDbLine
 10
117.3204600273
 20
18.8858340584
 30
0.0
 11
117.2790031251
 21
18.8882313593
 31
0.0
  0
LINE
  5
1B20
330
218
100
AcDbEntity
  8
0
  6
Continuous
 62
     7
100
AcDbLine
 10
120.0580520704
 20
19.3226561515
 30
0.0
 11
120.1678162549
 21
19.3162775803
 31
0.0
  0
LINE
  5
1B21
330
218
100
AcDbEntity
  8
0
  6
Continuous
 62
     7
100
AcDbLine
 10
120.1428990186
 20
19.1205548387
 30
0.0
 11
120.1676276446
 21
19.1190977071
 31
0.0
  0
LINE
  5
1B22
330
218
100
AcDbEntity
  8
0
  6
Continuous
 62
     7
100
AcDbLine
 10
120.1483513118
 20
19.1514573207
 30
0.0
 11
120.1801908625
 21
19.1495195667
 31
0.0
  0
LINE
  5
1B23
330
218
100
AcDbEntity
  8
0
  6
Continuous
 62
     7
100
AcDbLine
 10
117.2790031251
 20
18.8882313593
 30
0.0
 11
117.2399847721
 21
18.8906951287
 31
0.0
  0
LINE
  5
1B24
330
218
100
AcDbEntity
  8
0
  6
Continuous
 62
     7
100
AcDbLine
 10
120.1678162549
 20
19.3162775803
 30
0.0
 11
120.2838213622
 21
19.3090002503
 31
0.0
  0
LINE
  5
1B25
330
218
100
AcDbEntity
  8
0
  6
Continuous
 62
     7
100
AcDbLine
 10
120.1676276446
 20
19.1190977071
 30
0.0
 11
120.1908488651
 21
19.117608698
 31
0.0
  0
LINE
  5
1B26
330
218
100
AcDbEntity
  8
0
  6
Continuous
 62
     7
100
AcDbLine
 10
120.2838213622
 20
19.3090002503
 30
0.0
 11
120.3692795231
 21
19.303221113
 31
0.0
  0
LWPOLYLINE
  5
1B27
330
218
100
AcDbEntity
  8
0
  6
Continuous
 62
     7
100
AcDbPolyline
 90
       21
 70
     0
 43
0.0
 10
120.1801908625
 20
19.1495195667
 10
120.2088806341
 20
19.1475623203
 10
120.2221557739
 20
19.146570001
 10
120.2348386424
 20
19.1455606602
 10
120.246946293
 20
19.1445316892
 10
120.2585376125
 20
19.1434783176
 10
120.2695725741
 20
19.1424013916
 10
120.2800391668
 20
19.1413006931
 10
120.2899140418
 20
19.140174583
 10
120.2991781225
 20
19.1390217852
 10
120.3078087263
 20
19.1378409217
 10
120.3157883642
 20
19.136629959
 10
120.3230849043
 20
19.1353894893
 10
120.329676663
 20
19.1341219881
 10
120.3355184012
 20
19.1328196286
 10
120.3405767461
 20
19.1314806144
 10
120.3447987248
 20
19.1300891537
 10
120.348157893
 20
19.1286335291
 10
120.3505481708
 20
19.1270994319
 10
120.351838965
 20
19.1254663535
 10
120.3521219554
 20
19.1243292828
  0
LWPOLYLINE
  5
1B28
330
218
100
AcDbEntity
  8
0
  6
Continuous
 62
     7
100
AcDbPolyline
 90
       19
 70
     0
 43
0.0
 10
117.2399847721
 20
18.8906951287
 10
117.2038452217
 20
18.8932088405
 10
117.1869840199
 20
18.8944778518
 10
117.1710079831
 20
18.8957505379
 10
117.1559466498
 20
18.8970250197
 10
117.1418502975
 20
18.8982984596
 10
117.1287169185
 20
18.8995704078
 10
117.1165584688
 20
18.9008398043
 10
117.1053810902
 20
18.9021056421
 10
117.0951925995
 20
18.9033671464
 10
117.0859966368
 20
18.90462256
 10
117.0777969961
 20
18.9058704602
 10
117.0705949676
 20
18.9071090685
 10
117.0643908738
 20
18.9083366953
 10
117.0591836704
 20
18.9095516505
 10
117.0549708828
 20
18.9107522437
 10
117.051748546
 20
18.9119367847
 10
117.0495042639
 20
18.9131027383
 10
117.0482516094
 20
18.9142509475
  0
LINE
  5
1B29
330
218
100
AcDbEntity
  8
0
  6
Continuous
 62
     7
100
AcDbLine
 10
120.1908488651
 20
19.117608698
 30
0.0
 11
120.2126112727
 21
19.1160811107
 31
0.0
  0
LINE
  5
1B2A
330
218
100
AcDbEntity
  8
0
  6
Continuous
 62
     7
100
AcDbLine
 10
120.3692795231
 20
19.303221113
 30
0.0
 11
120.4432176505
 21
19.2978820989
 31
0.0
  0
LINE
  5
1B2B
330
218
100
AcDbEntity
  8
0
  6
Continuous
 62
     7
100
AcDbLine
 10
120.4432176505
 20
19.2978820989
 30
0.0
 11
120.5133606282
 21
19.2924768642
 31
0.0
  0
LWPOLYLINE
  5
1B2C
330
218
100
AcDbEntity
  8
0
  6
Continuous
 62
     7
100
AcDbPolyline
 90
       24
 70
     0
 43
0.0
 10
120.2126112727
 20
19.1160811107
 10
120.2329614483
 20
19.1145081731
 10
120.2426219303
 20
19.1137025437
 10
120.2519448678
 20
19.1128830785
 10
120.2609406952
 20
19.1120487292
 10
120.2695944843
 20
19.1111994394
 10
120.2779010271
 20
19.1103347741
 10
120.2858423606
 20
19.109454797
 10
120.2934025638
 20
19.1085595834
 10
120.3005715489
 20
19.1076486308
 10
120.3073356507
 20
19.1067218092
 10
120.3136907072
 20
19.1057780394
 10
120.3196314489
 20
19.1048165966
 10
120.3251482423
 20
19.1038362478
 10
120.3302405098
 20
19.1028364826
 10
120.3348767381
 20
19.1018143612
 10
120.3390363549
 20
19.1007677558
 10
120.3426879455
 20
19.0996936471
 10
120.345803368
 20
19.0985892174
 10
120.3483549646
 20
19.0974516267
 10
120.3503156286
 20
19.0962780109
 10
120.351658854
 20
19.0950654783
 10
120.3523429788
 20
19.0938097292
 10
120.3524473983
 20
19.0931011235
  0
LINE
  5
1B2D
330
218
100
AcDbEntity
  8
0
  6
Continuous
 62
     7
100
AcDbLine
 10
102.3415957589
 20
21.6263845527
 30
0.0
 11
102.3432175522
 21
21.6262502086
 31
0.0
  0
LINE
  5
1B2E
330
218
100
AcDbEntity
  8
0
  6
Continuous
 62
     7
100
AcDbLine
 10
120.5133606282
 20
19.2924768642
 30
0.0
 11
120.5670082162
 21
19.2880835586
 31
0.0
  0
LINE
  5
1B2F
330
218
100
AcDbEntity
  8
0
  6
Continuous
 62
     7
100
AcDbLine
 10
120.5670082162
 20
19.2880835586
 30
0.0
 11
120.6297397673
 21
19.2826112374
 31
0.0
  0
LINE
  5
1B30
330
218
100
AcDbEntity
  8
0
  6
Continuous
 62
     7
100
AcDbLine
 10
120.6297397673
 20
19.2826112374
 30
0.0
 11
120.6732684398
 21
19.2785682354
 31
0.0
  0
LINE
  5
1B31
330
218
100
AcDbEntity
  8
0
  6
Continuous
 62
     7
100
AcDbLine
 10
117.0780336955
 20
19.0320028598
 30
0.0
 11
116.9550353928
 21
19.0437973182
 31
0.0
  0
LINE
  5
1B33
330
218
100
AcDbEntity
  8
0
  6
Continuous
 62
     7
100
AcDbLine
 10
120.6732684398
 20
19.2785682354
 30
0.0
 11
120.713593116
 21
19.2746126993
 31
0.0
  0
LINE
  5
1B34
330
218
100
AcDbEntity
  8
0
  6
Continuous
 62
     7
100
AcDbLine
 10
120.713593116
 20
19.2746126993
 30
0.0
 11
120.7473661567
 21
19.2711209445
 31
0.0
  0
LINE
  5
1B35
330
218
100
AcDbEntity
  8
0
  6
Continuous
 62
     7
100
AcDbLine
 10
120.7473661567
 20
19.2711209445
 30
0.0
 11
120.7744717864
 21
19.2681846684
 31
0.0
  0
LINE
  5
1B38
330
218
100
AcDbEntity
  8
0
  6
Continuous
 62
     7
100
AcDbLine
 10
120.7744717864
 20
19.2681846684
 30
0.0
 11
120.8064921772
 21
19.2645438297
 31
0.0
  0
LINE
  5
1B3A
330
218
100
AcDbEntity
  8
0
  6
Continuous
 62
     7
100
AcDbLine
 10
120.8064921772
 20
19.2645438297
 30
0.0
 11
120.8313046058
 21
19.2615786738
 31
0.0
  0
LINE
  5
1B3C
330
218
100
AcDbEntity
  8
0
  6
Continuous
 62
     7
100
AcDbLine
 10
120.8313046058
 20
19.2615786738
 30
0.0
 11
120.8508331224
 21
19.2591458461
 31
0.0
  0
LINE
  5
1B3E
330
218
100
AcDbEntity
  8
0
  6
Continuous
 62
     7
100
AcDbLine
 10
120.8508331224
 20
19.2591458461
 30
0.0
 11
120.8701191099
 21
19.2566441853
 31
0.0
  0
LINE
  5
1B40
330
218
100
AcDbEntity
  8
0
  6
Continuous
 62
     7
100
AcDbLine
 10
120.8701191099
 20
19.2566441853
 30
0.0
 11
120.8868734621
 21
19.2543788994
 31
0.0
  0
LWPOLYLINE
  5
1B42
330
218
100
AcDbEntity
  8
0
  6
Continuous
 62
     7
100
AcDbPolyline
 90
       18
 70
     0
 43
0.0
 10
117.2699110372
 20
18.8985267686
 10
117.2690591533
 20
18.8986442334
 10
117.2688654255
 20
18.898672179
 10
117.2690864369
 20
18.8986384044
 10
117.2697257499
 20
18.8985366626
 10
117.2707998356
 20
18.8983578818
 10
117.2723199627
 20
18.8980927968
 10
117.2743036238
 20
18.8977298928
 10
117.2767684507
 20
18.8972561742
 10
117.2797230825
 20
18.8966588598
 10
117.2831833908
 20
18.8959221092
 10
117.2871406702
 20
18.8950337534
 10
117.2915969795
 20
18.8939780677
 10
117.2965269672
 20
18.8927448038
 10
117.3019168478
 20
18.8913204605
 10
117.3077283091
 20
18.8896978393
 10
117.3139185937
 20
18.8878719401
 10
117.3204871737
 20
18.8858256014
  0
LINE
  5
1B43
330
218
100
AcDbEntity
  8
0
  6
Continuous
 62
     7
100
AcDbLine
 10
120.8868734621
 20
19.2543788994
 30
0.0
 11
120.899992013
 21
19.2525369061
 31
0.0
  0
LINE
  5
1B45
330
218
100
AcDbEntity
  8
0
  6
Continuous
 62
     7
100
AcDbLine
 10
120.899992013
 20
19.2525369061
 30
0.0
 11
120.9122068885
 21
19.2507616475
 31
0.0
  0
LINE
  5
1B47
330
218
100
AcDbEntity
  8
0
  6
Continuous
 62
     7
100
AcDbLine
 10
120.9122068885
 20
19.2507616475
 30
0.0
 11
120.9289408383
 21
19.2482497466
 31
0.0
  0
LINE
  5
1B49
330
218
100
AcDbEntity
  8
0
  6
Continuous
 62
     7
100
AcDbLine
 10
120.9289408383
 20
19.2482497466
 30
0.0
 11
120.9769466584
 21
19.2408129045
 31
0.0
  0
LINE
  5
1B4B
330
218
100
AcDbEntity
  8
0
  6
Continuous
 62
     7
100
AcDbLine
 10
120.9769466584
 20
19.2408129045
 30
0.0
 11
121.0432362175
 21
19.2302509529
 31
0.0
  0
LINE
  5
1B4D
330
218
100
AcDbEntity
  8
0
  6
Continuous
 62
     7
100
AcDbLine
 10
121.0432362175
 20
19.2302509529
 30
0.0
 11
121.0975654537
 21
19.2213398597
 31
0.0
  0
LINE
  5
1B4F
330
218
100
AcDbEntity
  8
0
  6
Continuous
 62
     7
100
AcDbLine
 10
121.0975654537
 20
19.2213398597
 30
0.0
 11
121.1534543097
 21
19.211912799
 31
0.0
  0
LINE
  5
1B52
330
218
100
AcDbEntity
  8
0
  6
Continuous
 62
     7
100
AcDbLine
 10
121.1534543097
 20
19.211912799
 30
0.0
 11
121.2043020283
 21
19.2030935794
 31
0.0
  0
LWPOLYLINE
  5
1B54
330
218
100
AcDbEntity
  8
0
  6
Continuous
 62
     7
100
AcDbPolyline
 90
        3
 70
     0
 43
0.0
 10
121.2043020283
 20
19.2030935794
 10
121.2644848874
 20
19.1923375712
 10
121.2868576018
 20
19.1882448902
  0
LINE
  5
1B55
330
218
100
AcDbEntity
  8
0
  6
Continuous
 62
     7
100
AcDbLine
 10
114.7303148108
 20
18.888121222
 30
0.0
 11
114.7391731424
 21
18.8864557904
 31
0.0
  0
LINE
  5
1B58
330
218
100
AcDbEntity
  8
0
  6
Continuous
 62
     7
100
AcDbLine
 10
117.3204506259
 20
18.8858345908
 30
0.0
 11
117.3274142463
 21
18.8835467554
 31
0.0
  0
LINE
  5
1B59
330
218
100
AcDbEntity
  8
0
  6
Continuous
 62
     7
100
AcDbLine
 10
117.3270550893
 20
18.8836679558
 30
0.0
 11
117.3347190715
 21
18.881009305
 31
0.0
  0
LWPOLYLINE
  5
1B5A
330
218
100
AcDbEntity
  8
0
  6
Continuous
 62
     7
100
AcDbPolyline
 90
        7
 70
     0
 43
0.0
 10
112.3198792563
 20
19.012057434
 10
112.2869024958
 20
19.0273532806
 10
112.3106751219
 20
19.0471442273
 10
112.307859418
 20
19.0731092327
 10
112.2993375994
 20
19.1033018411
 10
112.2973792126
 20
19.1364285793
 10
112.2904903259
 20
19.1582381704
  0
LINE
  5
1B5C
330
218
100
AcDbEntity
  8
0
  6
Continuous
 62
     7
100
AcDbLine
 10
112.3334288704
 20
19.0002299504
 30
0.0
 11
112.3198792563
 21
19.012057434
 31
0.0
  0
LINE
  5
1B5D
330
218
100
AcDbEntity
  8
0
  6
Continuous
 62
     7
100
AcDbLine
 10
107.1749904584
 20
18.9192857005
 30
0.0
 11
107.1828720297
 21
18.9010532186
 31
0.0
  0
LWPOLYLINE
  5
1B5E
330
218
100
AcDbEntity
  8
0
  6
Continuous
 62
     7
100
AcDbPolyline
 90
       27
 70
     0
 43
0.0
 10
107.1680821691
 20
18.9428075907
 10
107.1597773851
 20
18.9640976213
 10
107.1505083028
 20
18.9849858796
 10
107.1402942881
 20
19.0054287236
 10
107.1291566812
 20
19.0253834421
 10
107.1171187518
 20
19.0448083438
 10
107.1042056509
 20
19.0636628443
 10
107.0904443576
 20
19.0819075508
 10
107.0758636235
 20
19.0995043448
 10
107.0604939121
 20
19.1164164611
 10
107.0443673354
 20
19.1326085655
 10
107.0275175865
 20
19.14804682759999
 10
107.0099798696
 20
19.1626989925
 10
106.9917908262
 20
19.1765344473
 10
106.9729884588
 20
19.1895242856
 10
106.953612051
 20
19.2016413677
 10
106.933702086
 20
19.2128603776
 10
106.9133001616
 20
19.2231578752
 10
106.8924489037
 20
19.232512346
 10
106.8711918766
 20
19.2409042459
 10
106.8495734926
 20
19.2483160414
 10
106.8276389192
 20
19.2547322473
 10
106.805433984
 20
19.2601394582
 10
106.7830050799
 20
19.2645263767
 10
106.7603990676
 20
19.2678838372
 10
106.7376631777
 20
19.2702048251
 10
106.7148449124
 20
19.2714844911
  0
LINE
  5
1B5F
330
218
100
AcDbEntity
  8
0
  6
Continuous
 62
     7
100
AcDbLine
 10
107.1828720297
 20
18.9010532186
 30
0.0
 11
107.1899191933
 21
18.8828108346
 31
0.0
  0
LINE
  5
1B60
330
218
100
AcDbEntity
  8
0
  6
Continuous
 62
     7
100
AcDbLine
 10
107.1680821674
 20
18.9428075702
 30
0.0
 11
107.4151096332
 21
18.2641051859
 31
0.0
  0
LINE
  5
1B63
330
218
100
AcDbEntity
  8
0
  6
Continuous
 62
     7
100
AcDbLine
 10
106.6776725411
 20
19.2727715193
 30
0.0
 11
106.6776551988
 21
19.2728775883
 31
0.0
  0
LINE
  5
1B98
330
218
100
AcDbEntity
  8
0
  6
Continuous
 62
     7
100
AcDbLine
 10
121.2868576018
 20
19.1882448902
 30
0.0
 11
121.3353157544
 21
19.1791990353
 31
0.0
  0
LINE
  5
1B99
330
218
100
AcDbEntity
  8
0
  6
Continuous
 62
     7
100
AcDbLine
 10
121.3353157544
 20
19.1791990353
 30
0.0
 11
121.3888639958
 21
19.1688959395
 31
0.0
  0
LINE
  5
1B9A
330
218
100
AcDbEntity
  8
0
  6
Continuous
 62
     7
100
AcDbLine
 10
121.3888639958
 20
19.1688959395
 30
0.0
 11
121.4475130111
 21
19.157214423
 31
0.0
  0
LWPOLYLINE
  5
1B9B
330
218
100
AcDbEntity
  8
0
  6
Continuous
 62
     7
100
AcDbPolyline
 90
        4
 70
     0
 43
0.0
 10
121.4475130111
 20
19.157214423
 10
121.5108857146
 20
19.1440888129
 10
121.5438536385
 20
19.1370386352
 10
121.5776076676
 20
19.129662488
  0
LINE
  5
1B9C
330
218
100
AcDbEntity
  8
0
  6
Continuous
 62
     7
100
AcDbLine
 10
121.5776076676
 20
19.129662488
 30
0.0
 11
121.6424606681
 21
19.1149813212
 31
0.0
  0
LINE
  5
1B9D
330
218
100
AcDbEntity
  8
0
  6
Continuous
 62
     7
100
AcDbLine
 10
121.6424606681
 20
19.1149813212
 30
0.0
 11
121.6982545736
 21
19.1017908171
 31
0.0
  0
LWPOLYLINE
  5
1B9E
330
218
100
AcDbEntity
  8
0
  6
Continuous
 62
     7
100
AcDbPolyline
 90
        8
 70
     0
 43
0.0
 10
121.9689716503
 20
19.0326567536
 10
121.974440147
 20
19.0313477779
 10
121.9799835354
 20
19.0300466389
 10
121.9857161832
 20
19.0287578019
 10
121.9913389518
 20
19.0274564037
 10
121.9966244172
 20
19.026117331
 10
122.0016238882
 20
19.024746515
 10
122.0062565704
 20
19.0233331423
  0
LINE
  5
1B9F
330
218
100
AcDbEntity
  8
0
  6
Continuous
 62
     7
100
AcDbLine
 10
121.6982545736
 20
19.1017908171
 30
0.0
 11
121.7435072892
 21
19.0907245768
 31
0.0
  0
LINE
  5
1BA0
330
218
100
AcDbEntity
  8
0
  6
Continuous
 62
     7
100
AcDbLine
 10
121.958197004
 20
19.0353099398
 30
0.0
 11
121.9689716503
 21
19.0326567536
 31
0.0
  0
LINE
  5
1BA1
330
218
100
AcDbEntity
  8
0
  6
Continuous
 62
     7
100
AcDbLine
 10
121.7435072892
 20
19.0907245768
 30
0.0
 11
121.7812263948
 21
19.0812544751
 31
0.0
  0
LINE
  5
1BA2
330
218
100
AcDbEntity
  8
0
  6
Continuous
 62
     7
100
AcDbLine
 10
121.9423945393
 20
19.0393229327
 30
0.0
 11
121.958197004
 21
19.0353099398
 31
0.0
  0
LINE
  5
1BA3
330
218
100
AcDbEntity
  8
0
  6
Continuous
 62
     7
100
AcDbLine
 10
121.7812263948
 20
19.0812544751
 30
0.0
 11
121.828150178
 21
19.0691855613
 31
0.0
  0
LINE
  5
1BA4
330
218
100
AcDbEntity
  8
0
  6
Continuous
 62
     7
100
AcDbLine
 10
121.9038251173
 20
19.0493309067
 30
0.0
 11
121.9423945393
 21
19.0393229327
 31
0.0
  0
LINE
  5
1BA5
330
218
100
AcDbEntity
  8
0
  6
Continuous
 62
     7
100
AcDbLine
 10
121.828150178
 20
19.0691855613
 30
0.0
 11
121.9038251173
 21
19.0493309067
 31
0.0
  0
LINE
  5
1BA6
330
218
100
AcDbEntity
  8
0
  6
Continuous
 62
     7
100
AcDbLine
 10
122.0062565704
 20
19.0233331423
 30
0.0
 11
122.0150902051
 21
19.0204792994
 31
0.0
  0
LINE
  5
1BA7
330
218
100
AcDbEntity
  8
0
  6
Continuous
 62
     7
100
AcDbLine
 10
122.0150902051
 20
19.0204792994
 30
0.0
 11
122.0237134033
 21
19.0176319771
 31
0.0
  0
LINE
  5
1BA8
330
218
100
AcDbEntity
  8
0
  6
Continuous
 62
     7
100
AcDbLine
 10
122.0237134033
 20
19.0176319771
 30
0.0
 11
122.0364115582
 21
19.0133733128
 31
0.0
  0
LINE
  5
1BA9
330
218
100
AcDbEntity
  8
0
  6
Continuous
 62
     7
100
AcDbLine
 10
122.0364115582
 20
19.0133733128
 30
0.0
 11
122.0536822598
 21
19.0074809119
 31
0.0
  0
LINE
  5
1BAA
330
218
100
AcDbEntity
  8
0
  6
Continuous
 62
     7
100
AcDbLine
 10
122.0536822598
 20
19.0074809119
 30
0.0
 11
122.06776598
 21
19.0025948126
 31
0.0
  0
LWPOLYLINE
  5
1BAB
330
218
100
AcDbEntity
  8
0
  6
Continuous
 62
     7
100
AcDbPolyline
 90
       12
 70
     0
 43
0.0
 10
122.1855639807
 20
18.9599462856
 10
122.197653753
 20
18.9557306435
 10
122.2105808632
 20
18.9512862628
 10
122.225008686
 20
18.9466328771
 10
122.240950071
 20
18.9417409239
 10
122.2582952655
 20
18.9368853021
 10
122.2763545743
 20
18.9322985638
 10
122.2959571116
 20
18.9280465726
 10
122.3168309766
 20
18.924263964
 10
122.3361745513
 20
18.9212113971
 10
122.3514629026
 20
18.9192020573
 10
122.3578223221
 20
18.9184694583
  0
LWPOLYLINE
  5
1BAC
330
218
100
AcDbEntity
  8
0
  6
Continuous
 62
     7
100
AcDbPolyline
 90
        3
 70
     0
 43
0.0
 10
122.06776598
 20
19.0025948126
 10
122.0830120971
 20
18.9972231343
 10
122.0885299453
 20
18.9952566773
  0
LINE
  5
1BAD
330
218
100
AcDbEntity
  8
0
  6
Continuous
 62
     7
100
AcDbLine
 10
117.3343571976
 20
18.8811382604
 30
0.0
 11
117.3424077742
 21
18.8781889455
 31
0.0
  0
LINE
  5
1BAF
330
218
100
AcDbEntity
  8
0
  6
Continuous
 62
     7
100
AcDbLine
 10
117.3420454242
 20
18.8783253219
 30
0.0
 11
117.3505000218
 21
18.8750535369
 31
0.0
  0
LINE
  5
1BB0
330
218
100
AcDbEntity
  8
0
  6
Continuous
 62
     7
100
AcDbLine
 10
117.3501387963
 20
18.8751971748
 30
0.0
 11
117.3590230779
 21
18.8715637733
 31
0.0
  0
LINE
  5
1BB1
330
218
100
AcDbEntity
  8
0
  6
Continuous
 62
     7
100
AcDbLine
 10
117.358663489
 20
18.8717149291
 30
0.0
 11
117.3679536341
 21
18.8676975855
 31
0.0
  0
LINE
  5
1BB2
330
218
100
AcDbEntity
  8
0
  6
Continuous
 62
     7
100
AcDbLine
 10
117.3675971837
 20
18.8678560574
 30
0.0
 11
117.3772942442
 21
18.8634198818
 31
0.0
  0
LINE
  5
1BB3
330
218
100
AcDbEntity
  8
0
  6
Continuous
 62
     7
100
AcDbLine
 10
117.3769430524
 20
18.8635851081
 30
0.0
 11
117.3869860514
 21
18.8587224304
 31
0.0
  0
LINE
  5
1BB4
330
218
100
AcDbEntity
  8
0
  6
Continuous
 62
     7
100
AcDbLine
 10
117.3866422154
 20
18.8588936708
 30
0.0
 11
117.3969879808
 21
18.8535905094
 31
0.0
  0
LINE
  5
1BB5
330
218
100
AcDbEntity
  8
0
  6
Continuous
 62
     7
100
AcDbLine
 10
117.396653768
 20
18.8537667455
 30
0.0
 11
117.4072458832
 21
18.8480178837
 31
0.0
  0
LINE
  5
1BB6
330
218
100
AcDbEntity
  8
0
  6
Continuous
 62
     7
100
AcDbLine
 10
117.4069235095
 20
18.8481978895
 30
0.0
 11
117.4177105996
 21
18.8419984489
 31
0.0
  0
LINE
  5
1BB7
330
218
100
AcDbEntity
  8
0
  6
Continuous
 62
     7
100
AcDbLine
 10
117.4174023372
 20
18.8421807165
 30
0.0
 11
117.4283268856
 21
18.8355327372
 31
0.0
  0
LINE
  5
1BBA
330
218
100
AcDbEntity
  8
0
  6
Continuous
 62
     7
100
AcDbLine
 10
108.3626747248
 20
19.2518255897
 30
0.0
 11
108.3634770547
 21
19.2830592542
 31
0.0
  0
LINE
  5
1BBB
330
218
100
AcDbEntity
  8
0
  6
Continuous
 62
     7
100
AcDbLine
 10
106.678694795
 20
19.3041096169
 30
0.0
 11
106.6776551386
 21
19.2728775903
 31
0.0
  0
LINE
  5
1BBC
330
218
100
AcDbEntity
  8
0
  6
Continuous
 62
     7
100
AcDbLine
 10
106.6688291695
 20
19.2974500741
 30
0.0
 11
106.6677440972
 21
19.266203726
 31
0.0
  0
LINE
  5
1BBE
330
218
100
AcDbEntity
  8
0
  6
Continuous
 62
     7
100
AcDbLine
 10
106.6903962491
 20
19.2398990024
 30
0.0
 11
106.6912214483
 21
19.2455314567
 31
0.0
  0
LWPOLYLINE
  5
1BBF
330
218
100
AcDbEntity
  8
0
  6
Continuous
 62
     7
100
AcDbPolyline
 90
        5
 70
     0
 43
0.0
 10
106.6912214483
 20
19.2455314567
 10
106.6914402864
 20
19.2467242693
 10
106.6850688619
 20
19.2542189136
 10
106.6648597966
 20
19.2629402315
 10
106.6645732501
 20
19.2663143728
  0
LINE
  5
1BDB
330
218
100
AcDbEntity
  8
0
  6
Continuous
 62
     7
100
AcDbLine
 10
122.1641884422
 20
18.967652716
 30
0.0
 11
122.1855639807
 21
18.9599462856
 31
0.0
  0
LINE
  5
1BDC
330
218
100
AcDbEntity
  8
0
  6
Continuous
 62
     7
100
AcDbLine
 10
122.0885299453
 20
18.9952566773
 30
0.0
 11
122.1069405012
 21
18.9886258425
 31
0.0
  0
LINE
  5
1BDD
330
218
100
AcDbEntity
  8
0
  6
Continuous
 62
     7
100
AcDbLine
 10
122.1069405012
 20
18.9886258425
 30
0.0
 11
122.1641884422
 21
18.967652716
 31
0.0
  0
LINE
  5
1BDE
330
218
100
AcDbEntity
  8
0
  6
Continuous
 62
     7
100
AcDbLine
 10
117.4280347613
 20
18.8357156274
 30
0.0
 11
117.4390304891
 21
18.8286313392
 31
0.0
  0
LINE
  5
1BDF
330
218
100
AcDbEntity
  8
0
  6
Continuous
 62
     7
100
AcDbLine
 10
117.4387565151
 20
18.8288129289
 30
0.0
 11
117.4498041609
 21
18.8212778493
 31
0.0
  0
LINE
  5
1BE0
330
218
100
AcDbEntity
  8
0
  6
Continuous
 62
     7
100
AcDbLine
 10
117.4495496587
 20
18.8214564263
 30
0.0
 11
117.4606107018
 21
18.8134697559
 31
0.0
  0
LINE
  5
1BE1
330
218
100
AcDbEntity
  8
0
  6
Continuous
 62
     7
100
AcDbLine
 10
117.4603763179
 20
18.8136438693
 30
0.0
 11
117.4714437597
 21
18.8051825689
 31
0.0
  0
LINE
  5
1BE2
330
218
100
AcDbEntity
  8
0
  6
Continuous
 62
     7
100
AcDbLine
 10
117.4712301826
 20
18.8053505841
 30
0.0
 11
117.4822870534
 21
18.7963968711
 31
0.0
  0
LINE
  5
1BE3
330
218
100
AcDbEntity
  8
0
  6
Continuous
 62
     7
100
AcDbLine
 10
117.4820948151
 20
18.7965570945
 30
0.0
 11
117.4931232721
 21
18.7870922321
 31
0.0
  0
LWPOLYLINE
  5
1BE4
330
218
100
AcDbEntity
  8
0
  6
Continuous
 62
     7
100
AcDbPolyline
 90
        9
 70
     0
 43
0.0
 10
117.4929527937
 20
18.7872428723
 10
117.5037839786
 20
18.7773877003
 10
117.5145678694
 20
18.7669694776
 10
117.5252799889
 20
18.7559674588
 10
117.5358972927
 20
18.7443566121
 10
117.5463925315
 20
18.7321129022
 10
117.5567352249
 20
18.7192123738
 10
117.566895987
 20
18.7056250834
 10
117.5709815245
 20
18.6998774798
  0
LINE
  5
1BE5
330
218
100
AcDbEntity
  8
0
  6
Continuous
 62
     7
100
AcDbLine
 10
112.746196398
 20
18.8568797506
 30
0.0
 11
112.7461076508
 21
18.8570238608
 31
0.0
  0
LINE
  5
1BE6
330
218
100
AcDbEntity
  8
0
  6
Continuous
 62
     7
100
AcDbLine
 10
112.7461076508
 20
18.8570238608
 30
0.0
 11
112.7520094795
 21
18.8469253982
 31
0.0
  0
LINE
  5
1BE7
330
218
100
AcDbEntity
  8
0
  6
Continuous
 62
     7
100
AcDbLine
 10
112.7520094795
 20
18.8469253982
 30
0.0
 11
112.7563573375
 21
18.8387143389
 31
0.0
  0
LINE
  5
1BE8
330
218
100
AcDbEntity
  8
0
  6
Continuous
 62
     7
100
AcDbLine
 10
110.2319360684
 20
19.1995891101
 30
0.0
 11
110.2329808897
 21
19.1964923782
 31
0.0
  0
LINE
  5
1BE9
330
218
100
AcDbEntity
  8
0
  6
Continuous
 62
     7
100
AcDbLine
 10
110.2310302873
 20
19.1687388995
 30
0.0
 11
110.2324384987
 21
19.1623450418
 31
0.0
  0
LINE
  5
1BEB
330
218
100
AcDbEntity
  8
0
  6
Continuous
 62
     7
100
AcDbLine
 10
110.2329808897
 20
19.1964923782
 30
0.0
 11
110.2330953937
 21
19.1935260264
 31
0.0
  0
LWPOLYLINE
  5
1BEC
330
218
100
AcDbEntity
  8
0
  6
Continuous
 62
     7
100
AcDbPolyline
 90
        6
 70
     0
 43
0.0
 10
106.6688253083
 20
19.2974502085
 10
106.6690821298
 20
19.2984953249
 10
106.6700883392
 20
19.2998498289
 10
106.6719634364
 20
19.3012217507
 10
106.6748601017
 20
19.3026051111
 10
106.6786909462
 20
19.3039939946
  0
LWPOLYLINE
  5
1C02
330
218
100
AcDbEntity
  8
0
  6
Continuous
 62
     7
100
AcDbPolyline
 90
       21
 70
     0
 43
0.0
 10
117.4609711028
 20
18.8536699636
 10
117.4465949529
 20
18.8700588371
 10
117.4315167194
 20
18.8858044797
 10
117.4157651175
 20
18.9008769055
 10
117.3993701447
 20
18.9152474103
 10
117.3823630238
 20
18.9288886267
 10
117.3647761432
 20
18.9417745763
 10
117.3466429956
 20
18.953880719
 10
117.3279981141
 20
18.9651839996
 10
117.3088770059
 20
18.9756628922
 10
117.2893160857
 20
18.9852974406
 10
117.2693526054
 20
18.9940692967
 10
117.2490245837
 20
19.0019617552
 10
117.2283707334
 20
19.0089597857
 10
117.207430388
 20
19.015050061
 10
117.1862434265
 20
19.0202209829
 10
117.1648501975
 20
19.0244627037
 10
117.1432914425
 20
19.0277671454
 10
117.1216082183
 20
19.030128015
 10
117.0998418185
 20
19.0315408165
 10
117.0780336954
 20
19.0320028594
  0
LWPOLYLINE
  5
1C03
330
218
100
AcDbEntity
  8
0
  6
Continuous
 62
     7
100
AcDbPolyline
 90
        5
 70
     0
 43
0.0
 10
116.9822784884
 20
19.0054428435
 10
116.9794185177
 20
19.0092373475
 10
116.9766505664
 20
19.0130410599
 10
116.9739513982
 20
19.016853887
 10
116.9712977553
 20
19.0206758372
  0
LWPOLYLINE
  5
1C04
330
218
100
AcDbEntity
  8
0
  6
Continuous
 62
     7
100
AcDbPolyline
 90
       11
 70
     0
 43
0.0
 10
117.0482516094
 20
18.9142509475
 10
117.0439038557
 20
18.92007
 10
117.0396698323
 20
18.925986637
 10
117.0359047573
 20
18.9317897512
 10
117.0308819177
 20
18.9381130067
 10
117.0257782591
 20
18.9454771475
 10
117.019340903
 20
18.9540107945
 10
117.0126359595
 20
18.9638748276
 10
117.0038402978
 20
18.9754960188
 10
116.9914547659
 20
18.9894132326
 10
116.9822784884
 20
19.0054428435
  0
LINE
  5
1C06
330
218
100
AcDbEntity
  8
0
  6
Continuous
 62
     7
100
AcDbLine
 10
112.3020250521
 20
19.2178977382
 30
0.0
 11
112.2901663616
 21
19.2495663487
 31
0.0
  0
LINE
  5
1C07
330
218
100
AcDbEntity
  8
0
  6
Continuous
 62
     7
100
AcDbLine
 10
110.2311822136
 20
19.1691960549
 30
0.0
 11
110.2319568581
 21
19.2004272844
 31
0.0
  0
LINE
  5
1C08
330
218
100
AcDbEntity
  8
0
  6
Continuous
 62
     7
100
AcDbLine
 10
110.2322708102
 20
19.16234933
 30
0.0
 11
110.2330688163
 21
19.1935267073
 31
0.0
  0
LINE
  5
1C09
330
218
100
AcDbEntity
  8
0
  6
Continuous
 62
     7
100
AcDbLine
 10
110.1672003557
 20
19.0721815818
 30
0.0
 11
110.1672590864
 21
19.0736273428
 31
0.0
  0
LWPOLYLINE
  5
1C12
330
218
100
AcDbEntity
  8
0
  6
Continuous
 62
     7
100
AcDbPolyline
 90
        3
 70
     0
 43
0.0
 10
117.4875090289
 20
18.8190885345
 10
117.4746177911
 20
18.8366690706
 10
117.4609711028
 20
18.8536699636
  0
LINE
  5
1C13
330
218
100
AcDbEntity
  8
0
  6
Continuous
 62
     7
100
AcDbLine
 10
116.9324636693
 20
19.0760421592
 30
0.0
 11
116.9298385843
 21
19.0796350235
 31
0.0
  0
LWPOLYLINE
  5
1C14
330
218
100
AcDbEntity
  8
0
  6
Continuous
 62
     7
100
AcDbPolyline
 90
        4
 70
     0
 43
0.0
 10
116.9550353928
 20
19.0437973182
 10
116.9524541116
 20
19.0473729353
 10
116.9499236392
 20
19.0509501913
 10
116.9474300567
 20
19.0545291374
  0
LWPOLYLINE
  5
1C15
330
218
100
AcDbEntity
  8
0
  6
Continuous
 62
     7
100
AcDbPolyline
 90
        3
 70
     0
 43
0.0
 10
116.9375461859
 20
19.0688631212
 10
116.9350282361
 20
19.0724515599
 10
116.9324636693
 20
19.0760421592
  0
LWPOLYLINE
  5
1C16
330
218
100
AcDbEntity
  8
0
  6
Continuous
 62
     7
100
AcDbPolyline
 90
        4
 70
     0
 43
0.0
 10
116.9633783145
 20
19.0321962203
 10
116.9606752083
 20
19.0360543377
 10
116.9579019306
 20
19.0399213814
 10
116.9550353928
 20
19.0437973182
  0
LINE
  5
1C17
330
218
100
AcDbEntity
  8
0
  6
Continuous
 62
     7
100
AcDbLine
 10
118.0281164237
 20
18.0470211612
 30
0.0
 11
117.4543296093
 21
18.8664736565
 31
0.0
  0
LINE
  5
1C18
330
218
100
AcDbEntity
  8
0
  6
Continuous
 62
     7
100
AcDbLine
 10
116.9474300567
 20
19.0545291374
 30
0.0
 11
116.9375461859
 21
19.0688631212
 31
0.0
  0
LINE
  5
1C19
330
218
100
AcDbEntity
  8
0
  6
Continuous
 62
     7
100
AcDbLine
 10
116.9712977553
 20
19.0206758372
 30
0.0
 11
116.9633783145
 21
19.0321962203
 31
0.0
  0
LWPOLYLINE
  5
1C1B
330
218
100
AcDbEntity
  8
0
  6
Continuous
 62
     7
100
AcDbPolyline
 90
        3
 70
     0
 43
0.0
 10
114.8022344962
 20
19.2668795748
 10
114.807232237
 20
19.253208086
 10
114.8087865928
 20
19.2383669914
  0
LWPOLYLINE
  5
1C1C
330
218
100
AcDbEntity
  8
0
  6
Continuous
 62
     7
100
AcDbPolyline
 90
       27
 70
     0
 43
0.0
 10
112.6827012758
 20
19.0489988153
 10
112.6797109913
 20
19.0616808796
 10
112.6760633685
 20
19.0741897687
 10
112.6717683255
 20
19.0864914698
 10
112.666837541
 20
19.0985525337
 10
112.661284422
 20
19.1103401656
 10
112.6551240679
 20
19.1218223141
 10
112.6483732292
 20
19.1329677583
 10
112.6410502618
 20
19.143746193
 10
112.6331750775
 20
19.1541283108
 10
112.6247690894
 20
19.164085882
 10
112.615855154
 20
19.1735918313
 10
112.6064575089
 20
19.1826203112
 10
112.5966017071
 20
19.1911467728
 10
112.5863145472
 20
19.1991480319
 10
112.5756240006
 20
19.2066023325
 10
112.5645591359
 20
19.2134894059
 10
112.553150039
 20
19.2197905256
 10
112.5414277323
 20
19.2254885583
 10
112.5294240894
 20
19.2305680109
 10
112.5171717492
 20
19.2350150717
 10
112.5047040267
 20
19.238817649
 10
112.4920548224
 20
19.2419654033
 10
112.4792585306
 20
19.2444497757
 10
112.4663499452
 20
19.2462640108
 10
112.4533641656
 20
19.2474031757
 10
112.4403365011
 20
19.2478641729
  0
LINE
  5
1C1D
330
218
100
AcDbEntity
  8
0
  6
CENTER
 62
     7
100
AcDbLine
 10
113.5460714652
 20
43.64526452464221
 30
0.0
 11
113.5460714652
 21
15.25397923271118
 31
0.0
  0
LINE
  5
1C24
330
218
100
AcDbEntity
  8
0
  6
Continuous
 62
     7
100
AcDbLine
 10
112.2901663616
 20
19.2495663487
 30
0.0
 11
112.2904781973
 21
19.2808004893
 31
0.0
  0
LWPOLYLINE
  5
1C25
330
218
100
AcDbEntity
  8
0
  6
Continuous
 62
     7
100
AcDbPolyline
 90
        3
 70
     0
 43
0.0
 10
113.5409999942
 20
19.4704891179
 10
113.5407699422
 20
19.4498897643
 10
113.5406655401
 20
19.4448707416
  0
LINE
  5
1C26
330
218
100
AcDbEntity
  8
0
  6
Continuous
 62
     7
100
AcDbLine
 10
112.2909197004
 20
19.1897159889
 30
0.0
 11
112.29042176
 21
19.1582392481
 31
0.0
  0
LWPOLYLINE
  5
1C27
330
218
100
AcDbEntity
  8
0
  6
Continuous
 62
     7
100
AcDbPolyline
 90
        4
 70
     0
 43
0.0
 10
112.3232240731
 20
18.9860502504
 10
112.3232369026
 20
18.9865253959
 10
112.3263063527
 20
18.9918553344
 10
112.3271100314
 20
18.9929912588
  0
LINE
  5
1C28
330
218
100
AcDbEntity
  8
0
  6
Continuous
 62
     7
100
AcDbLine
 10
112.2904903259
 20
19.1582381704
 30
0.0
 11
112.291662739
 21
19.1722062556
 31
0.0
  0
LINE
  5
1C29
330
218
100
AcDbEntity
  8
0
  6
Continuous
 62
     7
100
AcDbLine
 10
110.2311818122
 20
19.1691960648
 30
0.0
 11
110.2310302873
 21
19.1687388995
 31
0.0
  0
LWPOLYLINE
  5
1C2A
330
218
100
AcDbEntity
  8
0
  6
Continuous
 62
     7
100
AcDbPolyline
 90
       10
 70
     0
 43
0.0
 10
106.7148449124
 20
19.2714844922
 10
106.7152666924
 20
19.2720770885
 10
106.7172803251
 20
19.2726363896
 10
106.7208988384
 20
19.2731647095
 10
106.7261801499
 20
19.2736551097
 10
106.7331800218
 20
19.2741016916
 10
106.7418897269
 20
19.2745036483
 10
106.752318752
 20
19.2748582705
 10
106.7644476266
 20
19.2751653669
 10
106.7782597794
 20
19.2754237796
  0
LINE
  5
1C30
330
218
100
AcDbEntity
  8
0
  6
Continuous
 62
     7
100
AcDbLine
 10
116.9298385843
 20
19.0796350235
 30
0.0
 11
116.9293787238
 21
19.081007768
 31
0.0
  0
LINE
  5
1C31
330
218
100
AcDbEntity
  8
0
  6
Continuous
 62
     7
100
AcDbLine
 10
114.8022090485
 20
19.23564793589999
 30
0.0
 11
114.8094829687
 21
19.2072447591
 31
0.0
  0
LINE
  5
1C32
330
218
100
AcDbEntity
  8
0
  6
Continuous
 62
     7
100
AcDbLine
 10
114.8022090485
 20
19.23564793589999
 30
0.0
 11
114.8022344962
 21
19.2668795748
 31
0.0
  0
LINE
  5
1C33
330
218
100
AcDbEntity
  8
0
  6
Continuous
 62
     7
100
AcDbLine
 10
114.8087269378
 20
19.2072462588
 30
0.0
 11
114.8087905163
 21
19.2383669834
 31
0.0
  0
LWPOLYLINE
  5
1C34
330
218
100
AcDbEntity
  8
0
  6
Continuous
 62
     7
100
AcDbPolyline
 90
        8
 70
     0
 43
0.0
 10
114.8094829687
 20
19.2072447591
 10
114.8091709473
 20
19.1967576125
 10
114.8000379227
 20
19.1588785429
 10
114.7983074603
 20
19.1219449079
 10
114.7919198443
 20
19.0863098096
 10
114.7885177485
 20
19.0521028878
 10
114.7792001194
 20
19.0197716175
 10
114.7753658181
 20
18.9895292466
  0
LINE
  5
1C36
330
218
100
AcDbEntity
  8
0
  6
Continuous
 62
     7
100
AcDbLine
 10
114.7391731424
 20
18.8864557904
 30
0.0
 11
114.7404415551
 21
18.9176800378
 31
0.0
  0
LWPOLYLINE
  5
1C39
330
218
100
AcDbEntity
  8
0
  6
Continuous
 62
     7
100
AcDbPolyline
 90
        3
 70
     0
 43
0.0
 10
112.291662739
 20
19.1722062556
 10
112.3018519686
 20
19.2098326558
 10
112.3020250521
 20
19.2178977382
  0
LWPOLYLINE
  5
1C3A
330
218
100
AcDbEntity
  8
0
  6
Continuous
 62
     7
100
AcDbPolyline
 90
       11
 70
     0
 43
0.0
 10
110.2324384987
 20
19.1623450418
 10
110.2258034758
 20
19.1467674327
 10
110.2043522173
 20
19.1285626561
 10
110.1783730255
 20
19.1145408159
 10
110.1880995842
 20
19.1034508012
 10
110.1883388779
 20
19.0942056236
 10
110.1769328662
 20
19.08675085
 10
110.1724136189
 20
19.080540094
 10
110.1697006969
 20
19.075946204
 10
110.1667923289
 20
19.0731840511
 10
110.1664008772
 20
19.0725045425
  0
LINE
  5
1C3D
330
218
100
AcDbEntity
  8
0
  6
Continuous
 62
     7
100
AcDbLine
 10
116.929370669
 20
19.1122396972
 30
0.0
 11
116.9293780815
 21
19.0810077678
 31
0.0
  0
LWPOLYLINE
  5
1C3E
330
218
100
AcDbEntity
  8
0
  6
Continuous
 62
     7
100
AcDbPolyline
 90
       27
 70
     0
 43
0.0
 10
114.4073988921
 20
19.0394706942
 10
114.4105326923
 20
19.0521112634
 10
114.414321301
 20
19.0645712897
 10
114.4187544245
 20
19.0768169196
 10
114.4238200183
 20
19.0888148821
 10
114.4295043191
 20
19.1005325789
 10
114.435791883
 20
19.1119381735
 10
114.4426656268
 20
19.1230006772
 10
114.4501068747
 20
19.1336900334
 10
114.458095409
 20
19.1439771994
 10
114.4666095252
 20
19.1538342254
 10
114.4756260905
 20
19.1632343299
 10
114.4851206073
 20
19.1721519733
 10
114.4950672792
 20
19.1805629264
 10
114.5054390814
 20
19.1884443371
 10
114.5162078338
 20
19.1957747916
 10
114.5273442783
 20
19.2025343734
 10
114.5388181572
 20
19.2087047168
 10
114.5505982965
 20
19.2142690572
 10
114.5626526897
 20
19.2192122765
 10
114.5749485855
 20
19.223520944
 10
114.5874525762
 20
19.2271833531
 10
114.6001306889
 20
19.2301895534
 10
114.6129484773
 20
19.2325313769
 10
114.625871116
 20
19.234202461
 10
114.6388634945
 20
19.2351982654
 10
114.6518903129
 20
19.2355160846
  0
LINE
  5
1C40
330
218
100
AcDbEntity
  8
0
  6
Continuous
 62
     7
100
AcDbLine
 10
109.0640265067
 20
18.0470211612
 30
0.0
 11
109.7021459448
 21
18.9583501648
 31
0.0
  0
LWPOLYLINE
  5
1C41
330
218
100
AcDbEntity
  8
0
  6
Continuous
 62
     7
100
AcDbPolyline
 90
       23
 70
     0
 43
0.0
 10
109.7021459643
 20
18.9583501926
 10
109.7153916954
 20
18.9763930891
 10
109.7294321281
 20
18.9938247535
 10
109.7442391092
 20
19.0106102328
 10
109.7597829485
 20
19.0267158696
 10
109.7760324783
 20
19.0421093696
 10
109.7929551158
 20
19.0567598665
 10
109.8105169287
 20
19.070637984
 10
109.8286827028
 20
19.0837158944
 10
109.8474160131
 20
19.0959673743
 10
109.8666792965
 20
19.1073678579
 10
109.8864339271
 20
19.1178944855
 10
109.906640294
 20
19.1275261494
 10
109.9272578805
 20
19.136243537
 10
109.9482453451
 20
19.1440291684
 10
109.9695606049
 20
19.1508674323
 10
109.9911609195
 20
19.1567446169
 10
110.0130029772
 20
19.1616489377
 10
110.0350429812
 20
19.1655705608
 10
110.0572367381
 20
19.1685016226
 10
110.0795397461
 20
19.17043624599999
 10
110.1019072843
 20
19.1713705517
 10
110.1242945025
 20
19.1713026664
  0
LWPOLYLINE
  5
1C42
330
218
100
AcDbEntity
  8
0
  6
Continuous
 62
     7
100
AcDbPolyline
 90
       10
 70
     0
 43
0.0
 10
106.6786858598
 20
19.3041099142
 10
106.6792361703
 20
19.3046324511
 10
106.6814153563
 20
19.3052229427
 10
106.6852637647
 20
19.3057745768
 10
106.6908211914
 20
19.3062837922
 10
106.6981248708
 20
19.3067477822
 10
106.7071812993
 20
19.3071654704
 10
106.7180127618
 20
19.3075351702
 10
106.7305952354
 20
19.3078559059
 10
106.7449039084
 20
19.3081260917
  0
LWPOLYLINE
  5
1C43
330
218
100
AcDbEntity
  8
0
  6
Continuous
 62
     7
100
AcDbPolyline
 90
       10
 70
     0
 43
0.0
 10
106.6776551988
 20
19.2728775883
 10
106.6783003884
 20
19.2734350655
 10
106.6806871052
 20
19.2740486811
 10
106.6848540898
 20
19.2746124028
 10
106.6907898011
 20
19.2751261221
 10
106.6984883964
 20
19.2755897984
 10
106.7079474674
 20
19.2760032638
 10
106.7191610924
 20
19.2763664168
 10
106.7321269262
 20
19.2766790184
 10
106.7468396029
 20
19.2769408754
  0
LINE
  5
1C4A
330
218
100
AcDbEntity
  8
0
  6
Continuous
 62
     7
100
AcDbLine
 10
118.7492206211
 20
19.14374409849999
 30
0.0
 11
118.749095071
 21
19.1749743185
 31
0.0
  0
LWPOLYLINE
  5
1C4B
330
218
100
AcDbEntity
  8
0
  6
Continuous
 62
     7
100
AcDbPolyline
 90
       17
 70
     0
 43
0.0
 10
116.9293872908
 20
19.1122397013
 10
116.9294750216
 20
19.1128347732
 10
116.930982436
 20
19.114797342
 10
116.9343947772
 20
19.1167534893
 10
116.939679785
 20
19.1187023138
 10
116.9468191902
 20
19.12064318869999
 10
116.9558055543
 20
19.1225745938
 10
116.9666281343
 20
19.1244955687
 10
116.9792713524
 20
19.1264036281
 10
116.993720468
 20
19.1282967802
 10
117.0099522057
 20
19.1301724716
 10
117.0279307624
 20
19.1320271432
 10
117.0476671394
 20
19.1338617766
 10
117.0691609781
 20
19.1356761956
 10
117.092407352
 20
19.1374700774
 10
117.1174145599
 20
19.1392440494
 10
117.1441388441
 20
19.1409948574
  0
LWPOLYLINE
  5
1C4C
330
218
100
AcDbEntity
  8
0
  6
Continuous
 62
     7
100
AcDbPolyline
 90
        8
 70
     0
 43
0.0
 10
114.7753655144
 20
18.9895292546
 10
114.7639678192
 20
18.9622690304
 10
114.7452613975
 20
18.9388225851
 10
114.7510043145
 20
18.9195955276
 10
114.7624151213
 20
18.9056190512
 10
114.7426407
 20
18.8958048892
 10
114.7310644026
 20
18.88932657259999
 10
114.7303148108
 20
18.888121222
  0
LWPOLYLINE
  5
1C4D
330
218
100
AcDbEntity
  8
0
  6
Continuous
 62
     7
100
AcDbPolyline
 90
       15
 70
     0
 43
0.0
 10
112.2901663616
 20
19.2495663487
 10
112.2909620275
 20
19.2509437562
 10
112.2933001758
 20
19.2523066178
 10
112.2971865714
 20
19.2536559122
 10
112.3026446372
 20
19.2549887032
 10
112.3096918988
 20
19.2563030213
 10
112.3183479349
 20
19.2575969494
 10
112.3286305232
 20
19.2588685398
 10
112.3405582601
 20
19.2601159195
 10
112.3541593672
 20
19.2613369762
 10
112.3694179774
 20
19.2625304857
 10
112.3863408577
 20
19.2636947555
 10
112.4048824273
 20
19.2648290827
 10
112.4250083842
 20
19.2659325199
 10
112.4466846931
 20
19.2670041133
  0
LWPOLYLINE
  5
1C4E
330
218
100
AcDbEntity
  8
0
  6
Continuous
 62
     7
100
AcDbPolyline
 90
       15
 70
     0
 43
0.0
 10
112.2904781973
 20
19.2808004893
 10
112.2913657245
 20
19.2822399279
 10
112.2938628897
 20
19.2836501883
 10
112.2979970372
 20
19.2850324514
 10
112.3037147372
 20
19.2863831759
 10
112.3109849374
 20
19.2876999269
 10
112.3197580242
 20
19.2889805697
 10
112.3299697343
 20
19.2902210459
 10
112.341622526
 20
19.2914246944
 10
112.3546884549
 20
19.2925922136
 10
112.3691949703
 20
19.2937274699
 10
112.3851619641
 20
19.2948342666
 10
112.4025904838
 20
19.2959134958
 10
112.4214916587
 20
19.2969676825
 10
112.4418575914
 20
19.297995737
  0
LINE
  5
1C50
330
218
100
AcDbEntity
  8
0
  6
Continuous
 62
     7
100
AcDbLine
 10
120.0122546337
 20
18.8391805922
 30
0.0
 11
120.0121524814
 21
18.8441496153
 31
0.0
  0
LINE
  5
1C51
330
218
100
AcDbEntity
  8
0
  6
Continuous
 62
     7
100
AcDbLine
 10
120.3524481696
 20
19.0931011309
 30
0.0
 11
120.3521498901
 21
19.124329551
 31
0.0
  0
LWPOLYLINE
  5
1C54
330
218
100
AcDbEntity
  8
0
  6
Continuous
 62
     7
100
AcDbPolyline
 90
       19
 70
     0
 43
0.0
 10
116.9293787238
 20
19.081007768
 10
116.9299073046
 20
19.0824750509
 10
116.9314366164
 20
19.0838970603
 10
116.9339640786
 20
19.0853194121
 10
116.9374904711
 20
19.0867413508
 10
116.942016267
 20
19.0881621096
 10
116.9475416151
 20
19.0895809113
 10
116.9540663226
 20
19.0909969678
 10
116.9615898384
 20
19.0924094816
 10
116.9701112365
 20
19.0938176455
 10
116.9796292002
 20
19.0952206431
 10
116.9901420062
 20
19.0966176497
 10
117.0016475094
 20
19.0980078324
 10
117.0141431281
 20
19.0993903506
 10
117.0276259626
 20
19.10076435869999
 10
117.0420921182
 20
19.1021289962
 10
117.0575404281
 20
19.1034834468
 10
117.0739569152
 20
19.1048266957
 10
117.0913331427
 20
19.1061578244
  0
LINE
  5
1C55
330
218
100
AcDbEntity
  8
0
  6
Continuous
 62
     7
100
AcDbLine
 10
112.3271100314
 20
18.9929912588
 30
0.0
 11
112.3334288704
 21
19.0002299504
 31
0.0
  0
LINE
  5
1C56
330
218
100
AcDbEntity
  8
0
  6
Continuous
 62
     7
100
AcDbLine
 10
126.7259033251
 20
32.8214612521
 30
0.0
 11
126.7307592895
 21
32.826620506
 31
0.0
  0
LINE
  5
1C57
330
218
100
AcDbEntity
  8
0
  6
Continuous
 62
     7
100
AcDbLine
 10
126.5627552873
 20
32.6608155725
 30
0.0
 11
126.5664067173
 21
32.6646599287
 31
0.0
  0
LINE
  5
1C58
330
218
100
AcDbEntity
  8
0
  6
Continuous
 62
     7
100
AcDbLine
 10
126.7210759522
 20
32.81639349090001
 30
0.0
 11
126.7259033251
 21
32.8214612521
 31
0.0
  0
LINE
  5
1C59
330
218
100
AcDbEntity
  8
0
  6
Continuous
 62
     7
100
AcDbLine
 10
126.5664067173
 20
32.6646599287
 30
0.0
 11
126.5701671813
 21
32.668576239
 31
0.0
  0
LINE
  5
1C5A
330
218
100
AcDbEntity
  8
0
  6
Continuous
 62
     7
100
AcDbLine
 10
126.7114690448
 20
32.8064706269
 30
0.0
 11
126.7162650706
 21
32.8113987677
 31
0.0
  0
LINE
  5
1C5B
330
218
100
AcDbEntity
  8
0
  6
Continuous
 62
     7
100
AcDbLine
 10
126.7066889953
 20
32.8016061443
 30
0.0
 11
126.7114690448
 21
32.8064706269
 31
0.0
  0
LINE
  5
1C5C
330
218
100
AcDbEntity
  8
0
  6
Continuous
 62
     7
100
AcDbLine
 10
126.5779525715
 20
32.676560302
 30
0.0
 11
126.581945384
 21
32.6805968248
 31
0.0
  0
LINE
  5
1C5D
330
218
100
AcDbEntity
  8
0
  6
Continuous
 62
     7
100
AcDbLine
 10
126.581945384
 20
32.6805968248
 30
0.0
 11
126.5880206675
 21
32.68667299860001
 31
0.0
  0
LINE
  5
1C5E
330
218
100
AcDbEntity
  8
0
  6
Continuous
 62
     7
100
AcDbLine
 10
126.6877385274
 20
32.7827187479
 30
0.0
 11
126.6948120005
 21
32.7897014206
 31
0.0
  0
LWPOLYLINE
  5
1C5F
330
218
100
AcDbEntity
  8
0
  6
Continuous
 62
     7
100
AcDbPolyline
 90
       12
 70
     0
 43
0.0
 10
126.6724915369
 20
32.7678845292
 10
126.6916510215
 20
32.7865733386
 10
126.7100743269
 20
32.8050476104
 10
126.7277742968
 20
32.8234423305
 10
126.744621929
 20
32.8417362573
 10
126.7606247784
 20
32.8600391543
 10
126.77579828
 20
32.8784639721
 10
126.7900512384
 20
32.89698690570001
 10
126.803337287
 20
32.9156091146
 10
126.8155940364
 20
32.9342980259
 10
126.82678047
 20
32.9530129943
 10
126.836866847
 20
32.971697738
  0
LINE
  5
1C60
330
218
100
AcDbEntity
  8
0
  6
Continuous
 62
     7
100
AcDbLine
 10
126.5941867974
 20
32.69277036510001
 30
0.0
 11
126.6025414296
 21
32.7009401331
 31
0.0
  0
LINE
  5
1C61
330
218
100
AcDbEntity
  8
0
  6
Continuous
 62
     7
100
AcDbLine
 10
126.6621746669
 20
32.7579697691
 30
0.0
 11
126.6737187647
 21
32.7690679494
 31
0.0
  0
LINE
  5
1C62
330
218
100
AcDbEntity
  8
0
  6
Continuous
 62
     7
100
AcDbLine
 10
126.6153357948
 20
32.71329806380001
 30
0.0
 11
126.6724915369
 21
32.7678845292
 31
0.0
  0
LINE
  5
1C63
330
218
100
AcDbEntity
  8
0
  6
Continuous
 62
     7
100
AcDbLine
 10
106.6645732501
 20
19.2663143728
 30
0.0
 11
106.6776725411
 21
19.2727715193
 31
0.0
  0
LINE
  5
1C64
330
218
100
AcDbEntity
  8
0
  6
Continuous
 62
     7
100
AcDbLine
 10
120.3524473983
 20
19.0931011235
 30
0.0
 11
120.3523903218
 21
19.0925119344
 31
0.0
  0
LWPOLYLINE
  5
1C66
330
218
100
AcDbEntity
  8
0
  6
Continuous
 62
     7
100
AcDbPolyline
 90
        7
 70
     0
 43
0.0
 10
126.5095060699
 20
32.5963430209
 10
126.5105323769
 20
32.5978439532
 10
126.5115716293
 20
32.5993467818
 10
126.5126237956
 20
32.6008515371
 10
126.5136888394
 20
32.6023582378
 10
126.5147667504
 20
32.6038669344
 10
126.5158575133
 20
32.6053776651
  0
LWPOLYLINE
  5
1C67
330
218
100
AcDbEntity
  8
0
  6
Continuous
 62
     7
100
AcDbPolyline
 90
        5
 70
     0
 43
0.0
 10
126.7982078828
 20
32.9082413824
 10
126.8007608302
 20
32.911878255
 10
126.8032954801
 20
32.91554795030001
 10
126.8058111126
 20
32.9192512674
 10
126.8083070042
 20
32.9229890265
  0
LWPOLYLINE
  5
1C68
330
218
100
AcDbEntity
  8
0
  6
Continuous
 62
     7
100
AcDbPolyline
 90
        7
 70
     0
 43
0.0
 10
126.5180776399
 20
32.6084055016
 10
126.5192070483
 20
32.6099227589
 10
126.5203494005
 20
32.6114423565
 10
126.5215047522
 20
32.612964399
 10
126.522673156
 20
32.614488981
 10
126.5238546977
 20
32.61601623300001
 10
126.5250492713
 20
32.6175460344
  0
LWPOLYLINE
  5
1C69
330
218
100
AcDbEntity
  8
0
  6
Continuous
 62
     7
100
AcDbPolyline
 90
        5
 70
     0
 43
0.0
 10
126.7851962123
 20
32.8905261822
 10
126.7878275307
 20
32.8940069489
 10
126.7904461925
 20
32.897519697
 10
126.7930496613
 20
32.9010625941
 10
126.795637335
 20
32.9046365249
  0
LINE
  5
1C6A
330
218
100
AcDbEntity
  8
0
  6
Continuous
 62
     7
100
AcDbLine
 10
126.5274799711
 20
32.6206164658
 30
0.0
 11
126.5299694251
 21
32.62370611050001
 31
0.0
  0
LWPOLYLINE
  5
1C6B
330
218
100
AcDbEntity
  8
0
  6
Continuous
 62
     7
100
AcDbPolyline
 90
        6
 70
     0
 43
0.0
 10
126.769258573
 20
32.8703770749
 10
126.7719216967
 20
32.8736418506
 10
126.7745850504
 20
32.8769454915
 10
126.7772463737
 20
32.8802868772
 10
126.7799034675
 20
32.8836649039
 10
126.7825541258
 20
32.8870783932
  0
LINE
  5
1C6C
330
218
100
AcDbEntity
  8
0
  6
Continuous
 62
     7
100
AcDbLine
 10
126.5299694251
 20
32.62370611050001
 30
0.0
 11
126.532521938
 21
32.6268211352
 31
0.0
  0
LINE
  5
1C6D
330
218
100
AcDbEntity
  8
0
  6
Continuous
 62
     7
100
AcDbLine
 10
126.532521938
 20
32.6268211352
 30
0.0
 11
126.5351420391
 21
32.6299675957
 31
0.0
  0
LWPOLYLINE
  5
1C6E
330
218
100
AcDbEntity
  8
0
  6
Continuous
 62
     7
100
AcDbPolyline
 90
        5
 70
     0
 43
0.0
 10
126.7560261239
 20
32.8546728019
 10
126.758653843
 20
32.85772763780001
 10
126.7612932571
 20
32.86082647900001
 10
126.763942061
 20
32.86396834860001
 10
126.7665979275
 20
32.8671522174
  0
LINE
  5
1C6F
330
218
100
AcDbEntity
  8
0
  6
Continuous
 62
     7
100
AcDbLine
 10
126.5378345362
 20
32.6331515197
 30
0.0
 11
126.5406045134
 21
32.6363789312
 31
0.0
  0
LINE
  5
1C70
330
218
100
AcDbEntity
  8
0
  6
Continuous
 62
     7
100
AcDbLine
 10
126.5406045134
 20
32.6363789312
 30
0.0
 11
126.5434573329
 21
32.6396558757
 31
0.0
  0
LINE
  5
1C71
330
218
100
AcDbEntity
  8
0
  6
Continuous
 62
     7
100
AcDbLine
 10
126.5434573329
 20
32.6396558757
 30
0.0
 11
126.546398535
 21
32.6429883256
 31
0.0
  0
LINE
  5
1C72
330
218
100
AcDbEntity
  8
0
  6
Continuous
 62
     7
100
AcDbLine
 10
126.7456789352
 20
32.8429141853
 30
0.0
 11
126.750815073
 21
32.8486991349
 31
0.0
  0
LINE
  5
1C73
330
218
100
AcDbEntity
  8
0
  6
Continuous
 62
     7
100
AcDbLine
 10
126.740629936
 20
32.8373195378
 30
0.0
 11
126.7456789352
 21
32.8429141853
 31
0.0
  0
LINE
  5
1C74
330
218
100
AcDbEntity
  8
0
  6
Continuous
 62
     7
100
AcDbLine
 10
126.5494350974
 20
32.6463836047
 30
0.0
 11
126.5525773098
 21
32.64985237739999
 31
0.0
  0
LINE
  5
1C75
330
218
100
AcDbEntity
  8
0
  6
Continuous
 62
     7
100
AcDbLine
 10
126.5525773098
 20
32.64985237739999
 30
0.0
 11
126.5558375587
 21
32.653407151
 31
0.0
  0
LINE
  5
1C76
330
218
100
AcDbEntity
  8
0
  6
Continuous
 62
     7
100
AcDbLine
 10
126.5558375587
 20
32.653407151
 30
0.0
 11
126.5592287618
 21
32.657060519
 31
0.0
  0
LINE
  5
1C77
330
218
100
AcDbEntity
  8
0
  6
Continuous
 62
     7
100
AcDbLine
 10
126.7307592895
 20
32.826620506
 30
0.0
 11
126.7332038119
 21
32.8292426752
 31
0.0
  0
LINE
  5
1C8E
330
218
100
AcDbEntity
  8
0
  6
Continuous
 62
     7
100
AcDbLine
 10
95.5460714652
 20
36.9972490703
 30
0.0
 11
131.5460714652
 21
36.9972490703
 31
0.0
  0
LWPOLYLINE
  5
1CAA
330
218
100
AcDbEntity
  8
0
  6
Continuous
 62
     7
100
AcDbPolyline
 90
        4
 70
     0
 43
0.0
 10
120.3523903218
 20
19.0925119344
 10
120.3459021102
 20
19.0737383093
 10
120.3386746214
 20
19.0547300996
 10
120.3315163108
 20
19.0352686742
  0
LINE
  5
1CAB
330
218
100
AcDbEntity
  8
0
  6
Continuous
 62
     7
100
AcDbLine
 10
120.315457448
 20
19.068901096
 30
0.0
 11
120.2591867718
 21
18.9125184237
 31
0.0
  0
LINE
  5
1CAC
330
218
100
AcDbEntity
  8
0
  6
Continuous
 62
     7
100
AcDbLine
 10
119.8586643936
 20
18.7631325219
 30
0.0
 11
119.6770332972
 21
18.2641051859
 31
0.0
  0
LINE
  5
1CAD
330
218
100
AcDbEntity
  8
0
  6
Continuous
 62
     7
100
AcDbLine
 10
120.3238129788
 20
19.0917815917
 30
0.0
 11
120.315457448
 21
19.068901096
 31
0.0
  0
LWPOLYLINE
  5
1CAE
330
218
100
AcDbEntity
  8
0
  6
Continuous
 62
     7
100
AcDbPolyline
 90
        3
 70
     0
 43
0.0
 10
120.3315163108
 20
19.0352686742
 10
120.2928456084
 20
18.9286344179
 10
120.2873473323
 20
18.9132124965
  0
LWPOLYLINE
  5
1CAF
330
218
100
AcDbEntity
  8
0
  6
Continuous
 62
     7
100
AcDbPolyline
 90
       47
 70
     0
 43
0.0
 10
119.7934162369
 20
18.5838647045
 10
119.7962920189
 20
18.5915672652
 10
119.8031459959
 20
18.6085314184
 10
119.8105053947
 20
18.6249898873
 10
119.8183351043
 20
18.6409347025
 10
119.8266004047
 20
18.6563590963
 10
119.8352672757
 20
18.6712580568
 10
119.8443024299
 20
18.6856281999
 10
119.8536736219
 20
18.6994680601
 10
119.8633495612
 20
18.712777708
 10
119.8732994065
 20
18.7255579593
 10
119.8834947732
 20
18.7378127766
 10
119.8939023536
 20
18.7495405289
 10
119.9044906546
 20
18.760742809
 10
119.915228906
 20
18.7714227812
 10
119.9260868666
 20
18.7815848421
 10
119.9370350358
 20
18.7912347177
 10
119.9480449134
 20
18.800379547
 10
119.959087056
 20
18.8090262345
 10
119.9701385493
 20
18.8171870824
 10
119.9811545774
 20
18.8248592591
 10
119.9921047653
 20
18.8320523533
 10
120.0029212141
 20
18.8387541577
 10
120.0135423637
 20
18.8449619686
 10
120.023912222
 20
18.8506804117
 10
120.0339681114
 20
18.8559138516
 10
120.0436669507
 20
18.8606794538
 10
120.0529468306
 20
18.8649867465
 10
120.0618056823
 20
18.8688733143
 10
120.0702236607
 20
18.8723661155
 10
120.078202178
 20
18.8754987461
 10
120.0857392013
 20
18.8783004768
 10
120.0928336307
 20
18.8807984384
 10
120.0994843328
 20
18.8830174836
 10
120.1056945384
 20
18.8849817716
 10
120.1114649648
 20
18.88671260809999
 10
120.1168038143
 20
18.8882316091
 10
120.1217225555
 20
18.8895592097
 10
120.1262068524
 20
18.8907073617
 10
120.1302548173
 20
18.8916904352
 10
120.1338308224
 20
18.8925141099
 10
120.136902872
 20
18.8931853502
 10
120.1394588082
 20
18.8937153441
 10
120.1414774538
 20
18.8941128589
 10
120.1429647595
 20
18.8943912835
 10
120.1439186361
 20
18.8945612674
 10
120.144056859
 20
18.8945851194
  0
LWPOLYLINE
  5
1CB0
330
218
100
AcDbEntity
  8
0
  6
Continuous
 62
     7
100
AcDbPolyline
 90
       27
 70
     0
 43
0.0
 10
119.8586644098
 20
18.7631325666
 10
119.8671420295
 20
18.7848350825
 10
119.8766229582
 20
18.8061185186
 10
119.8870865784
 20
18.8269365912
 10
119.8985101355
 20
18.8472440286
 10
119.9108687874
 20
18.8669966695
 10
119.9241356586
 20
18.8861515591
 10
119.9382818984
 20
18.9046670424
 10
119.9532767439
 20
18.9225028551
 10
119.9690875868
 20
18.9396202107
 10
119.9856800442
 20
18.9559818851
 10
120.0030180337
 20
18.9715522978
 10
120.0210638513
 20
18.9862975887
 10
120.039778254
 20
19.0001856922
 10
120.0591205447
 20
19.0131864067
 10
120.0790486611
 20
19.0252714603
 10
120.0995192667
 20
19.0364145726
 10
120.1204878454
 20
19.0465915113
 10
120.1419087981
 20
19.0557801451
 10
120.1637355422
 20
19.0639604923
 10
120.1859206123
 20
19.0711147635
 10
120.208415764
 20
19.0772274008
 10
120.2311720786
 20
19.0822851114
 10
120.2541400693
 20
19.0862768967
 10
120.2772697891
 20
19.0891940759
 10
120.3005109393
 20
19.0910303053
 10
120.3238129788
 20
19.0917815917
  0
LWPOLYLINE
  5
1CB1
330
218
100
AcDbEntity
  8
0
  6
Continuous
 62
     7
100
AcDbPolyline
 90
        3
 70
     0
 43
0.0
 10
119.793416125
 20
18.583864397
 10
119.8019029609
 20
18.6055889701
 10
119.8031459959
 20
18.6085314184
  0
LWPOLYLINE
  5
1CB2
330
218
100
AcDbEntity
  8
0
  6
Continuous
 62
     7
100
AcDbPolyline
 90
        5
 70
     0
 43
0.0
 10
119.8105053947
 20
18.6249898873
 10
119.8113951459
 20
18.6268935549
 10
119.8218719954
 20
18.6477317265
 10
119.8333106793
 20
18.6680580765
 10
119.8352672757
 20
18.6712580568
  0
LWPOLYLINE
  5
1CB3
330
218
100
AcDbEntity
  8
0
  6
Continuous
 62
     7
100
AcDbPolyline
 90
        5
 70
     0
 43
0.0
 10
126.4883088208
 20
32.5595057719
 10
126.4889813586
 20
32.5609513192
 10
126.4896696302
 20
32.5623997594
 10
126.4903734942
 20
32.56385100900001
 10
126.4910927802
 20
32.5653049477
  0
LWPOLYLINE
  5
1CB4
330
218
100
AcDbEntity
  8
0
  6
Continuous
 62
     7
100
AcDbPolyline
 90
        3
 70
     0
 43
0.0
 10
126.8427935946
 20
32.983731031
 10
126.8448474728
 20
32.9881253028
 10
126.845744451
 20
32.9900849709
  0
LINE
  5
1CB5
330
218
100
AcDbEntity
  8
0
  6
Continuous
 62
     7
100
AcDbLine
 10
126.836866847
 20
32.971697738
 30
0.0
 11
126.845742749
 21
32.9900812281
 31
0.0
  0
LWPOLYLINE
  5
1CB6
330
218
100
AcDbEntity
  8
0
  6
Continuous
 62
     7
100
AcDbPolyline
 90
        3
 70
     0
 43
0.0
 10
126.836418733
 20
32.9708230946
 10
126.8385778742
 20
32.9750805646
 10
126.8407032761
 20
32.9793830014
  0
LWPOLYLINE
  5
1CB7
330
218
100
AcDbEntity
  8
0
  6
Continuous
 62
     7
100
AcDbPolyline
 90
        6
 70
     0
 43
0.0
 10
126.4918272975
 20
32.5667614372
 10
126.4925767323
 20
32.56822010980001
 10
126.4933405731
 20
32.5696802361
 10
126.4941188375
 20
32.5711421121
 10
126.4949113109
 20
32.5726055785
 10
126.4957182387
 20
32.5740713052
  0
LWPOLYLINE
  5
1CB8
330
218
100
AcDbEntity
  8
0
  6
Continuous
 62
     7
100
AcDbPolyline
 90
        6
 70
     0
 43
0.0
 10
126.4973761528
 20
32.57701146920001
 10
126.4982266883
 20
32.5784854062
 10
126.4990914243
 20
32.5799617882
 10
126.4999702207
 20
32.5814405182
 10
126.5008629523
 20
32.58292152260001
 10
126.5017694895
 20
32.5844047186
  0
LWPOLYLINE
  5
1CB9
330
218
100
AcDbEntity
  8
0
  6
Continuous
 62
     7
100
AcDbPolyline
 90
        7
 70
     0
 43
0.0
 10
126.8228250271
 20
32.946184945
 10
126.8251608396
 20
32.9501868481
 10
126.8274700958
 20
32.9542296065
 10
126.8297516661
 20
32.9583139058
 10
126.8320044114
 20
32.9624404545
 10
126.8342271611
 20
32.9666099456
 10
126.836418733
 20
32.9708230946
  0
LWPOLYLINE
  5
1CBA
330
218
100
AcDbEntity
  8
0
  6
Continuous
 62
     7
100
AcDbPolyline
 90
        7
 70
     0
 43
0.0
 10
126.5026897191
 20
32.5858900479
 10
126.5036235231
 20
32.58737744280001
 10
126.5045708016
 20
32.5888668612
 10
126.5055314499
 20
32.5903582511
 10
126.5065053829
 20
32.5918515873
 10
126.5074925106
 20
32.5933468344
 10
126.5084927641
 20
32.594843985
  0
LWPOLYLINE
  5
1CBB
330
218
100
AcDbEntity
  8
0
  6
Continuous
 62
     7
100
AcDbPolyline
 90
        5
 70
     0
 43
0.0
 10
126.8107824063
 20
32.9267620371
 10
126.8132365661
 20
32.9305711308
 10
126.8156687048
 20
32.9344171283
 10
126.8180780387
 20
32.9383008732
 10
126.8204637569
 20
32.9422231972
  0
LWPOLYLINE
  5
1CBC
330
218
100
AcDbEntity
  8
0
  6
Continuous
 62
     7
100
AcDbPolyline
 90
        3
 70
     0
 43
0.0
 10
126.476362542
 20
32.5225078902
 10
126.476576935
 20
32.5236566024
 10
126.4768083188
 20
32.524841032
  0
LWPOLYLINE
  5
1CBF
330
218
100
AcDbEntity
  8
0
  6
Continuous
 62
     7
100
AcDbPolyline
 90
        4
 70
     0
 43
0.0
 10
126.4768083188
 20
32.524841032
 10
126.4770582291
 20
32.5260636765
 10
126.4773269468
 20
32.5273207048
 10
126.4776147832
 20
32.5286089168
  0
LWPOLYLINE
  5
1CC0
330
218
100
AcDbEntity
  8
0
  6
Continuous
 62
     7
100
AcDbPolyline
 90
       18
 70
     0
 43
0.0
 10
126.476990491
 20
32.5257381519
 10
126.4785425858
 20
32.5324286563
 10
126.4805056125
 20
32.53933522460001
 10
126.4829455377
 20
32.5465441296
 10
126.4859364393
 20
32.5541320152
 10
126.4895707803
 20
32.56219608550001
 10
126.4939607158
 20
32.5708498583
 10
126.4992061651
 20
32.5801589661
 10
126.5054204309
 20
32.5901898591
 10
126.5126783891
 20
32.6009322604
 10
126.5210624275
 20
32.6123865609
 10
126.5306623006
 20
32.6245599421
 10
126.541534744
 20
32.63745564510001
 10
126.5537018943
 20
32.6510865314
 10
126.5671535596
 20
32.6654440125
 10
126.58193131
 20
32.6805854479
 10
126.5981170112
 20
32.696628041
 10
126.6155067798
 20
32.7134646175
  0
LWPOLYLINE
  5
1CC3
330
218
100
AcDbEntity
  8
0
  6
Continuous
 62
     7
100
AcDbPolyline
 90
        5
 70
     0
 43
0.0
 10
126.4779219763
 20
32.5299252316
 10
126.4782484243
 20
32.5312656302
 10
126.4785939852
 20
32.532626538
 10
126.4789581667
 20
32.5340036229
 10
126.4793403476
 20
32.535392756
  0
LWPOLYLINE
  5
1CC4
330
218
100
AcDbEntity
  8
0
  6
Continuous
 62
     7
100
AcDbPolyline
 90
        5
 70
     0
 43
0.0
 10
126.4797396996
 20
32.5367897269
 10
126.4801546762
 20
32.5381885811
 10
126.4805856273
 20
32.5395902849
 10
126.4810321774
 20
32.5409934716
 10
126.4814946695
 20
32.54239913510001
  0
LWPOLYLINE
  5
1CC5
330
218
100
AcDbEntity
  8
0
  6
Continuous
 62
     7
100
AcDbPolyline
 90
        5
 70
     0
 43
0.0
 10
126.4819733329
 20
32.5438078499
 10
126.4824681669
 20
32.5452195088
 10
126.4829792173
 20
32.5466341754
 10
126.4835065121
 20
32.5480518899
 10
126.4840500718
 20
32.54947269840001
  0
LWPOLYLINE
  5
1CC6
330
218
100
AcDbEntity
  8
0
  6
Continuous
 62
     7
100
AcDbPolyline
 90
        6
 70
     0
 43
0.0
 10
126.4846098973
 20
32.5508966208
 10
126.4851859815
 20
32.5523236827
 10
126.4857782959
 20
32.5537538813
 10
126.4863868035
 20
32.55518721900001
 10
126.4870114439
 20
32.5566236677
 10
126.4876521478
 20
32.558063204
  0
LWPOLYLINE
  5
1CC7
330
218
100
AcDbEntity
  8
0
  6
Continuous
 62
     7
100
AcDbPolyline
 90
        8
 70
     0
 43
0.0
 10
126.845744451
 20
32.9900849709
 10
126.8536759642
 20
33.0086757149
 10
126.8604968087
 20
33.0270366381
 10
126.8663105599
 20
33.0453360308
 10
126.8711519528
 20
33.0636190704
 10
126.8750448868
 20
33.081893285
 10
126.8780201682
 20
33.10021954510001
 10
126.8800726943
 20
33.1184896419
  0
LWPOLYLINE
  5
1CC8
330
218
100
AcDbEntity
  8
0
  6
Continuous
 62
     7
100
AcDbPolyline
 90
       23
 70
     0
 43
0.0
 10
119.8443024299
 20
18.6856281999
 10
119.8456862716
 20
18.6878283117
 10
119.8589718046
 20
18.7069993508
 10
119.8731383277
 20
18.725529418
 10
119.8881549708
 20
18.7433781346
 10
119.903989011
 20
18.7605066063
 10
119.9206059444
 20
18.7768775085
 10
119.9379695609
 20
18.7924551674
 10
119.9560420235
 20
18.8072056376
 10
119.9747839504
 20
18.8210967763
 10
119.9941545011
 20
18.8340983134
 10
120.0141114653
 20
18.8461819173
 10
120.0346113546
 20
18.8573212564
 10
120.0556094978
 20
18.8674920571
 10
120.0770601377
 20
18.8766721562
 10
120.0989165312
 20
18.8848415493
 10
120.1211310511
 20
18.8919824344
 10
120.1436552896
 20
18.8980792509
 10
120.1664401642
 20
18.90311871319999
 10
120.1894360243
 20
18.9070898397
 10
120.2125927597
 20
18.909983977
 10
120.2358599093
 20
18.9117948185
 10
120.2591867718
 20
18.9125184181
  0
LWPOLYLINE
  5
1CC9
330
218
100
AcDbEntity
  8
0
  6
Continuous
 62
     7
100
AcDbPolyline
 90
       18
 70
     0
 43
0.0
 10
120.2873473323
 20
18.9132124965
 10
120.2864312511
 20
18.9118376061
 10
120.2845560447
 20
18.9104562654
 10
120.281742908
 20
18.9090670371
 10
120.277994302
 20
18.9076719938
 10
120.2733172249
 20
18.9062722995
 10
120.2677185153
 20
18.9048690962
 10
120.261204818
 20
18.9034635055
 10
120.2537825504
 20
18.9020566305
 10
120.2454578692
 20
18.90064955799999
 10
120.2362366379
 20
18.8992433607
 10
120.2261243939
 20
18.8978390983
 10
120.2151263145
 20
18.8964378205
 10
120.2032471812
 20
18.8950405679
 10
120.1904913562
 20
18.8936483746
 10
120.1768618663
 20
18.8922622736
 10
120.162364707
 20
18.890883278
 10
120.1470022809
 20
18.8895124151
  0
LWPOLYLINE
  5
1CCA
330
218
100
AcDbEntity
  8
0
  6
Continuous
 62
     7
100
AcDbPolyline
 90
       12
 70
     0
 43
0.0
 10
120.2591867718
 20
18.9125184237
 10
120.2580068327
 20
18.9109120358
 10
120.2553128962
 20
18.909263643
 10
120.2511882504
 20
18.9075682506
 10
120.2455275183
 20
18.9058360265
 10
120.2382605508
 20
18.9040729075
 10
120.2293757789
 20
18.9022857253
 10
120.218831012
 20
18.9004807608
 10
120.2066486415
 20
18.8986650181
 10
120.1928141356
 20
18.8968451981
 10
120.1773852659
 20
18.8950283195
 10
120.1603995287
 20
18.89322331
  0
LWPOLYLINE
  5
1CCB
330
218
100
AcDbEntity
  8
0
  6
Continuous
 62
     7
100
AcDbPolyline
 90
       40
 70
     0
 43
0.0
 10
97.7454467036
 20
39.4971174024
 10
97.6929836458
 20
39.4959164638
 10
97.6097707255
 20
39.4914196197
 10
97.52677218469999
 20
39.4837543018
 10
97.444071686
 20
39.472928214
 10
97.3618332496
 20
39.4589585142
 10
97.2802199414
 20
39.4418689691
 10
97.19931414180001
 20
39.42167558
 10
97.11919666420001
 20
39.3984019843
 10
97.04002561420001
 20
39.3720947943
 10
96.96195712780001
 20
39.3428069346
 10
96.8850709848
 20
39.3105653366
 10
96.80945094280001
 20
39.27540429949999
 10
96.7352259909
 20
39.2373890163
 10
96.66251760639999
 20
39.19658490070001
 10
96.5914232819
 20
39.1530450467
 10
96.52205142900001
 20
39.1068301099
 10
96.45448135870001
 20
39.0579962141
 10
96.38878032930001
 20
39.0065938975
 10
96.3250798107
 20
38.952722674
 10
96.263507116
 20
38.8964872032
 10
96.20412624450001
 20
38.8379420196
 10
96.1469950048
 20
38.7771481785
 10
96.09222458379999
 20
38.714227348
 10
96.03992124080001
 20
38.6493056103
 10
95.990138981
 20
38.5824475075
 10
95.9429380141
 20
38.5137293245
 10
95.8983845834
 20
38.4432561479
 10
95.85653682410001
 20
38.3711225826
 10
95.81746637850001
 20
38.29744645050001
 10
95.7812450792
 20
38.2223531005
 10
95.74791155700001
 20
38.1459243628
 10
95.7174968634
 20
38.0682384432
 10
95.6900620775
 20
37.9894486254
 10
95.66566205299999
 20
37.9097104687
 10
95.64432462239999
 20
37.8291034651
 10
95.62607007450001
 20
37.7477090343
 10
95.6109306527
 20
37.665688651
 10
95.59893099319999
 20
37.5831966645
 10
95.59008634399999
 20
37.500341437
  0
LINE
  5
1CCC
330
218
100
AcDbEntity
  8
0
  6
Continuous
 62
     7
100
AcDbLine
 10
97.7827346716
 20
39.4974008286
 30
0.0
 11
97.7454467036
 21
39.4971174024
 31
0.0
  0
LINE
  5
1CCD
330
218
100
AcDbEntity
  8
0
  6
Continuous
 62
     7
100
AcDbLine
 10
121.8985738131
 20
39.4935395867
 30
0.0
 11
121.6609372165
 21
39.49326608150001
 31
0.0
  0
LINE
  5
1CCE
330
218
100
AcDbEntity
  8
0
  6
Continuous
 62
     7
100
AcDbLine
 10
108.7849675372
 20
39.4933946297
 30
0.0
 11
108.5015174117
 21
39.4931256497
 31
0.0
  0
LINE
  5
1CCF
330
218
100
AcDbEntity
  8
0
  6
Continuous
 62
     7
100
AcDbLine
 10
121.6609372165
 20
39.49326608150001
 30
0.0
 11
120.9355491733
 21
39.49264304840001
 31
0.0
  0
LINE
  5
1CD0
330
218
100
AcDbEntity
  8
0
  6
Continuous
 62
     7
100
AcDbLine
 10
97.98270167860001
 20
39.4978450491
 30
0.0
 11
97.7827346716
 21
39.4974008286
 31
0.0
  0
LINE
  5
1CD1
330
218
100
AcDbEntity
  8
0
  6
Continuous
 62
     7
100
AcDbLine
 10
124.8432455618
 20
39.4972060418
 30
0.0
 11
121.8985738131
 21
39.4935395867
 31
0.0
  0
LINE
  5
1CD2
330
218
100
AcDbEntity
  8
0
  6
Continuous
 62
     7
100
AcDbLine
 10
108.2237276944
 20
39.49289528619999
 30
0.0
 11
107.4199665428
 21
39.4924555952
 31
0.0
  0
LINE
  5
1CD3
330
218
100
AcDbEntity
  8
0
  6
Continuous
 62
     7
100
AcDbLine
 10
112.7682950778
 20
39.4971096435
 30
0.0
 11
108.2237276944
 21
39.49289528619999
 31
0.0
  0
LINE
  5
1CD4
330
218
100
AcDbEntity
  8
0
  6
Continuous
 62
     7
100
AcDbLine
 10
100.6806806451
 20
39.4973169055
 30
0.0
 11
99.2761553436
 21
39.4964220595
 31
0.0
  0
LINE
  5
1CD5
330
218
100
AcDbEntity
  8
0
  6
Continuous
 62
     7
100
AcDbLine
 10
120.9355491733
 20
39.49264304840001
 30
0.0
 11
120.1873211036
 21
39.4923868167
 31
0.0
  0
LINE
  5
1CD6
330
218
100
AcDbEntity
  8
0
  6
Continuous
 62
     7
100
AcDbLine
 10
125.6590982945
 20
39.4974690699
 30
0.0
 11
124.8432455618
 21
39.4972060418
 31
0.0
  0
LINE
  5
1CD7
330
218
100
AcDbEntity
  8
0
  6
Continuous
 62
     7
100
AcDbLine
 10
107.4199665428
 20
39.4924555952
 30
0.0
 11
106.6524544665
 21
39.492425745
 31
0.0
  0
LINE
  5
1CD8
330
218
100
AcDbEntity
  8
0
  6
Continuous
 62
     7
100
AcDbLine
 10
120.1873211036
 20
39.4923868167
 30
0.0
 11
119.6721763876
 21
39.4924555952
 31
0.0
  0
LINE
  5
1CD9
330
218
100
AcDbEntity
  8
0
  6
Continuous
 62
     7
100
AcDbLine
 10
114.3238478527
 20
39.4971096435
 30
0.0
 11
112.7682950778
 21
39.4971096435
 31
0.0
  0
LINE
  5
1CDA
330
218
100
AcDbEntity
  8
0
  6
Continuous
 62
     7
100
AcDbLine
 10
126.2298301428
 20
39.4973815793
 30
0.0
 11
125.6590982945
 21
39.4974690699
 31
0.0
  0
LINE
  5
1CDB
330
218
100
AcDbEntity
  8
0
  6
Continuous
 62
     7
100
AcDbLine
 10
102.0394098005
 20
39.4973162527
 30
0.0
 11
100.6806806451
 21
39.4973169055
 31
0.0
  0
LINE
  5
1CDC
330
218
100
AcDbEntity
  8
0
  6
Continuous
 62
     7
100
AcDbLine
 10
126.5884309329
 20
39.4972403485
 30
0.0
 11
126.2298301428
 21
39.4973815793
 31
0.0
  0
LINE
  5
1CDD
330
218
100
AcDbEntity
  8
0
  6
Continuous
 62
     7
100
AcDbLine
 10
106.6524544665
 20
39.492425745
 30
0.0
 11
105.9125558144
 21
39.49281441650001
 31
0.0
  0
LINE
  5
1CDE
330
218
100
AcDbEntity
  8
0
  6
Continuous
 62
     7
100
AcDbLine
 10
119.6721763876
 20
39.4924555952
 30
0.0
 11
118.868415236
 21
39.49289528619999
 31
0.0
  0
LINE
  5
1CDF
330
218
100
AcDbEntity
  8
0
  6
Continuous
 62
     7
100
AcDbLine
 10
126.9276304135
 20
39.4970580074
 30
0.0
 11
126.5884309329
 21
39.4972403485
 31
0.0
  0
LINE
  5
1CE0
330
218
100
AcDbEntity
  8
0
  6
Continuous
 62
     7
100
AcDbLine
 10
99.2761553436
 20
39.4964220595
 30
0.0
 11
98.91237057799999
 21
39.4965584647
 31
0.0
  0
LWPOLYLINE
  5
1CE1
330
218
100
AcDbEntity
  8
0
  6
Continuous
 62
     7
100
AcDbPolyline
 90
        3
 70
     0
 43
0.0
 10
127.9432438383
 20
39.4964123248
 10
127.5429376077
 20
39.4966280719
 10
126.9276304135
 20
39.4970580074
  0
LINE
  5
1CE2
330
218
100
AcDbEntity
  8
0
  6
Continuous
 62
     7
100
AcDbLine
 10
116.4646489217
 20
39.4954648871
 30
0.0
 11
114.3238478527
 21
39.4971096435
 31
0.0
  0
LINE
  5
1CE3
330
218
100
AcDbEntity
  8
0
  6
Continuous
 62
     7
100
AcDbLine
 10
103.1203655183
 20
39.4964269929
 30
0.0
 11
102.0394098005
 21
39.4973162527
 31
0.0
  0
LINE
  5
1CE4
330
218
100
AcDbEntity
  8
0
  6
Continuous
 62
     7
100
AcDbLine
 10
118.868415236
 20
39.49289528619999
 30
0.0
 11
116.4646489217
 21
39.4954648871
 31
0.0
  0
LINE
  5
1CE5
330
218
100
AcDbEntity
  8
0
  6
Continuous
 62
     7
100
AcDbLine
 10
105.9125558144
 20
39.49281441650001
 30
0.0
 11
104.9577301639
 21
39.4938388822
 31
0.0
  0
LINE
  5
1CE6
330
218
100
AcDbEntity
  8
0
  6
Continuous
 62
     7
100
AcDbLine
 10
104.9577301639
 20
39.4938388822
 30
0.0
 11
103.1203655183
 21
39.4964269929
 31
0.0
  0
LINE
  5
1CE7
330
218
100
AcDbEntity
  8
0
  6
Continuous
 62
     7
100
AcDbLine
 10
98.91237057799999
 20
39.4965584647
 30
0.0
 11
97.98270167860001
 21
39.4978450491
 31
0.0
  0
LINE
  5
1CE8
330
218
100
AcDbEntity
  8
0
  6
Continuous
 62
     7
100
AcDbLine
 10
129.2599915169
 20
39.4976114031
 30
0.0
 11
127.9432438383
 21
39.4964123248
 31
0.0
  0
LWPOLYLINE
  5
1CE9
330
218
100
AcDbEntity
  8
0
  6
Continuous
 62
     7
100
AcDbPolyline
 90
        3
 70
     0
 43
0.0
 10
129.3466962268
 20
39.4971174024
 10
129.3395251567
 20
39.497187698
 10
129.2599915169
 20
39.4976114031
  0
LWPOLYLINE
  5
1CEA
330
218
100
AcDbEntity
  8
0
  6
Continuous
 62
     7
100
AcDbPolyline
 90
       40
 70
     0
 43
0.0
 10
129.3466962268
 20
39.4971174024
 10
129.3991592846
 20
39.4959164638
 10
129.4823722049
 20
39.4914196197
 10
129.5653707457
 20
39.4837543018
 10
129.6480712444
 20
39.472928214
 10
129.7303096808
 20
39.4589585142
 10
129.811922989
 20
39.4418689691
 10
129.8928287886
 20
39.42167558
 10
129.9729462663
 20
39.3984019843
 10
130.0521173162
 20
39.3720947943
 10
130.1301858026
 20
39.3428069346
 10
130.2070719457
 20
39.3105653366
 10
130.2826919876
 20
39.27540429949999
 10
130.3569169395
 20
39.2373890163
 10
130.429625324
 20
39.19658490070001
 10
130.5007196485
 20
39.1530450467
 10
130.5700915014
 20
39.1068301099
 10
130.6376615717
 20
39.0579962141
 10
130.7033626011
 20
39.0065938975
 10
130.7670631197
 20
38.952722674
 10
130.8286358144
 20
38.8964872032
 10
130.8880166859
 20
38.8379420196
 10
130.9451479256
 20
38.7771481785
 10
130.9999183466
 20
38.714227348
 10
131.0522216896
 20
38.6493056103
 10
131.1020039494
 20
38.5824475075
 10
131.1492049163
 20
38.5137293245
 10
131.193758347
 20
38.4432561479
 10
131.2356061063
 20
38.3711225826
 10
131.2746765519
 20
38.29744645050001
 10
131.3108978512
 20
38.2223531005
 10
131.3442313734
 20
38.1459243628
 10
131.374646067
 20
38.0682384432
 10
131.4020808529
 20
37.9894486254
 10
131.4264808774
 20
37.9097104687
 10
131.447818308
 20
37.8291034651
 10
131.4660728559
 20
37.7477090343
 10
131.4812122777
 20
37.665688651
 10
131.4932119373
 20
37.5831966645
 10
131.5020565864
 20
37.500341437
  0
LINE
  5
1CEB
330
218
100
AcDbEntity
  8
0
  6
Continuous
 62
     7
100
AcDbLine
 10
126.8800725323
 20
33.1184883286
 30
0.0
 11
126.9324477322
 21
33.8678694546
 31
0.0
  0
LINE
  5
1CEC
330
218
100
AcDbEntity
  8
0
  6
Continuous
 62
     7
100
AcDbLine
 10
126.9324477322
 20
33.8678694546
 30
0.0
 11
126.9517176287
 21
34.1340909253
 31
0.0
  0
LINE
  5
1CED
330
218
100
AcDbEntity
  8
0
  6
Continuous
 62
     7
100
AcDbLine
 10
126.9378806193
 20
33.803558143
 30
0.0
 11
126.9610545836
 21
34.1246917773
 31
0.0
  0
LINE
  5
1CEE
330
218
100
AcDbEntity
  8
0
  6
Continuous
 62
     7
100
AcDbLine
 10
126.9517176287
 20
34.1340909253
 30
0.0
 11
126.9689293887
 21
34.36593273510001
 31
0.0
  0
LINE
  5
1CEF
330
218
100
AcDbEntity
  8
0
  6
Continuous
 62
     7
100
AcDbLine
 10
126.9610545836
 20
34.1246917773
 30
0.0
 11
126.9798344101
 21
34.3775364742
 31
0.0
  0
LINE
  5
1CF0
330
218
100
AcDbEntity
  8
0
  6
Continuous
 62
     7
100
AcDbLine
 10
126.9689293887
 20
34.36593273510001
 30
0.0
 11
126.9873163613
 21
34.6072439088
 31
0.0
  0
LINE
  5
1CF1
330
218
100
AcDbEntity
  8
0
  6
Continuous
 62
     7
100
AcDbLine
 10
126.9798344101
 20
34.3775364742
 30
0.0
 11
126.9986069564
 21
34.6234529014
 31
0.0
  0
LINE
  5
1CF2
330
218
100
AcDbEntity
  8
0
  6
Continuous
 62
     7
100
AcDbLine
 10
126.9986069564
 20
34.6234529014
 30
0.0
 11
127.0151354707
 21
34.8343543352
 31
0.0
  0
LINE
  5
1CF3
330
218
100
AcDbEntity
  8
0
  6
Continuous
 62
     7
100
AcDbLine
 10
126.9873163613
 20
34.6072439088
 30
0.0
 11
127.0069278262
 21
34.8574838274
 31
0.0
  0
LINE
  5
1CF4
330
218
100
AcDbEntity
  8
0
  6
Continuous
 62
     7
100
AcDbLine
 10
127.0069278262
 20
34.8574838274
 30
0.0
 11
127.1012186159
 21
36.039513732
 31
0.0
  0
LINE
  5
1CF5
330
218
100
AcDbEntity
  8
0
  6
Continuous
 62
     7
100
AcDbLine
 10
127.0151354707
 20
34.8343543352
 30
0.0
 11
127.0324654827
 21
35.0499461719
 31
0.0
  0
LINE
  5
1CF6
330
218
100
AcDbEntity
  8
0
  6
Continuous
 62
     7
100
AcDbLine
 10
127.1012186159
 20
36.039513732
 30
0.0
 11
127.1260897955
 21
36.3437430987
 31
0.0
  0
LINE
  5
1CF7
330
218
100
AcDbEntity
  8
0
  6
Continuous
 62
     7
100
AcDbLine
 10
127.0324654827
 20
35.0499461719
 30
0.0
 11
127.0500978371
 21
35.2636299697
 31
0.0
  0
LINE
  5
1CF8
330
218
100
AcDbEntity
  8
0
  6
Continuous
 62
     7
100
AcDbLine
 10
127.1260897955
 20
36.3437430987
 30
0.0
 11
127.1455313217
 21
36.5763444097
 31
0.0
  0
LINE
  5
1CF9
330
218
100
AcDbEntity
  8
0
  6
Continuous
 62
     7
100
AcDbLine
 10
127.1306488242
 20
36.1707652246
 30
0.0
 11
127.1521676074
 21
36.4269012597
 31
0.0
  0
LINE
  5
1CFA
330
218
100
AcDbEntity
  8
0
  6
Continuous
 62
     7
100
AcDbLine
 10
127.0500978371
 20
35.2636299697
 30
0.0
 11
127.06744707
 21
35.4684510684
 31
0.0
  0
LINE
  5
1CFB
330
218
100
AcDbEntity
  8
0
  6
Continuous
 62
     7
100
AcDbLine
 10
127.1455313217
 20
36.5763444097
 30
0.0
 11
127.1584163782
 21
36.7266717766
 31
0.0
  0
LINE
  5
1CFC
330
218
100
AcDbEntity
  8
0
  6
Continuous
 62
     7
100
AcDbLine
 10
127.1521676074
 20
36.4269012597
 30
0.0
 11
127.1706123715
 21
36.641431315
 31
0.0
  0
LWPOLYLINE
  5
1CFD
330
218
100
AcDbEntity
  8
0
  6
Continuous
 62
     7
100
AcDbPolyline
 90
        4
 70
     0
 43
0.0
 10
126.8800726941
 20
33.11848964030001
 10
126.8926931674
 20
33.2643097228
 10
126.9065567513
 20
33.4274284789
 10
126.9378806193
 20
33.8035581436
  0
LINE
  5
1CFE
330
218
100
AcDbEntity
  8
0
  6
Continuous
 62
     7
100
AcDbLine
 10
127.06744707
 20
35.4684510684
 30
0.0
 11
127.0838452898
 21
35.6572132327
 31
0.0
  0
LINE
  5
1CFF
330
218
100
AcDbEntity
  8
0
  6
Continuous
 62
     7
100
AcDbLine
 10
127.1584163782
 20
36.7266717766
 30
0.0
 11
127.1702562821
 21
36.8605792253
 31
0.0
  0
LWPOLYLINE
  5
1D00
330
218
100
AcDbEntity
  8
0
  6
Continuous
 62
     7
100
AcDbPolyline
 90
        3
 70
     0
 43
0.0
 10
127.1706123715
 20
36.641431315
 10
127.1863975364
 20
36.8192644993
 10
127.1942371603
 20
36.90473792560001
  0
LINE
  5
1D01
330
218
100
AcDbEntity
  8
0
  6
Continuous
 62
     7
100
AcDbLine
 10
127.0838452898
 20
35.6572132327
 30
0.0
 11
127.1020544194
 21
35.8614258577
 31
0.0
  0
LINE
  5
1D02
330
218
100
AcDbEntity
  8
0
  6
Continuous
 62
     7
100
AcDbLine
 10
127.1020544194
 20
35.8614258577
 30
0.0
 11
127.1187845215
 21
36.0441003845
 31
0.0
  0
LINE
  5
1D03
330
218
100
AcDbEntity
  8
0
  6
Continuous
 62
     7
100
AcDbLine
 10
127.1187845215
 20
36.0441003845
 30
0.0
 11
127.1306488242
 21
36.1707652246
 31
0.0
  0
LINE
  5
1D04
330
218
100
AcDbEntity
  8
0
  6
Continuous
 62
     7
100
AcDbLine
 10
127.1702562821
 20
36.8605792253
 30
0.0
 11
127.1828804046
 21
36.9972490703
 31
0.0
  0
LINE
  5
1D05
330
218
100
AcDbEntity
  8
0
  6
Continuous
 62
     7
100
AcDbLine
 10
127.1942371603
 20
36.90473792560001
 30
0.0
 11
127.2030172836
 21
36.9972490703
 31
0.0
  0
LINE
  5
1D06
330
218
100
AcDbEntity
  8
0
  6
Continuous
 62
     7
100
AcDbLine
 10
126.4759248423
 20
32.5201877937
 30
0.0
 11
126.4758069718
 21
32.5192462298
 31
0.0
  0
LINE
  5
1D07
330
218
100
AcDbEntity
  8
0
  6
Continuous
 62
     7
100
AcDbLine
 10
126.5158444878
 20
32.8207186447
 30
0.0
 11
126.4759248423
 21
32.5201877937
 31
0.0
  0
LINE
  5
1D08
330
218
100
AcDbEntity
  8
0
  6
Continuous
 62
     7
100
AcDbLine
 10
126.564055766
 20
33.17306054300001
 30
0.0
 11
126.5158444878
 21
32.8207186447
 31
0.0
  0
LINE
  5
1D0A
330
218
100
AcDbEntity
  8
0
  6
Continuous
 62
     7
100
AcDbLine
 10
126.6168983193
 20
33.5473897969
 30
0.0
 11
126.564055766
 21
33.17306054300001
 31
0.0
  0
LINE
  5
1D0C
330
218
100
AcDbEntity
  8
0
  6
Continuous
 62
     7
100
AcDbLine
 10
126.6785979963
 20
33.9705924425
 30
0.0
 11
126.6168983193
 21
33.5473897969
 31
0.0
  0
LINE
  5
1D0F
330
218
100
AcDbEntity
  8
0
  6
Continuous
 62
     7
100
AcDbLine
 10
126.743459459
 20
34.4012342772
 30
0.0
 11
126.6785979963
 21
33.9705924425
 31
0.0
  0
LINE
  5
1D12
330
218
100
AcDbEntity
  8
0
  6
Continuous
 62
     7
100
AcDbLine
 10
127.1503221967
 20
36.9972490703
 30
0.0
 11
126.743459459
 21
34.4012342772
 31
0.0
  0
LWPOLYLINE
  5
1D14
330
218
100
AcDbEntity
  8
0
  6
Continuous
 62
     7
100
AcDbPolyline
 90
        4
 70
     0
 43
0.0
 10
124.6699950158
 20
21.1177982572
 10
126.4758435521
 20
32.5194759756
 10
126.4759937743
 20
32.5203952524
 10
126.4761680695
 20
32.5214173312
  0
LINE
  5
1D1D
330
218
100
AcDbEntity
  8
0
  6
Continuous
 62
     7
100
AcDbLine
 10
126.4758069718
 20
32.5192462298
 30
0.0
 11
126.4769805864
 21
32.52568382270001
 31
0.0
  0
LINE
  5
1D1E
330
218
100
AcDbEntity
  8
0
  6
Continuous
 62
     7
100
AcDbLine
 10
121.5826831176
 20
18.4820840274
 30
0.0
 11
121.9470930996
 21
18.8464940094
 31
0.0
  0
LINE
  5
1D1F
330
218
100
AcDbEntity
  8
0
  6
Continuous
 62
     7
100
AcDbLine
 10
131.5020565864
 20
37.500341437
 30
0.0
 11
131.5460714652
 21
36.9972490703
 31
0.0
  0
ARC
  5
1DE3
330
218
100
AcDbEntity
  8
0
  6
Continuous
 62
     7
100
AcDbCircle
 10
108.2960714652
 20
18.5847490703
 30
0.0
 40
0.9375
100
AcDbArc
 50
200.0
 51
325.0
  0
ARC
  5
1DE4
330
218
100
AcDbEntity
  8
0
  6
Continuous
 62
     7
100
AcDbCircle
 10
110.0453133266
 20
18.5767205792
 30
0.0
 40
0.5
100
AcDbArc
 50
87.67377085680001
 51
145.0000000044
  0
ARC
  5
1DE5
330
218
100
AcDbEntity
  8
0
  6
Continuous
 62
     7
100
AcDbCircle
 10
106.7200728837
 20
18.7118007608
 30
0.0
 40
0.5
100
AcDbArc
 50
19.999999962
 51
24.490892273
  0
ARC
  5
1DE6
330
218
100
AcDbEntity
  8
0
  6
Continuous
 62
     7
100
AcDbCircle
 10
106.7200728837
 20
18.7118007608
 30
0.0
 40
0.5
100
AcDbArc
 50
24.5174196631
 51
87.67377084000001
  0
ARC
  5
1DE7
330
218
100
AcDbEntity
  8
0
  6
Continuous
 62
     7
100
AcDbCircle
 10
112.533279657
 20
18.7258589073
 30
0.0
 40
0.25
100
AcDbArc
 50
26.8349354733
 51
87.67377083540001
  0
ARC
  5
1DE8
330
218
100
AcDbEntity
  8
0
  6
Continuous
 62
     7
100
AcDbCircle
 10
104.9342776529
 20
22.0370250234
 30
0.0
 40
2.625
100
AcDbArc
 50
189.0000000002
 51
267.6737708556
  0
ARC
  5
1DE9
330
218
100
AcDbEntity
  8
0
  6
Continuous
 62
     7
100
AcDbCircle
 10
114.5138303544
 20
18.6454036282
 30
0.0
 40
0.25
100
AcDbArc
 50
87.67377084610002
 51
148.3611798266
  0
ARC
  5
1DEA
330
218
100
AcDbEntity
  8
0
  6
Continuous
 62
     7
100
AcDbCircle
 10
113.5148214652
 20
19.222422779
 30
0.0
 40
0.85
100
AcDbArc
 50
191.7726172769
 51
270.0
  0
ARC
  5
1DEB
330
218
100
AcDbEntity
  8
0
  6
Continuous
 62
     7
100
AcDbCircle
 10
113.5773214652
 20
19.222422779
 30
0.0
 40
0.85
100
AcDbArc
 50
270.0
 51
347.5705242422
  0
ARC
  5
1DEC
330
218
100
AcDbEntity
  8
0
  6
Continuous
 62
     7
100
AcDbCircle
 10
118.7960714652
 20
18.5847490703
 30
0.0
 40
0.9375
100
AcDbArc
 50
215.0
 51
340.0
  0
ARC
  5
1DED
330
218
100
AcDbEntity
  8
0
  6
Continuous
 62
     7
100
AcDbCircle
 10
121.3175180746
 20
18.7472490703
 30
0.0
 40
0.375
100
AcDbArc
 50
270.0
 51
315.0
  0
ARC
  5
1DEE
330
218
100
AcDbEntity
  8
0
  6
Continuous
 62
     7
100
AcDbCircle
 10
122.0354814327
 20
18.7581056603
 30
0.0
 40
0.1249999993
100
AcDbArc
 50
96.1343737085
 51
134.9999974131
  0
ARC
  5
1DEF
330
218
100
AcDbEntity
  8
0
  6
Continuous
 62
     7
100
AcDbCircle
 10
122.0773131204
 20
21.5284387226
 30
0.0
 40
2.6249999906
100
AcDbArc
 50
276.1343770969
 51
351.0000001271
  0
ENDSEC
  0
SECTION
  2
OBJECTS
  0
DICTIONARY
  5
C
330
0
100
AcDbDictionary
281
     1
  3
ACAD_COLOR
350
1E26
  3
ACAD_GROUP
350
D
  3
ACAD_LAYOUT
350
1A
  3
ACAD_MATERIAL
350
1DF9
  3
ACAD_MLEADERSTYLE
350
1E4B
  3
ACAD_MLINESTYLE
350
17
  3
ACAD_PLOTSETTINGS
350
19
  3
ACAD_PLOTSTYLENAME
350
E
  3
ACAD_SCALELIST
350
1E29
  3
ACAD_TABLESTYLE
350
1E27
  3
ACAD_VISUALSTYLE
350
1E12
  3
ACDB_RECOMPOSE_DATA
350
1E51
  3
AcDbVariableDictionary
350
1E83
  3
DWGPROPS
350
1EF2
  0
DICTIONARY
  5
1E52
330
8
100
AcDbDictionary
280
     1
281
     1
  0
DICTIONARY
  5
1EA3
330
10
100
AcDbDictionary
280
     1
281
     1
  3
ADSK_XREC_LAYER_RECONCILED
360
1EA4
  0
DICTIONARY
  5
1EA5
330
1FA
100
AcDbDictionary
280
     1
281
     1
  3
ADSK_XREC_LAYER_RECONCILED
360
1EA6
  0
DICTIONARY
  5
1EA7
330
1FB
100
AcDbDictionary
280
     1
281
     1
  3
ADSK_XREC_LAYER_RECONCILED
360
1EA8
  0
DICTIONARY
  5
1EA9
330
1FC
100
AcDbDictionary
280
     1
281
     1
  3
ADSK_XREC_LAYER_RECONCILED
360
1EAA
  0
DICTIONARY
  5
1EAB
330
1FD
100
AcDbDictionary
280
     1
281
     1
  3
ADSK_XREC_LAYER_RECONCILED
360
1EAC
  0
DICTIONARY
  5
1EAD
330
1FE
100
AcDbDictionary
280
     1
281
     1
  3
ADSK_XREC_LAYER_RECONCILED
360
1EAE
  0
DICTIONARY
  5
1EAF
330
1FF
100
AcDbDictionary
280
     1
281
     1
  3
ADSK_XREC_LAYER_RECONCILED
360
1EB0
  0
DICTIONARY
  5
1EB1
330
200
100
AcDbDictionary
280
     1
281
     1
  3
ADSK_XREC_LAYER_RECONCILED
360
1EB2
  0
DICTIONARY
  5
1EB3
330
201
100
AcDbDictionary
280
     1
281
     1
  3
ADSK_XREC_LAYER_RECONCILED
360
1EB4
  0
DICTIONARY
  5
1EB5
330
202
100
AcDbDictionary
280
     1
281
     1
  3
ADSK_XREC_LAYER_RECONCILED
360
1EB6
  0
DICTIONARY
  5
1EB7
330
203
100
AcDbDictionary
280
     1
281
     1
  3
ADSK_XREC_LAYER_RECONCILED
360
1EB8
  0
DICTIONARY
  5
1EB9
330
204
100
AcDbDictionary
280
     1
281
     1
  3
ADSK_XREC_LAYER_RECONCILED
360
1EBA
  0
DICTIONARY
  5
1EBB
330
205
100
AcDbDictionary
280
     1
281
     1
  3
ADSK_XREC_LAYER_RECONCILED
360
1EBC
  0
DICTIONARY
  5
1EBD
330
206
100
AcDbDictionary
280
     1
281
     1
  3
ADSK_XREC_LAYER_RECONCILED
360
1EBE
  0
DICTIONARY
  5
1EBF
330
207
100
AcDbDictionary
280
     1
281
     1
  3
ADSK_XREC_LAYER_RECONCILED
360
1EC0
  0
DICTIONARY
  5
1EC1
330
208
100
AcDbDictionary
280
     1
281
     1
  3
ADSK_XREC_LAYER_RECONCILED
360
1EC2
  0
DICTIONARY
  5
1EC3
330
209
100
AcDbDictionary
280
     1
281
     1
  3
ADSK_XREC_LAYER_RECONCILED
360
1EC4
  0
DICTIONARY
  5
1EC5
330
20A
100
AcDbDictionary
280
     1
281
     1
  3
ADSK_XREC_LAYER_RECONCILED
360
1EC6
  0
DICTIONARY
  5
1EC7
330
20B
100
AcDbDictionary
280
     1
281
     1
  3
ADSK_XREC_LAYER_RECONCILED
360
1EC8
  0
DICTIONARY
  5
1EC9
330
20C
100
AcDbDictionary
280
     1
281
     1
  3
ADSK_XREC_LAYER_RECONCILED
360
1ECA
  0
DICTIONARY
  5
1ECB
330
20D
100
AcDbDictionary
280
     1
281
     1
  3
ADSK_XREC_LAYER_RECONCILED
360
1ECC
  0
DICTIONARY
  5
1ECD
330
20E
100
AcDbDictionary
280
     1
281
     1
  3
ADSK_XREC_LAYER_RECONCILED
360
1ECE
  0
DICTIONARY
  5
1ECF
330
20F
100
AcDbDictionary
280
     1
281
     1
  3
ADSK_XREC_LAYER_RECONCILED
360
1ED0
  0
DICTIONARY
  5
1E26
102
{ACAD_REACTORS
330
C
102
}
330
C
100
AcDbDictionary
281
     1
  0
DICTIONARY
  5
D
102
{ACAD_REACTORS
330
C
102
}
330
C
100
AcDbDictionary
281
     1
  0
DICTIONARY
  5
1A
102
{ACAD_REACTORS
330
C
102
}
330
C
100
AcDbDictionary
281
     1
  3
Layout1
350
1DF5
  3
Model
350
1DF4
  0
DICTIONARY
  5
1DF9
102
{ACAD_REACTORS
330
C
102
}
330
C
100
AcDbDictionary
281
     1
  3
ByBlock
350
1E02
  3
ByLayer
350
1DFA
  3
Global
350
1E0A
  0
DICTIONARY
  5
1E4B
102
{ACAD_REACTORS
330
C
102
}
330
C
100
AcDbDictionary
281
     1
  3
Standard
350
1E4C
  0
DICTIONARY
  5
17
102
{ACAD_REACTORS
330
C
102
}
330
C
100
AcDbDictionary
281
     1
  3
Standard
350
18
  0
DICTIONARY
  5
19
102
{ACAD_REACTORS
330
C
102
}
330
C
100
AcDbDictionary
281
     1
  0
ACDBDICTIONARYWDFLT
  5
E
102
{ACAD_REACTORS
330
C
102
}
330
C
100
AcDbDictionary
281
     1
  3
Normal
350
F
100
AcDbDictionaryWithDefault
340
F
  0
DICTIONARY
  5
1E29
102
{ACAD_REACTORS
330
C
102
}
330
C
100
AcDbDictionary
281
     1
  3
A0
350
1E2A
  3
A1
350
1E2B
  3
A2
350
1E2C
  3
A3
350
1E2D
  3
A4
350
1E2E
  3
A5
350
1E2F
  3
A6
350
1E30
  3
A7
350
1E31
  3
A8
350
1E32
  3
A9
350
1E33
  3
B0
350
1E34
  3
B1
350
1E35
  3
B2
350
1E36
  3
B3
350
1E37
  3
B4
350
1E38
  3
B5
350
1E39
  3
B6
350
1E3A
  3
B7
350
1E3B
  3
B8
350
1E3C
  3
B9
350
1E3D
  3
C0
350
1E3E
  3
C1
350
1E3F
  3
C2
350
1E40
  3
C3
350
1E41
  3
C4
350
1E42
  3
C5
350
1E43
  3
C6
350
1E44
  3
C7
350
1E45
  3
C8
350
1E46
  3
C9
350
1E47
  3
D0
350
1E48
  3
D1
350
1E49
  3
D2
350
1E4A
  0
DICTIONARY
  5
1E27
102
{ACAD_REACTORS
330
C
102
}
330
C
100
AcDbDictionary
281
     1
  3
Standard
350
1E28
  0
DICTIONARY
  5
1E12
102
{ACAD_REACTORS
330
C
102
}
330
C
100
AcDbDictionary
281
     1
  3
2dWireframe
350
1E18
  3
3D Hidden
350
1E1A
  3
3dWireframe
350
1E19
  3
Basic
350
1E17
  3
Brighten
350
1E1E
  3
ColorChange
350
1E22
  3
Conceptual
350
1E1B
  3
Dim
350
1E1D
  3
EdgeColorOff
350
1E25
  3
Facepattern
350
1E21
  3
Flat
350
1E13
  3
FlatWithEdges
350
1E14
  3
Gouraud
350
1E15
  3
GouraudWithEdges
350
1E16
  3
JitterOff
350
1E23
  3
Linepattern
350
1E20
  3
OverhangOff
350
1E24
  3
Realistic
350
1E1C
  3
Thicken
350
1E1F
  0
XRECORD
  5
1E51
102
{ACAD_REACTORS
330
C
102
}
330
C
100
AcDbXrecord
280
     1
 90
        1
330
1E28
  0
DICTIONARY
  5
1E83
102
{ACAD_REACTORS
330
C
102
}
330
C
100
AcDbDictionary
281
     1
  3
CANNOSCALE
350
1E86
  3
CMLEADERSTYLE
350
1E85
  3
CTABLESTYLE
350
1E84
  3
DIMASSOC
350
1E89
  3
INDEXCTL
350
1E88
  3
SORTENTS
350
1E87
  3
XCLIPFRAME
350
1E8A
  0
XRECORD
  5
1EF2
102
{ACAD_REACTORS
330
C
102
}
330
C
100
AcDbXrecord
280
     1
  1
DWGPROPS COOKIE
  2

  3

  4

  6

  7

  8
francoisbu
  9

300
=
301
=
302
=
303
=
304
=
305
=
306
=
307
=
308
=
309
=
 40
0.0137814351851852
 41
2456086.647553878
 42
2456087.378707917
  1

 90
        0
  0
XRECORD
  5
1EA4
102
{ACAD_REACTORS
330
1EA3
102
}
330
1EA3
100
AcDbXrecord
280
     1
290
     1
  0
XRECORD
  5
1EA6
102
{ACAD_REACTORS
330
1EA5
102
}
330
1EA5
100
AcDbXrecord
280
     1
290
     1
  0
XRECORD
  5
1EA8
102
{ACAD_REACTORS
330
1EA7
102
}
330
1EA7
100
AcDbXrecord
280
     1
290
     1
  0
XRECORD
  5
1EAA
102
{ACAD_REACTORS
330
1EA9
102
}
330
1EA9
100
AcDbXrecord
280
     1
290
     1
  0
XRECORD
  5
1EAC
102
{ACAD_REACTORS
330
1EAB
102
}
330
1EAB
100
AcDbXrecord
280
     1
290
     1
  0
XRECORD
  5
1EAE
102
{ACAD_REACTORS
330
1EAD
102
}
330
1EAD
100
AcDbXrecord
280
     1
290
     1
  0
XRECORD
  5
1EB0
102
{ACAD_REACTORS
330
1EAF
102
}
330
1EAF
100
AcDbXrecord
280
     1
290
     1
  0
XRECORD
  5
1EB2
102
{ACAD_REACTORS
330
1EB1
102
}
330
1EB1
100
AcDbXrecord
280
     1
290
     1
  0
XRECORD
  5
1EB4
102
{ACAD_REACTORS
330
1EB3
102
}
330
1EB3
100
AcDbXrecord
280
     1
290
     1
  0
XRECORD
  5
1EB6
102
{ACAD_REACTORS
330
1EB5
102
}
330
1EB5
100
AcDbXrecord
280
     1
290
     1
  0
XRECORD
  5
1EB8
102
{ACAD_REACTORS
330
1EB7
102
}
330
1EB7
100
AcDbXrecord
280
     1
290
     1
  0
XRECORD
  5
1EBA
102
{ACAD_REACTORS
330
1EB9
102
}
330
1EB9
100
AcDbXrecord
280
     1
290
     1
  0
XRECORD
  5
1EBC
102
{ACAD_REACTORS
330
1EBB
102
}
330
1EBB
100
AcDbXrecord
280
     1
290
     1
  0
XRECORD
  5
1EBE
102
{ACAD_REACTORS
330
1EBD
102
}
330
1EBD
100
AcDbXrecord
280
     1
290
     1
  0
XRECORD
  5
1EC0
102
{ACAD_REACTORS
330
1EBF
102
}
330
1EBF
100
AcDbXrecord
280
     1
290
     1
  0
XRECORD
  5
1EC2
102
{ACAD_REACTORS
330
1EC1
102
}
330
1EC1
100
AcDbXrecord
280
     1
290
     1
  0
XRECORD
  5
1EC4
102
{ACAD_REACTORS
330
1EC3
102
}
330
1EC3
100
AcDbXrecord
280
     1
290
     1
  0
XRECORD
  5
1EC6
102
{ACAD_REACTORS
330
1EC5
102
}
330
1EC5
100
AcDbXrecord
280
     1
290
     1
  0
XRECORD
  5
1EC8
102
{ACAD_REACTORS
330
1EC7
102
}
330
1EC7
100
AcDbXrecord
280
     1
290
     1
  0
XRECORD
  5
1ECA
102
{ACAD_REACTORS
330
1EC9
102
}
330
1EC9
100
AcDbXrecord
280
     1
290
     1
  0
XRECORD
  5
1ECC
102
{ACAD_REACTORS
330
1ECB
102
}
330
1ECB
100
AcDbXrecord
280
     1
290
     1
  0
XRECORD
  5
1ECE
102
{ACAD_REACTORS
330
1ECD
102
}
330
1ECD
100
AcDbXrecord
280
     1
290
     1
  0
XRECORD
  5
1ED0
102
{ACAD_REACTORS
330
1ECF
102
}
330
1ECF
100
AcDbXrecord
280
     1
290
     1
  0
LAYOUT
  5
1DF5
102
{ACAD_XDICTIONARY
360
1EF5
102
}
102
{ACAD_REACTORS
330
1A
102
}
330
1A
100
AcDbPlotSettings
  1

  2
none_device
  4
ANSI_B_(17.00_x_11.00_Inches)
  6

 40
0.0
 41
0.0
 42
0.0
 43
0.0
 44
431.8
 45
279.4
 46
0.0
 47
0.0
 48
0.0
 49
0.0
140
0.0
141
0.0
142
1.0
143
1.0
 70
     0
 72
     0
 73
     0
 74
     0
  7

 75
     0
147
1.0
148
0.0
149
0.0
100
AcDbLayout
  1
Layout1
 70
     1
 71
     1
 10
0.0
 20
0.0
 11
12.0
 21
9.0
 12
0.0
 22
0.0
 32
0.0
 14
1.000000000000000E+20
 24
1.000000000000000E+20
 34
1.000000000000000E+20
 15
-1.000000000000000E+20
 25
-1.000000000000000E+20
 35
-1.000000000000000E+20
146
0.0
 13
0.0
 23
0.0
 33
0.0
 16
1.0
 26
0.0
 36
0.0
 17
0.0
 27
1.0
 37
0.0
 76
     0
330
219
  0
LAYOUT
  5
1DF4
102
{ACAD_XDICTIONARY
360
1EF3
102
}
102
{ACAD_REACTORS
330
1A
102
}
330
1A
100
AcDbPlotSettings
  1

  2
none_device
  4
ANSI_B_(17.00_x_11.00_Inches)
  6

 40
0.0
 41
0.0
 42
0.0
 43
0.0
 44
431.8
 45
279.4
 46
0.0
 47
0.0
 48
0.0
 49
0.0
140
0.0
141
0.0
142
1.0
143
1.0
 70
  1024
 72
     0
 73
     0
 74
     0
  7

 75
     0
147
1.0
148
0.0
149
0.0
100
AcDbLayout
  1
Model
 70
     0
 71
     0
 10
0.0
 20
0.0
 11
17.0
 21
11.0
 12
0.0
 22
0.0
 32
0.0
 14
0.0
 24
0.0
 34
0.0
 15
0.0
 25
0.0
 35
0.0
146
0.0
 13
0.0
 23
0.0
 33
0.0
 16
1.0
 26
0.0
 36
0.0
 17
0.0
 27
1.0
 37
0.0
 76
     0
330
218
331
1F4
  0
MATERIAL
  5
1E02
102
{ACAD_XDICTIONARY
360
1E03
102
}
102
{ACAD_REACTORS
330
1DF9
102
}
330
1DF9
100
AcDbMaterial
  1
ByBlock
 72
     0
 43
0.0208333333333333
 43
0.0
 43
0.0
 43
0.0
 43
0.0
 43
0.0208333333333333
 43
0.0
 43
0.0
 43
0.0
 43
0.0
 43
1.0
 43
0.0
 43
0.0
 43
0.0
 43
0.0
 43
1.0
 77
     0
 47
0.0208333333333333
 47
0.0
 47
0.0
 47
0.0
 47
0.0
 47
0.0208333333333333
 47
0.0
 47
0.0
 47
0.0
 47
0.0
 47
1.0
 47
0.0
 47
0.0
 47
0.0
 47
0.0
 47
1.0
171
     0
 49
0.0208333333333333
 49
0.0
 49
0.0
 49
0.0
 49
0.0
 49
0.0208333333333333
 49
0.0
 49
0.0
 49
0.0
 49
0.0
 49
1.0
 49
0.0
 49
0.0
 49
0.0
 49
0.0
 49
1.0
175
     0
142
0.0208333333333333
142
0.0
142
0.0
142
0.0
142
0.0
142
0.0208333333333333
142
0.0
142
0.0
142
0.0
142
0.0
142
1.0
142
0.0
142
0.0
142
0.0
142
0.0
142
1.0
179
     0
144
0.0208333333333333
144
0.0
144
0.0
144
0.0
144
0.0
144
0.0208333333333333
144
0.0
144
0.0
144
0.0
144
0.0
144
1.0
144
0.0
144
0.0
144
0.0
144
0.0
144
1.0
147
0.0208333333333333
147
0.0
147
0.0
147
0.0
147
0.0
147
0.0208333333333333
147
0.0
147
0.0
147
0.0
147
0.0
147
1.0
147
0.0
147
0.0
147
0.0
147
0.0
147
1.0
  0
MATERIAL
  5
1DFA
102
{ACAD_XDICTIONARY
360
1DFB
102
}
102
{ACAD_REACTORS
330
1DF9
102
}
330
1DF9
100
AcDbMaterial
  1
ByLayer
 72
     0
 43
0.0208333333333333
 43
0.0
 43
0.0
 43
0.0
 43
0.0
 43
0.0208333333333333
 43
0.0
 43
0.0
 43
0.0
 43
0.0
 43
1.0
 43
0.0
 43
0.0
 43
0.0
 43
0.0
 43
1.0
 77
     0
 47
0.0208333333333333
 47
0.0
 47
0.0
 47
0.0
 47
0.0
 47
0.0208333333333333
 47
0.0
 47
0.0
 47
0.0
 47
0.0
 47
1.0
 47
0.0
 47
0.0
 47
0.0
 47
0.0
 47
1.0
171
     0
 49
0.0208333333333333
 49
0.0
 49
0.0
 49
0.0
 49
0.0
 49
0.0208333333333333
 49
0.0
 49
0.0
 49
0.0
 49
0.0
 49
1.0
 49
0.0
 49
0.0
 49
0.0
 49
0.0
 49
1.0
175
     0
142
0.0208333333333333
142
0.0
142
0.0
142
0.0
142
0.0
142
0.0208333333333333
142
0.0
142
0.0
142
0.0
142
0.0
142
1.0
142
0.0
142
0.0
142
0.0
142
0.0
142
1.0
179
     0
144
0.0208333333333333
144
0.0
144
0.0
144
0.0
144
0.0
144
0.0208333333333333
144
0.0
144
0.0
144
0.0
144
0.0
144
1.0
144
0.0
144
0.0
144
0.0
144
0.0
144
1.0
147
0.0208333333333333
147
0.0
147
0.0
147
0.0
147
0.0
147
0.0208333333333333
147
0.0
147
0.0
147
0.0
147
0.0
147
1.0
147
0.0
147
0.0
147
0.0
147
0.0
147
1.0
  0
MATERIAL
  5
1E0A
102
{ACAD_XDICTIONARY
360
1E0B
102
}
102
{ACAD_REACTORS
330
1DF9
102
}
330
1DF9
100
AcDbMaterial
  1
Global
 72
     0
 43
0.0208333333333333
 43
0.0
 43
0.0
 43
0.0
 43
0.0
 43
0.0208333333333333
 43
0.0
 43
0.0
 43
0.0
 43
0.0
 43
1.0
 43
0.0
 43
0.0
 43
0.0
 43
0.0
 43
1.0
 77
     0
 47
0.0208333333333333
 47
0.0
 47
0.0
 47
0.0
 47
0.0
 47
0.0208333333333333
 47
0.0
 47
0.0
 47
0.0
 47
0.0
 47
1.0
 47
0.0
 47
0.0
 47
0.0
 47
0.0
 47
1.0
171
     0
 49
0.0208333333333333
 49
0.0
 49
0.0
 49
0.0
 49
0.0
 49
0.0208333333333333
 49
0.0
 49
0.0
 49
0.0
 49
0.0
 49
1.0
 49
0.0
 49
0.0
 49
0.0
 49
0.0
 49
1.0
175
     0
142
0.0208333333333333
142
0.0
142
0.0
142
0.0
142
0.0
142
0.0208333333333333
142
0.0
142
0.0
142
0.0
142
0.0
142
1.0
142
0.0
142
0.0
142
0.0
142
0.0
142
1.0
179
     0
144
0.0208333333333333
144
0.0
144
0.0
144
0.0
144
0.0
144
0.0208333333333333
144
0.0
144
0.0
144
0.0
144
0.0
144
1.0
144
0.0
144
0.0
144
0.0
144
0.0
144
1.0
147
0.0208333333333333
147
0.0
147
0.0
147
0.0
147
0.0
147
0.0208333333333333
147
0.0
147
0.0
147
0.0
147
0.0
147
1.0
147
0.0
147
0.0
147
0.0
147
0.0
147
1.0
  0
MLEADERSTYLE
  5
1E4C
102
{ACAD_REACTORS
330
1E4B
102
}
330
1E4B
100
AcDbMLeaderStyle
170
     2
171
     1
172
     0
 90
        2
 40
0.0
 41
0.0
173
     1
 91
-1056964608
340
14
 92
       -2
290
     1
 42
0.09
291
     1
 43
0.36
  3
Standard
 44
0.18
300

342
11
174
     1
178
     6
175
     1
176
     0
 93
-1056964608
 45
0.18
292
     0
297
     0
 46
0.18
 94
-1056964608
 47
1.0
 49
1.0
140
1.0
293
     1
141
0.0
294
     1
177
     0
142
1.0
295
     0
296
     0
143
0.125
1001
ACAD_MLEADERVER
1070
     2
  0
MLINESTYLE
  5
18
102
{ACAD_REACTORS
330
17
102
}
330
17
100
AcDbMlineStyle
  2
STANDARD
 70
     0
  3

 62
   256
 51
90.0
 52
90.0
 71
     2
 49
0.5
 62
   256
  6
BYLAYER
 49
-0.5
 62
   256
  6
BYLAYER
  0
ACDBPLACEHOLDER
  5
F
102
{ACAD_REACTORS
330
E
102
}
330
E
  0
SCALE
  5
1E2A
102
{ACAD_REACTORS
330
1E29
102
}
330
1E29
100
AcDbScale
 70
     0
300
1:1
140
1.0
141
1.0
290
     1
  0
SCALE
  5
1E2B
102
{ACAD_REACTORS
330
1E29
102
}
330
1E29
100
AcDbScale
 70
     0
300
1:2
140
1.0
141
2.0
290
     0
  0
SCALE
  5
1E2C
102
{ACAD_REACTORS
330
1E29
102
}
330
1E29
100
AcDbScale
 70
     0
300
1:4
140
1.0
141
4.0
290
     0
  0
SCALE
  5
1E2D
102
{ACAD_REACTORS
330
1E29
102
}
330
1E29
100
AcDbScale
 70
     0
300
1:5
140
1.0
141
5.0
290
     0
  0
SCALE
  5
1E2E
102
{ACAD_REACTORS
330
1E29
102
}
330
1E29
100
AcDbScale
 70
     0
300
1:8
140
1.0
141
8.0
290
     0
  0
SCALE
  5
1E2F
102
{ACAD_REACTORS
330
1E29
102
}
330
1E29
100
AcDbScale
 70
     0
300
1:10
140
1.0
141
10.0
290
     0
  0
SCALE
  5
1E30
102
{ACAD_REACTORS
330
1E29
102
}
330
1E29
100
AcDbScale
 70
     0
300
1:16
140
1.0
141
16.0
290
     0
  0
SCALE
  5
1E31
102
{ACAD_REACTORS
330
1E29
102
}
330
1E29
100
AcDbScale
 70
     0
300
1:20
140
1.0
141
20.0
290
     0
  0
SCALE
  5
1E32
102
{ACAD_REACTORS
330
1E29
102
}
330
1E29
100
AcDbScale
 70
     0
300
1:30
140
1.0
141
30.0
290
     0
  0
SCALE
  5
1E33
102
{ACAD_REACTORS
330
1E29
102
}
330
1E29
100
AcDbScale
 70
     0
300
1:40
140
1.0
141
40.0
290
     0
  0
SCALE
  5
1E34
102
{ACAD_REACTORS
330
1E29
102
}
330
1E29
100
AcDbScale
 70
     0
300
1:50
140
1.0
141
50.0
290
     0
  0
SCALE
  5
1E35
102
{ACAD_REACTORS
330
1E29
102
}
330
1E29
100
AcDbScale
 70
     0
300
1:100
140
1.0
141
100.0
290
     0
  0
SCALE
  5
1E36
102
{ACAD_REACTORS
330
1E29
102
}
330
1E29
100
AcDbScale
 70
     0
300
2:1
140
2.0
141
1.0
290
     0
  0
SCALE
  5
1E37
102
{ACAD_REACTORS
330
1E29
102
}
330
1E29
100
AcDbScale
 70
     0
300
4:1
140
4.0
141
1.0
290
     0
  0
SCALE
  5
1E38
102
{ACAD_REACTORS
330
1E29
102
}
330
1E29
100
AcDbScale
 70
     0
300
8:1
140
8.0
141
1.0
290
     0
  0
SCALE
  5
1E39
102
{ACAD_REACTORS
330
1E29
102
}
330
1E29
100
AcDbScale
 70
     0
300
10:1
140
10.0
141
1.0
290
     0
  0
SCALE
  5
1E3A
102
{ACAD_REACTORS
330
1E29
102
}
330
1E29
100
AcDbScale
 70
     0
300
100:1
140
100.0
141
1.0
290
     0
  0
SCALE
  5
1E3B
102
{ACAD_REACTORS
330
1E29
102
}
330
1E29
100
AcDbScale
 70
     0
300
1/128" = 1'-0"
140
0.0078125
141
12.0
290
     0
  0
SCALE
  5
1E3C
102
{ACAD_REACTORS
330
1E29
102
}
330
1E29
100
AcDbScale
 70
     0
300
1/64" = 1'-0"
140
0.015625
141
12.0
290
     0
  0
SCALE
  5
1E3D
102
{ACAD_REACTORS
330
1E29
102
}
330
1E29
100
AcDbScale
 70
     0
300
1/32" = 1'-0"
140
0.03125
141
12.0
290
     0
  0
SCALE
  5
1E3E
102
{ACAD_REACTORS
330
1E29
102
}
330
1E29
100
AcDbScale
 70
     0
300
1/16" = 1'-0"
140
0.0625
141
12.0
290
     0
  0
SCALE
  5
1E3F
102
{ACAD_REACTORS
330
1E29
102
}
330
1E29
100
AcDbScale
 70
     0
300
3/32" = 1'-0"
140
0.09375
141
12.0
290
     0
  0
SCALE
  5
1E40
102
{ACAD_REACTORS
330
1E29
102
}
330
1E29
100
AcDbScale
 70
     0
300
1/8" = 1'-0"
140
0.125
141
12.0
290
     0
  0
SCALE
  5
1E41
102
{ACAD_REACTORS
330
1E29
102
}
330
1E29
100
AcDbScale
 70
     0
300
3/16" = 1'-0"
140
0.1875
141
12.0
290
     0
  0
SCALE
  5
1E42
102
{ACAD_REACTORS
330
1E29
102
}
330
1E29
100
AcDbScale
 70
     0
300
1/4" = 1'-0"
140
0.25
141
12.0
290
     0
  0
SCALE
  5
1E43
102
{ACAD_REACTORS
330
1E29
102
}
330
1E29
100
AcDbScale
 70
     0
300
3/8" = 1'-0"
140
0.375
141
12.0
290
     0
  0
SCALE
  5
1E44
102
{ACAD_REACTORS
330
1E29
102
}
330
1E29
100
AcDbScale
 70
     0
300
1/2" = 1'-0"
140
0.5
141
12.0
290
     0
  0
SCALE
  5
1E45
102
{ACAD_REACTORS
330
1E29
102
}
330
1E29
100
AcDbScale
 70
     0
300
3/4" = 1'-0"
140
0.75
141
12.0
290
     0
  0
SCALE
  5
1E46
102
{ACAD_REACTORS
330
1E29
102
}
330
1E29
100
AcDbScale
 70
     0
300
1" = 1'-0"
140
1.0
141
12.0
290
     0
  0
SCALE
  5
1E47
102
{ACAD_REACTORS
330
1E29
102
}
330
1E29
100
AcDbScale
 70
     0
300
1-1/2" = 1'-0"
140
1.5
141
12.0
290
     0
  0
SCALE
  5
1E48
102
{ACAD_REACTORS
330
1E29
102
}
330
1E29
100
AcDbScale
 70
     0
300
3" = 1'-0"
140
3.0
141
12.0
290
     0
  0
SCALE
  5
1E49
102
{ACAD_REACTORS
330
1E29
102
}
330
1E29
100
AcDbScale
 70
     0
300
6" = 1'-0"
140
6.0
141
12.0
290
     0
  0
SCALE
  5
1E4A
102
{ACAD_REACTORS
330
1E29
102
}
330
1E29
100
AcDbScale
 70
     0
300
1'-0" = 1'-0"
140
12.0
141
12.0
290
     0
  0
TABLESTYLE
  5
1E28
102
{ACAD_XDICTIONARY
360
1E4F
102
}
102
{ACAD_REACTORS
330
1E27
102
}
330
1E27
100
AcDbTableStyle
  3
Standard
 70
     0
 71
     0
 40
0.06
 41
0.06
280
     0
281
     0
  7
STANDARD
140
0.18
170
     2
 62
     0
 63
     7
283
     0
274
    -2
284
     1
 64
     0
275
    -2
285
     1
 65
     0
276
    -2
286
     1
 66
     0
277
    -2
287
     1
 67
     0
278
    -2
288
     1
 68
     0
279
    -2
289
     1
 69
     0
  7
STANDARD
140
0.25
170
     5
 62
     0
 63
     7
283
     0
274
    -2
284
     1
 64
     0
275
    -2
285
     1
 65
     0
276
    -2
286
     1
 66
     0
277
    -2
287
     1
 67
     0
278
    -2
288
     1
 68
     0
279
    -2
289
     1
 69
     0
  7
STANDARD
140
0.18
170
     5
 62
     0
 63
     7
283
     0
274
    -2
284
     1
 64
     0
275
    -2
285
     1
 65
     0
276
    -2
286
     1
 66
     0
277
    -2
287
     1
 67
     0
278
    -2
288
     1
 68
     0
279
    -2
289
     1
 69
     0
  0
VISUALSTYLE
  5
1E18
102
{ACAD_XDICTIONARY
360
1E65
102
}
102
{ACAD_REACTORS
330
1E12
102
}
330
1E12
100
AcDbVisualStyle
  2
2dWireframe
 70
     4
 71
     0
 72
     2
 73
     0
 90
        0
 40
-0.6
 41
-30.0
 62
     5
 63
     7
 74
     1
 91
        4
 64
     7
 65
   257
 75
     1
175
     1
 42
1.0
 92
        0
 66
   257
 43
1.0
 76
     1
 77
     6
 78
     2
 67
     7
 79
     5
170
     0
171
     0
290
     0
174
     0
 93
        1
 44
0.0
173
     0
291
     0
 45
0.0
1001
ACAD
1000
AcDbSavedByObjectVersion
1070
     0
  0
VISUALSTYLE
  5
1E1A
102
{ACAD_XDICTIONARY
360
1E69
102
}
102
{ACAD_REACTORS
330
1E12
102
}
330
1E12
100
AcDbVisualStyle
  2
3D Hidden
 70
     6
 71
     1
 72
     2
 73
     2
 90
        0
 40
-0.6
 41
-30.0
 62
     5
 63
     7
 74
     2
 91
        2
 64
     7
 65
   257
 75
     2
175
     1
 42
179.0
 92
        0
 66
   257
 43
1.0
 76
     1
 77
     6
 78
     2
 67
     7
 79
     3
170
     0
171
     0
290
     0
174
     0
 93
        1
 44
0.0
173
     0
291
     0
 45
0.0
1001
ACAD
1000
AcDbSavedByObjectVersion
1070
     0
  0
VISUALSTYLE
  5
1E19
102
{ACAD_XDICTIONARY
360
1E67
102
}
102
{ACAD_REACTORS
330
1E12
102
}
330
1E12
100
AcDbVisualStyle
  2
3dWireframe
 70
     5
 71
     0
 72
     2
 73
     0
 90
        0
 40
-0.6
 41
-30.0
 62
     5
 63
     7
 74
     1
 91
        4
 64
     7
 65
   257
 75
     1
175
     1
 42
1.0
 92
        0
 66
   257
 43
1.0
 76
     1
 77
     6
 78
     2
 67
     7
 79
     5
170
     0
171
     0
290
     0
174
     0
 93
        1
 44
0.0
173
     0
291
     0
 45
0.0
1001
ACAD
1000
AcDbSavedByObjectVersion
1070
     0
  0
VISUALSTYLE
  5
1E17
102
{ACAD_XDICTIONARY
360
1E63
102
}
102
{ACAD_REACTORS
330
1E12
102
}
330
1E12
100
AcDbVisualStyle
  2
Basic
 70
     7
 71
     1
 72
     0
 73
     1
 90
        0
 40
-0.6
 41
-30.0
 62
     5
 63
     7
 74
     0
 91
        4
 64
     7
 65
   257
 75
     1
175
     1
 42
1.0
 92
        8
 66
     7
 43
1.0
 76
     1
 77
     6
 78
     2
 67
     7
 79
     5
170
     0
171
     0
290
     0
174
     0
 93
        1
 44
0.0
173
     0
291
     1
 45
0.0
1001
ACAD
1000
AcDbSavedByObjectVersion
1070
     0
  0
VISUALSTYLE
  5
1E1E
102
{ACAD_XDICTIONARY
360
1E71
102
}
102
{ACAD_REACTORS
330
1E12
102
}
330
1E12
100
AcDbVisualStyle
  2
Brighten
 70
    12
 71
     2
 72
     2
 73
     0
 90
        0
 40
-0.6
 41
-30.0
 62
     5
 63
     7
 74
     1
 91
        4
 64
     7
 65
   257
 75
     1
175
     1
 42
1.0
 92
        8
 66
     7
 43
1.0
 76
     1
 77
     6
 78
     2
 67
     7
 79
     5
170
     0
171
     0
290
     0
174
     0
 93
        1
 44
50.0
173
     0
291
     1
 45
0.0
1001
ACAD
1000
AcDbSavedByObjectVersion
1070
     0
  0
VISUALSTYLE
  5
1E22
102
{ACAD_XDICTIONARY
360
1E79
102
}
102
{ACAD_REACTORS
330
1E12
102
}
330
1E12
100
AcDbVisualStyle
  2
ColorChange
 70
    16
 71
     2
 72
     2
 73
     3
 90
        0
 40
-0.6
 41
-30.0
 62
     5
 63
     8
 74
     1
 91
        4
 64
     7
 65
   257
 75
     1
175
     1
 42
1.0
 92
        8
 66
     8
 43
1.0
 76
     1
 77
     6
 78
     2
 67
     7
 79
     5
170
     0
171
     0
290
     0
174
     0
 93
        1
 44
0.0
173
     0
291
     1
 45
0.0
1001
ACAD
1000
AcDbSavedByObjectVersion
1070
     0
  0
VISUALSTYLE
  5
1E1B
102
{ACAD_XDICTIONARY
360
1E6B
102
}
102
{ACAD_REACTORS
330
1E12
102
}
330
1E12
100
AcDbVisualStyle
  2
Conceptual
 70
     9
 71
     3
 72
     2
 73
     0
 90
        0
 40
-0.6
 41
-30.0
 62
     5
 63
     7
 74
     2
 91
        2
 64
     7
 65
   257
 75
     1
175
     1
 42
179.0
 92
        8
 66
     7
 43
1.0
 76
     1
 77
     6
 78
     2
 67
     7
 79
     3
170
     0
171
     0
290
     0
174
     0
 93
        1
 44
0.0
173
     0
291
     0
 45
0.0
1001
ACAD
1000
AcDbSavedByObjectVersion
1070
     0
  0
VISUALSTYLE
  5
1E1D
102
{ACAD_XDICTIONARY
360
1E6F
102
}
102
{ACAD_REACTORS
330
1E12
102
}
330
1E12
100
AcDbVisualStyle
  2
Dim
 70
    11
 71
     2
 72
     2
 73
     0
 90
        0
 40
-0.6
 41
-30.0
 62
     5
 63
     7
 74
     1
 91
        4
 64
     7
 65
   257
 75
     1
175
     1
 42
1.0
 92
        8
 66
     7
 43
1.0
 76
     1
 77
     6
 78
     2
 67
     7
 79
     5
170
     0
171
     0
290
     0
174
     0
 93
        1
 44
-50.0
173
     0
291
     1
 45
0.0
1001
ACAD
1000
AcDbSavedByObjectVersion
1070
     0
  0
VISUALSTYLE
  5
1E25
102
{ACAD_XDICTIONARY
360
1E7F
102
}
102
{ACAD_REACTORS
330
1E12
102
}
330
1E12
100
AcDbVisualStyle
  2
EdgeColorOff
 70
    22
 71
     2
 72
     2
 73
     0
 90
        0
 40
-0.6
 41
-30.0
 62
     5
 63
     7
 74
     1
 91
        4
 64
     7
 65
   257
 75
     1
175
     1
 42
1.0
 92
        8
 66
     7
 43
1.0
 76
     1
 77
     6
 78
     2
 67
     7
 79
     5
170
     0
171
     0
290
     0
174
     0
 93
        1
 44
0.0
173
     0
291
     1
 45
0.0
1001
ACAD
1000
AcDbSavedByObjectVersion
1070
     0
  0
VISUALSTYLE
  5
1E21
102
{ACAD_XDICTIONARY
360
1E77
102
}
102
{ACAD_REACTORS
330
1E12
102
}
330
1E12
100
AcDbVisualStyle
  2
Facepattern
 70
    15
 71
     2
 72
     2
 73
     0
 90
        0
 40
-0.6
 41
-30.0
 62
     5
 63
     7
 74
     1
 91
        4
 64
     7
 65
   257
 75
     1
175
     1
 42
1.0
 92
        8
 66
     7
 43
1.0
 76
     1
 77
     6
 78
     2
 67
     7
 79
     5
170
     0
171
     0
290
     0
174
     0
 93
        1
 44
0.0
173
     0
291
     1
 45
0.0
1001
ACAD
1000
AcDbSavedByObjectVersion
1070
     0
  0
VISUALSTYLE
  5
1E13
102
{ACAD_XDICTIONARY
360
1E5B
102
}
102
{ACAD_REACTORS
330
1E12
102
}
330
1E12
100
AcDbVisualStyle
  2
Flat
 70
     0
 71
     2
 72
     1
 73
     1
 90
        2
 40
-0.6
 41
30.0
 62
     5
 63
     7
 74
     0
 91
        4
 64
     7
 65
   257
 75
     1
175
     1
 42
1.0
 92
        8
 66
     7
 43
1.0
 76
     1
 77
     6
 78
     2
 67
     7
 79
     5
170
     0
171
     0
290
     0
174
     0
 93
       13
 44
0.0
173
     0
291
     1
 45
0.0
1001
ACAD
1000
AcDbSavedByObjectVersion
1070
     0
  0
VISUALSTYLE
  5
1E14
102
{ACAD_XDICTIONARY
360
1E5D
102
}
102
{ACAD_REACTORS
330
1E12
102
}
330
1E12
100
AcDbVisualStyle
  2
FlatWithEdges
 70
     1
 71
     2
 72
     1
 73
     1
 90
        2
 40
-0.6
 41
30.0
 62
     5
 63
     7
 74
     1
 91
        4
 64
     7
 65
   257
 75
     1
175
     1
 42
1.0
 92
        0
 66
   257
 43
1.0
 76
     1
 77
     6
 78
     2
 67
     7
 79
     5
170
     0
171
     0
290
     0
174
     0
 93
       13
 44
0.0
173
     0
291
     1
 45
0.0
1001
ACAD
1000
AcDbSavedByObjectVersion
1070
     0
  0
VISUALSTYLE
  5
1E15
102
{ACAD_XDICTIONARY
360
1E5F
102
}
102
{ACAD_REACTORS
330
1E12
102
}
330
1E12
100
AcDbVisualStyle
  2
Gouraud
 70
     2
 71
     2
 72
     2
 73
     1
 90
        2
 40
-0.6
 41
30.0
 62
     5
 63
     7
 74
     0
 91
        4
 64
     7
 65
   257
 75
     1
175
     1
 42
1.0
 92
        0
 66
     7
 43
1.0
 76
     1
 77
     6
 78
     2
 67
     7
 79
     5
170
     0
171
     0
290
     0
174
     0
 93
       13
 44
0.0
173
     0
291
     1
 45
0.0
1001
ACAD
1000
AcDbSavedByObjectVersion
1070
     0
  0
VISUALSTYLE
  5
1E16
102
{ACAD_XDICTIONARY
360
1E61
102
}
102
{ACAD_REACTORS
330
1E12
102
}
330
1E12
100
AcDbVisualStyle
  2
GouraudWithEdges
 70
     3
 71
     2
 72
     2
 73
     1
 90
        2
 40
-0.6
 41
30.0
 62
     5
 63
     7
 74
     1
 91
        4
 64
     7
 65
   257
 75
     1
175
     1
 42
1.0
 92
        0
 66
   257
 43
1.0
 76
     1
 77
     6
 78
     2
 67
     7
 79
     5
170
     0
171
     0
290
     0
174
     0
 93
       13
 44
0.0
173
     0
291
     1
 45
0.0
1001
ACAD
1000
AcDbSavedByObjectVersion
1070
     0
  0
VISUALSTYLE
  5
1E23
102
{ACAD_XDICTIONARY
360
1E7B
102
}
102
{ACAD_REACTORS
330
1E12
102
}
330
1E12
100
AcDbVisualStyle
  2
JitterOff
 70
    20
 71
     2
 72
     2
 73
     0
 90
        0
 40
-0.6
 41
-30.0
 62
     5
 63
     7
 74
     1
 91
        4
 64
     7
 65
   257
 75
     1
175
     1
 42
1.0
 92
       10
 66
     7
 43
1.0
 76
     1
 77
     6
 78
     2
 67
     7
 79
     5
170
     0
171
     0
290
     0
174
     0
 93
        1
 44
0.0
173
     0
291
     1
 45
0.0
1001
ACAD
1000
AcDbSavedByObjectVersion
1070
     0
  0
VISUALSTYLE
  5
1E20
102
{ACAD_XDICTIONARY
360
1E75
102
}
102
{ACAD_REACTORS
330
1E12
102
}
330
1E12
100
AcDbVisualStyle
  2
Linepattern
 70
    14
 71
     2
 72
     2
 73
     0
 90
        0
 40
-0.6
 41
-30.0
 62
     5
 63
     7
 74
     1
 91
        4
 64
     7
 65
   257
 75
     7
175
     7
 42
1.0
 92
        8
 66
     7
 43
1.0
 76
     1
 77
     6
 78
     2
 67
     7
 79
     5
170
     0
171
     0
290
     0
174
     0
 93
        1
 44
0.0
173
     0
291
     1
 45
0.0
1001
ACAD
1000
AcDbSavedByObjectVersion
1070
     0
  0
VISUALSTYLE
  5
1E24
102
{ACAD_XDICTIONARY
360
1E7D
102
}
102
{ACAD_REACTORS
330
1E12
102
}
330
1E12
100
AcDbVisualStyle
  2
OverhangOff
 70
    21
 71
     2
 72
     2
 73
     0
 90
        0
 40
-0.6
 41
-30.0
 62
     5
 63
     7
 74
     1
 91
        4
 64
     7
 65
   257
 75
     1
175
     1
 42
1.0
 92
        9
 66
     7
 43
1.0
 76
     1
 77
     6
 78
     2
 67
     7
 79
     5
170
     0
171
     0
290
     0
174
     0
 93
        1
 44
0.0
173
     0
291
     1
 45
0.0
1001
ACAD
1000
AcDbSavedByObjectVersion
1070
     0
  0
VISUALSTYLE
  5
1E1C
102
{ACAD_XDICTIONARY
360
1E6D
102
}
102
{ACAD_REACTORS
330
1E12
102
}
330
1E12
100
AcDbVisualStyle
  2
Realistic
 70
     8
 71
     2
 72
     2
 73
     0
 90
        0
 40
-0.6
 41
-30.0
 62
     5
 63
     7
 74
     1
 91
        0
 64
     7
 65
   257
 75
     1
175
     1
 42
1.0
 92
        8
 66
     8
 43
1.0
 76
     1
 77
     6
 78
     2
 67
     7
 79
     5
170
     0
171
     0
290
     0
174
     0
 93
       13
 44
0.0
173
     0
291
     0
 45
0.0
1001
ACAD
1000
AcDbSavedByObjectVersion
1070
     0
  0
VISUALSTYLE
  5
1E1F
102
{ACAD_XDICTIONARY
360
1E73
102
}
102
{ACAD_REACTORS
330
1E12
102
}
330
1E12
100
AcDbVisualStyle
  2
Thicken
 70
    13
 71
     2
 72
     2
 73
     0
 90
        0
 40
-0.6
 41
-30.0
 62
     5
 63
     7
 74
     1
 91
        4
 64
     7
 65
   257
 75
     1
175
     1
 42
1.0
 92
       12
 66
     7
 43
1.0
 76
     1
 77
     6
 78
     2
 67
     7
 79
     5
170
     0
171
     0
290
     0
174
     0
 93
        1
 44
0.0
173
     0
291
     1
 45
0.0
1001
ACAD
1000
AcDbSavedByObjectVersion
1070
     0
  0
DICTIONARYVAR
  5
1E86
102
{ACAD_REACTORS
330
1E83
102
}
330
1E83
100
DictionaryVariables
280
     0
  1
1:1
  0
DICTIONARYVAR
  5
1E85
102
{ACAD_REACTORS
330
1E83
102
}
330
1E83
100
DictionaryVariables
280
     0
  1
STANDARD
  0
DICTIONARYVAR
  5
1E84
102
{ACAD_REACTORS
330
1E83
102
}
330
1E83
100
DictionaryVariables
280
     0
  1
STANDARD
  0
DICTIONARYVAR
  5
1E89
102
{ACAD_REACTORS
330
1E83
102
}
330
1E83
100
DictionaryVariables
280
     0
  1
1
  0
DICTIONARYVAR
  5
1E88
102
{ACAD_REACTORS
330
1E83
102
}
330
1E83
100
DictionaryVariables
280
     0
  1
0
  0
DICTIONARYVAR
  5
1E87
102
{ACAD_REACTORS
330
1E83
102
}
330
1E83
100
DictionaryVariables
280
     0
  1
127
  0
DICTIONARYVAR
  5
1E8A
102
{ACAD_REACTORS
330
1E83
102
}
330
1E83
100
DictionaryVariables
280
     0
  1
0
  0
DICTIONARY
  5
1EF5
330
1DF5
100
AcDbDictionary
280
     1
281
     1
  3
ACAD_XREC_ROUNDTRIP
360
1EF6
  0
DICTIONARY
  5
1EF3
330
1DF4
100
AcDbDictionary
280
     1
281
     1
  3
ACAD_XREC_ROUNDTRIP
360
1EF4
  0
DICTIONARY
  5
1E03
330
1E02
100
AcDbDictionary
280
     1
281
     1
  3
ACAD_XREC_ROUNDTRIP
360
1EF8
  3
BUMPTILE
360
1E05
  3
DIFFUSETILE
360
1E04
  3
OPACITYTILE
360
1E08
  3
REFLECTIONTILE
360
1E07
  3
REFRACTIONTILE
360
1E09
  3
SPECULARTILE
360
1E06
  0
DICTIONARY
  5
1DFB
330
1DFA
100
AcDbDictionary
280
     1
281
     1
  3
ACAD_XREC_ROUNDTRIP
360
1EF7
  3
BUMPTILE
360
1DFD
  3
DIFFUSETILE
360
1DFC
  3
OPACITYTILE
360
1E00
  3
REFLECTIONTILE
360
1DFF
  3
REFRACTIONTILE
360
1E01
  3
SPECULARTILE
360
1DFE
  0
DICTIONARY
  5
1E0B
330
1E0A
100
AcDbDictionary
280
     1
281
     1
  3
ACAD_XREC_ROUNDTRIP
360
1EF9
  3
BUMPTILE
360
1E0D
  3
DIFFUSETILE
360
1E0C
  3
OPACITYTILE
360
1E10
  3
REFLECTIONTILE
360
1E0F
  3
REFRACTIONTILE
360
1E11
  3
SPECULARTILE
360
1E0E
  0
DICTIONARY
  5
1E4F
330
1E28
100
AcDbDictionary
280
     1
281
     1
  3
ACAD_ROUNDTRIP_2008_TABLESTYLE_CELLSTYLEMAP
360
1EF1
  3
ACAD_XREC_ROUNDTRIP
360
1EFA
  0
DICTIONARY
  5
1E65
330
1E18
100
AcDbDictionary
280
     1
281
     1
  3
ACAD_XREC_ROUNDTRIP
360
1E66
  0
DICTIONARY
  5
1E69
330
1E1A
100
AcDbDictionary
280
     1
281
     1
  3
ACAD_XREC_ROUNDTRIP
360
1E6A
  0
DICTIONARY
  5
1E67
330
1E19
100
AcDbDictionary
280
     1
281
     1
  3
ACAD_XREC_ROUNDTRIP
360
1E68
  0
DICTIONARY
  5
1E63
330
1E17
100
AcDbDictionary
280
     1
281
     1
  3
ACAD_XREC_ROUNDTRIP
360
1E64
  0
DICTIONARY
  5
1E71
330
1E1E
100
AcDbDictionary
280
     1
281
     1
  3
ACAD_XREC_ROUNDTRIP
360
1E72
  0
DICTIONARY
  5
1E79
330
1E22
100
AcDbDictionary
280
     1
281
     1
  3
ACAD_XREC_ROUNDTRIP
360
1E7A
  0
DICTIONARY
  5
1E6B
330
1E1B
100
AcDbDictionary
280
     1
281
     1
  3
ACAD_XREC_ROUNDTRIP
360
1E6C
  0
DICTIONARY
  5
1E6F
330
1E1D
100
AcDbDictionary
280
     1
281
     1
  3
ACAD_XREC_ROUNDTRIP
360
1E70
  0
DICTIONARY
  5
1E7F
330
1E25
100
AcDbDictionary
280
     1
281
     1
  3
ACAD_XREC_ROUNDTRIP
360
1E80
  0
DICTIONARY
  5
1E77
330
1E21
100
AcDbDictionary
280
     1
281
     1
  3
ACAD_XREC_ROUNDTRIP
360
1E78
  0
DICTIONARY
  5
1E5B
330
1E13
100
AcDbDictionary
280
     1
281
     1
  3
ACAD_XREC_ROUNDTRIP
360
1E5C
  0
DICTIONARY
  5
1E5D
330
1E14
100
AcDbDictionary
280
     1
281
     1
  3
ACAD_XREC_ROUNDTRIP
360
1E5E
  0
DICTIONARY
  5
1E5F
330
1E15
100
AcDbDictionary
280
     1
281
     1
  3
ACAD_XREC_ROUNDTRIP
360
1E60
  0
DICTIONARY
  5
1E61
330
1E16
100
AcDbDictionary
280
     1
281
     1
  3
ACAD_XREC_ROUNDTRIP
360
1E62
  0
DICTIONARY
  5
1E7B
330
1E23
100
AcDbDictionary
280
     1
281
     1
  3
ACAD_XREC_ROUNDTRIP
360
1E7C
  0
DICTIONARY
  5
1E75
330
1E20
100
AcDbDictionary
280
     1
281
     1
  3
ACAD_XREC_ROUNDTRIP
360
1E76
  0
DICTIONARY
  5
1E7D
330
1E24
100
AcDbDictionary
280
     1
281
     1
  3
ACAD_XREC_ROUNDTRIP
360
1E7E
  0
DICTIONARY
  5
1E6D
330
1E1C
100
AcDbDictionary
280
     1
281
     1
  3
ACAD_XREC_ROUNDTRIP
360
1E6E
  0
DICTIONARY
  5
1E73
330
1E1F
100
AcDbDictionary
280
     1
281
     1
  3
ACAD_XREC_ROUNDTRIP
360
1E74
  0
XRECORD
  5
1EF6
102
{ACAD_REACTORS
330
1EF5
102
}
330
1EF5
100
AcDbXrecord
280
     1
102
SHADEPLOT
 70
     0
102
SHADEPLOTRESLEVEL
 70
     2
102
SHADEPLOTCUSTOMDPI
 70
   300
  0
XRECORD
  5
1EF4
102
{ACAD_REACTORS
330
1EF3
102
}
330
1EF3
100
AcDbXrecord
280
     1
102
SHADEPLOT
 70
     0
102
SHADEPLOTRESLEVEL
 70
     2
102
SHADEPLOTCUSTOMDPI
 70
   300
  0
XRECORD
  5
1EF8
102
{ACAD_REACTORS
330
1E03
102
}
330
1E03
100
AcDbXrecord
280
     1
102
MATERIAL
148
0.0
149
0.0
149
0.0
 93
        0
 94
      127
282
     0
 72
     0
 77
     0
171
     0
175
     0
179
     0
273
     0
  0
XRECORD
  5
1E05
102
{ACAD_REACTORS
330
1E03
102
}
330
1E03
100
AcDbXrecord
280
     1
270
     1
271
     1
  0
XRECORD
  5
1E04
102
{ACAD_REACTORS
330
1E03
102
}
330
1E03
100
AcDbXrecord
280
     1
270
     1
271
     1
  0
XRECORD
  5
1E08
102
{ACAD_REACTORS
330
1E03
102
}
330
1E03
100
AcDbXrecord
280
     1
270
     1
271
     1
  0
XRECORD
  5
1E07
102
{ACAD_REACTORS
330
1E03
102
}
330
1E03
100
AcDbXrecord
280
     1
270
     1
271
     1
  0
XRECORD
  5
1E09
102
{ACAD_REACTORS
330
1E03
102
}
330
1E03
100
AcDbXrecord
280
     1
270
     1
271
     1
  0
XRECORD
  5
1E06
102
{ACAD_REACTORS
330
1E03
102
}
330
1E03
100
AcDbXrecord
280
     1
270
     1
271
     1
  0
XRECORD
  5
1EF7
102
{ACAD_REACTORS
330
1DFB
102
}
330
1DFB
100
AcDbXrecord
280
     1
102
MATERIAL
148
0.0
149
0.0
149
0.0
 93
        0
 94
      127
282
     0
 72
     0
 77
     0
171
     0
175
     0
179
     0
273
     0
  0
XRECORD
  5
1DFD
102
{ACAD_REACTORS
330
1DFB
102
}
330
1DFB
100
AcDbXrecord
280
     1
270
     1
271
     1
  0
XRECORD
  5
1DFC
102
{ACAD_REACTORS
330
1DFB
102
}
330
1DFB
100
AcDbXrecord
280
     1
270
     1
271
     1
  0
XRECORD
  5
1E00
102
{ACAD_REACTORS
330
1DFB
102
}
330
1DFB
100
AcDbXrecord
280
     1
270
     1
271
     1
  0
XRECORD
  5
1DFF
102
{ACAD_REACTORS
330
1DFB
102
}
330
1DFB
100
AcDbXrecord
280
     1
270
     1
271
     1
  0
XRECORD
  5
1E01
102
{ACAD_REACTORS
330
1DFB
102
}
330
1DFB
100
AcDbXrecord
280
     1
270
     1
271
     1
  0
XRECORD
  5
1DFE
102
{ACAD_REACTORS
330
1DFB
102
}
330
1DFB
100
AcDbXrecord
280
     1
270
     1
271
     1
  0
XRECORD
  5
1EF9
102
{ACAD_REACTORS
330
1E0B
102
}
330
1E0B
100
AcDbXrecord
280
     1
102
MATERIAL
148
0.0
149
0.0
149
0.0
 93
        0
 94
      127
282
     0
 72
     0
 77
     0
171
     0
175
     0
179
     0
273
     0
  0
XRECORD
  5
1E0D
102
{ACAD_REACTORS
330
1E0B
102
}
330
1E0B
100
AcDbXrecord
280
     1
270
     1
271
     1
  0
XRECORD
  5
1E0C
102
{ACAD_REACTORS
330
1E0B
102
}
330
1E0B
100
AcDbXrecord
280
     1
270
     1
271
     1
  0
XRECORD
  5
1E10
102
{ACAD_REACTORS
330
1E0B
102
}
330
1E0B
100
AcDbXrecord
280
     1
270
     1
271
     1
  0
XRECORD
  5
1E0F
102
{ACAD_REACTORS
330
1E0B
102
}
330
1E0B
100
AcDbXrecord
280
     1
270
     1
271
     1
  0
XRECORD
  5
1E11
102
{ACAD_REACTORS
330
1E0B
102
}
330
1E0B
100
AcDbXrecord
280
     1
270
     1
271
     1
  0
XRECORD
  5
1E0E
102
{ACAD_REACTORS
330
1E0B
102
}
330
1E0B
100
AcDbXrecord
280
     1
270
     1
271
     1
  0
CELLSTYLEMAP
  5
1EF1
102
{ACAD_REACTORS
330
1E4F
102
}
330
1E4F
100
AcDbCellStyleMap
 90
        3
300
CELLSTYLE
  1
TABLEFORMAT_BEGIN
 90
        5
170
     1
 91
        0
 92
    32768
 62
   257
 93
        1
300
CONTENTFORMAT
  1
CONTENTFORMAT_BEGIN
 90
        0
 91
        0
 92
      512
 93
        0
300

 40
0.0
140
1.0
 94
        5
 62
     0
340
11
144
0.25
309
CONTENTFORMAT_END
171
     0
 94
        0
309
TABLEFORMAT_END
  1
CELLSTYLE_BEGIN
 90
        1
 91
        1
300
_TITLE
309
CELLSTYLE_END
300
CELLSTYLE
  1
TABLEFORMAT_BEGIN
 90
        5
170
     1
 91
        0
 92
        0
 62
   257
 93
        1
300
CONTENTFORMAT
  1
CONTENTFORMAT_BEGIN
 90
        0
 91
        0
 92
      512
 93
        0
300

 40
0.0
140
1.0
 94
        5
 62
     0
340
11
144
0.18
309
CONTENTFORMAT_END
171
     0
 94
        0
309
TABLEFORMAT_END
  1
CELLSTYLE_BEGIN
 90
        2
 91
        1
300
_HEADER
309
CELLSTYLE_END
300
CELLSTYLE
  1
TABLEFORMAT_BEGIN
 90
        5
170
     1
 91
        0
 92
        0
 62
   257
 93
        1
300
CONTENTFORMAT
  1
CONTENTFORMAT_BEGIN
 90
        0
 91
        0
 92
      512
 93
        0
300

 40
0.0
140
1.0
 94
        2
 62
     0
340
11
144
0.18
309
CONTENTFORMAT_END
171
     0
 94
        0
309
TABLEFORMAT_END
  1
CELLSTYLE_BEGIN
 90
        3
 91
        2
300
_DATA
309
CELLSTYLE_END
  0
XRECORD
  5
1EFA
102
{ACAD_REACTORS
330
1E4F
102
}
330
1E4F
100
AcDbXrecord
280
     1
102
ACAD_ROUNDTRIP_PRE2007_TABLESTYLE
 90
      512
 91
        0
  1

 92
      512
 93
        0
  2

 94
      512
 95
        0
  3

  0
XRECORD
  5
1E66
102
{ACAD_REACTORS
330
1E65
102
}
330
1E65
100
AcDbXrecord
280
     1
102
RTVSPropertyOp0
 70
     1
102
RTVSPropertyOp1
 70
     1
102
RTVSPropertyOp2
 70
     1
102
RTVSPropertyOp3
 70
     1
102
RTVSPropertyOp4
 70
     1
102
RTVSPropertyOp5
 70
     1
102
RTVSPropertyOp6
 70
     1
102
RTVSPropertyOp7
 70
     1
102
RTVSPropertyOp8
 70
     1
102
RTVSPropertyOp9
 70
     1
102
RTVSPropertyOp10
 70
     1
102
RTVSPropertyOp11
 70
     1
102
RTVSPropertyOp12
 70
     1
102
RTVSPropertyOp13
 70
     1
102
RTVSPropertyOp14
 70
     1
102
RTVSPropertyOp15
 70
     1
102
RTVSPropertyOp16
 70
     1
102
RTVSPropertyOp17
 70
     1
102
RTVSPropertyOp18
 70
     1
102
RTVSPropertyOp19
 70
     1
102
RTVSPropertyOp20
 70
     1
102
RTVSPropertyOp21
 70
     1
102
RTVSPropertyOp22
 70
     1
102
RTVSPropertyOp23
 70
     1
102
RTVSPropertyOp24
 70
     1
102
RTVSPropertyOp25
 70
     1
102
RTVSPropertyOp26
 70
     1
102
RTVSPropertyOp27
 70
     1
  0
XRECORD
  5
1E6A
102
{ACAD_REACTORS
330
1E69
102
}
330
1E69
100
AcDbXrecord
280
     1
102
RTVSPropertyOp0
 70
     1
102
RTVSPropertyOp1
 70
     1
102
RTVSPropertyOp2
 70
     1
102
RTVSPropertyOp3
 70
     1
102
RTVSPropertyOp4
 70
     1
102
RTVSPropertyOp5
 70
     1
102
RTVSPropertyOp6
 70
     1
102
RTVSPropertyOp7
 70
     1
102
RTVSPropertyOp8
 70
     1
102
RTVSPropertyOp9
 70
     1
102
RTVSPropertyOp10
 70
     1
102
RTVSPropertyOp11
 70
     1
102
RTVSPropertyOp12
 70
     1
102
RTVSPropertyOp13
 70
     1
102
RTVSPropertyOp14
 70
     1
102
RTVSPropertyOp15
 70
     1
102
RTVSPropertyOp16
 70
     1
102
RTVSPropertyOp17
 70
     1
102
RTVSPropertyOp18
 70
     1
102
RTVSPropertyOp19
 70
     1
102
RTVSPropertyOp20
 70
     1
102
RTVSPropertyOp21
 70
     1
102
RTVSPropertyOp22
 70
     1
102
RTVSPropertyOp23
 70
     1
102
RTVSPropertyOp24
 70
     1
102
RTVSPropertyOp25
 70
     1
102
RTVSPropertyOp26
 70
     1
102
RTVSPropertyOp27
 70
     1
  0
XRECORD
  5
1E68
102
{ACAD_REACTORS
330
1E67
102
}
330
1E67
100
AcDbXrecord
280
     1
102
RTVSPropertyOp0
 70
     1
102
RTVSPropertyOp1
 70
     1
102
RTVSPropertyOp2
 70
     1
102
RTVSPropertyOp3
 70
     1
102
RTVSPropertyOp4
 70
     1
102
RTVSPropertyOp5
 70
     1
102
RTVSPropertyOp6
 70
     1
102
RTVSPropertyOp7
 70
     1
102
RTVSPropertyOp8
 70
     1
102
RTVSPropertyOp9
 70
     1
102
RTVSPropertyOp10
 70
     1
102
RTVSPropertyOp11
 70
     1
102
RTVSPropertyOp12
 70
     1
102
RTVSPropertyOp13
 70
     1
102
RTVSPropertyOp14
 70
     1
102
RTVSPropertyOp15
 70
     1
102
RTVSPropertyOp16
 70
     1
102
RTVSPropertyOp17
 70
     1
102
RTVSPropertyOp18
 70
     1
102
RTVSPropertyOp19
 70
     1
102
RTVSPropertyOp20
 70
     1
102
RTVSPropertyOp21
 70
     1
102
RTVSPropertyOp22
 70
     1
102
RTVSPropertyOp23
 70
     1
102
RTVSPropertyOp24
 70
     1
102
RTVSPropertyOp25
 70
     1
102
RTVSPropertyOp26
 70
     1
102
RTVSPropertyOp27
 70
     1
  0
XRECORD
  5
1E64
102
{ACAD_REACTORS
330
1E63
102
}
330
1E63
100
AcDbXrecord
280
     1
102
RTVSPropertyOp0
 70
     1
102
RTVSPropertyOp1
 70
     1
102
RTVSPropertyOp2
 70
     1
102
RTVSPropertyOp3
 70
     1
102
RTVSPropertyOp4
 70
     1
102
RTVSPropertyOp5
 70
     1
102
RTVSPropertyOp6
 70
     1
102
RTVSPropertyOp7
 70
     1
102
RTVSPropertyOp8
 70
     1
102
RTVSPropertyOp9
 70
     1
102
RTVSPropertyOp10
 70
     1
102
RTVSPropertyOp11
 70
     1
102
RTVSPropertyOp12
 70
     1
102
RTVSPropertyOp13
 70
     1
102
RTVSPropertyOp14
 70
     1
102
RTVSPropertyOp15
 70
     1
102
RTVSPropertyOp16
 70
     1
102
RTVSPropertyOp17
 70
     1
102
RTVSPropertyOp18
 70
     1
102
RTVSPropertyOp19
 70
     1
102
RTVSPropertyOp20
 70
     1
102
RTVSPropertyOp21
 70
     1
102
RTVSPropertyOp22
 70
     1
102
RTVSPropertyOp23
 70
     1
102
RTVSPropertyOp24
 70
     1
102
RTVSPropertyOp25
 70
     1
102
RTVSPropertyOp26
 70
     1
102
RTVSPropertyOp27
 70
     1
  0
XRECORD
  5
1E72
102
{ACAD_REACTORS
330
1E71
102
}
330
1E71
100
AcDbXrecord
280
     1
102
RTVSPropertyOp0
 70
     1
102
RTVSPropertyOp1
 70
     1
102
RTVSPropertyOp2
 70
     1
102
RTVSPropertyOp3
 70
     1
102
RTVSPropertyOp4
 70
     1
102
RTVSPropertyOp5
 70
     1
102
RTVSPropertyOp6
 70
     1
102
RTVSPropertyOp7
 70
     1
102
RTVSPropertyOp8
 70
     1
102
RTVSPropertyOp9
 70
     1
102
RTVSPropertyOp10
 70
     1
102
RTVSPropertyOp11
 70
     1
102
RTVSPropertyOp12
 70
     1
102
RTVSPropertyOp13
 70
     1
102
RTVSPropertyOp14
 70
     1
102
RTVSPropertyOp15
 70
     1
102
RTVSPropertyOp16
 70
     1
102
RTVSPropertyOp17
 70
     1
102
RTVSPropertyOp18
 70
     1
102
RTVSPropertyOp19
 70
     1
102
RTVSPropertyOp20
 70
     1
102
RTVSPropertyOp21
 70
     1
102
RTVSPropertyOp22
 70
     1
102
RTVSPropertyOp23
 70
     1
102
RTVSPropertyOp24
 70
     1
102
RTVSPropertyOp25
 70
     1
102
RTVSPropertyOp26
 70
     1
102
RTVSPropertyOp27
 70
     1
  0
XRECORD
  5
1E7A
102
{ACAD_REACTORS
330
1E79
102
}
330
1E79
100
AcDbXrecord
280
     1
102
RTVSPropertyOp0
 70
     1
102
RTVSPropertyOp1
 70
     1
102
RTVSPropertyOp2
 70
     1
102
RTVSPropertyOp3
 70
     1
102
RTVSPropertyOp4
 70
     1
102
RTVSPropertyOp5
 70
     1
102
RTVSPropertyOp6
 70
     1
102
RTVSPropertyOp7
 70
     1
102
RTVSPropertyOp8
 70
     1
102
RTVSPropertyOp9
 70
     1
102
RTVSPropertyOp10
 70
     1
102
RTVSPropertyOp11
 70
     1
102
RTVSPropertyOp12
 70
     1
102
RTVSPropertyOp13
 70
     1
102
RTVSPropertyOp14
 70
     1
102
RTVSPropertyOp15
 70
     1
102
RTVSPropertyOp16
 70
     1
102
RTVSPropertyOp17
 70
     1
102
RTVSPropertyOp18
 70
     1
102
RTVSPropertyOp19
 70
     1
102
RTVSPropertyOp20
 70
     1
102
RTVSPropertyOp21
 70
     1
102
RTVSPropertyOp22
 70
     1
102
RTVSPropertyOp23
 70
     1
102
RTVSPropertyOp24
 70
     1
102
RTVSPropertyOp25
 70
     1
102
RTVSPropertyOp26
 70
     1
102
RTVSPropertyOp27
 70
     1
  0
XRECORD
  5
1E6C
102
{ACAD_REACTORS
330
1E6B
102
}
330
1E6B
100
AcDbXrecord
280
     1
102
RTVSPropertyOp0
 70
     1
102
RTVSPropertyOp1
 70
     1
102
RTVSPropertyOp2
 70
     1
102
RTVSPropertyOp3
 70
     1
102
RTVSPropertyOp4
 70
     1
102
RTVSPropertyOp5
 70
     1
102
RTVSPropertyOp6
 70
     1
102
RTVSPropertyOp7
 70
     1
102
RTVSPropertyOp8
 70
     1
102
RTVSPropertyOp9
 70
     1
102
RTVSPropertyOp10
 70
     1
102
RTVSPropertyOp11
 70
     1
102
RTVSPropertyOp12
 70
     1
102
RTVSPropertyOp13
 70
     1
102
RTVSPropertyOp14
 70
     1
102
RTVSPropertyOp15
 70
     1
102
RTVSPropertyOp16
 70
     1
102
RTVSPropertyOp17
 70
     1
102
RTVSPropertyOp18
 70
     1
102
RTVSPropertyOp19
 70
     1
102
RTVSPropertyOp20
 70
     1
102
RTVSPropertyOp21
 70
     1
102
RTVSPropertyOp22
 70
     1
102
RTVSPropertyOp23
 70
     1
102
RTVSPropertyOp24
 70
     1
102
RTVSPropertyOp25
 70
     1
102
RTVSPropertyOp26
 70
     1
102
RTVSPropertyOp27
 70
     1
  0
XRECORD
  5
1E70
102
{ACAD_REACTORS
330
1E6F
102
}
330
1E6F
100
AcDbXrecord
280
     1
102
RTVSPropertyOp0
 70
     1
102
RTVSPropertyOp1
 70
     1
102
RTVSPropertyOp2
 70
     1
102
RTVSPropertyOp3
 70
     1
102
RTVSPropertyOp4
 70
     1
102
RTVSPropertyOp5
 70
     1
102
RTVSPropertyOp6
 70
     1
102
RTVSPropertyOp7
 70
     1
102
RTVSPropertyOp8
 70
     1
102
RTVSPropertyOp9
 70
     1
102
RTVSPropertyOp10
 70
     1
102
RTVSPropertyOp11
 70
     1
102
RTVSPropertyOp12
 70
     1
102
RTVSPropertyOp13
 70
     1
102
RTVSPropertyOp14
 70
     1
102
RTVSPropertyOp15
 70
     1
102
RTVSPropertyOp16
 70
     1
102
RTVSPropertyOp17
 70
     1
102
RTVSPropertyOp18
 70
     1
102
RTVSPropertyOp19
 70
     1
102
RTVSPropertyOp20
 70
     1
102
RTVSPropertyOp21
 70
     1
102
RTVSPropertyOp22
 70
     1
102
RTVSPropertyOp23
 70
     1
102
RTVSPropertyOp24
 70
     1
102
RTVSPropertyOp25
 70
     1
102
RTVSPropertyOp26
 70
     1
102
RTVSPropertyOp27
 70
     1
  0
XRECORD
  5
1E80
102
{ACAD_REACTORS
330
1E7F
102
}
330
1E7F
100
AcDbXrecord
280
     1
102
RTVSPropertyOp0
 70
     0
102
RTVSPropertyOp1
 70
     0
102
RTVSPropertyOp2
 70
     0
102
RTVSPropertyOp3
 70
     0
102
RTVSPropertyOp4
 70
     0
102
RTVSPropertyOp5
 70
     0
102
RTVSPropertyOp6
 70
     0
102
RTVSPropertyOp7
 70
     0
102
RTVSPropertyOp8
 70
     0
102
RTVSPropertyOp9
 70
     0
102
RTVSPropertyOp10
 70
     0
102
RTVSPropertyOp11
 70
     0
102
RTVSPropertyOp12
 70
     0
102
RTVSPropertyOp13
 70
     0
102
RTVSPropertyOp14
 70
     2
102
RTVSPropertyOp15
 70
     0
102
RTVSPropertyOp16
 70
     0
102
RTVSPropertyOp17
 70
     0
102
RTVSPropertyOp18
 70
     0
102
RTVSPropertyOp19
 70
     0
102
RTVSPropertyOp20
 70
     0
102
RTVSPropertyOp21
 70
     0
102
RTVSPropertyOp22
 70
     0
102
RTVSPropertyOp23
 70
     0
102
RTVSPropertyOp24
 70
     0
102
RTVSPropertyOp25
 70
     0
102
RTVSPropertyOp26
 70
     0
102
RTVSPropertyOp27
 70
     0
  0
XRECORD
  5
1E78
102
{ACAD_REACTORS
330
1E77
102
}
330
1E77
100
AcDbXrecord
280
     1
102
RTVSPropertyOp0
 70
     1
102
RTVSPropertyOp1
 70
     1
102
RTVSPropertyOp2
 70
     1
102
RTVSPropertyOp3
 70
     1
102
RTVSPropertyOp4
 70
     1
102
RTVSPropertyOp5
 70
     1
102
RTVSPropertyOp6
 70
     1
102
RTVSPropertyOp7
 70
     1
102
RTVSPropertyOp8
 70
     1
102
RTVSPropertyOp9
 70
     1
102
RTVSPropertyOp10
 70
     1
102
RTVSPropertyOp11
 70
     1
102
RTVSPropertyOp12
 70
     1
102
RTVSPropertyOp13
 70
     1
102
RTVSPropertyOp14
 70
     1
102
RTVSPropertyOp15
 70
     1
102
RTVSPropertyOp16
 70
     1
102
RTVSPropertyOp17
 70
     1
102
RTVSPropertyOp18
 70
     1
102
RTVSPropertyOp19
 70
     1
102
RTVSPropertyOp20
 70
     1
102
RTVSPropertyOp21
 70
     1
102
RTVSPropertyOp22
 70
     1
102
RTVSPropertyOp23
 70
     1
102
RTVSPropertyOp24
 70
     1
102
RTVSPropertyOp25
 70
     1
102
RTVSPropertyOp26
 70
     1
102
RTVSPropertyOp27
 70
     1
  0
XRECORD
  5
1E5C
102
{ACAD_REACTORS
330
1E5B
102
}
330
1E5B
100
AcDbXrecord
280
     1
102
RTVSPropertyOp0
 70
     1
102
RTVSPropertyOp1
 70
     1
102
RTVSPropertyOp2
 70
     1
102
RTVSPropertyOp3
 70
     1
102
RTVSPropertyOp4
 70
     1
102
RTVSPropertyOp5
 70
     1
102
RTVSPropertyOp6
 70
     1
102
RTVSPropertyOp7
 70
     1
102
RTVSPropertyOp8
 70
     1
102
RTVSPropertyOp9
 70
     1
102
RTVSPropertyOp10
 70
     1
102
RTVSPropertyOp11
 70
     1
102
RTVSPropertyOp12
 70
     1
102
RTVSPropertyOp13
 70
     1
102
RTVSPropertyOp14
 70
     1
102
RTVSPropertyOp15
 70
     1
102
RTVSPropertyOp16
 70
     1
102
RTVSPropertyOp17
 70
     1
102
RTVSPropertyOp18
 70
     1
102
RTVSPropertyOp19
 70
     1
102
RTVSPropertyOp20
 70
     1
102
RTVSPropertyOp21
 70
     1
102
RTVSPropertyOp22
 70
     1
102
RTVSPropertyOp23
 70
     1
102
RTVSPropertyOp24
 70
     1
102
RTVSPropertyOp25
 70
     1
102
RTVSPropertyOp26
 70
     1
102
RTVSPropertyOp27
 70
     1
  0
XRECORD
  5
1E5E
102
{ACAD_REACTORS
330
1E5D
102
}
330
1E5D
100
AcDbXrecord
280
     1
102
RTVSPropertyOp0
 70
     1
102
RTVSPropertyOp1
 70
     1
102
RTVSPropertyOp2
 70
     1
102
RTVSPropertyOp3
 70
     1
102
RTVSPropertyOp4
 70
     1
102
RTVSPropertyOp5
 70
     1
102
RTVSPropertyOp6
 70
     1
102
RTVSPropertyOp7
 70
     1
102
RTVSPropertyOp8
 70
     1
102
RTVSPropertyOp9
 70
     1
102
RTVSPropertyOp10
 70
     1
102
RTVSPropertyOp11
 70
     1
102
RTVSPropertyOp12
 70
     1
102
RTVSPropertyOp13
 70
     1
102
RTVSPropertyOp14
 70
     1
102
RTVSPropertyOp15
 70
     1
102
RTVSPropertyOp16
 70
     1
102
RTVSPropertyOp17
 70
     1
102
RTVSPropertyOp18
 70
     1
102
RTVSPropertyOp19
 70
     1
102
RTVSPropertyOp20
 70
     1
102
RTVSPropertyOp21
 70
     1
102
RTVSPropertyOp22
 70
     1
102
RTVSPropertyOp23
 70
     1
102
RTVSPropertyOp24
 70
     1
102
RTVSPropertyOp25
 70
     1
102
RTVSPropertyOp26
 70
     1
102
RTVSPropertyOp27
 70
     1
  0
XRECORD
  5
1E60
102
{ACAD_REACTORS
330
1E5F
102
}
330
1E5F
100
AcDbXrecord
280
     1
102
RTVSPropertyOp0
 70
     1
102
RTVSPropertyOp1
 70
     1
102
RTVSPropertyOp2
 70
     1
102
RTVSPropertyOp3
 70
     1
102
RTVSPropertyOp4
 70
     1
102
RTVSPropertyOp5
 70
     1
102
RTVSPropertyOp6
 70
     1
102
RTVSPropertyOp7
 70
     1
102
RTVSPropertyOp8
 70
     1
102
RTVSPropertyOp9
 70
     1
102
RTVSPropertyOp10
 70
     1
102
RTVSPropertyOp11
 70
     1
102
RTVSPropertyOp12
 70
     1
102
RTVSPropertyOp13
 70
     1
102
RTVSPropertyOp14
 70
     1
102
RTVSPropertyOp15
 70
     1
102
RTVSPropertyOp16
 70
     1
102
RTVSPropertyOp17
 70
     1
102
RTVSPropertyOp18
 70
     1
102
RTVSPropertyOp19
 70
     1
102
RTVSPropertyOp20
 70
     1
102
RTVSPropertyOp21
 70
     1
102
RTVSPropertyOp22
 70
     1
102
RTVSPropertyOp23
 70
     1
102
RTVSPropertyOp24
 70
     1
102
RTVSPropertyOp25
 70
     1
102
RTVSPropertyOp26
 70
     1
102
RTVSPropertyOp27
 70
     1
  0
XRECORD
  5
1E62
102
{ACAD_REACTORS
330
1E61
102
}
330
1E61
100
AcDbXrecord
280
     1
102
RTVSPropertyOp0
 70
     1
102
RTVSPropertyOp1
 70
     1
102
RTVSPropertyOp2
 70
     1
102
RTVSPropertyOp3
 70
     1
102
RTVSPropertyOp4
 70
     1
102
RTVSPropertyOp5
 70
     1
102
RTVSPropertyOp6
 70
     1
102
RTVSPropertyOp7
 70
     1
102
RTVSPropertyOp8
 70
     1
102
RTVSPropertyOp9
 70
     1
102
RTVSPropertyOp10
 70
     1
102
RTVSPropertyOp11
 70
     1
102
RTVSPropertyOp12
 70
     1
102
RTVSPropertyOp13
 70
     1
102
RTVSPropertyOp14
 70
     1
102
RTVSPropertyOp15
 70
     1
102
RTVSPropertyOp16
 70
     1
102
RTVSPropertyOp17
 70
     1
102
RTVSPropertyOp18
 70
     1
102
RTVSPropertyOp19
 70
     1
102
RTVSPropertyOp20
 70
     1
102
RTVSPropertyOp21
 70
     1
102
RTVSPropertyOp22
 70
     1
102
RTVSPropertyOp23
 70
     1
102
RTVSPropertyOp24
 70
     1
102
RTVSPropertyOp25
 70
     1
102
RTVSPropertyOp26
 70
     1
102
RTVSPropertyOp27
 70
     1
  0
XRECORD
  5
1E7C
102
{ACAD_REACTORS
330
1E7B
102
}
330
1E7B
100
AcDbXrecord
280
     1
102
RTVSPropertyOp0
 70
     0
102
RTVSPropertyOp1
 70
     0
102
RTVSPropertyOp2
 70
     0
102
RTVSPropertyOp3
 70
     0
102
RTVSPropertyOp4
 70
     0
102
RTVSPropertyOp5
 70
     0
102
RTVSPropertyOp6
 70
     0
102
RTVSPropertyOp7
 70
     0
102
RTVSPropertyOp8
 70
     0
102
RTVSPropertyOp9
 70
     0
102
RTVSPropertyOp10
 70
     0
102
RTVSPropertyOp11
 70
     0
102
RTVSPropertyOp12
 70
     0
102
RTVSPropertyOp13
 70
     0
102
RTVSPropertyOp14
 70
     2
102
RTVSPropertyOp15
 70
     0
102
RTVSPropertyOp16
 70
     0
102
RTVSPropertyOp17
 70
     0
102
RTVSPropertyOp18
 70
     0
102
RTVSPropertyOp19
 70
     0
102
RTVSPropertyOp20
 70
     0
102
RTVSPropertyOp21
 70
     0
102
RTVSPropertyOp22
 70
     0
102
RTVSPropertyOp23
 70
     0
102
RTVSPropertyOp24
 70
     0
102
RTVSPropertyOp25
 70
     0
102
RTVSPropertyOp26
 70
     0
102
RTVSPropertyOp27
 70
     0
  0
XRECORD
  5
1E76
102
{ACAD_REACTORS
330
1E75
102
}
330
1E75
100
AcDbXrecord
280
     1
102
RTVSPropertyOp0
 70
     1
102
RTVSPropertyOp1
 70
     1
102
RTVSPropertyOp2
 70
     1
102
RTVSPropertyOp3
 70
     1
102
RTVSPropertyOp4
 70
     1
102
RTVSPropertyOp5
 70
     1
102
RTVSPropertyOp6
 70
     1
102
RTVSPropertyOp7
 70
     1
102
RTVSPropertyOp8
 70
     1
102
RTVSPropertyOp9
 70
     1
102
RTVSPropertyOp10
 70
     1
102
RTVSPropertyOp11
 70
     1
102
RTVSPropertyOp12
 70
     1
102
RTVSPropertyOp13
 70
     1
102
RTVSPropertyOp14
 70
     1
102
RTVSPropertyOp15
 70
     1
102
RTVSPropertyOp16
 70
     1
102
RTVSPropertyOp17
 70
     1
102
RTVSPropertyOp18
 70
     1
102
RTVSPropertyOp19
 70
     1
102
RTVSPropertyOp20
 70
     1
102
RTVSPropertyOp21
 70
     1
102
RTVSPropertyOp22
 70
     1
102
RTVSPropertyOp23
 70
     1
102
RTVSPropertyOp24
 70
     1
102
RTVSPropertyOp25
 70
     1
102
RTVSPropertyOp26
 70
     1
102
RTVSPropertyOp27
 70
     1
  0
XRECORD
  5
1E7E
102
{ACAD_REACTORS
330
1E7D
102
}
330
1E7D
100
AcDbXrecord
280
     1
102
RTVSPropertyOp0
 70
     0
102
RTVSPropertyOp1
 70
     0
102
RTVSPropertyOp2
 70
     0
102
RTVSPropertyOp3
 70
     0
102
RTVSPropertyOp4
 70
     0
102
RTVSPropertyOp5
 70
     0
102
RTVSPropertyOp6
 70
     0
102
RTVSPropertyOp7
 70
     0
102
RTVSPropertyOp8
 70
     0
102
RTVSPropertyOp9
 70
     0
102
RTVSPropertyOp10
 70
     0
102
RTVSPropertyOp11
 70
     0
102
RTVSPropertyOp12
 70
     0
102
RTVSPropertyOp13
 70
     0
102
RTVSPropertyOp14
 70
     2
102
RTVSPropertyOp15
 70
     0
102
RTVSPropertyOp16
 70
     0
102
RTVSPropertyOp17
 70
     0
102
RTVSPropertyOp18
 70
     0
102
RTVSPropertyOp19
 70
     0
102
RTVSPropertyOp20
 70
     0
102
RTVSPropertyOp21
 70
     0
102
RTVSPropertyOp22
 70
     0
102
RTVSPropertyOp23
 70
     0
102
RTVSPropertyOp24
 70
     0
102
RTVSPropertyOp25
 70
     0
102
RTVSPropertyOp26
 70
     0
102
RTVSPropertyOp27
 70
     0
  0
XRECORD
  5
1E6E
102
{ACAD_REACTORS
330
1E6D
102
}
330
1E6D
100
AcDbXrecord
280
     1
102
RTVSPropertyOp0
 70
     1
102
RTVSPropertyOp1
 70
     1
102
RTVSPropertyOp2
 70
     1
102
RTVSPropertyOp3
 70
     1
102
RTVSPropertyOp4
 70
     1
102
RTVSPropertyOp5
 70
     1
102
RTVSPropertyOp6
 70
     1
102
RTVSPropertyOp7
 70
     1
102
RTVSPropertyOp8
 70
     1
102
RTVSPropertyOp9
 70
     1
102
RTVSPropertyOp10
 70
     1
102
RTVSPropertyOp11
 70
     1
102
RTVSPropertyOp12
 70
     1
102
RTVSPropertyOp13
 70
     1
102
RTVSPropertyOp14
 70
     1
102
RTVSPropertyOp15
 70
     1
102
RTVSPropertyOp16
 70
     1
102
RTVSPropertyOp17
 70
     1
102
RTVSPropertyOp18
 70
     1
102
RTVSPropertyOp19
 70
     1
102
RTVSPropertyOp20
 70
     1
102
RTVSPropertyOp21
 70
     1
102
RTVSPropertyOp22
 70
     1
102
RTVSPropertyOp23
 70
     1
102
RTVSPropertyOp24
 70
     1
102
RTVSPropertyOp25
 70
     1
102
RTVSPropertyOp26
 70
     1
102
RTVSPropertyOp27
 70
     1
  0
XRECORD
  5
1E74
102
{ACAD_REACTORS
330
1E73
102
}
330
1E73
100
AcDbXrecord
280
     1
102
RTVSPropertyOp0
 70
     1
102
RTVSPropertyOp1
 70
     1
102
RTVSPropertyOp2
 70
     1
102
RTVSPropertyOp3
 70
     1
102
RTVSPropertyOp4
 70
     1
102
RTVSPropertyOp5
 70
     1
102
RTVSPropertyOp6
 70
     1
102
RTVSPropertyOp7
 70
     1
102
RTVSPropertyOp8
 70
     1
102
RTVSPropertyOp9
 70
     1
102
RTVSPropertyOp10
 70
     1
102
RTVSPropertyOp11
 70
     1
102
RTVSPropertyOp12
 70
     1
102
RTVSPropertyOp13
 70
     1
102
RTVSPropertyOp14
 70
     1
102
RTVSPropertyOp15
 70
     1
102
RTVSPropertyOp16
 70
     1
102
RTVSPropertyOp17
 70
     1
102
RTVSPropertyOp18
 70
     1
102
RTVSPropertyOp19
 70
     1
102
RTVSPropertyOp20
 70
     1
102
RTVSPropertyOp21
 70
     1
102
RTVSPropertyOp22
 70
     1
102
RTVSPropertyOp23
 70
     1
102
RTVSPropertyOp24
 70
     1
102
RTVSPropertyOp25
 70
     1
102
RTVSPropertyOp26
 70
     1
102
RTVSPropertyOp27
 70
     1
  0
ENDSEC
  0
EOF
