  0
SECTION
  2
HEADER
  9
$ACADVER
  1
AC1018
  9
$ACADMAINTVER
 70
   104
  9
$DWGCODEPAGE
  3
ANSI_1252
  9
$LASTSAVEDBY
  1
francoisbu
  9
$INSBASE
 10
0.0
 20
0.0
 30
0.0
  9
$EXTMIN
 10
11.5526930704
 20
59.6372556347
 30
0.0
  9
$EXTMAX
 10
86.6827901577
 20
95.63645886999999
 30
0.0
  9
$LIMMIN
 10
0.0
 20
0.0
  9
$LIMMAX
 10
181.3333333333
 20
117.3333333333
  9
$ORTHOMODE
 70
     0
  9
$REGENMODE
 70
     1
  9
$FILLMODE
 70
     1
  9
$QTEXTMODE
 70
     0
  9
$MIRRTEXT
 70
     0
  9
$LTSCALE
 40
9.973333333300001
  9
$ATTMODE
 70
     1
  9
$TEXTSIZE
 40
0.2
  9
$TRACEWID
 40
0.05
  9
$TEXTSTYLE
  7
STANDARD
  9
$CLAYER
  8
0
  9
$CELTYPE
  6
BYLAYER
  9
$CECOLOR
 62
   256
  9
$CELTSCALE
 40
1.0
  9
$DISPSILH
 70
     0
  9
$DIMSCALE
 40
1.0
  9
$DIMASZ
 40
2.0
  9
$DIMEXO
 40
0.0625
  9
$DIMDLI
 40
6.890666666699999
  9
$DIMRND
 40
0.0
  9
$DIMDLE
 40
0.0
  9
$DIMEXE
 40
0.125
  9
$DIMTP
 40
0.00001
  9
$DIMTM
 40
0.00001
  9
$DIMTXT
 40
1.333333333299999
  9
$DIMCEN
 40
1.631999999999999
  9
$DIMTSZ
 40
0.0
  9
$DIMTOL
 70
     1
  9
$DIMLIM
 70
     0
  9
$DIMTIH
 70
     1
  9
$DIMTOH
 70
     1
  9
$DIMSE1
 70
     0
  9
$DIMSE2
 70
     0
  9
$DIMTAD
 70
     0
  9
$DIMZIN
 70
     0
  9
$DIMBLK
  1
_FILLED
  9
$DIMASO
 70
     1
  9
$DIMSHO
 70
     1
  9
$DIMPOST
  1

  9
$DIMAPOST
  1

  9
$DIMALT
 70
     0
  9
$DIMALTD
 70
     2
  9
$DIMALTF
 40
25.4
  9
$DIMLFAC
 40
1.0
  9
$DIMTOFL
 70
     0
  9
$DIMTVP
 40
0.0
  9
$DIMTIX
 70
     0
  9
$DIMSOXD
 70
     0
  9
$DIMSAH
 70
     0
  9
$DIMBLK1
  1

  9
$DIMBLK2
  1

  9
$DIMSTYLE
  2
STANDARD
  9
$DIMCLRD
 70
     0
  9
$DIMCLRE
 70
     0
  9
$DIMCLRT
 70
     0
  9
$DIMTFAC
 40
1.0
  9
$DIMGAP
 40
0.09
  9
$DIMJUST
 70
     0
  9
$DIMSD1
 70
     0
  9
$DIMSD2
 70
     0
  9
$DIMTOLJ
 70
     1
  9
$DIMTZIN
 70
     0
  9
$DIMALTZ
 70
     0
  9
$DIMALTTZ
 70
     0
  9
$DIMUPT
 70
     0
  9
$DIMDEC
 70
     4
  9
$DIMTDEC
 70
     4
  9
$DIMALTU
 70
     2
  9
$DIMALTTD
 70
     2
  9
$DIMTXSTY
  7
STANDARD
  9
$DIMAUNIT
 70
     0
  9
$DIMADEC
 70
     0
  9
$DIMALTRND
 40
0.0
  9
$DIMAZIN
 70
     0
  9
$DIMDSEP
 70
    46
  9
$DIMATFIT
 70
     3
  9
$DIMFRAC
 70
     0
  9
$DIMLDRBLK
  1

  9
$DIMLUNIT
 70
     2
  9
$DIMLWD
 70
    -2
  9
$DIMLWE
 70
    -2
  9
$DIMTMOVE
 70
     0
  9
$LUNITS
 70
     2
  9
$LUPREC
 70
     4
  9
$SKETCHINC
 40
0.1
  9
$FILLETRAD
 40
0.0
  9
$AUNITS
 70
     0
  9
$AUPREC
 70
     0
  9
$MENU
  1
.
  9
$ELEVATION
 40
0.0
  9
$PELEVATION
 40
0.0
  9
$THICKNESS
 40
0.0
  9
$LIMCHECK
 70
     0
  9
$CHAMFERA
 40
0.0
  9
$CHAMFERB
 40
0.0
  9
$CHAMFERC
 40
0.0
  9
$CHAMFERD
 40
0.0
  9
$SKPOLY
 70
     0
  9
$TDCREATE
 40
2457498.493016435
  9
$TDUCREATE
 40
2457498.659683102
  9
$TDUPDATE
 40
2457498.536649641
  9
$TDUUPDATE
 40
2457498.703316308
  9
$TDINDWG
 40
0.0015960185
  9
$TDUSRTIMER
 40
0.0015960185
  9
$USRTIMER
 70
     1
  9
$ANGBASE
 50
0.0
  9
$ANGDIR
 70
     0
  9
$PDMODE
 70
     3
  9
$PDSIZE
 40
0.03125
  9
$PLINEWID
 40
0.0
  9
$SPLFRAME
 70
     0
  9
$SPLINETYPE
 70
     6
  9
$SPLINESEGS
 70
     8
  9
$HANDSEED
  5
1744
  9
$SURFTAB1
 70
     6
  9
$SURFTAB2
 70
     6
  9
$SURFTYPE
 70
     6
  9
$SURFU
 70
     6
  9
$SURFV
 70
     6
  9
$UCSBASE
  2

  9
$UCSNAME
  2

  9
$UCSORG
 10
0.0
 20
0.0
 30
0.0
  9
$UCSXDIR
 10
1.0
 20
0.0
 30
0.0
  9
$UCSYDIR
 10
0.0
 20
1.0
 30
0.0
  9
$UCSORTHOREF
  2

  9
$UCSORTHOVIEW
 70
     0
  9
$UCSORGTOP
 10
0.0
 20
0.0
 30
0.0
  9
$UCSORGBOTTOM
 10
0.0
 20
0.0
 30
0.0
  9
$UCSORGLEFT
 10
0.0
 20
0.0
 30
0.0
  9
$UCSORGRIGHT
 10
0.0
 20
0.0
 30
0.0
  9
$UCSORGFRONT
 10
0.0
 20
0.0
 30
0.0
  9
$UCSORGBACK
 10
0.0
 20
0.0
 30
0.0
  9
$PUCSBASE
  2

  9
$PUCSNAME
  2

  9
$PUCSORG
 10
0.0
 20
0.0
 30
0.0
  9
$PUCSXDIR
 10
1.0
 20
0.0
 30
0.0
  9
$PUCSYDIR
 10
0.0
 20
1.0
 30
0.0
  9
$PUCSORTHOREF
  2

  9
$PUCSORTHOVIEW
 70
     0
  9
$PUCSORGTOP
 10
0.0
 20
0.0
 30
0.0
  9
$PUCSORGBOTTOM
 10
0.0
 20
0.0
 30
0.0
  9
$PUCSORGLEFT
 10
0.0
 20
0.0
 30
0.0
  9
$PUCSORGRIGHT
 10
0.0
 20
0.0
 30
0.0
  9
$PUCSORGFRONT
 10
0.0
 20
0.0
 30
0.0
  9
$PUCSORGBACK
 10
0.0
 20
0.0
 30
0.0
  9
$USERI1
 70
     0
  9
$USERI2
 70
     0
  9
$USERI3
 70
     0
  9
$USERI4
 70
     0
  9
$USERI5
 70
     0
  9
$USERR1
 40
0.0
  9
$USERR2
 40
0.0
  9
$USERR3
 40
0.0
  9
$USERR4
 40
0.0
  9
$USERR5
 40
0.0
  9
$WORLDVIEW
 70
     1
  9
$SHADEDGE
 70
     3
  9
$SHADEDIF
 70
    70
  9
$TILEMODE
 70
     1
  9
$MAXACTVP
 70
    64
  9
$PINSBASE
 10
0.0
 20
0.0
 30
0.0
  9
$PLIMCHECK
 70
     0
  9
$PEXTMIN
 10
1.000000000000000E+20
 20
1.000000000000000E+20
 30
1.000000000000000E+20
  9
$PEXTMAX
 10
-1.000000000000000E+20
 20
-1.000000000000000E+20
 30
-1.000000000000000E+20
  9
$PLIMMIN
 10
0.0
 20
0.0
  9
$PLIMMAX
 10
12.0
 20
9.0
  9
$UNITMODE
 70
     0
  9
$VISRETAIN
 70
     1
  9
$PLINEGEN
 70
     0
  9
$PSLTSCALE
 70
     1
  9
$TREEDEPTH
 70
  3020
  9
$CMLSTYLE
  2
Standard
  9
$CMLJUST
 70
     0
  9
$CMLSCALE
 40
1.0
  9
$PROXYGRAPHICS
 70
     1
  9
$MEASUREMENT
 70
     0
  9
$CELWEIGHT
370
    -1
  9
$ENDCAPS
280
     0
  9
$JOINSTYLE
280
     0
  9
$LWDISPLAY
290
     0
  9
$INSUNITS
 70
     1
  9
$HYPERLINKBASE
  1

  9
$STYLESHEET
  1

  9
$XEDIT
290
     1
  9
$CEPSNTYPE
380
     0
  9
$PSTYLEMODE
290
     1
  9
$FINGERPRINTGUID
  2
{C809E7A1-8C45-4305-ADBB-385DD0A04F1C}
  9
$VERSIONGUID
  2
{64430A4F-E137-478F-982E-0A69DFE01616}
  9
$EXTNAMES
290
     1
  9
$PSVPSCALE
 40
0.0
  9
$OLESTARTUP
290
     0
  9
$SORTENTS
280
   127
  9
$INDEXCTL
280
     0
  9
$HIDETEXT
280
     0
  9
$XCLIPFRAME
290
     0
  9
$HALOGAP
280
     0
  9
$OBSCOLOR
 70
   257
  9
$OBSLTYPE
280
     0
  9
$INTERSECTIONDISPLAY
280
     0
  9
$INTERSECTIONCOLOR
 70
   257
  9
$DIMASSOC
280
     1
  9
$PROJECTNAME
  1

  0
ENDSEC
  0
SECTION
  2
CLASSES
  0
CLASS
  1
ACDBDICTIONARYWDFLT
  2
AcDbDictionaryWithDefault
  3
ObjectDBX Classes
 90
        0
 91
        1
280
     0
281
     0
  0
CLASS
  1
ACDBPLACEHOLDER
  2
AcDbPlaceHolder
  3
ObjectDBX Classes
 90
        0
 91
        1
280
     0
281
     0
  0
CLASS
  1
LAYOUT
  2
AcDbLayout
  3
ObjectDBX Classes
 90
        0
 91
        2
280
     0
281
     0
  0
CLASS
  1
MATERIAL
  2
AcDbMaterial
  3
ObjectDBX Classes
 90
     1153
 91
        3
280
     0
281
     0
  0
CLASS
  1
VISUALSTYLE
  2
AcDbVisualStyle
  3
ObjectDBX Classes
 90
     4095
 91
       26
280
     0
281
     0
  0
CLASS
  1
TABLESTYLE
  2
AcDbTableStyle
  3
ObjectDBX Classes
 90
     4095
 91
        1
280
     0
281
     0
  0
CLASS
  1
SCALE
  2
AcDbScale
  3
ObjectDBX Classes
 90
     1153
 91
       17
280
     0
281
     0
  0
CLASS
  1
MLEADERSTYLE
  2
AcDbMLeaderStyle
  3
ACDB_MLEADERSTYLE_CLASS
 90
     4095
 91
        1
280
     0
281
     0
  0
CLASS
  1
ACDBSECTIONVIEWSTYLE
  2
AcDbSectionViewStyle
  3
ObjectDBX Classes
 90
     1025
 91
        2
280
     0
281
     0
  0
CLASS
  1
ACDBDETAILVIEWSTYLE
  2
AcDbDetailViewStyle
  3
ObjectDBX Classes
 90
     1025
 91
        2
280
     0
281
     0
  0
CLASS
  1
CELLSTYLEMAP
  2
AcDbCellStyleMap
  3
ObjectDBX Classes
 90
     1152
 91
        2
280
     0
281
     0
  0
CLASS
  1
DICTIONARYVAR
  2
AcDbDictionaryVar
  3
ObjectDBX Classes
 90
        0
 91
        9
280
     0
281
     0
  0
ENDSEC
  0
SECTION
  2
TABLES
  0
TABLE
  2
VPORT
  5
8
102
{ACAD_XDICTIONARY
360
16B4
102
}
330
0
100
AcDbSymbolTable
 70
     1
  0
VPORT
  5
1F4
330
8
100
AcDbSymbolTableRecord
100
AcDbViewportTableRecord
  2
*ACTIVE
 70
     0
 10
0.0
 20
0.0
 11
1.0
 21
1.0
 12
50.44012408767592
 22
77.63557972233198
 13
0.0
 23
0.0
 14
1.0
 24
1.0
 15
0.0
 25
0.0
 16
0.0
 26
0.0
 36
1.0
 17
0.0
 27
0.0
 37
0.0
 40
36.42098496457294
 41
1.9527950310559
 42
50.0
 43
0.0
 44
0.0
 50
0.0
 51
0.0
 71
     0
 72
   100
 73
     1
 74
     1
 75
     0
 76
     0
 77
     0
 78
     0
281
     0
 65
     1
110
0.0
120
0.0
130
0.0
111
1.0
121
0.0
131
0.0
112
0.0
122
1.0
132
0.0
 79
     0
146
0.0
  0
ENDTAB
  0
TABLE
  2
LTYPE
  5
5
330
0
100
AcDbSymbolTable
 70
     7
  0
LTYPE
  5
14
330
5
100
AcDbSymbolTableRecord
100
AcDbLinetypeTableRecord
  2
BYBLOCK
 70
     0
  3

 72
    65
 73
     0
 40
0.0
  0
LTYPE
  5
15
330
5
100
AcDbSymbolTableRecord
100
AcDbLinetypeTableRecord
  2
BYLAYER
 70
     0
  3

 72
    65
 73
     0
 40
0.0
  0
LTYPE
  5
16
330
5
100
AcDbSymbolTableRecord
100
AcDbLinetypeTableRecord
  2
CONTINUOUS
 70
     0
  3
Solid line
 72
    65
 73
     0
 40
0.0
  0
LTYPE
  5
1F5
330
5
100
AcDbSymbolTableRecord
100
AcDbLinetypeTableRecord
  2
CENTER
 70
     0
  3
____ _ ____ _ ____ _ ____ _ ____ _ ____ _ ____
 72
    65
 73
     4
 40
0.6
 49
0.375
 74
     0
 49
-0.075
 74
     0
 49
0.075
 74
     0
 49
-0.075
 74
     0
  0
LTYPE
  5
1F6
330
5
100
AcDbSymbolTableRecord
100
AcDbLinetypeTableRecord
  2
HIDDEN
 70
     0
  3
- - - - - - - - - - - - - - - - - - - -
 72
    65
 73
     2
 40
0.2
 49
0.1
 74
     0
 49
-0.1
 74
     0
  0
LTYPE
  5
1F7
330
5
100
AcDbSymbolTableRecord
100
AcDbLinetypeTableRecord
  2
PHANTOM
 70
     0
  3
_____ _ _ _____ _ _ _____ _ _ _____
 72
    65
 73
     6
 40
0.8
 49
0.45
 74
     0
 49
-0.05
 74
     0
 49
0.1
 74
     0
 49
-0.05
 74
     0
 49
0.1
 74
     0
 49
-0.05
 74
     0
  0
LTYPE
  5
1F8
330
5
100
AcDbSymbolTableRecord
100
AcDbLinetypeTableRecord
  2
DOT
 70
     0
  3
. . . . . . . . . . . . . . . . . . . .
 72
    65
 73
     2
 40
0.2
 49
0.1
 74
     0
 49
-0.1
 74
     0
  0
LTYPE
  5
1F9
330
5
100
AcDbSymbolTableRecord
100
AcDbLinetypeTableRecord
  2
DASHED
 70
     0
  3
- - - - - - - - - - - - - - - - - - - -
 72
    65
 73
     2
 40
0.2
 49
0.1
 74
     0
 49
-0.1
 74
     0
  0
LTYPE
  5
16AD
330
5
100
AcDbSymbolTableRecord
100
AcDbLinetypeTableRecord
  2
PHANTOM2
 70
     0
  3
___ _ _ ___ _ _ ___ _ _ ___ _ _
 72
    65
 73
     6
 40
1.25
 49
0.625
 74
     0
 49
-0.125
 74
     0
 49
0.125
 74
     0
 49
-0.125
 74
     0
 49
0.125
 74
     0
 49
-0.125
 74
     0
  0
ENDTAB
  0
TABLE
  2
LAYER
  5
2
330
0
100
AcDbSymbolTable
 70
    21
  0
LAYER
  5
10
102
{ACAD_XDICTIONARY
360
1703
102
}
330
2
100
AcDbSymbolTableRecord
100
AcDbLayerTableRecord
  2
0
 70
     0
 62
     7
  6
CONTINUOUS
370
    -3
390
F
  0
LAYER
  5
1FA
102
{ACAD_XDICTIONARY
360
1705
102
}
330
2
100
AcDbSymbolTableRecord
100
AcDbLayerTableRecord
  2
DEFAULT_1
 70
     0
 62
     7
  6
CENTER
370
    -3
390
F
  0
LAYER
  5
1FB
102
{ACAD_XDICTIONARY
360
1707
102
}
330
2
100
AcDbSymbolTableRecord
100
AcDbLayerTableRecord
  2
DEFAULT_2
 70
     0
 62
     7
  6
HIDDEN
370
    -3
390
F
  0
LAYER
  5
1FC
102
{ACAD_XDICTIONARY
360
1709
102
}
330
2
100
AcDbSymbolTableRecord
100
AcDbLayerTableRecord
  2
DEFAULT_3
 70
     0
 62
     7
  6
PHANTOM
370
    -3
390
F
  0
LAYER
  5
1FD
102
{ACAD_XDICTIONARY
360
170B
102
}
330
2
100
AcDbSymbolTableRecord
100
AcDbLayerTableRecord
  2
1_CURVES
 70
     0
 62
     7
  6
CONTINUOUS
370
    -3
390
F
  0
LAYER
  5
1FE
102
{ACAD_XDICTIONARY
360
170D
102
}
330
2
100
AcDbSymbolTableRecord
100
AcDbLayerTableRecord
  2
1_CURVES_JETS
 70
     0
 62
     7
  6
CONTINUOUS
370
    -3
390
F
  0
LAYER
  5
1FF
102
{ACAD_XDICTIONARY
360
170F
102
}
330
2
100
AcDbSymbolTableRecord
100
AcDbLayerTableRecord
  2
1_CURVES_SPEC_FRONT
 70
     0
 62
     7
  6
CONTINUOUS
370
    -3
390
F
  0
LAYER
  5
200
102
{ACAD_XDICTIONARY
360
1711
102
}
330
2
100
AcDbSymbolTableRecord
100
AcDbLayerTableRecord
  2
1_CURVES_SPEC_RIGHT
 70
     0
 62
     7
  6
CONTINUOUS
370
    -3
390
F
  0
LAYER
  5
201
102
{ACAD_XDICTIONARY
360
1713
102
}
330
2
100
AcDbSymbolTableRecord
100
AcDbLayerTableRecord
  2
2_PLANES
 70
     0
 62
     7
  6
CONTINUOUS
370
    -3
390
F
  0
LAYER
  5
202
102
{ACAD_XDICTIONARY
360
1715
102
}
330
2
100
AcDbSymbolTableRecord
100
AcDbLayerTableRecord
  2
2_PLANES_JETS
 70
     0
 62
     7
  6
CONTINUOUS
370
    -3
390
F
  0
LAYER
  5
203
102
{ACAD_XDICTIONARY
360
1717
102
}
330
2
100
AcDbSymbolTableRecord
100
AcDbLayerTableRecord
  2
3_POINTS
 70
     0
 62
     7
  6
CONTINUOUS
370
    -3
390
F
  0
LAYER
  5
204
102
{ACAD_XDICTIONARY
360
1719
102
}
330
2
100
AcDbSymbolTableRecord
100
AcDbLayerTableRecord
  2
3_POINTS_JETS
 70
     0
 62
     7
  6
CONTINUOUS
370
    -3
390
F
  0
LAYER
  5
205
102
{ACAD_XDICTIONARY
360
171B
102
}
330
2
100
AcDbSymbolTableRecord
100
AcDbLayerTableRecord
  2
4_CSYS
 70
     0
 62
     7
  6
CONTINUOUS
370
    -3
390
F
  0
LAYER
  5
206
102
{ACAD_XDICTIONARY
360
171D
102
}
330
2
100
AcDbSymbolTableRecord
100
AcDbLayerTableRecord
  2
5_AXIS
 70
     0
 62
     7
  6
CONTINUOUS
370
    -3
390
F
  0
LAYER
  5
207
102
{ACAD_XDICTIONARY
360
171F
102
}
330
2
100
AcDbSymbolTableRecord
100
AcDbLayerTableRecord
  2
5_AXIS_JETS
 70
     0
 62
     7
  6
CONTINUOUS
370
    -3
390
F
  0
LAYER
  5
208
102
{ACAD_XDICTIONARY
360
1721
102
}
330
2
100
AcDbSymbolTableRecord
100
AcDbLayerTableRecord
  2
6_SURFACES
 70
     0
 62
     7
  6
CONTINUOUS
370
    -3
390
F
  0
LAYER
  5
209
102
{ACAD_XDICTIONARY
360
1723
102
}
330
2
100
AcDbSymbolTableRecord
100
AcDbLayerTableRecord
  2
6_SURFACES-OFFSET_FIBRE
 70
     0
 62
     7
  6
CONTINUOUS
370
    -3
390
F
  0
LAYER
  5
20A
102
{ACAD_XDICTIONARY
360
1725
102
}
330
2
100
AcDbSymbolTableRecord
100
AcDbLayerTableRecord
  2
6_SURFACES_TOOLING
 70
     0
 62
     7
  6
CONTINUOUS
370
    -3
390
F
  0
LAYER
  5
20B
102
{ACAD_XDICTIONARY
360
1727
102
}
330
2
100
AcDbSymbolTableRecord
100
AcDbLayerTableRecord
  2
7_NOTES
 70
     0
 62
     7
  6
CONTINUOUS
370
    -3
390
F
  0
LAYER
  5
20C
102
{ACAD_XDICTIONARY
360
1729
102
}
330
2
100
AcDbSymbolTableRecord
100
AcDbLayerTableRecord
  2
9-COMPONENTS
 70
     0
 62
     7
  6
CONTINUOUS
370
    -3
390
F
  0
LAYER
  5
20D
102
{ACAD_XDICTIONARY
360
172B
102
}
330
2
100
AcDbSymbolTableRecord
100
AcDbLayerTableRecord
  2
XSEC_DATUMS
 70
     0
 62
     7
  6
CONTINUOUS
370
    -3
390
F
  0
ENDTAB
  0
TABLE
  2
STYLE
  5
3
330
0
100
AcDbSymbolTable
 70
     8
  0
STYLE
  5
11
330
3
100
AcDbSymbolTableRecord
100
AcDbTextStyleTableRecord
  2
STANDARD
 70
     0
 40
0.0
 41
0.8
 50
0.0
 71
     0
 42
0.2
  3
txt
  4

  0
STYLE
  5
20E
330
3
100
AcDbSymbolTableRecord
100
AcDbTextStyleTableRecord
  2
TEXTSTYLE_1
 70
     0
 40
0.0
 41
0.8
 50
0.0
 71
     0
 42
0.2
  3
gdt
  4

  0
STYLE
  5
20F
330
3
100
AcDbSymbolTableRecord
100
AcDbTextStyleTableRecord
  2
TEXTSTYLE_2
 70
     0
 40
0.0
 41
1.0
 50
0.0
 71
     0
 42
0.2
  3
trium.ttf
  4

  0
STYLE
  5
210
330
3
100
AcDbSymbolTableRecord
100
AcDbTextStyleTableRecord
  2
TEXTSTYLE_3
 70
     0
 40
0.0
 41
1.0
 50
0.0
 71
     0
 42
0.2
  3
trium.ttf
  4

  0
STYLE
  5
211
330
3
100
AcDbSymbolTableRecord
100
AcDbTextStyleTableRecord
  2
TEXTSTYLE_4
 70
     0
 40
0.0
 41
1.0
 50
0.0
 71
     0
 42
0.2
  3
txt_____.ttf
  4

1001
ACAD
1000
txt
1071
        2
  0
STYLE
  5
212
330
3
100
AcDbSymbolTableRecord
100
AcDbTextStyleTableRecord
  2
TEXTSTYLE_5
 70
     0
 40
0.0
 41
1.0
 50
0.0
 71
     0
 42
0.2
  3
txt
  4

  0
STYLE
  5
213
330
3
100
AcDbSymbolTableRecord
100
AcDbTextStyleTableRecord
  2
TEXTSTYLE_6
 70
     0
 40
0.0
 41
1.0
 50
0.0
 71
     0
 42
0.2
  3
trium.ttf
  4

  0
STYLE
  5
214
330
3
100
AcDbSymbolTableRecord
100
AcDbTextStyleTableRecord
  2
TEXTSTYLE_7
 70
     0
 40
0.0
 41
0.8
 50
0.0
 71
     0
 42
0.2
  3
txt
  4

  0
ENDTAB
  0
TABLE
  2
VIEW
  5
6
330
0
100
AcDbSymbolTable
 70
     0
  0
ENDTAB
  0
TABLE
  2
UCS
  5
7
330
0
100
AcDbSymbolTable
 70
     0
  0
ENDTAB
  0
TABLE
  2
APPID
  5
9
330
0
100
AcDbSymbolTable
 70
     2
  0
APPID
  5
215
330
9
100
AcDbSymbolTableRecord
100
AcDbRegAppTableRecord
  2
ACAD
 70
     0
  0
APPID
  5
16EF
330
9
100
AcDbSymbolTableRecord
100
AcDbRegAppTableRecord
  2
ACAD_MLEADERVER
 70
     0
  0
ENDTAB
  0
TABLE
  2
DIMSTYLE
  5
A
330
0
100
AcDbSymbolTable
 70
     7
100
AcDbDimStyleTable
 71
     0
  0
DIMSTYLE
105
22E
330
A
100
AcDbSymbolTableRecord
100
AcDbDimStyleTableRecord
  2
STANDARD
 70
     0
 41
2.0
 44
0.125
 47
0.00001
 48
0.00001
 71
     1
 78
     4
140
1.333333333299999
271
     5
272
     5
284
     4
340
11
341
218
342
218
343
218
344
218
  0
DIMSTYLE
105
22F
330
A
100
AcDbSymbolTableRecord
100
AcDbDimStyleTableRecord
  2
DIMSTYLE_1
 70
     0
 41
2.0
 44
0.125
 47
0.00001
 48
0.00001
 78
     4
140
1.333333333299999
147
0.0625
271
     3
272
     3
284
     4
340
11
341
218
342
218
343
218
344
218
  0
DIMSTYLE
105
230
330
A
100
AcDbSymbolTableRecord
100
AcDbDimStyleTableRecord
  2
DIMSTYLE_2
 70
     0
 41
2.0
 44
0.125
 47
0.001
 48
0.001
 78
     4
140
1.333333333299999
147
0.0625
271
     3
272
     3
284
     4
340
11
341
218
342
218
343
218
344
218
  0
DIMSTYLE
105
231
330
A
100
AcDbSymbolTableRecord
100
AcDbDimStyleTableRecord
  2
DIMSTYLE_3
 70
     0
 41
2.0
 44
0.125
 47
0.001
 48
0.001
 78
     4
140
1.333333333299999
147
0.0625
271
     0
272
     0
284
     4
340
11
341
218
342
218
343
218
344
218
  0
DIMSTYLE
105
232
330
A
100
AcDbSymbolTableRecord
100
AcDbDimStyleTableRecord
  2
DIMSTYLE_4
 70
     0
 41
2.0
 44
0.125
 47
0.001
 48
0.001
 78
     4
140
1.333333333299999
147
0.0625
271
     1
272
     1
284
     4
340
11
341
218
342
218
343
218
344
218
  0
DIMSTYLE
105
233
330
A
100
AcDbSymbolTableRecord
100
AcDbDimStyleTableRecord
  2
DIMSTYLE_5
 70
     0
 41
2.0
 44
0.125
 47
1.0
 48
1.0
 78
     4
140
1.333333333299999
147
0.0625
271
     0
272
     0
284
     4
340
11
341
218
342
218
343
218
344
218
  0
DIMSTYLE
105
234
330
A
100
AcDbSymbolTableRecord
100
AcDbDimStyleTableRecord
  2
DIMSTYLE_6
 70
     0
 41
2.0
 44
0.125
 47
0.5
 48
0.5
 78
     4
140
1.333333333299999
147
0.0625
271
     0
272
     0
284
     4
340
11
341
218
342
218
343
218
344
218
  0
ENDTAB
  0
TABLE
  2
BLOCK_RECORD
  5
1
330
0
100
AcDbSymbolTable
 70
    22
  0
BLOCK_RECORD
  5
216
330
1
100
AcDbSymbolTableRecord
100
AcDbBlockTableRecord
  2
*Model_Space
340
165F
  0
BLOCK_RECORD
  5
217
330
1
100
AcDbSymbolTableRecord
100
AcDbBlockTableRecord
  2
*Paper_Space
340
1660
  0
BLOCK_RECORD
  5
218
330
1
100
AcDbSymbolTableRecord
100
AcDbBlockTableRecord
  2
_FILLED
340
0
102
{BLKREFS
331
30E
331
30F
331
318
331
319
331
321
331
322
331
32A
331
32B
331
333
331
334
331
33C
331
33D
331
346
331
347
331
34F
331
350
331
359
331
35A
331
362
331
363
331
36B
331
36C
331
374
331
375
331
37D
331
37E
331
386
331
387
102
}
  0
BLOCK_RECORD
  5
22A
330
1
100
AcDbSymbolTableRecord
100
AcDbBlockTableRecord
  2
L03-USAGE_INTERNE_SEULEM_BL3
340
0
  0
BLOCK_RECORD
  5
22B
330
1
100
AcDbSymbolTableRecord
100
AcDbBlockTableRecord
  2
L03-MOTEUR-CONTROLE-LED_BL2
340
0
  0
BLOCK_RECORD
  5
22C
330
1
100
AcDbSymbolTableRecord
100
AcDbBlockTableRecord
  2
L03-MOTEUR-CONTROLE-LED_BL1
340
0
  0
BLOCK_RECORD
  5
22D
330
1
100
AcDbSymbolTableRecord
100
AcDbBlockTableRecord
  2
L03-NOTE_SPECS_BAINS_BL0
340
0
  0
ENDTAB
  0
ENDSEC
  0
SECTION
  2
BLOCKS
  0
BLOCK
  5
20
330
216
100
AcDbEntity
  8
0
100
AcDbBlockBegin
  2
*Model_Space
 70
     0
 10
0.0
 20
0.0
 30
0.0
  3
*Model_Space
  1

  0
ENDBLK
  5
21
330
216
100
AcDbEntity
  8
0
100
AcDbBlockEnd
  0
BLOCK
  5
1C
330
217
100
AcDbEntity
 67
     1
  8
0
100
AcDbBlockBegin
  2
*Paper_Space
 70
     0
 10
0.0
 20
0.0
 30
0.0
  3
*Paper_Space
  1

  0
ENDBLK
  5
1D
330
217
100
AcDbEntity
 67
     1
  8
0
100
AcDbBlockEnd
  0
BLOCK
  5
305
330
218
100
AcDbEntity
  8
0
100
AcDbBlockBegin
  2
_FILLED
 70
     0
 10
0.0
 20
0.0
 30
0.0
  3
_FILLED
  1

  0
SOLID
  5
306
330
218
100
AcDbEntity
  8
0
  6
ByBlock
 62
     0
100
AcDbTrace
 10
0.0
 20
0.0
 30
0.0
 11
-1.0
 21
0.1666666667
 31
0.0
 12
-1.0
 22
-0.1666666667
 32
0.0
 13
-1.0
 23
-0.1666666667
 33
0.0
  0
ENDBLK
  5
307
330
218
100
AcDbEntity
  8
0
  6
ByBlock
 62
     0
100
AcDbBlockEnd
  0
BLOCK
  5
235
330
22A
100
AcDbEntity
  8
0
  6
Continuous
 62
     7
100
AcDbBlockBegin
  2
L03-USAGE_INTERNE_SEULEM_BL3
 70
     0
 10
120.401880998
 20
44.6769857358
 30
0.0
  3
L03-USAGE_INTERNE_SEULEM_BL3
  1

  0
TEXT
  5
236
330
22A
100
AcDbEntity
  8
0
  6
Continuous
 62
     7
100
AcDbText
 10
114.0878206962
 20
46.9220197216
 30
0.0
 40
1.1626666667
  1
INTERNAL USE 
 50
10.0
  7
TEXTSTYLE_3
100
AcDbText
  0
TEXT
  5
237
330
22A
100
AcDbEntity
  8
0
  6
Continuous
 62
     7
100
AcDbText
 10
113.3441364922
 20
44.9204985439
 30
0.0
 40
1.1626666667
  1
DOCUMENT ONLY
 50
10.0
  7
TEXTSTYLE_3
100
AcDbText
  0
TEXT
  5
238
330
22A
100
AcDbEntity
  8
0
  6
Continuous
 62
     7
100
AcDbText
 10
119.1288640555
 20
44.67207049339999
 30
0.0
 40
1.1626666667
  1
 
 50
10.0
  7
TEXTSTYLE_5
100
AcDbText
  0
TEXT
  5
239
330
22A
100
AcDbEntity
  8
0
  6
Continuous
 62
     7
100
AcDbText
 10
110.6842161725
 20
40.4949760871
 30
0.0
 40
1.1626666667
  1
DOCUMENT POUR USAGE
 50
10.0
  7
TEXTSTYLE_3
100
AcDbText
  0
TEXT
  5
23A
330
22A
100
AcDbEntity
  8
0
  6
Continuous
 62
     7
100
AcDbText
 10
111.1133156185
 20
38.47822762670001
 30
0.0
 40
1.1626666667
  1
A L'INTERNE SEULEMENT
 50
10.0
  7
TEXTSTYLE_3
100
AcDbText
  0
LINE
  5
23B
330
22A
100
AcDbEntity
  8
0
  6
Continuous
 62
     7
100
AcDbLine
 10
134.2584327213
 20
40.3334521178
 30
0.0
 11
134.265191654
 21
40.3402110505
 31
0.0
  0
LINE
  5
23C
330
22A
100
AcDbEntity
  8
0
  6
Continuous
 62
     7
100
AcDbLine
 10
133.5258631549
 20
40.204280338
 30
0.0
 11
134.1747446
 21
40.8531617831
 31
0.0
  0
LINE
  5
23D
330
22A
100
AcDbEntity
  8
0
  6
Continuous
 62
     7
100
AcDbLine
 10
132.7932935885
 20
40.0751085582
 30
0.0
 11
134.0842975461
 21
41.36611251579999
 31
0.0
  0
LINE
  5
23E
330
22A
100
AcDbEntity
  8
0
  6
Continuous
 62
     7
100
AcDbLine
 10
132.0607240221
 20
39.94593677840001
 30
0.0
 11
133.9938504921
 21
41.8790632485
 31
0.0
  0
LINE
  5
23F
330
22A
100
AcDbEntity
  8
0
  6
Continuous
 62
     7
100
AcDbLine
 10
131.3281544556
 20
39.8167649986
 30
0.0
 11
133.9034034382
 21
42.3920139811
 31
0.0
  0
LINE
  5
240
330
22A
100
AcDbEntity
  8
0
  6
Continuous
 62
     7
100
AcDbLine
 10
130.5955848892
 20
39.6875932188
 30
0.0
 11
132.136588704
 21
41.2285970336
 31
0.0
  0
LINE
  5
241
330
22A
100
AcDbEntity
  8
0
  6
Continuous
 62
     7
100
AcDbLine
 10
132.7339338967
 20
41.8259422263
 30
0.0
 11
133.8129563842
 21
42.9049647138
 31
0.0
  0
LINE
  5
242
330
22A
100
AcDbEntity
  8
0
  6
Continuous
 62
     7
100
AcDbLine
 10
129.8630153228
 20
39.558421439
 30
0.0
 11
131.4040191376
 21
41.0994252538
 31
0.0
  0
LINE
  5
243
330
22A
100
AcDbEntity
  8
0
  6
Continuous
 62
     7
100
AcDbLine
 10
132.6434868428
 20
42.3388929589
 30
0.0
 11
133.7225093303
 21
43.41791544649999
 31
0.0
  0
LINE
  5
244
330
22A
100
AcDbEntity
  8
0
  6
Continuous
 62
     7
100
AcDbLine
 10
129.1304457564
 20
39.42924965920001
 30
0.0
 11
130.6714495712
 21
40.9702534739
 31
0.0
  0
LINE
  5
245
330
22A
100
AcDbEntity
  8
0
  6
Continuous
 62
     7
100
AcDbLine
 10
132.5530397888
 20
42.85184369159999
 30
0.0
 11
133.6320622764
 21
43.93086617909999
 31
0.0
  0
LINE
  5
246
330
22A
100
AcDbEntity
  8
0
  6
Continuous
 62
     7
100
AcDbLine
 10
128.39787619
 20
39.3000778794
 30
0.0
 11
129.9388800048
 21
40.8410816941
 31
0.0
  0
LINE
  5
247
330
22A
100
AcDbEntity
  8
0
  6
Continuous
 62
     7
100
AcDbLine
 10
132.4625927349
 20
43.36479442429999
 30
0.0
 11
133.5416152224
 21
44.44381691180001
 31
0.0
  0
LINE
  5
248
330
22A
100
AcDbEntity
  8
0
  6
Continuous
 62
     7
100
AcDbLine
 10
127.6653066236
 20
39.17090609960001
 30
0.0
 11
129.2063104383
 21
40.71190991429999
 31
0.0
  0
LINE
  5
249
330
22A
100
AcDbEntity
  8
0
  6
Continuous
 62
     7
100
AcDbLine
 10
132.372145681
 20
43.877745157
 30
0.0
 11
133.4511681685
 21
44.95676764449999
 31
0.0
  0
LINE
  5
24A
330
22A
100
AcDbEntity
  8
0
  6
Continuous
 62
     7
100
AcDbLine
 10
126.9327370571
 20
39.0417343198
 30
0.0
 11
128.4737408719
 21
40.58273813449999
 31
0.0
  0
LINE
  5
24B
330
22A
100
AcDbEntity
  8
0
  6
Continuous
 62
     7
100
AcDbLine
 10
132.281698627
 20
44.3906958896
 30
0.0
 11
133.3607211145
 21
45.4697183771
 31
0.0
  0
LINE
  5
24C
330
22A
100
AcDbEntity
  8
0
  6
Continuous
 62
     7
100
AcDbLine
 10
126.2001674907
 20
38.91256253989999
 30
0.0
 11
127.7411713055
 21
40.4535663547
 31
0.0
  0
LINE
  5
24D
330
22A
100
AcDbEntity
  8
0
  6
Continuous
 62
     7
100
AcDbLine
 10
132.1912515731
 20
44.90364662229999
 30
0.0
 11
133.2702740606
 21
45.98266910979999
 31
0.0
  0
LINE
  5
24E
330
22A
100
AcDbEntity
  8
0
  6
Continuous
 62
     7
100
AcDbLine
 10
125.4675979243
 20
38.7833907601
 30
0.0
 11
127.0086017391
 21
40.32439457489999
 31
0.0
  0
LINE
  5
24F
330
22A
100
AcDbEntity
  8
0
  6
Continuous
 62
     7
100
AcDbLine
 10
132.1008045191
 20
45.416597355
 30
0.0
 11
133.1798270066
 21
46.4956198425
 31
0.0
  0
LINE
  5
250
330
22A
100
AcDbEntity
  8
0
  6
Continuous
 62
     7
100
AcDbLine
 10
124.7350283579
 20
38.6542189803
 30
0.0
 11
126.2760321727
 21
40.1952227951
 31
0.0
  0
LINE
  5
251
330
22A
100
AcDbEntity
  8
0
  6
Continuous
 62
     7
100
AcDbLine
 10
132.0103574652
 20
45.9295480876
 30
0.0
 11
133.0893799527
 21
47.0085705751
 31
0.0
  0
LINE
  5
252
330
22A
100
AcDbEntity
  8
0
  6
Continuous
 62
     7
100
AcDbLine
 10
124.0024587915
 20
38.52504720050001
 30
0.0
 11
125.5434626062
 21
40.0660510153
 31
0.0
  0
LINE
  5
253
330
22A
100
AcDbEntity
  8
0
  6
Continuous
 62
     7
100
AcDbLine
 10
131.7074778654
 20
46.23006627439999
 30
0.0
 11
132.9989328988
 21
47.52152130779999
 31
0.0
  0
LINE
  5
254
330
22A
100
AcDbEntity
  8
0
  6
Continuous
 62
     7
100
AcDbLine
 10
123.269889225
 20
38.3958754207
 30
0.0
 11
124.8108930398
 21
39.9368792355
 31
0.0
  0
LINE
  5
255
330
22A
100
AcDbEntity
  8
0
  6
Continuous
 62
     7
100
AcDbLine
 10
130.9749082989
 20
46.1008944946
 30
0.0
 11
132.9084858448
 21
48.0344720405
 31
0.0
  0
LINE
  5
256
330
22A
100
AcDbEntity
  8
0
  6
Continuous
 62
     7
100
AcDbLine
 10
122.5373196586
 20
38.26670364090001
 30
0.0
 11
124.0783234734
 21
39.8077074557
 31
0.0
  0
LINE
  5
257
330
22A
100
AcDbEntity
  8
0
  6
Continuous
 62
     7
100
AcDbLine
 10
130.2423387325
 20
45.97172271479999
 30
0.0
 11
131.2696810308
 21
46.9990650131
 31
0.0
  0
LINE
  5
258
330
22A
100
AcDbEntity
  8
0
  6
Continuous
 62
     7
100
AcDbLine
 10
131.7390163033
 20
47.4684002856
 30
0.0
 11
132.8180387909
 21
48.54742277319999
 31
0.0
  0
LINE
  5
259
330
22A
100
AcDbEntity
  8
0
  6
Continuous
 62
     7
100
AcDbLine
 10
121.8047500922
 20
38.1375318611
 30
0.0
 11
123.345753907
 21
39.6785356759
 31
0.0
  0
LINE
  5
25A
330
22A
100
AcDbEntity
  8
0
  6
Continuous
 62
     7
100
AcDbLine
 10
129.5097691661
 20
45.842550935
 30
0.0
 11
130.5371112547
 21
46.8698930237
 31
0.0
  0
LINE
  5
25B
330
22A
100
AcDbEntity
  8
0
  6
Continuous
 62
     7
100
AcDbLine
 10
131.6485692494
 20
47.98135101829999
 30
0.0
 11
132.7275917369
 21
49.0603735058
 31
0.0
  0
LINE
  5
25C
330
22A
100
AcDbEntity
  8
0
  6
Continuous
 62
     7
100
AcDbLine
 10
121.0721805258
 20
38.0083600813
 30
0.0
 11
122.6131843406
 21
39.54936389610001
 31
0.0
  0
LINE
  5
25D
330
22A
100
AcDbEntity
  8
0
  6
Continuous
 62
     7
100
AcDbLine
 10
128.7771995997
 20
45.7133791552
 30
0.0
 11
129.8045414787
 21
46.7407210342
 31
0.0
  0
LINE
  5
25E
330
22A
100
AcDbEntity
  8
0
  6
Continuous
 62
     7
100
AcDbLine
 10
131.5581221955
 20
48.494301751
 30
0.0
 11
132.637144683
 21
49.57332423850001
 31
0.0
  0
LINE
  5
25F
330
22A
100
AcDbEntity
  8
0
  6
Continuous
 62
     7
100
AcDbLine
 10
120.3396109594
 20
37.8791883015
 30
0.0
 11
121.8806147742
 21
39.4201921163
 31
0.0
  0
LINE
  5
260
330
22A
100
AcDbEntity
  8
0
  6
Continuous
 62
     7
100
AcDbLine
 10
128.0446300333
 20
45.58420737539999
 30
0.0
 11
129.0719717027
 21
46.61154904479999
 31
0.0
  0
LINE
  5
261
330
22A
100
AcDbEntity
  8
0
  6
Continuous
 62
     7
100
AcDbLine
 10
131.4676751415
 20
49.0072524836
 30
0.0
 11
132.546697629
 21
50.08627497119999
 31
0.0
  0
LINE
  5
262
330
22A
100
AcDbEntity
  8
0
  6
Continuous
 62
     7
100
AcDbLine
 10
119.607041393
 20
37.7500165217
 30
0.0
 11
121.1480452077
 21
39.2910203365
 31
0.0
  0
LINE
  5
263
330
22A
100
AcDbEntity
  8
0
  6
Continuous
 62
     7
100
AcDbLine
 10
127.3120604668
 20
45.4550355956
 30
0.0
 11
128.3394019267
 21
46.4823770554
 31
0.0
  0
LINE
  5
264
330
22A
100
AcDbEntity
  8
0
  6
Continuous
 62
     7
100
AcDbLine
 10
131.3772280876
 20
49.5202032163
 30
0.0
 11
132.4562505751
 21
50.5992257038
 31
0.0
  0
LINE
  5
265
330
22A
100
AcDbEntity
  8
0
  6
Continuous
 62
     7
100
AcDbLine
 10
118.8744718265
 20
37.6208447419
 30
0.0
 11
120.4154756413
 21
39.1618485567
 31
0.0
  0
LINE
  5
266
330
22A
100
AcDbEntity
  8
0
  6
Continuous
 62
     7
100
AcDbLine
 10
126.5794909004
 20
45.32586381579999
 30
0.0
 11
127.6068321506
 21
46.353205066
 31
0.0
  0
LINE
  5
267
330
22A
100
AcDbEntity
  8
0
  6
Continuous
 62
     7
100
AcDbLine
 10
131.2867810336
 20
50.03315394899999
 30
0.0
 11
132.3658035211
 21
51.11217643649999
 31
0.0
  0
LINE
  5
268
330
22A
100
AcDbEntity
  8
0
  6
Continuous
 62
     7
100
AcDbLine
 10
118.1419022601
 20
37.4916729621
 30
0.0
 11
119.6829060749
 21
39.0326767769
 31
0.0
  0
LINE
  5
269
330
22A
100
AcDbEntity
  8
0
  6
Continuous
 62
     7
100
AcDbLine
 10
125.846921334
 20
45.196692036
 30
0.0
 11
126.8742623746
 21
46.22403307659999
 31
0.0
  0
LINE
  5
26A
330
22A
100
AcDbEntity
  8
0
  6
Continuous
 62
     7
100
AcDbLine
 10
131.1963339797
 20
50.5461046817
 30
0.0
 11
132.2753564672
 21
51.6251271692
 31
0.0
  0
LINE
  5
26B
330
22A
100
AcDbEntity
  8
0
  6
Continuous
 62
     7
100
AcDbLine
 10
117.4093326937
 20
37.3625011823
 30
0.0
 11
118.9503365085
 21
38.9035049971
 31
0.0
  0
LINE
  5
26C
330
22A
100
AcDbEntity
  8
0
  6
Continuous
 62
     7
100
AcDbLine
 10
125.1143517676
 20
45.06752025619999
 30
0.0
 11
126.1416925986
 21
46.0948610872
 31
0.0
  0
LINE
  5
26D
330
22A
100
AcDbEntity
  8
0
  6
Continuous
 62
     7
100
AcDbLine
 10
131.1058869257
 20
51.05905541430001
 30
0.0
 11
132.1849094133
 21
52.1380779018
 31
0.0
  0
LINE
  5
26E
330
22A
100
AcDbEntity
  8
0
  6
Continuous
 62
     7
100
AcDbLine
 10
116.6767631273
 20
37.2333294025
 30
0.0
 11
118.2177669420999
 21
38.7743332173
 31
0.0
  0
LINE
  5
26F
330
22A
100
AcDbEntity
  8
0
  6
Continuous
 62
     7
100
AcDbLine
 10
124.3817822012
 20
44.9383484764
 30
0.0
 11
125.4091228225
 21
45.96568909770001
 31
0.0
  0
LINE
  5
270
330
22A
100
AcDbEntity
  8
0
  6
Continuous
 62
     7
100
AcDbLine
 10
131.0154398718
 20
51.57200614699999
 30
0.0
 11
132.0944623593
 21
52.6510286345
 31
0.0
  0
LINE
  5
271
330
22A
100
AcDbEntity
  8
0
  6
Continuous
 62
     7
100
AcDbLine
 10
115.9441935609
 20
37.1041576227
 30
0.0
 11
117.4851973756
 21
38.6451614374
 31
0.0
  0
LINE
  5
272
330
22A
100
AcDbEntity
  8
0
  6
Continuous
 62
     7
100
AcDbLine
 10
123.6492126348
 20
44.8091766966
 30
0.0
 11
124.6765530465
 21
45.83651710829999
 31
0.0
  0
LINE
  5
273
330
22A
100
AcDbEntity
  8
0
  6
Continuous
 62
     7
100
AcDbLine
 10
130.8405637704
 20
52.0005278322
 30
0.0
 11
132.0040153054
 21
53.1639793672
 31
0.0
  0
LINE
  5
274
330
22A
100
AcDbEntity
  8
0
  6
Continuous
 62
     7
100
AcDbLine
 10
115.2116239945
 20
36.9749858429
 30
0.0
 11
116.7526278092
 21
38.5159896576
 31
0.0
  0
LINE
  5
275
330
22A
100
AcDbEntity
  8
0
  6
Continuous
 62
     7
100
AcDbLine
 10
122.9166430683
 20
44.6800049168
 30
0.0
 11
123.9439832705
 21
45.7073451189
 31
0.0
  0
LINE
  5
276
330
22A
100
AcDbEntity
  8
0
  6
Continuous
 62
     7
100
AcDbLine
 10
130.107994204
 20
51.87135605239999
 30
0.0
 11
131.6489980187
 21
53.4123598672
 31
0.0
  0
LINE
  5
277
330
22A
100
AcDbEntity
  8
0
  6
Continuous
 62
     7
100
AcDbLine
 10
114.479054428
 20
36.8458140631
 30
0.0
 11
116.0200582428
 21
38.3868178778
 31
0.0
  0
LINE
  5
278
330
22A
100
AcDbEntity
  8
0
  6
Continuous
 62
     7
100
AcDbLine
 10
122.1840735019
 20
44.55083313689999
 30
0.0
 11
123.2114134945
 21
45.5781731295
 31
0.0
  0
LINE
  5
279
330
22A
100
AcDbEntity
  8
0
  6
Continuous
 62
     7
100
AcDbLine
 10
129.3754246375
 20
51.7421842726
 30
0.0
 11
130.9164284523
 21
53.28318808729999
 31
0.0
  0
LINE
  5
27A
330
22A
100
AcDbEntity
  8
0
  6
Continuous
 62
     7
100
AcDbLine
 10
113.7464848616
 20
36.7166422833
 30
0.0
 11
115.2874886764
 21
38.257646098
 31
0.0
  0
LINE
  5
27B
330
22A
100
AcDbEntity
  8
0
  6
Continuous
 62
     7
100
AcDbLine
 10
121.4515039355
 20
44.42166135709999
 30
0.0
 11
122.4788437184
 21
45.4490011401
 31
0.0
  0
LINE
  5
27C
330
22A
100
AcDbEntity
  8
0
  6
Continuous
 62
     7
100
AcDbLine
 10
128.6428550711
 20
51.6130124928
 30
0.0
 11
130.1838588859
 21
53.1540163075
 31
0.0
  0
LINE
  5
27D
330
22A
100
AcDbEntity
  8
0
  6
Continuous
 62
     7
100
AcDbLine
 10
113.0139152952
 20
36.5874705035
 30
0.0
 11
114.55491911
 21
38.1284743182
 31
0.0
  0
LINE
  5
27E
330
22A
100
AcDbEntity
  8
0
  6
Continuous
 62
     7
100
AcDbLine
 10
120.7189343691
 20
44.29248957729999
 30
0.0
 11
121.7462739424
 21
45.31982915069999
 31
0.0
  0
LINE
  5
27F
330
22A
100
AcDbEntity
  8
0
  6
Continuous
 62
     7
100
AcDbLine
 10
127.9102855047
 20
51.483840713
 30
0.0
 11
129.4512893195
 21
53.0248445277
 31
0.0
  0
LINE
  5
280
330
22A
100
AcDbEntity
  8
0
  6
Continuous
 62
     7
100
AcDbLine
 10
112.2813457288
 20
36.4582987236
 30
0.0
 11
113.8223495436
 21
37.9993025384
 31
0.0
  0
LINE
  5
281
330
22A
100
AcDbEntity
  8
0
  6
Continuous
 62
     7
100
AcDbLine
 10
119.9863648027
 20
44.1633177975
 30
0.0
 11
121.0137041664
 21
45.1906571612
 31
0.0
  0
LINE
  5
282
330
22A
100
AcDbEntity
  8
0
  6
Continuous
 62
     7
100
AcDbLine
 10
127.1777159383
 20
51.3546689332
 30
0.0
 11
128.7187197531
 21
52.8956727479
 31
0.0
  0
LINE
  5
283
330
22A
100
AcDbEntity
  8
0
  6
Continuous
 62
     7
100
AcDbLine
 10
111.5487761624
 20
36.3291269438
 30
0.0
 11
113.0897799771
 21
37.8701307586
 31
0.0
  0
LINE
  5
284
330
22A
100
AcDbEntity
  8
0
  6
Continuous
 62
     7
100
AcDbLine
 10
119.2537952362
 20
44.0341460177
 30
0.0
 11
120.2811343903
 21
45.0614851718
 31
0.0
  0
LINE
  5
285
330
22A
100
AcDbEntity
  8
0
  6
Continuous
 62
     7
100
AcDbLine
 10
126.4451463719
 20
51.22549715339999
 30
0.0
 11
127.9861501867
 21
52.7665009681
 31
0.0
  0
LINE
  5
286
330
22A
100
AcDbEntity
  8
0
  6
Continuous
 62
     7
100
AcDbLine
 10
110.8162065959
 20
36.199955164
 30
0.0
 11
112.3572104107
 21
37.7409589788
 31
0.0
  0
LINE
  5
287
330
22A
100
AcDbEntity
  8
0
  6
Continuous
 62
     7
100
AcDbLine
 10
118.5212256698
 20
43.9049742379
 30
0.0
 11
119.5485646143
 21
44.93231318239999
 31
0.0
  0
LINE
  5
288
330
22A
100
AcDbEntity
  8
0
  6
Continuous
 62
     7
100
AcDbLine
 10
125.7125768055
 20
51.0963253735
 30
0.0
 11
127.2535806202
 21
52.6373291883
 31
0.0
  0
LINE
  5
289
330
22A
100
AcDbEntity
  8
0
  6
Continuous
 62
     7
100
AcDbLine
 10
110.0836370295
 20
36.0707833842
 30
0.0
 11
111.6246408443
 21
37.611787199
 31
0.0
  0
LINE
  5
28A
330
22A
100
AcDbEntity
  8
0
  6
Continuous
 62
     7
100
AcDbLine
 10
117.7886561034
 20
43.7758024581
 30
0.0
 11
118.8159948383
 21
44.803141193
 31
0.0
  0
LINE
  5
28B
330
22A
100
AcDbEntity
  8
0
  6
Continuous
 62
     7
100
AcDbLine
 10
124.980007239
 20
50.9671535937
 30
0.0
 11
126.5210110538
 21
52.50815740850001
 31
0.0
  0
LINE
  5
28C
330
22A
100
AcDbEntity
  8
0
  6
Continuous
 62
     7
100
AcDbLine
 10
109.3510674631
 20
35.94161160440001
 30
0.0
 11
110.8920712779
 21
37.4826154192
 31
0.0
  0
LINE
  5
28D
330
22A
100
AcDbEntity
  8
0
  6
Continuous
 62
     7
100
AcDbLine
 10
117.056086537
 20
43.6466306783
 30
0.0
 11
118.0834250623
 21
44.67396920359999
 31
0.0
  0
LINE
  5
28E
330
22A
100
AcDbEntity
  8
0
  6
Continuous
 62
     7
100
AcDbLine
 10
124.2474376726
 20
50.8379818139
 30
0.0
 11
125.7884414874
 21
52.3789856287
 31
0.0
  0
LINE
  5
28F
330
22A
100
AcDbEntity
  8
0
  6
Continuous
 62
     7
100
AcDbLine
 10
108.7997466906
 20
35.9936886185
 30
0.0
 11
110.1595017115
 21
37.3534436394
 31
0.0
  0
LINE
  5
290
330
22A
100
AcDbEntity
  8
0
  6
Continuous
 62
     7
100
AcDbLine
 10
116.3235169706
 20
43.5174588985
 30
0.0
 11
117.3508552862
 21
44.5447972142
 31
0.0
  0
LINE
  5
291
330
22A
100
AcDbEntity
  8
0
  6
Continuous
 62
     7
100
AcDbLine
 10
123.5148681062
 20
50.7088100341
 30
0.0
 11
125.055871921
 21
52.2498138489
 31
0.0
  0
LINE
  5
292
330
22A
100
AcDbEntity
  8
0
  6
Continuous
 62
     7
100
AcDbLine
 10
108.7092996366
 20
36.5066393512
 30
0.0
 11
109.7883221242
 21
37.5856618387
 31
0.0
  0
LINE
  5
293
330
22A
100
AcDbEntity
  8
0
  6
Continuous
 62
     7
100
AcDbLine
 10
115.5909474042
 20
43.38828711869999
 30
0.0
 11
116.6182855102
 21
44.41562522469999
 31
0.0
  0
LINE
  5
294
330
22A
100
AcDbEntity
  8
0
  6
Continuous
 62
     7
100
AcDbLine
 10
122.7822985398
 20
50.5796382543
 30
0.0
 11
124.3233023546
 21
52.1206420691
 31
0.0
  0
LINE
  5
295
330
22A
100
AcDbEntity
  8
0
  6
Continuous
 62
     7
100
AcDbLine
 10
108.6188525827
 20
37.0195900839
 30
0.0
 11
109.6978750702
 21
38.0986125714
 31
0.0
  0
LINE
  5
296
330
22A
100
AcDbEntity
  8
0
  6
Continuous
 62
     7
100
AcDbLine
 10
114.8583778377
 20
43.2591153389
 30
0.0
 11
115.8857157342
 21
44.28645323529999
 31
0.0
  0
LINE
  5
297
330
22A
100
AcDbEntity
  8
0
  6
Continuous
 62
     7
100
AcDbLine
 10
122.0497289734
 20
50.4504664745
 30
0.0
 11
123.5907327881
 21
51.9914702893
 31
0.0
  0
LINE
  5
298
330
22A
100
AcDbEntity
  8
0
  6
Continuous
 62
     7
100
AcDbLine
 10
108.5284055288
 20
37.53254081650001
 30
0.0
 11
109.6074280163
 21
38.611563304
 31
0.0
  0
LINE
  5
299
330
22A
100
AcDbEntity
  8
0
  6
Continuous
 62
     7
100
AcDbLine
 10
114.1258082713
 20
43.12994355909999
 30
0.0
 11
115.1531459581
 21
44.1572812459
 31
0.0
  0
LINE
  5
29A
330
22A
100
AcDbEntity
  8
0
  6
Continuous
 62
     7
100
AcDbLine
 10
121.3171594069
 20
50.3212946947
 30
0.0
 11
122.8581632217
 21
51.8622985095
 31
0.0
  0
LINE
  5
29B
330
22A
100
AcDbEntity
  8
0
  6
Continuous
 62
     7
100
AcDbLine
 10
108.4379584748
 20
38.0454915492
 30
0.0
 11
109.5169809623
 21
39.1245140367
 31
0.0
  0
LINE
  5
29C
330
22A
100
AcDbEntity
  8
0
  6
Continuous
 62
     7
100
AcDbLine
 10
113.3932387049
 20
43.0007717793
 30
0.0
 11
114.4205761821
 21
44.02810925649999
 31
0.0
  0
LINE
  5
29D
330
22A
100
AcDbEntity
  8
0
  6
Continuous
 62
     7
100
AcDbLine
 10
120.5845898405
 20
50.19212291489999
 30
0.0
 11
122.1255936553
 21
51.7331267297
 31
0.0
  0
LINE
  5
29E
330
22A
100
AcDbEntity
  8
0
  6
Continuous
 62
     7
100
AcDbLine
 10
108.3475114209
 20
38.5584422819
 30
0.0
 11
109.4265339084
 21
39.6374647694
 31
0.0
  0
LINE
  5
29F
330
22A
100
AcDbEntity
  8
0
  6
Continuous
 62
     7
100
AcDbLine
 10
112.6606691385
 20
42.8715999995
 30
0.0
 11
113.6880064061
 21
43.8989372671
 31
0.0
  0
LINE
  5
2A0
330
22A
100
AcDbEntity
  8
0
  6
Continuous
 62
     7
100
AcDbLine
 10
119.8520202741
 20
50.0629511351
 30
0.0
 11
121.3930240889
 21
51.6039549499
 31
0.0
  0
LINE
  5
2A1
330
22A
100
AcDbEntity
  8
0
  6
Continuous
 62
     7
100
AcDbLine
 10
108.2570643669
 20
39.0713930145
 30
0.0
 11
109.3360868544
 21
40.150415502
 31
0.0
  0
LINE
  5
2A2
330
22A
100
AcDbEntity
  8
0
  6
Continuous
 62
     7
100
AcDbLine
 10
111.9280995721
 20
42.74242821969999
 30
0.0
 11
112.9554366301
 21
43.7697652777
 31
0.0
  0
LINE
  5
2A3
330
22A
100
AcDbEntity
  8
0
  6
Continuous
 62
     7
100
AcDbLine
 10
119.1194507077
 20
49.93377935529999
 30
0.0
 11
120.6604545225
 21
51.4747831701
 31
0.0
  0
LINE
  5
2A4
330
22A
100
AcDbEntity
  8
0
  6
Continuous
 62
     7
100
AcDbLine
 10
108.166617313
 20
39.58434374719999
 30
0.0
 11
109.2456398005
 21
40.66336623469999
 31
0.0
  0
LINE
  5
2A5
330
22A
100
AcDbEntity
  8
0
  6
Continuous
 62
     7
100
AcDbLine
 10
111.1955300057
 20
42.6132564399
 30
0.0
 11
112.222866854
 21
43.64059328829999
 31
0.0
  0
LINE
  5
2A6
330
22A
100
AcDbEntity
  8
0
  6
Continuous
 62
     7
100
AcDbLine
 10
118.3868811413
 20
49.8046075755
 30
0.0
 11
119.9278849561
 21
51.3456113903
 31
0.0
  0
LINE
  5
2A7
330
22A
100
AcDbEntity
  8
0
  6
Continuous
 62
     7
100
AcDbLine
 10
108.076170259
 20
40.09729447989999
 30
0.0
 11
109.1551927466
 21
41.1763169674
 31
0.0
  0
LINE
  5
2A8
330
22A
100
AcDbEntity
  8
0
  6
Continuous
 62
     7
100
AcDbLine
 10
110.4629604392
 20
42.4840846601
 30
0.0
 11
111.490297078
 21
43.5114212988
 31
0.0
  0
LINE
  5
2A9
330
22A
100
AcDbEntity
  8
0
  6
Continuous
 62
     7
100
AcDbLine
 10
117.6543115749
 20
49.6754357957
 30
0.0
 11
119.1953153896
 21
51.21643961050001
 31
0.0
  0
LINE
  5
2AA
330
22A
100
AcDbEntity
  8
0
  6
Continuous
 62
     7
100
AcDbLine
 10
107.9857232051
 20
40.6102452125
 30
0.0
 11
109.0647456926
 21
41.6892677001
 31
0.0
  0
LINE
  5
2AB
330
22A
100
AcDbEntity
  8
0
  6
Continuous
 62
     7
100
AcDbLine
 10
109.7303908728
 20
42.3549128803
 30
0.0
 11
110.757727302
 21
43.3822493094
 31
0.0
  0
LINE
  5
2AC
330
22A
100
AcDbEntity
  8
0
  6
Continuous
 62
     7
100
AcDbLine
 10
116.9217420084
 20
49.5462640159
 30
0.0
 11
118.4627458232
 21
51.0872678307
 31
0.0
  0
LINE
  5
2AD
330
22A
100
AcDbEntity
  8
0
  6
Continuous
 62
     7
100
AcDbLine
 10
107.8952761512
 20
41.1231959452
 30
0.0
 11
108.9742986387
 21
42.2022184327
 31
0.0
  0
LINE
  5
2AE
330
22A
100
AcDbEntity
  8
0
  6
Continuous
 62
     7
100
AcDbLine
 10
108.9978213064
 20
42.2257411004
 30
0.0
 11
110.025157526
 21
43.25307732
 31
0.0
  0
LINE
  5
2AF
330
22A
100
AcDbEntity
  8
0
  6
Continuous
 62
     7
100
AcDbLine
 10
116.189172442
 20
49.4170922361
 30
0.0
 11
117.7301762568
 21
50.9580960509
 31
0.0
  0
LINE
  5
2B0
330
22A
100
AcDbEntity
  8
0
  6
Continuous
 62
     7
100
AcDbLine
 10
107.8048290972
 20
41.6361466779
 30
0.0
 11
109.2925877499
 21
43.1239053306
 31
0.0
  0
LINE
  5
2B1
330
22A
100
AcDbEntity
  8
0
  6
Continuous
 62
     7
100
AcDbLine
 10
115.4566028756
 20
49.2879204563
 30
0.0
 11
116.9976066904
 21
50.828924271
 31
0.0
  0
LINE
  5
2B2
330
22A
100
AcDbEntity
  8
0
  6
Continuous
 62
     7
100
AcDbLine
 10
107.7143820433
 20
42.1490974105
 30
0.0
 11
108.7934045308
 21
43.2281198981
 31
0.0
  0
LINE
  5
2B3
330
22A
100
AcDbEntity
  8
0
  6
Continuous
 62
     7
100
AcDbLine
 10
114.7240333092
 20
49.1587486765
 30
0.0
 11
116.265037124
 21
50.6997524912
 31
0.0
  0
LINE
  5
2B4
330
22A
100
AcDbEntity
  8
0
  6
Continuous
 62
     7
100
AcDbLine
 10
107.6239349893
 20
42.6620481432
 30
0.0
 11
108.7029574768
 21
43.74107063069999
 31
0.0
  0
LINE
  5
2B5
330
22A
100
AcDbEntity
  8
0
  6
Continuous
 62
     7
100
AcDbLine
 10
113.9914637428
 20
49.0295768967
 30
0.0
 11
115.5324675575
 21
50.57058071140001
 31
0.0
  0
LINE
  5
2B6
330
22A
100
AcDbEntity
  8
0
  6
Continuous
 62
     7
100
AcDbLine
 10
107.5334879354
 20
43.1749988759
 30
0.0
 11
108.6125104229
 21
44.25402136339999
 31
0.0
  0
LINE
  5
2B7
330
22A
100
AcDbEntity
  8
0
  6
Continuous
 62
     7
100
AcDbLine
 10
113.2588941764
 20
48.90040511689999
 30
0.0
 11
114.7998979911
 21
50.4414089316
 31
0.0
  0
LINE
  5
2B8
330
22A
100
AcDbEntity
  8
0
  6
Continuous
 62
     7
100
AcDbLine
 10
107.4430408814
 20
43.6879496085
 30
0.0
 11
108.5220633689
 21
44.7669720961
 31
0.0
  0
LINE
  5
2B9
330
22A
100
AcDbEntity
  8
0
  6
Continuous
 62
     7
100
AcDbLine
 10
112.5263246099
 20
48.771233337
 30
0.0
 11
114.0673284247
 21
50.31223715180001
 31
0.0
  0
LINE
  5
2BA
330
22A
100
AcDbEntity
  8
0
  6
Continuous
 62
     7
100
AcDbLine
 10
107.3525938275
 20
44.2009003412
 30
0.0
 11
108.431616315
 21
45.2799228287
 31
0.0
  0
LINE
  5
2BB
330
22A
100
AcDbEntity
  8
0
  6
Continuous
 62
     7
100
AcDbLine
 10
111.7937550435
 20
48.6420615572
 30
0.0
 11
113.3347588583
 21
50.183065372
 31
0.0
  0
LINE
  5
2BC
330
22A
100
AcDbEntity
  8
0
  6
Continuous
 62
     7
100
AcDbLine
 10
107.2621467735
 20
44.7138510739
 30
0.0
 11
108.3411692611
 21
45.7928735614
 31
0.0
  0
LINE
  5
2BD
330
22A
100
AcDbEntity
  8
0
  6
Continuous
 62
     7
100
AcDbLine
 10
111.0611854771
 20
48.5128897774
 30
0.0
 11
112.6021892919
 21
50.0538935922
 31
0.0
  0
LINE
  5
2BE
330
22A
100
AcDbEntity
  8
0
  6
Continuous
 62
     7
100
AcDbLine
 10
107.1716997196
 20
45.2268018066
 30
0.0
 11
108.2507222071
 21
46.3058242941
 31
0.0
  0
LINE
  5
2BF
330
22A
100
AcDbEntity
  8
0
  6
Continuous
 62
     7
100
AcDbLine
 10
110.3286159107
 20
48.3837179976
 30
0.0
 11
111.8696197255
 21
49.9247218124
 31
0.0
  0
LINE
  5
2C0
330
22A
100
AcDbEntity
  8
0
  6
Continuous
 62
     7
100
AcDbLine
 10
107.0812526657
 20
45.73975253919999
 30
0.0
 11
108.1602751532
 21
46.8187750267
 31
0.0
  0
LINE
  5
2C1
330
22A
100
AcDbEntity
  8
0
  6
Continuous
 62
     7
100
AcDbLine
 10
109.5960463443
 20
48.2545462178
 30
0.0
 11
111.137050159
 21
49.7955500326
 31
0.0
  0
LINE
  5
2C2
330
22A
100
AcDbEntity
  8
0
  6
Continuous
 62
     7
100
AcDbLine
 10
106.9908056117
 20
46.25270327189999
 30
0.0
 11
108.0698280992
 21
47.33172575939999
 31
0.0
  0
LINE
  5
2C3
330
22A
100
AcDbEntity
  8
0
  6
Continuous
 62
     7
100
AcDbLine
 10
108.8634767778
 20
48.125374438
 30
0.0
 11
110.4044805926
 21
49.66637825279999
 31
0.0
  0
LINE
  5
2C4
330
22A
100
AcDbEntity
  8
0
  6
Continuous
 62
     7
100
AcDbLine
 10
106.9003585578
 20
46.7656540046
 30
0.0
 11
107.9793810453
 21
47.84467649209999
 31
0.0
  0
LINE
  5
2C5
330
22A
100
AcDbEntity
  8
0
  6
Continuous
 62
     7
100
AcDbLine
 10
108.1309072114
 20
47.99620265819999
 30
0.0
 11
109.6719110262
 21
49.537206473
 31
0.0
  0
LINE
  5
2C6
330
22A
100
AcDbEntity
  8
0
  6
Continuous
 62
     7
100
AcDbLine
 10
106.8099115038
 20
47.2786047372
 30
0.0
 11
108.9393414598
 21
49.40803469319999
 31
0.0
  0
LINE
  5
2C7
330
22A
100
AcDbEntity
  8
0
  6
Continuous
 62
     7
100
AcDbLine
 10
106.7194644499
 20
47.7915554699
 30
0.0
 11
108.2067718934
 21
49.27886291340001
 31
0.0
  0
LINE
  5
2C8
330
22A
100
AcDbEntity
  8
0
  6
Continuous
 62
     7
100
AcDbLine
 10
106.6290173959
 20
48.3045062026
 30
0.0
 11
107.4742023269
 21
49.14969113359999
 31
0.0
  0
LINE
  5
2C9
330
22A
100
AcDbEntity
  8
0
  6
Continuous
 62
     7
100
AcDbLine
 10
106.538570342
 20
48.8174569352
 30
0.0
 11
106.7416327605
 21
49.02051935380001
 31
0.0
  0
ENDBLK
  5
2CA
330
22A
100
AcDbEntity
  8
0
  6
ByBlock
 62
     0
100
AcDbBlockEnd
  0
BLOCK
  5
2CB
330
22B
100
AcDbEntity
  8
0
  6
Continuous
 62
     7
100
AcDbBlockBegin
  2
L03-MOTEUR-CONTROLE-LED_BL2
 70
     0
 10
41.37274066699999
 20
65.95403188569999
 30
0.0
  3
L03-MOTEUR-CONTROLE-LED_BL2
  1

  0
TEXT
  5
2CC
330
22B
100
AcDbEntity
  8
0
  6
Continuous
 62
     7
100
AcDbText
 10
40.8443453997
 20
65.2873649597
 30
0.0
 40
1.333333852099999
  1
L
  7
TEXTSTYLE_2
100
AcDbText
  0
ELLIPSE
  5
2CD
330
22B
100
AcDbEntity
  8
0
  6
Continuous
 62
     7
100
AcDbEllipse
 10
41.37274066699999
 20
65.95403188569999
 30
0.0
 11
-1.942887567899999
 21
0.0
 31
0.0
210
0.0
220
0.0
230
1.0
 40
0.6606458385
 41
0.0
 42
6.283185307179586
  0
ENDBLK
  5
2CE
330
22B
100
AcDbEntity
  8
0
  6
ByBlock
 62
     0
100
AcDbBlockEnd
  0
BLOCK
  5
2CF
330
22C
100
AcDbEntity
  8
0
  6
Continuous
 62
     7
100
AcDbBlockBegin
  2
L03-MOTEUR-CONTROLE-LED_BL1
 70
     0
 10
59.6222354517
 20
90.2045287642
 30
0.0
  3
L03-MOTEUR-CONTROLE-LED_BL1
  1

  0
TEXT
  5
2D0
330
22C
100
AcDbEntity
  8
0
  6
Continuous
 62
     7
100
AcDbText
 10
59.09384018439999
 20
89.5378618382
 30
0.0
 40
1.333333852099999
  1
L
  7
TEXTSTYLE_2
100
AcDbText
  0
ELLIPSE
  5
2D1
330
22C
100
AcDbEntity
  8
0
  6
Continuous
 62
     7
100
AcDbEllipse
 10
59.6222354517
 20
90.2045287642
 30
0.0
 11
-1.942887567899999
 21
0.0
 31
0.0
210
0.0
220
0.0
230
1.0
 40
0.6606458385
 41
0.0
 42
6.283185307179586
  0
ENDBLK
  5
2D2
330
22C
100
AcDbEntity
  8
0
  6
ByBlock
 62
     0
100
AcDbBlockEnd
  0
BLOCK
  5
2D3
330
22D
100
AcDbEntity
  8
0
  6
Continuous
 62
     7
100
AcDbBlockBegin
  2
L03-NOTE_SPECS_BAINS_BL0
 70
     0
 10
160.6668444051
 20
55.3329095399
 30
0.0
  3
L03-NOTE_SPECS_BAINS_BL0
  1

  0
TEXT
  5
2D4
330
22D
100
AcDbEntity
  8
0
  6
Continuous
 62
     7
100
AcDbText
 10
144.4190593289
 20
63.106342931
 30
0.0
 40
0.5
  1
Infomations Techniques/Technical Infomations
  7
TEXTSTYLE_2
100
AcDbText
  0
TEXT
  5
2D5
330
22D
100
AcDbEntity
  8
0
  6
Continuous
 62
     7
100
AcDbText
 10
144.6668444051
 20
61.6662428732
 30
0.0
 40
0.6666666667
  1
NOMBRE DE JETS:     
  7
TEXTSTYLE_2
100
AcDbText
  0
TEXT
  5
2D6
330
22D
100
AcDbEntity
  8
0
  6
Continuous
 62
     7
100
AcDbText
 10
154.5112888495
 20
61.6662428732
 30
0.0
 40
0.6666666667
  1
37
  7
TEXTSTYLE_2
100
AcDbText
  0
TEXT
  5
2D7
330
22D
100
AcDbEntity
  8
0
  6
Continuous
 62
     7
100
AcDbText
 10
144.6668444051
 20
60.66624287319999
 30
0.0
 40
0.6666666667
  1
 
  7
TEXTSTYLE_2
100
AcDbText
  0
TEXT
  5
2D8
330
22D
100
AcDbEntity
  8
0
  6
Continuous
 62
     7
100
AcDbText
 10
144.6668444051
 20
59.6662428732
 30
0.0
 40
0.6666666667
  1
NIVEAU D'EAU              GALLONS(US)        LITRES        GALLONS(UK)
  7
TEXTSTYLE_2
100
AcDbText
  0
TEXT
  5
2D9
330
22D
100
AcDbEntity
  8
0
  6
Continuous
 62
     7
100
AcDbText
 10
144.6668444051
 20
58.6662428732
 30
0.0
 40
0.6666666667
  1
PLEIN
  7
TEXTSTYLE_2
100
AcDbText
  0
TEXT
  5
2DA
330
22D
100
AcDbEntity
  8
0
  6
Continuous
 62
     7
100
AcDbText
 10
144.6668444051
 20
57.66624287319999
 30
0.0
 40
0.6666666667
  1
HAUT T.PLEIN
  7
TEXTSTYLE_2
100
AcDbText
  0
TEXT
  5
2DB
330
22D
100
AcDbEntity
  8
0
  6
Continuous
 62
     7
100
AcDbText
 10
144.6668444051
 20
56.6662428732
 30
0.0
 40
0.6666666667
  1
MILIEU T.PLEIN
  7
TEXTSTYLE_2
100
AcDbText
  0
TEXT
  5
2DC
330
22D
100
AcDbEntity
  8
0
  6
Continuous
 62
     7
100
AcDbText
 10
144.6668444051
 20
55.66624287319999
 30
0.0
 40
0.6666666667
  1
BAS T.PLEIN
  7
TEXTSTYLE_2
100
AcDbText
  0
TEXT
  5
2DD
330
22D
100
AcDbEntity
  8
0
  6
Continuous
 62
     7
100
AcDbText
 10
144.6668444051
 20
54.6662428732
 30
0.0
 40
0.6666666667
  1
3" EN BAS T.PLEIN
  7
TEXTSTYLE_2
100
AcDbText
  0
TEXT
  5
2DE
330
22D
100
AcDbEntity
  8
0
  6
Continuous
 62
     7
100
AcDbText
 10
144.6668444051
 20
53.6662428732
 30
0.0
 40
0.6666666667
  1
 
  7
TEXTSTYLE_2
100
AcDbText
  0
TEXT
  5
2DF
330
22D
100
AcDbEntity
  8
0
  6
Continuous
 62
     7
100
AcDbText
 10
144.4666828994
 20
53.1194559484
 30
0.0
 40
0.5
  1
Legende/Legend
  7
TEXTSTYLE_2
100
AcDbText
  0
TEXT
  5
2E0
330
22D
100
AcDbEntity
  8
0
  6
Continuous
 62
     7
100
AcDbText
 10
150.9955178435
 20
51.6081909707
 30
0.0
 40
0.6666666667
  1
ZONE DE ROBINETTERIE
  7
TEXTSTYLE_2
100
AcDbText
  0
TEXT
  5
2E1
330
22D
100
AcDbEntity
  8
0
  6
Continuous
 62
     7
100
AcDbText
 10
145.9157932765
 20
50.1129464563
 30
0.0
 40
0.6666666667
  1
L   :  SYSTEME LED       DC   :  DOUBLE DOSSIER CHAUFFANT
  7
TEXTSTYLE_2
100
AcDbText
  0
TEXT
  5
2E2
330
22D
100
AcDbEntity
  8
0
  6
Continuous
 62
     7
100
AcDbText
 10
145.9157932765
 20
48.779613123
 30
0.0
 40
0.6666666667
  1
C   :  CONTROLE
  7
TEXTSTYLE_2
100
AcDbText
  0
TEXT
  5
2E3
330
22D
100
AcDbEntity
  8
0
  6
Continuous
 62
     7
100
AcDbText
 10
145.9157932765
 20
47.44627978959999
 30
0.0
 40
0.6666666667
  1
T   :  MOTEUR
  7
TEXTSTYLE_2
100
AcDbText
  0
TEXT
  5
2E4
330
22D
100
AcDbEntity
  8
0
  6
Continuous
 62
     7
100
AcDbText
 10
157.2439855488
 20
58.6662428732
 30
0.0
 40
0.6666666667
  1
115
  7
TEXTSTYLE_2
100
AcDbText
  0
TEXT
  5
2E5
330
22D
100
AcDbEntity
  8
0
  6
Continuous
 62
     7
100
AcDbText
 10
157.4995411044
 20
57.66624287319999
 30
0.0
 40
0.6666666667
  1
75
  7
TEXTSTYLE_2
100
AcDbText
  0
TEXT
  5
2E6
330
22D
100
AcDbEntity
  8
0
  6
Continuous
 62
     7
100
AcDbText
 10
157.4995411044
 20
56.6662428732
 30
0.0
 40
0.6666666667
  1
74
  7
TEXTSTYLE_2
100
AcDbText
  0
TEXT
  5
2E7
330
22D
100
AcDbEntity
  8
0
  6
Continuous
 62
     7
100
AcDbText
 10
157.4995411044
 20
55.66624287319999
 30
0.0
 40
0.6666666667
  1
55
  7
TEXTSTYLE_2
100
AcDbText
  0
TEXT
  5
2E8
330
22D
100
AcDbEntity
  8
0
  6
Continuous
 62
     7
100
AcDbText
 10
164.4197470481
 20
58.6833222753
 30
0.0
 40
0.6666666667
  1
437
  7
TEXTSTYLE_2
100
AcDbText
  0
TEXT
  5
2E9
330
22D
100
AcDbEntity
  8
0
  6
Continuous
 62
     7
100
AcDbText
 10
164.4197470481
 20
57.6833222753
 30
0.0
 40
0.6666666667
  1
284
  7
TEXTSTYLE_2
100
AcDbText
  0
TEXT
  5
2EA
330
22D
100
AcDbEntity
  8
0
  6
Continuous
 62
     7
100
AcDbText
 10
164.4197470481
 20
56.6833222753
 30
0.0
 40
0.6666666667
  1
280
  7
TEXTSTYLE_2
100
AcDbText
  0
TEXT
  5
2EB
330
22D
100
AcDbEntity
  8
0
  6
Continuous
 62
     7
100
AcDbText
 10
164.4197470481
 20
55.6833222753
 30
0.0
 40
0.6666666667
  1
209
  7
TEXTSTYLE_2
100
AcDbText
  0
TEXT
  5
2EC
330
22D
100
AcDbEntity
  8
0
  6
Continuous
 62
     7
100
AcDbText
 10
171.3643859856
 20
58.6662428732
 30
0.0
 40
0.6666666667
  1
96
  7
TEXTSTYLE_2
100
AcDbText
  0
TEXT
  5
2ED
330
22D
100
AcDbEntity
  8
0
  6
Continuous
 62
     7
100
AcDbText
 10
171.3643859856
 20
57.66624287319999
 30
0.0
 40
0.6666666667
  1
63
  7
TEXTSTYLE_2
100
AcDbText
  0
TEXT
  5
2EE
330
22D
100
AcDbEntity
  8
0
  6
Continuous
 62
     7
100
AcDbText
 10
171.3643859856
 20
56.6662428732
 30
0.0
 40
0.6666666667
  1
62
  7
TEXTSTYLE_2
100
AcDbText
  0
TEXT
  5
2EF
330
22D
100
AcDbEntity
  8
0
  6
Continuous
 62
     7
100
AcDbText
 10
171.3643859856
 20
55.66624287319999
 30
0.0
 40
0.6666666667
  1
46
  7
TEXTSTYLE_2
100
AcDbText
  0
LINE
  5
2F0
330
22D
100
AcDbEntity
  8
0
  6
Continuous
 62
     7
100
AcDbLine
 10
144.0001777384
 20
63.9995762066
 30
0.0
 11
144.0001777384
 21
46.6662428732
 31
0.0
  0
LINE
  5
2F1
330
22D
100
AcDbEntity
  8
0
  6
Continuous
 62
     7
100
AcDbLine
 10
144.0001777384
 20
63.9995762066
 30
0.0
 11
177.3335110716999
 21
63.9995762066
 31
0.0
  0
LINE
  5
2F2
330
22D
100
AcDbEntity
  8
0
  6
Continuous
 62
     7
100
AcDbLine
 10
177.3335110716999
 20
63.9995762066
 30
0.0
 11
177.3335110716999
 21
46.6662428732
 31
0.0
  0
LINE
  5
2F3
330
22D
100
AcDbEntity
  8
0
  6
Continuous
 62
     7
100
AcDbLine
 10
144.0001777384
 20
46.6662428732
 30
0.0
 11
177.3335110716999
 21
46.6662428732
 31
0.0
  0
LINE
  5
2F4
330
22D
100
AcDbEntity
  8
0
  6
Continuous
 62
     7
100
AcDbLine
 10
145.3335110717
 20
53.9995762066
 30
0.0
 11
176.0001777384
 21
53.9995762066
 31
0.0
  0
LINE
  5
2F5
330
22D
100
AcDbEntity
  8
0
  6
Continuous
 62
     7
100
AcDbLine
 10
145.3335110717
 20
60.99957620659999
 30
0.0
 11
176.0001777384
 21
60.99957620659999
 31
0.0
  0
LINE
  5
2F6
330
22D
100
AcDbEntity
  8
0
  6
Continuous
 62
     7
100
AcDbLine
 10
144.8090842977
 20
52.3777407109
 30
0.0
 11
144.4400635553
 21
52.0087199686
 31
0.0
  0
LINE
  5
2F7
330
22D
100
AcDbEntity
  8
0
  6
Continuous
 62
     7
100
AcDbLine
 10
145.4757509643
 20
52.3777407109
 30
0.0
 11
144.6777351739
 21
51.57972492049999
 31
0.0
  0
LINE
  5
2F8
330
22D
100
AcDbEntity
  8
0
  6
Continuous
 62
     7
100
AcDbLine
 10
146.142417631
 20
52.3777407109
 30
0.0
 11
145.3444018406
 21
51.57972492049999
 31
0.0
  0
LINE
  5
2F9
330
22D
100
AcDbEntity
  8
0
  6
Continuous
 62
     7
100
AcDbLine
 10
146.8090842977
 20
52.3777407109
 30
0.0
 11
146.0110685072
 21
51.57972492049999
 31
0.0
  0
LINE
  5
2FA
330
22D
100
AcDbEntity
  8
0
  6
Continuous
 62
     7
100
AcDbLine
 10
147.4757509643
 20
52.3777407109
 30
0.0
 11
146.6777351739
 21
51.57972492049999
 31
0.0
  0
LINE
  5
2FB
330
22D
100
AcDbEntity
  8
0
  6
Continuous
 62
     7
100
AcDbLine
 10
148.142417631
 20
52.3777407109
 30
0.0
 11
147.3444018406
 21
51.57972492049999
 31
0.0
  0
LINE
  5
2FC
330
22D
100
AcDbEntity
  8
0
  6
Continuous
 62
     7
100
AcDbLine
 10
148.8090842977
 20
52.3777407109
 30
0.0
 11
148.0110685072
 21
51.57972492049999
 31
0.0
  0
LINE
  5
2FD
330
22D
100
AcDbEntity
  8
0
  6
Continuous
 62
     7
100
AcDbLine
 10
149.4757509643
 20
52.3777407109
 30
0.0
 11
148.6777351739
 21
51.57972492049999
 31
0.0
  0
LINE
  5
2FE
330
22D
100
AcDbEntity
  8
0
  6
Continuous
 62
     7
100
AcDbLine
 10
150.142417631
 20
52.3777407109
 30
0.0
 11
149.3444018406
 21
51.57972492049999
 31
0.0
  0
LINE
  5
2FF
330
22D
100
AcDbEntity
  8
0
  6
Continuous
 62
     7
100
AcDbLine
 10
150.5859050651
 20
52.1545614784
 30
0.0
 11
150.0110685072
 21
51.57972492049999
 31
0.0
  0
ELLIPSE
  5
300
330
22D
100
AcDbEntity
  8
0
  6
Continuous
 62
     7
100
AcDbEllipse
 10
146.1455802206
 20
50.4305239135
 30
0.0
 11
1.0473539356
 21
0.0
 31
0.0
210
0.0
220
0.0
230
1.0
 40
0.4938647983
 41
0.0
 42
6.283185307179586
  0
ELLIPSE
  5
301
330
22D
100
AcDbEntity
  8
0
  6
Continuous
 62
     7
100
AcDbEllipse
 10
146.1455802206
 20
49.09719058020001
 30
0.0
 11
1.0473539356
 21
0.0
 31
0.0
210
0.0
220
0.0
230
1.0
 40
0.4938647983
 41
0.0
 42
6.283185307179586
  0
ELLIPSE
  5
302
330
22D
100
AcDbEntity
  8
0
  6
Continuous
 62
     7
100
AcDbEllipse
 10
146.1455802206
 20
47.76385724679999
 30
0.0
 11
1.0473539356
 21
0.0
 31
0.0
210
0.0
220
0.0
230
1.0
 40
0.4938647983
 41
0.0
 42
6.283185307179586
  0
ELLIPSE
  5
303
330
22D
100
AcDbEntity
  8
0
  6
Continuous
 62
     7
100
AcDbEllipse
 10
157.1642158017
 20
50.45004527060001
 30
0.0
 11
1.0473539356
 21
0.0
 31
0.0
210
0.0
220
0.0
230
1.0
 40
0.4938647983
 41
0.0
 42
6.283185307179586
  0
ENDBLK
  5
304
330
22D
100
AcDbEntity
  8
0
  6
ByBlock
 62
     0
100
AcDbBlockEnd
  0
ENDSEC
  0
SECTION
  2
ENTITIES
  0
LWPOLYLINE
  5
153D
330
216
100
AcDbEntity
  8
0
  6
Continuous
 62
     7
100
AcDbPolyline
 90
       50
 70
     0
 43
0.0
 10
13.051602819
 20
77.63685716960001
 10
13.0677555422
 20
76.9832177314
 10
13.1171863583
 20
76.31745867460001
 10
13.1998143823
 20
75.65434154229999
 10
13.3155254089
 20
74.9956811947
 10
13.4641579086
 20
74.3433215385
 10
13.6453133472
 20
73.6990978333
 10
13.8584010488
 20
73.06476380460001
 10
14.1027977035
 20
72.4420495384
 10
14.377936581
 20
71.832490659
 10
14.6834555843
 20
71.23710556929999
 10
15.0189756921
 20
70.65679395620001
 10
15.3841907276
 20
70.09251020269999
 10
15.7781492946
 20
69.5461338495
 10
16.1982182576
 20
69.0213498791
 10
16.6410151187
 20
68.52166237510001
 10
17.102721192
 20
68.05002793239999
 10
17.5829613252
 20
67.605430461
 10
18.0887113045
 20
67.1813894935
 10
18.629046679
 20
66.7725690922
 10
19.2142143459
 20
66.37570215609999
 10
19.8507071828
 20
65.9926962393
 10
20.5376825044
 20
65.6308888018
 10
21.2668237386
 20
65.288545728
 10
22.0286666228
 20
64.95151425189999
 10
22.8234071461
 20
64.620199673
 10
23.6526164029
 20
64.2947601118
 10
24.517901037
 20
63.9754573727
 10
25.4207821495
 20
63.66251518520001
 10
26.3613314263
 20
63.35656941789999
 10
27.3381211514
 20
63.058502528
 10
28.3495854914
 20
62.7689183067
 10
29.394127022
 20
62.4881109939
 10
30.4705543989
 20
62.21602794039999
 10
31.5781291303
 20
61.9527373385
 10
32.7162545425
 20
61.6989087341
 10
33.88429442830001
 20
61.4551391397
 10
35.081590806
 20
61.2219183929
 10
36.30745692650001
 20
60.99959398399999
 10
37.5615267793
 20
60.78843169479999
 10
38.84503669300001
 20
60.5881942905
 10
40.1600640631
 20
60.3990774933
 10
41.5092382588
 20
60.2262851036
 10
42.8944770094
 20
60.0725658286
 10
44.31761600649999
 20
59.9395065267
 10
45.78049192439999
 20
59.828884623
 10
47.2848920879
 20
59.74258138989999
 10
48.8324785884
 20
59.68304644819999
 10
50.42459878089999
 20
59.64886554069999
 10
51.0783452312
 20
59.6414605663
  0
LWPOLYLINE
  5
153E
330
216
100
AcDbEntity
  8
0
  6
Continuous
 62
     7
100
AcDbPolyline
 90
       79
 70
     0
 43
0.0
 10
14.6312046044
 20
77.63685725239999
 10
14.6458033781
 20
77.0502665327
 10
14.6892456301
 20
76.4650985551
 10
14.7608129834
 20
75.8902625313
 10
14.8611116285
 20
75.3189247138
 10
14.9909216052
 20
74.7475881072
 10
15.1496755246
 20
74.1802180894
 10
15.3360121429
 20
73.6221298115
 10
15.5487795367
 20
73.07641004309999
 10
15.7873617157
 20
72.5441174563
 10
16.0518424559
 20
72.0248057118
 10
16.3423993627
 20
71.51815704010001
 10
16.6584291258
 20
71.0253978288
 10
16.9983790848
 20
70.5490208422
 10
17.3616248114
 20
70.0899601693
 10
17.7301054245
 20
69.6681498298
 10
18.0769739116
 20
69.3054626471
 10
18.3944033464
 20
68.99905935859999
 10
18.6843157392
 20
68.73827726
 10
18.9493851143
 20
68.5144040997
 10
19.1916005643
 20
68.32113306640001
 10
19.4132623004
 20
68.1531510308
 10
19.6168434095
 20
68.0059516816
 10
19.8037317008
 20
67.8765007043
 10
19.973709361
 20
67.76329068779999
 10
20.1270299206
 20
67.66475889670001
 10
20.2672667502
 20
67.5775365746
 10
20.3996910091
 20
67.49765460819999
 10
20.5297550939
 20
67.42148272930001
 10
20.6613188956
 20
67.34668229250001
 10
20.7938935002
 20
67.27351847130001
 10
20.9270185401
 20
67.2022023545
 10
21.0615162251
 20
67.1324294402
 10
21.1977095214
 20
67.0641581416
 10
21.3351764732
 20
66.9972568215
 10
21.472611355
 20
66.9317709803
 10
21.6086718221
 20
66.86788757169999
 10
21.7455147861
 20
66.8043929301
 10
21.8868728083
 20
66.7395341592
 10
22.0329824088
 20
66.6732329922
 10
22.1821920761
 20
66.60628795840001
 10
22.3368675244
 20
66.53772006930001
 10
22.5016246084
 20
66.46562511199999
 10
22.6811810941
 20
66.3881463217
 10
22.8799701624
 20
66.3036555168
 10
23.1000711755
 20
66.211633589
 10
23.3426407639
 20
66.1120261886
 10
23.6089853437
 20
66.00478357510001
 10
23.9019155239
 20
65.8893403759
 10
24.2252479758
 20
65.7648776804
 10
24.5830036446
 20
65.630666492
 10
24.9798856456
 20
65.48591016029999
 10
25.4208877827
 20
65.32993568870001
 10
25.9121652541
 20
65.16193676979999
 10
26.4608741312
 20
64.9811083326
 10
27.0753667913
 20
64.7866436643
 10
27.7653841449
 20
64.57774257949999
 10
28.5421679459
 20
64.353677797
 10
29.4186557494
 20
64.1137715076
 10
30.4111456141
 20
63.8570059127
 10
31.53745234840001
 20
63.5829574174
 10
32.81372627590001
 20
63.2931674693
 10
34.263442087
 20
62.9892279765
 10
35.9115957477
 20
62.67402611560001
 10
37.7403881404
 20
62.3591776217
 10
39.5855791294
 20
62.0748878983
 10
41.2711017207
 20
61.8465068152
 10
42.7552813952
 20
61.6750007217
 10
44.0663431838
 20
61.54680664569999
 10
45.23191967129999
 20
61.45102784649999
 10
46.26955012029999
 20
61.3801549864
 10
47.1849253776
 20
61.328944625
 10
47.98309445229999
 20
61.293012101
 10
48.6944990972
 20
61.26755651689999
 10
49.3625672816
 20
61.24893247100001
 10
50.0286020697
 20
61.23497007800001
 10
50.70410479279999
 20
61.2249582233
 10
51.3810691309
 20
61.2188855701
 10
52.0511538021
 20
61.2168533777
  0
LWPOLYLINE
  5
153F
330
216
100
AcDbEntity
  8
0
  6
Continuous
 62
     7
100
AcDbPolyline
 90
       79
 70
     0
 43
0.0
 10
14.6312046044
 20
77.63685725239999
 10
14.6458033781
 20
78.223447972
 10
14.6892456301
 20
78.80861594959999
 10
14.7608129834
 20
79.3834519734
 10
14.8611116285
 20
79.95478979090001
 10
14.9909216052
 20
80.5261263975
 10
15.1496755246
 20
81.0934964153
 10
15.3360121429
 20
81.65158469319999
 10
15.5487795367
 20
82.19730446159999
 10
15.7873617157
 20
82.72959704839999
 10
16.0518424559
 20
83.2489087929
 10
16.3423993627
 20
83.75555746459999
 10
16.6584291258
 20
84.2483166759
 10
16.9983790848
 20
84.72469366250001
 10
17.3616248114
 20
85.18375433539999
 10
17.7301054245
 20
85.6055646749
 10
18.0769739116
 20
85.96825185760001
 10
18.3944033464
 20
86.27465514609999
 10
18.6843157392
 20
86.53543724469999
 10
18.9493851143
 20
86.759310405
 10
19.1916005643
 20
86.95258143830001
 10
19.4132623004
 20
87.12056347389999
 10
19.6168434095
 20
87.2677628231
 10
19.8037317008
 20
87.3972138004
 10
19.973709361
 20
87.5104238169
 10
20.1270299206
 20
87.60895560799999
 10
20.2672667502
 20
87.6961779301
 10
20.3996910091
 20
87.7760598965
 10
20.5297550939
 20
87.85223177540002
 10
20.6613188956
 20
87.92703221229999
 10
20.7938935002
 20
88.0001960334
 10
20.9270185401
 20
88.07151215020001
 10
21.0615162251
 20
88.14128506450002
 10
21.1977095214
 20
88.20955636309999
 10
21.3351764732
 20
88.2764576832
 10
21.472611355
 20
88.3419435244
 10
21.6086718221
 20
88.40582693299998
 10
21.7455147861
 20
88.46932157459999
 10
21.8868728083
 20
88.53418034549999
 10
22.0329824088
 20
88.6004815125
 10
22.1821920761
 20
88.6674265463
 10
22.3368675244
 20
88.73599443539999
 10
22.5016246084
 20
88.8080893927
 10
22.6811810941
 20
88.88556818299999
 10
22.8799701624
 20
88.9700589879
 10
23.1000711755
 20
89.06208091569999
 10
23.3426407639
 20
89.16168831610001
 10
23.6089853437
 20
89.26893092959998
 10
23.9019155239
 20
89.38437412889999
 10
24.2252479758
 20
89.50883682430001
 10
24.5830036446
 20
89.64304801270001
 10
24.9798856456
 20
89.7878043444
 10
25.4208877827
 20
89.943778816
 10
25.9121652541
 20
90.1117777349
 10
26.4608741312
 20
90.29260617209999
 10
27.0753667913
 20
90.48707084040001
 10
27.7653841449
 20
90.69597192519999
 10
28.5421679459
 20
90.92003670770001
 10
29.4186557494
 20
91.15994299719998
 10
30.4111456141
 20
91.41670859200001
 10
31.53745234840001
 20
91.6907570873
 10
32.81372627590001
 20
91.9805470354
 10
34.263442087
 20
92.28448652819999
 10
35.9115957477
 20
92.59968838909999
 10
37.7403881404
 20
92.914536883
 10
39.5855791294
 20
93.19882660639999
 10
41.2711017207
 20
93.4272076895
 10
42.7552813952
 20
93.59871378299999
 10
44.0663431838
 20
93.72690785899999
 10
45.23191967129999
 20
93.82268665819999
 10
46.26955012029999
 20
93.89355951829999
 10
47.1849253776
 20
93.9447698797
 10
47.98309445229999
 20
93.98070240370001
 10
48.6944990972
 20
94.0061579878
 10
49.3625672816
 20
94.0247820337
 10
50.0286020697
 20
94.0387444267
 10
50.70410479279999
 20
94.04875628139999
 10
51.3810691309
 20
94.0548289346
 10
52.0511538021
 20
94.05686112700001
  0
LWPOLYLINE
  5
1540
330
216
100
AcDbEntity
  8
0
  6
Continuous
 62
     7
100
AcDbPolyline
 90
       21
 70
     0
 43
0.0
 10
30.9843386858
 20
89.63946431990001
 10
30.9831696239
 20
89.63829407590001
 10
30.9795238061
 20
89.6352340439
 10
30.975148264
 20
89.63203049790001
 10
30.9700617344
 20
89.628697156
 10
30.9642859985
 20
89.6252482921
 10
30.9578457891
 20
89.6216986746
 10
30.950768684
 20
89.61806350370002
 10
30.9430849885
 20
89.6143583457
 10
30.9348276054
 20
89.6105990666
 10
30.926031894
 20
89.6068017642
 10
30.916735519
 20
89.6029826993
 10
30.9069782888
 20
89.5991582255
 10
30.8968019852
 20
89.5953447199
 10
30.88625018510001
 20
89.59155851250001
 10
30.8753680729
 20
89.5878158166
 10
30.8642022473
 20
89.58413265870001
 10
30.8528005213
 20
89.58052481059999
 10
30.8412117197
 20
89.5770077218
 10
30.8294854674
 20
89.57359645309999
 10
30.817671978
 20
89.57030561200001
  0
LWPOLYLINE
  5
1541
330
216
100
AcDbEntity
  8
0
  6
Continuous
 62
     7
100
AcDbPolyline
 90
      114
 70
     0
 43
0.0
 10
30.9877039087
 20
77.63685725239999
 10
30.9886721547
 20
77.51152161490001
 10
30.9915873869
 20
77.38586659159999
 10
30.996457027
 20
77.26004936009999
 10
31.0032798374
 20
77.1341933616
 10
31.0120508898
 20
77.0083756744
 10
31.0227678442
 20
76.8826127999
 10
31.0354353777
 20
76.7568717641
 10
31.0500642946
 20
76.63110627399999
 10
31.0666688707
 20
76.5052781557
 10
31.0852653737
 20
76.3793601252
 10
31.1058703264
 20
76.25333820759999
 10
31.12849873
 20
76.1272133197
 10
31.1531638795
 20
76.00099568560001
 10
31.1798783566
 20
75.8746980435
 10
31.2086542131
 20
75.74833468369999
 10
31.239502973
 20
75.6219214671
 10
31.2724358436
 20
75.49547510949999
 10
31.3074639218
 20
75.36901274659999
 10
31.3445984361
 20
75.24255155119999
 10
31.3838510451
 20
75.1161083229
 10
31.4252342065
 20
74.98969902359999
 10
31.4687615655
 20
74.8633384262
 10
31.5144485942
 20
74.73703925069999
 10
31.5623134867
 20
74.6108108193
 10
31.6123776688
 20
74.4846584732
 10
31.6646657607
 20
74.3585840731
 10
31.7192056888
 20
74.23258603669999
 10
31.7760278925
 20
74.1066611856
 10
31.8351612897
 20
73.9808121038
 10
31.8966283385
 20
73.855054723
 10
31.9604432036
 20
73.72941987709999
 10
32.0266107904
 20
73.60395312359999
 10
32.0951264847
 20
73.47871344939999
 10
32.1659827145
 20
73.35376173739999
 10
32.239178387
 20
73.22914801679999
 10
32.3147249028
 20
73.104903518
 10
32.3926444454
 20
72.98104721999999
 10
32.472965234
 20
72.85759110879999
 10
32.5557126308
 20
72.7345617294
 10
32.6408440647
 20
72.612060151
 10
32.7280403509
 20
72.4906011658
 10
32.8167406152
 20
72.37084755099999
 10
32.9054759162
 20
72.2547535329
 10
32.9933395535
 20
72.14345799420001
 10
33.0819671685
 20
72.0346776757
 10
33.1728674429
 20
71.92675824520001
 10
33.2663810547
 20
71.81915797960001
 10
33.3604587564
 20
71.7142901294
 10
33.4487089697
 20
71.618770036
 10
33.527128108
 20
71.53614475329999
 10
33.5968643263
 20
71.4643363622
 10
33.6595883741
 20
71.4009054065
 10
33.7158282445
 20
71.34517430409999
 10
33.7663653204
 20
71.2960692633
 10
33.8111007494
 20
71.2533384077
 10
33.8526079033
 20
71.2142192176
 10
33.8972854846
 20
71.17137674680001
 10
33.9492000447
 20
71.1220550868
 10
34.0081692899
 20
71.0677776575
 10
34.07506019199999
 20
71.00817694939999
 10
34.1517807474
 20
70.9419216721
 10
34.2399419884
 20
70.86801196909999
 10
34.3416165017
 20
70.7850786428
 10
34.4566275245
 20
70.6938691582
 10
34.578434298
 20
70.6001520782
 10
34.701431315
 20
70.50845143700001
 10
34.82650667330001
 20
70.4181039098
 10
34.95521350030001
 20
70.3280305886
 10
35.0874930634
 20
70.23835521969999
 10
35.2231549057
 20
70.14928410479999
 10
35.3621790799
 20
70.06090162399999
 10
35.50472339320001
 20
69.97317922149999
 10
35.65097531820001
 20
69.8860786051
 10
35.8011300628
 20
69.7995665241
 10
35.9553957832
 20
69.7136120685
 10
36.1139753913
 20
69.6281971405
 10
36.2770620623
 20
69.54331825289999
 10
36.4448517115
 20
69.45897922330001
 10
36.6175428824
 20
69.37519110609999
 10
36.795351095
 20
69.29196549560001
 10
36.9784750706
 20
69.2093303578
 10
37.1672581863
 20
69.1272592662
 10
37.36167791670001
 20
69.04589243300001
 10
37.5592344146
 20
68.96634135890001
 10
37.7563365731
 20
68.88997495699999
 10
37.9529190331
 20
68.81666977720001
 10
38.1512207103
 20
68.7455198433
 10
38.3520776868
 20
68.67624021960001
 10
38.5553528276
 20
68.6089074934
 10
38.760937031
 20
68.54358319970001
 10
38.9691455924
 20
68.48019720669999
 10
39.1790882275
 20
68.4190432383
 10
39.3817792294
 20
68.36257521100001
 10
39.5650212695
 20
68.3136562784
 10
39.7261430648
 20
68.27228162629999
 10
39.8687726419
 20
68.2369166827
 10
39.99588783530001
 20
68.2063907153
 10
40.1096249706
 20
68.1798627547
 10
40.21182529319999
 20
68.1566441691
 10
40.30394873099999
 20
68.13621703559999
 10
40.3872044658
 20
68.1181737223
 10
40.4627093643
 20
68.1021276787
 10
40.531298917
 20
68.0878240777
 10
40.59356971999999
 20
68.07508629659999
 10
40.6503141223
 20
68.0636507967
 10
40.7021875592
 20
68.05332199270001
 10
40.7495032418
 20
68.0440489031
 10
40.7928695903
 20
68.035684609
 10
40.8324435705
 20
68.0280889226
 10
40.8684386515
 20
68.0212835075
 10
40.9026746893
 20
68.0148324207
 10
40.9373073294
 20
68.0089870116
 10
41.01718448689999
 20
67.99530039060001
  0
LWPOLYLINE
  5
1542
330
216
100
AcDbEntity
  8
0
  6
Continuous
 62
     7
100
AcDbPolyline
 90
      113
 70
     0
 43
0.0
 10
30.9877039087
 20
77.63685725239999
 10
30.9886721547
 20
77.76219288979999
 10
30.9915873869
 20
77.8878479131
 10
30.996457027
 20
78.01366514459999
 10
31.0032798374
 20
78.1395211431
 10
31.0120508898
 20
78.26533883029999
 10
31.0227678442
 20
78.39110170479999
 10
31.0354353777
 20
78.5168427406
 10
31.0500642946
 20
78.64260823069999
 10
31.0666688707
 20
78.768436349
 10
31.0852653737
 20
78.8943543795
 10
31.1058703264
 20
79.0203762971
 10
31.12849873
 20
79.146501185
 10
31.1531638795
 20
79.27271881909999
 10
31.1798783566
 20
79.3990164612
 10
31.2086542131
 20
79.525379821
 10
31.239502973
 20
79.6517930376
 10
31.2724358436
 20
79.7782393952
 10
31.3074639218
 20
79.9047017581
 10
31.3445984361
 20
80.0311629535
 10
31.3838510451
 20
80.15760618180001
 10
31.4252342065
 20
80.2840154811
 10
31.4687615655
 20
80.4103760785
 10
31.5144485942
 20
80.53667525399999
 10
31.5623134867
 20
80.6629036854
 10
31.6123776688
 20
80.78905603149999
 10
31.6646657607
 20
80.9151304316
 10
31.7192056888
 20
81.04112846799999
 10
31.7760278925
 20
81.16705331909999
 10
31.8351612897
 20
81.2929024009
 10
31.8966283385
 20
81.41865978170001
 10
31.9604432036
 20
81.54429462759999
 10
32.0266107904
 20
81.66976138109999
 10
32.0951264847
 20
81.79500105529999
 10
32.1659827145
 20
81.9199527674
 10
32.239178387
 20
82.044566488
 10
32.3147249028
 20
82.16881098669999
 10
32.3926444454
 20
82.29266728469999
 10
32.472965234
 20
82.4161233959
 10
32.5557126308
 20
82.53915277529999
 10
32.6408440647
 20
82.6616543537
 10
32.7280403509
 20
82.7831133389
 10
32.8167406152
 20
82.90286695369999
 10
32.9054759162
 20
83.0189609718
 10
32.9933395535
 20
83.13025651050001
 10
33.0819671685
 20
83.23903682900001
 10
33.1728674429
 20
83.34695625950001
 10
33.2663810547
 20
83.4545565251
 10
33.3604587564
 20
83.5594243753
 10
33.4487089697
 20
83.6549444687
 10
33.527128108
 20
83.7375697514
 10
33.5968643263
 20
83.8093781425
 10
33.6595883741
 20
83.87280909819999
 10
33.7158282445
 20
83.92854020060001
 10
33.7663653204
 20
83.97764524139999
 10
33.8111007494
 20
84.02037609709999
 10
33.8526079033
 20
84.05949528710001
 10
33.8972854846
 20
84.1023377579
 10
33.9492000447
 20
84.1516594179
 10
34.0081692899
 20
84.20593684729999
 10
34.07506019199999
 20
84.26553755529999
 10
34.1517807474
 20
84.33179283260001
 10
34.2399419884
 20
84.4057025356
 10
34.3416165017
 20
84.48863586189998
 10
34.4566275245
 20
84.5798453465
 10
34.578434298
 20
84.6735624265
 10
34.701431315
 20
84.76526306770001
 10
34.82650667330001
 20
84.85561059490001
 10
34.95521350030001
 20
84.9456839161
 10
35.0874930634
 20
85.03535928499999
 10
35.2231549057
 20
85.12443039989999
 10
35.3621790799
 20
85.21281288069999
 10
35.50472339320001
 20
85.30053528319999
 10
35.65097531820001
 20
85.3876358996
 10
35.8011300628
 20
85.47414798060001
 10
35.9553957832
 20
85.56010243619999
 10
36.1139753913
 20
85.6455173642
 10
36.2770620623
 20
85.73039625179999
 10
36.4448517115
 20
85.8147352814
 10
36.6175428824
 20
85.8985233986
 10
36.795351095
 20
85.98174900910001
 10
36.9784750706
 20
86.06438414690002
 10
37.1672581863
 20
86.14645523850001
 10
37.36167791670001
 20
86.22782207170001
 10
37.5592344146
 20
86.30737314580001
 10
37.7563365731
 20
86.38373954770001
 10
37.9529190331
 20
86.45704472750001
 10
38.1512207103
 20
86.5281946614
 10
38.3520776868
 20
86.5974742851
 10
38.5553528276
 20
86.66480701129998
 10
38.760937031
 20
86.73013130500001
 10
38.9691455924
 20
86.793517298
 10
39.1790882275
 20
86.85467126639998
 10
39.3817792294
 20
86.91113929370001
 10
39.5650212695
 20
86.96005822629999
 10
39.7261430648
 20
87.00143287839999
 10
39.8687726419
 20
87.03679782200001
 10
39.99588783530001
 20
87.06732378940001
 10
40.1096249706
 20
87.09385174999999
 10
40.21182529319999
 20
87.11707033559999
 10
40.30394873099999
 20
87.1374974691
 10
40.3872044658
 20
87.1555407824
 10
40.4627093643
 20
87.171586826
 10
40.531298917
 20
87.18589042700001
 10
40.59356971999999
 20
87.19862820809998
 10
40.6503141223
 20
87.21006370799999
 10
40.7021875592
 20
87.220392512
 10
40.7495032418
 20
87.22966560160001
 10
40.7928695903
 20
87.2380298957
 10
40.8324435705
 20
87.24562558209999
 10
40.8684386515
 20
87.2524309972
 10
40.9026746893
 20
87.25888208399998
 10
40.9373073294
 20
87.2647274931
  0
LINE
  5
1543
330
216
100
AcDbEntity
  8
0
  6
Continuous
 62
     7
100
AcDbLine
 10
32.78890656300001
 20
90.16505385969999
 30
0.0
 11
32.7929683285
 21
90.19302960709998
 31
0.0
  0
LINE
  5
1544
330
216
100
AcDbEntity
  8
0
  6
Continuous
 62
     7
100
AcDbLine
 10
32.7929683285
 20
90.19302960709998
 30
0.0
 11
32.7963695128
 21
90.21600675829999
 31
0.0
  0
LINE
  5
1545
330
216
100
AcDbEntity
  8
0
  6
Continuous
 62
     7
100
AcDbLine
 10
32.7963695128
 20
90.21600675829999
 30
0.0
 11
32.7988604311
 21
90.23259432639999
 31
0.0
  0
LINE
  5
1546
330
216
100
AcDbEntity
  8
0
  6
Continuous
 62
     7
100
AcDbLine
 10
32.7988604311
 20
90.23259432639999
 30
0.0
 11
32.8012969219
 21
90.24862423040001
 31
0.0
  0
LINE
  5
1547
330
216
100
AcDbEntity
  8
0
  6
Continuous
 62
     7
100
AcDbLine
 10
32.8012969219
 20
90.24862423040001
 30
0.0
 11
32.8035044706
 21
90.26298536799998
 31
0.0
  0
LINE
  5
1548
330
216
100
AcDbEntity
  8
0
  6
Continuous
 62
     7
100
AcDbLine
 10
32.8035044706
 20
90.26298536799998
 30
0.0
 11
32.806095818
 21
90.27964955739999
 31
0.0
  0
LINE
  5
1549
330
216
100
AcDbEntity
  8
0
  6
Continuous
 62
     7
100
AcDbLine
 10
32.806095818
 20
90.27964955739999
 30
0.0
 11
32.8089069424
 21
90.29749611319999
 31
0.0
  0
LWPOLYLINE
  5
154A
330
216
100
AcDbEntity
  8
0
  6
Continuous
 62
     7
100
AcDbPolyline
 90
        3
 70
     0
 43
0.0
 10
32.8089069424
 20
90.29749611319999
 10
32.8119487855
 20
90.31654571909999
 10
32.8135058473
 20
90.32619297770001
  0
LWPOLYLINE
  5
154B
330
216
100
AcDbEntity
  8
0
  6
Continuous
 62
     7
100
AcDbPolyline
 90
        4
 70
     0
 43
0.0
 10
32.8135058473
 20
90.32619297770001
 10
32.8183281851
 20
90.35564632959999
 10
32.82349261989999
 20
90.38649712020001
 10
32.8292704739
 20
90.42020453030001
  0
LWPOLYLINE
  5
154C
330
216
100
AcDbEntity
  8
0
  6
Continuous
 62
     7
100
AcDbPolyline
 90
       84
 70
     0
 43
0.0
 10
52.0511434781
 20
59.6372557392
 10
53.084267104
 20
59.6419597362
 10
54.0210636821
 20
59.65434683739999
 10
54.8720572657
 20
59.6722935178
 10
55.642152975
 20
59.6940297304
 10
56.33594133969999
 20
59.7180509007
 10
56.960576285
 20
59.74327013979999
 10
57.5253070221
 20
59.7690184505
 10
58.0401078485
 20
59.79494027939999
 10
58.5144156886
 20
59.82090255600001
 10
58.9537584398
 20
59.8467428133
 10
59.3578571572
 20
59.8720423406
 10
59.7253353336
 20
59.8963317814
 10
60.05981397260001
 20
59.91950123199999
 10
60.3704142706
 20
59.9419172384
 10
60.6683650987
 20
59.96423808350001
 10
60.9633096762
 20
59.9871430062
 10
61.25893916989999
 20
60.01093208989999
 10
61.5544347987
 20
60.0355259153
 10
61.84994355649999
 20
60.0608599495
 10
62.1460938647
 20
60.0869251665
 10
62.4422218023
 20
60.11394448589999
 10
62.7373041138
 20
60.14242607149999
 10
63.0313061854
 20
60.1729317728
 10
63.3245610249
 20
60.2056707928
 10
63.61732706
 20
60.24063360319999
 10
63.90990681619999
 20
60.27782798
 10
64.2033274649
 20
60.3173989702
 10
64.5016415163
 20
60.3599777366
 10
64.812287173
 20
60.4068494267
 10
65.14378055779999
 20
60.4597247945
 10
65.5046058585
 20
60.5206430728
 10
65.9029157322
 20
60.5919786215
 10
66.34655123749999
 20
60.67651162789999
 10
66.8433489042
 20
60.77757254339999
 10
67.3997100782
 20
60.8988408471
 10
68.0142900739
 20
61.04282050310001
 10
68.6768147779
 20
61.2099564811
 10
69.3730745209
 20
61.3991211543
 10
70.0798106272
 20
61.6055074002
 10
70.76191152310001
 20
61.8186718882
 10
71.3881414424
 20
62.0266599939
 10
71.9477715429
 20
62.2226593656
 10
72.44786466179999
 20
62.4060226851
 10
72.9000951855
 20
62.5786183337
 10
73.3137755035
 20
62.74222890439999
 10
73.6925572159
 20
62.8969011629
 10
74.03714901899999
 20
63.0417057362
 10
74.35064453969999
 20
63.1768759476
 10
74.6373556874
 20
63.3033959664
 10
74.9009822188
 20
63.4222008376
 10
75.141174443
 20
63.5325265677
 10
75.35601318260001
 20
63.6329038059
 10
75.54704013670001
 20
63.72351395199999
 10
75.7179507985
 20
63.80567546179999
 10
75.8717387076
 20
63.8804954138
 10
76.0102582537
 20
63.9486142763
 10
76.13492502390001
 20
64.01051325720001
 10
76.2473575017
 20
64.0668212165
 10
76.35009620019999
 20
64.11867629689999
 10
76.4468835261
 20
64.16787796050001
 10
76.5414704011
 20
64.2162890938
 10
76.63584255279999
 20
64.26492242310001
 10
76.730207412
 20
64.3138972384
 10
76.8241261017
 20
64.362991854
 10
76.91781958209999
 20
64.41229746000001
 10
77.01372963029999
 20
64.4630755668
 10
77.1159743542
 20
64.5175383055
 10
77.22883240680001
 20
64.5781867338
 10
77.35586601989999
 20
64.6473653231
 10
77.499562987
 20
64.7271525808
 10
77.66099570760001
 20
64.8192502472
 10
77.83885969199999
 20
64.9239788787
 10
78.03204989699999
 20
65.0415940078
 10
78.24261171569999
 20
65.1743715755
 10
78.4741399077
 20
65.3260794987
 10
78.7289875715
 20
65.50031909890001
 10
79.0070415029
 20
65.6995120415
 10
79.30880983379999
 20
65.9269712606
 10
79.6392247199
 20
66.19027302800001
 10
80.00562511549999
 20
66.50093876859999
 10
80.41210136089999
 20
66.87063390590001
 10
80.85364284319998
 20
67.30530070330001
 10
80.9707739235
 20
67.42692727419999
  0
LINE
  5
154D
330
216
100
AcDbEntity
  8
0
  6
Continuous
 62
     7
100
AcDbLine
 10
51.0783452425
 20
59.641461418
 30
0.0
 11
52.051143478
 21
59.6372556347
 31
0.0
  0
LINE
  5
154E
330
216
100
AcDbEntity
  8
0
  6
Continuous
 62
     7
100
AcDbLine
 10
27.6027534648
 20
88.76897409540001
 30
0.0
 11
27.5966051813
 21
88.79154071989999
 31
0.0
  0
LINE
  5
154F
330
216
100
AcDbEntity
  8
0
  6
Continuous
 62
     7
100
AcDbLine
 10
28.0600432566
 20
88.75486951129998
 30
0.0
 11
28.0597637071
 21
88.7558955685
 31
0.0
  0
LWPOLYLINE
  5
1550
330
216
100
AcDbEntity
  8
0
  6
Continuous
 62
     7
100
AcDbPolyline
 90
       31
 70
     0
 43
0.0
 10
27.5966051813
 20
88.79154071989999
 10
27.5961385028
 20
88.79553451920001
 10
27.5968300882
 20
88.79983259259999
 10
27.5986780418
 20
88.80442315939999
 10
27.6016772985
 20
88.8092936371
 10
27.6058196375
 20
88.8144306761
 10
27.61109370510001
 20
88.81982019620002
 10
27.6174850453
 20
88.825447425
 10
27.62497614
 20
88.83129693870001
 10
27.6335464565
 20
88.8373527042
 10
27.6431725042
 20
88.84359812299999
 10
27.6538278988
 20
88.8500160769
 10
27.6654834346
 20
88.85658897479999
 10
27.6781071646
 20
88.86329880079999
 10
27.691664488
 20
88.8701271637
 10
27.7061182451
 20
88.8770553474
 10
27.7214288192
 20
88.8840643622
 10
27.7375542451
 20
88.89113499709999
 10
27.7544503241
 20
88.89824787170001
 10
27.7720707452
 20
88.9053834903
 10
27.7903672121
 20
88.91252229459999
 10
27.8092895754
 20
88.9196447177
 10
27.8287859702
 20
88.92673123739999
 10
27.8488029583
 20
88.93376243010001
 10
27.8692856745
 20
88.94071902379998
 10
27.8901779772
 20
88.94758195100001
 10
27.9114226019
 20
88.9543324008
 10
27.9329613186
 20
88.96095187070001
 10
27.9547350912
 20
88.96742221729999
 10
27.9766842393
 20
88.97372570579999
 10
27.9987486018
 20
88.97984505870001
  0
LINE
  5
1551
330
216
100
AcDbEntity
  8
0
  6
Continuous
 62
     7
100
AcDbLine
 10
28.2245440689
 20
88.44064132719999
 30
0.0
 11
28.2755483743
 21
88.45833446600002
 31
0.0
  0
LINE
  5
1552
330
216
100
AcDbEntity
  8
0
  6
Continuous
 62
     7
100
AcDbLine
 10
28.2755483743
 20
88.45833446600002
 30
0.0
 11
28.3149869192
 21
88.4719423191
 31
0.0
  0
LINE
  5
1553
330
216
100
AcDbEntity
  8
0
  6
Continuous
 62
     7
100
AcDbLine
 10
28.3149869192
 20
88.4719423191
 30
0.0
 11
28.3533516851
 21
88.48514616560001
 31
0.0
  0
LINE
  5
1554
330
216
100
AcDbEntity
  8
0
  6
Continuous
 62
     7
100
AcDbLine
 10
28.3533516851
 20
88.48514616560001
 30
0.0
 11
28.3916879719
 21
88.49830375120001
 31
0.0
  0
LINE
  5
1555
330
216
100
AcDbEntity
  8
0
  6
Continuous
 62
     7
100
AcDbLine
 10
28.3916879719
 20
88.49830375120001
 30
0.0
 11
28.43075343760001
 21
88.5116691802
 31
0.0
  0
LWPOLYLINE
  5
1556
330
216
100
AcDbEntity
  8
0
  6
Continuous
 62
     7
100
AcDbPolyline
 90
       48
 70
     0
 43
0.0
 10
28.43075343760001
 20
88.5116691802
 10
28.4760938484
 20
88.52712787079999
 10
28.5032619446
 20
88.53636451280001
 10
28.5343017489
 20
88.5468938928
 10
28.5695306787
 20
88.558813527
 10
28.60763108510001
 20
88.57166768869999
 10
28.6471867432
 20
88.58497214649998
 10
28.68783860780001
 20
88.59860232509999
 10
28.729808601
 20
88.6126290211
 10
28.7739439992
 20
88.6273298973
 10
28.8213400845
 20
88.64306059959998
 10
28.8732423787
 20
88.66022033770001
 10
28.9310924091
 20
88.67926485209999
 10
28.9961275902
 20
88.70057255459999
 10
29.0695004339
 20
88.72448290340001
 10
29.1502088086
 20
88.7506268157
 10
29.2322082612
 20
88.77702193520001
 10
29.309726568
 20
88.8018209744
 10
29.3819996299
 20
88.82480851870001
 10
29.4508637986
 20
88.8465927932
 10
29.51761263010001
 20
88.867597825
 10
29.5830959899
 20
88.88810001440001
 10
29.6483368196
 20
88.9084238526
 10
29.7142646066
 20
88.9288584988
 10
29.7816122443
 20
88.94962683100001
 10
29.8510565752
 20
88.97092983540002
 10
29.9233083049
 20
88.99297423760001
 10
29.999181614
 20
89.01599299819999
 10
30.0780958158
 20
89.03979338700001
 10
30.1560700252
 20
89.0631701681
 10
30.2283841538
 20
89.0847264774
 10
30.2915925007
 20
89.10347166479999
 10
30.3474516434
 20
89.11996268200001
 10
30.3989508476
 20
89.1351047957
 10
30.4490851055
 20
89.14978896879999
 10
30.4994048491
 20
89.16447159609999
 10
30.5484971685
 20
89.17874241209998
 10
30.5956075279
 20
89.1923874681
 10
30.6414391965
 20
89.2056156733
 10
30.6862569971
 20
89.2185070314
 10
30.7296400094
 20
89.2309441637
 10
30.7716927555
 20
89.2429612245
 10
30.8130258333
 20
89.2547363375
 10
30.8534103573
 20
89.2662062241
 10
30.8923828702
 20
89.27724045129998
 10
30.9304585097
 20
89.28798835010001
 10
30.9675467805
 20
89.29842983360002
 10
31.0043553571
 20
89.30877168649999
  0
LWPOLYLINE
  5
1557
330
216
100
AcDbEntity
  8
0
  6
Continuous
 62
     7
100
AcDbPolyline
 90
        6
 70
     0
 43
0.0
 10
27.9287181452
 20
88.84989122639998
 10
27.9477421586
 20
88.85600093399999
 10
27.9670662156
 20
88.86198950389999
 10
27.9866281433
 20
88.86783767959999
 10
28.0063690896
 20
88.8735278562
 10
28.0262134087
 20
88.87903838979999
  0
LWPOLYLINE
  5
1558
330
216
100
AcDbEntity
  8
0
  6
Continuous
 62
     7
100
AcDbPolyline
 90
       89
 70
     0
 43
0.0
 10
52.0511538021
 20
61.2168533777
 10
53.1242822783
 20
61.2219837241
 10
54.0947649378
 20
61.23547927949999
 10
54.9686776264
 20
61.2548057131
 10
55.75211519229999
 20
61.2779262525
 10
56.4511101875
 20
61.3031841043
 10
57.07196059720001
 20
61.3292785514
 10
57.6267852682
 20
61.3555130697
 10
58.1349821438
 20
61.3819596411
 10
58.6164132264
 20
61.4091515243
 10
59.0900313077
 20
61.4379336022
 10
59.55792398069999
 20
61.4683343863
 10
60.0086415513
 20
61.49946473029999
 10
60.4422459841
 20
61.53113272449999
 10
60.8657840624
 20
61.5637256974
 10
61.2793334892
 20
61.5971556665
 10
61.6792291623
 20
61.6308674349
 10
62.0665441929
 20
61.6647316594
 10
62.4448972304
 20
61.6997953203
 10
62.819519119
 20
61.7378449706
 10
63.1953848384
 20
61.7799537437
 10
63.5696392325
 20
61.8257505498
 10
63.9427846943
 20
61.87524320979999
 10
64.33042001689999
 20
61.93073614520001
 10
64.7506474977
 20
61.9956273489
 10
65.22032513890001
 20
62.07401058609999
 10
65.7445532529
 20
62.16883813449999
 10
66.3210509816
 20
62.2821320574
 10
66.95469373479999
 20
62.4176582111
 10
67.6705522945
 20
62.5847774471
 10
68.47384394630001
 20
62.7902474297
 10
69.3020257289
 20
63.02228072390001
 10
70.08706945819999
 20
63.2615242456
 10
70.77588278420001
 20
63.4872199359
 10
71.3720477569
 20
63.6947100777
 10
71.90368075489999
 20
63.8894154023
 10
72.38421578669999
 20
64.07337670619999
 10
72.81774058599999
 20
64.2459399115
 10
73.20868297130001
 20
64.40700035739999
 10
73.56255207699999
 20
64.5573145286
 10
73.88482527819999
 20
64.6980021413
 10
74.17900690260001
 20
64.8296184025
 10
74.4460478588
 20
64.9517628505
 10
74.6866993197
 20
65.06404203399999
 10
74.90343930189999
 20
65.166969939
 10
75.10268491329999
 20
65.2631061503
 10
75.29142831049999
 20
65.35552824079999
 10
75.47664869890001
 20
65.447526248
 10
75.6610311999
 20
65.5403895595
 10
75.83996893120001
 20
65.63172850029999
 10
76.01177199140001
 20
65.7206014689
 10
76.1792407785
 20
65.8083524513
 10
76.3433616392
 20
65.8953278961
 10
76.5029828735
 20
65.98098360739999
 10
76.657558338
 20
66.06555944970001
 10
76.80747592420001
 20
66.1498448708
 10
76.95450007329999
 20
66.2351293632
 10
77.1005543485
 20
66.322477778
 10
77.2457720127
 20
66.411890232
 10
77.3896547074
 20
66.5030235122
 10
77.5328251927
 20
66.59627780460001
 10
77.67575720339999
 20
66.69202364829999
 10
77.8173064531
 20
66.7895404687
 10
77.9582510674
 20
66.8893859804
 10
78.104226822
 20
66.99575763840001
 10
78.2612531702
 20
67.1136406035
 10
78.4346311476
 20
67.2481062651
 10
78.6259809562
 20
67.40197325779999
 10
78.83489964350001
 20
67.5768182933
 10
79.0618225052
 20
67.77525297300001
 10
79.3092007988
 20
68.0022891956
 10
79.5793417819
 20
68.2639177496
 10
79.8740296603
 20
68.56710160359999
 10
80.19575040220001
 20
68.92153798399999
 10
80.54616406959999
 20
69.3389459208
 10
80.91799319340001
 20
69.8232966639
 10
81.2841356803
 20
70.35007767029999
 10
81.6252218792
 20
70.89545814979999
 10
81.9389594979
 20
71.4558845886
 10
82.2247201609
 20
72.03010134829999
 10
82.48230517139999
 20
72.6176810371
 10
82.7118322167
 20
73.2191294989
 10
82.9125645639
 20
73.8328694435
 10
83.08266822490001
 20
74.45302829479999
 10
83.22135638209999
 20
75.0758436821
 10
83.32931384430001
 20
75.70372713890001
 10
83.40772883719999
 20
76.3458208813
 10
83.4553246669
 20
76.9919292834
 10
83.47121083919999
 20
77.6368572418
  0
LINE
  5
1559
330
216
100
AcDbEntity
  8
0
  6
Continuous
 62
     7
100
AcDbLine
 10
28.2742683148
 20
88.9196243677
 30
0.0
 11
28.2743881217
 21
88.9191846289
 31
0.0
  0
LINE
  5
155A
330
216
100
AcDbEntity
  8
0
  6
Continuous
 62
     7
100
AcDbLine
 10
30.8069513319
 20
89.60965460969999
 30
0.0
 11
30.8070711388
 21
89.60921487090001
 31
0.0
  0
LWPOLYLINE
  5
155B
330
216
100
AcDbEntity
  8
0
  6
Continuous
 62
     7
100
AcDbPolyline
 90
        4
 70
     0
 43
0.0
 10
26.1467808068
 20
88.5006018746
 10
26.1697022106
 20
88.46860055219998
 10
26.1909001963
 20
88.43880922770001
 10
26.2113835976
 20
88.40984130129999
  0
LINE
  5
155C
330
216
100
AcDbEntity
  8
0
  6
Continuous
 62
     7
100
AcDbLine
 10
26.2113835976
 20
88.40984130129999
 30
0.0
 11
26.2284799988
 21
88.385529126
 31
0.0
  0
LINE
  5
155D
330
216
100
AcDbEntity
  8
0
  6
Continuous
 62
     7
100
AcDbLine
 10
26.2284799988
 20
88.385529126
 30
0.0
 11
26.244801627
 21
88.36220532899998
 31
0.0
  0
LINE
  5
155E
330
216
100
AcDbEntity
  8
0
  6
Continuous
 62
     7
100
AcDbLine
 10
26.244801627
 20
88.36220532899998
 30
0.0
 11
26.2605408225
 21
88.33960810389999
 31
0.0
  0
LINE
  5
155F
330
216
100
AcDbEntity
  8
0
  6
Continuous
 62
     7
100
AcDbLine
 10
26.2605408225
 20
88.33960810389999
 30
0.0
 11
26.2751743859
 21
88.3185063638
 31
0.0
  0
LINE
  5
1560
330
216
100
AcDbEntity
  8
0
  6
Continuous
 62
     7
100
AcDbLine
 10
26.2751743859
 20
88.3185063638
 30
0.0
 11
26.2862025676
 21
88.30254519559998
 31
0.0
  0
LINE
  5
1561
330
216
100
AcDbEntity
  8
0
  6
Continuous
 62
     7
100
AcDbLine
 10
26.2862025676
 20
88.30254519559998
 30
0.0
 11
26.2986769222
 21
88.28442780799999
 31
0.0
  0
LINE
  5
1562
330
216
100
AcDbEntity
  8
0
  6
Continuous
 62
     7
100
AcDbLine
 10
26.2986769222
 20
88.28442780799999
 30
0.0
 11
26.3091747981
 21
88.26913584579999
 31
0.0
  0
LINE
  5
1563
330
216
100
AcDbEntity
  8
0
  6
Continuous
 62
     7
100
AcDbLine
 10
26.3091747981
 20
88.26913584579999
 30
0.0
 11
26.3212075697
 21
88.2515531167
 31
0.0
  0
LWPOLYLINE
  5
1564
330
216
100
AcDbEntity
  8
0
  6
Continuous
 62
     7
100
AcDbPolyline
 90
       60
 70
     0
 43
0.0
 10
26.3212075697
 20
88.2515531167
 10
26.32419082010001
 20
88.24718015110001
 10
26.3271494085
 20
88.2427854898
 10
26.3300680597
 20
88.23855509899999
 10
26.3331371344
 20
88.2343544299
 10
26.3364490277
 20
88.23013265680001
 10
26.339963627
 20
88.22597359499999
 10
26.3436065726
 20
88.22196110670001
 10
26.3474455362
 20
88.2179896254
 10
26.3516021198
 20
88.2139435428
 10
26.3559581513
 20
88.2099778539
 10
26.3604798209
 20
88.20613831290001
 10
26.365250279
 20
88.20235981639999
 10
26.3702291041
 20
88.19867281870001
 10
26.3754932321
 20
88.19501071370002
 10
26.3813312435
 20
88.19118293219998
 10
26.3881238211
 20
88.18700251580001
 10
26.3961960958
 20
88.1823819929
 10
26.4055878382
 20
88.17743724759999
 10
26.41614080530001
 20
88.1723742051
 10
26.427909707
 20
88.16725534129998
 10
26.4413636054
 20
88.1619778107
 10
26.4563305768
 20
88.1567288585
 10
26.47224549400001
 20
88.15176427169999
 10
26.4888807907
 20
88.147169017
 10
26.5062530927
 20
88.1429362105
 10
26.5251251272
 20
88.1389147406
 10
26.5466054122
 20
88.1349818726
 10
26.5716888484
 20
88.13114565739999
 10
26.6011988697
 20
88.12754854839999
 10
26.6358756266
 20
88.1244166641
 10
26.6764123236
 20
88.12204689739999
 10
26.7242247464
 20
88.12078821959998
 10
26.7815787729
 20
88.12114619149999
 10
26.8490308913
 20
88.12378673359999
 10
26.9283587355
 20
88.12949226159998
 10
27.0165181893
 20
88.13863614620002
 10
27.111247302
 20
88.1512624424
 10
27.2066858256
 20
88.1665510136
 10
27.3006152233
 20
88.1838145262
 10
27.3870331279
 20
88.20145505419999
 10
27.4643751866
 20
88.21855351249999
 10
27.5344564966
 20
88.2350509437
 10
27.5985854801
 20
88.250938544
 10
27.6558558004
 20
88.26573778530001
 10
27.7067336145
 20
88.27934787850001
 10
27.7523245886
 20
88.29190418219999
 10
27.7940291247
 20
88.3036840303
 10
27.8335684954
 20
88.3151096039
 10
27.8729109511
 20
88.32672497350001
 10
27.91226925030001
 20
88.33858738059999
 10
27.950335547
 20
88.35027710899998
 10
27.987749715
 20
88.36195444350002
 10
28.0248823091
 20
88.3737372132
 10
28.0608591284
 20
88.38537598349999
 10
28.0959321693
 20
88.39693695740001
 10
28.13093330760001
 20
88.4086365301
 10
28.1639331937
 20
88.41978376959998
 10
28.1947049896
 20
88.4303116284
 10
28.2245440689
 20
88.44064132719999
  0
LINE
  5
1565
330
216
100
AcDbEntity
  8
0
  6
Continuous
 62
     7
100
AcDbLine
 10
31.0751420865
 20
89.5763340851
 30
0.0
 11
31.0748625369
 21
89.57736014229999
 31
0.0
  0
LINE
  5
1566
330
216
100
AcDbEntity
  8
0
  6
Continuous
 62
     7
100
AcDbLine
 10
31.4559316835
 20
89.84301537440002
 30
0.0
 11
31.4620799671
 21
89.8204487499
 31
0.0
  0
LWPOLYLINE
  5
1567
330
216
100
AcDbEntity
  8
0
  6
Continuous
 62
     7
100
AcDbPolyline
 90
      119
 70
     0
 43
0.0
 10
52.05120424020001
 20
66.7219480918
 10
52.567174361
 20
66.6993936339
 10
53.0786019962
 20
66.6817839837
 10
53.5850054702
 20
66.6690955792
 10
54.0864153216
 20
66.66128218779999
 10
54.5826478244
 20
66.658299823
 10
55.07352675439999
 20
66.66010128319999
 10
55.5588827154
 20
66.66663510220001
 10
56.0385414689
 20
66.6778462276
 10
56.512487836
 20
66.69368111279999
 10
56.98029847429999
 20
66.7140658521
 10
57.44020106609999
 20
66.73884391289999
 10
57.87152526199999
 20
66.7664556217
 10
58.25612089899999
 20
66.7948157934
 10
58.6190314813
 20
66.8254796634
 10
58.9801272553
 20
66.85986613219999
 10
59.3356556528
 20
66.897568927
 10
59.68280732149999
 20
66.93817717479999
 10
60.0231894111
 20
66.98173159149999
 10
60.3567412121
 20
67.0281030591
 10
60.68373686770001
 20
67.07721105649999
 10
61.0044014776
 20
67.12897665689999
 10
61.3189774042
 20
67.1833319269
 10
61.62764970520001
 20
67.24020767279999
 10
61.93057089569999
 20
67.2995356231
 10
62.2278727205
 20
67.3612492642
 10
62.5196661342
 20
67.42528283819999
 10
62.8060533447
 20
67.4915731808
 10
63.0871309686
 20
67.56005974
 10
63.3629249778
 20
67.6306666274
 10
63.6334348032
 20
67.7033096207
 10
63.8987153796
 20
67.77791946949999
 10
64.1587816246
 20
67.8544179999
 10
64.41362404899999
 20
67.93272079560001
 10
64.6632662756
 20
68.01275303869999
 10
64.90778785399999
 20
68.09445808719999
 10
65.14726968159999
 20
68.1777819846
 10
65.3816550107
 20
68.2626269204
 10
65.611092787
 20
68.3489698602
 10
65.83564587729999
 20
68.4367527727
 10
66.0546283472
 20
68.5256388559
 10
66.2629963337
 20
68.61332997579999
 10
66.45173766810001
 20
68.6955711968
 10
66.6237602834
 20
68.77293286210001
 10
66.7780688321
 20
68.8441641967
 10
66.9134959152
 20
68.9086950145
 10
67.04249440899999
 20
68.97231515939999
 10
67.1836446746
 20
69.044102353
 10
67.343200237
 20
69.1276721377
 10
67.5080727017
 20
69.2169170804
 10
67.6676807515
 20
69.30631096109999
 10
67.823963319
 20
69.3968502985
 10
67.9770363592
 20
69.48852978969999
 10
68.1258500063
 20
69.5806458618
 10
68.27083217409999
 20
69.6733707468
 10
68.41213607810001
 20
69.7667183299
 10
68.5498408167
 20
69.86065954909999
 10
68.6840234803
 20
69.9551672411
 10
68.8148011905
 20
70.05024645520001
 10
68.94230473729999
 20
70.1459183047
 10
69.0666509145
 20
70.24220012810001
 10
69.18793838149999
 20
70.33910128630001
 10
69.30625157909999
 20
70.43662489989999
 10
69.4216642477
 20
70.5347697086
 10
69.5342542756
 20
70.63354226930001
 10
69.6441065694
 20
70.732960101
 10
69.7513057796
 20
70.8330459188
 10
69.8559359376
 20
70.933827558
 10
69.9580731452
 20
71.0353309045
 10
70.0577786891
 20
71.13757225499999
 10
70.15510506369999
 20
71.24056322439999
 10
70.2501001478
 20
71.34431441789999
 10
70.3428074334
 20
71.448835336
 10
70.43326644789999
 20
71.5541345151
 10
70.5215130818
 20
71.66021960160001
 10
70.6075800734
 20
71.7670976578
 10
70.6914969118
 20
71.8747747883
 10
70.77329080850001
 20
71.9832571473
 10
70.85299169560001
 20
72.0925576686
 10
70.93063127899999
 20
72.2026953717
 10
71.00624247279999
 20
72.3136951921
 10
71.07984768
 20
72.4255707042
 10
71.15149191509999
 20
72.5383748337
 10
71.22114548509999
 20
72.6520451919
 10
71.28897243899999
 20
72.7668456017
 10
71.35466258560001
 20
72.8822293875
 10
71.4187086933
 20
72.99906780429999
 10
71.4823925095
 20
73.1198222382
 10
71.54526231060001
 20
73.24374120749999
 10
71.6062523594
 20
73.3688233394
 10
71.665387366
 20
73.49513102649999
 10
71.72267283800001
 20
73.62269894189999
 10
71.778095784
 20
73.75152000539999
 10
71.831649278
 20
73.8816062302
 10
71.88332147859999
 20
74.0129592406
 10
71.93310017439999
 20
74.14558273279999
 10
71.9809715394
 20
74.2794782981
 10
72.02692078600001
 20
74.4146472579
 10
72.0709366394
 20
74.5511043435
 10
72.11301372279999
 20
74.68888786349999
 10
72.15314838419999
 20
74.82805006640001
 10
72.19133624040001
 20
74.9686514081
 10
72.2275718733
 20
75.11076122989999
 10
72.2618481871
 20
75.2544572335
 10
72.29415591359999
 20
75.39982538290001
 10
72.32448322109999
 20
75.5469602346
 10
72.35281502560001
 20
75.6959637627
 10
72.37913359560001
 20
75.8469511585
 10
72.40341424409999
 20
76.0000278614
 10
72.4256157916
 20
76.15521864819999
 10
72.4456829922
 20
76.3124542602
 10
72.46355520939999
 20
76.4716000572
 10
72.47917017669999
 20
76.63245564029999
 10
72.49246971239999
 20
76.7947793132
 10
72.5034156568
 20
76.9584997275
 10
72.5119892032
 20
77.12386495279999
 10
72.5181731084
 20
77.2914230045
 10
72.521934964
 20
77.462022843
 10
72.5232110811
 20
77.63685725239999
  0
LWPOLYLINE
  5
1568
330
216
100
AcDbEntity
  8
0
  6
Continuous
 62
     7
100
AcDbPolyline
 90
       37
 70
     0
 43
0.0
 10
41.11149781029999
 20
67.97921119919999
 10
41.1647902382
 20
67.97015127819999
 10
41.22268750729999
 20
67.96033461
 10
41.2856302848
 20
67.9496939463
 10
41.3541154353
 20
67.9381525355
 10
41.4286953061
 20
67.9256273921
 10
41.5099848559
 20
67.9120281391
 10
41.59867637
 20
67.897253625
 10
41.69555537699999
 20
67.88118964569999
 10
41.8015106343
 20
67.8637097996
 10
41.9175469807
 20
67.84467523859999
 10
42.04480991399999
 20
67.8239306016
 10
42.1846153582
 20
67.8013005267
 10
42.3384802144
 20
67.7765880547
 10
42.5081593278
 20
67.7495726761
 10
42.6956929784
 20
67.7200070601
 10
42.90347224229999
 20
67.6876116266
 10
43.13432245819999
 20
67.6520694549
 10
43.3915984348
 20
67.6130240297
 10
43.6793183187
 20
67.5700751664
 10
44.00226220729999
 20
67.52278539939999
 10
44.3663596842
 20
67.4706490545
 10
44.77876093859999
 20
67.4131035937
 10
45.2507378875
 20
67.3492698958
 10
45.78070885569999
 20
67.2803816798
 10
46.33957742119999
 20
67.2110876035
 10
46.9037054045
 20
67.14473021999999
 10
47.4658713516
 20
67.0822921954
 10
48.0236452921
 20
67.02407972899999
 10
48.57651377699999
 20
66.9701502443
 10
49.1237172791
 20
66.92056519229999
 10
49.6630481839
 20
66.8754750815
 10
50.1877784881
 20
66.8352823556
 10
50.6898673314
 20
66.8002361484
 10
51.1661699992
 20
66.77005382850001
 10
51.61891549619999
 20
66.7441355066
 10
52.0512046043
 20
66.7219584367
  0
LINE
  5
1569
330
216
100
AcDbEntity
  8
0
  6
Continuous
 62
     7
100
AcDbLine
 10
41.01718448689999
 20
67.99530039060001
 30
0.0
 11
41.11149781029999
 21
67.97921119919999
 31
0.0
  0
LWPOLYLINE
  5
156A
330
216
100
AcDbEntity
  8
0
  6
Continuous
 62
     7
100
AcDbPolyline
 90
       31
 70
     0
 43
0.0
 10
31.4559316835
 20
89.84301537440002
 10
31.4543080204
 20
89.84669395290001
 10
31.4515318229
 20
89.85004722780001
 10
31.4476107004
 20
89.8530660081
 10
31.4425554005
 20
89.85574201950001
 10
31.4363797794
 20
89.85806792709999
 10
31.429100764
 20
89.860037356
 10
31.4207383056
 20
89.86164490799998
 10
31.4113153251
 20
89.8628861769
 10
31.4008576503
 20
89.8637577605
 10
31.3893939449
 20
89.8642572698
 10
31.3769556301
 20
89.8643833358
 10
31.3635767985
 20
89.8641356128
 10
31.3492941206
 20
89.8635147799
 10
31.3341467441
 20
89.8625225387
 10
31.318176187
 20
89.86116160899999
 10
31.3014262234
 20
89.8594357208
 10
31.2839427639
 20
89.8573496048
 10
31.2657737294
 20
89.8549089789
 10
31.2469689199
 20
89.8521205325
 10
31.2275798781
 20
89.84899190879998
 10
31.2076597481
 20
89.84553168299999
 10
31.1872631295
 20
89.84174933930001
 10
31.1664459281
 20
89.83765524489999
 10
31.1452652023
 20
89.83326062139999
 10
31.1237790071
 20
89.8285775142
 10
31.1020462345
 20
89.8236187594
 10
31.0801264528
 20
89.81839794850001
 10
31.0580797423
 20
89.81292939139999
 10
31.0359665317
 20
89.8072280771
 10
31.0138474317
 20
89.80130963249999
  0
LWPOLYLINE
  5
156B
330
216
100
AcDbEntity
  8
0
  6
Continuous
 62
     7
100
AcDbPolyline
 90
       41
 70
     0
 43
0.0
 10
41.57633828099999
 20
77.63685725239999
 10
41.582502758
 20
77.7925492536
 10
41.6007455506
 20
77.9459186724
 10
41.63095391739999
 20
78.0973690467
 10
41.6729352894
 20
78.2459496932
 10
41.7264377713
 20
78.3907759989
 10
41.7911285202
 20
78.5309470772
 10
41.86662146599999
 20
78.6656233651
 10
41.9524617307
 20
78.7939837163
 10
42.0481371548
 20
78.91525042810001
 10
42.1530958126
 20
79.02870516739999
 10
42.2666976202
 20
79.13363633430001
 10
42.38825283969999
 20
79.2293927327
 10
42.51702999459999
 20
79.3153853188
 10
42.6522647056
 20
79.3910879419
 10
42.7931157249
 20
79.45601454689999
 10
42.9387207671
 20
79.5097555449
 10
43.0882043186
 20
79.5519733607
 10
43.240606632
 20
79.5823844478
 10
43.39494629899999
 20
79.6007877223
 10
43.5502163628
 20
79.60706417299999
 10
43.7053997731
 20
79.60118047679999
 10
43.85948711029999
 20
79.5831899308
 10
44.0115000584
 20
79.5532291156
 10
44.1605365275
 20
79.51149922039999
 10
44.3056984051
 20
79.458273286
 10
44.4461520032
 20
79.39387475390001
 10
44.5810705562
 20
79.3186938219
 10
44.70965397029999
 20
79.2331832359
 10
44.83113415930001
 20
79.13785639770001
 10
44.9447704368
 20
79.0332944677
 10
45.0498722113
 20
78.92013080529999
 10
45.14579097489999
 20
78.79905993609999
 10
45.2319389344
 20
78.67081869419999
 10
45.307781465
 20
78.5361963251
 10
45.3728479992
 20
78.39602132909999
 10
45.42673511109999
 20
78.2511547062
 10
45.46910142369999
 20
78.10251335140001
 10
45.4998826186
 20
77.94981300149999
 10
45.5185993964
 20
77.79405900749999
 10
45.5248748482
 20
77.63685725239999
  0
LINE
  5
156C
330
216
100
AcDbEntity
  8
DEFAULT_1
  6
CENTER
 62
     7
100
AcDbLine
 10
43.5512046044
 20
77.63685725239999
 30
0.0
 11
43.5512046044
 21
73.0067819125
 31
0.0
  0
LINE
  5
156D
330
216
100
AcDbEntity
  8
DEFAULT_1
  6
CENTER
 62
     7
100
AcDbLine
 10
43.5512046044
 20
77.63685725239999
 30
0.0
 11
43.5512046044
 21
82.26693259220001
 31
0.0
  0
LWPOLYLINE
  5
156E
330
216
100
AcDbEntity
  8
0
  6
Continuous
 62
     7
100
AcDbPolyline
 90
       41
 70
     0
 43
0.0
 10
45.5248748482
 20
77.63685725239999
 10
45.5187180367
 20
77.48114614810001
 10
45.50047483399999
 20
77.3276079708
 10
45.4702609919
 20
77.17599798229999
 10
45.42826622199999
 20
77.0272485149
 10
45.3747475213
 20
76.88226096560001
 10
45.3100397776
 20
76.74193594090001
 10
45.23454400479999
 20
76.6071350304
 10
45.14872894879999
 20
76.4786883541
 10
45.0531200722
 20
76.35737790330001
 10
44.9483069634
 20
76.2439491204
 10
44.8349262305
 20
76.13909028550001
 10
44.71366861249999
 20
76.0434422322
 10
44.58525814989999
 20
75.95758159919999
 10
44.45045561939999
 20
75.8820278318
 10
44.31005514109999
 20
75.81724161069999
 10
44.1648621958
 20
75.76361705859999
 10
44.0157539077
 20
75.7215034613
 10
43.8636135971
 20
75.69117557840001
 10
43.7094087368
 20
75.67284767539999
 10
43.5541427425
 20
75.6666492959
 10
43.39883153369999
 20
75.67262093530001
 10
43.2444926642
 20
75.6907155766
 10
43.0921156239
 20
75.7208043013
 10
42.9426756017
 20
75.7626774079
 10
42.79707124929999
 20
75.816066287
 10
42.65619254309999
 20
75.8806312955
 10
42.5209172328
 20
75.9559544989
 10
42.3920454861
 20
76.0415749945
 10
42.2703495278
 20
76.13696916870001
 10
42.1565719987
 20
76.2415444903
 10
42.05140778869999
 20
76.354647518
 10
41.95546564039999
 20
76.47561086600001
 10
41.8693196998
 20
76.6037047954
 10
41.7934908609
 20
76.73815076779999
 10
41.72843402969999
 20
76.8781428886
 10
41.67455118
 20
77.02282161949999
 10
41.632178174
 20
77.1712868197
 10
41.60138868789999
 20
77.3237765076
 10
41.58264106239999
 20
77.4794312889
 10
41.57633828099999
 20
77.63685725239999
  0
LINE
  5
156F
330
216
100
AcDbEntity
  8
DEFAULT_1
  6
CENTER
 62
     7
100
AcDbLine
 10
43.5512046044
 20
77.63685725239999
 30
0.0
 11
11.5526930704
 21
77.63685725239999
 31
0.0
  0
LINE
  5
1570
330
216
100
AcDbEntity
  8
DEFAULT_1
  6
CENTER
 62
     7
100
AcDbLine
 10
43.5512046044
 20
77.63685725239999
 30
0.0
 11
81.58935329270001
 21
77.63685725239999
 31
0.0
  0
LINE
  5
1571
330
216
100
AcDbEntity
  8
DEFAULT_1
  6
CENTER
 62
     7
100
AcDbLine
 10
81.85251578229999
 20
77.6368571469
 30
0.0
 11
82.34303544159999
 21
77.6368499579
 31
0.0
  0
LINE
  5
1572
330
216
100
AcDbEntity
  8
DEFAULT_1
  6
CENTER
 62
     7
100
AcDbLine
 10
82.6375616374
 20
77.6368316276
 30
0.0
 11
86.6827901577
 21
77.63685725239999
 31
0.0
  0
LWPOLYLINE
  5
1573
330
216
100
AcDbEntity
  8
0
  6
Continuous
 62
     7
100
AcDbPolyline
 90
        5
 70
     0
 43
0.0
 10
81.58935329270001
 20
77.63685725239999
 10
81.85251578229999
 20
77.6368571469
 10
81.96123442619999
 20
77.636856808
 10
82.0796499533
 20
77.63685589579999
 10
82.2071333595
 20
77.6368538766
  0
LWPOLYLINE
  5
1574
330
216
100
AcDbEntity
  8
0
  6
Continuous
 62
     7
100
AcDbPolyline
 90
        4
 70
     0
 43
0.0
 10
82.2071333595
 20
77.6368538766
 10
82.4867310233
 20
77.63684303339999
 10
82.6375616374
 20
77.6368316276
 10
82.7947634318
 20
77.6368138489
  0
LINE
  5
1575
330
216
100
AcDbEntity
  8
0
  6
Continuous
 62
     7
100
AcDbLine
 10
82.7947634318
 20
77.6368138489
 30
0.0
 11
83.1249986139
 21
77.636749263
 31
0.0
  0
LINE
  5
1576
330
216
100
AcDbEntity
  8
0
  6
Continuous
 62
     7
100
AcDbLine
 10
83.1249986139
 20
77.636749263
 30
0.0
 11
83.4712051736
 21
77.63662383270001
 31
0.0
  0
LINE
  5
1577
330
216
100
AcDbEntity
  8
0
  6
Continuous
 62
     7
100
AcDbLine
 10
40.9373073294
 20
87.2647274931
 30
0.0
 11
41.01718448689999
 21
87.2784141141
 31
0.0
  0
LWPOLYLINE
  5
1578
330
216
100
AcDbEntity
  8
0
  6
Continuous
 62
     7
100
AcDbPolyline
 90
       38
 70
     0
 43
0.0
 10
41.01718448689999
 20
87.2784141141
 10
41.11149781029999
 20
87.29450330549999
 10
41.1647902382
 20
87.30356322650001
 10
41.22268750729999
 20
87.31337989469999
 10
41.2856302848
 20
87.32402055840001
 10
41.3541154353
 20
87.3355619692
 10
41.4286953061
 20
87.34808711259999
 10
41.5099848559
 20
87.3616863656
 10
41.59867637
 20
87.37646087969999
 10
41.69555537699999
 20
87.39252485899999
 10
41.8015106343
 20
87.4100047051
 10
41.9175469807
 20
87.42903926610001
 10
42.04480991399999
 20
87.4497839031
 10
42.1846153582
 20
87.47241397799999
 10
42.3384802144
 20
87.49712645
 10
42.5081593278
 20
87.5241418286
 10
42.6956929784
 20
87.5537074446
 10
42.90347224229999
 20
87.58610287809998
 10
43.13432245819999
 20
87.62164504979999
 10
43.3915984348
 20
87.660690475
 10
43.6793183187
 20
87.70363933829999
 10
44.00226220729999
 20
87.75092910540001
 10
44.3663596842
 20
87.80306545020001
 10
44.77876093859999
 20
87.860610911
 10
45.2507378875
 20
87.92444460889999
 10
45.78070885569999
 20
87.9933328249
 10
46.33957742119999
 20
88.06262690129999
 10
46.9037054045
 20
88.12898428469999
 10
47.4658713516
 20
88.19142230930001
 10
48.0236452921
 20
88.24963477569999
 10
48.57651377699999
 20
88.30356426040001
 10
49.1237172791
 20
88.3531493125
 10
49.6630481839
 20
88.3982394232
 10
50.1877784881
 20
88.4384321491
 10
50.6898673314
 20
88.47347835629999
 10
51.1661699992
 20
88.50366067620001
 10
51.61891549619999
 20
88.52957899809998
 10
52.0512046043
 20
88.55175606799999
  0
LWPOLYLINE
  5
1579
330
216
100
AcDbEntity
  8
0
  6
Continuous
 62
     7
100
AcDbPolyline
 90
      119
 70
     0
 43
0.0
 10
52.05120424020001
 20
88.5517664129
 10
52.567174361
 20
88.57432087079999
 10
53.0786019962
 20
88.59193052100001
 10
53.5850054702
 20
88.60461892549999
 10
54.0864153216
 20
88.61243231690002
 10
54.5826478244
 20
88.61541468170001
 10
55.07352675439999
 20
88.61361322150001
 10
55.5588827154
 20
88.6070794025
 10
56.0385414689
 20
88.5958682771
 10
56.512487836
 20
88.5800333919
 10
56.98029847429999
 20
88.5596486526
 10
57.44020106609999
 20
88.5348705918
 10
57.87152526199999
 20
88.50725888299999
 10
58.25612089899999
 20
88.47889871129998
 10
58.6190314813
 20
88.44823484129999
 10
58.9801272553
 20
88.41384837259999
 10
59.3356556528
 20
88.37614557770001
 10
59.68280732149999
 20
88.33553732989999
 10
60.0231894111
 20
88.2919829132
 10
60.3567412121
 20
88.24561144559998
 10
60.68373686770001
 20
88.19650344819999
 10
61.0044014776
 20
88.1447378478
 10
61.3189774042
 20
88.09038257780001
 10
61.62764970520001
 20
88.0335068319
 10
61.93057089569999
 20
87.9741788816
 10
62.2278727205
 20
87.9124652405
 10
62.5196661342
 20
87.84843166649999
 10
62.8060533447
 20
87.78214132389999
 10
63.0871309686
 20
87.7136547647
 10
63.3629249778
 20
87.64304787729999
 10
63.6334348032
 20
87.57040488399999
 10
63.8987153796
 20
87.49579503520001
 10
64.1587816246
 20
87.41929650480001
 10
64.41362404899999
 20
87.3409937091
 10
64.6632662756
 20
87.26096146599999
 10
64.90778785399999
 20
87.17925641749999
 10
65.14726968159999
 20
87.0959325201
 10
65.3816550107
 20
87.01108758430001
 10
65.611092787
 20
86.9247446445
 10
65.83564587729999
 20
86.83696173200001
 10
66.0546283472
 20
86.7480756488
 10
66.2629963337
 20
86.66038452889999
 10
66.45173766810001
 20
86.57814330790001
 10
66.6237602834
 20
86.5007816427
 10
66.7780688321
 20
86.42955030799999
 10
66.9134959152
 20
86.36501949019999
 10
67.04249440899999
 20
86.30139934530001
 10
67.1836446746
 20
86.22961215169999
 10
67.343200237
 20
86.14604236700001
 10
67.5080727017
 20
86.05679742440001
 10
67.6676807515
 20
85.96740354359999
 10
67.823963319
 20
85.8768642062
 10
67.9770363592
 20
85.785184715
 10
68.1258500063
 20
85.6930686429
 10
68.27083217409999
 20
85.60034375790001
 10
68.41213607810001
 20
85.50699617479999
 10
68.5498408167
 20
85.41305495560001
 10
68.6840234803
 20
85.3185472636
 10
68.8148011905
 20
85.2234680495
 10
68.94230473729999
 20
85.12779620000001
 10
69.0666509145
 20
85.03151437659999
 10
69.18793838149999
 20
84.93461321839999
 10
69.30625157909999
 20
84.83708960479999
 10
69.4216642477
 20
84.73894479610001
 10
69.5342542756
 20
84.6401722354
 10
69.6441065694
 20
84.54075440369999
 10
69.7513057796
 20
84.4406685859
 10
69.8559359376
 20
84.3398869467
 10
69.9580731452
 20
84.23838360020001
 10
70.0577786891
 20
84.1361422497
 10
70.15510506369999
 20
84.0331512803
 10
70.2501001478
 20
83.9294000868
 10
70.3428074334
 20
83.82487916869999
 10
70.43326644789999
 20
83.71957998960001
 10
70.5215130818
 20
83.6134949032
 10
70.6075800734
 20
83.50661684690001
 10
70.6914969118
 20
83.3989397164
 10
70.77329080850001
 20
83.29045735740001
 10
70.85299169560001
 20
83.18115683610001
 10
70.93063127899999
 20
83.071019133
 10
71.00624247279999
 20
82.96001931259999
 10
71.07984768
 20
82.84814380049999
 10
71.15149191509999
 20
82.735339671
 10
71.22114548509999
 20
82.62166931279999
 10
71.28897243899999
 20
82.506868903
 10
71.35466258560001
 20
82.39148511720001
 10
71.4187086933
 20
82.27464670039999
 10
71.4823925095
 20
82.1538922665
 10
71.54526231060001
 20
82.0299732972
 10
71.6062523594
 20
81.90489116530001
 10
71.665387366
 20
81.77858347819999
 10
71.72267283800001
 20
81.65101556279999
 10
71.778095784
 20
81.52219449929999
 10
71.831649278
 20
81.3921082745
 10
71.88332147859999
 20
81.2607552641
 10
71.93310017439999
 20
81.1281317719
 10
71.9809715394
 20
80.99423620659999
 10
72.02692078600001
 20
80.8590672468
 10
72.0709366394
 20
80.7226101612
 10
72.11301372279999
 20
80.58482664119999
 10
72.15314838419999
 20
80.44566443829999
 10
72.19133624040001
 20
80.30506309659999
 10
72.2275718733
 20
80.16295327479999
 10
72.2618481871
 20
80.01925727120001
 10
72.29415591359999
 20
79.87388912180001
 10
72.32448322109999
 20
79.7267542702
 10
72.35281502560001
 20
79.57775074199999
 10
72.37913359560001
 20
79.4267633462
 10
72.40341424409999
 20
79.2736866433
 10
72.4256157916
 20
79.11849585649999
 10
72.4456829922
 20
78.9612602445
 10
72.46355520939999
 20
78.8021144475
 10
72.47917017669999
 20
78.6412588644
 10
72.49246971239999
 20
78.4789351915
 10
72.5034156568
 20
78.31521477719999
 10
72.5119892032
 20
78.14984955189999
 10
72.5181731084
 20
77.9822915002
 10
72.521934964
 20
77.81169166169999
 10
72.52321107970001
 20
77.63685725239999
  0
LWPOLYLINE
  5
157A
330
216
100
AcDbEntity
  8
0
  6
Continuous
 62
     7
100
AcDbPolyline
 90
       74
 70
     0
 43
0.0
 10
31.0043553571
 20
89.30877168649999
 10
31.0757784133
 20
89.3287319911
 10
31.1113873668
 20
89.33874658129999
 10
31.1452592333
 20
89.34842776729999
 10
31.1794274261
 20
89.3583021677
 10
31.2147023189
 20
89.36861587200001
 10
31.2490676253
 20
89.37882564879998
 10
31.283491741
 20
89.38923111440001
 10
31.3178145058
 20
89.3997619159
 10
31.3514427313
 20
89.4102071998
 10
31.3854139851
 20
89.420890597
 10
31.4203050618
 20
89.4320142501
 10
31.4560302528
 20
89.4435716741
 10
31.4924463763
 20
89.45552854849999
 10
31.5297787989
 20
89.4679721067
 10
31.5666050489
 20
89.4804325569
 10
31.6031758556
 20
89.49299039530002
 10
31.6396403477
 20
89.50569751100001
 10
31.6753776575
 20
89.5183341164
 10
31.7109658499
 20
89.5311058026
 10
31.7463420276
 20
89.54398996389999
 10
31.7812032498
 20
89.55687807069999
 10
31.8157648866
 20
89.56984846700001
 10
31.84993689010001
 20
89.5828670779
 10
31.8835701858
 20
89.59587505829999
 10
31.9170530902
 20
89.6090241004
 10
31.9517930649
 20
89.62288420670001
 10
31.989204929
 20
89.63806872020001
 10
32.0303325466
 20
89.65508752879999
 10
32.0755937431
 20
89.6742353514
 10
32.1251174571
 20
89.69572536680001
 10
32.1782749604
 20
89.7194760035
 10
32.2329323178
 20
89.7447098299
 10
32.2860419266
 20
89.77011137099999
 10
32.3339796097
 20
89.79388538649999
 10
32.3749897798
 20
89.8149471904
 10
32.4098902813
 20
89.833467727
 10
32.4396607592
 20
89.8497524377
 10
32.4654109002
 20
89.8642422149
 10
32.4884379278
 20
89.8775512004
 10
32.5100222087
 20
89.89036013209998
 10
32.5310053416
 20
89.90316153889999
 10
32.5512941527
 20
89.91590079279999
 10
32.570746495
 20
89.9284892546
 10
32.58947619300001
 20
89.94100369780001
 10
32.60749086260001
 20
89.9534514666
 10
32.624838379
 20
89.9658761667
 10
32.6415615602
 20
89.97832169879998
 10
32.6575925393
 20
89.99075395229999
 10
32.6727725904
 20
90.0030624524
 10
32.6869398091
 20
90.01511350780001
 10
32.7000550183
 20
90.02685840069998
 10
32.712174471
 20
90.03832893309999
 10
32.7233381346
 20
90.04954705660001
 10
32.7334722404
 20
90.06041286309999
 10
32.7423144736
 20
90.07057114190001
 10
32.7497239842
 20
90.07971410379999
 10
32.7559938003
 20
90.08803324149999
 10
32.7613425978
 20
90.09566492620001
 10
32.7658108468
 20
90.10251011639999
 10
32.7694346074
 20
90.1084565877
 10
32.7723428721
 20
90.1135922247
 10
32.77476117760001
 20
90.11825638940001
 10
32.7768981831
 20
90.1227996691
 10
32.778816366
 20
90.1272858617
 10
32.78050250840001
 20
90.13160385419999
 10
32.7820152182
 20
90.13582947599999
 10
32.7833902701
 20
90.14000972099999
 10
32.7846304436
 20
90.14411651540001
 10
32.7857484685
 20
90.14817122930001
 10
32.7867675073
 20
90.15228269319999
 10
32.7876856443
 20
90.15657948419999
 10
32.78840568270001
 20
90.16089017350001
 10
32.78890656300001
 20
90.16505385969999
  0
LWPOLYLINE
  5
157B
330
216
100
AcDbEntity
  8
0
  6
Continuous
 62
     7
100
AcDbPolyline
 90
       25
 70
     0
 43
0.0
 10
28.2743881217
 20
88.9191846289
 10
28.2617198827
 20
88.9156597983
 10
28.2491444815
 20
88.91201395549998
 10
28.2367175183
 20
88.90826353799999
 10
28.2244941337
 20
88.9044257453
 10
28.21252889010001
 20
88.90051853799999
 10
28.2008756586
 20
88.89656065770001
 10
28.1895875105
 20
88.89257166879998
 10
28.1787166143
 20
88.88857203329999
 10
28.1683141312
 20
88.88458322319999
 10
28.1584300994
 20
88.8806278844
 10
28.1491132831
 20
88.8767300603
 10
28.1404108508
 20
88.8729154427
 10
28.1323677745
 20
88.86921161889999
 10
28.1250272596
 20
88.86564897959999
 10
28.1184285821
 20
88.86226066389999
 10
28.11260568030001
 20
88.85908301459998
 10
28.1075840777
 20
88.85615533030001
 10
28.1033767943
 20
88.85351893719999
 10
28.0999816616
 20
88.8512167953
 10
28.0973721705
 20
88.84928773570001
 10
28.0954973753
 20
88.84776448590001
 10
28.0942795271
 20
88.84666765570001
 10
28.093621066
 20
88.84600476610001
 10
28.0935180766
 20
88.8458918267
  0
LWPOLYLINE
  5
157C
330
216
100
AcDbEntity
  8
0
  6
Continuous
 62
     7
100
AcDbPolyline
 90
       35
 70
     0
 43
0.0
 10
31.0751420865
 20
89.5763340851
 10
31.0959811559
 20
89.5821226558
 10
31.1167089093
 20
89.58810269569999
 10
31.1372715476
 20
89.59425921659999
 10
31.1576161194
 20
89.6005773042
 10
31.1776905908
 20
89.607042193
 10
31.1974446756
 20
89.61363961290002
 10
31.21683095
 20
89.62035631299999
 10
31.2358044947
 20
89.6271801622
 10
31.2543239453
 20
89.63410080889998
 10
31.2723516391
 20
89.64111015190001
 10
31.2898563248
 20
89.64820401430001
 10
31.3068149671
 20
89.65538392739999
 10
31.3232141381
 20
89.6626593481
 10
31.339054771
 20
89.67005239989999
 10
31.3543591254
 20
89.6776058276
 10
31.369183011
 20
89.6853979237
 10
31.3836379167
 20
89.69357248260001
 10
31.3979274484
 20
89.70240105
 10
31.4111681885
 20
89.7115141909
 10
31.4219119511
 20
89.7198703199
 10
31.4307256849
 20
89.72767743770001
 10
31.4379991101
 20
89.73507295879999
 10
31.4440364657
 20
89.74217550510001
 10
31.4491358624
 20
89.74918740499999
 10
31.4534169129
 20
89.75616637679999
 10
31.4569305608
 20
89.76308342799999
 10
31.4597739591
 20
89.77002682049999
 10
31.4619876654
 20
89.7770321261
 10
31.4635822921
 20
89.784086285
 10
31.4645809327
 20
89.79135296709999
 10
31.4649369594
 20
89.79855151429999
 10
31.46464801
 20
89.805926709
 10
31.4637045305
 20
89.8131875282
 10
31.4620799671
 20
89.8204487499
  0
LINE
  5
157D
330
216
100
AcDbEntity
  8
0
  6
Continuous
 62
     7
100
AcDbLine
 10
31.0751420865
 20
89.5763340851
 30
0.0
 11
28.0600432566
 21
88.75486951129998
 31
0.0
  0
LINE
  5
157E
330
216
100
AcDbEntity
  8
0
  6
Continuous
 62
     7
100
AcDbLine
 10
31.0748625369
 20
89.57736014229999
 30
0.0
 11
28.0597637071
 21
88.7558955685
 31
0.0
  0
LINE
  5
157F
330
216
100
AcDbEntity
  8
0
  6
Continuous
 62
     7
100
AcDbLine
 10
30.8268076309
 20
89.53677416439999
 30
0.0
 11
28.2941246138
 21
88.84674392239999
 31
0.0
  0
LINE
  5
1580
330
216
100
AcDbEntity
  8
0
  6
Continuous
 62
     7
100
AcDbLine
 10
30.817671978
 20
89.57030561200001
 30
0.0
 11
28.2849889609
 21
88.88027537000001
 31
0.0
  0
LINE
  5
1581
330
216
100
AcDbEntity
  8
0
  6
Continuous
 62
     7
100
AcDbLine
 10
28.2743881217
 20
88.9191846289
 30
0.0
 11
30.8070711388
 21
89.60921487090001
 31
0.0
  0
LINE
  5
1582
330
216
100
AcDbEntity
  8
0
  6
Continuous
 62
     7
100
AcDbLine
 10
28.2742683148
 20
88.9196243677
 30
0.0
 11
30.8069513319
 21
89.60965460969999
 31
0.0
  0
LINE
  5
1583
330
216
100
AcDbEntity
  8
0
  6
Continuous
 62
     7
100
AcDbLine
 10
28.0262134087
 20
88.87903838979999
 30
0.0
 11
31.0413122386
 21
89.70050296370001
 31
0.0
  0
LINE
  5
1584
330
216
100
AcDbEntity
  8
0
  6
Continuous
 62
     7
100
AcDbLine
 10
27.9987486018
 20
88.97984505870001
 30
0.0
 11
31.0138474317
 21
89.80130963249999
 31
0.0
  0
LWPOLYLINE
  5
1585
330
216
100
AcDbEntity
  8
0
  6
Continuous
 62
     7
100
AcDbPolyline
 90
       52
 70
     0
 43
0.0
 10
28.0597637071
 20
88.7558955685
 10
28.0398666673
 20
88.75057855700001
 10
28.0199675854
 20
88.74546879609999
 10
28.0001426377
 20
88.7405860059
 10
27.9804514732
 20
88.735944867
 10
27.9609574387
 20
88.73156032089999
 10
27.9417213933
 20
88.72744605200001
 10
27.9228040228
 20
88.7236150412
 10
27.9042647998
 20
88.72007933219999
 10
27.8861620731
 20
88.71685005299999
 10
27.86855279820001
 20
88.7139373637
 10
27.8514923839
 20
88.71135042929999
 10
27.8350345101
 20
88.7090973895
 10
27.8192309616
 20
88.70718533340001
 10
27.8041314639
 20
88.70562027730001
 10
27.7897835275
 20
88.7044071456
 10
27.776232298
 20
88.70354975559999
 10
27.7635204142
 20
88.70305080479999
 10
27.7516878739
 20
88.7029118633
 10
27.7407719081
 20
88.7031333682
 10
27.7308068637
 20
88.70371462260001
 10
27.7218240957
 20
88.7046537976
 10
27.7138518681
 20
88.705947938
 10
27.7069152657
 20
88.7075929719
 10
27.7010361142
 20
88.7095837232
 10
27.6962329124
 20
88.71191392799998
 10
27.6925207735
 20
88.7145762543
 10
27.6899113778
 20
88.71756232520001
 10
27.6884129356
 20
88.720862745
 10
27.68803016170001
 20
88.72446712899998
 10
27.6887642607
 20
88.72836413600001
 10
27.6906129226
 20
88.73254150420001
 10
27.6935703306
 20
88.73698608940001
 10
27.6976271794
 20
88.7416839069
 10
27.7027707039
 20
88.74662017510001
 10
27.7089847204
 20
88.7517793619
 10
27.7162496762
 20
88.7571452341
 10
27.7245427125
 20
88.762700908
 10
27.7338377352
 20
88.7684289028
 10
27.74410549760001
 20
88.7743111954
 10
27.7553136924
 20
88.78032927719999
 10
27.767427053
 20
88.7864642123
 10
27.780407465
 20
88.7926966973
 10
27.7942140855
 20
88.79900712180001
 10
27.8088034722
 20
88.80537563
 10
27.8241297198
 20
88.81178218349999
 10
27.8401446044
 20
88.8182066241
 10
27.8567977355
 20
88.82462873760001
 10
27.8740367131
 20
88.83102831629999
 10
27.8918072992
 20
88.83738522559999
 10
27.9100535639
 20
88.8436794583
 10
27.9287181452
 20
88.84989122639998
  0
LWPOLYLINE
  5
1586
330
216
100
AcDbEntity
  8
0
  6
Continuous
 62
     7
100
AcDbPolyline
 90
        5
 70
     0
 43
0.0
 10
31.0413122386
 20
89.70050296370001
 10
31.06120928260001
 20
89.7058199762
 10
31.0811083634
 20
89.71092973679999
 10
31.1009333107
 20
89.71581252700001
 10
31.1206244757
 20
89.7204536659
  0
LWPOLYLINE
  5
1587
330
216
100
AcDbEntity
  8
0
  6
Continuous
 62
     7
100
AcDbPolyline
 90
       35
 70
     0
 43
0.0
 10
28.0600432566
 20
88.75486951129998
 10
28.039147903
 20
88.749287526
 10
28.0182513591
 20
88.7439270137
 10
27.9974075918
 20
88.73880234700001
 10
27.9766697999
 20
88.7339275324
 10
27.95609031590001
 20
88.72931623899999
 10
27.935719715
 20
88.72498167629998
 10
27.9156055884
 20
88.72093648040001
 10
27.8957928013
 20
88.71719298200002
 10
27.8763222521
 20
88.7137632419
 10
27.8572305079
 20
88.71065938299999
 10
27.83854662
 20
88.70789365780002
 10
27.8202896633
 20
88.7054790704
 10
27.802466413
 20
88.70343058219999
 10
27.7850648427
 20
88.7017667859
 10
27.768044087
 20
88.70051322770001
 10
27.7513163353
 20
88.6997090708
 10
27.734712567
 20
88.69942168479999
 10
27.7179195735
 20
88.69978180889999
 10
27.7018860795
 20
88.70091917599999
 10
27.6883884737
 20
88.702670737
 10
27.6768326519
 20
88.70492816329999
 10
27.6668130498
 20
88.70761219389999
 10
27.6580073037
 20
88.71067073270001
 10
27.6500558707
 20
88.71412693020001
 10
27.6428263912
 20
88.71796985469998
 10
27.6362896687
 20
88.72214867950001
 10
27.6303172056
 20
88.72669018799999
 10
27.624856006
 20
88.7316044632
 10
27.6199035486
 20
88.73687486700001
 10
27.61535691
 20
88.74263073620001
 10
27.6113986374
 20
88.74865385120001
 10
27.6079066013
 20
88.75515636400001
 10
27.605036656
 20
88.76189231700001
 10
27.6027534648
 20
88.76897409540001
  0
LWPOLYLINE
  5
1588
330
216
100
AcDbEntity
  8
0
  6
Continuous
 62
     7
100
AcDbPolyline
 90
       51
 70
     0
 43
0.0
 10
28.2941246138
 20
88.84674392239999
 10
28.2809384416
 20
88.84322847219999
 10
28.2677538691
 20
88.83986766959999
 10
28.2546356135
 20
88.83667818379999
 10
28.2416332564
 20
88.83367205849999
 10
28.2287990744
 20
88.83086139019999
 10
28.216183484
 20
88.8282572177
 10
28.2038363373
 20
88.82586983240001
 10
28.1918063551
 20
88.8237086544
 10
28.1801410174
 20
88.8217822136
 10
28.1688863635
 20
88.82009811280001
 10
28.1580868136
 20
88.8186629992
 10
28.1477849918
 20
88.8174825367
 10
28.1380215571
 20
88.81656138450001
 10
28.1288350433
 20
88.81590317809999
 10
28.1202617079
 20
88.8155105152
 10
28.1123353879
 20
88.81538494569999
 10
28.1050873668
 20
88.8155269651
 10
28.0985462511
 20
88.815936013
 10
28.092737857
 20
88.81661047479999
 10
28.0876851092
 20
88.81754768870001
 10
28.0834079496
 20
88.81874395569999
 10
28.0799232594
 20
88.8201945543
 10
28.0772447918
 20
88.82189375940001
 10
28.0753831183
 20
88.82383486450001
 10
28.0743455863
 20
88.82601020850001
 10
28.0741362909
 20
88.8284112058
 10
28.0747560582
 20
88.83102838020001
 10
28.0762024419
 20
88.8338514023
 10
28.0784697335
 20
88.8368691301
 10
28.0815489846
 20
88.84006965340001
 10
28.0854280419
 20
88.84344034040001
 10
28.0900915957
 20
88.8469678877
 10
28.0955212399
 20
88.8506383728
 10
28.1016955449
 20
88.85443730909999
 10
28.108590142
 20
88.85834970309998
 10
28.1161778197
 20
88.86236011319999
 10
28.1244286311
 20
88.8664527114
 10
28.1333100118
 20
88.8706113449
 10
28.1427869093
 20
88.87481960059998
 10
28.1528219203
 20
88.87906086950001
 10
28.1633754383
 20
88.88331841200001
 10
28.1744058101
 20
88.8875754242
 10
28.1858695029
 20
88.89181510530001
 10
28.1977212709
 20
88.89602072169999
 10
28.20991435
 20
88.90017567900001
 10
28.2224005526
 20
88.9042635572
 10
28.2351308408
 20
88.90826829919999
 10
28.2480540102
 20
88.9121738076
 10
28.2611212293
 20
88.91596531370002
 10
28.2742683148
 20
88.9196243677
  0
LWPOLYLINE
  5
1589
330
216
100
AcDbEntity
  8
0
  6
Continuous
 62
     7
100
AcDbPolyline
 90
       51
 70
     0
 43
0.0
 10
30.8069513319
 20
89.60965460969999
 10
30.8201375396
 20
89.6131700693
 10
30.8333221047
 20
89.61653086959998
 10
30.84644035510001
 20
89.61972035379998
 10
30.8594427166
 20
89.62272647979999
 10
30.8722768956
 20
89.62553714709999
 10
30.8848924865
 20
89.6281413194
 10
30.8972396323
 20
89.63052870430001
 10
30.909269614
 20
89.63268988180001
 10
30.9209349508
 20
89.63461632219999
 10
30.9321896039
 20
89.6363004224
 10
30.9429891528
 20
89.63773553560001
 10
30.9532909736
 20
89.63891599750001
 10
30.9630544072
 20
89.63983714920001
 10
30.9722409198
 20
89.6404953551
 10
30.980814254
 20
89.6408880175
 10
30.9887405727
 20
89.64101358649999
 10
30.9959885924
 20
89.6408715665
 10
31.00252970670001
 20
89.6404625181
 10
31.0083380993
 20
89.63978805569999
 10
31.0133908456
 20
89.6388508413
 10
31.0176680037
 20
89.6376545739
 10
31.0211526923
 20
89.63620397479999
 10
31.0238311583
 20
89.6345047692
 10
31.0256928302
 20
89.63256366370002
 10
31.0267303605
 20
89.6303883192
 10
31.0269396543
 20
89.62798732139999
 10
31.0263198855
 20
89.6253701466
 10
31.0248735001
 20
89.62254712409999
 10
31.0226062069
 20
89.6195293959
 10
31.0195269542
 20
89.61632887230001
 10
31.0156478953
 20
89.612958185
 10
31.01098434
 20
89.6094306374
 10
31.0055546943
 20
89.605760152
 10
30.9993803879
 20
89.6019612155
 10
30.9924857894
 20
89.59804882129999
 10
30.9848981103
 20
89.594038411
 10
30.9766472977
 20
89.5899458126
 10
30.9677659157
 20
89.585787179
 10
30.9582890172
 20
89.5815789232
 10
30.9482540051
 20
89.57733765430001
 10
30.93770048610001
 20
89.57308011169999
 10
30.9266701134
 20
89.56882309950001
 10
30.9152064199
 20
89.56458341860001
 10
30.9033546508
 20
89.56037780209999
 10
30.891161572
 20
89.55622284530001
 10
30.8786753665
 20
89.55213496649999
 10
30.8659450824
 20
89.5481302261
 10
30.8530219077
 20
89.5442247163
 10
30.839954681
 20
89.54043320850001
 10
30.8268076309
 20
89.53677416439999
  0
LWPOLYLINE
  5
158A
330
216
100
AcDbEntity
  8
0
  6
Continuous
 62
     7
100
AcDbPolyline
 90
       25
 70
     0
 43
0.0
 10
30.8070711388
 20
89.60921487090001
 10
30.8197765922
 20
89.61260311040001
 10
30.8324634211
 20
89.61583996969999
 10
30.8450753713
 20
89.6189114116
 10
30.8575561985
 20
89.6218042887
 10
30.86984977
 20
89.62450640290001
 10
30.8819001534
 20
89.62700657940001
 10
30.8936516875
 20
89.62929475889998
 10
30.9050490345
 20
89.6313621128
 10
30.9160372116
 20
89.63320119450001
 10
30.9265616092
 20
89.63480613829998
 10
30.9365680063
 20
89.6361729294
 10
30.9460027207
 20
89.63729978290002
 10
30.9548130022
 20
89.63818766139999
 10
30.96294620050001
 20
89.6388408399
 10
30.970351658
 20
89.63926795489999
 10
30.9769816918
 20
89.63948311160001
 10
30.9827943716
 20
89.63950723079999
 10
30.9877575141
 20
89.63936932299999
 10
30.9918511968
 20
89.63910751110001
 10
30.9950785682
 20
89.6387687064
 10
30.9974669323
 20
89.6384069556
 10
30.999072839
 20
89.6380794583
 10
30.9999765503
 20
89.63784218309999
 10
31.0001225948
 20
89.63779709299998
  0
LWPOLYLINE
  5
158B
330
216
100
AcDbEntity
  8
0
  6
Continuous
 62
     7
100
AcDbPolyline
 90
       21
 70
     0
 43
0.0
 10
28.2849889609
 20
88.88027537000001
 10
28.2731388216
 20
88.87711904840001
 10
28.2613027766
 20
88.87411076219999
 10
28.2495315096
 20
88.8712633933
 10
28.237875427
 20
88.86858913459999
 10
28.2263844425
 20
88.86609943779999
 10
28.2151077618
 20
88.8638049641
 10
28.2040936729
 20
88.8617155386
 10
28.19338934
 20
88.85984010860001
 10
28.1830406011
 20
88.85818670509999
 10
28.1730917708
 20
88.85676240809999
 10
28.1635854516
 20
88.85557331680001
 10
28.1545623509
 20
88.85462452290001
 10
28.1460611071
 20
88.8539200894
 10
28.1381181239
 20
88.8534630328
 10
28.1307674142
 20
88.85325531019999
 10
28.1240404549
 20
88.85329781120001
 10
28.11796605199999
 20
88.85359035370001
 10
28.112570217
 20
88.8541316851
 10
28.1078760556
 20
88.8549194872
 10
28.106274954
 20
88.8553349993
  0
LWPOLYLINE
  5
158C
330
216
100
AcDbEntity
  8
0
  6
Continuous
 62
     7
100
AcDbPolyline
 90
       53
 70
     0
 43
0.0
 10
31.1206244757
 20
89.7204536659
 10
31.1401185099
 20
89.72483821190001
 10
31.1593545554
 20
89.7289524808
 10
31.1782719257
 20
89.7327834915
 10
31.1968111487
 20
89.73631920049999
 10
31.2149138753
 20
89.73954847959999
 10
31.23252315010001
 20
89.74246116889998
 10
31.2495835644
 20
89.74504810319999
 10
31.266041438
 20
89.74730114299999
 10
31.2818449865
 20
89.7492131991
 10
31.2969444841
 20
89.7507782551
 10
31.3112924204
 20
89.75199138669999
 10
31.3248436497
 20
89.7528487767
 10
31.3375555334
 20
89.7533477274
 10
31.3493880735
 20
89.75348666889999
 10
31.3603040392
 20
89.7532651639
 10
31.3702690834
 20
89.7526839094
 10
31.3792518513
 20
89.7517447344
 10
31.3872240787
 20
89.7504505939
 10
31.394160681
 20
89.74880556
 10
31.4000398323
 20
89.74681480860001
 10
31.4048430339
 20
89.74448460379999
 10
31.4085551726
 20
89.7418222774
 10
31.4111645682
 20
89.73883620649999
 10
31.4126630102
 20
89.7355357866
 10
31.4130457839
 20
89.73193140259999
 10
31.4123116848
 20
89.72803439549998
 10
31.4104630227
 20
89.72385702729999
 10
31.4075056145
 20
89.71941244200001
 10
31.4034487656
 20
89.71471462450001
 10
31.3983052408
 20
89.7097783563
 10
31.3920912242
 20
89.7046191695
 10
31.3848262682
 20
89.69925329719998
 10
31.3765332318
 20
89.6936976233
 10
31.3672382089
 20
89.68796962849999
 10
31.3569704464
 20
89.68208733590001
 10
31.3457622515
 20
89.67606925410001
 10
31.3336488907
 20
89.66993431889999
 10
31.3206684786
 20
89.66370183389999
 10
31.306861858
 20
89.6573914094
 10
31.2922724711
 20
89.6510229012
 10
31.2769462234
 20
89.64461634770001
 10
31.2609313387
 20
89.638191907
 10
31.2442782075
 20
89.6317697936
 10
31.2270392299
 20
89.6253702149
 10
31.2092686437
 20
89.61901330559999
 10
31.1910223788
 20
89.6127190728
 10
31.1723577977
 20
89.60650730479999
 10
31.1533337839
 20
89.60039759719998
 10
31.1340097273
 20
89.5944090274
 10
31.1144477992
 20
89.58856085159998
 10
31.0947068518
 20
89.58287067479998
 10
31.0748625369
 20
89.57736014229999
  0
LWPOLYLINE
  5
158D
330
216
100
AcDbEntity
  8
0
  6
Continuous
 62
     7
100
AcDbPolyline
 90
       50
 70
     0
 43
0.0
 10
51.1324887921
 20
95.6327020894
 10
50.4256420516
 20
95.6248716382
 10
48.8334999664
 20
95.5906906092
 10
47.2858933414
 20
95.53118644319999
 10
45.7814711202
 20
95.44489477250001
 10
44.31857428079999
 20
95.33428921950001
 10
42.89541570949999
 20
95.20124473770001
 10
41.5101581494
 20
95.0475394322
 10
40.1609652829
 20
94.87476089709998
 10
38.84592152190001
 20
94.6856535733
 10
37.5623948379
 20
94.4854233581
 10
36.3083088492
 20
94.2742694026
 10
35.0824273236
 20
94.0519533422
 10
33.885116313
 20
93.81874122499999
 10
32.71706243540001
 20
93.57498022860001
 10
31.5789241193
 20
93.32115841510001
 10
30.4713345543
 20
93.05788670950001
 10
29.3948980246
 20
92.78580012639999
 10
28.3503437543
 20
92.50500732469999
 10
27.3388692962
 20
92.2154329924
 10
26.362070095
 20
91.9173778118
 10
25.4215123339
 20
91.6114445348
 10
24.5186237312
 20
91.29851563930001
 10
23.6533320037
 20
90.9792267759
 10
22.8241152129
 20
90.6538013609
 10
22.0293669378
 20
90.32250106259999
 10
21.26751517
 20
89.9854838265
 10
20.5383652708
 20
89.6431599213
 10
19.8513706584
 20
89.2813927339
 10
19.2148595301
 20
88.89842539889999
 10
18.6296741814
 20
88.50159575129998
 10
18.0893172875
 20
88.0928082774
 10
17.5835398476
 20
87.66879393409999
 10
17.1032656462
 20
87.2242160543
 10
16.6415195805
 20
86.752593625
 10
16.1986827796
 20
86.2529157164
 10
15.7785785644
 20
85.72814576369999
 10
15.384592382
 20
85.18179179550001
 10
15.0193559126
 20
84.61754186489999
 10
14.6838182005
 20
84.0372740125
 10
14.3782818985
 20
83.4419401451
 10
14.1031224794
 20
82.8324353958
 10
13.8587007933
 20
82.2097741574
 10
13.6455828478
 20
81.5754906791
 10
13.4643923593
 20
80.9313139098
 10
13.3157195208
 20
80.27899668779999
 10
13.1999644781
 20
79.620373039
 10
13.1172887631
 20
78.9572861708
 10
13.067807418
 20
78.2915499698
 10
13.051602819
 20
77.63685716960001
  0
LINE
  5
158E
330
216
100
AcDbEntity
  8
0
  6
Continuous
 62
     7
100
AcDbLine
 10
52.051143478
 20
95.63645886999999
 30
0.0
 11
51.1324887767
 21
95.6327044446
 31
0.0
  0
LWPOLYLINE
  5
158F
330
216
100
AcDbEntity
  8
0
  6
Continuous
 62
     7
100
AcDbPolyline
 90
       89
 70
     0
 43
0.0
 10
52.0511538021
 20
94.05686112700001
 10
53.124284382
 20
94.0517307604
 10
54.0947687352
 20
94.038235156
 10
54.9686827447
 20
94.01890865850001
 10
55.75212129649999
 20
93.99578805069999
 10
56.4511169809
 20
93.9705301338
 10
57.0719678588
 20
93.9444356279
 10
57.6267929283
 20
93.91820105379999
 10
58.1349902939
 20
93.89175442089999
 10
58.61642207479999
 20
93.8645624615
 10
59.09004099989999
 20
93.835780293
 10
59.5579343829
 20
93.80537942089999
 10
60.0086524755
 20
93.7742489979
 10
60.44225745489999
 20
93.74258091989998
 10
60.86579612649999
 20
93.7099878551
 10
61.2793460499
 20
93.6765577995
 10
61.6792421284
 20
93.6428459571
 10
62.0665575931
 20
93.6089816468
 10
62.4449111836
 20
93.5739178362
 10
62.8195337981
 20
93.53586796709999
 10
63.19540028229999
 20
93.4937589503
 10
63.56965538989999
 20
93.4479618948
 10
63.9428019247
 20
93.3984689208
 10
64.33043914609999
 20
93.34297551790001
 10
64.7506694865
 20
93.278083631
 10
65.2203507215
 20
93.19969948040002
 10
65.7445827185
 20
93.1048708215
 10
66.321084623
 20
92.99157555889999
 10
66.95473264330001
 20
92.85604761549999
 10
67.6705976608
 20
92.68892599209999
 10
68.473894337
 20
92.4834535841
 10
69.3020772032
 20
92.2514187141
 10
70.0871179901
 20
92.01217488030001
 10
70.77592641799999
 20
91.78647979799999
 10
71.37208721810001
 20
91.5789903149
 10
71.903717214
 20
91.38428543370002
 10
72.3842496528
 20
91.200324564
 10
72.8177719816
 20
91.0277618673
 10
73.208712101
 20
90.8667019519
 10
73.5625792175
 20
90.71638828080001
 10
73.8848506577
 20
90.57570114059998
 10
74.17903058590001
 20
90.44408538270001
 10
74.44606980569999
 20
90.32194151030001
 10
74.68671956299999
 20
90.20966293729999
 10
74.9034581417
 20
90.10673554430001
 10
75.10270288540001
 20
90.01059961700001
 10
75.2914460188
 20
89.9181775301
 10
75.47666658139999
 20
89.82617931209999
 10
75.661049152
 20
89.73331584200002
 10
75.83998662289999
 20
89.64197691309999
 10
76.0117894532
 20
89.5531039425
 10
76.1792581864
 20
89.46535287809998
 10
76.3433789717
 20
89.37837737209999
 10
76.50300002109999
 20
89.29272161860001
 10
76.6575752684
 20
89.208145675
 10
76.8074927373
 20
89.12386003399999
 10
76.95451696790001
 20
89.03857518790001
 10
77.1005714393
 20
88.9512263541
 10
77.2457892739
 20
88.86181349240001
 10
77.3896721425
 20
88.77067979389998
 10
77.5328428649
 20
88.67742502750001
 10
77.6757750677
 20
88.5816787205
 10
77.81732448359999
 20
88.48416143979999
 10
77.95826967939999
 20
88.38431515559999
 10
78.1042467937
 20
88.27794210330001
 10
78.2612752935
 20
88.16005703489999
 10
78.43465594779999
 20
88.02558867389999
 10
78.6260085869
 20
87.87171860269999
 10
78.83493018180001
 20
87.6968701142
 10
79.06185623439999
 20
87.49843135319999
 10
79.3092381455
 20
87.2713901524
 10
79.579383139
 20
87.00975554629998
 10
79.87407545109999
 20
86.7065642548
 10
80.1958010567
 20
86.352118643
 10
80.5462192595
 20
85.934700026
 10
80.91805026180001
 20
85.4503398393
 10
81.28419101629999
 20
84.9235529537
 10
81.6252737828
 20
84.3781687
 10
81.93900763349999
 20
83.81773880770001
 10
82.2247643492
 20
83.24351867279998
 10
82.4823452909
 20
82.65593554659998
 10
82.71186809719999
 20
82.05448367930001
 10
82.9125958578
 20
81.44074090000001
 10
83.0826946049
 20
80.820580005
 10
83.22137770620001
 20
80.1977626705
 10
83.3293301734
 20
79.5698762433
 10
83.40773998680001
 20
78.927779576
 10
83.4553303769
 20
78.28166960629999
 10
83.47121083919999
 20
77.6368572418
  0
LINE
  5
1590
330
216
100
AcDbEntity
  8
0
  6
Continuous
 62
     7
100
AcDbLine
 10
82.1814705741
 20
68.8726588097
 30
0.0
 11
81.71698951939999
 21
68.2728930723
 31
0.0
  0
LINE
  5
1591
330
216
100
AcDbEntity
  8
0
  6
Continuous
 62
     7
100
AcDbLine
 10
81.71677380469999
 20
68.2726800627
 30
0.0
 11
81.75147453799999
 21
68.31693925329999
 31
0.0
  0
LWPOLYLINE
  5
1592
330
216
100
AcDbEntity
  8
0
  6
Continuous
 62
     7
100
AcDbPolyline
 90
        3
 70
     0
 43
0.0
 10
81.57097731489999
 20
68.0981305528
 10
81.5070336994
 20
68.02152763869999
 10
81.40286988529998
 20
67.9049102031
  0
LWPOLYLINE
  5
1593
330
216
100
AcDbEntity
  8
0
  6
Continuous
 62
     7
100
AcDbPolyline
 90
        3
 70
     0
 43
0.0
 10
81.12505275009999
 20
67.59145343970001
 10
81.5939597869
 20
68.1242441458
 10
81.71696442609999
 20
68.27291353549999
  0
LWPOLYLINE
  5
1594
330
216
100
AcDbEntity
  8
0
  6
Continuous
 62
     7
100
AcDbPolyline
 90
       12
 70
     0
 43
0.0
 10
80.9707739235
 20
67.42692727419999
 10
81.3166430525
 20
67.8029954416
 10
81.77676905910001
 20
68.34683580630001
 10
82.21338290170001
 20
68.9166351077
 10
82.6206383449
 20
69.5051014753
 10
82.99850868060001
 20
70.1118298642
 10
83.3473769981
 20
70.7375707659
 10
83.6656555254
 20
71.37966758020001
 10
83.9524243872
 20
72.03632097479999
 10
84.2071306535
 20
72.7062493426
 10
84.4291007792
 20
73.38757838890001
 10
84.58097269040001
 20
73.93290997689999
  0
LINE
  5
1595
330
216
100
AcDbEntity
  8
0
  6
Continuous
 62
     7
100
AcDbLine
 10
80.97077392699999
 20
67.4269272778
 30
0.0
 11
81.12505275009999
 21
67.59145343970001
 31
0.0
  0
LWPOLYLINE
  5
1596
330
216
100
AcDbEntity
  8
0
  6
Continuous
 62
     7
100
AcDbPolyline
 90
       83
 70
     0
 43
0.0
 10
80.97076912449999
 20
87.8467922709
 10
80.866702681
 20
87.9549898117
 10
80.45883831039999
 20
88.3587681847
 10
80.0827600528
 20
88.70471754649999
 10
79.73791570759999
 20
89.0017599015
 10
79.419974182
 20
89.2598658182
 10
79.12489968279999
 20
89.48679723120001
 10
78.8513593494
 20
89.68692473959999
 10
78.5995300485
 20
89.8628776435
 10
78.3684935529
 20
90.01761834860001
 10
78.1557306113
 20
90.15471551270001
 10
77.9586523572
 20
90.277277993
 10
77.77657903640001
 20
90.3867957423
 10
77.61063647749999
 20
90.48349583169999
 10
77.4615197637
 20
90.5678680097
 10
77.3288231874
 20
90.6411707868
 10
77.21106500960001
 20
90.7051204687
 10
77.1051506457
 20
90.76196057229999
 10
77.006906469
 20
90.81426083590001
 10
76.9119505611
 20
90.86451460639999
 10
76.8173560624
 20
90.91427300659999
 10
76.72252072970001
 20
90.9638198436
 10
76.6275837414
 20
91.01306173319999
 10
76.532170709
 20
91.0621996959
 10
76.4340829147
 20
91.11236317040001
 10
76.3292051378
 20
91.16561357429999
 10
76.2137077981
 20
91.22379379159999
 10
76.08570054350001
 20
91.2877091752
 10
75.9445261807
 20
91.3575110802
 10
75.7892878129
 20
91.43343783869999
 10
75.61718759930001
 20
91.5166041384
 10
75.4226660003
 20
91.60934098510001
 10
75.20133663989999
 20
91.71324107770001
 10
74.95488819950001
 20
91.82692681789999
 10
74.68502411840001
 20
91.94901262790001
 10
74.38835706919999
 20
92.08035563500001
 10
74.0594235243
 20
92.22251310510001
 10
73.6954798776
 20
92.3756016541
 10
73.29932411859999
 20
92.5372941958
 10
72.8677413692
 20
92.70766035239999
 10
72.38573924239999
 20
92.89089656629998
 10
71.8342959159
 20
93.09157812109999
 10
71.20420337929999
 20
93.3093781566
 10
70.514251758
 20
93.53403994629999
 10
69.79992261619999
 20
93.75169055629999
 10
69.0927109516
 20
93.95244194780001
 10
68.41664618430001
 20
94.13087789040002
 10
67.79241140359999
 20
94.28409426200001
 10
67.2319189329
 20
94.41235077669999
 10
66.73372558279999
 20
94.51902594839999
 10
66.2895922217
 20
94.6083569493
 10
65.8904146249
 20
94.68404021100001
 10
65.52707521479999
 20
94.74916164239999
 10
65.19095509489999
 20
94.80622474440002
 10
64.8747156503
 20
94.85713308020001
 10
64.5715987623
 20
94.9034070515
 10
64.2751083994
 20
94.9462871322
 10
63.9805642784
 20
94.986565982
 10
63.68594311919999
 20
95.0245600615
 10
63.3909453234
 20
95.0603145866
 10
63.095829938
 20
95.09377660590001
 10
62.8002640848
 20
95.1249505416
 10
62.5036071989
 20
95.1539938109
 10
62.20619335479999
 20
95.18140213329999
 10
61.9087371421
 20
95.20773313099999
 10
61.61108722459999
 20
95.2333865247
 10
61.3132846299
 20
95.25831845530001
 10
61.01621601479999
 20
95.2823759035
 10
60.7173946674
 20
95.3057252946
 10
60.4075790856
 20
95.32905712649998
 10
60.0738726306
 20
95.35321736440002
 10
59.7051074488
 20
95.37875154709999
 10
59.2977103193
 20
95.40553119540001
 10
58.85428444350001
 20
95.4329738923
 10
58.3742087234
 20
95.4606949575
 10
57.84905614310001
 20
95.48866760720001
 10
57.26685605189999
 20
95.5168281957
 10
56.61557688640001
 20
95.54479543159999
 10
55.8847433907
 20
95.571762369
 10
55.06680136489999
 20
95.5964164355
 10
54.1580637719
 20
95.61690925120002
 10
53.1544323206
 20
95.63109437299999
 10
52.0511434781
 20
95.63645876549999
  0
LINE
  5
1597
330
216
100
AcDbEntity
  8
0
  6
Continuous
 62
     7
100
AcDbLine
 10
81.4072304337
 20
87.3633268981
 30
0.0
 11
81.5308808031
 21
87.2241954851
 31
0.0
  0
LWPOLYLINE
  5
1598
330
216
100
AcDbEntity
  8
0
  6
Continuous
 62
     7
100
AcDbPolyline
 90
        3
 70
     0
 43
0.0
 10
81.5939597869
 20
87.14947035889998
 10
81.12505275009999
 20
87.68226106510001
 10
80.97076912789999
 20
87.84679226739999
  0
LINE
  5
1599
330
216
100
AcDbEntity
  8
0
  6
Continuous
 62
     7
100
AcDbLine
 10
81.5308808031
 20
87.2241954851
 30
0.0
 11
81.71671098919999
 21
87.0009831267
 31
0.0
  0
LINE
  5
159A
330
216
100
AcDbEntity
  8
0
  6
Continuous
 62
     7
100
AcDbLine
 10
81.71696442609999
 20
87.0008009692
 30
0.0
 11
81.5939597869
 21
87.14947035889998
 31
0.0
  0
LINE
  5
159B
330
216
100
AcDbEntity
  8
0
  6
Continuous
 62
     7
100
AcDbLine
 10
81.71700024880001
 20
87.0008302113
 30
0.0
 11
81.77583568039999
 21
86.9282267268
 31
0.0
  0
LWPOLYLINE
  5
159C
330
216
100
AcDbEntity
  8
0
  6
Continuous
 62
     7
100
AcDbPolyline
 90
        7
 70
     0
 43
0.0
 10
81.81121286899999
 20
86.8820879131
 10
81.96173837739999
 20
86.6927079502
 10
82.3755513534
 20
86.1303760917
 10
82.76210564729998
 20
85.54953189779999
 10
83.1189445915
 20
84.9543431208
 10
83.4472780623
 20
84.34337738299999
 10
83.7472046945
 20
83.71637353789999
  0
LINE
  5
159D
330
216
100
AcDbEntity
  8
0
  6
Continuous
 62
     7
100
AcDbLine
 10
81.7336177415
 20
86.97955077469998
 30
0.0
 11
81.71677380469999
 21
87.00103444200001
 31
0.0
  0
LINE
  5
159E
330
216
100
AcDbEntity
  8
0
  6
Continuous
 62
     7
100
AcDbLine
 10
81.77583568039999
 20
86.9282267268
 30
0.0
 11
82.2110927992
 21
86.3605658146
 31
0.0
  0
LINE
  5
159F
330
216
100
AcDbEntity
  8
0
  6
Continuous
 62
     7
100
AcDbLine
 10
82.2110927992
 20
86.3605658146
 30
0.0
 11
82.62210760189999
 21
85.7668322063
 31
0.0
  0
LINE
  5
15A0
330
216
100
AcDbEntity
  8
0
  6
Continuous
 62
     7
100
AcDbLine
 10
82.62210760189999
 20
85.7668322063
 30
0.0
 11
83.0006177521
 21
85.15882613050001
 31
0.0
  0
LWPOLYLINE
  5
15A1
330
216
100
AcDbEntity
  8
0
  6
Continuous
 62
     7
100
AcDbPolyline
 90
        7
 70
     0
 43
0.0
 10
84.58097269040001
 20
73.93290997689999
 10
84.61785494809999
 20
74.07893587540001
 10
84.77319830810001
 20
74.7799358247
 10
84.89433126959999
 20
75.48710021939999
 10
84.98109539419999
 20
76.199410313
 10
85.03336324779999
 20
76.91627590600001
 10
85.05086800939999
 20
77.63685725239999
  0
LWPOLYLINE
  5
15A2
330
216
100
AcDbEntity
  8
0
  6
Continuous
 62
     7
100
AcDbPolyline
 90
        3
 70
     0
 43
0.0
 10
84.39432621219999
 20
73.28527814520001
 10
84.25128866619999
 20
72.8331356576
 10
84.22481680489999
 20
72.7605363266
  0
LWPOLYLINE
  5
15A3
330
216
100
AcDbEntity
  8
0
  6
Continuous
 62
     7
100
AcDbPolyline
 90
        4
 70
     0
 43
0.0
 10
84.09704548589999
 20
72.4043742243
 10
84.33520648380001
 20
73.085468087
 10
84.54011064479999
 20
73.7779934656
 10
84.58097269040001
 20
73.93290997699999
  0
LINE
  5
15A4
330
216
100
AcDbEntity
  8
0
  6
Continuous
 62
     7
100
AcDbLine
 10
84.14605057819999
 20
72.5445192016
 30
0.0
 11
84.0513224228
 21
72.2847263352
 31
0.0
  0
LINE
  5
15A5
330
216
100
AcDbEntity
  8
0
  6
Continuous
 62
     7
100
AcDbLine
 10
84.05136638649999
 20
72.284843202
 30
0.0
 11
84.09704548589999
 21
72.4043742243
 31
0.0
  0
LINE
  5
15A6
330
216
100
AcDbEntity
  8
0
  6
Continuous
 62
     7
100
AcDbLine
 10
84.0513224228
 20
72.2847263352
 30
0.0
 11
84.0098474822
 21
72.1788037809
 31
0.0
  0
LWPOLYLINE
  5
15A7
330
216
100
AcDbEntity
  8
0
  6
Continuous
 62
     7
100
AcDbPolyline
 90
        7
 70
     0
 43
0.0
 10
84.05136450029999
 20
72.2848439322
 10
83.94101522719999
 20
72.0080904917
 10
83.65133271499999
 20
71.3485377822
 10
83.330307689
 20
70.7047014646
 10
82.97924758609999
 20
70.0787478884
 10
82.5967262244
 20
69.46836464010001
 10
82.1814705741
 20
68.8726588097
  0
LINE
  5
15A8
330
216
100
AcDbEntity
  8
0
  6
Continuous
 62
     7
100
AcDbLine
 10
83.9956685287
 20
72.1500617068
 30
0.0
 11
84.05132131210001
 21
72.2847267652
 31
0.0
  0
LWPOLYLINE
  5
15A9
330
216
100
AcDbEntity
  8
0
  6
Continuous
 62
     7
100
AcDbPolyline
 90
        8
 70
     0
 43
0.0
 10
84.0098474822
 20
72.1788037809
 10
83.73781754939999
 20
71.53651312930001
 10
83.4357826685
 20
70.9077369006
 10
83.10517181500001
 20
70.2951781363
 10
82.7458030182
 20
69.69844382959999
 10
82.3564648259
 20
69.11614118180001
 10
81.94002942439999
 20
68.55299106149999
 10
81.7595958042
 20
68.3265380856
  0
LINE
  5
15AA
330
216
100
AcDbEntity
  8
0
  6
Continuous
 62
     7
100
AcDbLine
 10
83.0006177521
 20
85.15882613050001
 30
0.0
 11
83.3481278642
 21
84.53524304189999
 31
0.0
  0
LINE
  5
15AB
330
216
100
AcDbEntity
  8
0
  6
Continuous
 62
     7
100
AcDbLine
 10
83.3481278642
 20
84.53524304189999
 30
0.0
 11
83.6659175589
 21
83.8939574619
 31
0.0
  0
LWPOLYLINE
  5
15AC
330
216
100
AcDbEntity
  8
0
  6
Continuous
 62
     7
100
AcDbPolyline
 90
        3
 70
     0
 43
0.0
 10
83.6659175589
 20
83.8939574619
 10
83.95261952309999
 20
83.2372687734
 10
84.05136447649999
 20
82.98887056339999
  0
LWPOLYLINE
  5
15AD
330
216
100
AcDbEntity
  8
0
  6
Continuous
 62
     7
100
AcDbPolyline
 90
        3
 70
     0
 43
0.0
 10
83.7472046945
 20
83.71637353789999
 10
84.01730703050001
 20
83.07603507739999
 10
84.05132234799999
 20
82.9889881405
  0
LINE
  5
15AE
330
216
100
AcDbEntity
  8
0
  6
Continuous
 62
     7
100
AcDbLine
 10
84.05132131210001
 20
82.9889877395
 30
0.0
 11
83.99012352379999
 21
83.13707024740001
 31
0.0
  0
LINE
  5
15AF
330
216
100
AcDbEntity
  8
0
  6
Continuous
 62
     7
100
AcDbLine
 10
84.05132234799999
 20
82.9889881405
 30
0.0
 11
84.14575613030001
 21
82.7295198376
 31
0.0
  0
LINE
  5
15B0
330
216
100
AcDbEntity
  8
0
  6
Continuous
 62
     7
100
AcDbLine
 10
84.22364037159999
 20
82.5155234116
 30
0.0
 11
84.2570329265
 21
82.4237733054
 31
0.0
  0
LWPOLYLINE
  5
15B1
330
216
100
AcDbEntity
  8
0
  6
Continuous
 62
     7
100
AcDbPolyline
 90
        3
 70
     0
 43
0.0
 10
84.33520648380001
 20
82.1882464177
 10
84.09704548589999
 20
82.86934028039999
 10
84.05136638649999
 20
82.98887130270001
  0
LINE
  5
15B2
330
216
100
AcDbEntity
  8
0
  6
Continuous
 62
     7
100
AcDbLine
 10
84.2570329265
 20
82.4237733054
 30
0.0
 11
84.3469580989
 21
82.138413606
 31
0.0
  0
LWPOLYLINE
  5
15B3
330
216
100
AcDbEntity
  8
0
  6
Continuous
 62
     7
100
AcDbPolyline
 90
       12
 70
     0
 43
0.0
 10
84.58097497979998
 20
81.34079565390001
 10
84.425214214
 20
81.8991037436
 10
84.20078162760001
 20
82.5854262284
 10
83.9432432079
 20
83.259834316
 10
83.6530882461
 20
83.9209523421
 10
83.3311644261
 20
84.5668668737
 10
82.9788769267
 20
85.19507468929999
 10
82.5961140575
 20
85.80582520510001
 10
82.18308168029999
 20
86.39852653780002
 10
81.7452129719
 20
86.9659167502
 10
81.2997903153
 20
87.4896582571
 10
80.97076912449999
 20
87.8467922709
  0
LWPOLYLINE
  5
15B4
330
216
100
AcDbEntity
  8
0
  6
Continuous
 62
     7
100
AcDbPolyline
 90
        3
 70
     0
 43
0.0
 10
84.58097497979998
 20
81.3407956538
 10
84.54011064479999
 20
81.49572103910001
 10
84.33520648380001
 20
82.1882464177
  0
LWPOLYLINE
  5
15B5
330
216
100
AcDbEntity
  8
0
  6
Continuous
 62
     7
100
AcDbPolyline
 90
        7
 70
     0
 43
0.0
 10
85.05086800939999
 20
77.63685725239999
 10
85.0335300367
 20
78.3539998215
 10
84.9816948896
 20
79.06812955959999
 10
84.89450491179999
 20
79.7854283426
 10
84.7723825087
 20
80.4979307398
 10
84.6158705144
 20
81.20279772259999
 10
84.58097497979998
 20
81.34079565390001
  0
CIRCLE
  5
1658
330
216
100
AcDbEntity
  8
0
  6
Continuous
 62
     7
100
AcDbCircle
 10
43.5512046044
 20
77.63685725239999
 30
0.0
 40
1.375
  0
ENDSEC
  0
SECTION
  2
OBJECTS
  0
DICTIONARY
  5
C
330
0
100
AcDbDictionary
281
     1
  3
ACAD_COLOR
350
1695
  3
ACAD_DETAILVIEWSTYLE
350
16AF
  3
ACAD_GROUP
350
D
  3
ACAD_LAYOUT
350
1A
  3
ACAD_MATERIAL
350
1663
  3
ACAD_MLEADERSTYLE
350
16AA
  3
ACAD_MLINESTYLE
350
17
  3
ACAD_PLOTSETTINGS
350
19
  3
ACAD_PLOTSTYLENAME
350
E
  3
ACAD_SCALELIST
350
1698
  3
ACAD_SECTIONVIEWSTYLE
350
16AC
  3
ACAD_TABLESTYLE
350
1696
  3
ACAD_VISUALSTYLE
350
167C
  3
ACDB_RECOMPOSE_DATA
350
16B3
  3
AcDbVariableDictionary
350
16F0
  0
DICTIONARY
  5
16B4
330
8
100
AcDbDictionary
280
     1
281
     1
  0
DICTIONARY
  5
1703
330
10
100
AcDbDictionary
280
     1
281
     1
  3
ADSK_XREC_LAYER_RECONCILED
360
1704
  0
DICTIONARY
  5
1705
330
1FA
100
AcDbDictionary
280
     1
281
     1
  3
ADSK_XREC_LAYER_RECONCILED
360
1706
  0
DICTIONARY
  5
1707
330
1FB
100
AcDbDictionary
280
     1
281
     1
  3
ADSK_XREC_LAYER_RECONCILED
360
1708
  0
DICTIONARY
  5
1709
330
1FC
100
AcDbDictionary
280
     1
281
     1
  3
ADSK_XREC_LAYER_RECONCILED
360
170A
  0
DICTIONARY
  5
170B
330
1FD
100
AcDbDictionary
280
     1
281
     1
  3
ADSK_XREC_LAYER_RECONCILED
360
170C
  0
DICTIONARY
  5
170D
330
1FE
100
AcDbDictionary
280
     1
281
     1
  3
ADSK_XREC_LAYER_RECONCILED
360
170E
  0
DICTIONARY
  5
170F
330
1FF
100
AcDbDictionary
280
     1
281
     1
  3
ADSK_XREC_LAYER_RECONCILED
360
1710
  0
DICTIONARY
  5
1711
330
200
100
AcDbDictionary
280
     1
281
     1
  3
ADSK_XREC_LAYER_RECONCILED
360
1712
  0
DICTIONARY
  5
1713
330
201
100
AcDbDictionary
280
     1
281
     1
  3
ADSK_XREC_LAYER_RECONCILED
360
1714
  0
DICTIONARY
  5
1715
330
202
100
AcDbDictionary
280
     1
281
     1
  3
ADSK_XREC_LAYER_RECONCILED
360
1716
  0
DICTIONARY
  5
1717
330
203
100
AcDbDictionary
280
     1
281
     1
  3
ADSK_XREC_LAYER_RECONCILED
360
1718
  0
DICTIONARY
  5
1719
330
204
100
AcDbDictionary
280
     1
281
     1
  3
ADSK_XREC_LAYER_RECONCILED
360
171A
  0
DICTIONARY
  5
171B
330
205
100
AcDbDictionary
280
     1
281
     1
  3
ADSK_XREC_LAYER_RECONCILED
360
171C
  0
DICTIONARY
  5
171D
330
206
100
AcDbDictionary
280
     1
281
     1
  3
ADSK_XREC_LAYER_RECONCILED
360
171E
  0
DICTIONARY
  5
171F
330
207
100
AcDbDictionary
280
     1
281
     1
  3
ADSK_XREC_LAYER_RECONCILED
360
1720
  0
DICTIONARY
  5
1721
330
208
100
AcDbDictionary
280
     1
281
     1
  3
ADSK_XREC_LAYER_RECONCILED
360
1722
  0
DICTIONARY
  5
1723
330
209
100
AcDbDictionary
280
     1
281
     1
  3
ADSK_XREC_LAYER_RECONCILED
360
1724
  0
DICTIONARY
  5
1725
330
20A
100
AcDbDictionary
280
     1
281
     1
  3
ADSK_XREC_LAYER_RECONCILED
360
1726
  0
DICTIONARY
  5
1727
330
20B
100
AcDbDictionary
280
     1
281
     1
  3
ADSK_XREC_LAYER_RECONCILED
360
1728
  0
DICTIONARY
  5
1729
330
20C
100
AcDbDictionary
280
     1
281
     1
  3
ADSK_XREC_LAYER_RECONCILED
360
172A
  0
DICTIONARY
  5
172B
330
20D
100
AcDbDictionary
280
     1
281
     1
  3
ADSK_XREC_LAYER_RECONCILED
360
172C
  0
DICTIONARY
  5
1695
102
{ACAD_REACTORS
330
C
102
}
330
C
100
AcDbDictionary
281
     1
  0
DICTIONARY
  5
16AF
102
{ACAD_REACTORS
330
C
102
}
330
C
100
AcDbDictionary
281
     1
  3
Imperial24
350
16B0
  0
DICTIONARY
  5
D
102
{ACAD_REACTORS
330
C
102
}
330
C
100
AcDbDictionary
281
     1
  0
DICTIONARY
  5
1A
102
{ACAD_REACTORS
330
C
102
}
330
C
100
AcDbDictionary
281
     1
  3
Layout1
350
1660
  3
Model
350
165F
  0
DICTIONARY
  5
1663
102
{ACAD_REACTORS
330
C
102
}
330
C
100
AcDbDictionary
281
     1
  3
ByBlock
350
166C
  3
ByLayer
350
1664
  3
Global
350
1674
  0
DICTIONARY
  5
16AA
102
{ACAD_REACTORS
330
C
102
}
330
C
100
AcDbDictionary
281
     1
  3
Standard
350
16AB
  0
DICTIONARY
  5
17
102
{ACAD_REACTORS
330
C
102
}
330
C
100
AcDbDictionary
281
     1
  3
Standard
350
18
  0
DICTIONARY
  5
19
102
{ACAD_REACTORS
330
C
102
}
330
C
100
AcDbDictionary
281
     1
  0
ACDBDICTIONARYWDFLT
  5
E
102
{ACAD_REACTORS
330
C
102
}
330
C
100
AcDbDictionary
281
     1
  3
Normal
350
F
100
AcDbDictionaryWithDefault
340
F
  0
DICTIONARY
  5
1698
102
{ACAD_REACTORS
330
C
102
}
330
C
100
AcDbDictionary
281
     1
  3
A0
350
1699
  3
A1
350
169A
  3
A2
350
169B
  3
A3
350
169C
  3
A4
350
169D
  3
A5
350
169E
  3
A6
350
169F
  3
A7
350
16A0
  3
A8
350
16A1
  3
A9
350
16A2
  3
B0
350
16A3
  3
B1
350
16A4
  3
B2
350
16A5
  3
B3
350
16A6
  3
B4
350
16A7
  3
B5
350
16A8
  3
B6
350
16A9
  0
DICTIONARY
  5
16AC
102
{ACAD_REACTORS
330
C
102
}
330
C
100
AcDbDictionary
281
     1
  3
Imperial24
350
16AE
  0
DICTIONARY
  5
1696
102
{ACAD_REACTORS
330
C
102
}
330
C
100
AcDbDictionary
281
     1
  3
Standard
350
1697
  0
DICTIONARY
  5
167C
102
{ACAD_REACTORS
330
C
102
}
330
C
100
AcDbDictionary
281
     1
  3
2dWireframe
350
1682
  3
3D Hidden
350
16FC
  3
3dWireframe
350
16FB
  3
Basic
350
1681
  3
Brighten
350
1688
  3
ColorChange
350
168C
  3
Conceptual
350
1685
  3
Dim
350
1687
  3
EdgeColorOff
350
1694
  3
Facepattern
350
168B
  3
Flat
350
167D
  3
FlatWithEdges
350
167E
  3
Gouraud
350
167F
  3
GouraudWithEdges
350
1680
  3
Hidden
350
1684
  3
JitterOff
350
1692
  3
Linepattern
350
168A
  3
OverhangOff
350
1693
  3
Realistic
350
1686
  3
Shaded
350
1691
  3
Shaded with edges
350
1690
  3
Shades of Gray
350
168D
  3
Sketchy
350
168E
  3
Thicken
350
1689
  3
Wireframe
350
1683
  3
X-Ray
350
168F
  0
XRECORD
  5
16B3
102
{ACAD_REACTORS
330
C
102
}
330
C
100
AcDbXrecord
280
     1
 90
        1
330
1697
  0
DICTIONARY
  5
16F0
102
{ACAD_REACTORS
330
C
102
}
330
C
100
AcDbDictionary
281
     1
  3
CANNOSCALE
350
16F5
  3
CMLEADERSTYLE
350
16F2
  3
CTABLESTYLE
350
16F1
  3
CVIEWDETAILSTYLE
350
16F3
  3
CVIEWSECTIONSTYLE
350
16F4
  3
DIMASSOC
350
16F8
  3
INDEXCTL
350
16F7
  3
SORTENTS
350
16F6
  3
XCLIPFRAME
350
16F9
  0
XRECORD
  5
1704
102
{ACAD_REACTORS
330
1703
102
}
330
1703
100
AcDbXrecord
280
     1
290
     1
  0
XRECORD
  5
1706
102
{ACAD_REACTORS
330
1705
102
}
330
1705
100
AcDbXrecord
280
     1
290
     1
  0
XRECORD
  5
1708
102
{ACAD_REACTORS
330
1707
102
}
330
1707
100
AcDbXrecord
280
     1
290
     1
  0
XRECORD
  5
170A
102
{ACAD_REACTORS
330
1709
102
}
330
1709
100
AcDbXrecord
280
     1
290
     1
  0
XRECORD
  5
170C
102
{ACAD_REACTORS
330
170B
102
}
330
170B
100
AcDbXrecord
280
     1
290
     1
  0
XRECORD
  5
170E
102
{ACAD_REACTORS
330
170D
102
}
330
170D
100
AcDbXrecord
280
     1
290
     1
  0
XRECORD
  5
1710
102
{ACAD_REACTORS
330
170F
102
}
330
170F
100
AcDbXrecord
280
     1
290
     1
  0
XRECORD
  5
1712
102
{ACAD_REACTORS
330
1711
102
}
330
1711
100
AcDbXrecord
280
     1
290
     1
  0
XRECORD
  5
1714
102
{ACAD_REACTORS
330
1713
102
}
330
1713
100
AcDbXrecord
280
     1
290
     1
  0
XRECORD
  5
1716
102
{ACAD_REACTORS
330
1715
102
}
330
1715
100
AcDbXrecord
280
     1
290
     1
  0
XRECORD
  5
1718
102
{ACAD_REACTORS
330
1717
102
}
330
1717
100
AcDbXrecord
280
     1
290
     1
  0
XRECORD
  5
171A
102
{ACAD_REACTORS
330
1719
102
}
330
1719
100
AcDbXrecord
280
     1
290
     1
  0
XRECORD
  5
171C
102
{ACAD_REACTORS
330
171B
102
}
330
171B
100
AcDbXrecord
280
     1
290
     1
  0
XRECORD
  5
171E
102
{ACAD_REACTORS
330
171D
102
}
330
171D
100
AcDbXrecord
280
     1
290
     1
  0
XRECORD
  5
1720
102
{ACAD_REACTORS
330
171F
102
}
330
171F
100
AcDbXrecord
280
     1
290
     1
  0
XRECORD
  5
1722
102
{ACAD_REACTORS
330
1721
102
}
330
1721
100
AcDbXrecord
280
     1
290
     1
  0
XRECORD
  5
1724
102
{ACAD_REACTORS
330
1723
102
}
330
1723
100
AcDbXrecord
280
     1
290
     1
  0
XRECORD
  5
1726
102
{ACAD_REACTORS
330
1725
102
}
330
1725
100
AcDbXrecord
280
     1
290
     1
  0
XRECORD
  5
1728
102
{ACAD_REACTORS
330
1727
102
}
330
1727
100
AcDbXrecord
280
     1
290
     1
  0
XRECORD
  5
172A
102
{ACAD_REACTORS
330
1729
102
}
330
1729
100
AcDbXrecord
280
     1
290
     1
  0
XRECORD
  5
172C
102
{ACAD_REACTORS
330
172B
102
}
330
172B
100
AcDbXrecord
280
     1
290
     1
  0
ACAD_PROXY_OBJECT
  5
16B0
102
{ACAD_REACTORS
330
16AF
102
}
330
16AF
100
AcDbProxyObject
 90
      499
 91
      509
 95
   983063
 70
     0
 93
     1261
310
90B496D70657269616C323400481E5C0F42F5A8DC671FC056BD1B81E856B9F81E5C0F42F5A8DC671FA33E5C0F42F5A8DC671FA02000000000000741FA02AD929E2E20B1AB30B9102B34B2BBAA3CB832902E33101112BA3198911F1290129E2E20B1AB30B9102B34B2BBA232BA30B4B624B21F12AE2829A1A0A62290129E2E2
310
0B1AB30B9102B34B2BBA9B1B0B632902E33101112B9B7111F1280233A33804
340
11
340
0
340
16
340
11
340
16
340
16
 94
        0
  0
LAYOUT
  5
1660
102
{ACAD_REACTORS
330
1A
102
}
330
1A
100
AcDbPlotSettings
  1

  2
none_device
  4
ANSI_B_(17.00_x_11.00_Inches)
  6

 40
0.0
 41
0.0
 42
0.0
 43
0.0
 44
431.8
 45
279.4
 46
0.0
 47
0.0
 48
0.0
 49
0.0
140
0.0
141
0.0
142
1.0
143
1.0
 70
     0
 72
     0
 73
     0
 74
     0
  7

 75
     0
147
1.0
 76
     0
 77
     2
 78
   300
148
0.0
149
0.0
100
AcDbLayout
  1
Layout1
 70
     1
 71
     1
 10
0.0
 20
0.0
 11
12.0
 21
9.0
 12
0.0
 22
0.0
 32
0.0
 14
1.000000000000000E+20
 24
1.000000000000000E+20
 34
1.000000000000000E+20
 15
-1.000000000000000E+20
 25
-1.000000000000000E+20
 35
-1.000000000000000E+20
146
0.0
 13
0.0
 23
0.0
 33
0.0
 16
1.0
 26
0.0
 36
0.0
 17
0.0
 27
1.0
 37
0.0
 76
     0
330
217
  0
LAYOUT
  5
165F
102
{ACAD_REACTORS
330
1A
102
}
330
1A
100
AcDbPlotSettings
  1

  2
none_device
  4
ANSI_B_(17.00_x_11.00_Inches)
  6

 40
0.0
 41
0.0
 42
0.0
 43
0.0
 44
431.8
 45
279.4
 46
0.0
 47
0.0
 48
0.0
 49
0.0
140
0.0
141
0.0
142
1.0
143
1.0
 70
  1024
 72
     0
 73
     0
 74
     0
  7

 75
     0
147
1.0
 76
     0
 77
     2
 78
   300
148
0.0
149
0.0
100
AcDbLayout
  1
Model
 70
     0
 71
     0
 10
0.0
 20
0.0
 11
17.0
 21
11.0
 12
0.0
 22
0.0
 32
0.0
 14
0.0
 24
0.0
 34
0.0
 15
0.0
 25
0.0
 35
0.0
146
0.0
 13
0.0
 23
0.0
 33
0.0
 16
1.0
 26
0.0
 36
0.0
 17
0.0
 27
1.0
 37
0.0
 76
     0
330
216
331
1F4
  0
MATERIAL
  5
166C
102
{ACAD_XDICTIONARY
360
166D
102
}
102
{ACAD_REACTORS
330
1663
102
}
330
1663
100
AcDbMaterial
  1
ByBlock
 72
     0
 43
0.0208333333333333
 43
0.0
 43
0.0
 43
0.0
 43
0.0
 43
0.0208333333333333
 43
0.0
 43
0.0
 43
0.0
 43
0.0
 43
1.0
 43
0.0
 43
0.0
 43
0.0
 43
0.0
 43
1.0
 77
     0
 47
0.0208333333333333
 47
0.0
 47
0.0
 47
0.0
 47
0.0
 47
0.0208333333333333
 47
0.0
 47
0.0
 47
0.0
 47
0.0
 47
1.0
 47
0.0
 47
0.0
 47
0.0
 47
0.0
 47
1.0
171
     0
 49
0.0208333333333333
 49
0.0
 49
0.0
 49
0.0
 49
0.0
 49
0.0208333333333333
 49
0.0
 49
0.0
 49
0.0
 49
0.0
 49
1.0
 49
0.0
 49
0.0
 49
0.0
 49
0.0
 49
1.0
175
     0
142
0.0208333333333333
142
0.0
142
0.0
142
0.0
142
0.0
142
0.0208333333333333
142
0.0
142
0.0
142
0.0
142
0.0
142
1.0
142
0.0
142
0.0
142
0.0
142
0.0
142
1.0
179
     0
144
0.0208333333333333
144
0.0
144
0.0
144
0.0
144
0.0
144
0.0208333333333333
144
0.0
144
0.0
144
0.0
144
0.0
144
1.0
144
0.0
144
0.0
144
0.0
144
0.0
144
1.0
147
0.0208333333333333
147
0.0
147
0.0
147
0.0
147
0.0
147
0.0208333333333333
147
0.0
147
0.0
147
0.0
147
0.0
147
1.0
147
0.0
147
0.0
147
0.0
147
0.0
147
1.0
  0
MATERIAL
  5
1664
102
{ACAD_XDICTIONARY
360
1665
102
}
102
{ACAD_REACTORS
330
1663
102
}
330
1663
100
AcDbMaterial
  1
ByLayer
 72
     0
 43
0.0208333333333333
 43
0.0
 43
0.0
 43
0.0
 43
0.0
 43
0.0208333333333333
 43
0.0
 43
0.0
 43
0.0
 43
0.0
 43
1.0
 43
0.0
 43
0.0
 43
0.0
 43
0.0
 43
1.0
 77
     0
 47
0.0208333333333333
 47
0.0
 47
0.0
 47
0.0
 47
0.0
 47
0.0208333333333333
 47
0.0
 47
0.0
 47
0.0
 47
0.0
 47
1.0
 47
0.0
 47
0.0
 47
0.0
 47
0.0
 47
1.0
171
     0
 49
0.0208333333333333
 49
0.0
 49
0.0
 49
0.0
 49
0.0
 49
0.0208333333333333
 49
0.0
 49
0.0
 49
0.0
 49
0.0
 49
1.0
 49
0.0
 49
0.0
 49
0.0
 49
0.0
 49
1.0
175
     0
142
0.0208333333333333
142
0.0
142
0.0
142
0.0
142
0.0
142
0.0208333333333333
142
0.0
142
0.0
142
0.0
142
0.0
142
1.0
142
0.0
142
0.0
142
0.0
142
0.0
142
1.0
179
     0
144
0.0208333333333333
144
0.0
144
0.0
144
0.0
144
0.0
144
0.0208333333333333
144
0.0
144
0.0
144
0.0
144
0.0
144
1.0
144
0.0
144
0.0
144
0.0
144
0.0
144
1.0
147
0.0208333333333333
147
0.0
147
0.0
147
0.0
147
0.0
147
0.0208333333333333
147
0.0
147
0.0
147
0.0
147
0.0
147
1.0
147
0.0
147
0.0
147
0.0
147
0.0
147
1.0
  0
MATERIAL
  5
1674
102
{ACAD_XDICTIONARY
360
1675
102
}
102
{ACAD_REACTORS
330
1663
102
}
330
1663
100
AcDbMaterial
  1
Global
 72
     0
 43
0.0208333333333333
 43
0.0
 43
0.0
 43
0.0
 43
0.0
 43
0.0208333333333333
 43
0.0
 43
0.0
 43
0.0
 43
0.0
 43
1.0
 43
0.0
 43
0.0
 43
0.0
 43
0.0
 43
1.0
 77
     0
 47
0.0208333333333333
 47
0.0
 47
0.0
 47
0.0
 47
0.0
 47
0.0208333333333333
 47
0.0
 47
0.0
 47
0.0
 47
0.0
 47
1.0
 47
0.0
 47
0.0
 47
0.0
 47
0.0
 47
1.0
171
     0
 49
0.0208333333333333
 49
0.0
 49
0.0
 49
0.0
 49
0.0
 49
0.0208333333333333
 49
0.0
 49
0.0
 49
0.0
 49
0.0
 49
1.0
 49
0.0
 49
0.0
 49
0.0
 49
0.0
 49
1.0
175
     0
142
0.0208333333333333
142
0.0
142
0.0
142
0.0
142
0.0
142
0.0208333333333333
142
0.0
142
0.0
142
0.0
142
0.0
142
1.0
142
0.0
142
0.0
142
0.0
142
0.0
142
1.0
179
     0
144
0.0208333333333333
144
0.0
144
0.0
144
0.0
144
0.0
144
0.0208333333333333
144
0.0
144
0.0
144
0.0
144
0.0
144
1.0
144
0.0
144
0.0
144
0.0
144
0.0
144
1.0
147
0.0208333333333333
147
0.0
147
0.0
147
0.0
147
0.0
147
0.0208333333333333
147
0.0
147
0.0
147
0.0
147
0.0
147
1.0
147
0.0
147
0.0
147
0.0
147
0.0
147
1.0
  0
MLEADERSTYLE
  5
16AB
102
{ACAD_REACTORS
330
16AA
102
}
330
16AA
100
AcDbMLeaderStyle
170
     2
171
     1
172
     0
 90
        2
 40
0.0
 41
0.0
173
     1
 91
-1056964608
340
14
 92
       -2
290
     1
 42
0.09
291
     1
 43
0.36
  3
Standard
 44
0.18
300

342
11
174
     1
178
     6
175
     1
176
     0
 93
-1056964608
 45
0.18
292
     0
297
     0
 46
0.18
 94
-1056964608
 47
1.0
 49
1.0
140
1.0
293
     1
141
0.0
294
     1
177
     0
142
1.0
295
     0
296
     0
143
0.125
1001
ACAD_MLEADERVER
1070
     2
  0
MLINESTYLE
  5
18
102
{ACAD_REACTORS
330
17
102
}
330
17
100
AcDbMlineStyle
  2
STANDARD
 70
     0
  3

 62
   256
 51
90.0
 52
90.0
 71
     2
 49
0.5
 62
   256
  6
BYLAYER
 49
-0.5
 62
   256
  6
BYLAYER
  0
ACDBPLACEHOLDER
  5
F
102
{ACAD_REACTORS
330
E
102
}
330
E
  0
SCALE
  5
1699
102
{ACAD_REACTORS
330
1698
102
}
330
1698
100
AcDbScale
 70
     0
300
1:1
140
1.0
141
1.0
290
     1
  0
SCALE
  5
169A
102
{ACAD_REACTORS
330
1698
102
}
330
1698
100
AcDbScale
 70
     0
300
1/128" = 1'-0"
140
0.0078125
141
12.0
290
     0
  0
SCALE
  5
169B
102
{ACAD_REACTORS
330
1698
102
}
330
1698
100
AcDbScale
 70
     0
300
1/64" = 1'-0"
140
0.015625
141
12.0
290
     0
  0
SCALE
  5
169C
102
{ACAD_REACTORS
330
1698
102
}
330
1698
100
AcDbScale
 70
     0
300
1/32" = 1'-0"
140
0.03125
141
12.0
290
     0
  0
SCALE
  5
169D
102
{ACAD_REACTORS
330
1698
102
}
330
1698
100
AcDbScale
 70
     0
300
1/16" = 1'-0"
140
0.0625
141
12.0
290
     0
  0
SCALE
  5
169E
102
{ACAD_REACTORS
330
1698
102
}
330
1698
100
AcDbScale
 70
     0
300
3/32" = 1'-0"
140
0.09375
141
12.0
290
     0
  0
SCALE
  5
169F
102
{ACAD_REACTORS
330
1698
102
}
330
1698
100
AcDbScale
 70
     0
300
1/8" = 1'-0"
140
0.125
141
12.0
290
     0
  0
SCALE
  5
16A0
102
{ACAD_REACTORS
330
1698
102
}
330
1698
100
AcDbScale
 70
     0
300
3/16" = 1'-0"
140
0.1875
141
12.0
290
     0
  0
SCALE
  5
16A1
102
{ACAD_REACTORS
330
1698
102
}
330
1698
100
AcDbScale
 70
     0
300
1/4" = 1'-0"
140
0.25
141
12.0
290
     0
  0
SCALE
  5
16A2
102
{ACAD_REACTORS
330
1698
102
}
330
1698
100
AcDbScale
 70
     0
300
3/8" = 1'-0"
140
0.375
141
12.0
290
     0
  0
SCALE
  5
16A3
102
{ACAD_REACTORS
330
1698
102
}
330
1698
100
AcDbScale
 70
     0
300
1/2" = 1'-0"
140
0.5
141
12.0
290
     0
  0
SCALE
  5
16A4
102
{ACAD_REACTORS
330
1698
102
}
330
1698
100
AcDbScale
 70
     0
300
3/4" = 1'-0"
140
0.75
141
12.0
290
     0
  0
SCALE
  5
16A5
102
{ACAD_REACTORS
330
1698
102
}
330
1698
100
AcDbScale
 70
     0
300
1" = 1'-0"
140
1.0
141
12.0
290
     0
  0
SCALE
  5
16A6
102
{ACAD_REACTORS
330
1698
102
}
330
1698
100
AcDbScale
 70
     0
300
1-1/2" = 1'-0"
140
1.5
141
12.0
290
     0
  0
SCALE
  5
16A7
102
{ACAD_REACTORS
330
1698
102
}
330
1698
100
AcDbScale
 70
     0
300
3" = 1'-0"
140
3.0
141
12.0
290
     0
  0
SCALE
  5
16A8
102
{ACAD_REACTORS
330
1698
102
}
330
1698
100
AcDbScale
 70
     0
300
6" = 1'-0"
140
6.0
141
12.0
290
     0
  0
SCALE
  5
16A9
102
{ACAD_REACTORS
330
1698
102
}
330
1698
100
AcDbScale
 70
     0
300
1'-0" = 1'-0"
140
12.0
141
12.0
290
     0
  0
ACAD_PROXY_OBJECT
  5
16AE
102
{ACAD_REACTORS
330
16AC
102
}
330
16AC
100
AcDbProxyObject
 90
      499
 91
      508
 95
   983063
 70
     0
 93
     2303
310
90B496D70657269616C3234004A765C0F42F5A8DC671FE5C0F42F5A8DC671FA229258409E5840A25840A65840B05840B4005C0F42F5A8DC6F1FA33A659703D0BD6A3719C7E5C0F42F5A8DC671FE5C0F42F5A8DC671FA02000000000000741FA02BE929E2E20B1AB30B9102B34B2BBAA3CB832902E33101112BA3198911F129
310
0129E2E20B1AB30B9102B34B2BBA9B2B1BA34B7B729BA30B93A24B21F1296929E2E20B1AB30B9102B34B2BBA9B2B1BA34B7B722B73224B21F12AE2829A1A0A62290129E2E20B1AB30B9102B34B2BBA9B1B0B632902E33101112B9B7111F128060080A0E829CA692666200C206056BD1B81E85639FA0320D0305A88A9F643F2
310
7E32B9969C2960E81F87FA0718D4DE3E87E32B9969C2960E85F9E5129FC49EA5FA7E
340
11
340
0
340
0
340
16AD
340
16
340
11
 94
        0
  0
TABLESTYLE
  5
1697
102
{ACAD_XDICTIONARY
360
16B1
102
}
102
{ACAD_REACTORS
330
1696
102
}
330
1696
100
AcDbTableStyle
  3
Standard
 70
     0
 71
     0
 40
0.06
 41
0.06
280
     0
281
     0
  7
STANDARD
140
0.18
170
     2
 62
     0
 63
     7
283
     0
274
    -2
284
     1
 64
     0
275
    -2
285
     1
 65
     0
276
    -2
286
     1
 66
     0
277
    -2
287
     1
 67
     0
278
    -2
288
     1
 68
     0
279
    -2
289
     1
 69
     0
  7
STANDARD
140
0.25
170
     5
 62
     0
 63
     7
283
     0
274
    -2
284
     1
 64
     0
275
    -2
285
     1
 65
     0
276
    -2
286
     1
 66
     0
277
    -2
287
     1
 67
     0
278
    -2
288
     1
 68
     0
279
    -2
289
     1
 69
     0
  7
STANDARD
140
0.18
170
     5
 62
     0
 63
     7
283
     0
274
    -2
284
     1
 64
     0
275
    -2
285
     1
 65
     0
276
    -2
286
     1
 66
     0
277
    -2
287
     1
 67
     0
278
    -2
288
     1
 68
     0
279
    -2
289
     1
 69
     0
  0
VISUALSTYLE
  5
1682
102
{ACAD_XDICTIONARY
360
16C8
102
}
102
{ACAD_REACTORS
330
167C
102
}
330
167C
100
AcDbVisualStyle
  2
2dWireframe
 70
     4
 71
     0
 72
     2
 73
     0
 90
        0
 40
-0.6
 41
-30.0
 62
     5
 63
     7
 74
     1
 91
        4
 64
     7
 65
   257
 75
     1
175
     1
 42
1.0
 92
        0
 66
   257
 43
1.0
 76
     1
 77
     6
 78
     2
 67
     7
 79
     5
170
     0
171
     0
290
     0
174
     0
 93
        1
 44
0.0
173
     0
291
     0
 45
0.0
1001
ACAD
1000
AcDbSavedByObjectVersion
1070
     0
  0
VISUALSTYLE
  5
16FC
102
{ACAD_REACTORS
330
167C
102
}
330
167C
100
AcDbVisualStyle
  2
3D Hidden
 70
     6
 71
     1
 72
     2
 73
     2
 90
        0
 40
-0.6
 41
-30.0
 62
     5
 63
     7
421
 16777215
 74
     2
 91
        2
 64
     7
 65
   257
 75
     2
175
     1
 42
40.0
 92
        0
 66
   257
 43
1.0
 76
     1
 77
     6
 78
     2
 67
     7
 79
     3
170
     0
171
     0
290
     0
174
     0
 93
        1
 44
0.0
173
     0
291
     0
 45
0.0
1001
ACAD
1000
AcDbSavedByObjectVersion
1070
     0
  0
VISUALSTYLE
  5
16FB
102
{ACAD_REACTORS
330
167C
102
}
330
167C
100
AcDbVisualStyle
  2
3dWireframe
 70
     5
 71
     0
 72
     2
 73
     0
 90
        0
 40
-0.6
 41
-30.0
 62
     5
 63
     7
421
 16777215
 74
     1
 91
        4
 64
     7
 65
   257
 75
     1
175
     1
 42
1.0
 92
        0
 66
   257
 43
1.0
 76
     1
 77
     6
 78
     2
 67
     7
 79
     5
170
     0
171
     0
290
     0
174
     0
 93
        1
 44
0.0
173
     0
291
     0
 45
0.0
1001
ACAD
1000
AcDbSavedByObjectVersion
1070
     0
  0
VISUALSTYLE
  5
1681
102
{ACAD_XDICTIONARY
360
16C6
102
}
102
{ACAD_REACTORS
330
167C
102
}
330
167C
100
AcDbVisualStyle
  2
Basic
 70
     7
 71
     1
 72
     0
 73
     1
 90
        0
 40
-0.6
 41
-30.0
 62
     5
 63
     7
 74
     0
 91
        4
 64
     7
 65
   257
 75
     1
175
     1
 42
1.0
 92
        8
 66
     7
 43
1.0
 76
     1
 77
     6
 78
     2
 67
     7
 79
     5
170
     0
171
     0
290
     0
174
     0
 93
        1
 44
0.0
173
     0
291
     1
 45
0.0
1001
ACAD
1000
AcDbSavedByObjectVersion
1070
     0
  0
VISUALSTYLE
  5
1688
102
{ACAD_XDICTIONARY
360
16D4
102
}
102
{ACAD_REACTORS
330
167C
102
}
330
167C
100
AcDbVisualStyle
  2
Brighten
 70
    12
 71
     2
 72
     2
 73
     0
 90
        0
 40
-0.6
 41
-30.0
 62
     5
 63
     7
 74
     1
 91
        4
 64
     7
 65
   257
 75
     1
175
     1
 42
1.0
 92
        8
 66
     7
 43
1.0
 76
     1
 77
     6
 78
     2
 67
     7
 79
     5
170
     0
171
     0
290
     0
174
     0
 93
        1
 44
50.0
173
     0
291
     1
 45
0.0
1001
ACAD
1000
AcDbSavedByObjectVersion
1070
     0
  0
VISUALSTYLE
  5
168C
102
{ACAD_XDICTIONARY
360
16DC
102
}
102
{ACAD_REACTORS
330
167C
102
}
330
167C
100
AcDbVisualStyle
  2
ColorChange
 70
    16
 71
     2
 72
     2
 73
     3
 90
        0
 40
-0.6
 41
-30.0
 62
     5
 63
     8
 74
     1
 91
        4
 64
     7
 65
   257
 75
     1
175
     1
 42
1.0
 92
        8
 66
     8
 43
1.0
 76
     1
 77
     6
 78
     2
 67
     7
 79
     5
170
     0
171
     0
290
     0
174
     0
 93
        1
 44
0.0
173
     0
291
     1
 45
0.0
1001
ACAD
1000
AcDbSavedByObjectVersion
1070
     0
  0
VISUALSTYLE
  5
1685
102
{ACAD_XDICTIONARY
360
16CE
102
}
102
{ACAD_REACTORS
330
167C
102
}
330
167C
100
AcDbVisualStyle
  2
Conceptual
 70
     9
 71
     3
 72
     2
 73
     0
 90
        0
 40
-0.6
 41
-30.0
 62
     5
 63
     7
 74
     2
 91
        2
 64
     7
 65
   257
 75
     1
175
     1
 42
179.0
 92
        8
 66
     7
 43
1.0
 76
     1
 77
     6
 78
     2
 67
     7
 79
     3
170
     0
171
     0
290
     0
174
     0
 93
        1
 44
0.0
173
     0
291
     0
 45
0.0
1001
ACAD
1000
AcDbSavedByObjectVersion
1070
     0
  0
VISUALSTYLE
  5
1687
102
{ACAD_XDICTIONARY
360
16D2
102
}
102
{ACAD_REACTORS
330
167C
102
}
330
167C
100
AcDbVisualStyle
  2
Dim
 70
    11
 71
     2
 72
     2
 73
     0
 90
        0
 40
-0.6
 41
-30.0
 62
     5
 63
     7
 74
     1
 91
        4
 64
     7
 65
   257
 75
     1
175
     1
 42
1.0
 92
        8
 66
     7
 43
1.0
 76
     1
 77
     6
 78
     2
 67
     7
 79
     5
170
     0
171
     0
290
     0
174
     0
 93
        1
 44
-50.0
173
     0
291
     1
 45
0.0
1001
ACAD
1000
AcDbSavedByObjectVersion
1070
     0
  0
VISUALSTYLE
  5
1694
102
{ACAD_XDICTIONARY
360
16EC
102
}
102
{ACAD_REACTORS
330
167C
102
}
330
167C
100
AcDbVisualStyle
  2
EdgeColorOff
 70
    22
 71
     2
 72
     2
 73
     0
 90
        0
 40
-0.6
 41
-30.0
 62
     5
 63
     7
 74
     1
 91
        4
 64
     7
 65
   257
 75
     1
175
     1
 42
1.0
 92
        8
 66
     7
 43
1.0
 76
     1
 77
     6
 78
     2
 67
     7
 79
     5
170
     0
171
     0
290
     0
174
     0
 93
        1
 44
0.0
173
     0
291
     1
 45
0.0
1001
ACAD
1000
AcDbSavedByObjectVersion
1070
     0
  0
VISUALSTYLE
  5
168B
102
{ACAD_XDICTIONARY
360
16DA
102
}
102
{ACAD_REACTORS
330
167C
102
}
330
167C
100
AcDbVisualStyle
  2
Facepattern
 70
    15
 71
     2
 72
     2
 73
     0
 90
        0
 40
-0.6
 41
-30.0
 62
     5
 63
     7
 74
     1
 91
        4
 64
     7
 65
   257
 75
     1
175
     1
 42
1.0
 92
        8
 66
     7
 43
1.0
 76
     1
 77
     6
 78
     2
 67
     7
 79
     5
170
     0
171
     0
290
     0
174
     0
 93
        1
 44
0.0
173
     0
291
     1
 45
0.0
1001
ACAD
1000
AcDbSavedByObjectVersion
1070
     0
  0
VISUALSTYLE
  5
167D
102
{ACAD_XDICTIONARY
360
16BE
102
}
102
{ACAD_REACTORS
330
167C
102
}
330
167C
100
AcDbVisualStyle
  2
Flat
 70
     0
 71
     2
 72
     1
 73
     1
 90
        2
 40
-0.6
 41
30.0
 62
     5
 63
     7
 74
     0
 91
        0
 64
     7
 65
   257
 75
     1
175
     1
 42
1.0
 92
        8
 66
     7
 43
1.0
 76
     1
 77
     6
 78
     2
 67
     7
 79
     5
170
     0
171
     0
290
     0
174
     0
 93
       13
 44
0.0
173
     0
291
     1
 45
0.0
1001
ACAD
1000
AcDbSavedByObjectVersion
1070
     0
  0
VISUALSTYLE
  5
167E
102
{ACAD_XDICTIONARY
360
16C0
102
}
102
{ACAD_REACTORS
330
167C
102
}
330
167C
100
AcDbVisualStyle
  2
FlatWithEdges
 70
     1
 71
     2
 72
     1
 73
     1
 90
        2
 40
-0.6
 41
30.0
 62
     5
 63
     7
 74
     1
 91
        0
 64
     7
 65
   257
 75
     1
175
     1
 42
1.0
 92
        0
 66
   257
 43
1.0
 76
     1
 77
     6
 78
     2
 67
     7
 79
     5
170
     0
171
     0
290
     0
174
     0
 93
       13
 44
0.0
173
     0
291
     1
 45
0.0
1001
ACAD
1000
AcDbSavedByObjectVersion
1070
     0
  0
VISUALSTYLE
  5
167F
102
{ACAD_XDICTIONARY
360
16C2
102
}
102
{ACAD_REACTORS
330
167C
102
}
330
167C
100
AcDbVisualStyle
  2
Gouraud
 70
     2
 71
     2
 72
     2
 73
     1
 90
        2
 40
-0.6
 41
30.0
 62
     5
 63
     7
 74
     0
 91
        0
 64
     7
 65
   257
 75
     1
175
     1
 42
1.0
 92
        0
 66
     7
 43
1.0
 76
     1
 77
     6
 78
     2
 67
     7
 79
     5
170
     0
171
     0
290
     0
174
     0
 93
       13
 44
0.0
173
     0
291
     1
 45
0.0
1001
ACAD
1000
AcDbSavedByObjectVersion
1070
     0
  0
VISUALSTYLE
  5
1680
102
{ACAD_XDICTIONARY
360
16C4
102
}
102
{ACAD_REACTORS
330
167C
102
}
330
167C
100
AcDbVisualStyle
  2
GouraudWithEdges
 70
     3
 71
     2
 72
     2
 73
     1
 90
        2
 40
-0.6
 41
30.0
 62
     5
 63
     7
 74
     1
 91
        0
 64
     7
 65
   257
 75
     1
175
     1
 42
1.0
 92
        0
 66
   257
 43
1.0
 76
     1
 77
     6
 78
     2
 67
     7
 79
     5
170
     0
171
     0
290
     0
174
     0
 93
       13
 44
0.0
173
     0
291
     1
 45
0.0
1001
ACAD
1000
AcDbSavedByObjectVersion
1070
     0
  0
VISUALSTYLE
  5
1684
102
{ACAD_XDICTIONARY
360
16CC
102
}
102
{ACAD_REACTORS
330
167C
102
}
330
167C
100
AcDbVisualStyle
  2
Hidden
 70
     6
 71
     1
 72
     2
 73
     2
 90
        0
 40
-0.6
 41
-30.0
 62
     5
 63
     7
 74
     2
 91
        2
 64
     7
 65
   257
 75
     2
175
     1
 42
40.0
 92
        0
 66
   257
 43
1.0
 76
     1
 77
     6
 78
     2
 67
     7
 79
     3
170
     0
171
     0
290
     0
174
     0
 93
        1
 44
0.0
173
     0
291
     0
 45
0.0
1001
ACAD
1000
AcDbSavedByObjectVersion
1070
     0
  0
VISUALSTYLE
  5
1692
102
{ACAD_XDICTIONARY
360
16E8
102
}
102
{ACAD_REACTORS
330
167C
102
}
330
167C
100
AcDbVisualStyle
  2
JitterOff
 70
    20
 71
     2
 72
     2
 73
     0
 90
        0
 40
-0.6
 41
-30.0
 62
     5
 63
     7
 74
     1
 91
        4
 64
     7
 65
   257
 75
     1
175
     1
 42
1.0
 92
       10
 66
     7
 43
1.0
 76
     1
 77
     6
 78
     2
 67
     7
 79
     5
170
     0
171
     0
290
     0
174
     0
 93
        1
 44
0.0
173
     0
291
     1
 45
0.0
1001
ACAD
1000
AcDbSavedByObjectVersion
1070
     0
  0
VISUALSTYLE
  5
168A
102
{ACAD_XDICTIONARY
360
16D8
102
}
102
{ACAD_REACTORS
330
167C
102
}
330
167C
100
AcDbVisualStyle
  2
Linepattern
 70
    14
 71
     2
 72
     2
 73
     0
 90
        0
 40
-0.6
 41
-30.0
 62
     5
 63
     7
 74
     1
 91
        4
 64
     7
 65
   257
 75
     7
175
     7
 42
1.0
 92
        8
 66
     7
 43
1.0
 76
     1
 77
     6
 78
     2
 67
     7
 79
     5
170
     0
171
     0
290
     0
174
     0
 93
        1
 44
0.0
173
     0
291
     1
 45
0.0
1001
ACAD
1000
AcDbSavedByObjectVersion
1070
     0
  0
VISUALSTYLE
  5
1693
102
{ACAD_XDICTIONARY
360
16EA
102
}
102
{ACAD_REACTORS
330
167C
102
}
330
167C
100
AcDbVisualStyle
  2
OverhangOff
 70
    21
 71
     2
 72
     2
 73
     0
 90
        0
 40
-0.6
 41
-30.0
 62
     5
 63
     7
 74
     1
 91
        4
 64
     7
 65
   257
 75
     1
175
     1
 42
1.0
 92
        9
 66
     7
 43
1.0
 76
     1
 77
     6
 78
     2
 67
     7
 79
     5
170
     0
171
     0
290
     0
174
     0
 93
        1
 44
0.0
173
     0
291
     1
 45
0.0
1001
ACAD
1000
AcDbSavedByObjectVersion
1070
     0
  0
VISUALSTYLE
  5
1686
102
{ACAD_XDICTIONARY
360
16D0
102
}
102
{ACAD_REACTORS
330
167C
102
}
330
167C
100
AcDbVisualStyle
  2
Realistic
 70
     8
 71
     2
 72
     2
 73
     0
 90
        2
 40
-0.6
 41
30.0
 62
     5
 63
     7
 74
     0
 91
        0
 64
     7
 65
   257
 75
     1
175
     1
 42
1.0
 92
        8
 66
   257
 43
1.0
 76
     1
 77
     6
 78
     2
 67
     7
 79
     3
170
     0
171
     0
290
     0
174
     0
 93
       13
 44
0.0
173
     0
291
     0
 45
0.0
1001
ACAD
1000
AcDbSavedByObjectVersion
1070
     0
  0
VISUALSTYLE
  5
1691
102
{ACAD_XDICTIONARY
360
16E6
102
}
102
{ACAD_REACTORS
330
167C
102
}
330
167C
100
AcDbVisualStyle
  2
Shaded
 70
    27
 71
     2
 72
     2
 73
     1
 90
        2
 40
-0.6
 41
30.0
 62
     5
 63
     7
 74
     0
 91
        4
 64
     7
 65
   257
 75
     1
175
     1
 42
1.0
 92
        8
 66
   257
 43
1.0
 76
     1
 77
     6
 78
     2
 67
     8
 79
     3
170
     0
171
     0
290
     0
174
     0
 93
        5
 44
0.0
173
     0
291
     0
 45
0.0
1001
ACAD
1000
AcDbSavedByObjectVersion
1070
     0
  0
VISUALSTYLE
  5
1690
102
{ACAD_XDICTIONARY
360
16E4
102
}
102
{ACAD_REACTORS
330
167C
102
}
330
167C
100
AcDbVisualStyle
  2
Shaded with edges
 70
    26
 71
     2
 72
     2
 73
     1
 90
        2
 40
-0.6
 41
30.0
 62
     5
 63
     7
 74
     1
 91
       10
 64
     7
 65
   257
 75
     2
175
     1
 42
1.0
 92
        8
 66
   257
 43
1.0
 76
     1
 77
     6
 78
     2
 67
     7
 79
     3
170
     0
171
     0
290
     0
174
     0
 93
        5
 44
0.0
173
     0
291
     0
 45
0.0
1001
ACAD
1000
AcDbSavedByObjectVersion
1070
     0
  0
VISUALSTYLE
  5
168D
102
{ACAD_XDICTIONARY
360
16DE
102
}
102
{ACAD_REACTORS
330
167C
102
}
330
167C
100
AcDbVisualStyle
  2
Shades of Gray
 70
    23
 71
     2
 72
     2
 73
     3
 90
        0
 40
-0.6
 41
-30.0
 62
     5
 63
     7
 74
     2
 91
        2
 64
     7
 65
     7
 75
     1
175
     1
 42
40.0
 92
        8
 66
     7
 43
1.0
 76
     1
 77
     6
 78
     2
 67
     7
 79
     3
170
     0
171
     0
290
     0
174
     0
 93
        1
 44
0.0
173
     0
291
     0
 45
0.0
1001
ACAD
1000
AcDbSavedByObjectVersion
1070
     0
  0
VISUALSTYLE
  5
168E
102
{ACAD_XDICTIONARY
360
16E0
102
}
102
{ACAD_REACTORS
330
167C
102
}
330
167C
100
AcDbVisualStyle
  2
Sketchy
 70
    24
 71
     1
 72
     2
 73
     2
 90
        0
 40
-0.6
 41
-30.0
 62
     5
 63
     7
 74
     2
 91
        2
 64
     7
 65
     7
 75
     1
175
     1
 42
40.0
 92
       11
 66
     7
 43
1.0
 76
     1
 77
     6
 78
     2
 67
     7
 79
     6
170
     0
171
     0
290
     0
174
     0
 93
        1
 44
0.0
173
     0
291
     0
 45
0.0
1001
ACAD
1000
AcDbSavedByObjectVersion
1070
     0
  0
VISUALSTYLE
  5
1689
102
{ACAD_XDICTIONARY
360
16D6
102
}
102
{ACAD_REACTORS
330
167C
102
}
330
167C
100
AcDbVisualStyle
  2
Thicken
 70
    13
 71
     2
 72
     2
 73
     0
 90
        0
 40
-0.6
 41
-30.0
 62
     5
 63
     7
 74
     1
 91
        4
 64
     7
 65
   257
 75
     1
175
     1
 42
1.0
 92
       12
 66
     7
 43
1.0
 76
     1
 77
     6
 78
     2
 67
     7
 79
     5
170
     0
171
     0
290
     0
174
     0
 93
        1
 44
0.0
173
     0
291
     1
 45
0.0
1001
ACAD
1000
AcDbSavedByObjectVersion
1070
     0
  0
VISUALSTYLE
  5
1683
102
{ACAD_XDICTIONARY
360
16CA
102
}
102
{ACAD_REACTORS
330
167C
102
}
330
167C
100
AcDbVisualStyle
  2
Wireframe
 70
     5
 71
     0
 72
     2
 73
     0
 90
        0
 40
-0.6
 41
-30.0
 62
     5
 63
     7
 74
     1
 91
        4
 64
     7
 65
   257
 75
     1
175
     1
 42
1.0
 92
        0
 66
   257
 43
1.0
 76
     1
 77
     6
 78
     2
 67
     7
 79
     3
170
     0
171
     0
290
     0
174
     0
 93
        1
 44
0.0
173
     0
291
     0
 45
0.0
1001
ACAD
1000
AcDbSavedByObjectVersion
1070
     0
  0
VISUALSTYLE
  5
168F
102
{ACAD_XDICTIONARY
360
16E2
102
}
102
{ACAD_REACTORS
330
167C
102
}
330
167C
100
AcDbVisualStyle
  2
X-Ray
 70
    25
 71
     2
 72
     2
 73
     1
 90
        1
 40
0.5
 41
-30.0
 62
     5
 63
     7
 74
     1
 91
        0
 64
     7
 65
   257
 75
     1
175
     1
 42
1.0
 92
        8
 66
     7
 43
1.0
 76
     1
 77
     6
 78
     2
 67
     7
 79
     3
170
     0
171
     0
290
     0
174
     0
 93
       13
 44
0.0
173
     0
291
     0
 45
0.0
1001
ACAD
1000
AcDbSavedByObjectVersion
1070
     0
  0
DICTIONARYVAR
  5
16F5
102
{ACAD_REACTORS
330
16F0
102
}
330
16F0
100
DictionaryVariables
280
     0
  1
1:1
  0
DICTIONARYVAR
  5
16F2
102
{ACAD_REACTORS
330
16F0
102
}
330
16F0
100
DictionaryVariables
280
     0
  1
STANDARD
  0
DICTIONARYVAR
  5
16F1
102
{ACAD_REACTORS
330
16F0
102
}
330
16F0
100
DictionaryVariables
280
     0
  1
STANDARD
  0
DICTIONARYVAR
  5
16F3
102
{ACAD_REACTORS
330
16F0
102
}
330
16F0
100
DictionaryVariables
280
     0
  1
Imperial24
  0
DICTIONARYVAR
  5
16F4
102
{ACAD_REACTORS
330
16F0
102
}
330
16F0
100
DictionaryVariables
280
     0
  1
Imperial24
  0
DICTIONARYVAR
  5
16F8
102
{ACAD_REACTORS
330
16F0
102
}
330
16F0
100
DictionaryVariables
280
     0
  1
1
  0
DICTIONARYVAR
  5
16F7
102
{ACAD_REACTORS
330
16F0
102
}
330
16F0
100
DictionaryVariables
280
     0
  1
0
  0
DICTIONARYVAR
  5
16F6
102
{ACAD_REACTORS
330
16F0
102
}
330
16F0
100
DictionaryVariables
280
     0
  1
127
  0
DICTIONARYVAR
  5
16F9
102
{ACAD_REACTORS
330
16F0
102
}
330
16F0
100
DictionaryVariables
280
     0
  1
2
  0
DICTIONARY
  5
166D
330
166C
100
AcDbDictionary
280
     1
281
     1
  3
ACAD_XREC_ROUNDTRIP
360
1741
  3
BUMPTILE
360
166F
  3
DIFFUSETILE
360
166E
  3
OPACITYTILE
360
1672
  3
REFLECTIONTILE
360
1671
  3
REFRACTIONTILE
360
1673
  3
SPECULARTILE
360
1670
  0
DICTIONARY
  5
1665
330
1664
100
AcDbDictionary
280
     1
281
     1
  3
ACAD_XREC_ROUNDTRIP
360
1740
  3
BUMPTILE
360
1667
  3
DIFFUSETILE
360
1666
  3
OPACITYTILE
360
166A
  3
REFLECTIONTILE
360
1669
  3
REFRACTIONTILE
360
166B
  3
SPECULARTILE
360
1668
  0
DICTIONARY
  5
1675
330
1674
100
AcDbDictionary
280
     1
281
     1
  3
ACAD_XREC_ROUNDTRIP
360
1742
  3
BUMPTILE
360
1677
  3
DIFFUSETILE
360
1676
  3
OPACITYTILE
360
167A
  3
REFLECTIONTILE
360
1679
  3
REFRACTIONTILE
360
167B
  3
SPECULARTILE
360
1678
  0
DICTIONARY
  5
16B1
330
1697
100
AcDbDictionary
280
     1
281
     1
  3
ACAD_ROUNDTRIP_2008_TABLESTYLE_CELLSTYLEMAP
360
173F
  3
ACAD_XREC_ROUNDTRIP
360
1743
  0
DICTIONARY
  5
16C8
330
1682
100
AcDbDictionary
280
     1
281
     1
  3
ACAD_XREC_ROUNDTRIP
360
16C9
  0
DICTIONARY
  5
16C6
330
1681
100
AcDbDictionary
280
     1
281
     1
  3
ACAD_XREC_ROUNDTRIP
360
16C7
  0
DICTIONARY
  5
16D4
330
1688
100
AcDbDictionary
280
     1
281
     1
  3
ACAD_XREC_ROUNDTRIP
360
16D5
  0
DICTIONARY
  5
16DC
330
168C
100
AcDbDictionary
280
     1
281
     1
  3
ACAD_XREC_ROUNDTRIP
360
16DD
  0
DICTIONARY
  5
16CE
330
1685
100
AcDbDictionary
280
     1
281
     1
  3
ACAD_XREC_ROUNDTRIP
360
16CF
  0
DICTIONARY
  5
16D2
330
1687
100
AcDbDictionary
280
     1
281
     1
  3
ACAD_XREC_ROUNDTRIP
360
16D3
  0
DICTIONARY
  5
16EC
330
1694
100
AcDbDictionary
280
     1
281
     1
  3
ACAD_XREC_ROUNDTRIP
360
16ED
  0
DICTIONARY
  5
16DA
330
168B
100
AcDbDictionary
280
     1
281
     1
  3
ACAD_XREC_ROUNDTRIP
360
16DB
  0
DICTIONARY
  5
16BE
330
167D
100
AcDbDictionary
280
     1
281
     1
  3
ACAD_XREC_ROUNDTRIP
360
16BF
  0
DICTIONARY
  5
16C0
330
167E
100
AcDbDictionary
280
     1
281
     1
  3
ACAD_XREC_ROUNDTRIP
360
16C1
  0
DICTIONARY
  5
16C2
330
167F
100
AcDbDictionary
280
     1
281
     1
  3
ACAD_XREC_ROUNDTRIP
360
16C3
  0
DICTIONARY
  5
16C4
330
1680
100
AcDbDictionary
280
     1
281
     1
  3
ACAD_XREC_ROUNDTRIP
360
16C5
  0
DICTIONARY
  5
16CC
330
1684
100
AcDbDictionary
280
     1
281
     1
  3
ACAD_XREC_ROUNDTRIP
360
16CD
  0
DICTIONARY
  5
16E8
330
1692
100
AcDbDictionary
280
     1
281
     1
  3
ACAD_XREC_ROUNDTRIP
360
16E9
  0
DICTIONARY
  5
16D8
330
168A
100
AcDbDictionary
280
     1
281
     1
  3
ACAD_XREC_ROUNDTRIP
360
16D9
  0
DICTIONARY
  5
16EA
330
1693
100
AcDbDictionary
280
     1
281
     1
  3
ACAD_XREC_ROUNDTRIP
360
16EB
  0
DICTIONARY
  5
16D0
330
1686
100
AcDbDictionary
280
     1
281
     1
  3
ACAD_XREC_ROUNDTRIP
360
16D1
  0
DICTIONARY
  5
16E6
330
1691
100
AcDbDictionary
280
     1
281
     1
  3
ACAD_XREC_ROUNDTRIP
360
16E7
  0
DICTIONARY
  5
16E4
330
1690
100
AcDbDictionary
280
     1
281
     1
  3
ACAD_XREC_ROUNDTRIP
360
16E5
  0
DICTIONARY
  5
16DE
330
168D
100
AcDbDictionary
280
     1
281
     1
  3
ACAD_XREC_ROUNDTRIP
360
16DF
  0
DICTIONARY
  5
16E0
330
168E
100
AcDbDictionary
280
     1
281
     1
  3
ACAD_XREC_ROUNDTRIP
360
16E1
  0
DICTIONARY
  5
16D6
330
1689
100
AcDbDictionary
280
     1
281
     1
  3
ACAD_XREC_ROUNDTRIP
360
16D7
  0
DICTIONARY
  5
16CA
330
1683
100
AcDbDictionary
280
     1
281
     1
  3
ACAD_XREC_ROUNDTRIP
360
16CB
  0
DICTIONARY
  5
16E2
330
168F
100
AcDbDictionary
280
     1
281
     1
  3
ACAD_XREC_ROUNDTRIP
360
16E3
  0
XRECORD
  5
1741
102
{ACAD_REACTORS
330
166D
102
}
330
166D
100
AcDbXrecord
280
     1
102
MATERIAL
148
0.0
149
0.0
149
0.0
 93
        0
 94
      127
282
     0
 72
     0
 77
     0
171
     0
175
     0
179
     0
273
     0
  0
XRECORD
  5
166F
102
{ACAD_REACTORS
330
166D
102
}
330
166D
100
AcDbXrecord
280
     1
270
     1
271
     1
  0
XRECORD
  5
166E
102
{ACAD_REACTORS
330
166D
102
}
330
166D
100
AcDbXrecord
280
     1
270
     1
271
     1
  0
XRECORD
  5
1672
102
{ACAD_REACTORS
330
166D
102
}
330
166D
100
AcDbXrecord
280
     1
270
     1
271
     1
  0
XRECORD
  5
1671
102
{ACAD_REACTORS
330
166D
102
}
330
166D
100
AcDbXrecord
280
     1
270
     1
271
     1
  0
XRECORD
  5
1673
102
{ACAD_REACTORS
330
166D
102
}
330
166D
100
AcDbXrecord
280
     1
270
     1
271
     1
  0
XRECORD
  5
1670
102
{ACAD_REACTORS
330
166D
102
}
330
166D
100
AcDbXrecord
280
     1
270
     1
271
     1
  0
XRECORD
  5
1740
102
{ACAD_REACTORS
330
1665
102
}
330
1665
100
AcDbXrecord
280
     1
102
MATERIAL
148
0.0
149
0.0
149
0.0
 93
        0
 94
      127
282
     0
 72
     0
 77
     0
171
     0
175
     0
179
     0
273
     0
  0
XRECORD
  5
1667
102
{ACAD_REACTORS
330
1665
102
}
330
1665
100
AcDbXrecord
280
     1
270
     1
271
     1
  0
XRECORD
  5
1666
102
{ACAD_REACTORS
330
1665
102
}
330
1665
100
AcDbXrecord
280
     1
270
     1
271
     1
  0
XRECORD
  5
166A
102
{ACAD_REACTORS
330
1665
102
}
330
1665
100
AcDbXrecord
280
     1
270
     1
271
     1
  0
XRECORD
  5
1669
102
{ACAD_REACTORS
330
1665
102
}
330
1665
100
AcDbXrecord
280
     1
270
     1
271
     1
  0
XRECORD
  5
166B
102
{ACAD_REACTORS
330
1665
102
}
330
1665
100
AcDbXrecord
280
     1
270
     1
271
     1
  0
XRECORD
  5
1668
102
{ACAD_REACTORS
330
1665
102
}
330
1665
100
AcDbXrecord
280
     1
270
     1
271
     1
  0
XRECORD
  5
1742
102
{ACAD_REACTORS
330
1675
102
}
330
1675
100
AcDbXrecord
280
     1
102
MATERIAL
148
0.0
149
0.0
149
0.0
 93
        0
 94
      127
282
     0
 72
     0
 77
     0
171
     0
175
     0
179
     0
273
     0
  0
XRECORD
  5
1677
102
{ACAD_REACTORS
330
1675
102
}
330
1675
100
AcDbXrecord
280
     1
270
     1
271
     1
  0
XRECORD
  5
1676
102
{ACAD_REACTORS
330
1675
102
}
330
1675
100
AcDbXrecord
280
     1
270
     1
271
     1
  0
XRECORD
  5
167A
102
{ACAD_REACTORS
330
1675
102
}
330
1675
100
AcDbXrecord
280
     1
270
     1
271
     1
  0
XRECORD
  5
1679
102
{ACAD_REACTORS
330
1675
102
}
330
1675
100
AcDbXrecord
280
     1
270
     1
271
     1
  0
XRECORD
  5
167B
102
{ACAD_REACTORS
330
1675
102
}
330
1675
100
AcDbXrecord
280
     1
270
     1
271
     1
  0
XRECORD
  5
1678
102
{ACAD_REACTORS
330
1675
102
}
330
1675
100
AcDbXrecord
280
     1
270
     1
271
     1
  0
CELLSTYLEMAP
  5
173F
102
{ACAD_REACTORS
330
16B1
102
}
330
16B1
100
AcDbCellStyleMap
 90
        3
300
CELLSTYLE
  1
TABLEFORMAT_BEGIN
 90
        5
170
     1
 91
        0
 92
    32768
 62
   257
 93
        1
300
CONTENTFORMAT
  1
CONTENTFORMAT_BEGIN
 90
        0
 91
        0
 92
      512
 93
        0
300

 40
0.0
140
1.0
 94
        5
 62
     0
340
11
144
0.25
309
CONTENTFORMAT_END
171
     0
 94
        0
309
TABLEFORMAT_END
  1
CELLSTYLE_BEGIN
 90
        1
 91
        1
300
_TITLE
309
CELLSTYLE_END
300
CELLSTYLE
  1
TABLEFORMAT_BEGIN
 90
        5
170
     1
 91
        0
 92
        0
 62
   257
 93
        1
300
CONTENTFORMAT
  1
CONTENTFORMAT_BEGIN
 90
        0
 91
        0
 92
      512
 93
        0
300

 40
0.0
140
1.0
 94
        5
 62
     0
340
11
144
0.18
309
CONTENTFORMAT_END
171
     0
 94
        0
309
TABLEFORMAT_END
  1
CELLSTYLE_BEGIN
 90
        2
 91
        1
300
_HEADER
309
CELLSTYLE_END
300
CELLSTYLE
  1
TABLEFORMAT_BEGIN
 90
        5
170
     1
 91
        0
 92
        0
 62
   257
 93
        1
300
CONTENTFORMAT
  1
CONTENTFORMAT_BEGIN
 90
        0
 91
        0
 92
      512
 93
        0
300

 40
0.0
140
1.0
 94
        2
 62
     0
340
11
144
0.18
309
CONTENTFORMAT_END
171
     0
 94
        0
309
TABLEFORMAT_END
  1
CELLSTYLE_BEGIN
 90
        3
 91
        2
300
_DATA
309
CELLSTYLE_END
  0
XRECORD
  5
1743
102
{ACAD_REACTORS
330
16B1
102
}
330
16B1
100
AcDbXrecord
280
     1
102
ACAD_ROUNDTRIP_PRE2007_TABLESTYLE
 90
      512
 91
        0
  1

 92
      512
 93
        0
  2

 94
      512
 95
        0
  3

  0
XRECORD
  5
16C9
102
{ACAD_REACTORS
330
16C8
102
}
330
16C8
100
AcDbXrecord
280
     1
102
RTVSPost2010Prop28
280
     1
102
RTVSPost2010PropOp28
 70
     1
102
RTVSPost2010Prop29
280
     1
102
RTVSPost2010PropOp29
 70
     1
102
RTVSPost2010Prop30
280
     0
102
RTVSPost2010PropOp30
 70
     1
102
RTVSPost2010Prop31
280
     0
102
RTVSPost2010PropOp31
 70
     1
102
RTVSPost2010Prop32
280
     0
102
RTVSPost2010PropOp32
 70
     1
102
RTVSPost2010Prop33
280
     0
102
RTVSPost2010PropOp33
 70
     1
102
RTVSPost2010Prop34
280
     0
102
RTVSPost2010PropOp34
 70
     1
102
RTVSPost2010Prop35
280
     0
102
RTVSPost2010PropOp35
 70
     1
102
RTVSPost2010Prop36
280
     0
102
RTVSPost2010PropOp36
 70
     1
102
RTVSPost2010Prop37
 90
       50
102
RTVSPost2010PropOp37
 70
     1
102
RTVSPost2010Prop38
140
0.0
102
RTVSPost2010PropOp38
 70
     1
102
RTVSPost2010Prop39
140
1.0
102
RTVSPost2010PropOp39
 70
     1
102
RTVSPost2010Prop40
 90
        0
102
RTVSPost2010PropOp40
 70
     1
102
RTVSPost2010Prop41ColorIndex
 90
       18
102
RTVSPost2010Prop41ColorRGB
 90
        0
102
RTVSPost2010PropOp41
 70
     1
102
RTVSPost2010Prop42
 90
       50
102
RTVSPost2010PropOp42
 70
     1
102
RTVSPost2010Prop43
 90
        3
102
RTVSPost2010PropOp43
 70
     1
102
RTVSPost2010Prop44ColorIndex
 90
        5
102
RTVSPost2010Prop44ColorRGB
 90
      255
102
RTVSPost2010PropOp44
 70
     1
102
RTVSPost2010Prop45
280
     0
102
RTVSPost2010PropOp45
 70
     1
102
RTVSPost2010Prop46
 90
       50
102
RTVSPost2010PropOp46
 70
     1
102
RTVSPost2010Prop47
 90
       50
102
RTVSPost2010PropOp47
 70
     1
102
RTVSPost2010Prop48
 90
       50
102
RTVSPost2010PropOp48
 70
     1
102
RTVSPost2010Prop49
280
     0
102
RTVSPost2010PropOp49
 70
     1
102
RTVSPost2010Prop50
 90
       50
102
RTVSPost2010PropOp50
 70
     1
102
RTVSPost2010Prop51ColorIndex
 90
      256
102
RTVSPost2010Prop51ColorRGB
 90
-16777216
102
RTVSPost2010PropOp51
 70
     0
102
RTVSPost2010Prop52
140
1.0
102
RTVSPost2010PropOp52
 70
     0
102
RTVSPost2010Prop53
 90
        2
102
RTVSPost2010PropOp53
 70
     1
102
RTVSPost2010Prop54
  1
strokes_ogs.tif
102
RTVSPost2010PropOp54
 70
     1
102
RTVSPost2010Prop55
280
     0
102
RTVSPost2010PropOp55
 70
     1
102
RTVSPost2010Prop56
140
1.0
102
RTVSPost2010PropOp56
 70
     1
102
RTVSPost2010Prop57
140
1.0
102
RTVSPost2010PropOp57
 70
     1
102
RTVSPropertyOp0
 70
     1
102
RTVSPropertyOp1
 70
     1
102
RTVSPropertyOp2
 70
     1
102
RTVSPropertyOp3
 70
     1
102
RTVSPropertyOp4
 70
     1
102
RTVSPropertyOp5
 70
     1
102
RTVSPropertyOp6
 70
     1
102
RTVSPropertyOp7
 70
     1
102
RTVSPropertyOp8
 70
     1
102
RTVSPropertyOp9
 70
     1
102
RTVSPropertyOp10
 70
     1
102
RTVSPropertyOp11
 70
     1
102
RTVSPropertyOp12
 70
     1
102
RTVSPropertyOp13
 70
     1
102
RTVSPropertyOp14
 70
     1
102
RTVSPropertyOp15
 70
     1
102
RTVSPropertyOp16
 70
     1
102
RTVSPropertyOp17
 70
     1
102
RTVSPropertyOp18
 70
     1
102
RTVSPropertyOp19
 70
     1
102
RTVSPropertyOp20
 70
     1
102
RTVSPropertyOp21
 70
     1
102
RTVSPropertyOp22
 70
     1
102
RTVSPropertyOp23
 70
     1
102
RTVSPropertyOp24
 70
     1
102
RTVSPropertyOp25
 70
     1
102
RTVSPropertyOp26
 70
     1
102
RTVSPropertyOp27
 70
     1
102
RTVSPropertyOp28
 70
     1
102
RTVSPropertyOp29
 70
     1
102
RTVSPropertyOp30
 70
     1
102
RTVSPropertyOp31
 70
     1
102
RTVSPropertyOp32
 70
     1
102
RTVSPropertyOp33
 70
     1
102
RTVSPropertyOp34
 70
     1
102
RTVSPropertyOp35
 70
     1
102
RTVSPropertyOp36
 70
     1
102
RTVSPropertyOp37
 70
     1
102
RTVSPropertyOp38
 70
     1
102
RTVSPropertyOp39
 70
     1
102
RTVSPropertyOp40
 70
     1
102
RTVSPropertyOp41
 70
     1
102
RTVSPropertyOp42
 70
     1
102
RTVSPropertyOp43
 70
     1
102
RTVSPropertyOp44
 70
     1
102
RTVSPropertyOp45
 70
     1
102
RTVSPropertyOp46
 70
     1
102
RTVSPropertyOp47
 70
     1
102
RTVSPropertyOp48
 70
     1
102
RTVSPropertyOp49
 70
     1
102
RTVSPropertyOp50
 70
     1
102
RTVSPropertyOp51
 70
     0
102
RTVSPropertyOp52
 70
     0
102
RTVSPropertyOp53
 70
     1
102
RTVSPropertyOp54
 70
     1
102
RTVSPropertyOp55
 70
     1
102
RTVSPropertyOp56
 70
     1
102
RTVSPropertyOp57
 70
     1
102
RTVSPropertyOp58
 70
     1
102
RTVSPropertyOp59
 70
     1
102
RTVSPropertyOp60
 70
     1
102
RTVSPropertyOp61
 70
     1
102
RTVSPropertyOp62
 70
     1
  0
XRECORD
  5
16C7
102
{ACAD_REACTORS
330
16C6
102
}
330
16C6
100
AcDbXrecord
280
     1
102
RTVSPost2010Prop28
280
     0
102
RTVSPost2010PropOp28
 70
     1
102
RTVSPost2010Prop29
280
     1
102
RTVSPost2010PropOp29
 70
     1
102
RTVSPost2010Prop30
280
     1
102
RTVSPost2010PropOp30
 70
     1
102
RTVSPost2010Prop31
280
     0
102
RTVSPost2010PropOp31
 70
     1
102
RTVSPost2010Prop32
280
     0
102
RTVSPost2010PropOp32
 70
     1
102
RTVSPost2010Prop33
280
     0
102
RTVSPost2010PropOp33
 70
     1
102
RTVSPost2010Prop34
280
     0
102
RTVSPost2010PropOp34
 70
     1
102
RTVSPost2010Prop35
280
     0
102
RTVSPost2010PropOp35
 70
     1
102
RTVSPost2010Prop36
280
     0
102
RTVSPost2010PropOp36
 70
     1
102
RTVSPost2010Prop37
 90
       50
102
RTVSPost2010PropOp37
 70
     1
102
RTVSPost2010Prop38
140
0.0
102
RTVSPost2010PropOp38
 70
     1
102
RTVSPost2010Prop39
140
1.0
102
RTVSPost2010PropOp39
 70
     1
102
RTVSPost2010Prop40
 90
        0
102
RTVSPost2010PropOp40
 70
     1
102
RTVSPost2010Prop41ColorIndex
 90
       18
102
RTVSPost2010Prop41ColorRGB
 90
        0
102
RTVSPost2010PropOp41
 70
     1
102
RTVSPost2010Prop42
 90
       50
102
RTVSPost2010PropOp42
 70
     1
102
RTVSPost2010Prop43
 90
        3
102
RTVSPost2010PropOp43
 70
     1
102
RTVSPost2010Prop44ColorIndex
 90
        5
102
RTVSPost2010Prop44ColorRGB
 90
      255
102
RTVSPost2010PropOp44
 70
     1
102
RTVSPost2010Prop45
280
     0
102
RTVSPost2010PropOp45
 70
     1
102
RTVSPost2010Prop46
 90
       50
102
RTVSPost2010PropOp46
 70
     1
102
RTVSPost2010Prop47
 90
       50
102
RTVSPost2010PropOp47
 70
     1
102
RTVSPost2010Prop48
 90
       50
102
RTVSPost2010PropOp48
 70
     1
102
RTVSPost2010Prop49
280
     0
102
RTVSPost2010PropOp49
 70
     1
102
RTVSPost2010Prop50
 90
       50
102
RTVSPost2010PropOp50
 70
     1
102
RTVSPost2010Prop51ColorIndex
 90
      256
102
RTVSPost2010Prop51ColorRGB
 90
-16777216
102
RTVSPost2010PropOp51
 70
     0
102
RTVSPost2010Prop52
140
1.0
102
RTVSPost2010PropOp52
 70
     0
102
RTVSPost2010Prop53
 90
        2
102
RTVSPost2010PropOp53
 70
     1
102
RTVSPost2010Prop54
  1
strokes_ogs.tif
102
RTVSPost2010PropOp54
 70
     1
102
RTVSPost2010Prop55
280
     0
102
RTVSPost2010PropOp55
 70
     1
102
RTVSPost2010Prop56
140
1.0
102
RTVSPost2010PropOp56
 70
     1
102
RTVSPost2010Prop57
140
1.0
102
RTVSPost2010PropOp57
 70
     1
102
RTVSPropertyOp0
 70
     1
102
RTVSPropertyOp1
 70
     1
102
RTVSPropertyOp2
 70
     1
102
RTVSPropertyOp3
 70
     1
102
RTVSPropertyOp4
 70
     1
102
RTVSPropertyOp5
 70
     1
102
RTVSPropertyOp6
 70
     1
102
RTVSPropertyOp7
 70
     1
102
RTVSPropertyOp8
 70
     1
102
RTVSPropertyOp9
 70
     1
102
RTVSPropertyOp10
 70
     1
102
RTVSPropertyOp11
 70
     1
102
RTVSPropertyOp12
 70
     1
102
RTVSPropertyOp13
 70
     1
102
RTVSPropertyOp14
 70
     1
102
RTVSPropertyOp15
 70
     1
102
RTVSPropertyOp16
 70
     1
102
RTVSPropertyOp17
 70
     1
102
RTVSPropertyOp18
 70
     1
102
RTVSPropertyOp19
 70
     1
102
RTVSPropertyOp20
 70
     1
102
RTVSPropertyOp21
 70
     1
102
RTVSPropertyOp22
 70
     1
102
RTVSPropertyOp23
 70
     1
102
RTVSPropertyOp24
 70
     1
102
RTVSPropertyOp25
 70
     1
102
RTVSPropertyOp26
 70
     1
102
RTVSPropertyOp27
 70
     1
102
RTVSPropertyOp28
 70
     1
102
RTVSPropertyOp29
 70
     1
102
RTVSPropertyOp30
 70
     1
102
RTVSPropertyOp31
 70
     1
102
RTVSPropertyOp32
 70
     1
102
RTVSPropertyOp33
 70
     1
102
RTVSPropertyOp34
 70
     1
102
RTVSPropertyOp35
 70
     1
102
RTVSPropertyOp36
 70
     1
102
RTVSPropertyOp37
 70
     1
102
RTVSPropertyOp38
 70
     1
102
RTVSPropertyOp39
 70
     1
102
RTVSPropertyOp40
 70
     1
102
RTVSPropertyOp41
 70
     1
102
RTVSPropertyOp42
 70
     1
102
RTVSPropertyOp43
 70
     1
102
RTVSPropertyOp44
 70
     1
102
RTVSPropertyOp45
 70
     1
102
RTVSPropertyOp46
 70
     1
102
RTVSPropertyOp47
 70
     1
102
RTVSPropertyOp48
 70
     1
102
RTVSPropertyOp49
 70
     1
102
RTVSPropertyOp50
 70
     1
102
RTVSPropertyOp51
 70
     0
102
RTVSPropertyOp52
 70
     0
102
RTVSPropertyOp53
 70
     1
102
RTVSPropertyOp54
 70
     1
102
RTVSPropertyOp55
 70
     1
102
RTVSPropertyOp56
 70
     1
102
RTVSPropertyOp57
 70
     1
102
RTVSPropertyOp58
 70
     1
102
RTVSPropertyOp59
 70
     1
102
RTVSPropertyOp60
 70
     1
102
RTVSPropertyOp61
 70
     1
102
RTVSPropertyOp62
 70
     1
  0
XRECORD
  5
16D5
102
{ACAD_REACTORS
330
16D4
102
}
330
16D4
100
AcDbXrecord
280
     1
102
RTVSPost2010Prop28
280
     0
102
RTVSPost2010PropOp28
 70
     1
102
RTVSPost2010Prop29
280
     1
102
RTVSPost2010PropOp29
 70
     1
102
RTVSPost2010Prop30
280
     1
102
RTVSPost2010PropOp30
 70
     1
102
RTVSPost2010Prop31
280
     0
102
RTVSPost2010PropOp31
 70
     1
102
RTVSPost2010Prop32
280
     0
102
RTVSPost2010PropOp32
 70
     1
102
RTVSPost2010Prop33
280
     0
102
RTVSPost2010PropOp33
 70
     1
102
RTVSPost2010Prop34
280
     0
102
RTVSPost2010PropOp34
 70
     1
102
RTVSPost2010Prop35
280
     0
102
RTVSPost2010PropOp35
 70
     1
102
RTVSPost2010Prop36
280
     0
102
RTVSPost2010PropOp36
 70
     1
102
RTVSPost2010Prop37
 90
       50
102
RTVSPost2010PropOp37
 70
     1
102
RTVSPost2010Prop38
140
0.0
102
RTVSPost2010PropOp38
 70
     1
102
RTVSPost2010Prop39
140
1.0
102
RTVSPost2010PropOp39
 70
     1
102
RTVSPost2010Prop40
 90
        0
102
RTVSPost2010PropOp40
 70
     1
102
RTVSPost2010Prop41ColorIndex
 90
       18
102
RTVSPost2010Prop41ColorRGB
 90
        0
102
RTVSPost2010PropOp41
 70
     1
102
RTVSPost2010Prop42
 90
       50
102
RTVSPost2010PropOp42
 70
     1
102
RTVSPost2010Prop43
 90
        3
102
RTVSPost2010PropOp43
 70
     1
102
RTVSPost2010Prop44ColorIndex
 90
        5
102
RTVSPost2010Prop44ColorRGB
 90
      255
102
RTVSPost2010PropOp44
 70
     1
102
RTVSPost2010Prop45
280
     0
102
RTVSPost2010PropOp45
 70
     1
102
RTVSPost2010Prop46
 90
       50
102
RTVSPost2010PropOp46
 70
     1
102
RTVSPost2010Prop47
 90
       50
102
RTVSPost2010PropOp47
 70
     1
102
RTVSPost2010Prop48
 90
       50
102
RTVSPost2010PropOp48
 70
     1
102
RTVSPost2010Prop49
280
     0
102
RTVSPost2010PropOp49
 70
     1
102
RTVSPost2010Prop50
 90
       50
102
RTVSPost2010PropOp50
 70
     1
102
RTVSPost2010Prop51ColorIndex
 90
      256
102
RTVSPost2010Prop51ColorRGB
 90
-16777216
102
RTVSPost2010PropOp51
 70
     0
102
RTVSPost2010Prop52
140
1.0
102
RTVSPost2010PropOp52
 70
     0
102
RTVSPost2010Prop53
 90
        2
102
RTVSPost2010PropOp53
 70
     1
102
RTVSPost2010Prop54
  1
strokes_ogs.tif
102
RTVSPost2010PropOp54
 70
     1
102
RTVSPost2010Prop55
280
     0
102
RTVSPost2010PropOp55
 70
     1
102
RTVSPost2010Prop56
140
1.0
102
RTVSPost2010PropOp56
 70
     1
102
RTVSPost2010Prop57
140
1.0
102
RTVSPost2010PropOp57
 70
     1
102
RTVSPropertyOp0
 70
     1
102
RTVSPropertyOp1
 70
     1
102
RTVSPropertyOp2
 70
     1
102
RTVSPropertyOp3
 70
     1
102
RTVSPropertyOp4
 70
     1
102
RTVSPropertyOp5
 70
     1
102
RTVSPropertyOp6
 70
     1
102
RTVSPropertyOp7
 70
     1
102
RTVSPropertyOp8
 70
     1
102
RTVSPropertyOp9
 70
     1
102
RTVSPropertyOp10
 70
     1
102
RTVSPropertyOp11
 70
     1
102
RTVSPropertyOp12
 70
     1
102
RTVSPropertyOp13
 70
     1
102
RTVSPropertyOp14
 70
     1
102
RTVSPropertyOp15
 70
     1
102
RTVSPropertyOp16
 70
     1
102
RTVSPropertyOp17
 70
     1
102
RTVSPropertyOp18
 70
     1
102
RTVSPropertyOp19
 70
     1
102
RTVSPropertyOp20
 70
     1
102
RTVSPropertyOp21
 70
     1
102
RTVSPropertyOp22
 70
     1
102
RTVSPropertyOp23
 70
     1
102
RTVSPropertyOp24
 70
     1
102
RTVSPropertyOp25
 70
     1
102
RTVSPropertyOp26
 70
     1
102
RTVSPropertyOp27
 70
     1
102
RTVSPropertyOp28
 70
     1
102
RTVSPropertyOp29
 70
     1
102
RTVSPropertyOp30
 70
     1
102
RTVSPropertyOp31
 70
     1
102
RTVSPropertyOp32
 70
     1
102
RTVSPropertyOp33
 70
     1
102
RTVSPropertyOp34
 70
     1
102
RTVSPropertyOp35
 70
     1
102
RTVSPropertyOp36
 70
     1
102
RTVSPropertyOp37
 70
     1
102
RTVSPropertyOp38
 70
     1
102
RTVSPropertyOp39
 70
     1
102
RTVSPropertyOp40
 70
     1
102
RTVSPropertyOp41
 70
     1
102
RTVSPropertyOp42
 70
     1
102
RTVSPropertyOp43
 70
     1
102
RTVSPropertyOp44
 70
     1
102
RTVSPropertyOp45
 70
     1
102
RTVSPropertyOp46
 70
     1
102
RTVSPropertyOp47
 70
     1
102
RTVSPropertyOp48
 70
     1
102
RTVSPropertyOp49
 70
     1
102
RTVSPropertyOp50
 70
     1
102
RTVSPropertyOp51
 70
     0
102
RTVSPropertyOp52
 70
     0
102
RTVSPropertyOp53
 70
     1
102
RTVSPropertyOp54
 70
     1
102
RTVSPropertyOp55
 70
     1
102
RTVSPropertyOp56
 70
     1
102
RTVSPropertyOp57
 70
     1
102
RTVSPropertyOp58
 70
     1
102
RTVSPropertyOp59
 70
     1
102
RTVSPropertyOp60
 70
     1
102
RTVSPropertyOp61
 70
     1
102
RTVSPropertyOp62
 70
     1
  0
XRECORD
  5
16DD
102
{ACAD_REACTORS
330
16DC
102
}
330
16DC
100
AcDbXrecord
280
     1
102
RTVSPost2010Prop28
280
     0
102
RTVSPost2010PropOp28
 70
     1
102
RTVSPost2010Prop29
280
     1
102
RTVSPost2010PropOp29
 70
     1
102
RTVSPost2010Prop30
280
     1
102
RTVSPost2010PropOp30
 70
     1
102
RTVSPost2010Prop31
280
     0
102
RTVSPost2010PropOp31
 70
     1
102
RTVSPost2010Prop32
280
     0
102
RTVSPost2010PropOp32
 70
     1
102
RTVSPost2010Prop33
280
     0
102
RTVSPost2010PropOp33
 70
     1
102
RTVSPost2010Prop34
280
     0
102
RTVSPost2010PropOp34
 70
     1
102
RTVSPost2010Prop35
280
     0
102
RTVSPost2010PropOp35
 70
     1
102
RTVSPost2010Prop36
280
     0
102
RTVSPost2010PropOp36
 70
     1
102
RTVSPost2010Prop37
 90
       50
102
RTVSPost2010PropOp37
 70
     1
102
RTVSPost2010Prop38
140
0.0
102
RTVSPost2010PropOp38
 70
     1
102
RTVSPost2010Prop39
140
1.0
102
RTVSPost2010PropOp39
 70
     1
102
RTVSPost2010Prop40
 90
        0
102
RTVSPost2010PropOp40
 70
     1
102
RTVSPost2010Prop41ColorIndex
 90
       18
102
RTVSPost2010Prop41ColorRGB
 90
        0
102
RTVSPost2010PropOp41
 70
     1
102
RTVSPost2010Prop42
 90
       50
102
RTVSPost2010PropOp42
 70
     1
102
RTVSPost2010Prop43
 90
        3
102
RTVSPost2010PropOp43
 70
     1
102
RTVSPost2010Prop44ColorIndex
 90
        5
102
RTVSPost2010Prop44ColorRGB
 90
      255
102
RTVSPost2010PropOp44
 70
     1
102
RTVSPost2010Prop45
280
     0
102
RTVSPost2010PropOp45
 70
     1
102
RTVSPost2010Prop46
 90
       50
102
RTVSPost2010PropOp46
 70
     1
102
RTVSPost2010Prop47
 90
       50
102
RTVSPost2010PropOp47
 70
     1
102
RTVSPost2010Prop48
 90
       50
102
RTVSPost2010PropOp48
 70
     1
102
RTVSPost2010Prop49
280
     0
102
RTVSPost2010PropOp49
 70
     1
102
RTVSPost2010Prop50
 90
       50
102
RTVSPost2010PropOp50
 70
     1
102
RTVSPost2010Prop51ColorIndex
 90
      256
102
RTVSPost2010Prop51ColorRGB
 90
-16777216
102
RTVSPost2010PropOp51
 70
     0
102
RTVSPost2010Prop52
140
1.0
102
RTVSPost2010PropOp52
 70
     0
102
RTVSPost2010Prop53
 90
        2
102
RTVSPost2010PropOp53
 70
     1
102
RTVSPost2010Prop54
  1
strokes_ogs.tif
102
RTVSPost2010PropOp54
 70
     1
102
RTVSPost2010Prop55
280
     0
102
RTVSPost2010PropOp55
 70
     1
102
RTVSPost2010Prop56
140
1.0
102
RTVSPost2010PropOp56
 70
     1
102
RTVSPost2010Prop57
140
1.0
102
RTVSPost2010PropOp57
 70
     1
102
RTVSPropertyOp0
 70
     1
102
RTVSPropertyOp1
 70
     1
102
RTVSPropertyOp2
 70
     1
102
RTVSPropertyOp3
 70
     1
102
RTVSPropertyOp4
 70
     1
102
RTVSPropertyOp5
 70
     1
102
RTVSPropertyOp6
 70
     1
102
RTVSPropertyOp7
 70
     1
102
RTVSPropertyOp8
 70
     1
102
RTVSPropertyOp9
 70
     1
102
RTVSPropertyOp10
 70
     1
102
RTVSPropertyOp11
 70
     1
102
RTVSPropertyOp12
 70
     1
102
RTVSPropertyOp13
 70
     1
102
RTVSPropertyOp14
 70
     1
102
RTVSPropertyOp15
 70
     1
102
RTVSPropertyOp16
 70
     1
102
RTVSPropertyOp17
 70
     1
102
RTVSPropertyOp18
 70
     1
102
RTVSPropertyOp19
 70
     1
102
RTVSPropertyOp20
 70
     1
102
RTVSPropertyOp21
 70
     1
102
RTVSPropertyOp22
 70
     1
102
RTVSPropertyOp23
 70
     1
102
RTVSPropertyOp24
 70
     1
102
RTVSPropertyOp25
 70
     1
102
RTVSPropertyOp26
 70
     1
102
RTVSPropertyOp27
 70
     1
102
RTVSPropertyOp28
 70
     1
102
RTVSPropertyOp29
 70
     1
102
RTVSPropertyOp30
 70
     1
102
RTVSPropertyOp31
 70
     1
102
RTVSPropertyOp32
 70
     1
102
RTVSPropertyOp33
 70
     1
102
RTVSPropertyOp34
 70
     1
102
RTVSPropertyOp35
 70
     1
102
RTVSPropertyOp36
 70
     1
102
RTVSPropertyOp37
 70
     1
102
RTVSPropertyOp38
 70
     1
102
RTVSPropertyOp39
 70
     1
102
RTVSPropertyOp40
 70
     1
102
RTVSPropertyOp41
 70
     1
102
RTVSPropertyOp42
 70
     1
102
RTVSPropertyOp43
 70
     1
102
RTVSPropertyOp44
 70
     1
102
RTVSPropertyOp45
 70
     1
102
RTVSPropertyOp46
 70
     1
102
RTVSPropertyOp47
 70
     1
102
RTVSPropertyOp48
 70
     1
102
RTVSPropertyOp49
 70
     1
102
RTVSPropertyOp50
 70
     1
102
RTVSPropertyOp51
 70
     0
102
RTVSPropertyOp52
 70
     0
102
RTVSPropertyOp53
 70
     1
102
RTVSPropertyOp54
 70
     1
102
RTVSPropertyOp55
 70
     1
102
RTVSPropertyOp56
 70
     1
102
RTVSPropertyOp57
 70
     1
102
RTVSPropertyOp58
 70
     1
102
RTVSPropertyOp59
 70
     1
102
RTVSPropertyOp60
 70
     1
102
RTVSPropertyOp61
 70
     1
102
RTVSPropertyOp62
 70
     1
  0
XRECORD
  5
16CF
102
{ACAD_REACTORS
330
16CE
102
}
330
16CE
100
AcDbXrecord
280
     1
102
RTVSPost2010Prop28
280
     0
102
RTVSPost2010PropOp28
 70
     1
102
RTVSPost2010Prop29
280
     1
102
RTVSPost2010PropOp29
 70
     1
102
RTVSPost2010Prop30
280
     1
102
RTVSPost2010PropOp30
 70
     1
102
RTVSPost2010Prop31
280
     0
102
RTVSPost2010PropOp31
 70
     1
102
RTVSPost2010Prop32
280
     0
102
RTVSPost2010PropOp32
 70
     1
102
RTVSPost2010Prop33
280
     0
102
RTVSPost2010PropOp33
 70
     1
102
RTVSPost2010Prop34
280
     0
102
RTVSPost2010PropOp34
 70
     1
102
RTVSPost2010Prop35
280
     0
102
RTVSPost2010PropOp35
 70
     1
102
RTVSPost2010Prop36
280
     0
102
RTVSPost2010PropOp36
 70
     1
102
RTVSPost2010Prop37
 90
       50
102
RTVSPost2010PropOp37
 70
     1
102
RTVSPost2010Prop38
140
0.0
102
RTVSPost2010PropOp38
 70
     1
102
RTVSPost2010Prop39
140
1.0
102
RTVSPost2010PropOp39
 70
     1
102
RTVSPost2010Prop40
 90
        0
102
RTVSPost2010PropOp40
 70
     1
102
RTVSPost2010Prop41ColorIndex
 90
       18
102
RTVSPost2010Prop41ColorRGB
 90
        0
102
RTVSPost2010PropOp41
 70
     1
102
RTVSPost2010Prop42
 90
       50
102
RTVSPost2010PropOp42
 70
     1
102
RTVSPost2010Prop43
 90
        3
102
RTVSPost2010PropOp43
 70
     1
102
RTVSPost2010Prop44ColorIndex
 90
        5
102
RTVSPost2010Prop44ColorRGB
 90
      255
102
RTVSPost2010PropOp44
 70
     1
102
RTVSPost2010Prop45
280
     0
102
RTVSPost2010PropOp45
 70
     1
102
RTVSPost2010Prop46
 90
       50
102
RTVSPost2010PropOp46
 70
     1
102
RTVSPost2010Prop47
 90
       50
102
RTVSPost2010PropOp47
 70
     1
102
RTVSPost2010Prop48
 90
       50
102
RTVSPost2010PropOp48
 70
     1
102
RTVSPost2010Prop49
280
     0
102
RTVSPost2010PropOp49
 70
     1
102
RTVSPost2010Prop50
 90
       50
102
RTVSPost2010PropOp50
 70
     1
102
RTVSPost2010Prop51ColorIndex
 90
      256
102
RTVSPost2010Prop51ColorRGB
 90
-16777216
102
RTVSPost2010PropOp51
 70
     0
102
RTVSPost2010Prop52
140
1.0
102
RTVSPost2010PropOp52
 70
     0
102
RTVSPost2010Prop53
 90
        2
102
RTVSPost2010PropOp53
 70
     1
102
RTVSPost2010Prop54
  1
strokes_ogs.tif
102
RTVSPost2010PropOp54
 70
     1
102
RTVSPost2010Prop55
280
     0
102
RTVSPost2010PropOp55
 70
     1
102
RTVSPost2010Prop56
140
1.0
102
RTVSPost2010PropOp56
 70
     1
102
RTVSPost2010Prop57
140
1.0
102
RTVSPost2010PropOp57
 70
     1
102
RTVSPropertyOp0
 70
     1
102
RTVSPropertyOp1
 70
     1
102
RTVSPropertyOp2
 70
     1
102
RTVSPropertyOp3
 70
     1
102
RTVSPropertyOp4
 70
     1
102
RTVSPropertyOp5
 70
     1
102
RTVSPropertyOp6
 70
     1
102
RTVSPropertyOp7
 70
     1
102
RTVSPropertyOp8
 70
     1
102
RTVSPropertyOp9
 70
     1
102
RTVSPropertyOp10
 70
     1
102
RTVSPropertyOp11
 70
     1
102
RTVSPropertyOp12
 70
     1
102
RTVSPropertyOp13
 70
     1
102
RTVSPropertyOp14
 70
     1
102
RTVSPropertyOp15
 70
     1
102
RTVSPropertyOp16
 70
     1
102
RTVSPropertyOp17
 70
     1
102
RTVSPropertyOp18
 70
     1
102
RTVSPropertyOp19
 70
     1
102
RTVSPropertyOp20
 70
     1
102
RTVSPropertyOp21
 70
     1
102
RTVSPropertyOp22
 70
     1
102
RTVSPropertyOp23
 70
     1
102
RTVSPropertyOp24
 70
     1
102
RTVSPropertyOp25
 70
     1
102
RTVSPropertyOp26
 70
     1
102
RTVSPropertyOp27
 70
     1
102
RTVSPropertyOp28
 70
     1
102
RTVSPropertyOp29
 70
     1
102
RTVSPropertyOp30
 70
     1
102
RTVSPropertyOp31
 70
     1
102
RTVSPropertyOp32
 70
     1
102
RTVSPropertyOp33
 70
     1
102
RTVSPropertyOp34
 70
     1
102
RTVSPropertyOp35
 70
     1
102
RTVSPropertyOp36
 70
     1
102
RTVSPropertyOp37
 70
     1
102
RTVSPropertyOp38
 70
     1
102
RTVSPropertyOp39
 70
     1
102
RTVSPropertyOp40
 70
     1
102
RTVSPropertyOp41
 70
     1
102
RTVSPropertyOp42
 70
     1
102
RTVSPropertyOp43
 70
     1
102
RTVSPropertyOp44
 70
     1
102
RTVSPropertyOp45
 70
     1
102
RTVSPropertyOp46
 70
     1
102
RTVSPropertyOp47
 70
     1
102
RTVSPropertyOp48
 70
     1
102
RTVSPropertyOp49
 70
     1
102
RTVSPropertyOp50
 70
     1
102
RTVSPropertyOp51
 70
     0
102
RTVSPropertyOp52
 70
     0
102
RTVSPropertyOp53
 70
     1
102
RTVSPropertyOp54
 70
     1
102
RTVSPropertyOp55
 70
     1
102
RTVSPropertyOp56
 70
     1
102
RTVSPropertyOp57
 70
     1
102
RTVSPropertyOp58
 70
     1
102
RTVSPropertyOp59
 70
     1
102
RTVSPropertyOp60
 70
     1
102
RTVSPropertyOp61
 70
     1
102
RTVSPropertyOp62
 70
     1
  0
XRECORD
  5
16D3
102
{ACAD_REACTORS
330
16D2
102
}
330
16D2
100
AcDbXrecord
280
     1
102
RTVSPost2010Prop28
280
     0
102
RTVSPost2010PropOp28
 70
     1
102
RTVSPost2010Prop29
280
     1
102
RTVSPost2010PropOp29
 70
     1
102
RTVSPost2010Prop30
280
     1
102
RTVSPost2010PropOp30
 70
     1
102
RTVSPost2010Prop31
280
     0
102
RTVSPost2010PropOp31
 70
     1
102
RTVSPost2010Prop32
280
     0
102
RTVSPost2010PropOp32
 70
     1
102
RTVSPost2010Prop33
280
     0
102
RTVSPost2010PropOp33
 70
     1
102
RTVSPost2010Prop34
280
     0
102
RTVSPost2010PropOp34
 70
     1
102
RTVSPost2010Prop35
280
     0
102
RTVSPost2010PropOp35
 70
     1
102
RTVSPost2010Prop36
280
     0
102
RTVSPost2010PropOp36
 70
     1
102
RTVSPost2010Prop37
 90
       50
102
RTVSPost2010PropOp37
 70
     1
102
RTVSPost2010Prop38
140
0.0
102
RTVSPost2010PropOp38
 70
     1
102
RTVSPost2010Prop39
140
1.0
102
RTVSPost2010PropOp39
 70
     1
102
RTVSPost2010Prop40
 90
        0
102
RTVSPost2010PropOp40
 70
     1
102
RTVSPost2010Prop41ColorIndex
 90
       18
102
RTVSPost2010Prop41ColorRGB
 90
        0
102
RTVSPost2010PropOp41
 70
     1
102
RTVSPost2010Prop42
 90
       50
102
RTVSPost2010PropOp42
 70
     1
102
RTVSPost2010Prop43
 90
        3
102
RTVSPost2010PropOp43
 70
     1
102
RTVSPost2010Prop44ColorIndex
 90
        5
102
RTVSPost2010Prop44ColorRGB
 90
      255
102
RTVSPost2010PropOp44
 70
     1
102
RTVSPost2010Prop45
280
     0
102
RTVSPost2010PropOp45
 70
     1
102
RTVSPost2010Prop46
 90
       50
102
RTVSPost2010PropOp46
 70
     1
102
RTVSPost2010Prop47
 90
       50
102
RTVSPost2010PropOp47
 70
     1
102
RTVSPost2010Prop48
 90
       50
102
RTVSPost2010PropOp48
 70
     1
102
RTVSPost2010Prop49
280
     0
102
RTVSPost2010PropOp49
 70
     1
102
RTVSPost2010Prop50
 90
       50
102
RTVSPost2010PropOp50
 70
     1
102
RTVSPost2010Prop51ColorIndex
 90
      256
102
RTVSPost2010Prop51ColorRGB
 90
-16777216
102
RTVSPost2010PropOp51
 70
     0
102
RTVSPost2010Prop52
140
1.0
102
RTVSPost2010PropOp52
 70
     0
102
RTVSPost2010Prop53
 90
        2
102
RTVSPost2010PropOp53
 70
     1
102
RTVSPost2010Prop54
  1
strokes_ogs.tif
102
RTVSPost2010PropOp54
 70
     1
102
RTVSPost2010Prop55
280
     0
102
RTVSPost2010PropOp55
 70
     1
102
RTVSPost2010Prop56
140
1.0
102
RTVSPost2010PropOp56
 70
     1
102
RTVSPost2010Prop57
140
1.0
102
RTVSPost2010PropOp57
 70
     1
102
RTVSPropertyOp0
 70
     1
102
RTVSPropertyOp1
 70
     1
102
RTVSPropertyOp2
 70
     1
102
RTVSPropertyOp3
 70
     1
102
RTVSPropertyOp4
 70
     1
102
RTVSPropertyOp5
 70
     1
102
RTVSPropertyOp6
 70
     1
102
RTVSPropertyOp7
 70
     1
102
RTVSPropertyOp8
 70
     1
102
RTVSPropertyOp9
 70
     1
102
RTVSPropertyOp10
 70
     1
102
RTVSPropertyOp11
 70
     1
102
RTVSPropertyOp12
 70
     1
102
RTVSPropertyOp13
 70
     1
102
RTVSPropertyOp14
 70
     1
102
RTVSPropertyOp15
 70
     1
102
RTVSPropertyOp16
 70
     1
102
RTVSPropertyOp17
 70
     1
102
RTVSPropertyOp18
 70
     1
102
RTVSPropertyOp19
 70
     1
102
RTVSPropertyOp20
 70
     1
102
RTVSPropertyOp21
 70
     1
102
RTVSPropertyOp22
 70
     1
102
RTVSPropertyOp23
 70
     1
102
RTVSPropertyOp24
 70
     1
102
RTVSPropertyOp25
 70
     1
102
RTVSPropertyOp26
 70
     1
102
RTVSPropertyOp27
 70
     1
102
RTVSPropertyOp28
 70
     1
102
RTVSPropertyOp29
 70
     1
102
RTVSPropertyOp30
 70
     1
102
RTVSPropertyOp31
 70
     1
102
RTVSPropertyOp32
 70
     1
102
RTVSPropertyOp33
 70
     1
102
RTVSPropertyOp34
 70
     1
102
RTVSPropertyOp35
 70
     1
102
RTVSPropertyOp36
 70
     1
102
RTVSPropertyOp37
 70
     1
102
RTVSPropertyOp38
 70
     1
102
RTVSPropertyOp39
 70
     1
102
RTVSPropertyOp40
 70
     1
102
RTVSPropertyOp41
 70
     1
102
RTVSPropertyOp42
 70
     1
102
RTVSPropertyOp43
 70
     1
102
RTVSPropertyOp44
 70
     1
102
RTVSPropertyOp45
 70
     1
102
RTVSPropertyOp46
 70
     1
102
RTVSPropertyOp47
 70
     1
102
RTVSPropertyOp48
 70
     1
102
RTVSPropertyOp49
 70
     1
102
RTVSPropertyOp50
 70
     1
102
RTVSPropertyOp51
 70
     0
102
RTVSPropertyOp52
 70
     0
102
RTVSPropertyOp53
 70
     1
102
RTVSPropertyOp54
 70
     1
102
RTVSPropertyOp55
 70
     1
102
RTVSPropertyOp56
 70
     1
102
RTVSPropertyOp57
 70
     1
102
RTVSPropertyOp58
 70
     1
102
RTVSPropertyOp59
 70
     1
102
RTVSPropertyOp60
 70
     1
102
RTVSPropertyOp61
 70
     1
102
RTVSPropertyOp62
 70
     1
  0
XRECORD
  5
16ED
102
{ACAD_REACTORS
330
16EC
102
}
330
16EC
100
AcDbXrecord
280
     1
102
RTVSPost2010Prop28
280
     0
102
RTVSPost2010PropOp28
 70
     1
102
RTVSPost2010Prop29
280
     1
102
RTVSPost2010PropOp29
 70
     1
102
RTVSPost2010Prop30
280
     1
102
RTVSPost2010PropOp30
 70
     1
102
RTVSPost2010Prop31
280
     0
102
RTVSPost2010PropOp31
 70
     1
102
RTVSPost2010Prop32
280
     0
102
RTVSPost2010PropOp32
 70
     1
102
RTVSPost2010Prop33
280
     0
102
RTVSPost2010PropOp33
 70
     1
102
RTVSPost2010Prop34
280
     0
102
RTVSPost2010PropOp34
 70
     1
102
RTVSPost2010Prop35
280
     0
102
RTVSPost2010PropOp35
 70
     1
102
RTVSPost2010Prop36
280
     0
102
RTVSPost2010PropOp36
 70
     1
102
RTVSPost2010Prop37
 90
       50
102
RTVSPost2010PropOp37
 70
     0
102
RTVSPost2010Prop38
140
0.0
102
RTVSPost2010PropOp38
 70
     0
102
RTVSPost2010Prop39
140
1.0
102
RTVSPost2010PropOp39
 70
     0
102
RTVSPost2010Prop40
 90
        0
102
RTVSPost2010PropOp40
 70
     0
102
RTVSPost2010Prop41ColorIndex
 90
       18
102
RTVSPost2010Prop41ColorRGB
 90
        0
102
RTVSPost2010PropOp41
 70
     0
102
RTVSPost2010Prop42
 90
       50
102
RTVSPost2010PropOp42
 70
     0
102
RTVSPost2010Prop43
 90
        3
102
RTVSPost2010PropOp43
 70
     0
102
RTVSPost2010Prop44ColorIndex
 90
        5
102
RTVSPost2010Prop44ColorRGB
 90
      255
102
RTVSPost2010PropOp44
 70
     0
102
RTVSPost2010Prop45
280
     0
102
RTVSPost2010PropOp45
 70
     1
102
RTVSPost2010Prop46
 90
       50
102
RTVSPost2010PropOp46
 70
     0
102
RTVSPost2010Prop47
 90
       50
102
RTVSPost2010PropOp47
 70
     0
102
RTVSPost2010Prop48
 90
       50
102
RTVSPost2010PropOp48
 70
     0
102
RTVSPost2010Prop49
280
     0
102
RTVSPost2010PropOp49
 70
     1
102
RTVSPost2010Prop50
 90
       50
102
RTVSPost2010PropOp50
 70
     0
102
RTVSPost2010Prop51ColorIndex
 90
      256
102
RTVSPost2010Prop51ColorRGB
 90
-16777216
102
RTVSPost2010PropOp51
 70
     0
102
RTVSPost2010Prop52
140
1.0
102
RTVSPost2010PropOp52
 70
     0
102
RTVSPost2010Prop53
 90
        2
102
RTVSPost2010PropOp53
 70
     0
102
RTVSPost2010Prop54
  1
strokes_ogs.tif
102
RTVSPost2010PropOp54
 70
     0
102
RTVSPost2010Prop55
280
     0
102
RTVSPost2010PropOp55
 70
     1
102
RTVSPost2010Prop56
140
1.0
102
RTVSPost2010PropOp56
 70
     0
102
RTVSPost2010Prop57
140
1.0
102
RTVSPost2010PropOp57
 70
     0
102
RTVSPropertyOp0
 70
     0
102
RTVSPropertyOp1
 70
     0
102
RTVSPropertyOp2
 70
     0
102
RTVSPropertyOp3
 70
     0
102
RTVSPropertyOp4
 70
     0
102
RTVSPropertyOp5
 70
     0
102
RTVSPropertyOp6
 70
     0
102
RTVSPropertyOp7
 70
     0
102
RTVSPropertyOp8
 70
     0
102
RTVSPropertyOp9
 70
     0
102
RTVSPropertyOp10
 70
     0
102
RTVSPropertyOp11
 70
     0
102
RTVSPropertyOp12
 70
     0
102
RTVSPropertyOp13
 70
     0
102
RTVSPropertyOp14
 70
     2
102
RTVSPropertyOp15
 70
     0
102
RTVSPropertyOp16
 70
     0
102
RTVSPropertyOp17
 70
     0
102
RTVSPropertyOp18
 70
     0
102
RTVSPropertyOp19
 70
     0
102
RTVSPropertyOp20
 70
     0
102
RTVSPropertyOp21
 70
     0
102
RTVSPropertyOp22
 70
     0
102
RTVSPropertyOp23
 70
     0
102
RTVSPropertyOp24
 70
     0
102
RTVSPropertyOp25
 70
     0
102
RTVSPropertyOp26
 70
     0
102
RTVSPropertyOp27
 70
     0
102
RTVSPropertyOp28
 70
     1
102
RTVSPropertyOp29
 70
     1
102
RTVSPropertyOp30
 70
     1
102
RTVSPropertyOp31
 70
     1
102
RTVSPropertyOp32
 70
     1
102
RTVSPropertyOp33
 70
     1
102
RTVSPropertyOp34
 70
     1
102
RTVSPropertyOp35
 70
     1
102
RTVSPropertyOp36
 70
     1
102
RTVSPropertyOp37
 70
     0
102
RTVSPropertyOp38
 70
     0
102
RTVSPropertyOp39
 70
     0
102
RTVSPropertyOp40
 70
     0
102
RTVSPropertyOp41
 70
     0
102
RTVSPropertyOp42
 70
     0
102
RTVSPropertyOp43
 70
     0
102
RTVSPropertyOp44
 70
     0
102
RTVSPropertyOp45
 70
     1
102
RTVSPropertyOp46
 70
     0
102
RTVSPropertyOp47
 70
     0
102
RTVSPropertyOp48
 70
     0
102
RTVSPropertyOp49
 70
     1
102
RTVSPropertyOp50
 70
     0
102
RTVSPropertyOp51
 70
     0
102
RTVSPropertyOp52
 70
     0
102
RTVSPropertyOp53
 70
     0
102
RTVSPropertyOp54
 70
     0
102
RTVSPropertyOp55
 70
     1
102
RTVSPropertyOp56
 70
     0
102
RTVSPropertyOp57
 70
     0
102
RTVSPropertyOp58
 70
     0
102
RTVSPropertyOp59
 70
     0
102
RTVSPropertyOp60
 70
     0
102
RTVSPropertyOp61
 70
     0
102
RTVSPropertyOp62
 70
     0
  0
XRECORD
  5
16DB
102
{ACAD_REACTORS
330
16DA
102
}
330
16DA
100
AcDbXrecord
280
     1
102
RTVSPost2010Prop28
280
     0
102
RTVSPost2010PropOp28
 70
     1
102
RTVSPost2010Prop29
280
     1
102
RTVSPost2010PropOp29
 70
     1
102
RTVSPost2010Prop30
280
     1
102
RTVSPost2010PropOp30
 70
     1
102
RTVSPost2010Prop31
280
     0
102
RTVSPost2010PropOp31
 70
     1
102
RTVSPost2010Prop32
280
     0
102
RTVSPost2010PropOp32
 70
     1
102
RTVSPost2010Prop33
280
     0
102
RTVSPost2010PropOp33
 70
     1
102
RTVSPost2010Prop34
280
     0
102
RTVSPost2010PropOp34
 70
     1
102
RTVSPost2010Prop35
280
     0
102
RTVSPost2010PropOp35
 70
     1
102
RTVSPost2010Prop36
280
     0
102
RTVSPost2010PropOp36
 70
     1
102
RTVSPost2010Prop37
 90
       50
102
RTVSPost2010PropOp37
 70
     1
102
RTVSPost2010Prop38
140
0.0
102
RTVSPost2010PropOp38
 70
     1
102
RTVSPost2010Prop39
140
1.0
102
RTVSPost2010PropOp39
 70
     1
102
RTVSPost2010Prop40
 90
        0
102
RTVSPost2010PropOp40
 70
     1
102
RTVSPost2010Prop41ColorIndex
 90
       18
102
RTVSPost2010Prop41ColorRGB
 90
        0
102
RTVSPost2010PropOp41
 70
     1
102
RTVSPost2010Prop42
 90
       50
102
RTVSPost2010PropOp42
 70
     1
102
RTVSPost2010Prop43
 90
        3
102
RTVSPost2010PropOp43
 70
     1
102
RTVSPost2010Prop44ColorIndex
 90
        5
102
RTVSPost2010Prop44ColorRGB
 90
      255
102
RTVSPost2010PropOp44
 70
     1
102
RTVSPost2010Prop45
280
     0
102
RTVSPost2010PropOp45
 70
     1
102
RTVSPost2010Prop46
 90
       50
102
RTVSPost2010PropOp46
 70
     1
102
RTVSPost2010Prop47
 90
       50
102
RTVSPost2010PropOp47
 70
     1
102
RTVSPost2010Prop48
 90
       50
102
RTVSPost2010PropOp48
 70
     1
102
RTVSPost2010Prop49
280
     0
102
RTVSPost2010PropOp49
 70
     1
102
RTVSPost2010Prop50
 90
       50
102
RTVSPost2010PropOp50
 70
     1
102
RTVSPost2010Prop51ColorIndex
 90
      256
102
RTVSPost2010Prop51ColorRGB
 90
-16777216
102
RTVSPost2010PropOp51
 70
     0
102
RTVSPost2010Prop52
140
1.0
102
RTVSPost2010PropOp52
 70
     0
102
RTVSPost2010Prop53
 90
        2
102
RTVSPost2010PropOp53
 70
     1
102
RTVSPost2010Prop54
  1
strokes_ogs.tif
102
RTVSPost2010PropOp54
 70
     1
102
RTVSPost2010Prop55
280
     0
102
RTVSPost2010PropOp55
 70
     1
102
RTVSPost2010Prop56
140
1.0
102
RTVSPost2010PropOp56
 70
     1
102
RTVSPost2010Prop57
140
1.0
102
RTVSPost2010PropOp57
 70
     1
102
RTVSPropertyOp0
 70
     1
102
RTVSPropertyOp1
 70
     1
102
RTVSPropertyOp2
 70
     1
102
RTVSPropertyOp3
 70
     1
102
RTVSPropertyOp4
 70
     1
102
RTVSPropertyOp5
 70
     1
102
RTVSPropertyOp6
 70
     1
102
RTVSPropertyOp7
 70
     1
102
RTVSPropertyOp8
 70
     1
102
RTVSPropertyOp9
 70
     1
102
RTVSPropertyOp10
 70
     1
102
RTVSPropertyOp11
 70
     1
102
RTVSPropertyOp12
 70
     1
102
RTVSPropertyOp13
 70
     1
102
RTVSPropertyOp14
 70
     1
102
RTVSPropertyOp15
 70
     1
102
RTVSPropertyOp16
 70
     1
102
RTVSPropertyOp17
 70
     1
102
RTVSPropertyOp18
 70
     1
102
RTVSPropertyOp19
 70
     1
102
RTVSPropertyOp20
 70
     1
102
RTVSPropertyOp21
 70
     1
102
RTVSPropertyOp22
 70
     1
102
RTVSPropertyOp23
 70
     1
102
RTVSPropertyOp24
 70
     1
102
RTVSPropertyOp25
 70
     1
102
RTVSPropertyOp26
 70
     1
102
RTVSPropertyOp27
 70
     1
102
RTVSPropertyOp28
 70
     1
102
RTVSPropertyOp29
 70
     1
102
RTVSPropertyOp30
 70
     1
102
RTVSPropertyOp31
 70
     1
102
RTVSPropertyOp32
 70
     1
102
RTVSPropertyOp33
 70
     1
102
RTVSPropertyOp34
 70
     1
102
RTVSPropertyOp35
 70
     1
102
RTVSPropertyOp36
 70
     1
102
RTVSPropertyOp37
 70
     1
102
RTVSPropertyOp38
 70
     1
102
RTVSPropertyOp39
 70
     1
102
RTVSPropertyOp40
 70
     1
102
RTVSPropertyOp41
 70
     1
102
RTVSPropertyOp42
 70
     1
102
RTVSPropertyOp43
 70
     1
102
RTVSPropertyOp44
 70
     1
102
RTVSPropertyOp45
 70
     1
102
RTVSPropertyOp46
 70
     1
102
RTVSPropertyOp47
 70
     1
102
RTVSPropertyOp48
 70
     1
102
RTVSPropertyOp49
 70
     1
102
RTVSPropertyOp50
 70
     1
102
RTVSPropertyOp51
 70
     0
102
RTVSPropertyOp52
 70
     0
102
RTVSPropertyOp53
 70
     1
102
RTVSPropertyOp54
 70
     1
102
RTVSPropertyOp55
 70
     1
102
RTVSPropertyOp56
 70
     1
102
RTVSPropertyOp57
 70
     1
102
RTVSPropertyOp58
 70
     1
102
RTVSPropertyOp59
 70
     1
102
RTVSPropertyOp60
 70
     1
102
RTVSPropertyOp61
 70
     1
102
RTVSPropertyOp62
 70
     1
  0
XRECORD
  5
16BF
102
{ACAD_REACTORS
330
16BE
102
}
330
16BE
100
AcDbXrecord
280
     1
102
RTVSPost2010Prop28
280
     0
102
RTVSPost2010PropOp28
 70
     1
102
RTVSPost2010Prop29
280
     1
102
RTVSPost2010PropOp29
 70
     1
102
RTVSPost2010Prop30
280
     1
102
RTVSPost2010PropOp30
 70
     1
102
RTVSPost2010Prop31
280
     0
102
RTVSPost2010PropOp31
 70
     1
102
RTVSPost2010Prop32
280
     0
102
RTVSPost2010PropOp32
 70
     1
102
RTVSPost2010Prop33
280
     0
102
RTVSPost2010PropOp33
 70
     1
102
RTVSPost2010Prop34
280
     0
102
RTVSPost2010PropOp34
 70
     1
102
RTVSPost2010Prop35
280
     0
102
RTVSPost2010PropOp35
 70
     1
102
RTVSPost2010Prop36
280
     0
102
RTVSPost2010PropOp36
 70
     1
102
RTVSPost2010Prop37
 90
       50
102
RTVSPost2010PropOp37
 70
     1
102
RTVSPost2010Prop38
140
0.0
102
RTVSPost2010PropOp38
 70
     1
102
RTVSPost2010Prop39
140
1.0
102
RTVSPost2010PropOp39
 70
     1
102
RTVSPost2010Prop40
 90
        0
102
RTVSPost2010PropOp40
 70
     1
102
RTVSPost2010Prop41ColorIndex
 90
       18
102
RTVSPost2010Prop41ColorRGB
 90
        0
102
RTVSPost2010PropOp41
 70
     1
102
RTVSPost2010Prop42
 90
       50
102
RTVSPost2010PropOp42
 70
     1
102
RTVSPost2010Prop43
 90
        3
102
RTVSPost2010PropOp43
 70
     1
102
RTVSPost2010Prop44ColorIndex
 90
        5
102
RTVSPost2010Prop44ColorRGB
 90
      255
102
RTVSPost2010PropOp44
 70
     1
102
RTVSPost2010Prop45
280
     0
102
RTVSPost2010PropOp45
 70
     1
102
RTVSPost2010Prop46
 90
       50
102
RTVSPost2010PropOp46
 70
     1
102
RTVSPost2010Prop47
 90
       50
102
RTVSPost2010PropOp47
 70
     1
102
RTVSPost2010Prop48
 90
       50
102
RTVSPost2010PropOp48
 70
     1
102
RTVSPost2010Prop49
280
     0
102
RTVSPost2010PropOp49
 70
     1
102
RTVSPost2010Prop50
 90
       50
102
RTVSPost2010PropOp50
 70
     1
102
RTVSPost2010Prop51ColorIndex
 90
      256
102
RTVSPost2010Prop51ColorRGB
 90
-16777216
102
RTVSPost2010PropOp51
 70
     0
102
RTVSPost2010Prop52
140
1.0
102
RTVSPost2010PropOp52
 70
     0
102
RTVSPost2010Prop53
 90
        2
102
RTVSPost2010PropOp53
 70
     1
102
RTVSPost2010Prop54
  1
strokes_ogs.tif
102
RTVSPost2010PropOp54
 70
     1
102
RTVSPost2010Prop55
280
     0
102
RTVSPost2010PropOp55
 70
     1
102
RTVSPost2010Prop56
140
1.0
102
RTVSPost2010PropOp56
 70
     1
102
RTVSPost2010Prop57
140
1.0
102
RTVSPost2010PropOp57
 70
     1
102
RTVSPropertyOp0
 70
     1
102
RTVSPropertyOp1
 70
     1
102
RTVSPropertyOp2
 70
     1
102
RTVSPropertyOp3
 70
     1
102
RTVSPropertyOp4
 70
     1
102
RTVSPropertyOp5
 70
     1
102
RTVSPropertyOp6
 70
     1
102
RTVSPropertyOp7
 70
     1
102
RTVSPropertyOp8
 70
     1
102
RTVSPropertyOp9
 70
     1
102
RTVSPropertyOp10
 70
     1
102
RTVSPropertyOp11
 70
     1
102
RTVSPropertyOp12
 70
     1
102
RTVSPropertyOp13
 70
     1
102
RTVSPropertyOp14
 70
     1
102
RTVSPropertyOp15
 70
     1
102
RTVSPropertyOp16
 70
     1
102
RTVSPropertyOp17
 70
     1
102
RTVSPropertyOp18
 70
     1
102
RTVSPropertyOp19
 70
     1
102
RTVSPropertyOp20
 70
     1
102
RTVSPropertyOp21
 70
     1
102
RTVSPropertyOp22
 70
     1
102
RTVSPropertyOp23
 70
     1
102
RTVSPropertyOp24
 70
     1
102
RTVSPropertyOp25
 70
     1
102
RTVSPropertyOp26
 70
     1
102
RTVSPropertyOp27
 70
     1
102
RTVSPropertyOp28
 70
     1
102
RTVSPropertyOp29
 70
     1
102
RTVSPropertyOp30
 70
     1
102
RTVSPropertyOp31
 70
     1
102
RTVSPropertyOp32
 70
     1
102
RTVSPropertyOp33
 70
     1
102
RTVSPropertyOp34
 70
     1
102
RTVSPropertyOp35
 70
     1
102
RTVSPropertyOp36
 70
     1
102
RTVSPropertyOp37
 70
     1
102
RTVSPropertyOp38
 70
     1
102
RTVSPropertyOp39
 70
     1
102
RTVSPropertyOp40
 70
     1
102
RTVSPropertyOp41
 70
     1
102
RTVSPropertyOp42
 70
     1
102
RTVSPropertyOp43
 70
     1
102
RTVSPropertyOp44
 70
     1
102
RTVSPropertyOp45
 70
     1
102
RTVSPropertyOp46
 70
     1
102
RTVSPropertyOp47
 70
     1
102
RTVSPropertyOp48
 70
     1
102
RTVSPropertyOp49
 70
     1
102
RTVSPropertyOp50
 70
     1
102
RTVSPropertyOp51
 70
     0
102
RTVSPropertyOp52
 70
     0
102
RTVSPropertyOp53
 70
     1
102
RTVSPropertyOp54
 70
     1
102
RTVSPropertyOp55
 70
     1
102
RTVSPropertyOp56
 70
     1
102
RTVSPropertyOp57
 70
     1
102
RTVSPropertyOp58
 70
     1
102
RTVSPropertyOp59
 70
     1
102
RTVSPropertyOp60
 70
     1
102
RTVSPropertyOp61
 70
     1
102
RTVSPropertyOp62
 70
     1
  0
XRECORD
  5
16C1
102
{ACAD_REACTORS
330
16C0
102
}
330
16C0
100
AcDbXrecord
280
     1
102
RTVSPost2010Prop28
280
     0
102
RTVSPost2010PropOp28
 70
     1
102
RTVSPost2010Prop29
280
     1
102
RTVSPost2010PropOp29
 70
     1
102
RTVSPost2010Prop30
280
     1
102
RTVSPost2010PropOp30
 70
     1
102
RTVSPost2010Prop31
280
     0
102
RTVSPost2010PropOp31
 70
     1
102
RTVSPost2010Prop32
280
     0
102
RTVSPost2010PropOp32
 70
     1
102
RTVSPost2010Prop33
280
     0
102
RTVSPost2010PropOp33
 70
     1
102
RTVSPost2010Prop34
280
     0
102
RTVSPost2010PropOp34
 70
     1
102
RTVSPost2010Prop35
280
     0
102
RTVSPost2010PropOp35
 70
     1
102
RTVSPost2010Prop36
280
     0
102
RTVSPost2010PropOp36
 70
     1
102
RTVSPost2010Prop37
 90
       50
102
RTVSPost2010PropOp37
 70
     1
102
RTVSPost2010Prop38
140
0.0
102
RTVSPost2010PropOp38
 70
     1
102
RTVSPost2010Prop39
140
1.0
102
RTVSPost2010PropOp39
 70
     1
102
RTVSPost2010Prop40
 90
        0
102
RTVSPost2010PropOp40
 70
     1
102
RTVSPost2010Prop41ColorIndex
 90
       18
102
RTVSPost2010Prop41ColorRGB
 90
        0
102
RTVSPost2010PropOp41
 70
     1
102
RTVSPost2010Prop42
 90
       50
102
RTVSPost2010PropOp42
 70
     1
102
RTVSPost2010Prop43
 90
        3
102
RTVSPost2010PropOp43
 70
     1
102
RTVSPost2010Prop44ColorIndex
 90
        5
102
RTVSPost2010Prop44ColorRGB
 90
      255
102
RTVSPost2010PropOp44
 70
     1
102
RTVSPost2010Prop45
280
     0
102
RTVSPost2010PropOp45
 70
     1
102
RTVSPost2010Prop46
 90
       50
102
RTVSPost2010PropOp46
 70
     1
102
RTVSPost2010Prop47
 90
       50
102
RTVSPost2010PropOp47
 70
     1
102
RTVSPost2010Prop48
 90
       50
102
RTVSPost2010PropOp48
 70
     1
102
RTVSPost2010Prop49
280
     0
102
RTVSPost2010PropOp49
 70
     1
102
RTVSPost2010Prop50
 90
       50
102
RTVSPost2010PropOp50
 70
     1
102
RTVSPost2010Prop51ColorIndex
 90
      256
102
RTVSPost2010Prop51ColorRGB
 90
-16777216
102
RTVSPost2010PropOp51
 70
     0
102
RTVSPost2010Prop52
140
1.0
102
RTVSPost2010PropOp52
 70
     0
102
RTVSPost2010Prop53
 90
        2
102
RTVSPost2010PropOp53
 70
     1
102
RTVSPost2010Prop54
  1
strokes_ogs.tif
102
RTVSPost2010PropOp54
 70
     1
102
RTVSPost2010Prop55
280
     0
102
RTVSPost2010PropOp55
 70
     1
102
RTVSPost2010Prop56
140
1.0
102
RTVSPost2010PropOp56
 70
     1
102
RTVSPost2010Prop57
140
1.0
102
RTVSPost2010PropOp57
 70
     1
102
RTVSPropertyOp0
 70
     1
102
RTVSPropertyOp1
 70
     1
102
RTVSPropertyOp2
 70
     1
102
RTVSPropertyOp3
 70
     1
102
RTVSPropertyOp4
 70
     1
102
RTVSPropertyOp5
 70
     1
102
RTVSPropertyOp6
 70
     1
102
RTVSPropertyOp7
 70
     1
102
RTVSPropertyOp8
 70
     1
102
RTVSPropertyOp9
 70
     1
102
RTVSPropertyOp10
 70
     1
102
RTVSPropertyOp11
 70
     1
102
RTVSPropertyOp12
 70
     1
102
RTVSPropertyOp13
 70
     1
102
RTVSPropertyOp14
 70
     1
102
RTVSPropertyOp15
 70
     1
102
RTVSPropertyOp16
 70
     1
102
RTVSPropertyOp17
 70
     1
102
RTVSPropertyOp18
 70
     1
102
RTVSPropertyOp19
 70
     1
102
RTVSPropertyOp20
 70
     1
102
RTVSPropertyOp21
 70
     1
102
RTVSPropertyOp22
 70
     1
102
RTVSPropertyOp23
 70
     1
102
RTVSPropertyOp24
 70
     1
102
RTVSPropertyOp25
 70
     1
102
RTVSPropertyOp26
 70
     1
102
RTVSPropertyOp27
 70
     1
102
RTVSPropertyOp28
 70
     1
102
RTVSPropertyOp29
 70
     1
102
RTVSPropertyOp30
 70
     1
102
RTVSPropertyOp31
 70
     1
102
RTVSPropertyOp32
 70
     1
102
RTVSPropertyOp33
 70
     1
102
RTVSPropertyOp34
 70
     1
102
RTVSPropertyOp35
 70
     1
102
RTVSPropertyOp36
 70
     1
102
RTVSPropertyOp37
 70
     1
102
RTVSPropertyOp38
 70
     1
102
RTVSPropertyOp39
 70
     1
102
RTVSPropertyOp40
 70
     1
102
RTVSPropertyOp41
 70
     1
102
RTVSPropertyOp42
 70
     1
102
RTVSPropertyOp43
 70
     1
102
RTVSPropertyOp44
 70
     1
102
RTVSPropertyOp45
 70
     1
102
RTVSPropertyOp46
 70
     1
102
RTVSPropertyOp47
 70
     1
102
RTVSPropertyOp48
 70
     1
102
RTVSPropertyOp49
 70
     1
102
RTVSPropertyOp50
 70
     1
102
RTVSPropertyOp51
 70
     0
102
RTVSPropertyOp52
 70
     0
102
RTVSPropertyOp53
 70
     1
102
RTVSPropertyOp54
 70
     1
102
RTVSPropertyOp55
 70
     1
102
RTVSPropertyOp56
 70
     1
102
RTVSPropertyOp57
 70
     1
102
RTVSPropertyOp58
 70
     1
102
RTVSPropertyOp59
 70
     1
102
RTVSPropertyOp60
 70
     1
102
RTVSPropertyOp61
 70
     1
102
RTVSPropertyOp62
 70
     1
  0
XRECORD
  5
16C3
102
{ACAD_REACTORS
330
16C2
102
}
330
16C2
100
AcDbXrecord
280
     1
102
RTVSPost2010Prop28
280
     0
102
RTVSPost2010PropOp28
 70
     1
102
RTVSPost2010Prop29
280
     1
102
RTVSPost2010PropOp29
 70
     1
102
RTVSPost2010Prop30
280
     1
102
RTVSPost2010PropOp30
 70
     1
102
RTVSPost2010Prop31
280
     0
102
RTVSPost2010PropOp31
 70
     1
102
RTVSPost2010Prop32
280
     0
102
RTVSPost2010PropOp32
 70
     1
102
RTVSPost2010Prop33
280
     0
102
RTVSPost2010PropOp33
 70
     1
102
RTVSPost2010Prop34
280
     0
102
RTVSPost2010PropOp34
 70
     1
102
RTVSPost2010Prop35
280
     0
102
RTVSPost2010PropOp35
 70
     1
102
RTVSPost2010Prop36
280
     0
102
RTVSPost2010PropOp36
 70
     1
102
RTVSPost2010Prop37
 90
       50
102
RTVSPost2010PropOp37
 70
     1
102
RTVSPost2010Prop38
140
0.0
102
RTVSPost2010PropOp38
 70
     1
102
RTVSPost2010Prop39
140
1.0
102
RTVSPost2010PropOp39
 70
     1
102
RTVSPost2010Prop40
 90
        0
102
RTVSPost2010PropOp40
 70
     1
102
RTVSPost2010Prop41ColorIndex
 90
       18
102
RTVSPost2010Prop41ColorRGB
 90
        0
102
RTVSPost2010PropOp41
 70
     1
102
RTVSPost2010Prop42
 90
       50
102
RTVSPost2010PropOp42
 70
     1
102
RTVSPost2010Prop43
 90
        3
102
RTVSPost2010PropOp43
 70
     1
102
RTVSPost2010Prop44ColorIndex
 90
        5
102
RTVSPost2010Prop44ColorRGB
 90
      255
102
RTVSPost2010PropOp44
 70
     1
102
RTVSPost2010Prop45
280
     0
102
RTVSPost2010PropOp45
 70
     1
102
RTVSPost2010Prop46
 90
       50
102
RTVSPost2010PropOp46
 70
     1
102
RTVSPost2010Prop47
 90
       50
102
RTVSPost2010PropOp47
 70
     1
102
RTVSPost2010Prop48
 90
       50
102
RTVSPost2010PropOp48
 70
     1
102
RTVSPost2010Prop49
280
     0
102
RTVSPost2010PropOp49
 70
     1
102
RTVSPost2010Prop50
 90
       50
102
RTVSPost2010PropOp50
 70
     1
102
RTVSPost2010Prop51ColorIndex
 90
      256
102
RTVSPost2010Prop51ColorRGB
 90
-16777216
102
RTVSPost2010PropOp51
 70
     0
102
RTVSPost2010Prop52
140
1.0
102
RTVSPost2010PropOp52
 70
     0
102
RTVSPost2010Prop53
 90
        2
102
RTVSPost2010PropOp53
 70
     1
102
RTVSPost2010Prop54
  1
strokes_ogs.tif
102
RTVSPost2010PropOp54
 70
     1
102
RTVSPost2010Prop55
280
     0
102
RTVSPost2010PropOp55
 70
     1
102
RTVSPost2010Prop56
140
1.0
102
RTVSPost2010PropOp56
 70
     1
102
RTVSPost2010Prop57
140
1.0
102
RTVSPost2010PropOp57
 70
     1
102
RTVSPropertyOp0
 70
     1
102
RTVSPropertyOp1
 70
     1
102
RTVSPropertyOp2
 70
     1
102
RTVSPropertyOp3
 70
     1
102
RTVSPropertyOp4
 70
     1
102
RTVSPropertyOp5
 70
     1
102
RTVSPropertyOp6
 70
     1
102
RTVSPropertyOp7
 70
     1
102
RTVSPropertyOp8
 70
     1
102
RTVSPropertyOp9
 70
     1
102
RTVSPropertyOp10
 70
     1
102
RTVSPropertyOp11
 70
     1
102
RTVSPropertyOp12
 70
     1
102
RTVSPropertyOp13
 70
     1
102
RTVSPropertyOp14
 70
     1
102
RTVSPropertyOp15
 70
     1
102
RTVSPropertyOp16
 70
     1
102
RTVSPropertyOp17
 70
     1
102
RTVSPropertyOp18
 70
     1
102
RTVSPropertyOp19
 70
     1
102
RTVSPropertyOp20
 70
     1
102
RTVSPropertyOp21
 70
     1
102
RTVSPropertyOp22
 70
     1
102
RTVSPropertyOp23
 70
     1
102
RTVSPropertyOp24
 70
     1
102
RTVSPropertyOp25
 70
     1
102
RTVSPropertyOp26
 70
     1
102
RTVSPropertyOp27
 70
     1
102
RTVSPropertyOp28
 70
     1
102
RTVSPropertyOp29
 70
     1
102
RTVSPropertyOp30
 70
     1
102
RTVSPropertyOp31
 70
     1
102
RTVSPropertyOp32
 70
     1
102
RTVSPropertyOp33
 70
     1
102
RTVSPropertyOp34
 70
     1
102
RTVSPropertyOp35
 70
     1
102
RTVSPropertyOp36
 70
     1
102
RTVSPropertyOp37
 70
     1
102
RTVSPropertyOp38
 70
     1
102
RTVSPropertyOp39
 70
     1
102
RTVSPropertyOp40
 70
     1
102
RTVSPropertyOp41
 70
     1
102
RTVSPropertyOp42
 70
     1
102
RTVSPropertyOp43
 70
     1
102
RTVSPropertyOp44
 70
     1
102
RTVSPropertyOp45
 70
     1
102
RTVSPropertyOp46
 70
     1
102
RTVSPropertyOp47
 70
     1
102
RTVSPropertyOp48
 70
     1
102
RTVSPropertyOp49
 70
     1
102
RTVSPropertyOp50
 70
     1
102
RTVSPropertyOp51
 70
     0
102
RTVSPropertyOp52
 70
     0
102
RTVSPropertyOp53
 70
     1
102
RTVSPropertyOp54
 70
     1
102
RTVSPropertyOp55
 70
     1
102
RTVSPropertyOp56
 70
     1
102
RTVSPropertyOp57
 70
     1
102
RTVSPropertyOp58
 70
     1
102
RTVSPropertyOp59
 70
     1
102
RTVSPropertyOp60
 70
     1
102
RTVSPropertyOp61
 70
     1
102
RTVSPropertyOp62
 70
     1
  0
XRECORD
  5
16C5
102
{ACAD_REACTORS
330
16C4
102
}
330
16C4
100
AcDbXrecord
280
     1
102
RTVSPost2010Prop28
280
     0
102
RTVSPost2010PropOp28
 70
     1
102
RTVSPost2010Prop29
280
     1
102
RTVSPost2010PropOp29
 70
     1
102
RTVSPost2010Prop30
280
     1
102
RTVSPost2010PropOp30
 70
     1
102
RTVSPost2010Prop31
280
     0
102
RTVSPost2010PropOp31
 70
     1
102
RTVSPost2010Prop32
280
     0
102
RTVSPost2010PropOp32
 70
     1
102
RTVSPost2010Prop33
280
     0
102
RTVSPost2010PropOp33
 70
     1
102
RTVSPost2010Prop34
280
     0
102
RTVSPost2010PropOp34
 70
     1
102
RTVSPost2010Prop35
280
     0
102
RTVSPost2010PropOp35
 70
     1
102
RTVSPost2010Prop36
280
     0
102
RTVSPost2010PropOp36
 70
     1
102
RTVSPost2010Prop37
 90
       50
102
RTVSPost2010PropOp37
 70
     1
102
RTVSPost2010Prop38
140
0.0
102
RTVSPost2010PropOp38
 70
     1
102
RTVSPost2010Prop39
140
1.0
102
RTVSPost2010PropOp39
 70
     1
102
RTVSPost2010Prop40
 90
        0
102
RTVSPost2010PropOp40
 70
     1
102
RTVSPost2010Prop41ColorIndex
 90
       18
102
RTVSPost2010Prop41ColorRGB
 90
        0
102
RTVSPost2010PropOp41
 70
     1
102
RTVSPost2010Prop42
 90
       50
102
RTVSPost2010PropOp42
 70
     1
102
RTVSPost2010Prop43
 90
        3
102
RTVSPost2010PropOp43
 70
     1
102
RTVSPost2010Prop44ColorIndex
 90
        5
102
RTVSPost2010Prop44ColorRGB
 90
      255
102
RTVSPost2010PropOp44
 70
     1
102
RTVSPost2010Prop45
280
     0
102
RTVSPost2010PropOp45
 70
     1
102
RTVSPost2010Prop46
 90
       50
102
RTVSPost2010PropOp46
 70
     1
102
RTVSPost2010Prop47
 90
       50
102
RTVSPost2010PropOp47
 70
     1
102
RTVSPost2010Prop48
 90
       50
102
RTVSPost2010PropOp48
 70
     1
102
RTVSPost2010Prop49
280
     0
102
RTVSPost2010PropOp49
 70
     1
102
RTVSPost2010Prop50
 90
       50
102
RTVSPost2010PropOp50
 70
     1
102
RTVSPost2010Prop51ColorIndex
 90
      256
102
RTVSPost2010Prop51ColorRGB
 90
-16777216
102
RTVSPost2010PropOp51
 70
     0
102
RTVSPost2010Prop52
140
1.0
102
RTVSPost2010PropOp52
 70
     0
102
RTVSPost2010Prop53
 90
        2
102
RTVSPost2010PropOp53
 70
     1
102
RTVSPost2010Prop54
  1
strokes_ogs.tif
102
RTVSPost2010PropOp54
 70
     1
102
RTVSPost2010Prop55
280
     0
102
RTVSPost2010PropOp55
 70
     1
102
RTVSPost2010Prop56
140
1.0
102
RTVSPost2010PropOp56
 70
     1
102
RTVSPost2010Prop57
140
1.0
102
RTVSPost2010PropOp57
 70
     1
102
RTVSPropertyOp0
 70
     1
102
RTVSPropertyOp1
 70
     1
102
RTVSPropertyOp2
 70
     1
102
RTVSPropertyOp3
 70
     1
102
RTVSPropertyOp4
 70
     1
102
RTVSPropertyOp5
 70
     1
102
RTVSPropertyOp6
 70
     1
102
RTVSPropertyOp7
 70
     1
102
RTVSPropertyOp8
 70
     1
102
RTVSPropertyOp9
 70
     1
102
RTVSPropertyOp10
 70
     1
102
RTVSPropertyOp11
 70
     1
102
RTVSPropertyOp12
 70
     1
102
RTVSPropertyOp13
 70
     1
102
RTVSPropertyOp14
 70
     1
102
RTVSPropertyOp15
 70
     1
102
RTVSPropertyOp16
 70
     1
102
RTVSPropertyOp17
 70
     1
102
RTVSPropertyOp18
 70
     1
102
RTVSPropertyOp19
 70
     1
102
RTVSPropertyOp20
 70
     1
102
RTVSPropertyOp21
 70
     1
102
RTVSPropertyOp22
 70
     1
102
RTVSPropertyOp23
 70
     1
102
RTVSPropertyOp24
 70
     1
102
RTVSPropertyOp25
 70
     1
102
RTVSPropertyOp26
 70
     1
102
RTVSPropertyOp27
 70
     1
102
RTVSPropertyOp28
 70
     1
102
RTVSPropertyOp29
 70
     1
102
RTVSPropertyOp30
 70
     1
102
RTVSPropertyOp31
 70
     1
102
RTVSPropertyOp32
 70
     1
102
RTVSPropertyOp33
 70
     1
102
RTVSPropertyOp34
 70
     1
102
RTVSPropertyOp35
 70
     1
102
RTVSPropertyOp36
 70
     1
102
RTVSPropertyOp37
 70
     1
102
RTVSPropertyOp38
 70
     1
102
RTVSPropertyOp39
 70
     1
102
RTVSPropertyOp40
 70
     1
102
RTVSPropertyOp41
 70
     1
102
RTVSPropertyOp42
 70
     1
102
RTVSPropertyOp43
 70
     1
102
RTVSPropertyOp44
 70
     1
102
RTVSPropertyOp45
 70
     1
102
RTVSPropertyOp46
 70
     1
102
RTVSPropertyOp47
 70
     1
102
RTVSPropertyOp48
 70
     1
102
RTVSPropertyOp49
 70
     1
102
RTVSPropertyOp50
 70
     1
102
RTVSPropertyOp51
 70
     0
102
RTVSPropertyOp52
 70
     0
102
RTVSPropertyOp53
 70
     1
102
RTVSPropertyOp54
 70
     1
102
RTVSPropertyOp55
 70
     1
102
RTVSPropertyOp56
 70
     1
102
RTVSPropertyOp57
 70
     1
102
RTVSPropertyOp58
 70
     1
102
RTVSPropertyOp59
 70
     1
102
RTVSPropertyOp60
 70
     1
102
RTVSPropertyOp61
 70
     1
102
RTVSPropertyOp62
 70
     1
  0
XRECORD
  5
16CD
102
{ACAD_REACTORS
330
16CC
102
}
330
16CC
100
AcDbXrecord
280
     1
102
RTVSPost2010Prop28
280
     0
102
RTVSPost2010PropOp28
 70
     1
102
RTVSPost2010Prop29
280
     1
102
RTVSPost2010PropOp29
 70
     1
102
RTVSPost2010Prop30
280
     1
102
RTVSPost2010PropOp30
 70
     1
102
RTVSPost2010Prop31
280
     0
102
RTVSPost2010PropOp31
 70
     1
102
RTVSPost2010Prop32
280
     0
102
RTVSPost2010PropOp32
 70
     1
102
RTVSPost2010Prop33
280
     0
102
RTVSPost2010PropOp33
 70
     1
102
RTVSPost2010Prop34
280
     0
102
RTVSPost2010PropOp34
 70
     1
102
RTVSPost2010Prop35
280
     0
102
RTVSPost2010PropOp35
 70
     1
102
RTVSPost2010Prop36
280
     0
102
RTVSPost2010PropOp36
 70
     1
102
RTVSPost2010Prop37
 90
       50
102
RTVSPost2010PropOp37
 70
     1
102
RTVSPost2010Prop38
140
0.0
102
RTVSPost2010PropOp38
 70
     1
102
RTVSPost2010Prop39
140
1.0
102
RTVSPost2010PropOp39
 70
     1
102
RTVSPost2010Prop40
 90
        0
102
RTVSPost2010PropOp40
 70
     1
102
RTVSPost2010Prop41ColorIndex
 90
       18
102
RTVSPost2010Prop41ColorRGB
 90
        0
102
RTVSPost2010PropOp41
 70
     1
102
RTVSPost2010Prop42
 90
       50
102
RTVSPost2010PropOp42
 70
     1
102
RTVSPost2010Prop43
 90
        3
102
RTVSPost2010PropOp43
 70
     1
102
RTVSPost2010Prop44ColorIndex
 90
        5
102
RTVSPost2010Prop44ColorRGB
 90
      255
102
RTVSPost2010PropOp44
 70
     1
102
RTVSPost2010Prop45
280
     0
102
RTVSPost2010PropOp45
 70
     1
102
RTVSPost2010Prop46
 90
       50
102
RTVSPost2010PropOp46
 70
     1
102
RTVSPost2010Prop47
 90
       50
102
RTVSPost2010PropOp47
 70
     1
102
RTVSPost2010Prop48
 90
       50
102
RTVSPost2010PropOp48
 70
     1
102
RTVSPost2010Prop49
280
     0
102
RTVSPost2010PropOp49
 70
     1
102
RTVSPost2010Prop50
 90
       50
102
RTVSPost2010PropOp50
 70
     1
102
RTVSPost2010Prop51ColorIndex
 90
      256
102
RTVSPost2010Prop51ColorRGB
 90
-16777216
102
RTVSPost2010PropOp51
 70
     0
102
RTVSPost2010Prop52
140
1.0
102
RTVSPost2010PropOp52
 70
     0
102
RTVSPost2010Prop53
 90
        2
102
RTVSPost2010PropOp53
 70
     1
102
RTVSPost2010Prop54
  1
strokes_ogs.tif
102
RTVSPost2010PropOp54
 70
     1
102
RTVSPost2010Prop55
280
     0
102
RTVSPost2010PropOp55
 70
     1
102
RTVSPost2010Prop56
140
1.0
102
RTVSPost2010PropOp56
 70
     1
102
RTVSPost2010Prop57
140
1.0
102
RTVSPost2010PropOp57
 70
     1
102
RTVSPropertyOp0
 70
     1
102
RTVSPropertyOp1
 70
     1
102
RTVSPropertyOp2
 70
     1
102
RTVSPropertyOp3
 70
     1
102
RTVSPropertyOp4
 70
     1
102
RTVSPropertyOp5
 70
     1
102
RTVSPropertyOp6
 70
     1
102
RTVSPropertyOp7
 70
     1
102
RTVSPropertyOp8
 70
     1
102
RTVSPropertyOp9
 70
     1
102
RTVSPropertyOp10
 70
     1
102
RTVSPropertyOp11
 70
     1
102
RTVSPropertyOp12
 70
     1
102
RTVSPropertyOp13
 70
     1
102
RTVSPropertyOp14
 70
     1
102
RTVSPropertyOp15
 70
     1
102
RTVSPropertyOp16
 70
     1
102
RTVSPropertyOp17
 70
     1
102
RTVSPropertyOp18
 70
     1
102
RTVSPropertyOp19
 70
     1
102
RTVSPropertyOp20
 70
     1
102
RTVSPropertyOp21
 70
     1
102
RTVSPropertyOp22
 70
     1
102
RTVSPropertyOp23
 70
     1
102
RTVSPropertyOp24
 70
     1
102
RTVSPropertyOp25
 70
     1
102
RTVSPropertyOp26
 70
     1
102
RTVSPropertyOp27
 70
     1
102
RTVSPropertyOp28
 70
     1
102
RTVSPropertyOp29
 70
     1
102
RTVSPropertyOp30
 70
     1
102
RTVSPropertyOp31
 70
     1
102
RTVSPropertyOp32
 70
     1
102
RTVSPropertyOp33
 70
     1
102
RTVSPropertyOp34
 70
     1
102
RTVSPropertyOp35
 70
     1
102
RTVSPropertyOp36
 70
     1
102
RTVSPropertyOp37
 70
     1
102
RTVSPropertyOp38
 70
     1
102
RTVSPropertyOp39
 70
     1
102
RTVSPropertyOp40
 70
     1
102
RTVSPropertyOp41
 70
     1
102
RTVSPropertyOp42
 70
     1
102
RTVSPropertyOp43
 70
     1
102
RTVSPropertyOp44
 70
     1
102
RTVSPropertyOp45
 70
     1
102
RTVSPropertyOp46
 70
     1
102
RTVSPropertyOp47
 70
     1
102
RTVSPropertyOp48
 70
     1
102
RTVSPropertyOp49
 70
     1
102
RTVSPropertyOp50
 70
     1
102
RTVSPropertyOp51
 70
     0
102
RTVSPropertyOp52
 70
     0
102
RTVSPropertyOp53
 70
     1
102
RTVSPropertyOp54
 70
     1
102
RTVSPropertyOp55
 70
     1
102
RTVSPropertyOp56
 70
     1
102
RTVSPropertyOp57
 70
     1
102
RTVSPropertyOp58
 70
     1
102
RTVSPropertyOp59
 70
     1
102
RTVSPropertyOp60
 70
     1
102
RTVSPropertyOp61
 70
     1
102
RTVSPropertyOp62
 70
     1
  0
XRECORD
  5
16E9
102
{ACAD_REACTORS
330
16E8
102
}
330
16E8
100
AcDbXrecord
280
     1
102
RTVSPost2010Prop28
280
     0
102
RTVSPost2010PropOp28
 70
     1
102
RTVSPost2010Prop29
280
     1
102
RTVSPost2010PropOp29
 70
     1
102
RTVSPost2010Prop30
280
     1
102
RTVSPost2010PropOp30
 70
     1
102
RTVSPost2010Prop31
280
     0
102
RTVSPost2010PropOp31
 70
     1
102
RTVSPost2010Prop32
280
     0
102
RTVSPost2010PropOp32
 70
     1
102
RTVSPost2010Prop33
280
     0
102
RTVSPost2010PropOp33
 70
     1
102
RTVSPost2010Prop34
280
     0
102
RTVSPost2010PropOp34
 70
     1
102
RTVSPost2010Prop35
280
     0
102
RTVSPost2010PropOp35
 70
     1
102
RTVSPost2010Prop36
280
     0
102
RTVSPost2010PropOp36
 70
     1
102
RTVSPost2010Prop37
 90
       50
102
RTVSPost2010PropOp37
 70
     0
102
RTVSPost2010Prop38
140
0.0
102
RTVSPost2010PropOp38
 70
     0
102
RTVSPost2010Prop39
140
1.0
102
RTVSPost2010PropOp39
 70
     0
102
RTVSPost2010Prop40
 90
        0
102
RTVSPost2010PropOp40
 70
     0
102
RTVSPost2010Prop41ColorIndex
 90
       18
102
RTVSPost2010Prop41ColorRGB
 90
        0
102
RTVSPost2010PropOp41
 70
     0
102
RTVSPost2010Prop42
 90
       50
102
RTVSPost2010PropOp42
 70
     0
102
RTVSPost2010Prop43
 90
        3
102
RTVSPost2010PropOp43
 70
     0
102
RTVSPost2010Prop44ColorIndex
 90
        5
102
RTVSPost2010Prop44ColorRGB
 90
      255
102
RTVSPost2010PropOp44
 70
     0
102
RTVSPost2010Prop45
280
     0
102
RTVSPost2010PropOp45
 70
     1
102
RTVSPost2010Prop46
 90
       50
102
RTVSPost2010PropOp46
 70
     0
102
RTVSPost2010Prop47
 90
       50
102
RTVSPost2010PropOp47
 70
     0
102
RTVSPost2010Prop48
 90
       50
102
RTVSPost2010PropOp48
 70
     0
102
RTVSPost2010Prop49
280
     0
102
RTVSPost2010PropOp49
 70
     1
102
RTVSPost2010Prop50
 90
       50
102
RTVSPost2010PropOp50
 70
     0
102
RTVSPost2010Prop51ColorIndex
 90
      256
102
RTVSPost2010Prop51ColorRGB
 90
-16777216
102
RTVSPost2010PropOp51
 70
     0
102
RTVSPost2010Prop52
140
1.0
102
RTVSPost2010PropOp52
 70
     0
102
RTVSPost2010Prop53
 90
        2
102
RTVSPost2010PropOp53
 70
     0
102
RTVSPost2010Prop54
  1
strokes_ogs.tif
102
RTVSPost2010PropOp54
 70
     0
102
RTVSPost2010Prop55
280
     0
102
RTVSPost2010PropOp55
 70
     1
102
RTVSPost2010Prop56
140
1.0
102
RTVSPost2010PropOp56
 70
     0
102
RTVSPost2010Prop57
140
1.0
102
RTVSPost2010PropOp57
 70
     0
102
RTVSPropertyOp0
 70
     0
102
RTVSPropertyOp1
 70
     0
102
RTVSPropertyOp2
 70
     0
102
RTVSPropertyOp3
 70
     0
102
RTVSPropertyOp4
 70
     0
102
RTVSPropertyOp5
 70
     0
102
RTVSPropertyOp6
 70
     0
102
RTVSPropertyOp7
 70
     0
102
RTVSPropertyOp8
 70
     0
102
RTVSPropertyOp9
 70
     0
102
RTVSPropertyOp10
 70
     0
102
RTVSPropertyOp11
 70
     0
102
RTVSPropertyOp12
 70
     0
102
RTVSPropertyOp13
 70
     0
102
RTVSPropertyOp14
 70
     2
102
RTVSPropertyOp15
 70
     0
102
RTVSPropertyOp16
 70
     0
102
RTVSPropertyOp17
 70
     0
102
RTVSPropertyOp18
 70
     0
102
RTVSPropertyOp19
 70
     0
102
RTVSPropertyOp20
 70
     0
102
RTVSPropertyOp21
 70
     0
102
RTVSPropertyOp22
 70
     0
102
RTVSPropertyOp23
 70
     0
102
RTVSPropertyOp24
 70
     0
102
RTVSPropertyOp25
 70
     0
102
RTVSPropertyOp26
 70
     0
102
RTVSPropertyOp27
 70
     0
102
RTVSPropertyOp28
 70
     1
102
RTVSPropertyOp29
 70
     1
102
RTVSPropertyOp30
 70
     1
102
RTVSPropertyOp31
 70
     1
102
RTVSPropertyOp32
 70
     1
102
RTVSPropertyOp33
 70
     1
102
RTVSPropertyOp34
 70
     1
102
RTVSPropertyOp35
 70
     1
102
RTVSPropertyOp36
 70
     1
102
RTVSPropertyOp37
 70
     0
102
RTVSPropertyOp38
 70
     0
102
RTVSPropertyOp39
 70
     0
102
RTVSPropertyOp40
 70
     0
102
RTVSPropertyOp41
 70
     0
102
RTVSPropertyOp42
 70
     0
102
RTVSPropertyOp43
 70
     0
102
RTVSPropertyOp44
 70
     0
102
RTVSPropertyOp45
 70
     1
102
RTVSPropertyOp46
 70
     0
102
RTVSPropertyOp47
 70
     0
102
RTVSPropertyOp48
 70
     0
102
RTVSPropertyOp49
 70
     1
102
RTVSPropertyOp50
 70
     0
102
RTVSPropertyOp51
 70
     0
102
RTVSPropertyOp52
 70
     0
102
RTVSPropertyOp53
 70
     0
102
RTVSPropertyOp54
 70
     0
102
RTVSPropertyOp55
 70
     1
102
RTVSPropertyOp56
 70
     0
102
RTVSPropertyOp57
 70
     0
102
RTVSPropertyOp58
 70
     0
102
RTVSPropertyOp59
 70
     0
102
RTVSPropertyOp60
 70
     0
102
RTVSPropertyOp61
 70
     0
102
RTVSPropertyOp62
 70
     0
  0
XRECORD
  5
16D9
102
{ACAD_REACTORS
330
16D8
102
}
330
16D8
100
AcDbXrecord
280
     1
102
RTVSPost2010Prop28
280
     0
102
RTVSPost2010PropOp28
 70
     1
102
RTVSPost2010Prop29
280
     1
102
RTVSPost2010PropOp29
 70
     1
102
RTVSPost2010Prop30
280
     1
102
RTVSPost2010PropOp30
 70
     1
102
RTVSPost2010Prop31
280
     0
102
RTVSPost2010PropOp31
 70
     1
102
RTVSPost2010Prop32
280
     0
102
RTVSPost2010PropOp32
 70
     1
102
RTVSPost2010Prop33
280
     0
102
RTVSPost2010PropOp33
 70
     1
102
RTVSPost2010Prop34
280
     0
102
RTVSPost2010PropOp34
 70
     1
102
RTVSPost2010Prop35
280
     0
102
RTVSPost2010PropOp35
 70
     1
102
RTVSPost2010Prop36
280
     0
102
RTVSPost2010PropOp36
 70
     1
102
RTVSPost2010Prop37
 90
       50
102
RTVSPost2010PropOp37
 70
     1
102
RTVSPost2010Prop38
140
0.0
102
RTVSPost2010PropOp38
 70
     1
102
RTVSPost2010Prop39
140
1.0
102
RTVSPost2010PropOp39
 70
     1
102
RTVSPost2010Prop40
 90
        0
102
RTVSPost2010PropOp40
 70
     1
102
RTVSPost2010Prop41ColorIndex
 90
       18
102
RTVSPost2010Prop41ColorRGB
 90
        0
102
RTVSPost2010PropOp41
 70
     1
102
RTVSPost2010Prop42
 90
       50
102
RTVSPost2010PropOp42
 70
     1
102
RTVSPost2010Prop43
 90
        3
102
RTVSPost2010PropOp43
 70
     1
102
RTVSPost2010Prop44ColorIndex
 90
        5
102
RTVSPost2010Prop44ColorRGB
 90
      255
102
RTVSPost2010PropOp44
 70
     1
102
RTVSPost2010Prop45
280
     0
102
RTVSPost2010PropOp45
 70
     1
102
RTVSPost2010Prop46
 90
       50
102
RTVSPost2010PropOp46
 70
     1
102
RTVSPost2010Prop47
 90
       50
102
RTVSPost2010PropOp47
 70
     1
102
RTVSPost2010Prop48
 90
       50
102
RTVSPost2010PropOp48
 70
     1
102
RTVSPost2010Prop49
280
     0
102
RTVSPost2010PropOp49
 70
     1
102
RTVSPost2010Prop50
 90
       50
102
RTVSPost2010PropOp50
 70
     1
102
RTVSPost2010Prop51ColorIndex
 90
      256
102
RTVSPost2010Prop51ColorRGB
 90
-16777216
102
RTVSPost2010PropOp51
 70
     0
102
RTVSPost2010Prop52
140
1.0
102
RTVSPost2010PropOp52
 70
     0
102
RTVSPost2010Prop53
 90
        2
102
RTVSPost2010PropOp53
 70
     1
102
RTVSPost2010Prop54
  1
strokes_ogs.tif
102
RTVSPost2010PropOp54
 70
     1
102
RTVSPost2010Prop55
280
     0
102
RTVSPost2010PropOp55
 70
     1
102
RTVSPost2010Prop56
140
1.0
102
RTVSPost2010PropOp56
 70
     1
102
RTVSPost2010Prop57
140
1.0
102
RTVSPost2010PropOp57
 70
     1
102
RTVSPropertyOp0
 70
     1
102
RTVSPropertyOp1
 70
     1
102
RTVSPropertyOp2
 70
     1
102
RTVSPropertyOp3
 70
     1
102
RTVSPropertyOp4
 70
     1
102
RTVSPropertyOp5
 70
     1
102
RTVSPropertyOp6
 70
     1
102
RTVSPropertyOp7
 70
     1
102
RTVSPropertyOp8
 70
     1
102
RTVSPropertyOp9
 70
     1
102
RTVSPropertyOp10
 70
     1
102
RTVSPropertyOp11
 70
     1
102
RTVSPropertyOp12
 70
     1
102
RTVSPropertyOp13
 70
     1
102
RTVSPropertyOp14
 70
     1
102
RTVSPropertyOp15
 70
     1
102
RTVSPropertyOp16
 70
     1
102
RTVSPropertyOp17
 70
     1
102
RTVSPropertyOp18
 70
     1
102
RTVSPropertyOp19
 70
     1
102
RTVSPropertyOp20
 70
     1
102
RTVSPropertyOp21
 70
     1
102
RTVSPropertyOp22
 70
     1
102
RTVSPropertyOp23
 70
     1
102
RTVSPropertyOp24
 70
     1
102
RTVSPropertyOp25
 70
     1
102
RTVSPropertyOp26
 70
     1
102
RTVSPropertyOp27
 70
     1
102
RTVSPropertyOp28
 70
     1
102
RTVSPropertyOp29
 70
     1
102
RTVSPropertyOp30
 70
     1
102
RTVSPropertyOp31
 70
     1
102
RTVSPropertyOp32
 70
     1
102
RTVSPropertyOp33
 70
     1
102
RTVSPropertyOp34
 70
     1
102
RTVSPropertyOp35
 70
     1
102
RTVSPropertyOp36
 70
     1
102
RTVSPropertyOp37
 70
     1
102
RTVSPropertyOp38
 70
     1
102
RTVSPropertyOp39
 70
     1
102
RTVSPropertyOp40
 70
     1
102
RTVSPropertyOp41
 70
     1
102
RTVSPropertyOp42
 70
     1
102
RTVSPropertyOp43
 70
     1
102
RTVSPropertyOp44
 70
     1
102
RTVSPropertyOp45
 70
     1
102
RTVSPropertyOp46
 70
     1
102
RTVSPropertyOp47
 70
     1
102
RTVSPropertyOp48
 70
     1
102
RTVSPropertyOp49
 70
     1
102
RTVSPropertyOp50
 70
     1
102
RTVSPropertyOp51
 70
     0
102
RTVSPropertyOp52
 70
     0
102
RTVSPropertyOp53
 70
     1
102
RTVSPropertyOp54
 70
     1
102
RTVSPropertyOp55
 70
     1
102
RTVSPropertyOp56
 70
     1
102
RTVSPropertyOp57
 70
     1
102
RTVSPropertyOp58
 70
     1
102
RTVSPropertyOp59
 70
     1
102
RTVSPropertyOp60
 70
     1
102
RTVSPropertyOp61
 70
     1
102
RTVSPropertyOp62
 70
     1
  0
XRECORD
  5
16EB
102
{ACAD_REACTORS
330
16EA
102
}
330
16EA
100
AcDbXrecord
280
     1
102
RTVSPost2010Prop28
280
     0
102
RTVSPost2010PropOp28
 70
     1
102
RTVSPost2010Prop29
280
     1
102
RTVSPost2010PropOp29
 70
     1
102
RTVSPost2010Prop30
280
     1
102
RTVSPost2010PropOp30
 70
     1
102
RTVSPost2010Prop31
280
     0
102
RTVSPost2010PropOp31
 70
     1
102
RTVSPost2010Prop32
280
     0
102
RTVSPost2010PropOp32
 70
     1
102
RTVSPost2010Prop33
280
     0
102
RTVSPost2010PropOp33
 70
     1
102
RTVSPost2010Prop34
280
     0
102
RTVSPost2010PropOp34
 70
     1
102
RTVSPost2010Prop35
280
     0
102
RTVSPost2010PropOp35
 70
     1
102
RTVSPost2010Prop36
280
     0
102
RTVSPost2010PropOp36
 70
     1
102
RTVSPost2010Prop37
 90
       50
102
RTVSPost2010PropOp37
 70
     0
102
RTVSPost2010Prop38
140
0.0
102
RTVSPost2010PropOp38
 70
     0
102
RTVSPost2010Prop39
140
1.0
102
RTVSPost2010PropOp39
 70
     0
102
RTVSPost2010Prop40
 90
        0
102
RTVSPost2010PropOp40
 70
     0
102
RTVSPost2010Prop41ColorIndex
 90
       18
102
RTVSPost2010Prop41ColorRGB
 90
        0
102
RTVSPost2010PropOp41
 70
     0
102
RTVSPost2010Prop42
 90
       50
102
RTVSPost2010PropOp42
 70
     0
102
RTVSPost2010Prop43
 90
        3
102
RTVSPost2010PropOp43
 70
     0
102
RTVSPost2010Prop44ColorIndex
 90
        5
102
RTVSPost2010Prop44ColorRGB
 90
      255
102
RTVSPost2010PropOp44
 70
     0
102
RTVSPost2010Prop45
280
     0
102
RTVSPost2010PropOp45
 70
     1
102
RTVSPost2010Prop46
 90
       50
102
RTVSPost2010PropOp46
 70
     0
102
RTVSPost2010Prop47
 90
       50
102
RTVSPost2010PropOp47
 70
     0
102
RTVSPost2010Prop48
 90
       50
102
RTVSPost2010PropOp48
 70
     0
102
RTVSPost2010Prop49
280
     0
102
RTVSPost2010PropOp49
 70
     1
102
RTVSPost2010Prop50
 90
       50
102
RTVSPost2010PropOp50
 70
     0
102
RTVSPost2010Prop51ColorIndex
 90
      256
102
RTVSPost2010Prop51ColorRGB
 90
-16777216
102
RTVSPost2010PropOp51
 70
     0
102
RTVSPost2010Prop52
140
1.0
102
RTVSPost2010PropOp52
 70
     0
102
RTVSPost2010Prop53
 90
        2
102
RTVSPost2010PropOp53
 70
     0
102
RTVSPost2010Prop54
  1
strokes_ogs.tif
102
RTVSPost2010PropOp54
 70
     0
102
RTVSPost2010Prop55
280
     0
102
RTVSPost2010PropOp55
 70
     1
102
RTVSPost2010Prop56
140
1.0
102
RTVSPost2010PropOp56
 70
     0
102
RTVSPost2010Prop57
140
1.0
102
RTVSPost2010PropOp57
 70
     0
102
RTVSPropertyOp0
 70
     0
102
RTVSPropertyOp1
 70
     0
102
RTVSPropertyOp2
 70
     0
102
RTVSPropertyOp3
 70
     0
102
RTVSPropertyOp4
 70
     0
102
RTVSPropertyOp5
 70
     0
102
RTVSPropertyOp6
 70
     0
102
RTVSPropertyOp7
 70
     0
102
RTVSPropertyOp8
 70
     0
102
RTVSPropertyOp9
 70
     0
102
RTVSPropertyOp10
 70
     0
102
RTVSPropertyOp11
 70
     0
102
RTVSPropertyOp12
 70
     0
102
RTVSPropertyOp13
 70
     0
102
RTVSPropertyOp14
 70
     2
102
RTVSPropertyOp15
 70
     0
102
RTVSPropertyOp16
 70
     0
102
RTVSPropertyOp17
 70
     0
102
RTVSPropertyOp18
 70
     0
102
RTVSPropertyOp19
 70
     0
102
RTVSPropertyOp20
 70
     0
102
RTVSPropertyOp21
 70
     0
102
RTVSPropertyOp22
 70
     0
102
RTVSPropertyOp23
 70
     0
102
RTVSPropertyOp24
 70
     0
102
RTVSPropertyOp25
 70
     0
102
RTVSPropertyOp26
 70
     0
102
RTVSPropertyOp27
 70
     0
102
RTVSPropertyOp28
 70
     1
102
RTVSPropertyOp29
 70
     1
102
RTVSPropertyOp30
 70
     1
102
RTVSPropertyOp31
 70
     1
102
RTVSPropertyOp32
 70
     1
102
RTVSPropertyOp33
 70
     1
102
RTVSPropertyOp34
 70
     1
102
RTVSPropertyOp35
 70
     1
102
RTVSPropertyOp36
 70
     1
102
RTVSPropertyOp37
 70
     0
102
RTVSPropertyOp38
 70
     0
102
RTVSPropertyOp39
 70
     0
102
RTVSPropertyOp40
 70
     0
102
RTVSPropertyOp41
 70
     0
102
RTVSPropertyOp42
 70
     0
102
RTVSPropertyOp43
 70
     0
102
RTVSPropertyOp44
 70
     0
102
RTVSPropertyOp45
 70
     1
102
RTVSPropertyOp46
 70
     0
102
RTVSPropertyOp47
 70
     0
102
RTVSPropertyOp48
 70
     0
102
RTVSPropertyOp49
 70
     1
102
RTVSPropertyOp50
 70
     0
102
RTVSPropertyOp51
 70
     0
102
RTVSPropertyOp52
 70
     0
102
RTVSPropertyOp53
 70
     0
102
RTVSPropertyOp54
 70
     0
102
RTVSPropertyOp55
 70
     1
102
RTVSPropertyOp56
 70
     0
102
RTVSPropertyOp57
 70
     0
102
RTVSPropertyOp58
 70
     0
102
RTVSPropertyOp59
 70
     0
102
RTVSPropertyOp60
 70
     0
102
RTVSPropertyOp61
 70
     0
102
RTVSPropertyOp62
 70
     0
  0
XRECORD
  5
16D1
102
{ACAD_REACTORS
330
16D0
102
}
330
16D0
100
AcDbXrecord
280
     1
102
RTVSPost2010Prop28
280
     0
102
RTVSPost2010PropOp28
 70
     1
102
RTVSPost2010Prop29
280
     1
102
RTVSPost2010PropOp29
 70
     1
102
RTVSPost2010Prop30
280
     1
102
RTVSPost2010PropOp30
 70
     1
102
RTVSPost2010Prop31
280
     0
102
RTVSPost2010PropOp31
 70
     1
102
RTVSPost2010Prop32
280
     0
102
RTVSPost2010PropOp32
 70
     1
102
RTVSPost2010Prop33
280
     0
102
RTVSPost2010PropOp33
 70
     1
102
RTVSPost2010Prop34
280
     0
102
RTVSPost2010PropOp34
 70
     1
102
RTVSPost2010Prop35
280
     0
102
RTVSPost2010PropOp35
 70
     1
102
RTVSPost2010Prop36
280
     0
102
RTVSPost2010PropOp36
 70
     1
102
RTVSPost2010Prop37
 90
       50
102
RTVSPost2010PropOp37
 70
     1
102
RTVSPost2010Prop38
140
0.0
102
RTVSPost2010PropOp38
 70
     1
102
RTVSPost2010Prop39
140
1.0
102
RTVSPost2010PropOp39
 70
     1
102
RTVSPost2010Prop40
 90
        0
102
RTVSPost2010PropOp40
 70
     1
102
RTVSPost2010Prop41ColorIndex
 90
       18
102
RTVSPost2010Prop41ColorRGB
 90
        0
102
RTVSPost2010PropOp41
 70
     1
102
RTVSPost2010Prop42
 90
       50
102
RTVSPost2010PropOp42
 70
     1
102
RTVSPost2010Prop43
 90
        3
102
RTVSPost2010PropOp43
 70
     1
102
RTVSPost2010Prop44ColorIndex
 90
        5
102
RTVSPost2010Prop44ColorRGB
 90
      255
102
RTVSPost2010PropOp44
 70
     1
102
RTVSPost2010Prop45
280
     0
102
RTVSPost2010PropOp45
 70
     1
102
RTVSPost2010Prop46
 90
       50
102
RTVSPost2010PropOp46
 70
     1
102
RTVSPost2010Prop47
 90
       50
102
RTVSPost2010PropOp47
 70
     1
102
RTVSPost2010Prop48
 90
       50
102
RTVSPost2010PropOp48
 70
     1
102
RTVSPost2010Prop49
280
     0
102
RTVSPost2010PropOp49
 70
     1
102
RTVSPost2010Prop50
 90
       50
102
RTVSPost2010PropOp50
 70
     1
102
RTVSPost2010Prop51ColorIndex
 90
      256
102
RTVSPost2010Prop51ColorRGB
 90
-16777216
102
RTVSPost2010PropOp51
 70
     0
102
RTVSPost2010Prop52
140
1.0
102
RTVSPost2010PropOp52
 70
     0
102
RTVSPost2010Prop53
 90
        2
102
RTVSPost2010PropOp53
 70
     1
102
RTVSPost2010Prop54
  1
strokes_ogs.tif
102
RTVSPost2010PropOp54
 70
     1
102
RTVSPost2010Prop55
280
     0
102
RTVSPost2010PropOp55
 70
     1
102
RTVSPost2010Prop56
140
1.0
102
RTVSPost2010PropOp56
 70
     1
102
RTVSPost2010Prop57
140
1.0
102
RTVSPost2010PropOp57
 70
     1
102
RTVSPropertyOp0
 70
     1
102
RTVSPropertyOp1
 70
     1
102
RTVSPropertyOp2
 70
     1
102
RTVSPropertyOp3
 70
     1
102
RTVSPropertyOp4
 70
     1
102
RTVSPropertyOp5
 70
     1
102
RTVSPropertyOp6
 70
     1
102
RTVSPropertyOp7
 70
     1
102
RTVSPropertyOp8
 70
     1
102
RTVSPropertyOp9
 70
     1
102
RTVSPropertyOp10
 70
     1
102
RTVSPropertyOp11
 70
     1
102
RTVSPropertyOp12
 70
     1
102
RTVSPropertyOp13
 70
     1
102
RTVSPropertyOp14
 70
     1
102
RTVSPropertyOp15
 70
     1
102
RTVSPropertyOp16
 70
     1
102
RTVSPropertyOp17
 70
     1
102
RTVSPropertyOp18
 70
     1
102
RTVSPropertyOp19
 70
     1
102
RTVSPropertyOp20
 70
     1
102
RTVSPropertyOp21
 70
     1
102
RTVSPropertyOp22
 70
     1
102
RTVSPropertyOp23
 70
     1
102
RTVSPropertyOp24
 70
     1
102
RTVSPropertyOp25
 70
     1
102
RTVSPropertyOp26
 70
     1
102
RTVSPropertyOp27
 70
     1
102
RTVSPropertyOp28
 70
     1
102
RTVSPropertyOp29
 70
     1
102
RTVSPropertyOp30
 70
     1
102
RTVSPropertyOp31
 70
     1
102
RTVSPropertyOp32
 70
     1
102
RTVSPropertyOp33
 70
     1
102
RTVSPropertyOp34
 70
     1
102
RTVSPropertyOp35
 70
     1
102
RTVSPropertyOp36
 70
     1
102
RTVSPropertyOp37
 70
     1
102
RTVSPropertyOp38
 70
     1
102
RTVSPropertyOp39
 70
     1
102
RTVSPropertyOp40
 70
     1
102
RTVSPropertyOp41
 70
     1
102
RTVSPropertyOp42
 70
     1
102
RTVSPropertyOp43
 70
     1
102
RTVSPropertyOp44
 70
     1
102
RTVSPropertyOp45
 70
     1
102
RTVSPropertyOp46
 70
     1
102
RTVSPropertyOp47
 70
     1
102
RTVSPropertyOp48
 70
     1
102
RTVSPropertyOp49
 70
     1
102
RTVSPropertyOp50
 70
     1
102
RTVSPropertyOp51
 70
     0
102
RTVSPropertyOp52
 70
     0
102
RTVSPropertyOp53
 70
     1
102
RTVSPropertyOp54
 70
     1
102
RTVSPropertyOp55
 70
     1
102
RTVSPropertyOp56
 70
     1
102
RTVSPropertyOp57
 70
     1
102
RTVSPropertyOp58
 70
     1
102
RTVSPropertyOp59
 70
     1
102
RTVSPropertyOp60
 70
     1
102
RTVSPropertyOp61
 70
     1
102
RTVSPropertyOp62
 70
     1
  0
XRECORD
  5
16E7
102
{ACAD_REACTORS
330
16E6
102
}
330
16E6
100
AcDbXrecord
280
     1
102
RTVSPost2010Prop28
280
     0
102
RTVSPost2010PropOp28
 70
     1
102
RTVSPost2010Prop29
280
     1
102
RTVSPost2010PropOp29
 70
     1
102
RTVSPost2010Prop30
280
     1
102
RTVSPost2010PropOp30
 70
     1
102
RTVSPost2010Prop31
280
     0
102
RTVSPost2010PropOp31
 70
     1
102
RTVSPost2010Prop32
280
     0
102
RTVSPost2010PropOp32
 70
     1
102
RTVSPost2010Prop33
280
     0
102
RTVSPost2010PropOp33
 70
     1
102
RTVSPost2010Prop34
280
     0
102
RTVSPost2010PropOp34
 70
     1
102
RTVSPost2010Prop35
280
     0
102
RTVSPost2010PropOp35
 70
     1
102
RTVSPost2010Prop36
280
     0
102
RTVSPost2010PropOp36
 70
     1
102
RTVSPost2010Prop37
 90
       50
102
RTVSPost2010PropOp37
 70
     1
102
RTVSPost2010Prop38
140
0.0
102
RTVSPost2010PropOp38
 70
     1
102
RTVSPost2010Prop39
140
1.0
102
RTVSPost2010PropOp39
 70
     1
102
RTVSPost2010Prop40
 90
        0
102
RTVSPost2010PropOp40
 70
     1
102
RTVSPost2010Prop41ColorIndex
 90
       18
102
RTVSPost2010Prop41ColorRGB
 90
        0
102
RTVSPost2010PropOp41
 70
     1
102
RTVSPost2010Prop42
 90
       50
102
RTVSPost2010PropOp42
 70
     1
102
RTVSPost2010Prop43
 90
        3
102
RTVSPost2010PropOp43
 70
     1
102
RTVSPost2010Prop44ColorIndex
 90
        5
102
RTVSPost2010Prop44ColorRGB
 90
      255
102
RTVSPost2010PropOp44
 70
     1
102
RTVSPost2010Prop45
280
     0
102
RTVSPost2010PropOp45
 70
     1
102
RTVSPost2010Prop46
 90
       50
102
RTVSPost2010PropOp46
 70
     1
102
RTVSPost2010Prop47
 90
       50
102
RTVSPost2010PropOp47
 70
     1
102
RTVSPost2010Prop48
 90
       50
102
RTVSPost2010PropOp48
 70
     1
102
RTVSPost2010Prop49
280
     0
102
RTVSPost2010PropOp49
 70
     1
102
RTVSPost2010Prop50
 90
       50
102
RTVSPost2010PropOp50
 70
     1
102
RTVSPost2010Prop51ColorIndex
 90
      256
102
RTVSPost2010Prop51ColorRGB
 90
-16777216
102
RTVSPost2010PropOp51
 70
     0
102
RTVSPost2010Prop52
140
1.0
102
RTVSPost2010PropOp52
 70
     0
102
RTVSPost2010Prop53
 90
        2
102
RTVSPost2010PropOp53
 70
     1
102
RTVSPost2010Prop54
  1
strokes_ogs.tif
102
RTVSPost2010PropOp54
 70
     1
102
RTVSPost2010Prop55
280
     0
102
RTVSPost2010PropOp55
 70
     1
102
RTVSPost2010Prop56
140
1.0
102
RTVSPost2010PropOp56
 70
     1
102
RTVSPost2010Prop57
140
1.0
102
RTVSPost2010PropOp57
 70
     1
102
RTVSPropertyOp0
 70
     1
102
RTVSPropertyOp1
 70
     1
102
RTVSPropertyOp2
 70
     1
102
RTVSPropertyOp3
 70
     1
102
RTVSPropertyOp4
 70
     1
102
RTVSPropertyOp5
 70
     1
102
RTVSPropertyOp6
 70
     1
102
RTVSPropertyOp7
 70
     1
102
RTVSPropertyOp8
 70
     1
102
RTVSPropertyOp9
 70
     1
102
RTVSPropertyOp10
 70
     1
102
RTVSPropertyOp11
 70
     1
102
RTVSPropertyOp12
 70
     1
102
RTVSPropertyOp13
 70
     1
102
RTVSPropertyOp14
 70
     1
102
RTVSPropertyOp15
 70
     1
102
RTVSPropertyOp16
 70
     1
102
RTVSPropertyOp17
 70
     1
102
RTVSPropertyOp18
 70
     1
102
RTVSPropertyOp19
 70
     1
102
RTVSPropertyOp20
 70
     1
102
RTVSPropertyOp21
 70
     1
102
RTVSPropertyOp22
 70
     1
102
RTVSPropertyOp23
 70
     1
102
RTVSPropertyOp24
 70
     1
102
RTVSPropertyOp25
 70
     1
102
RTVSPropertyOp26
 70
     1
102
RTVSPropertyOp27
 70
     1
102
RTVSPropertyOp28
 70
     1
102
RTVSPropertyOp29
 70
     1
102
RTVSPropertyOp30
 70
     1
102
RTVSPropertyOp31
 70
     1
102
RTVSPropertyOp32
 70
     1
102
RTVSPropertyOp33
 70
     1
102
RTVSPropertyOp34
 70
     1
102
RTVSPropertyOp35
 70
     1
102
RTVSPropertyOp36
 70
     1
102
RTVSPropertyOp37
 70
     1
102
RTVSPropertyOp38
 70
     1
102
RTVSPropertyOp39
 70
     1
102
RTVSPropertyOp40
 70
     1
102
RTVSPropertyOp41
 70
     1
102
RTVSPropertyOp42
 70
     1
102
RTVSPropertyOp43
 70
     1
102
RTVSPropertyOp44
 70
     1
102
RTVSPropertyOp45
 70
     1
102
RTVSPropertyOp46
 70
     1
102
RTVSPropertyOp47
 70
     1
102
RTVSPropertyOp48
 70
     1
102
RTVSPropertyOp49
 70
     1
102
RTVSPropertyOp50
 70
     1
102
RTVSPropertyOp51
 70
     0
102
RTVSPropertyOp52
 70
     0
102
RTVSPropertyOp53
 70
     1
102
RTVSPropertyOp54
 70
     1
102
RTVSPropertyOp55
 70
     1
102
RTVSPropertyOp56
 70
     1
102
RTVSPropertyOp57
 70
     1
102
RTVSPropertyOp58
 70
     1
102
RTVSPropertyOp59
 70
     1
102
RTVSPropertyOp60
 70
     1
102
RTVSPropertyOp61
 70
     1
102
RTVSPropertyOp62
 70
     1
  0
XRECORD
  5
16E5
102
{ACAD_REACTORS
330
16E4
102
}
330
16E4
100
AcDbXrecord
280
     1
102
RTVSPost2010Prop28
280
     0
102
RTVSPost2010PropOp28
 70
     1
102
RTVSPost2010Prop29
280
     1
102
RTVSPost2010PropOp29
 70
     1
102
RTVSPost2010Prop30
280
     1
102
RTVSPost2010PropOp30
 70
     1
102
RTVSPost2010Prop31
280
     0
102
RTVSPost2010PropOp31
 70
     1
102
RTVSPost2010Prop32
280
     0
102
RTVSPost2010PropOp32
 70
     1
102
RTVSPost2010Prop33
280
     0
102
RTVSPost2010PropOp33
 70
     1
102
RTVSPost2010Prop34
280
     0
102
RTVSPost2010PropOp34
 70
     1
102
RTVSPost2010Prop35
280
     0
102
RTVSPost2010PropOp35
 70
     1
102
RTVSPost2010Prop36
280
     0
102
RTVSPost2010PropOp36
 70
     1
102
RTVSPost2010Prop37
 90
       50
102
RTVSPost2010PropOp37
 70
     1
102
RTVSPost2010Prop38
140
0.0
102
RTVSPost2010PropOp38
 70
     1
102
RTVSPost2010Prop39
140
1.0
102
RTVSPost2010PropOp39
 70
     1
102
RTVSPost2010Prop40
 90
        0
102
RTVSPost2010PropOp40
 70
     1
102
RTVSPost2010Prop41ColorIndex
 90
       18
102
RTVSPost2010Prop41ColorRGB
 90
        0
102
RTVSPost2010PropOp41
 70
     1
102
RTVSPost2010Prop42
 90
       50
102
RTVSPost2010PropOp42
 70
     1
102
RTVSPost2010Prop43
 90
        3
102
RTVSPost2010PropOp43
 70
     1
102
RTVSPost2010Prop44ColorIndex
 90
        5
102
RTVSPost2010Prop44ColorRGB
 90
      255
102
RTVSPost2010PropOp44
 70
     1
102
RTVSPost2010Prop45
280
     0
102
RTVSPost2010PropOp45
 70
     1
102
RTVSPost2010Prop46
 90
       50
102
RTVSPost2010PropOp46
 70
     1
102
RTVSPost2010Prop47
 90
       50
102
RTVSPost2010PropOp47
 70
     1
102
RTVSPost2010Prop48
 90
       50
102
RTVSPost2010PropOp48
 70
     1
102
RTVSPost2010Prop49
280
     0
102
RTVSPost2010PropOp49
 70
     1
102
RTVSPost2010Prop50
 90
       50
102
RTVSPost2010PropOp50
 70
     1
102
RTVSPost2010Prop51ColorIndex
 90
      256
102
RTVSPost2010Prop51ColorRGB
 90
-16777216
102
RTVSPost2010PropOp51
 70
     0
102
RTVSPost2010Prop52
140
1.0
102
RTVSPost2010PropOp52
 70
     0
102
RTVSPost2010Prop53
 90
        2
102
RTVSPost2010PropOp53
 70
     1
102
RTVSPost2010Prop54
  1
strokes_ogs.tif
102
RTVSPost2010PropOp54
 70
     1
102
RTVSPost2010Prop55
280
     0
102
RTVSPost2010PropOp55
 70
     1
102
RTVSPost2010Prop56
140
1.0
102
RTVSPost2010PropOp56
 70
     1
102
RTVSPost2010Prop57
140
1.0
102
RTVSPost2010PropOp57
 70
     1
102
RTVSPropertyOp0
 70
     1
102
RTVSPropertyOp1
 70
     1
102
RTVSPropertyOp2
 70
     1
102
RTVSPropertyOp3
 70
     1
102
RTVSPropertyOp4
 70
     1
102
RTVSPropertyOp5
 70
     1
102
RTVSPropertyOp6
 70
     1
102
RTVSPropertyOp7
 70
     1
102
RTVSPropertyOp8
 70
     1
102
RTVSPropertyOp9
 70
     1
102
RTVSPropertyOp10
 70
     1
102
RTVSPropertyOp11
 70
     1
102
RTVSPropertyOp12
 70
     1
102
RTVSPropertyOp13
 70
     1
102
RTVSPropertyOp14
 70
     1
102
RTVSPropertyOp15
 70
     1
102
RTVSPropertyOp16
 70
     1
102
RTVSPropertyOp17
 70
     1
102
RTVSPropertyOp18
 70
     1
102
RTVSPropertyOp19
 70
     1
102
RTVSPropertyOp20
 70
     1
102
RTVSPropertyOp21
 70
     1
102
RTVSPropertyOp22
 70
     1
102
RTVSPropertyOp23
 70
     1
102
RTVSPropertyOp24
 70
     1
102
RTVSPropertyOp25
 70
     1
102
RTVSPropertyOp26
 70
     1
102
RTVSPropertyOp27
 70
     1
102
RTVSPropertyOp28
 70
     1
102
RTVSPropertyOp29
 70
     1
102
RTVSPropertyOp30
 70
     1
102
RTVSPropertyOp31
 70
     1
102
RTVSPropertyOp32
 70
     1
102
RTVSPropertyOp33
 70
     1
102
RTVSPropertyOp34
 70
     1
102
RTVSPropertyOp35
 70
     1
102
RTVSPropertyOp36
 70
     1
102
RTVSPropertyOp37
 70
     1
102
RTVSPropertyOp38
 70
     1
102
RTVSPropertyOp39
 70
     1
102
RTVSPropertyOp40
 70
     1
102
RTVSPropertyOp41
 70
     1
102
RTVSPropertyOp42
 70
     1
102
RTVSPropertyOp43
 70
     1
102
RTVSPropertyOp44
 70
     1
102
RTVSPropertyOp45
 70
     1
102
RTVSPropertyOp46
 70
     1
102
RTVSPropertyOp47
 70
     1
102
RTVSPropertyOp48
 70
     1
102
RTVSPropertyOp49
 70
     1
102
RTVSPropertyOp50
 70
     1
102
RTVSPropertyOp51
 70
     0
102
RTVSPropertyOp52
 70
     0
102
RTVSPropertyOp53
 70
     1
102
RTVSPropertyOp54
 70
     1
102
RTVSPropertyOp55
 70
     1
102
RTVSPropertyOp56
 70
     1
102
RTVSPropertyOp57
 70
     1
102
RTVSPropertyOp58
 70
     1
102
RTVSPropertyOp59
 70
     1
102
RTVSPropertyOp60
 70
     1
102
RTVSPropertyOp61
 70
     1
102
RTVSPropertyOp62
 70
     1
  0
XRECORD
  5
16DF
102
{ACAD_REACTORS
330
16DE
102
}
330
16DE
100
AcDbXrecord
280
     1
102
RTVSPost2010Prop28
280
     0
102
RTVSPost2010PropOp28
 70
     1
102
RTVSPost2010Prop29
280
     1
102
RTVSPost2010PropOp29
 70
     1
102
RTVSPost2010Prop30
280
     1
102
RTVSPost2010PropOp30
 70
     1
102
RTVSPost2010Prop31
280
     0
102
RTVSPost2010PropOp31
 70
     1
102
RTVSPost2010Prop32
280
     0
102
RTVSPost2010PropOp32
 70
     1
102
RTVSPost2010Prop33
280
     0
102
RTVSPost2010PropOp33
 70
     1
102
RTVSPost2010Prop34
280
     0
102
RTVSPost2010PropOp34
 70
     1
102
RTVSPost2010Prop35
280
     0
102
RTVSPost2010PropOp35
 70
     1
102
RTVSPost2010Prop36
280
     0
102
RTVSPost2010PropOp36
 70
     1
102
RTVSPost2010Prop37
 90
       50
102
RTVSPost2010PropOp37
 70
     1
102
RTVSPost2010Prop38
140
0.0
102
RTVSPost2010PropOp38
 70
     1
102
RTVSPost2010Prop39
140
1.0
102
RTVSPost2010PropOp39
 70
     1
102
RTVSPost2010Prop40
 90
        0
102
RTVSPost2010PropOp40
 70
     1
102
RTVSPost2010Prop41ColorIndex
 90
       18
102
RTVSPost2010Prop41ColorRGB
 90
        0
102
RTVSPost2010PropOp41
 70
     1
102
RTVSPost2010Prop42
 90
       50
102
RTVSPost2010PropOp42
 70
     1
102
RTVSPost2010Prop43
 90
        3
102
RTVSPost2010PropOp43
 70
     1
102
RTVSPost2010Prop44ColorIndex
 90
        5
102
RTVSPost2010Prop44ColorRGB
 90
      255
102
RTVSPost2010PropOp44
 70
     1
102
RTVSPost2010Prop45
280
     0
102
RTVSPost2010PropOp45
 70
     1
102
RTVSPost2010Prop46
 90
       50
102
RTVSPost2010PropOp46
 70
     1
102
RTVSPost2010Prop47
 90
       50
102
RTVSPost2010PropOp47
 70
     1
102
RTVSPost2010Prop48
 90
       50
102
RTVSPost2010PropOp48
 70
     1
102
RTVSPost2010Prop49
280
     0
102
RTVSPost2010PropOp49
 70
     1
102
RTVSPost2010Prop50
 90
       50
102
RTVSPost2010PropOp50
 70
     1
102
RTVSPost2010Prop51ColorIndex
 90
      256
102
RTVSPost2010Prop51ColorRGB
 90
-16777216
102
RTVSPost2010PropOp51
 70
     0
102
RTVSPost2010Prop52
140
1.0
102
RTVSPost2010PropOp52
 70
     0
102
RTVSPost2010Prop53
 90
        2
102
RTVSPost2010PropOp53
 70
     1
102
RTVSPost2010Prop54
  1
strokes_ogs.tif
102
RTVSPost2010PropOp54
 70
     1
102
RTVSPost2010Prop55
280
     0
102
RTVSPost2010PropOp55
 70
     1
102
RTVSPost2010Prop56
140
1.0
102
RTVSPost2010PropOp56
 70
     1
102
RTVSPost2010Prop57
140
1.0
102
RTVSPost2010PropOp57
 70
     1
102
RTVSPropertyOp0
 70
     1
102
RTVSPropertyOp1
 70
     1
102
RTVSPropertyOp2
 70
     1
102
RTVSPropertyOp3
 70
     1
102
RTVSPropertyOp4
 70
     1
102
RTVSPropertyOp5
 70
     1
102
RTVSPropertyOp6
 70
     1
102
RTVSPropertyOp7
 70
     1
102
RTVSPropertyOp8
 70
     1
102
RTVSPropertyOp9
 70
     1
102
RTVSPropertyOp10
 70
     1
102
RTVSPropertyOp11
 70
     1
102
RTVSPropertyOp12
 70
     1
102
RTVSPropertyOp13
 70
     1
102
RTVSPropertyOp14
 70
     1
102
RTVSPropertyOp15
 70
     1
102
RTVSPropertyOp16
 70
     1
102
RTVSPropertyOp17
 70
     1
102
RTVSPropertyOp18
 70
     1
102
RTVSPropertyOp19
 70
     1
102
RTVSPropertyOp20
 70
     1
102
RTVSPropertyOp21
 70
     1
102
RTVSPropertyOp22
 70
     1
102
RTVSPropertyOp23
 70
     1
102
RTVSPropertyOp24
 70
     1
102
RTVSPropertyOp25
 70
     1
102
RTVSPropertyOp26
 70
     1
102
RTVSPropertyOp27
 70
     1
102
RTVSPropertyOp28
 70
     1
102
RTVSPropertyOp29
 70
     1
102
RTVSPropertyOp30
 70
     1
102
RTVSPropertyOp31
 70
     1
102
RTVSPropertyOp32
 70
     1
102
RTVSPropertyOp33
 70
     1
102
RTVSPropertyOp34
 70
     1
102
RTVSPropertyOp35
 70
     1
102
RTVSPropertyOp36
 70
     1
102
RTVSPropertyOp37
 70
     1
102
RTVSPropertyOp38
 70
     1
102
RTVSPropertyOp39
 70
     1
102
RTVSPropertyOp40
 70
     1
102
RTVSPropertyOp41
 70
     1
102
RTVSPropertyOp42
 70
     1
102
RTVSPropertyOp43
 70
     1
102
RTVSPropertyOp44
 70
     1
102
RTVSPropertyOp45
 70
     1
102
RTVSPropertyOp46
 70
     1
102
RTVSPropertyOp47
 70
     1
102
RTVSPropertyOp48
 70
     1
102
RTVSPropertyOp49
 70
     1
102
RTVSPropertyOp50
 70
     1
102
RTVSPropertyOp51
 70
     0
102
RTVSPropertyOp52
 70
     0
102
RTVSPropertyOp53
 70
     1
102
RTVSPropertyOp54
 70
     1
102
RTVSPropertyOp55
 70
     1
102
RTVSPropertyOp56
 70
     1
102
RTVSPropertyOp57
 70
     1
102
RTVSPropertyOp58
 70
     1
102
RTVSPropertyOp59
 70
     1
102
RTVSPropertyOp60
 70
     1
102
RTVSPropertyOp61
 70
     1
102
RTVSPropertyOp62
 70
     1
  0
XRECORD
  5
16E1
102
{ACAD_REACTORS
330
16E0
102
}
330
16E0
100
AcDbXrecord
280
     1
102
RTVSPost2010Prop28
280
     0
102
RTVSPost2010PropOp28
 70
     1
102
RTVSPost2010Prop29
280
     1
102
RTVSPost2010PropOp29
 70
     1
102
RTVSPost2010Prop30
280
     1
102
RTVSPost2010PropOp30
 70
     1
102
RTVSPost2010Prop31
280
     0
102
RTVSPost2010PropOp31
 70
     1
102
RTVSPost2010Prop32
280
     0
102
RTVSPost2010PropOp32
 70
     1
102
RTVSPost2010Prop33
280
     0
102
RTVSPost2010PropOp33
 70
     1
102
RTVSPost2010Prop34
280
     0
102
RTVSPost2010PropOp34
 70
     1
102
RTVSPost2010Prop35
280
     0
102
RTVSPost2010PropOp35
 70
     1
102
RTVSPost2010Prop36
280
     0
102
RTVSPost2010PropOp36
 70
     1
102
RTVSPost2010Prop37
 90
       50
102
RTVSPost2010PropOp37
 70
     1
102
RTVSPost2010Prop38
140
0.0
102
RTVSPost2010PropOp38
 70
     1
102
RTVSPost2010Prop39
140
1.0
102
RTVSPost2010PropOp39
 70
     1
102
RTVSPost2010Prop40
 90
        0
102
RTVSPost2010PropOp40
 70
     1
102
RTVSPost2010Prop41ColorIndex
 90
       18
102
RTVSPost2010Prop41ColorRGB
 90
        0
102
RTVSPost2010PropOp41
 70
     1
102
RTVSPost2010Prop42
 90
       50
102
RTVSPost2010PropOp42
 70
     1
102
RTVSPost2010Prop43
 90
        3
102
RTVSPost2010PropOp43
 70
     1
102
RTVSPost2010Prop44ColorIndex
 90
        5
102
RTVSPost2010Prop44ColorRGB
 90
      255
102
RTVSPost2010PropOp44
 70
     1
102
RTVSPost2010Prop45
280
     0
102
RTVSPost2010PropOp45
 70
     1
102
RTVSPost2010Prop46
 90
       50
102
RTVSPost2010PropOp46
 70
     1
102
RTVSPost2010Prop47
 90
       50
102
RTVSPost2010PropOp47
 70
     1
102
RTVSPost2010Prop48
 90
       50
102
RTVSPost2010PropOp48
 70
     1
102
RTVSPost2010Prop49
280
     0
102
RTVSPost2010PropOp49
 70
     1
102
RTVSPost2010Prop50
 90
       50
102
RTVSPost2010PropOp50
 70
     1
102
RTVSPost2010Prop51ColorIndex
 90
      256
102
RTVSPost2010Prop51ColorRGB
 90
-16777216
102
RTVSPost2010PropOp51
 70
     0
102
RTVSPost2010Prop52
140
1.0
102
RTVSPost2010PropOp52
 70
     0
102
RTVSPost2010Prop53
 90
        2
102
RTVSPost2010PropOp53
 70
     1
102
RTVSPost2010Prop54
  1
strokes_ogs.tif
102
RTVSPost2010PropOp54
 70
     1
102
RTVSPost2010Prop55
280
     0
102
RTVSPost2010PropOp55
 70
     1
102
RTVSPost2010Prop56
140
1.0
102
RTVSPost2010PropOp56
 70
     1
102
RTVSPost2010Prop57
140
1.0
102
RTVSPost2010PropOp57
 70
     1
102
RTVSPropertyOp0
 70
     1
102
RTVSPropertyOp1
 70
     1
102
RTVSPropertyOp2
 70
     1
102
RTVSPropertyOp3
 70
     1
102
RTVSPropertyOp4
 70
     1
102
RTVSPropertyOp5
 70
     1
102
RTVSPropertyOp6
 70
     1
102
RTVSPropertyOp7
 70
     1
102
RTVSPropertyOp8
 70
     1
102
RTVSPropertyOp9
 70
     1
102
RTVSPropertyOp10
 70
     1
102
RTVSPropertyOp11
 70
     1
102
RTVSPropertyOp12
 70
     1
102
RTVSPropertyOp13
 70
     1
102
RTVSPropertyOp14
 70
     1
102
RTVSPropertyOp15
 70
     1
102
RTVSPropertyOp16
 70
     1
102
RTVSPropertyOp17
 70
     1
102
RTVSPropertyOp18
 70
     1
102
RTVSPropertyOp19
 70
     1
102
RTVSPropertyOp20
 70
     1
102
RTVSPropertyOp21
 70
     1
102
RTVSPropertyOp22
 70
     1
102
RTVSPropertyOp23
 70
     1
102
RTVSPropertyOp24
 70
     1
102
RTVSPropertyOp25
 70
     1
102
RTVSPropertyOp26
 70
     1
102
RTVSPropertyOp27
 70
     1
102
RTVSPropertyOp28
 70
     1
102
RTVSPropertyOp29
 70
     1
102
RTVSPropertyOp30
 70
     1
102
RTVSPropertyOp31
 70
     1
102
RTVSPropertyOp32
 70
     1
102
RTVSPropertyOp33
 70
     1
102
RTVSPropertyOp34
 70
     1
102
RTVSPropertyOp35
 70
     1
102
RTVSPropertyOp36
 70
     1
102
RTVSPropertyOp37
 70
     1
102
RTVSPropertyOp38
 70
     1
102
RTVSPropertyOp39
 70
     1
102
RTVSPropertyOp40
 70
     1
102
RTVSPropertyOp41
 70
     1
102
RTVSPropertyOp42
 70
     1
102
RTVSPropertyOp43
 70
     1
102
RTVSPropertyOp44
 70
     1
102
RTVSPropertyOp45
 70
     1
102
RTVSPropertyOp46
 70
     1
102
RTVSPropertyOp47
 70
     1
102
RTVSPropertyOp48
 70
     1
102
RTVSPropertyOp49
 70
     1
102
RTVSPropertyOp50
 70
     1
102
RTVSPropertyOp51
 70
     0
102
RTVSPropertyOp52
 70
     0
102
RTVSPropertyOp53
 70
     1
102
RTVSPropertyOp54
 70
     1
102
RTVSPropertyOp55
 70
     1
102
RTVSPropertyOp56
 70
     1
102
RTVSPropertyOp57
 70
     1
102
RTVSPropertyOp58
 70
     1
102
RTVSPropertyOp59
 70
     1
102
RTVSPropertyOp60
 70
     1
102
RTVSPropertyOp61
 70
     1
102
RTVSPropertyOp62
 70
     1
  0
XRECORD
  5
16D7
102
{ACAD_REACTORS
330
16D6
102
}
330
16D6
100
AcDbXrecord
280
     1
102
RTVSPost2010Prop28
280
     0
102
RTVSPost2010PropOp28
 70
     1
102
RTVSPost2010Prop29
280
     1
102
RTVSPost2010PropOp29
 70
     1
102
RTVSPost2010Prop30
280
     1
102
RTVSPost2010PropOp30
 70
     1
102
RTVSPost2010Prop31
280
     0
102
RTVSPost2010PropOp31
 70
     1
102
RTVSPost2010Prop32
280
     0
102
RTVSPost2010PropOp32
 70
     1
102
RTVSPost2010Prop33
280
     0
102
RTVSPost2010PropOp33
 70
     1
102
RTVSPost2010Prop34
280
     0
102
RTVSPost2010PropOp34
 70
     1
102
RTVSPost2010Prop35
280
     0
102
RTVSPost2010PropOp35
 70
     1
102
RTVSPost2010Prop36
280
     0
102
RTVSPost2010PropOp36
 70
     1
102
RTVSPost2010Prop37
 90
       50
102
RTVSPost2010PropOp37
 70
     1
102
RTVSPost2010Prop38
140
0.0
102
RTVSPost2010PropOp38
 70
     1
102
RTVSPost2010Prop39
140
1.0
102
RTVSPost2010PropOp39
 70
     1
102
RTVSPost2010Prop40
 90
        0
102
RTVSPost2010PropOp40
 70
     1
102
RTVSPost2010Prop41ColorIndex
 90
       18
102
RTVSPost2010Prop41ColorRGB
 90
        0
102
RTVSPost2010PropOp41
 70
     1
102
RTVSPost2010Prop42
 90
       50
102
RTVSPost2010PropOp42
 70
     1
102
RTVSPost2010Prop43
 90
        3
102
RTVSPost2010PropOp43
 70
     1
102
RTVSPost2010Prop44ColorIndex
 90
        5
102
RTVSPost2010Prop44ColorRGB
 90
      255
102
RTVSPost2010PropOp44
 70
     1
102
RTVSPost2010Prop45
280
     0
102
RTVSPost2010PropOp45
 70
     1
102
RTVSPost2010Prop46
 90
       50
102
RTVSPost2010PropOp46
 70
     1
102
RTVSPost2010Prop47
 90
       50
102
RTVSPost2010PropOp47
 70
     1
102
RTVSPost2010Prop48
 90
       50
102
RTVSPost2010PropOp48
 70
     1
102
RTVSPost2010Prop49
280
     0
102
RTVSPost2010PropOp49
 70
     1
102
RTVSPost2010Prop50
 90
       50
102
RTVSPost2010PropOp50
 70
     1
102
RTVSPost2010Prop51ColorIndex
 90
      256
102
RTVSPost2010Prop51ColorRGB
 90
-16777216
102
RTVSPost2010PropOp51
 70
     0
102
RTVSPost2010Prop52
140
1.0
102
RTVSPost2010PropOp52
 70
     0
102
RTVSPost2010Prop53
 90
        2
102
RTVSPost2010PropOp53
 70
     1
102
RTVSPost2010Prop54
  1
strokes_ogs.tif
102
RTVSPost2010PropOp54
 70
     1
102
RTVSPost2010Prop55
280
     0
102
RTVSPost2010PropOp55
 70
     1
102
RTVSPost2010Prop56
140
1.0
102
RTVSPost2010PropOp56
 70
     1
102
RTVSPost2010Prop57
140
1.0
102
RTVSPost2010PropOp57
 70
     1
102
RTVSPropertyOp0
 70
     1
102
RTVSPropertyOp1
 70
     1
102
RTVSPropertyOp2
 70
     1
102
RTVSPropertyOp3
 70
     1
102
RTVSPropertyOp4
 70
     1
102
RTVSPropertyOp5
 70
     1
102
RTVSPropertyOp6
 70
     1
102
RTVSPropertyOp7
 70
     1
102
RTVSPropertyOp8
 70
     1
102
RTVSPropertyOp9
 70
     1
102
RTVSPropertyOp10
 70
     1
102
RTVSPropertyOp11
 70
     1
102
RTVSPropertyOp12
 70
     1
102
RTVSPropertyOp13
 70
     1
102
RTVSPropertyOp14
 70
     1
102
RTVSPropertyOp15
 70
     1
102
RTVSPropertyOp16
 70
     1
102
RTVSPropertyOp17
 70
     1
102
RTVSPropertyOp18
 70
     1
102
RTVSPropertyOp19
 70
     1
102
RTVSPropertyOp20
 70
     1
102
RTVSPropertyOp21
 70
     1
102
RTVSPropertyOp22
 70
     1
102
RTVSPropertyOp23
 70
     1
102
RTVSPropertyOp24
 70
     1
102
RTVSPropertyOp25
 70
     1
102
RTVSPropertyOp26
 70
     1
102
RTVSPropertyOp27
 70
     1
102
RTVSPropertyOp28
 70
     1
102
RTVSPropertyOp29
 70
     1
102
RTVSPropertyOp30
 70
     1
102
RTVSPropertyOp31
 70
     1
102
RTVSPropertyOp32
 70
     1
102
RTVSPropertyOp33
 70
     1
102
RTVSPropertyOp34
 70
     1
102
RTVSPropertyOp35
 70
     1
102
RTVSPropertyOp36
 70
     1
102
RTVSPropertyOp37
 70
     1
102
RTVSPropertyOp38
 70
     1
102
RTVSPropertyOp39
 70
     1
102
RTVSPropertyOp40
 70
     1
102
RTVSPropertyOp41
 70
     1
102
RTVSPropertyOp42
 70
     1
102
RTVSPropertyOp43
 70
     1
102
RTVSPropertyOp44
 70
     1
102
RTVSPropertyOp45
 70
     1
102
RTVSPropertyOp46
 70
     1
102
RTVSPropertyOp47
 70
     1
102
RTVSPropertyOp48
 70
     1
102
RTVSPropertyOp49
 70
     1
102
RTVSPropertyOp50
 70
     1
102
RTVSPropertyOp51
 70
     0
102
RTVSPropertyOp52
 70
     0
102
RTVSPropertyOp53
 70
     1
102
RTVSPropertyOp54
 70
     1
102
RTVSPropertyOp55
 70
     1
102
RTVSPropertyOp56
 70
     1
102
RTVSPropertyOp57
 70
     1
102
RTVSPropertyOp58
 70
     1
102
RTVSPropertyOp59
 70
     1
102
RTVSPropertyOp60
 70
     1
102
RTVSPropertyOp61
 70
     1
102
RTVSPropertyOp62
 70
     1
  0
XRECORD
  5
16CB
102
{ACAD_REACTORS
330
16CA
102
}
330
16CA
100
AcDbXrecord
280
     1
102
RTVSPost2010Prop28
280
     0
102
RTVSPost2010PropOp28
 70
     1
102
RTVSPost2010Prop29
280
     1
102
RTVSPost2010PropOp29
 70
     1
102
RTVSPost2010Prop30
280
     1
102
RTVSPost2010PropOp30
 70
     1
102
RTVSPost2010Prop31
280
     0
102
RTVSPost2010PropOp31
 70
     1
102
RTVSPost2010Prop32
280
     0
102
RTVSPost2010PropOp32
 70
     1
102
RTVSPost2010Prop33
280
     0
102
RTVSPost2010PropOp33
 70
     1
102
RTVSPost2010Prop34
280
     0
102
RTVSPost2010PropOp34
 70
     1
102
RTVSPost2010Prop35
280
     0
102
RTVSPost2010PropOp35
 70
     1
102
RTVSPost2010Prop36
280
     0
102
RTVSPost2010PropOp36
 70
     1
102
RTVSPost2010Prop37
 90
       50
102
RTVSPost2010PropOp37
 70
     1
102
RTVSPost2010Prop38
140
0.0
102
RTVSPost2010PropOp38
 70
     1
102
RTVSPost2010Prop39
140
1.0
102
RTVSPost2010PropOp39
 70
     1
102
RTVSPost2010Prop40
 90
        0
102
RTVSPost2010PropOp40
 70
     1
102
RTVSPost2010Prop41ColorIndex
 90
       18
102
RTVSPost2010Prop41ColorRGB
 90
        0
102
RTVSPost2010PropOp41
 70
     1
102
RTVSPost2010Prop42
 90
       50
102
RTVSPost2010PropOp42
 70
     1
102
RTVSPost2010Prop43
 90
        3
102
RTVSPost2010PropOp43
 70
     1
102
RTVSPost2010Prop44ColorIndex
 90
        5
102
RTVSPost2010Prop44ColorRGB
 90
      255
102
RTVSPost2010PropOp44
 70
     1
102
RTVSPost2010Prop45
280
     0
102
RTVSPost2010PropOp45
 70
     1
102
RTVSPost2010Prop46
 90
       50
102
RTVSPost2010PropOp46
 70
     1
102
RTVSPost2010Prop47
 90
       50
102
RTVSPost2010PropOp47
 70
     1
102
RTVSPost2010Prop48
 90
       50
102
RTVSPost2010PropOp48
 70
     1
102
RTVSPost2010Prop49
280
     0
102
RTVSPost2010PropOp49
 70
     1
102
RTVSPost2010Prop50
 90
       50
102
RTVSPost2010PropOp50
 70
     1
102
RTVSPost2010Prop51ColorIndex
 90
      256
102
RTVSPost2010Prop51ColorRGB
 90
-16777216
102
RTVSPost2010PropOp51
 70
     0
102
RTVSPost2010Prop52
140
1.0
102
RTVSPost2010PropOp52
 70
     0
102
RTVSPost2010Prop53
 90
        2
102
RTVSPost2010PropOp53
 70
     1
102
RTVSPost2010Prop54
  1
strokes_ogs.tif
102
RTVSPost2010PropOp54
 70
     1
102
RTVSPost2010Prop55
280
     0
102
RTVSPost2010PropOp55
 70
     1
102
RTVSPost2010Prop56
140
1.0
102
RTVSPost2010PropOp56
 70
     1
102
RTVSPost2010Prop57
140
1.0
102
RTVSPost2010PropOp57
 70
     1
102
RTVSPropertyOp0
 70
     1
102
RTVSPropertyOp1
 70
     1
102
RTVSPropertyOp2
 70
     1
102
RTVSPropertyOp3
 70
     1
102
RTVSPropertyOp4
 70
     1
102
RTVSPropertyOp5
 70
     1
102
RTVSPropertyOp6
 70
     1
102
RTVSPropertyOp7
 70
     1
102
RTVSPropertyOp8
 70
     1
102
RTVSPropertyOp9
 70
     1
102
RTVSPropertyOp10
 70
     1
102
RTVSPropertyOp11
 70
     1
102
RTVSPropertyOp12
 70
     1
102
RTVSPropertyOp13
 70
     1
102
RTVSPropertyOp14
 70
     1
102
RTVSPropertyOp15
 70
     1
102
RTVSPropertyOp16
 70
     1
102
RTVSPropertyOp17
 70
     1
102
RTVSPropertyOp18
 70
     1
102
RTVSPropertyOp19
 70
     1
102
RTVSPropertyOp20
 70
     1
102
RTVSPropertyOp21
 70
     1
102
RTVSPropertyOp22
 70
     1
102
RTVSPropertyOp23
 70
     1
102
RTVSPropertyOp24
 70
     1
102
RTVSPropertyOp25
 70
     1
102
RTVSPropertyOp26
 70
     1
102
RTVSPropertyOp27
 70
     1
102
RTVSPropertyOp28
 70
     1
102
RTVSPropertyOp29
 70
     1
102
RTVSPropertyOp30
 70
     1
102
RTVSPropertyOp31
 70
     1
102
RTVSPropertyOp32
 70
     1
102
RTVSPropertyOp33
 70
     1
102
RTVSPropertyOp34
 70
     1
102
RTVSPropertyOp35
 70
     1
102
RTVSPropertyOp36
 70
     1
102
RTVSPropertyOp37
 70
     1
102
RTVSPropertyOp38
 70
     1
102
RTVSPropertyOp39
 70
     1
102
RTVSPropertyOp40
 70
     1
102
RTVSPropertyOp41
 70
     1
102
RTVSPropertyOp42
 70
     1
102
RTVSPropertyOp43
 70
     1
102
RTVSPropertyOp44
 70
     1
102
RTVSPropertyOp45
 70
     1
102
RTVSPropertyOp46
 70
     1
102
RTVSPropertyOp47
 70
     1
102
RTVSPropertyOp48
 70
     1
102
RTVSPropertyOp49
 70
     1
102
RTVSPropertyOp50
 70
     1
102
RTVSPropertyOp51
 70
     0
102
RTVSPropertyOp52
 70
     0
102
RTVSPropertyOp53
 70
     1
102
RTVSPropertyOp54
 70
     1
102
RTVSPropertyOp55
 70
     1
102
RTVSPropertyOp56
 70
     1
102
RTVSPropertyOp57
 70
     1
102
RTVSPropertyOp58
 70
     1
102
RTVSPropertyOp59
 70
     1
102
RTVSPropertyOp60
 70
     1
102
RTVSPropertyOp61
 70
     1
102
RTVSPropertyOp62
 70
     1
  0
XRECORD
  5
16E3
102
{ACAD_REACTORS
330
16E2
102
}
330
16E2
100
AcDbXrecord
280
     1
102
RTVSPost2010Prop28
280
     0
102
RTVSPost2010PropOp28
 70
     1
102
RTVSPost2010Prop29
280
     1
102
RTVSPost2010PropOp29
 70
     1
102
RTVSPost2010Prop30
280
     1
102
RTVSPost2010PropOp30
 70
     1
102
RTVSPost2010Prop31
280
     0
102
RTVSPost2010PropOp31
 70
     1
102
RTVSPost2010Prop32
280
     0
102
RTVSPost2010PropOp32
 70
     1
102
RTVSPost2010Prop33
280
     0
102
RTVSPost2010PropOp33
 70
     1
102
RTVSPost2010Prop34
280
     0
102
RTVSPost2010PropOp34
 70
     1
102
RTVSPost2010Prop35
280
     0
102
RTVSPost2010PropOp35
 70
     1
102
RTVSPost2010Prop36
280
     0
102
RTVSPost2010PropOp36
 70
     1
102
RTVSPost2010Prop37
 90
       50
102
RTVSPost2010PropOp37
 70
     1
102
RTVSPost2010Prop38
140
0.0
102
RTVSPost2010PropOp38
 70
     1
102
RTVSPost2010Prop39
140
1.0
102
RTVSPost2010PropOp39
 70
     1
102
RTVSPost2010Prop40
 90
        0
102
RTVSPost2010PropOp40
 70
     1
102
RTVSPost2010Prop41ColorIndex
 90
       18
102
RTVSPost2010Prop41ColorRGB
 90
        0
102
RTVSPost2010PropOp41
 70
     1
102
RTVSPost2010Prop42
 90
       50
102
RTVSPost2010PropOp42
 70
     1
102
RTVSPost2010Prop43
 90
        3
102
RTVSPost2010PropOp43
 70
     1
102
RTVSPost2010Prop44ColorIndex
 90
        5
102
RTVSPost2010Prop44ColorRGB
 90
      255
102
RTVSPost2010PropOp44
 70
     1
102
RTVSPost2010Prop45
280
     0
102
RTVSPost2010PropOp45
 70
     1
102
RTVSPost2010Prop46
 90
       50
102
RTVSPost2010PropOp46
 70
     1
102
RTVSPost2010Prop47
 90
       50
102
RTVSPost2010PropOp47
 70
     1
102
RTVSPost2010Prop48
 90
       50
102
RTVSPost2010PropOp48
 70
     1
102
RTVSPost2010Prop49
280
     0
102
RTVSPost2010PropOp49
 70
     1
102
RTVSPost2010Prop50
 90
       50
102
RTVSPost2010PropOp50
 70
     1
102
RTVSPost2010Prop51ColorIndex
 90
      256
102
RTVSPost2010Prop51ColorRGB
 90
-16777216
102
RTVSPost2010PropOp51
 70
     0
102
RTVSPost2010Prop52
140
1.0
102
RTVSPost2010PropOp52
 70
     0
102
RTVSPost2010Prop53
 90
        2
102
RTVSPost2010PropOp53
 70
     1
102
RTVSPost2010Prop54
  1
strokes_ogs.tif
102
RTVSPost2010PropOp54
 70
     1
102
RTVSPost2010Prop55
280
     0
102
RTVSPost2010PropOp55
 70
     1
102
RTVSPost2010Prop56
140
1.0
102
RTVSPost2010PropOp56
 70
     1
102
RTVSPost2010Prop57
140
1.0
102
RTVSPost2010PropOp57
 70
     1
102
RTVSPropertyOp0
 70
     1
102
RTVSPropertyOp1
 70
     1
102
RTVSPropertyOp2
 70
     1
102
RTVSPropertyOp3
 70
     1
102
RTVSPropertyOp4
 70
     1
102
RTVSPropertyOp5
 70
     1
102
RTVSPropertyOp6
 70
     1
102
RTVSPropertyOp7
 70
     1
102
RTVSPropertyOp8
 70
     1
102
RTVSPropertyOp9
 70
     1
102
RTVSPropertyOp10
 70
     1
102
RTVSPropertyOp11
 70
     1
102
RTVSPropertyOp12
 70
     1
102
RTVSPropertyOp13
 70
     1
102
RTVSPropertyOp14
 70
     1
102
RTVSPropertyOp15
 70
     1
102
RTVSPropertyOp16
 70
     1
102
RTVSPropertyOp17
 70
     1
102
RTVSPropertyOp18
 70
     1
102
RTVSPropertyOp19
 70
     1
102
RTVSPropertyOp20
 70
     1
102
RTVSPropertyOp21
 70
     1
102
RTVSPropertyOp22
 70
     1
102
RTVSPropertyOp23
 70
     1
102
RTVSPropertyOp24
 70
     1
102
RTVSPropertyOp25
 70
     1
102
RTVSPropertyOp26
 70
     1
102
RTVSPropertyOp27
 70
     1
102
RTVSPropertyOp28
 70
     1
102
RTVSPropertyOp29
 70
     1
102
RTVSPropertyOp30
 70
     1
102
RTVSPropertyOp31
 70
     1
102
RTVSPropertyOp32
 70
     1
102
RTVSPropertyOp33
 70
     1
102
RTVSPropertyOp34
 70
     1
102
RTVSPropertyOp35
 70
     1
102
RTVSPropertyOp36
 70
     1
102
RTVSPropertyOp37
 70
     1
102
RTVSPropertyOp38
 70
     1
102
RTVSPropertyOp39
 70
     1
102
RTVSPropertyOp40
 70
     1
102
RTVSPropertyOp41
 70
     1
102
RTVSPropertyOp42
 70
     1
102
RTVSPropertyOp43
 70
     1
102
RTVSPropertyOp44
 70
     1
102
RTVSPropertyOp45
 70
     1
102
RTVSPropertyOp46
 70
     1
102
RTVSPropertyOp47
 70
     1
102
RTVSPropertyOp48
 70
     1
102
RTVSPropertyOp49
 70
     1
102
RTVSPropertyOp50
 70
     1
102
RTVSPropertyOp51
 70
     0
102
RTVSPropertyOp52
 70
     0
102
RTVSPropertyOp53
 70
     1
102
RTVSPropertyOp54
 70
     1
102
RTVSPropertyOp55
 70
     1
102
RTVSPropertyOp56
 70
     1
102
RTVSPropertyOp57
 70
     1
102
RTVSPropertyOp58
 70
     1
102
RTVSPropertyOp59
 70
     1
102
RTVSPropertyOp60
 70
     1
102
RTVSPropertyOp61
 70
     1
102
RTVSPropertyOp62
 70
     1
  0
ENDSEC
  0
EOF
