  0
SECTION
  2
HEADER
  9
$ACADVER
  1
AC1021
  9
$ACADMAINTVER
 70
    50
  9
$DWGCODEPAGE
  3
ANSI_1252
  9
$LASTSAVEDBY
  1
francoisbu
  9
$INSBASE
 10
0.0
 20
0.0
 30
0.0
  9
$EXTMIN
 10
18.97558638178663
 20
23.44124379005387
 30
-0.0015258207003583
  9
$EXTMAX
 10
84.99446645586415
 20
53.79687519920651
 30
0.0000000349246037
  9
$LIMMIN
 10
0.0
 20
0.0
  9
$LIMMAX
 10
181.3333333333
 20
117.3333333333
  9
$ORTHOMODE
 70
     0
  9
$REGENMODE
 70
     1
  9
$FILLMODE
 70
     1
  9
$QTEXTMODE
 70
     0
  9
$MIRRTEXT
 70
     0
  9
$LTSCALE
 40
9.973333333300001
  9
$ATTMODE
 70
     1
  9
$TEXTSIZE
 40
0.2
  9
$TRACEWID
 40
0.05
  9
$TEXTSTYLE
  7
STANDARD
  9
$CLAYER
  8
0
  9
$CELTYPE
  6
BYLAYER
  9
$CECOLOR
 62
   256
  9
$CELTSCALE
 40
1.0
  9
$DISPSILH
 70
     0
  9
$DIMSCALE
 40
1.0
  9
$DIMASZ
 40
2.0
  9
$DIMEXO
 40
0.0625
  9
$DIMDLI
 40
6.890666666699999
  9
$DIMRND
 40
0.0
  9
$DIMDLE
 40
0.0
  9
$DIMEXE
 40
0.125
  9
$DIMTP
 40
0.00001
  9
$DIMTM
 40
0.00001
  9
$DIMTXT
 40
1.333333333299999
  9
$DIMCEN
 40
1.631999999999999
  9
$DIMTSZ
 40
0.0
  9
$DIMTOL
 70
     1
  9
$DIMLIM
 70
     0
  9
$DIMTIH
 70
     1
  9
$DIMTOH
 70
     1
  9
$DIMSE1
 70
     0
  9
$DIMSE2
 70
     0
  9
$DIMTAD
 70
     0
  9
$DIMZIN
 70
     0
  9
$DIMBLK
  1
_FILLED
  9
$DIMASO
 70
     1
  9
$DIMSHO
 70
     1
  9
$DIMPOST
  1

  9
$DIMAPOST
  1

  9
$DIMALT
 70
     0
  9
$DIMALTD
 70
     2
  9
$DIMALTF
 40
25.4
  9
$DIMLFAC
 40
1.0
  9
$DIMTOFL
 70
     0
  9
$DIMTVP
 40
0.0
  9
$DIMTIX
 70
     0
  9
$DIMSOXD
 70
     0
  9
$DIMSAH
 70
     0
  9
$DIMBLK1
  1

  9
$DIMBLK2
  1

  9
$DIMSTYLE
  2
STANDARD
  9
$DIMCLRD
 70
     0
  9
$DIMCLRE
 70
     0
  9
$DIMCLRT
 70
     0
  9
$DIMTFAC
 40
1.0
  9
$DIMGAP
 40
0.09
  9
$DIMJUST
 70
     0
  9
$DIMSD1
 70
     0
  9
$DIMSD2
 70
     0
  9
$DIMTOLJ
 70
     1
  9
$DIMTZIN
 70
     0
  9
$DIMALTZ
 70
     0
  9
$DIMALTTZ
 70
     0
  9
$DIMUPT
 70
     0
  9
$DIMDEC
 70
     4
  9
$DIMTDEC
 70
     4
  9
$DIMALTU
 70
     2
  9
$DIMALTTD
 70
     2
  9
$DIMTXSTY
  7
STANDARD
  9
$DIMAUNIT
 70
     0
  9
$DIMADEC
 70
     0
  9
$DIMALTRND
 40
0.0
  9
$DIMAZIN
 70
     0
  9
$DIMDSEP
 70
    46
  9
$DIMATFIT
 70
     3
  9
$DIMFRAC
 70
     0
  9
$DIMLDRBLK
  1

  9
$DIMLUNIT
 70
     2
  9
$DIMLWD
 70
    -2
  9
$DIMLWE
 70
    -2
  9
$DIMTMOVE
 70
     0
  9
$DIMFXL
 40
1.0
  9
$DIMFXLON
 70
     0
  9
$DIMJOGANG
 40
0.7853981633974483
  9
$DIMTFILL
 70
     0
  9
$DIMTFILLCLR
 70
     0
  9
$DIMARCSYM
 70
     0
  9
$DIMLTYPE
  6

  9
$DIMLTEX1
  6

  9
$DIMLTEX2
  6

  9
$LUNITS
 70
     2
  9
$LUPREC
 70
     4
  9
$SKETCHINC
 40
0.1
  9
$FILLETRAD
 40
0.0
  9
$AUNITS
 70
     0
  9
$AUPREC
 70
     0
  9
$MENU
  1
.
  9
$ELEVATION
 40
0.0
  9
$PELEVATION
 40
0.0
  9
$THICKNESS
 40
0.0
  9
$LIMCHECK
 70
     0
  9
$CHAMFERA
 40
0.0
  9
$CHAMFERB
 40
0.0
  9
$CHAMFERC
 40
0.0
  9
$CHAMFERD
 40
0.0
  9
$SKPOLY
 70
     0
  9
$TDCREATE
 40
2456630.448005892
  9
$TDUCREATE
 40
2456630.656339225
  9
$TDUPDATE
 40
2456630.474505139
  9
$TDUUPDATE
 40
2456630.682838472
  9
$TDINDWG
 40
0.0004023727
  9
$TDUSRTIMER
 40
0.0004023727
  9
$USRTIMER
 70
     1
  9
$ANGBASE
 50
0.0
  9
$ANGDIR
 70
     0
  9
$PDMODE
 70
     3
  9
$PDSIZE
 40
0.03125
  9
$PLINEWID
 40
0.0
  9
$SPLFRAME
 70
     0
  9
$SPLINETYPE
 70
     6
  9
$SPLINESEGS
 70
     8
  9
$HANDSEED
  5
1649
  9
$SURFTAB1
 70
     6
  9
$SURFTAB2
 70
     6
  9
$SURFTYPE
 70
     6
  9
$SURFU
 70
     6
  9
$SURFV
 70
     6
  9
$UCSBASE
  2

  9
$UCSNAME
  2

  9
$UCSORG
 10
0.0
 20
0.0
 30
0.0
  9
$UCSXDIR
 10
1.0
 20
0.0
 30
0.0
  9
$UCSYDIR
 10
0.0
 20
1.0
 30
0.0
  9
$UCSORTHOREF
  2

  9
$UCSORTHOVIEW
 70
     0
  9
$UCSORGTOP
 10
0.0
 20
0.0
 30
0.0
  9
$UCSORGBOTTOM
 10
0.0
 20
0.0
 30
0.0
  9
$UCSORGLEFT
 10
0.0
 20
0.0
 30
0.0
  9
$UCSORGRIGHT
 10
0.0
 20
0.0
 30
0.0
  9
$UCSORGFRONT
 10
0.0
 20
0.0
 30
0.0
  9
$UCSORGBACK
 10
0.0
 20
0.0
 30
0.0
  9
$PUCSBASE
  2

  9
$PUCSNAME
  2

  9
$PUCSORG
 10
0.0
 20
0.0
 30
0.0
  9
$PUCSXDIR
 10
1.0
 20
0.0
 30
0.0
  9
$PUCSYDIR
 10
0.0
 20
1.0
 30
0.0
  9
$PUCSORTHOREF
  2

  9
$PUCSORTHOVIEW
 70
     0
  9
$PUCSORGTOP
 10
0.0
 20
0.0
 30
0.0
  9
$PUCSORGBOTTOM
 10
0.0
 20
0.0
 30
0.0
  9
$PUCSORGLEFT
 10
0.0
 20
0.0
 30
0.0
  9
$PUCSORGRIGHT
 10
0.0
 20
0.0
 30
0.0
  9
$PUCSORGFRONT
 10
0.0
 20
0.0
 30
0.0
  9
$PUCSORGBACK
 10
0.0
 20
0.0
 30
0.0
  9
$USERI1
 70
     0
  9
$USERI2
 70
     0
  9
$USERI3
 70
     0
  9
$USERI4
 70
     0
  9
$USERI5
 70
     0
  9
$USERR1
 40
0.0
  9
$USERR2
 40
0.0
  9
$USERR3
 40
0.0
  9
$USERR4
 40
0.0
  9
$USERR5
 40
0.0
  9
$WORLDVIEW
 70
     1
  9
$SHADEDGE
 70
     3
  9
$SHADEDIF
 70
    70
  9
$TILEMODE
 70
     1
  9
$MAXACTVP
 70
    64
  9
$PINSBASE
 10
0.0
 20
0.0
 30
0.0
  9
$PLIMCHECK
 70
     0
  9
$PEXTMIN
 10
1.000000000000000E+20
 20
1.000000000000000E+20
 30
1.000000000000000E+20
  9
$PEXTMAX
 10
-1.000000000000000E+20
 20
-1.000000000000000E+20
 30
-1.000000000000000E+20
  9
$PLIMMIN
 10
0.0
 20
0.0
  9
$PLIMMAX
 10
12.0
 20
9.0
  9
$UNITMODE
 70
     0
  9
$VISRETAIN
 70
     1
  9
$PLINEGEN
 70
     0
  9
$PSLTSCALE
 70
     1
  9
$TREEDEPTH
 70
  3020
  9
$CMLSTYLE
  2
Standard
  9
$CMLJUST
 70
     0
  9
$CMLSCALE
 40
1.0
  9
$PROXYGRAPHICS
 70
     1
  9
$MEASUREMENT
 70
     0
  9
$CELWEIGHT
370
    -1
  9
$ENDCAPS
280
     0
  9
$JOINSTYLE
280
     0
  9
$LWDISPLAY
290
     0
  9
$INSUNITS
 70
     1
  9
$HYPERLINKBASE
  1

  9
$STYLESHEET
  1

  9
$XEDIT
290
     1
  9
$CEPSNTYPE
380
     0
  9
$PSTYLEMODE
290
     1
  9
$FINGERPRINTGUID
  2
{4D708F42-D196-4EE9-B7DC-0427FFAF2907}
  9
$VERSIONGUID
  2
{407983DB-30CB-46D3-B727-F9D1E14EE1C6}
  9
$EXTNAMES
290
     1
  9
$PSVPSCALE
 40
0.0
  9
$OLESTARTUP
290
     0
  9
$SORTENTS
280
   127
  9
$INDEXCTL
280
     0
  9
$HIDETEXT
280
     0
  9
$XCLIPFRAME
290
     0
  9
$HALOGAP
280
     0
  9
$OBSCOLOR
 70
   257
  9
$OBSLTYPE
280
     0
  9
$INTERSECTIONDISPLAY
280
     0
  9
$INTERSECTIONCOLOR
 70
   257
  9
$DIMASSOC
280
     1
  9
$PROJECTNAME
  1

  9
$CAMERADISPLAY
290
     0
  9
$LENSLENGTH
 40
50.0
  9
$CAMERAHEIGHT
 40
0.0
  9
$STEPSPERSEC
 40
2.0
  9
$STEPSIZE
 40
6.0
  9
$3DDWFPREC
 40
2.0
  9
$PSOLWIDTH
 40
0.25
  9
$PSOLHEIGHT
 40
4.0
  9
$LOFTANG1
 40
1.570796326794896
  9
$LOFTANG2
 40
1.570796326794896
  9
$LOFTMAG1
 40
0.0
  9
$LOFTMAG2
 40
0.0
  9
$LOFTPARAM
 70
     7
  9
$LOFTNORMALS
280
     1
  9
$LATITUDE
 40
37.795
  9
$LONGITUDE
 40
-122.394
  9
$NORTHDIRECTION
 40
0.0
  9
$TIMEZONE
 70
 -8000
  9
$LIGHTGLYPHDISPLAY
280
     1
  9
$TILEMODELIGHTSYNCH
280
     1
  9
$CMATERIAL
347
156D
  9
$SOLIDHIST
280
     1
  9
$SHOWHIST
280
     1
  9
$DWFFRAME
280
     2
  9
$DGNFRAME
280
     0
  9
$REALWORLDSCALE
290
     1
  9
$INTERFERECOLOR
 62
     1
  9
$INTERFEREOBJVS
345
158F
  9
$INTERFEREVPVS
346
158C
  9
$CSHADOW
280
     0
  9
$SHADOWPLANELOCATION
 40
0.0
  0
ENDSEC
  0
SECTION
  2
CLASSES
  0
CLASS
  1
ACDBDICTIONARYWDFLT
  2
AcDbDictionaryWithDefault
  3
ObjectDBX Classes
 90
        0
 91
        1
280
     0
281
     0
  0
CLASS
  1
MATERIAL
  2
AcDbMaterial
  3
ObjectDBX Classes
 90
     1153
 91
        3
280
     0
281
     0
  0
CLASS
  1
VISUALSTYLE
  2
AcDbVisualStyle
  3
ObjectDBX Classes
 90
     4095
 91
       19
280
     0
281
     0
  0
CLASS
  1
TABLESTYLE
  2
AcDbTableStyle
  3
ObjectDBX Classes
 90
     4095
 91
        1
280
     0
281
     0
  0
CLASS
  1
SCALE
  2
AcDbScale
  3
ObjectDBX Classes
 90
     1153
 91
       33
280
     0
281
     0
  0
CLASS
  1
MLEADERSTYLE
  2
AcDbMLeaderStyle
  3
ACDB_MLEADERSTYLE_CLASS
 90
     4095
 91
        1
280
     0
281
     0
  0
CLASS
  1
CELLSTYLEMAP
  2
AcDbCellStyleMap
  3
ObjectDBX Classes
 90
     1152
 91
        3
280
     0
281
     0
  0
CLASS
  1
DICTIONARYVAR
  2
AcDbDictionaryVar
  3
ObjectDBX Classes
 90
        0
 91
       15
280
     0
281
     0
  0
ENDSEC
  0
SECTION
  2
TABLES
  0
TABLE
  2
VPORT
  5
8
102
{ACAD_XDICTIONARY
360
15C5
102
}
330
0
100
AcDbSymbolTable
 70
     1
  0
VPORT
  5
1F4
330
8
100
AcDbSymbolTableRecord
100
AcDbViewportTableRecord
  2
*ACTIVE
 70
     0
 10
0.0
 20
0.0
 11
1.0
 21
1.0
 12
51.98502641882539
 22
38.61905949463019
 13
0.0
 23
0.0
 14
1.0
 24
1.0
 15
0.0
 25
0.0
 16
0.0
 26
0.0
 36
1.0
 17
0.0
 27
0.0
 37
0.0
 40
30.60824415319551
 41
2.41111111111111
 42
50.0
 43
0.0
 44
0.0
 50
0.0
 51
0.0
 71
     0
 72
   100
 73
     1
 74
     1
 75
     0
 76
     0
 77
     0
 78
     0
281
     0
 65
     1
110
0.0
120
0.0
130
0.0
111
1.0
121
0.0
131
0.0
112
0.0
122
1.0
132
0.0
 79
     0
146
0.0
348
158B
 60
     3
 61
     5
292
     1
282
     1
141
0.0
142
0.0
 63
   250
421
  3355443
  0
ENDTAB
  0
TABLE
  2
LTYPE
  5
5
330
0
100
AcDbSymbolTable
 70
     6
  0
LTYPE
  5
14
330
5
100
AcDbSymbolTableRecord
100
AcDbLinetypeTableRecord
  2
BYBLOCK
 70
     0
  3

 72
    65
 73
     0
 40
0.0
  0
LTYPE
  5
15
330
5
100
AcDbSymbolTableRecord
100
AcDbLinetypeTableRecord
  2
BYLAYER
 70
     0
  3

 72
    65
 73
     0
 40
0.0
  0
LTYPE
  5
16
330
5
100
AcDbSymbolTableRecord
100
AcDbLinetypeTableRecord
  2
CONTINUOUS
 70
     0
  3
Solid line
 72
    65
 73
     0
 40
0.0
  0
LTYPE
  5
1F5
330
5
100
AcDbSymbolTableRecord
100
AcDbLinetypeTableRecord
  2
CENTER
 70
     0
  3
____ _ ____ _ ____ _ ____ _ ____ _ ____ _ ____
 72
    65
 73
     4
 40
0.6
 49
0.375
 74
     0
 49
-0.075
 74
     0
 49
0.075
 74
     0
 49
-0.075
 74
     0
  0
LTYPE
  5
1F6
330
5
100
AcDbSymbolTableRecord
100
AcDbLinetypeTableRecord
  2
HIDDEN
 70
     0
  3
- - - - - - - - - - - - - - - - - - - -
 72
    65
 73
     2
 40
0.2
 49
0.1
 74
     0
 49
-0.1
 74
     0
  0
LTYPE
  5
1F7
330
5
100
AcDbSymbolTableRecord
100
AcDbLinetypeTableRecord
  2
PHANTOM
 70
     0
  3
_____ _ _ _____ _ _ _____ _ _ _____
 72
    65
 73
     6
 40
0.8
 49
0.45
 74
     0
 49
-0.05
 74
     0
 49
0.1
 74
     0
 49
-0.05
 74
     0
 49
0.1
 74
     0
 49
-0.05
 74
     0
  0
LTYPE
  5
1F8
330
5
100
AcDbSymbolTableRecord
100
AcDbLinetypeTableRecord
  2
DOT
 70
     0
  3
. . . . . . . . . . . . . . . . . . . .
 72
    65
 73
     2
 40
0.2
 49
0.1
 74
     0
 49
-0.1
 74
     0
  0
LTYPE
  5
1F9
330
5
100
AcDbSymbolTableRecord
100
AcDbLinetypeTableRecord
  2
DASHED
 70
     0
  3
- - - - - - - - - - - - - - - - - - - -
 72
    65
 73
     2
 40
0.2
 49
0.1
 74
     0
 49
-0.1
 74
     0
  0
ENDTAB
  0
TABLE
  2
LAYER
  5
2
330
0
100
AcDbSymbolTable
 70
    29
  0
LAYER
  5
10
102
{ACAD_XDICTIONARY
360
1605
102
}
330
2
100
AcDbSymbolTableRecord
100
AcDbLayerTableRecord
  2
0
 70
     0
 62
     7
  6
CONTINUOUS
370
    -3
390
F
347
157D
  0
LAYER
  5
1FA
102
{ACAD_XDICTIONARY
360
1607
102
}
330
2
100
AcDbSymbolTableRecord
100
AcDbLayerTableRecord
  2
DEFAULT_1
 70
     0
 62
     7
  6
CENTER
370
    -3
390
F
347
157D
  0
LAYER
  5
1FB
102
{ACAD_XDICTIONARY
360
1609
102
}
330
2
100
AcDbSymbolTableRecord
100
AcDbLayerTableRecord
  2
DEFAULT_2
 70
     0
 62
     7
  6
HIDDEN
370
    -3
390
F
347
157D
  0
LAYER
  5
1FC
102
{ACAD_XDICTIONARY
360
160B
102
}
330
2
100
AcDbSymbolTableRecord
100
AcDbLayerTableRecord
  2
DEFAULT_3
 70
     0
 62
     7
  6
PHANTOM
370
    -3
390
F
347
157D
  0
LAYER
  5
1FD
102
{ACAD_XDICTIONARY
360
160D
102
}
330
2
100
AcDbSymbolTableRecord
100
AcDbLayerTableRecord
  2
1_CURVES
 70
     0
 62
     7
  6
CONTINUOUS
370
    -3
390
F
347
157D
  0
LAYER
  5
1FE
102
{ACAD_XDICTIONARY
360
160F
102
}
330
2
100
AcDbSymbolTableRecord
100
AcDbLayerTableRecord
  2
1_CURVES_CONDUIT
 70
     0
 62
     7
  6
CONTINUOUS
370
    -3
390
F
347
157D
  0
LAYER
  5
1FF
102
{ACAD_XDICTIONARY
360
1611
102
}
330
2
100
AcDbSymbolTableRecord
100
AcDbLayerTableRecord
  2
1_CURVES_JETS
 70
     0
 62
     7
  6
CONTINUOUS
370
    -3
390
F
347
157D
  0
LAYER
  5
200
102
{ACAD_XDICTIONARY
360
1613
102
}
330
2
100
AcDbSymbolTableRecord
100
AcDbLayerTableRecord
  2
1_CURVES_PATINS
 70
     0
 62
     7
  6
CONTINUOUS
370
    -3
390
F
347
157D
  0
LAYER
  5
201
102
{ACAD_XDICTIONARY
360
1615
102
}
330
2
100
AcDbSymbolTableRecord
100
AcDbLayerTableRecord
  2
1_CURVES_SPEC_FRONT
 70
     0
 62
     7
  6
CONTINUOUS
370
    -3
390
F
347
157D
  0
LAYER
  5
202
102
{ACAD_XDICTIONARY
360
1617
102
}
330
2
100
AcDbSymbolTableRecord
100
AcDbLayerTableRecord
  2
1_CURVES_SPEC_RIGHT
 70
     0
 62
     7
  6
CONTINUOUS
370
    -3
390
F
347
157D
  0
LAYER
  5
203
102
{ACAD_XDICTIONARY
360
1619
102
}
330
2
100
AcDbSymbolTableRecord
100
AcDbLayerTableRecord
  2
2_PLANES
 70
     0
 62
     7
  6
CONTINUOUS
370
    -3
390
F
347
157D
  0
LAYER
  5
204
102
{ACAD_XDICTIONARY
360
161B
102
}
330
2
100
AcDbSymbolTableRecord
100
AcDbLayerTableRecord
  2
2_PLANES_JETS
 70
     0
 62
     7
  6
CONTINUOUS
370
    -3
390
F
347
157D
  0
LAYER
  5
205
102
{ACAD_XDICTIONARY
360
161D
102
}
330
2
100
AcDbSymbolTableRecord
100
AcDbLayerTableRecord
  2
3_POINTS
 70
     0
 62
     7
  6
CONTINUOUS
370
    -3
390
F
347
157D
  0
LAYER
  5
206
102
{ACAD_XDICTIONARY
360
161F
102
}
330
2
100
AcDbSymbolTableRecord
100
AcDbLayerTableRecord
  2
3_POINTS_JETS
 70
     0
 62
     7
  6
CONTINUOUS
370
    -3
390
F
347
157D
  0
LAYER
  5
207
102
{ACAD_XDICTIONARY
360
1621
102
}
330
2
100
AcDbSymbolTableRecord
100
AcDbLayerTableRecord
  2
4_CSYS
 70
     0
 62
     7
  6
CONTINUOUS
370
    -3
390
F
347
157D
  0
LAYER
  5
208
102
{ACAD_XDICTIONARY
360
1623
102
}
330
2
100
AcDbSymbolTableRecord
100
AcDbLayerTableRecord
  2
5_AXIS
 70
     0
 62
     7
  6
CONTINUOUS
370
    -3
390
F
347
157D
  0
LAYER
  5
209
102
{ACAD_XDICTIONARY
360
1625
102
}
330
2
100
AcDbSymbolTableRecord
100
AcDbLayerTableRecord
  2
5_AXIS_JETS
 70
     0
 62
     7
  6
CONTINUOUS
370
    -3
390
F
347
157D
  0
LAYER
  5
20A
102
{ACAD_XDICTIONARY
360
1627
102
}
330
2
100
AcDbSymbolTableRecord
100
AcDbLayerTableRecord
  2
6_AIRE_CONDUIT
 70
     0
 62
     7
  6
CONTINUOUS
370
    -3
390
F
347
157D
  0
LAYER
  5
20B
102
{ACAD_XDICTIONARY
360
1629
102
}
330
2
100
AcDbSymbolTableRecord
100
AcDbLayerTableRecord
  2
6_SURFACES
 70
     0
 62
     7
  6
CONTINUOUS
370
    -3
390
F
347
157D
  0
LAYER
  5
20C
102
{ACAD_XDICTIONARY
360
162B
102
}
330
2
100
AcDbSymbolTableRecord
100
AcDbLayerTableRecord
  2
6_SURFACES_AIRE
 70
     0
 62
     7
  6
CONTINUOUS
370
    -3
390
F
347
157D
  0
LAYER
  5
20D
102
{ACAD_XDICTIONARY
360
162D
102
}
330
2
100
AcDbSymbolTableRecord
100
AcDbLayerTableRecord
  2
6_SURFACES_OFFSET_FIBRE_ACRYLIQ
 70
     0
 62
     7
  6
CONTINUOUS
370
    -3
390
F
347
157D
  0
LAYER
  5
20E
102
{ACAD_XDICTIONARY
360
162F
102
}
330
2
100
AcDbSymbolTableRecord
100
AcDbLayerTableRecord
  2
6_SURFACES_POUR_CONDUIT
 70
     0
 62
     7
  6
CONTINUOUS
370
    -3
390
F
347
157D
  0
LAYER
  5
20F
102
{ACAD_XDICTIONARY
360
1631
102
}
330
2
100
AcDbSymbolTableRecord
100
AcDbLayerTableRecord
  2
6_SURFACES_POUR_HFL
 70
     0
 62
     7
  6
CONTINUOUS
370
    -3
390
F
347
157D
  0
LAYER
  5
210
102
{ACAD_XDICTIONARY
360
1633
102
}
330
2
100
AcDbSymbolTableRecord
100
AcDbLayerTableRecord
  2
6_SURFACES_POUR_TROP_PLEIN
 70
     0
 62
     7
  6
CONTINUOUS
370
    -3
390
F
347
157D
  0
LAYER
  5
211
102
{ACAD_XDICTIONARY
360
1635
102
}
330
2
100
AcDbSymbolTableRecord
100
AcDbLayerTableRecord
  2
6_SURFACES_TOOLING
 70
     0
 62
     7
  6
CONTINUOUS
370
    -3
390
F
347
157D
  0
LAYER
  5
212
102
{ACAD_XDICTIONARY
360
1637
102
}
330
2
100
AcDbSymbolTableRecord
100
AcDbLayerTableRecord
  2
7_NOTES
 70
     0
 62
     7
  6
CONTINUOUS
370
    -3
390
F
347
157D
  0
LAYER
  5
213
102
{ACAD_XDICTIONARY
360
1639
102
}
330
2
100
AcDbSymbolTableRecord
100
AcDbLayerTableRecord
  2
8_TOL_GEOM
 70
     0
 62
     7
  6
CONTINUOUS
370
    -3
390
F
347
157D
  0
LAYER
  5
214
102
{ACAD_XDICTIONARY
360
163B
102
}
330
2
100
AcDbSymbolTableRecord
100
AcDbLayerTableRecord
  2
NONE
 70
     0
 62
     7
  6
CONTINUOUS
370
    -3
390
F
347
157D
  0
LAYER
  5
215
102
{ACAD_XDICTIONARY
360
163D
102
}
330
2
100
AcDbSymbolTableRecord
100
AcDbLayerTableRecord
  2
XSEC_DATUMS
 70
     0
 62
     7
  6
CONTINUOUS
370
    -3
390
F
347
157D
  0
ENDTAB
  0
TABLE
  2
STYLE
  5
3
330
0
100
AcDbSymbolTable
 70
     8
  0
STYLE
  5
11
330
3
100
AcDbSymbolTableRecord
100
AcDbTextStyleTableRecord
  2
STANDARD
 70
     0
 40
0.0
 41
0.8
 50
0.0
 71
     0
 42
0.2
  3
txt
  4

  0
STYLE
  5
216
330
3
100
AcDbSymbolTableRecord
100
AcDbTextStyleTableRecord
  2
TEXTSTYLE_1
 70
     0
 40
0.0
 41
0.8
 50
0.0
 71
     0
 42
0.2
  3
gdt
  4

  0
STYLE
  5
217
330
3
100
AcDbSymbolTableRecord
100
AcDbTextStyleTableRecord
  2
TEXTSTYLE_2
 70
     0
 40
0.0
 41
1.0
 50
0.0
 71
     0
 42
0.2
  3
trium.ttf
  4

  0
STYLE
  5
218
330
3
100
AcDbSymbolTableRecord
100
AcDbTextStyleTableRecord
  2
TEXTSTYLE_3
 70
     0
 40
0.0
 41
1.0
 50
0.0
 71
     0
 42
0.2
  3
trium.ttf
  4

  0
STYLE
  5
219
330
3
100
AcDbSymbolTableRecord
100
AcDbTextStyleTableRecord
  2
TEXTSTYLE_4
 70
     0
 40
0.0
 41
1.0
 50
0.0
 71
     0
 42
0.2
  3
txt_____.ttf
  4

1001
ACAD
1000
txt
1071
        2
  0
STYLE
  5
21A
330
3
100
AcDbSymbolTableRecord
100
AcDbTextStyleTableRecord
  2
TEXTSTYLE_5
 70
     0
 40
0.0
 41
1.0
 50
0.0
 71
     0
 42
0.2
  3
txt_____.ttf
  4

1001
ACAD
1000
txt
1071
        2
  0
STYLE
  5
21B
330
3
100
AcDbSymbolTableRecord
100
AcDbTextStyleTableRecord
  2
TEXTSTYLE_6
 70
     0
 40
0.0
 41
1.0
 50
0.0
 71
     0
 42
0.2
  3
trium.ttf
  4

  0
STYLE
  5
21C
330
3
100
AcDbSymbolTableRecord
100
AcDbTextStyleTableRecord
  2
TEXTSTYLE_7
 70
     0
 40
0.0
 41
0.8
 50
0.0
 71
     0
 42
0.2
  3
txt_____.ttf
  4

1001
ACAD
1000
txt
1071
        2
  0
ENDTAB
  0
TABLE
  2
VIEW
  5
6
330
0
100
AcDbSymbolTable
 70
     0
  0
ENDTAB
  0
TABLE
  2
UCS
  5
7
330
0
100
AcDbSymbolTable
 70
     0
  0
ENDTAB
  0
TABLE
  2
APPID
  5
9
330
0
100
AcDbSymbolTable
 70
     2
  0
APPID
  5
21D
330
9
100
AcDbSymbolTableRecord
100
AcDbRegAppTableRecord
  2
ACAD
 70
     0
  0
APPID
  5
15F5
330
9
100
AcDbSymbolTableRecord
100
AcDbRegAppTableRecord
  2
ACAD_MLEADERVER
 70
     0
  0
ENDTAB
  0
TABLE
  2
DIMSTYLE
  5
A
330
0
100
AcDbSymbolTable
 70
     5
100
AcDbDimStyleTable
 71
     0
  0
DIMSTYLE
105
236
330
A
100
AcDbSymbolTableRecord
100
AcDbDimStyleTableRecord
  2
STANDARD
 70
     0
 41
2.0
 44
0.125
 47
0.00001
 48
0.00001
 71
     1
 78
     4
140
1.333333333299999
271
     5
272
     5
284
     4
340
11
341
220
342
220
343
220
344
220
  0
DIMSTYLE
105
237
330
A
100
AcDbSymbolTableRecord
100
AcDbDimStyleTableRecord
  2
DIMSTYLE_1
 70
     0
 41
2.0
 44
0.125
 47
0.00001
 48
0.00001
 78
     4
140
1.333333333299999
147
0.0625
271
     3
272
     3
284
     4
340
11
341
220
342
220
343
220
344
220
  0
DIMSTYLE
105
238
330
A
100
AcDbSymbolTableRecord
100
AcDbDimStyleTableRecord
  2
DIMSTYLE_2
 70
     0
 41
2.0
 44
0.125
 47
1.0
 48
1.0
 78
     4
140
1.333333333299999
271
     0
272
     0
284
     4
340
11
341
220
342
220
343
220
344
220
  0
DIMSTYLE
105
239
330
A
100
AcDbSymbolTableRecord
100
AcDbDimStyleTableRecord
  2
DIMSTYLE_3
 70
     0
 41
2.0
 44
0.125
 47
0.00001
 48
0.00001
 78
     4
140
1.333333333299999
147
0.0625
284
     4
340
11
341
220
342
220
343
220
344
220
  0
DIMSTYLE
105
23A
330
A
100
AcDbSymbolTableRecord
100
AcDbDimStyleTableRecord
  2
DIMSTYLE_4
 70
     0
 41
2.0
 44
0.125
 47
0.5
 48
0.5
 78
     4
140
1.333333333299999
271
     0
272
     0
284
     4
340
11
341
220
342
220
343
220
344
220
  0
ENDTAB
  0
TABLE
  2
BLOCK_RECORD
  5
1
330
0
100
AcDbSymbolTable
 70
    22
  0
BLOCK_RECORD
  5
21E
330
1
100
AcDbSymbolTableRecord
100
AcDbBlockTableRecord
  2
*Model_Space
340
1567
 70
     0
280
     1
281
     0
  0
BLOCK_RECORD
  5
21F
330
1
100
AcDbSymbolTableRecord
100
AcDbBlockTableRecord
  2
*Paper_Space
340
1568
 70
     0
280
     1
281
     0
  0
BLOCK_RECORD
  5
220
330
1
100
AcDbSymbolTableRecord
100
AcDbBlockTableRecord
  2
_FILLED
340
0
102
{BLKREFS
331
31F
331
320
331
328
331
329
331
331
331
332
331
33A
331
33B
331
343
331
344
331
354
331
355
331
35D
331
35E
331
366
331
367
331
36F
331
370
331
378
331
379
331
382
331
383
331
38C
331
38D
331
396
331
397
331
39F
331
3A0
102
}
 70
     0
280
     1
281
     0
  0
BLOCK_RECORD
  5
221
330
1
100
AcDbSymbolTableRecord
100
AcDbBlockTableRecord
  2
*D1
340
0
 70
     0
280
     1
281
     0
  0
BLOCK_RECORD
  5
222
330
1
100
AcDbSymbolTableRecord
100
AcDbBlockTableRecord
  2
*D2
340
0
 70
     0
280
     1
281
     0
  0
BLOCK_RECORD
  5
223
330
1
100
AcDbSymbolTableRecord
100
AcDbBlockTableRecord
  2
*D3
340
0
 70
     0
280
     1
281
     0
  0
BLOCK_RECORD
  5
224
330
1
100
AcDbSymbolTableRecord
100
AcDbBlockTableRecord
  2
*D4
340
0
 70
     0
280
     1
281
     0
  0
BLOCK_RECORD
  5
225
330
1
100
AcDbSymbolTableRecord
100
AcDbBlockTableRecord
  2
*D5
340
0
 70
     0
280
     1
281
     0
  0
BLOCK_RECORD
  5
226
330
1
100
AcDbSymbolTableRecord
100
AcDbBlockTableRecord
  2
*D6
340
0
 70
     0
280
     1
281
     0
  0
BLOCK_RECORD
  5
227
330
1
100
AcDbSymbolTableRecord
100
AcDbBlockTableRecord
  2
*D7
340
0
 70
     0
280
     1
281
     0
  0
BLOCK_RECORD
  5
228
330
1
100
AcDbSymbolTableRecord
100
AcDbBlockTableRecord
  2
*D8
340
0
 70
     0
280
     1
281
     0
  0
BLOCK_RECORD
  5
229
330
1
100
AcDbSymbolTableRecord
100
AcDbBlockTableRecord
  2
*D9
340
0
 70
     0
280
     1
281
     0
  0
BLOCK_RECORD
  5
22A
330
1
100
AcDbSymbolTableRecord
100
AcDbBlockTableRecord
  2
*D10
340
0
 70
     0
280
     1
281
     0
  0
BLOCK_RECORD
  5
22B
330
1
100
AcDbSymbolTableRecord
100
AcDbBlockTableRecord
  2
*D11
340
0
 70
     0
280
     1
281
     0
  0
BLOCK_RECORD
  5
22C
330
1
100
AcDbSymbolTableRecord
100
AcDbBlockTableRecord
  2
*D12
340
0
 70
     0
280
     1
281
     0
  0
BLOCK_RECORD
  5
22D
330
1
100
AcDbSymbolTableRecord
100
AcDbBlockTableRecord
  2
*D13
340
0
 70
     0
280
     1
281
     0
  0
BLOCK_RECORD
  5
22E
330
1
100
AcDbSymbolTableRecord
100
AcDbBlockTableRecord
  2
*D14
340
0
 70
     0
280
     1
281
     0
  0
BLOCK_RECORD
  5
22F
330
1
100
AcDbSymbolTableRecord
100
AcDbBlockTableRecord
  2
*D15
340
0
 70
     0
280
     1
281
     0
  0
BLOCK_RECORD
  5
230
330
1
100
AcDbSymbolTableRecord
100
AcDbBlockTableRecord
  2
*D16
340
0
 70
     0
280
     1
281
     0
  0
BLOCK_RECORD
  5
231
330
1
100
AcDbSymbolTableRecord
100
AcDbBlockTableRecord
  2
SYMBOL_7_BL4
340
0
 70
     0
280
     1
281
     0
  0
BLOCK_RECORD
  5
232
330
1
100
AcDbSymbolTableRecord
100
AcDbBlockTableRecord
  2
SYMBOL_6_BL3
340
0
 70
     0
280
     1
281
     0
  0
BLOCK_RECORD
  5
233
330
1
100
AcDbSymbolTableRecord
100
AcDbBlockTableRecord
  2
SYMBOL_5_BL2
340
0
 70
     0
280
     1
281
     0
  0
BLOCK_RECORD
  5
234
330
1
100
AcDbSymbolTableRecord
100
AcDbBlockTableRecord
  2
SYMBOL_2_BL1
340
0
 70
     0
280
     1
281
     0
  0
BLOCK_RECORD
  5
235
330
1
100
AcDbSymbolTableRecord
100
AcDbBlockTableRecord
  2
SYMBOL_0_BL0
340
0
 70
     0
280
     1
281
     0
  0
ENDTAB
  0
ENDSEC
  0
SECTION
  2
BLOCKS
  0
BLOCK
  5
20
330
21E
100
AcDbEntity
  8
0
100
AcDbBlockBegin
  2
*Model_Space
 70
     0
 10
0.0
 20
0.0
 30
0.0
  3
*Model_Space
  1

  0
ENDBLK
  5
21
330
21E
100
AcDbEntity
  8
0
100
AcDbBlockEnd
  0
BLOCK
  5
1C
330
21F
100
AcDbEntity
 67
     1
  8
0
100
AcDbBlockBegin
  2
*Paper_Space
 70
     0
 10
0.0
 20
0.0
 30
0.0
  3
*Paper_Space
  1

  0
ENDBLK
  5
1D
330
21F
100
AcDbEntity
 67
     1
  8
0
100
AcDbBlockEnd
  0
BLOCK
  5
316
330
220
100
AcDbEntity
  8
0
100
AcDbBlockBegin
  2
_FILLED
 70
     0
 10
0.0
 20
0.0
 30
0.0
  3
_FILLED
  1

  0
SOLID
  5
317
330
220
100
AcDbEntity
  8
0
  6
ByBlock
 62
     0
100
AcDbTrace
 10
0.0
 20
0.0
 30
0.0
 11
-1.0
 21
0.1666666667
 31
0.0
 12
-1.0
 22
-0.1666666667
 32
0.0
 13
-1.0
 23
-0.1666666667
 33
0.0
  0
ENDBLK
  5
318
330
220
100
AcDbEntity
  8
0
  6
ByBlock
 62
     0
100
AcDbBlockEnd
  0
BLOCK
  5
319
330
221
100
AcDbEntity
  8
0
  6
Continuous
 62
     7
100
AcDbBlockBegin
  2
*D1
 70
     1
 10
0.0
 20
0.0
 30
0.0
  3
*D1
  1

  0
MTEXT
  5
31A
330
221
100
AcDbEntity
  8
0
  6
Continuous
 62
     7
100
AcDbMText
 10
50.3831395909
 20
17.50937819329999
 30
0.0
 40
1.333333333299999
 41
5.333333333299999
 46
0.0
 71
     2
 72
     1
  1
50\P[127]
 73
     1
 44
0.9
  0
LINE
  5
31B
330
221
100
AcDbEntity
  8
0
  6
Continuous
 62
     7
100
AcDbLine
 10
27.0120103921
 20
24.0460579164
 30
0.0
 11
27.0120103921
 21
15.5093781933
 31
0.0
  0
LINE
  5
31C
330
221
100
AcDbEntity
  8
0
  6
Continuous
 62
     7
100
AcDbLine
 10
76.95426878959999
 20
24.0460579164
 30
0.0
 11
76.95426878959999
 21
15.5093781933
 31
0.0
  0
LINE
  5
31D
330
221
100
AcDbEntity
  8
0
  6
Continuous
 62
     7
100
AcDbLine
 10
27.0120103921
 20
16.8427115266
 30
0.0
 11
48.6498062575
 21
16.8427115266
 31
0.0
  0
LINE
  5
31E
330
221
100
AcDbEntity
  8
0
  6
Continuous
 62
     7
100
AcDbLine
 10
76.95426878959999
 20
16.8427115266
 30
0.0
 11
55.3164729242
 21
16.8427115266
 31
0.0
  0
INSERT
  5
31F
330
221
100
AcDbEntity
  8
0
  6
Continuous
 62
     7
100
AcDbBlockReference
  2
_FILLED
 10
27.0120103921
 20
16.8427115266
 30
0.0
 41
2.0
 42
2.0
 43
2.0
 50
180.0
  0
INSERT
  5
320
330
221
100
AcDbEntity
  8
0
  6
Continuous
 62
     7
100
AcDbBlockReference
  2
_FILLED
 10
76.95426878959999
 20
16.8427115266
 30
0.0
 41
2.0
 42
2.0
 43
2.0
  0
ENDBLK
  5
321
330
221
100
AcDbEntity
  8
0
  6
ByBlock
 62
     0
100
AcDbBlockEnd
  0
BLOCK
  5
322
330
222
100
AcDbEntity
  8
0
  6
Continuous
 62
     7
100
AcDbBlockBegin
  2
*D2
 70
     1
 10
0.0
 20
0.0
 30
0.0
  3
*D2
  1

  0
MTEXT
  5
323
330
222
100
AcDbEntity
  8
0
  6
Continuous
 62
     7
100
AcDbMText
 10
115.3957840663
 20
18.030982113
 30
0.0
 40
1.333333333299999
 41
6.4
 46
0.0
 71
     2
 72
     1
  1
24-1/4\P[62]
 73
     1
 44
0.9
  0
LINE
  5
324
330
222
100
AcDbEntity
  8
0
  6
Continuous
 62
     7
100
AcDbLine
 10
103.2552917947
 20
24.0460579164
 30
0.0
 11
103.2552917947
 21
16.030982113
 31
0.0
  0
LINE
  5
325
330
222
100
AcDbEntity
  8
0
  6
Continuous
 62
     7
100
AcDbLine
 10
127.5362763378
 20
24.0460579164
 30
0.0
 11
127.5362763378
 21
16.030982113
 31
0.0
  0
LINE
  5
326
330
222
100
AcDbEntity
  8
0
  6
Continuous
 62
     7
100
AcDbLine
 10
103.2552917947
 20
17.3643154463
 30
0.0
 11
111.5291173996
 21
17.3643154463
 31
0.0
  0
LINE
  5
327
330
222
100
AcDbEntity
  8
0
  6
Continuous
 62
     7
100
AcDbLine
 10
127.5362763378
 20
17.3643154463
 30
0.0
 11
119.2624507329
 21
17.3643154463
 31
0.0
  0
INSERT
  5
328
330
222
100
AcDbEntity
  8
0
  6
Continuous
 62
     7
100
AcDbBlockReference
  2
_FILLED
 10
103.2552917947
 20
17.3643154463
 30
0.0
 41
2.0
 42
2.0
 43
2.0
 50
180.0
  0
INSERT
  5
329
330
222
100
AcDbEntity
  8
0
  6
Continuous
 62
     7
100
AcDbBlockReference
  2
_FILLED
 10
127.5362763378
 20
17.3643154463
 30
0.0
 41
2.0
 42
2.0
 43
2.0
  0
ENDBLK
  5
32A
330
222
100
AcDbEntity
  8
0
  6
ByBlock
 62
     0
100
AcDbBlockEnd
  0
BLOCK
  5
32B
330
223
100
AcDbEntity
  8
0
  6
Continuous
 62
     7
100
AcDbBlockBegin
  2
*D3
 70
     1
 10
0.0
 20
0.0
 30
0.0
  3
*D3
  1

  0
MTEXT
  5
32C
330
223
100
AcDbEntity
  8
0
  6
Continuous
 62
     7
100
AcDbMText
 10
137.1062438677
 20
38.8793912498
 30
0.0
 40
1.333333333299999
 41
4.266666666699999
 46
0.0
 71
     2
 72
     1
  1
16\P[41]
 73
     1
 44
0.9
  0
LINE
  5
32D
330
223
100
AcDbEntity
  8
0
  6
Continuous
 62
     7
100
AcDbLine
 10
129.5794156209
 20
30.2127245831
 30
0.0
 11
139.5062438677
 21
30.2127245831
 31
0.0
  0
LINE
  5
32E
330
223
100
AcDbEntity
  8
0
  6
Continuous
 62
     7
100
AcDbLine
 10
132.9567489542
 20
46.2127245831
 30
0.0
 11
139.5062438677
 21
46.2127245831
 31
0.0
  0
LINE
  5
32F
330
223
100
AcDbEntity
  8
0
  6
Continuous
 62
     7
100
AcDbLine
 10
138.1729105343
 20
30.2127245831
 30
0.0
 11
138.1729105343
 21
34.8793912498
 31
0.0
  0
LINE
  5
330
330
223
100
AcDbEntity
  8
0
  6
Continuous
 62
     7
100
AcDbLine
 10
138.1729105343
 20
46.2127245831
 30
0.0
 11
138.1729105343
 21
39.5460579164
 31
0.0
  0
INSERT
  5
331
330
223
100
AcDbEntity
  8
0
  6
Continuous
 62
     7
100
AcDbBlockReference
  2
_FILLED
 10
138.1729105343
 20
30.2127245831
 30
0.0
 41
2.0
 42
2.0
 43
2.0
 50
270.0
  0
INSERT
  5
332
330
223
100
AcDbEntity
  8
0
  6
Continuous
 62
     7
100
AcDbBlockReference
  2
_FILLED
 10
138.1729105343
 20
46.2127245831
 30
0.0
 41
2.0
 42
2.0
 43
2.0
 50
90.0
  0
ENDBLK
  5
333
330
223
100
AcDbEntity
  8
0
  6
ByBlock
 62
     0
100
AcDbBlockEnd
  0
BLOCK
  5
334
330
224
100
AcDbEntity
  8
0
  6
Continuous
 62
     7
100
AcDbBlockBegin
  2
*D4
 70
     1
 10
0.0
 20
0.0
 30
0.0
  3
*D4
  1

  0
MTEXT
  5
335
330
224
100
AcDbEntity
  8
0
  6
Continuous
 62
     7
100
AcDbMText
 10
7.920521542899999
 20
39.3793912498
 30
0.0
 40
1.333333333299999
 41
4.266666666699999
 46
0.0
 71
     2
 72
     1
  1
28\P[71]
 73
     1
 44
0.9
  0
LINE
  5
336
330
224
100
AcDbEntity
  8
0
  6
Continuous
 62
     7
100
AcDbLine
 10
18.1060103921
 20
52.71272458310001
 30
0.0
 11
7.653854876299999
 21
52.71272458310001
 31
0.0
  0
LINE
  5
337
330
224
100
AcDbEntity
  8
0
  6
Continuous
 62
     7
100
AcDbLine
 10
26.3453437254
 20
24.7127245831
 30
0.0
 11
7.653854876299999
 21
24.7127245831
 31
0.0
  0
LINE
  5
338
330
224
100
AcDbEntity
  8
0
  6
Continuous
 62
     7
100
AcDbLine
 10
8.987188209600001
 20
52.71272458310001
 30
0.0
 11
8.987188209600001
 21
40.04605791639999
 31
0.0
  0
LINE
  5
339
330
224
100
AcDbEntity
  8
0
  6
Continuous
 62
     7
100
AcDbLine
 10
8.987188209600001
 20
24.7127245831
 30
0.0
 11
8.987188209600001
 21
35.3793912498
 31
0.0
  0
INSERT
  5
33A
330
224
100
AcDbEntity
  8
0
  6
Continuous
 62
     7
100
AcDbBlockReference
  2
_FILLED
 10
8.987188209600001
 20
52.71272458310001
 30
0.0
 41
2.0
 42
2.0
 43
2.0
 50
90.0
  0
INSERT
  5
33B
330
224
100
AcDbEntity
  8
0
  6
Continuous
 62
     7
100
AcDbBlockReference
  2
_FILLED
 10
8.987188209600001
 20
24.7127245831
 30
0.0
 41
2.0
 42
2.0
 43
2.0
 50
270.0
  0
ENDBLK
  5
33C
330
224
100
AcDbEntity
  8
0
  6
ByBlock
 62
     0
100
AcDbBlockEnd
  0
BLOCK
  5
33D
330
225
100
AcDbEntity
  8
0
  6
Continuous
 62
     7
100
AcDbBlockBegin
  2
*D5
 70
     1
 10
0.0
 20
0.0
 30
0.0
  3
*D5
  1

  0
MTEXT
  5
33E
330
225
100
AcDbEntity
  8
0
  6
Continuous
 62
     7
100
AcDbMText
 10
15.3553333592
 20
37.8793912498
 30
0.0
 40
1.333333333299999
 41
4.266666666699999
 46
0.0
 71
     2
 72
     1
  1
25\P[64]
 73
     1
 44
0.9
  0
LINE
  5
33F
330
225
100
AcDbEntity
  8
0
  6
Continuous
 62
     7
100
AcDbLine
 10
18.6443437254
 20
49.7127245831
 30
0.0
 11
15.0886666925
 21
49.7127245831
 31
0.0
  0
LINE
  5
340
330
225
100
AcDbEntity
  8
0
  6
Continuous
 62
     7
100
AcDbLine
 10
26.3453437254
 20
24.7127245831
 30
0.0
 11
15.0886666925
 21
24.7127245831
 31
0.0
  0
LINE
  5
341
330
225
100
AcDbEntity
  8
0
  6
Continuous
 62
     7
100
AcDbLine
 10
16.4220000258
 20
49.7127245831
 30
0.0
 11
16.4220000258
 21
38.5460579164
 31
0.0
  0
LINE
  5
342
330
225
100
AcDbEntity
  8
0
  6
Continuous
 62
     7
100
AcDbLine
 10
16.4220000258
 20
24.7127245831
 30
0.0
 11
16.4220000258
 21
33.8793912498
 31
0.0
  0
INSERT
  5
343
330
225
100
AcDbEntity
  8
0
  6
Continuous
 62
     7
100
AcDbBlockReference
  2
_FILLED
 10
16.4220000258
 20
49.7127245831
 30
0.0
 41
2.0
 42
2.0
 43
2.0
 50
90.0
  0
INSERT
  5
344
330
225
100
AcDbEntity
  8
0
  6
Continuous
 62
     7
100
AcDbBlockReference
  2
_FILLED
 10
16.4220000258
 20
24.7127245831
 30
0.0
 41
2.0
 42
2.0
 43
2.0
 50
270.0
  0
ENDBLK
  5
345
330
225
100
AcDbEntity
  8
0
  6
ByBlock
 62
     0
100
AcDbBlockEnd
  0
BLOCK
  5
346
330
226
100
AcDbEntity
  8
0
  6
Continuous
 62
     7
100
AcDbBlockBegin
  2
*D6
 70
     1
 10
0.0
 20
0.0
 30
0.0
  3
*D6
  1

  0
MTEXT
  5
347
330
226
100
AcDbEntity
  8
0
  6
Continuous
 62
     7
100
AcDbMText
 10
62.96402017310001
 20
23.5845749061
 30
0.0
 40
1.333333333299999
 41
1.955555555599999
 46
0.0
 71
     2
 72
     1
  1
2\Fgdt;{\Fgdt;~}
 73
     1
 44
0.9
  0
LINE
  5
348
330
226
100
AcDbEntity
  8
0
  6
Continuous
 62
     7
100
AcDbLine
 10
54.5248062575
 20
30.2127245831
 30
0.0
 11
66.8590093679
 21
30.2127245831
 31
0.0
  0
ARC
  5
349
330
226
100
AcDbEntity
  8
0
  6
Continuous
 62
     7
100
AcDbCircle
 10
53.8581395909
 20
30.2127245831
 30
0.0
 40
11.6675364438
100
AcDbArc
 50
321.3014166044
 51
360.0
  0
ARC
  5
34A
330
226
100
AcDbEntity
  8
0
  6
Continuous
 62
     7
100
AcDbCircle
 10
53.8581395909
 20
30.2127245831
 30
0.0
 40
11.6675364438
100
AcDbArc
 50
2.102952189
 51
28.2933559824
  0
SOLID
  5
34B
330
226
100
AcDbEntity
  8
0
  6
Continuous
 62
     7
100
AcDbTrace
 10
65.68657980649999
 20
28.1915315969
 30
0.0
 11
65.5256760346
 21
30.2127245831
 31
0.0
 12
65.0223602558
 22
28.2486002648
 32
0.0
 13
65.0223602558
 23
28.2486002648
 33
0.0
  0
SOLID
  5
34C
330
226
100
AcDbEntity
  8
0
  6
Continuous
 62
     7
100
AcDbTrace
 10
64.9427672683
 20
32.5851993765
 30
0.0
 11
65.5178179998
 21
30.6408671602
 31
0.0
 12
65.6044453239
 22
32.6666032778
 32
0.0
 13
65.6044453239
 23
32.6666032778
 33
0.0
  0
ENDBLK
  5
34D
330
226
100
AcDbEntity
  8
0
  6
ByBlock
 62
     0
100
AcDbBlockEnd
  0
BLOCK
  5
34E
330
227
100
AcDbEntity
  8
0
  6
Continuous
 62
     7
100
AcDbBlockBegin
  2
*D7
 70
     1
 10
0.0
 20
0.0
 30
0.0
  3
*D7
  1

  0
MTEXT
  5
34F
330
227
100
AcDbEntity
  8
0
  6
Continuous
 62
     7
100
AcDbMText
 10
50.3831395909
 20
109.1919516465
 30
0.0
 40
1.333333333299999
 41
5.333333333299999
 46
0.0
 71
     2
 72
     1
  1
66\P[168]
 73
     1
 44
0.9
  0
LINE
  5
350
330
227
100
AcDbEntity
  8
0
  6
Continuous
 62
     7
100
AcDbLine
 10
84.9831401071
 20
86.393196282
 30
0.0
 11
84.9831401071
 21
109.8586183131
 31
0.0
  0
LINE
  5
351
330
227
100
AcDbEntity
  8
0
  6
Continuous
 62
     7
100
AcDbLine
 10
18.9831390746
 20
86.3931968726
 30
0.0
 11
18.9831390746
 21
109.8586183131
 31
0.0
  0
LINE
  5
352
330
227
100
AcDbEntity
  8
0
  6
Continuous
 62
     7
100
AcDbLine
 10
84.9831401071
 20
108.5252849798
 30
0.0
 11
55.3164729242
 21
108.5252849798
 31
0.0
  0
LINE
  5
353
330
227
100
AcDbEntity
  8
0
  6
Continuous
 62
     7
100
AcDbLine
 10
18.9831390746
 20
108.5252849798
 30
0.0
 11
48.6498062575
 21
108.5252849798
 31
0.0
  0
INSERT
  5
354
330
227
100
AcDbEntity
  8
0
  6
Continuous
 62
     7
100
AcDbBlockReference
  2
_FILLED
 10
84.9831401071
 20
108.5252849798
 30
0.0
 41
2.0
 42
2.0
 43
2.0
  0
INSERT
  5
355
330
227
100
AcDbEntity
  8
0
  6
Continuous
 62
     7
100
AcDbBlockReference
  2
_FILLED
 10
18.9831390746
 20
108.5252849798
 30
0.0
 41
2.0
 42
2.0
 43
2.0
 50
180.0
  0
ENDBLK
  5
356
330
227
100
AcDbEntity
  8
0
  6
ByBlock
 62
     0
100
AcDbBlockEnd
  0
BLOCK
  5
357
330
228
100
AcDbEntity
  8
0
  6
Continuous
 62
     7
100
AcDbBlockBegin
  2
*D8
 70
     1
 10
0.0
 20
0.0
 30
0.0
  3
*D8
  1

  0
MTEXT
  5
358
330
228
100
AcDbEntity
  8
0
  6
Continuous
 62
     7
100
AcDbMText
 10
108.8426345598
 20
86.393196282
 30
0.0
 40
1.333333333299999
 41
4.266666666699999
 46
0.0
 71
     2
 72
     1
  1
34\P[86]
 73
     1
 44
0.9
  0
LINE
  5
359
330
228
100
AcDbEntity
  8
0
  6
Continuous
 62
     7
100
AcDbLine
 10
72.91378948180001
 20
102.7265300138
 30
0.0
 11
111.2426345598
 21
102.7265300138
 31
0.0
  0
LINE
  5
35A
330
228
100
AcDbEntity
  8
0
  6
Continuous
 62
     7
100
AcDbLine
 10
73.9451228151
 20
68.72652921689999
 30
0.0
 11
111.2426345598
 21
68.72652921689999
 31
0.0
  0
LINE
  5
35B
330
228
100
AcDbEntity
  8
0
  6
Continuous
 62
     7
100
AcDbLine
 10
109.9093012265
 20
102.7265300138
 30
0.0
 11
109.9093012265
 21
87.05986294870001
 31
0.0
  0
LINE
  5
35C
330
228
100
AcDbEntity
  8
0
  6
Continuous
 62
     7
100
AcDbLine
 10
109.9093012265
 20
68.72652921689999
 30
0.0
 11
109.9093012265
 21
82.39319628199998
 31
0.0
  0
INSERT
  5
35D
330
228
100
AcDbEntity
  8
0
  6
Continuous
 62
     7
100
AcDbBlockReference
  2
_FILLED
 10
109.9093012265
 20
102.7265300138
 30
0.0
 41
2.0
 42
2.0
 43
2.0
 50
90.0
  0
INSERT
  5
35E
330
228
100
AcDbEntity
  8
0
  6
Continuous
 62
     7
100
AcDbBlockReference
  2
_FILLED
 10
109.9093012265
 20
68.72652921689999
 30
0.0
 41
2.0
 42
2.0
 43
2.0
 50
270.0
  0
ENDBLK
  5
35F
330
228
100
AcDbEntity
  8
0
  6
ByBlock
 62
     0
100
AcDbBlockEnd
  0
BLOCK
  5
360
330
229
100
AcDbEntity
  8
0
  6
Continuous
 62
     7
100
AcDbBlockBegin
  2
*D9
 70
     1
 10
0.0
 20
0.0
 30
0.0
  3
*D9
  1

  0
MTEXT
  5
361
330
229
100
AcDbEntity
  8
0
  6
Continuous
 62
     7
100
AcDbMText
 10
101.7558535798
 20
86.3162900822
 30
0.0
 40
1.333333333299999
 41
6.4
 46
0.0
 71
     2
 72
     1
  1
21-1/2\P[55]
 73
     1
 44
0.9
  0
LINE
  5
362
330
229
100
AcDbEntity
  8
0
  6
Continuous
 62
     7
100
AcDbLine
 10
84.81673297890001
 20
74.8899671919
 30
0.0
 11
103.0891869131
 21
74.8899671919
 31
0.0
  0
LINE
  5
363
330
229
100
AcDbEntity
  8
0
  6
Continuous
 62
     7
100
AcDbLine
 10
86.0929729242
 20
96.40927963919999
 30
0.0
 11
103.0891869131
 21
96.40927963919999
 31
0.0
  0
LINE
  5
364
330
229
100
AcDbEntity
  8
0
  6
Continuous
 62
     7
100
AcDbLine
 10
101.7558535798
 20
74.8899671919
 30
0.0
 11
101.7558535798
 21
82.3162900822
 31
0.0
  0
LINE
  5
365
330
229
100
AcDbEntity
  8
0
  6
Continuous
 62
     7
100
AcDbLine
 10
101.7558535798
 20
96.40927963919999
 30
0.0
 11
101.7558535798
 21
86.98295674879998
 31
0.0
  0
INSERT
  5
366
330
229
100
AcDbEntity
  8
0
  6
Continuous
 62
     7
100
AcDbBlockReference
  2
_FILLED
 10
101.7558535798
 20
74.8899671919
 30
0.0
 41
2.0
 42
2.0
 43
2.0
 50
270.0
  0
INSERT
  5
367
330
229
100
AcDbEntity
  8
0
  6
Continuous
 62
     7
100
AcDbBlockReference
  2
_FILLED
 10
101.7558535798
 20
96.40927963919999
 30
0.0
 41
2.0
 42
2.0
 43
2.0
 50
90.0
  0
ENDBLK
  5
368
330
229
100
AcDbEntity
  8
0
  6
ByBlock
 62
     0
100
AcDbBlockEnd
  0
BLOCK
  5
369
330
22A
100
AcDbEntity
  8
0
  6
Continuous
 62
     7
100
AcDbBlockBegin
  2
*D10
 70
     1
 10
0.0
 20
0.0
 30
0.0
  3
*D10
  1

  0
MTEXT
  5
36A
330
22A
100
AcDbEntity
  8
0
  6
Continuous
 62
     7
100
AcDbMText
 10
51.9831395955
 20
59.80391882300001
 30
0.0
 40
1.333333333299999
 41
6.4
 46
0.0
 71
     2
 72
     1
  1
41-7/8\P[106]
 73
     1
 44
0.9
  0
LINE
  5
36B
330
22A
100
AcDbEntity
  8
0
  6
Continuous
 62
     7
100
AcDbLine
 10
31.0726387098
 20
68.76921759449999
 30
0.0
 11
31.0726387098
 21
57.803918823
 31
0.0
  0
LINE
  5
36C
330
22A
100
AcDbEntity
  8
0
  6
Continuous
 62
     7
100
AcDbLine
 10
72.89364048119999
 20
67.8285509319
 30
0.0
 11
72.89364048119999
 21
57.803918823
 31
0.0
  0
LINE
  5
36D
330
22A
100
AcDbEntity
  8
0
  6
Continuous
 62
     7
100
AcDbLine
 10
31.0726387098
 20
59.1372521563
 30
0.0
 11
48.1164729289
 21
59.1372521563
 31
0.0
  0
LINE
  5
36E
330
22A
100
AcDbEntity
  8
0
  6
Continuous
 62
     7
100
AcDbLine
 10
72.89364048119999
 20
59.1372521563
 30
0.0
 11
55.84980626220001
 21
59.1372521563
 31
0.0
  0
INSERT
  5
36F
330
22A
100
AcDbEntity
  8
0
  6
Continuous
 62
     7
100
AcDbBlockReference
  2
_FILLED
 10
31.0726387098
 20
59.1372521563
 30
0.0
 41
2.0
 42
2.0
 43
2.0
 50
180.0
  0
INSERT
  5
370
330
22A
100
AcDbEntity
  8
0
  6
Continuous
 62
     7
100
AcDbBlockReference
  2
_FILLED
 10
72.89364048119999
 20
59.1372521563
 30
0.0
 41
2.0
 42
2.0
 43
2.0
  0
ENDBLK
  5
371
330
22A
100
AcDbEntity
  8
0
  6
ByBlock
 62
     0
100
AcDbBlockEnd
  0
BLOCK
  5
372
330
22B
100
AcDbEntity
  8
0
  6
Continuous
 62
     7
100
AcDbBlockBegin
  2
*D11
 70
     1
 10
0.0
 20
0.0
 30
0.0
  3
*D11
  1

  0
MTEXT
  5
373
330
22B
100
AcDbEntity
  8
0
  6
Continuous
 62
     7
100
AcDbMText
 10
12.051761578
 20
67.97632628619999
 30
0.0
 40
1.333333333299999
 41
5.333333333299999
 46
0.0
 71
     3
 72
     1
  1
1-1/4\P[3]
 73
     1
 44
0.9
  0
LINE
  5
374
330
22B
100
AcDbEntity
  8
0
  6
Continuous
 62
     7
100
AcDbLine
 10
18.9831390746
 20
76.9565296153
 30
0.0
 11
18.9831390746
 21
65.97632628619999
 31
0.0
  0
LINE
  5
375
330
22B
100
AcDbEntity
  8
0
  6
Continuous
 62
     7
100
AcDbLine
 10
20.1773710237
 20
72.360862947
 30
0.0
 11
20.1773710237
 21
65.97632628619999
 31
0.0
  0
LINE
  5
376
330
22B
100
AcDbEntity
  8
0
  6
Continuous
 62
     7
100
AcDbLine
 10
18.9831390746
 20
67.30965961949999
 30
0.0
 11
12.7184282447
 21
67.30965961949999
 31
0.0
  0
LINE
  5
377
330
22B
100
AcDbEntity
  8
0
  6
Continuous
 62
     7
100
AcDbLine
 10
20.1773710237
 20
67.30965961949999
 30
0.0
 11
25.510704357
 21
67.30965961949999
 31
0.0
  0
INSERT
  5
378
330
22B
100
AcDbEntity
  8
0
  6
Continuous
 62
     7
100
AcDbBlockReference
  2
_FILLED
 10
18.9831390746
 20
67.30965961949999
 30
0.0
 41
2.0
 42
2.0
 43
2.0
  0
INSERT
  5
379
330
22B
100
AcDbEntity
  8
0
  6
Continuous
 62
     7
100
AcDbBlockReference
  2
_FILLED
 10
20.1773710237
 20
67.30965961949999
 30
0.0
 41
2.0
 42
2.0
 43
2.0
 50
180.0
  0
ENDBLK
  5
37A
330
22B
100
AcDbEntity
  8
0
  6
ByBlock
 62
     0
100
AcDbBlockEnd
  0
BLOCK
  5
37B
330
22C
100
AcDbEntity
  8
0
  6
Continuous
 62
     7
100
AcDbBlockBegin
  2
*D12
 70
     1
 10
0.0
 20
0.0
 30
0.0
  3
*D12
  1

  0
MTEXT
  5
37C
330
22C
100
AcDbEntity
  8
0
  6
Continuous
 62
     7
100
AcDbMText
 10
107.8827277363
 20
65.01236240109999
 30
0.0
 40
1.333333333299999
 41
5.333333333299999
 46
0.0
 71
     1
 72
     1
  1
1-1/8\P[3]
 73
     1
 44
0.9
  0
LINE
  5
37D
330
22C
100
AcDbEntity
  8
0
  6
Continuous
 62
     7
100
AcDbLine
 10
73.1801228151
 20
68.72652921689999
 30
0.0
 11
106.549394403
 21
68.72652921689999
 31
0.0
  0
LINE
  5
37E
330
22C
100
AcDbEntity
  8
0
  6
Continuous
 62
     7
100
AcDbLine
 10
76.8294729242
 20
69.8399118024
 30
0.0
 11
106.549394403
 21
69.8399118024
 31
0.0
  0
LINE
  5
37F
330
22C
100
AcDbEntity
  8
0
  6
Continuous
 62
     7
100
AcDbLine
 10
105.2160610696
 20
68.72652921689999
 30
0.0
 11
105.2160610696
 21
64.3456957344
 31
0.0
  0
LINE
  5
380
330
22C
100
AcDbEntity
  8
0
  6
Continuous
 62
     7
100
AcDbLine
 10
105.2160610696
 20
64.3456957344
 30
0.0
 11
107.2160610696
 21
64.3456957344
 31
0.0
  0
LINE
  5
381
330
22C
100
AcDbEntity
  8
0
  6
Continuous
 62
     7
100
AcDbLine
 10
105.2160610696
 20
69.8399118024
 30
0.0
 11
105.2160610696
 21
75.1732451357
 31
0.0
  0
INSERT
  5
382
330
22C
100
AcDbEntity
  8
0
  6
Continuous
 62
     7
100
AcDbBlockReference
  2
_FILLED
 10
105.2160610696
 20
68.72652921689999
 30
0.0
 41
2.0
 42
2.0
 43
2.0
 50
90.0
  0
INSERT
  5
383
330
22C
100
AcDbEntity
  8
0
  6
Continuous
 62
     7
100
AcDbBlockReference
  2
_FILLED
 10
105.2160610696
 20
69.8399118024
 30
0.0
 41
2.0
 42
2.0
 43
2.0
 50
270.0
  0
ENDBLK
  5
384
330
22C
100
AcDbEntity
  8
0
  6
ByBlock
 62
     0
100
AcDbBlockEnd
  0
BLOCK
  5
385
330
22D
100
AcDbEntity
  8
0
  6
Continuous
 62
     7
100
AcDbBlockBegin
  2
*D13
 70
     1
 10
0.0
 20
0.0
 30
0.0
  3
*D13
  1

  0
MTEXT
  5
386
330
22D
100
AcDbEntity
  8
0
  6
Continuous
 62
     7
100
AcDbMText
 10
12.1142533406
 20
94.12071441530001
 30
0.0
 40
1.333333333299999
 41
5.333333333299999
 46
0.0
 71
     3
 72
     1
  1
4-1/4\P[11]
 73
     1
 44
0.9
  0
LINE
  5
387
330
22D
100
AcDbEntity
  8
0
  6
Continuous
 62
     7
100
AcDbLine
 10
18.174523693
 20
85.7265296153
 30
0.0
 11
13.4475866739
 21
85.7265296153
 31
0.0
  0
LINE
  5
388
330
22D
100
AcDbEntity
  8
0
  6
Continuous
 62
     7
100
AcDbLine
 10
18.1734729242
 20
89.9540296153
 30
0.0
 11
13.4475866739
 21
89.9540296153
 31
0.0
  0
LINE
  5
389
330
22D
100
AcDbEntity
  8
0
  6
Continuous
 62
     7
100
AcDbLine
 10
14.7809200073
 20
85.7265296153
 30
0.0
 11
14.7809200073
 21
80.39319628199999
 31
0.0
  0
LINE
  5
38A
330
22D
100
AcDbEntity
  8
0
  6
Continuous
 62
     7
100
AcDbLine
 10
14.7809200073
 20
89.9540296153
 30
0.0
 11
14.7809200073
 21
93.45404774870001
 31
0.0
  0
LINE
  5
38B
330
22D
100
AcDbEntity
  8
0
  6
Continuous
 62
     7
100
AcDbLine
 10
14.7809200073
 20
93.45404774870001
 30
0.0
 11
12.7809200073
 21
93.45404774870001
 31
0.0
  0
INSERT
  5
38C
330
22D
100
AcDbEntity
  8
0
  6
Continuous
 62
     7
100
AcDbBlockReference
  2
_FILLED
 10
14.7809200073
 20
85.7265296153
 30
0.0
 41
2.0
 42
2.0
 43
2.0
 50
90.0
  0
INSERT
  5
38D
330
22D
100
AcDbEntity
  8
0
  6
Continuous
 62
     7
100
AcDbBlockReference
  2
_FILLED
 10
14.7809200073
 20
89.9540296153
 30
0.0
 41
2.0
 42
2.0
 43
2.0
 50
270.0
  0
ENDBLK
  5
38E
330
22D
100
AcDbEntity
  8
0
  6
ByBlock
 62
     0
100
AcDbBlockEnd
  0
BLOCK
  5
38F
330
22E
100
AcDbEntity
  8
0
  6
Continuous
 62
     7
100
AcDbBlockBegin
  2
*D14
 70
     1
 10
0.0
 20
0.0
 30
0.0
  3
*D14
  1

  0
MTEXT
  5
390
330
22E
100
AcDbEntity
  8
0
  6
Continuous
 62
     7
100
AcDbMText
 10
91.7160534497
 20
92.3151538811
 30
0.0
 40
1.333333333299999
 41
5.333333333299999
 46
0.0
 71
     1
 72
     1
  1
4-1/4\P[11]
 73
     1
 44
0.9
  0
LINE
  5
391
330
22E
100
AcDbEntity
  8
0
  6
Continuous
 62
     7
100
AcDbLine
 10
85.93342215540001
 20
85.7265296153
 30
0.0
 11
90.38272011629999
 21
85.7265296153
 31
0.0
  0
LINE
  5
392
330
22E
100
AcDbEntity
  8
0
  6
Continuous
 62
     7
100
AcDbLine
 10
85.7748062575
 20
81.47652961529999
 30
0.0
 11
90.38272011629999
 21
81.47652961529999
 31
0.0
  0
LINE
  5
393
330
22E
100
AcDbEntity
  8
0
  6
Continuous
 62
     7
100
AcDbLine
 10
89.04938678299998
 20
85.7265296153
 30
0.0
 11
89.04938678299998
 21
91.6484872144
 31
0.0
  0
LINE
  5
394
330
22E
100
AcDbEntity
  8
0
  6
Continuous
 62
     7
100
AcDbLine
 10
89.04938678299998
 20
91.6484872144
 30
0.0
 11
91.04938678299999
 21
91.6484872144
 31
0.0
  0
LINE
  5
395
330
22E
100
AcDbEntity
  8
0
  6
Continuous
 62
     7
100
AcDbLine
 10
89.04938678299998
 20
81.47652961529999
 30
0.0
 11
89.04938678299998
 21
76.14319628199999
 31
0.0
  0
INSERT
  5
396
330
22E
100
AcDbEntity
  8
0
  6
Continuous
 62
     7
100
AcDbBlockReference
  2
_FILLED
 10
89.04938678299998
 20
85.7265296153
 30
0.0
 41
2.0
 42
2.0
 43
2.0
 50
270.0
  0
INSERT
  5
397
330
22E
100
AcDbEntity
  8
0
  6
Continuous
 62
     7
100
AcDbBlockReference
  2
_FILLED
 10
89.04938678299998
 20
81.47652961529999
 30
0.0
 41
2.0
 42
2.0
 43
2.0
 50
90.0
  0
ENDBLK
  5
398
330
22E
100
AcDbEntity
  8
0
  6
ByBlock
 62
     0
100
AcDbBlockEnd
  0
BLOCK
  5
399
330
22F
100
AcDbEntity
  8
0
  6
Continuous
 62
     7
100
AcDbBlockBegin
  2
*D15
 70
     1
 10
0.0
 20
0.0
 30
0.0
  3
*D15
  1

  0
MTEXT
  5
39A
330
22F
100
AcDbEntity
  8
0
  6
Continuous
 62
     7
100
AcDbMText
 10
62.94087515899999
 20
65.04313891619999
 30
0.0
 40
1.333333333299999
 41
5.333333333299999
 46
0.0
 71
     1
 72
     1
  1
3-7/8\P[10]
 73
     1
 44
0.9
  0
LINE
  5
39B
330
22F
100
AcDbEntity
  8
0
  6
Continuous
 62
     7
100
AcDbLine
 10
51.9831395909
 20
67.8129137174
 30
0.0
 11
51.9831395909
 21
63.0431389162
 31
0.0
  0
LINE
  5
39C
330
22F
100
AcDbEntity
  8
0
  6
Continuous
 62
     7
100
AcDbLine
 10
55.8581395909
 20
68.1008629487
 30
0.0
 11
55.8581395909
 21
63.0431389162
 31
0.0
  0
LINE
  5
39D
330
22F
100
AcDbEntity
  8
0
  6
Continuous
 62
     7
100
AcDbLine
 10
51.9831395909
 20
64.3764722496
 30
0.0
 11
46.6498062575
 21
64.3764722496
 31
0.0
  0
LINE
  5
39E
330
22F
100
AcDbEntity
  8
0
  6
Continuous
 62
     7
100
AcDbLine
 10
55.8581395909
 20
64.3764722496
 30
0.0
 11
62.2742084923
 21
64.3764722496
 31
0.0
  0
INSERT
  5
39F
330
22F
100
AcDbEntity
  8
0
  6
Continuous
 62
     7
100
AcDbBlockReference
  2
_FILLED
 10
51.9831395909
 20
64.3764722496
 30
0.0
 41
2.0
 42
2.0
 43
2.0
  0
INSERT
  5
3A0
330
22F
100
AcDbEntity
  8
0
  6
Continuous
 62
     7
100
AcDbBlockReference
  2
_FILLED
 10
55.8581395909
 20
64.3764722496
 30
0.0
 41
2.0
 42
2.0
 43
2.0
 50
180.0
  0
ENDBLK
  5
3A1
330
22F
100
AcDbEntity
  8
0
  6
ByBlock
 62
     0
100
AcDbBlockEnd
  0
BLOCK
  5
3A2
330
230
100
AcDbEntity
  8
0
  6
Continuous
 62
     7
100
AcDbBlockBegin
  2
*D16
 70
     1
 10
0.0
 20
0.0
 30
0.0
  3
*D16
  1

  0
MTEXT
  5
3A3
330
230
100
AcDbEntity
  8
0
  6
Continuous
 62
     7
100
AcDbMText
 10
90.040912711
 20
45.88969462949999
 30
0.0
 40
1.333333333299999
 41
3.0222222222
 46
0.0
 71
     2
 72
     1
  1
31\Fgdt;{\Fgdt;~}
 73
     1
 44
0.9
  0
LINE
  5
3A4
330
230
100
AcDbEntity
  8
0
  6
Continuous
 62
     7
100
AcDbLine
 10
79.6401552394
 20
45.4189533098
 30
0.0
 11
78.3099097163
 21
43.20505297919999
 31
0.0
  0
LINE
  5
3A5
330
230
100
AcDbEntity
  8
0
  6
Continuous
 62
     7
100
AcDbLine
 10
83.90604393450001
 20
51.8519176725
 30
0.0
 11
83.90604393450001
 21
41.6531076086
 31
0.0
  0
ARC
  5
3A6
330
230
100
AcDbEntity
  8
0
  6
Continuous
 62
     7
100
AcDbCircle
 10
83.90604393450001
 20
52.5185843391
 30
0.0
 40
9.5321433972
100
AcDbArc
 50
206.9424156767
 51
239.0
  0
ARC
  5
3A7
330
230
100
AcDbEntity
  8
0
  6
Continuous
 62
     7
100
AcDbCircle
 10
83.90604393450001
 20
52.5185843391
 30
0.0
 40
9.5321433972
100
AcDbArc
 50
270.0
 51
310.0606422876
  0
SOLID
  5
3A8
330
230
100
AcDbEntity
  8
0
  6
Continuous
 62
     7
100
AcDbTrace
 10
77.19892780470001
 20
45.2856997059
 30
0.0
 11
78.9966271495
 21
44.3479427135
 31
0.0
 12
77.60023814520001
 22
45.818047764
 32
0.0
 13
77.60023814520001
 23
45.818047764
 33
0.0
  0
SOLID
  5
3A9
330
230
100
AcDbEntity
  8
0
  6
Continuous
 62
     7
100
AcDbTrace
 10
85.86014300329999
 20
43.5273734153
 30
0.0
 11
83.90604393450001
 21
42.986440942
 31
0.0
 12
85.92995358549998
 22
42.864371962
 32
0.0
 13
85.92995358549998
 23
42.864371962
 33
0.0
  0
ENDBLK
  5
3AA
330
230
100
AcDbEntity
  8
0
  6
ByBlock
 62
     0
100
AcDbBlockEnd
  0
BLOCK
  5
23B
330
231
100
AcDbEntity
  8
0
  6
Continuous
 62
     7
100
AcDbBlockBegin
  2
SYMBOL_7_BL4
 70
     0
 10
51.9937163213
 20
73.24387226579999
 30
0.0
  3
SYMBOL_7_BL4
  1

  0
TEXT
  5
23C
330
231
100
AcDbEntity
  8
0
  6
Continuous
 62
     7
100
AcDbText
 10
51.46532105399999
 20
72.57720533979998
 30
0.0
 40
1.333333852099999
  1
L
  7
TEXTSTYLE_2
100
AcDbText
  0
ELLIPSE
  5
23D
330
231
100
AcDbEntity
  8
0
  6
Continuous
 62
     7
100
AcDbEllipse
 10
51.9937163213
 20
73.24387226579999
 30
0.0
 11
-1.942887567899999
 21
0.0
 31
0.0
210
0.0
220
0.0
230
1.0
 40
0.6606458385
 41
0.0
 42
6.283185307179586
  0
ENDBLK
  5
23E
330
231
100
AcDbEntity
  8
0
  6
ByBlock
 62
     0
100
AcDbBlockEnd
  0
BLOCK
  5
23F
330
232
100
AcDbEntity
  8
0
  6
Continuous
 62
     7
100
AcDbBlockBegin
  2
SYMBOL_6_BL3
 70
     0
 10
64.79542852059999
 20
97.96125963809998
 30
0.0
  3
SYMBOL_6_BL3
  1

  0
TEXT
  5
240
330
232
100
AcDbEntity
  8
0
  6
Continuous
 62
     7
100
AcDbText
 10
64.1779804491
 20
97.3433377413
 30
0.0
 40
1.333333852099999
  1
L
 50
354.0
  7
TEXTSTYLE_2
100
AcDbText
  0
TEXT
  5
241
330
232
100
AcDbEntity
  8
0
  6
Continuous
 62
     7
100
AcDbText
 10
60.51487600479999
 20
97.74082472290002
 30
0.0
 40
1.333333852099999
  1
4
 50
354.0
  7
TEXTSTYLE_2
100
AcDbText
  0
TEXT
  5
242
330
232
100
AcDbEntity
  8
0
  6
Continuous
 62
     7
100
AcDbText
 10
67.9199869204
 20
96.9625162031
 30
0.0
 40
1.333333852099999
  1
5
 50
354.0
  7
TEXTSTYLE_2
100
AcDbText
  0
ELLIPSE
  5
243
330
232
100
AcDbEntity
  8
0
  6
Continuous
 62
     7
100
AcDbEllipse
 10
64.7731667811
 20
97.95112025080001
 30
0.0
 11
-1.9322442265
 21
0.2030870518
 31
0.0
210
0.0
220
0.0
230
1.0
 40
0.6606458385
 41
0.0
 42
6.283185307179586
  0
ENDBLK
  5
244
330
232
100
AcDbEntity
  8
0
  6
ByBlock
 62
     0
100
AcDbBlockEnd
  0
BLOCK
  5
245
330
233
100
AcDbEntity
  8
0
  6
Continuous
 62
     7
100
AcDbBlockBegin
  2
SYMBOL_5_BL2
 70
     0
 10
39.4359073122
 20
98.09596412000001
 30
0.0
  3
SYMBOL_5_BL2
  1

  0
TEXT
  5
246
330
233
100
AcDbEntity
  8
0
  6
Continuous
 62
     7
100
AcDbText
 10
38.9604251489
 20
97.3631706267
 30
0.0
 40
1.333333852099999
  1
L
 50
6.0
  7
TEXTSTYLE_2
100
AcDbText
  0
TEXT
  5
247
330
233
100
AcDbEntity
  8
0
  6
Continuous
 62
     7
100
AcDbText
 10
35.294726135
 20
96.99036932550001
 30
0.0
 40
1.333333852099999
  1
5
 50
6.0
  7
TEXTSTYLE_2
100
AcDbText
  0
TEXT
  5
248
330
233
100
AcDbEntity
  8
0
  6
Continuous
 62
     7
100
AcDbText
 10
42.6998370506
 20
97.76867784530001
 30
0.0
 40
1.333333852099999
  1
4
 50
6.0
  7
TEXTSTYLE_2
100
AcDbText
  0
ELLIPSE
  5
249
330
233
100
AcDbEntity
  8
0
  6
Continuous
 62
     7
100
AcDbEllipse
 10
39.4162401423
 20
98.08141782680001
 30
0.0
 11
-1.9322442265
 21
-0.2030870518
 31
0.0
210
0.0
220
0.0
230
1.0
 40
0.6606458385
 41
0.0
 42
6.283185307179586
  0
ENDBLK
  5
24A
330
233
100
AcDbEntity
  8
0
  6
ByBlock
 62
     0
100
AcDbBlockEnd
  0
BLOCK
  5
24B
330
234
100
AcDbEntity
  8
0
  6
Continuous
 62
     7
100
AcDbBlockBegin
  2
SYMBOL_2_BL1
 70
     0
 10
160.6670767479
 20
55.3332764692
 30
0.0
  3
SYMBOL_2_BL1
  1

  0
TEXT
  5
24C
330
234
100
AcDbEntity
  8
0
  6
Continuous
 62
     7
100
AcDbText
 10
144.4192916718
 20
63.1067098603
 30
0.0
 40
0.5
  1
Infomations Techniques/Technical Infomations
  7
TEXTSTYLE_2
100
AcDbText
  0
TEXT
  5
24D
330
234
100
AcDbEntity
  8
0
  6
Continuous
 62
     7
100
AcDbText
 10
144.6670767479
 20
61.6666098026
 30
0.0
 40
0.6666666667
  1
NOMBRE DE JETS:     
  7
TEXTSTYLE_2
100
AcDbText
  0
TEXT
  5
24E
330
234
100
AcDbEntity
  8
0
  6
Continuous
 62
     7
100
AcDbText
 10
154.5115211924
 20
61.6666098026
 30
0.0
 40
0.6666666667
  1
38
  7
TEXTSTYLE_2
100
AcDbText
  0
TEXT
  5
24F
330
234
100
AcDbEntity
  8
0
  6
Continuous
 62
     7
100
AcDbText
 10
144.6670767479
 20
60.6666098026
 30
0.0
 40
0.6666666667
  1
 
  7
TEXTSTYLE_2
100
AcDbText
  0
TEXT
  5
250
330
234
100
AcDbEntity
  8
0
  6
Continuous
 62
     7
100
AcDbText
 10
144.6670767479
 20
59.6666098026
 30
0.0
 40
0.6666666667
  1
NIVEAU D'EAU              GALLONS(US)        LITRES        GALLONS(UK)
  7
TEXTSTYLE_2
100
AcDbText
  0
TEXT
  5
251
330
234
100
AcDbEntity
  8
0
  6
Continuous
 62
     7
100
AcDbText
 10
144.6670767479
 20
58.6666098026
 30
0.0
 40
0.6666666667
  1
PLEIN
  7
TEXTSTYLE_2
100
AcDbText
  0
TEXT
  5
252
330
234
100
AcDbEntity
  8
0
  6
Continuous
 62
     7
100
AcDbText
 10
144.6670767479
 20
57.6666098026
 30
0.0
 40
0.6666666667
  1
HAUT T.PLEIN
  7
TEXTSTYLE_2
100
AcDbText
  0
TEXT
  5
253
330
234
100
AcDbEntity
  8
0
  6
Continuous
 62
     7
100
AcDbText
 10
144.6670767479
 20
56.6666098026
 30
0.0
 40
0.6666666667
  1
MILIEU T.PLEIN
  7
TEXTSTYLE_2
100
AcDbText
  0
TEXT
  5
254
330
234
100
AcDbEntity
  8
0
  6
Continuous
 62
     7
100
AcDbText
 10
144.6670767479
 20
55.6666098026
 30
0.0
 40
0.6666666667
  1
BAS T.PLEIN
  7
TEXTSTYLE_2
100
AcDbText
  0
TEXT
  5
255
330
234
100
AcDbEntity
  8
0
  6
Continuous
 62
     7
100
AcDbText
 10
144.6670767479
 20
54.6666098026
 30
0.0
 40
0.6666666667
  1
3" EN BAS T.PLEIN
  7
TEXTSTYLE_2
100
AcDbText
  0
TEXT
  5
256
330
234
100
AcDbEntity
  8
0
  6
Continuous
 62
     7
100
AcDbText
 10
144.6670767479
 20
53.6666098026
 30
0.0
 40
0.6666666667
  1
 
  7
TEXTSTYLE_2
100
AcDbText
  0
TEXT
  5
257
330
234
100
AcDbEntity
  8
0
  6
Continuous
 62
     7
100
AcDbText
 10
144.4669152423
 20
53.1198228777
 30
0.0
 40
0.5
  1
Legende/Legend
  7
TEXTSTYLE_2
100
AcDbText
  0
TEXT
  5
258
330
234
100
AcDbEntity
  8
0
  6
Continuous
 62
     7
100
AcDbText
 10
150.9957501864
 20
51.6085579001
 30
0.0
 40
0.6666666667
  1
ZONE DE ROBINETTERIE
  7
TEXTSTYLE_2
100
AcDbText
  0
TEXT
  5
259
330
234
100
AcDbEntity
  8
0
  6
Continuous
 62
     7
100
AcDbText
 10
145.9160256194
 20
50.11331338569999
 30
0.0
 40
0.6666666667
  1
L   :  SYSTEME LED       DC   :  DOUBLE DOSSIER CHAUFFANT
  7
TEXTSTYLE_2
100
AcDbText
  0
TEXT
  5
25A
330
234
100
AcDbEntity
  8
0
  6
Continuous
 62
     7
100
AcDbText
 10
145.9160256194
 20
48.7799800523
 30
0.0
 40
0.6666666667
  1
C   :  CONTROLE
  7
TEXTSTYLE_2
100
AcDbText
  0
TEXT
  5
25B
330
234
100
AcDbEntity
  8
0
  6
Continuous
 62
     7
100
AcDbText
 10
145.9160256194
 20
47.44664671899999
 30
0.0
 40
0.6666666667
  1
T   :  MOTEUR
  7
TEXTSTYLE_2
100
AcDbText
  0
TEXT
  5
25C
330
234
100
AcDbEntity
  8
0
  6
Continuous
 62
     7
100
AcDbText
 10
157.4997734472
 20
58.6666098026
 30
0.0
 40
0.6666666667
  1
98
  7
TEXTSTYLE_2
100
AcDbText
  0
TEXT
  5
25D
330
234
100
AcDbEntity
  8
0
  6
Continuous
 62
     7
100
AcDbText
 10
157.4997734472
 20
57.6666098026
 30
0.0
 40
0.6666666667
  1
75
  7
TEXTSTYLE_2
100
AcDbText
  0
TEXT
  5
25E
330
234
100
AcDbEntity
  8
0
  6
Continuous
 62
     7
100
AcDbText
 10
157.4997734472
 20
56.6666098026
 30
0.0
 40
0.6666666667
  1
73
  7
TEXTSTYLE_2
100
AcDbText
  0
TEXT
  5
25F
330
234
100
AcDbEntity
  8
0
  6
Continuous
 62
     7
100
AcDbText
 10
157.4997734472
 20
55.6666098026
 30
0.0
 40
0.6666666667
  1
72
  7
TEXTSTYLE_2
100
AcDbText
  0
TEXT
  5
260
330
234
100
AcDbEntity
  8
0
  6
Continuous
 62
     7
100
AcDbText
 10
157.4997734472
 20
54.6666098026
 30
0.0
 40
0.6666666667
  1
55
  7
TEXTSTYLE_2
100
AcDbText
  0
TEXT
  5
261
330
234
100
AcDbEntity
  8
0
  6
Continuous
 62
     7
100
AcDbText
 10
164.4199793909
 20
58.6836892047
 30
0.0
 40
0.6666666667
  1
371
  7
TEXTSTYLE_2
100
AcDbText
  0
TEXT
  5
262
330
234
100
AcDbEntity
  8
0
  6
Continuous
 62
     7
100
AcDbText
 10
164.4199793909
 20
57.6836892047
 30
0.0
 40
0.6666666667
  1
282
  7
TEXTSTYLE_2
100
AcDbText
  0
TEXT
  5
263
330
234
100
AcDbEntity
  8
0
  6
Continuous
 62
     7
100
AcDbText
 10
164.4199793909
 20
56.6836892047
 30
0.0
 40
0.6666666667
  1
278
  7
TEXTSTYLE_2
100
AcDbText
  0
TEXT
  5
264
330
234
100
AcDbEntity
  8
0
  6
Continuous
 62
     7
100
AcDbText
 10
164.4199793909
 20
55.6836892047
 30
0.0
 40
0.6666666667
  1
273
  7
TEXTSTYLE_2
100
AcDbText
  0
TEXT
  5
265
330
234
100
AcDbEntity
  8
0
  6
Continuous
 62
     7
100
AcDbText
 10
164.4199793909
 20
54.6836892047
 30
0.0
 40
0.6666666667
  1
208
  7
TEXTSTYLE_2
100
AcDbText
  0
TEXT
  5
266
330
234
100
AcDbEntity
  8
0
  6
Continuous
 62
     7
100
AcDbText
 10
171.3646183284
 20
58.6666098026
 30
0.0
 40
0.6666666667
  1
82
  7
TEXTSTYLE_2
100
AcDbText
  0
TEXT
  5
267
330
234
100
AcDbEntity
  8
0
  6
Continuous
 62
     7
100
AcDbText
 10
171.3646183284
 20
57.6666098026
 30
0.0
 40
0.6666666667
  1
62
  7
TEXTSTYLE_2
100
AcDbText
  0
TEXT
  5
268
330
234
100
AcDbEntity
  8
0
  6
Continuous
 62
     7
100
AcDbText
 10
171.3646183284
 20
56.6666098026
 30
0.0
 40
0.6666666667
  1
61
  7
TEXTSTYLE_2
100
AcDbText
  0
TEXT
  5
269
330
234
100
AcDbEntity
  8
0
  6
Continuous
 62
     7
100
AcDbText
 10
171.3646183284
 20
55.6666098026
 30
0.0
 40
0.6666666667
  1
60
  7
TEXTSTYLE_2
100
AcDbText
  0
TEXT
  5
26A
330
234
100
AcDbEntity
  8
0
  6
Continuous
 62
     7
100
AcDbText
 10
171.3646183284
 20
54.6666098026
 30
0.0
 40
0.6666666667
  1
46
  7
TEXTSTYLE_2
100
AcDbText
  0
LINE
  5
26B
330
234
100
AcDbEntity
  8
0
  6
Continuous
 62
     7
100
AcDbLine
 10
144.0004100812
 20
63.9999431359
 30
0.0
 11
144.0004100812
 21
46.6666098026
 31
0.0
  0
LINE
  5
26C
330
234
100
AcDbEntity
  8
0
  6
Continuous
 62
     7
100
AcDbLine
 10
144.0004100812
 20
63.9999431359
 30
0.0
 11
177.3337434145999
 21
63.9999431359
 31
0.0
  0
LINE
  5
26D
330
234
100
AcDbEntity
  8
0
  6
Continuous
 62
     7
100
AcDbLine
 10
177.3337434145999
 20
63.9999431359
 30
0.0
 11
177.3337434145999
 21
46.6666098026
 31
0.0
  0
LINE
  5
26E
330
234
100
AcDbEntity
  8
0
  6
Continuous
 62
     7
100
AcDbLine
 10
144.0004100812
 20
46.6666098026
 30
0.0
 11
177.3337434145999
 21
46.6666098026
 31
0.0
  0
LINE
  5
26F
330
234
100
AcDbEntity
  8
0
  6
Continuous
 62
     7
100
AcDbLine
 10
145.3337434146
 20
53.9999431359
 30
0.0
 11
176.0004100812
 21
53.9999431359
 31
0.0
  0
LINE
  5
270
330
234
100
AcDbEntity
  8
0
  6
Continuous
 62
     7
100
AcDbLine
 10
145.3337434146
 20
60.9999431359
 30
0.0
 11
176.0004100812
 21
60.9999431359
 31
0.0
  0
LINE
  5
271
330
234
100
AcDbEntity
  8
0
  6
Continuous
 62
     7
100
AcDbLine
 10
144.8093166405
 20
52.37810764029999
 30
0.0
 11
144.4402958982
 21
52.0090868979
 31
0.0
  0
LINE
  5
272
330
234
100
AcDbEntity
  8
0
  6
Continuous
 62
     7
100
AcDbLine
 10
145.4759833071999
 20
52.37810764029999
 30
0.0
 11
144.6779675167
 21
51.5800918498
 31
0.0
  0
LINE
  5
273
330
234
100
AcDbEntity
  8
0
  6
Continuous
 62
     7
100
AcDbLine
 10
146.1426499738
 20
52.37810764029999
 30
0.0
 11
145.3446341834
 21
51.5800918498
 31
0.0
  0
LINE
  5
274
330
234
100
AcDbEntity
  8
0
  6
Continuous
 62
     7
100
AcDbLine
 10
146.8093166405
 20
52.37810764029999
 30
0.0
 11
146.0113008501
 21
51.5800918498
 31
0.0
  0
LINE
  5
275
330
234
100
AcDbEntity
  8
0
  6
Continuous
 62
     7
100
AcDbLine
 10
147.4759833071999
 20
52.37810764029999
 30
0.0
 11
146.6779675167
 21
51.5800918498
 31
0.0
  0
LINE
  5
276
330
234
100
AcDbEntity
  8
0
  6
Continuous
 62
     7
100
AcDbLine
 10
148.1426499738
 20
52.37810764029999
 30
0.0
 11
147.3446341834
 21
51.5800918498
 31
0.0
  0
LINE
  5
277
330
234
100
AcDbEntity
  8
0
  6
Continuous
 62
     7
100
AcDbLine
 10
148.8093166405
 20
52.37810764029999
 30
0.0
 11
148.0113008501
 21
51.5800918498
 31
0.0
  0
LINE
  5
278
330
234
100
AcDbEntity
  8
0
  6
Continuous
 62
     7
100
AcDbLine
 10
149.4759833071999
 20
52.37810764029999
 30
0.0
 11
148.6779675167
 21
51.5800918498
 31
0.0
  0
LINE
  5
279
330
234
100
AcDbEntity
  8
0
  6
Continuous
 62
     7
100
AcDbLine
 10
150.1426499738
 20
52.37810764029999
 30
0.0
 11
149.3446341834
 21
51.5800918498
 31
0.0
  0
LINE
  5
27A
330
234
100
AcDbEntity
  8
0
  6
Continuous
 62
     7
100
AcDbLine
 10
150.586137408
 20
52.1549284077
 30
0.0
 11
150.0113008501
 21
51.5800918498
 31
0.0
  0
ELLIPSE
  5
27B
330
234
100
AcDbEntity
  8
0
  6
Continuous
 62
     7
100
AcDbEllipse
 10
146.1458125634
 20
50.4308908428
 30
0.0
 11
1.0473539356
 21
0.0
 31
0.0
210
0.0
220
0.0
230
1.0
 40
0.4938647983
 41
0.0
 42
6.283185307179586
  0
ELLIPSE
  5
27C
330
234
100
AcDbEntity
  8
0
  6
Continuous
 62
     7
100
AcDbEllipse
 10
146.1458125634
 20
49.0975575095
 30
0.0
 11
1.0473539356
 21
0.0
 31
0.0
210
0.0
220
0.0
230
1.0
 40
0.4938647983
 41
0.0
 42
6.283185307179586
  0
ELLIPSE
  5
27D
330
234
100
AcDbEntity
  8
0
  6
Continuous
 62
     7
100
AcDbEllipse
 10
146.1458125634
 20
47.7642241762
 30
0.0
 11
1.0473539356
 21
0.0
 31
0.0
210
0.0
220
0.0
230
1.0
 40
0.4938647983
 41
0.0
 42
6.283185307179586
  0
ELLIPSE
  5
27E
330
234
100
AcDbEntity
  8
0
  6
Continuous
 62
     7
100
AcDbEllipse
 10
157.1644481445
 20
50.4504121999
 30
0.0
 11
1.0473539356
 21
0.0
 31
0.0
210
0.0
220
0.0
230
1.0
 40
0.4938647983
 41
0.0
 42
6.283185307179586
  0
ENDBLK
  5
27F
330
234
100
AcDbEntity
  8
0
  6
ByBlock
 62
     0
100
AcDbBlockEnd
  0
BLOCK
  5
280
330
235
100
AcDbEntity
  8
0
  6
Continuous
 62
     7
100
AcDbBlockBegin
  2
SYMBOL_0_BL0
 70
     0
 10
126.788118813
 20
57.432846125
 30
0.0
  3
SYMBOL_0_BL0
  1

  0
TEXT
  5
281
330
235
100
AcDbEntity
  8
0
  6
Continuous
 62
     7
100
AcDbText
 10
120.4740585112
 20
59.67788011079999
 30
0.0
 40
1.1626666667
  1
INTERNAL USE 
 50
10.0
  7
TEXTSTYLE_3
100
AcDbText
  0
TEXT
  5
282
330
235
100
AcDbEntity
  8
0
  6
Continuous
 62
     7
100
AcDbText
 10
119.7303743072
 20
57.6763589331
 30
0.0
 40
1.1626666667
  1
DOCUMENT ONLY
 50
10.0
  7
TEXTSTYLE_3
100
AcDbText
  0
TEXT
  5
283
330
235
100
AcDbEntity
  8
0
  6
Continuous
 62
     7
100
AcDbText
 10
125.5151018705
 20
57.4279308826
 30
0.0
 40
1.1626666667
  1
 
 50
10.0
  7
TEXTSTYLE_5
100
AcDbText
  0
TEXT
  5
284
330
235
100
AcDbEntity
  8
0
  6
Continuous
 62
     7
100
AcDbText
 10
117.0704539875
 20
53.2508364763
 30
0.0
 40
1.1626666667
  1
DOCUMENT POUR USAGE
 50
10.0
  7
TEXTSTYLE_3
100
AcDbText
  0
TEXT
  5
285
330
235
100
AcDbEntity
  8
0
  6
Continuous
 62
     7
100
AcDbText
 10
117.4995534335
 20
51.2340880159
 30
0.0
 40
1.1626666667
  1
A L'INTERNE SEULEMENT
 50
10.0
  7
TEXTSTYLE_3
100
AcDbText
  0
LINE
  5
286
330
235
100
AcDbEntity
  8
0
  6
Continuous
 62
     7
100
AcDbLine
 10
140.6446705363
 20
53.08931250699999
 30
0.0
 11
140.651429469
 21
53.0960714397
 31
0.0
  0
LINE
  5
287
330
235
100
AcDbEntity
  8
0
  6
Continuous
 62
     7
100
AcDbLine
 10
139.9121009699
 20
52.96014072720001
 30
0.0
 11
140.560982415
 21
53.60902217229999
 31
0.0
  0
LINE
  5
288
330
235
100
AcDbEntity
  8
0
  6
Continuous
 62
     7
100
AcDbLine
 10
139.1795314035
 20
52.83096894739999
 30
0.0
 11
140.4705353611
 21
54.12197290499999
 31
0.0
  0
LINE
  5
289
330
235
100
AcDbEntity
  8
0
  6
Continuous
 62
     7
100
AcDbLine
 10
138.4469618371
 20
52.7017971676
 30
0.0
 11
140.3800883070999
 21
54.63492363770001
 31
0.0
  0
LINE
  5
28A
330
235
100
AcDbEntity
  8
0
  6
Continuous
 62
     7
100
AcDbLine
 10
137.7143922706
 20
52.5726253878
 30
0.0
 11
140.2896412531999
 21
55.14787437029999
 31
0.0
  0
LINE
  5
28B
330
235
100
AcDbEntity
  8
0
  6
Continuous
 62
     7
100
AcDbLine
 10
136.9818227042
 20
52.443453608
 30
0.0
 11
138.522826519
 21
53.98445742279999
 31
0.0
  0
LINE
  5
28C
330
235
100
AcDbEntity
  8
0
  6
Continuous
 62
     7
100
AcDbLine
 10
139.1201717117
 20
54.5818026155
 30
0.0
 11
140.1991941992
 21
55.660825103
 31
0.0
  0
LINE
  5
28D
330
235
100
AcDbEntity
  8
0
  6
Continuous
 62
     7
100
AcDbLine
 10
136.2492531378
 20
52.3142818282
 30
0.0
 11
137.7902569526
 21
53.855285643
 31
0.0
  0
LINE
  5
28E
330
235
100
AcDbEntity
  8
0
  6
Continuous
 62
     7
100
AcDbLine
 10
139.0297246578
 20
55.09475334810001
 30
0.0
 11
140.1087471453
 21
56.1737758357
 31
0.0
  0
LINE
  5
28F
330
235
100
AcDbEntity
  8
0
  6
Continuous
 62
     7
100
AcDbLine
 10
135.5166835714
 20
52.18511004839999
 30
0.0
 11
137.0576873862
 21
53.7261138631
 31
0.0
  0
LINE
  5
290
330
235
100
AcDbEntity
  8
0
  6
Continuous
 62
     7
100
AcDbLine
 10
138.9392776038
 20
55.60770408079999
 30
0.0
 11
140.0183000914
 21
56.6867265683
 31
0.0
  0
LINE
  5
291
330
235
100
AcDbEntity
  8
0
  6
Continuous
 62
     7
100
AcDbLine
 10
134.784114005
 20
52.05593826859999
 30
0.0
 11
136.3251178198
 21
53.5969420833
 31
0.0
  0
LINE
  5
292
330
235
100
AcDbEntity
  8
0
  6
Continuous
 62
     7
100
AcDbLine
 10
138.8488305499
 20
56.12065481350001
 30
0.0
 11
139.9278530374
 21
57.199677301
 31
0.0
  0
LINE
  5
293
330
235
100
AcDbEntity
  8
0
  6
Continuous
 62
     7
100
AcDbLine
 10
134.0515444386
 20
51.9267664888
 30
0.0
 11
135.5925482533
 21
53.46777030350001
 31
0.0
  0
LINE
  5
294
330
235
100
AcDbEntity
  8
0
  6
Continuous
 62
     7
100
AcDbLine
 10
138.758383496
 20
56.6336055462
 30
0.0
 11
139.8374059835
 21
57.71262803369999
 31
0.0
  0
LINE
  5
295
330
235
100
AcDbEntity
  8
0
  6
Continuous
 62
     7
100
AcDbLine
 10
133.3189748721
 20
51.79759470899999
 30
0.0
 11
134.8599786869
 21
53.3385985237
 31
0.0
  0
LINE
  5
296
330
235
100
AcDbEntity
  8
0
  6
Continuous
 62
     7
100
AcDbLine
 10
138.667936442
 20
57.1465562788
 30
0.0
 11
139.7469589295
 21
58.2255787663
 31
0.0
  0
LINE
  5
297
330
235
100
AcDbEntity
  8
0
  6
Continuous
 62
     7
100
AcDbLine
 10
132.5864053057
 20
51.6684229291
 30
0.0
 11
134.1274091205
 21
53.2094267439
 31
0.0
  0
LINE
  5
298
330
235
100
AcDbEntity
  8
0
  6
Continuous
 62
     7
100
AcDbLine
 10
138.5774893881
 20
57.6595070115
 30
0.0
 11
139.6565118756
 21
58.73852949899999
 31
0.0
  0
LINE
  5
299
330
235
100
AcDbEntity
  8
0
  6
Continuous
 62
     7
100
AcDbLine
 10
131.8538357393
 20
51.5392511493
 30
0.0
 11
133.3948395541
 21
53.08025496409999
 31
0.0
  0
LINE
  5
29A
330
235
100
AcDbEntity
  8
0
  6
Continuous
 62
     7
100
AcDbLine
 10
138.4870423341
 20
58.1724577442
 30
0.0
 11
139.5660648216
 21
59.2514802317
 31
0.0
  0
LINE
  5
29B
330
235
100
AcDbEntity
  8
0
  6
Continuous
 62
     7
100
AcDbLine
 10
131.1212661729
 20
51.4100793695
 30
0.0
 11
132.6622699877
 21
52.9510831843
 31
0.0
  0
LINE
  5
29C
330
235
100
AcDbEntity
  8
0
  6
Continuous
 62
     7
100
AcDbLine
 10
138.3965952802
 20
58.68540847680001
 30
0.0
 11
139.4756177677
 21
59.7644309643
 31
0.0
  0
LINE
  5
29D
330
235
100
AcDbEntity
  8
0
  6
Continuous
 62
     7
100
AcDbLine
 10
130.3886966065
 20
51.28090758969999
 30
0.0
 11
131.9297004212
 21
52.8219114045
 31
0.0
  0
LINE
  5
29E
330
235
100
AcDbEntity
  8
0
  6
Continuous
 62
     7
100
AcDbLine
 10
138.0937156804
 20
58.98592666359999
 30
0.0
 11
139.3851707138
 21
60.277381697
 31
0.0
  0
LINE
  5
29F
330
235
100
AcDbEntity
  8
0
  6
Continuous
 62
     7
100
AcDbLine
 10
129.6561270401
 20
51.15173580989999
 30
0.0
 11
131.1971308548
 21
52.6927396247
 31
0.0
  0
LINE
  5
2A0
330
235
100
AcDbEntity
  8
0
  6
Continuous
 62
     7
100
AcDbLine
 10
137.3611461139
 20
58.8567548838
 30
0.0
 11
139.2947236598
 21
60.7903324297
 31
0.0
  0
LINE
  5
2A1
330
235
100
AcDbEntity
  8
0
  6
Continuous
 62
     7
100
AcDbLine
 10
128.9235574736
 20
51.0225640301
 30
0.0
 11
130.4645612884
 21
52.5635678449
 31
0.0
  0
LINE
  5
2A2
330
235
100
AcDbEntity
  8
0
  6
Continuous
 62
     7
100
AcDbLine
 10
136.6285765475
 20
58.727583104
 30
0.0
 11
137.6559188458
 21
59.7549254023
 31
0.0
  0
LINE
  5
2A3
330
235
100
AcDbEntity
  8
0
  6
Continuous
 62
     7
100
AcDbLine
 10
138.1252541184
 20
60.22426067479999
 30
0.0
 11
139.2042766059
 21
61.30328316239999
 31
0.0
  0
LINE
  5
2A4
330
235
100
AcDbEntity
  8
0
  6
Continuous
 62
     7
100
AcDbLine
 10
128.1909879072
 20
50.89339225029999
 30
0.0
 11
129.731991722
 21
52.4343960651
 31
0.0
  0
LINE
  5
2A5
330
235
100
AcDbEntity
  8
0
  6
Continuous
 62
     7
100
AcDbLine
 10
135.8960069811
 20
58.5984113242
 30
0.0
 11
136.9233490698
 21
59.62575341279999
 31
0.0
  0
LINE
  5
2A6
330
235
100
AcDbEntity
  8
0
  6
Continuous
 62
     7
100
AcDbLine
 10
138.0348070644
 20
60.7372114075
 30
0.0
 11
139.1138295519
 21
61.816233895
 31
0.0
  0
LINE
  5
2A7
330
235
100
AcDbEntity
  8
0
  6
Continuous
 62
     7
100
AcDbLine
 10
127.4584183408
 20
50.7642204705
 30
0.0
 11
128.9994221556
 21
52.3052242853
 31
0.0
  0
LINE
  5
2A8
330
235
100
AcDbEntity
  8
0
  6
Continuous
 62
     7
100
AcDbLine
 10
135.1634374147
 20
58.4692395444
 30
0.0
 11
136.1907792937
 21
59.4965814234
 31
0.0
  0
LINE
  5
2A9
330
235
100
AcDbEntity
  8
0
  6
Continuous
 62
     7
100
AcDbLine
 10
137.9443600105
 20
61.2501621402
 30
0.0
 11
139.023382498
 21
62.3291846277
 31
0.0
  0
LINE
  5
2AA
330
235
100
AcDbEntity
  8
0
  6
Continuous
 62
     7
100
AcDbLine
 10
126.7258487744
 20
50.63504869069999
 30
0.0
 11
128.2668525892
 21
52.17605250550001
 31
0.0
  0
LINE
  5
2AB
330
235
100
AcDbEntity
  8
0
  6
Continuous
 62
     7
100
AcDbLine
 10
134.4308678483
 20
58.3400677646
 30
0.0
 11
135.4582095177
 21
59.367409434
 31
0.0
  0
LINE
  5
2AC
330
235
100
AcDbEntity
  8
0
  6
Continuous
 62
     7
100
AcDbLine
 10
137.8539129565
 20
61.7631128728
 30
0.0
 11
138.932935444
 21
62.8421353604
 31
0.0
  0
LINE
  5
2AD
330
235
100
AcDbEntity
  8
0
  6
Continuous
 62
     7
100
AcDbLine
 10
125.993279208
 20
50.5058769109
 30
0.0
 11
127.5342830227
 21
52.0468807257
 31
0.0
  0
LINE
  5
2AE
330
235
100
AcDbEntity
  8
0
  6
Continuous
 62
     7
100
AcDbLine
 10
133.6982982818
 20
58.2108959848
 30
0.0
 11
134.7256397417
 21
59.2382374446
 31
0.0
  0
LINE
  5
2AF
330
235
100
AcDbEntity
  8
0
  6
Continuous
 62
     7
100
AcDbLine
 10
137.7634659026
 20
62.2760636055
 30
0.0
 11
138.8424883901
 21
63.355086093
 31
0.0
  0
LINE
  5
2B0
330
235
100
AcDbEntity
  8
0
  6
Continuous
 62
     7
100
AcDbLine
 10
125.2607096415
 20
50.3767051311
 30
0.0
 11
126.8017134563
 21
51.9177089459
 31
0.0
  0
LINE
  5
2B1
330
235
100
AcDbEntity
  8
0
  6
Continuous
 62
     7
100
AcDbLine
 10
132.9657287154
 20
58.081724205
 30
0.0
 11
133.9930699656
 21
59.1090654552
 31
0.0
  0
LINE
  5
2B2
330
235
100
AcDbEntity
  8
0
  6
Continuous
 62
     7
100
AcDbLine
 10
137.6730188486
 20
62.78901433819999
 30
0.0
 11
138.7520413362
 21
63.8680368257
 31
0.0
  0
LINE
  5
2B3
330
235
100
AcDbEntity
  8
0
  6
Continuous
 62
     7
100
AcDbLine
 10
124.5281400751
 20
50.2475333513
 30
0.0
 11
126.0691438899
 21
51.78853716609999
 31
0.0
  0
LINE
  5
2B4
330
235
100
AcDbEntity
  8
0
  6
Continuous
 62
     7
100
AcDbLine
 10
132.233159149
 20
57.9525524252
 30
0.0
 11
133.2605001896
 21
58.9798934658
 31
0.0
  0
LINE
  5
2B5
330
235
100
AcDbEntity
  8
0
  6
Continuous
 62
     7
100
AcDbLine
 10
137.5825717947
 20
63.3019650708
 30
0.0
 11
138.6615942822
 21
64.38098755840001
 31
0.0
  0
LINE
  5
2B6
330
235
100
AcDbEntity
  8
0
  6
Continuous
 62
     7
100
AcDbLine
 10
123.7955705087
 20
50.1183615715
 30
0.0
 11
125.3365743235
 21
51.6593653863
 31
0.0
  0
LINE
  5
2B7
330
235
100
AcDbEntity
  8
0
  6
Continuous
 62
     7
100
AcDbLine
 10
131.5005895826
 20
57.8233806454
 30
0.0
 11
132.5279304136
 21
58.8507214764
 31
0.0
  0
LINE
  5
2B8
330
235
100
AcDbEntity
  8
0
  6
Continuous
 62
     7
100
AcDbLine
 10
137.4921247407
 20
63.81491580350001
 30
0.0
 11
138.5711472283
 21
64.89393829099999
 31
0.0
  0
LINE
  5
2B9
330
235
100
AcDbEntity
  8
0
  6
Continuous
 62
     7
100
AcDbLine
 10
123.0630009423
 20
49.98918979169999
 30
0.0
 11
124.6040047571
 21
51.5301936065
 31
0.0
  0
LINE
  5
2BA
330
235
100
AcDbEntity
  8
0
  6
Continuous
 62
     7
100
AcDbLine
 10
130.7680200162
 20
57.6942088656
 30
0.0
 11
131.7953606376
 21
58.72154948689999
 31
0.0
  0
LINE
  5
2BB
330
235
100
AcDbEntity
  8
0
  6
Continuous
 62
     7
100
AcDbLine
 10
137.4016776868
 20
64.3278665362
 30
0.0
 11
138.4807001743
 21
65.4068890237
 31
0.0
  0
LINE
  5
2BC
330
235
100
AcDbEntity
  8
0
  6
Continuous
 62
     7
100
AcDbLine
 10
122.3304313759
 20
49.86001801189999
 30
0.0
 11
123.8714351907
 21
51.4010218266
 31
0.0
  0
LINE
  5
2BD
330
235
100
AcDbEntity
  8
0
  6
Continuous
 62
     7
100
AcDbLine
 10
130.0354504498
 20
57.5650370858
 30
0.0
 11
131.0627908615
 21
58.59237749750001
 31
0.0
  0
LINE
  5
2BE
330
235
100
AcDbEntity
  8
0
  6
Continuous
 62
     7
100
AcDbLine
 10
137.2268015854
 20
64.7563882214
 30
0.0
 11
138.3902531204
 21
65.91983975640001
 31
0.0
  0
LINE
  5
2BF
330
235
100
AcDbEntity
  8
0
  6
Continuous
 62
     7
100
AcDbLine
 10
121.5978618095
 20
49.7308462321
 30
0.0
 11
123.1388656242
 21
51.27185004680001
 31
0.0
  0
LINE
  5
2C0
330
235
100
AcDbEntity
  8
0
  6
Continuous
 62
     7
100
AcDbLine
 10
129.3028808833
 20
57.435865306
 30
0.0
 11
130.3302210855
 21
58.4632055081
 31
0.0
  0
LINE
  5
2C1
330
235
100
AcDbEntity
  8
0
  6
Continuous
 62
     7
100
AcDbLine
 10
136.494232019
 20
64.6272164416
 30
0.0
 11
138.0352358337
 21
66.16822025640001
 31
0.0
  0
LINE
  5
2C2
330
235
100
AcDbEntity
  8
0
  6
Continuous
 62
     7
100
AcDbLine
 10
120.865292243
 20
49.60167445229999
 30
0.0
 11
122.4062960578
 21
51.142678267
 31
0.0
  0
LINE
  5
2C3
330
235
100
AcDbEntity
  8
0
  6
Continuous
 62
     7
100
AcDbLine
 10
128.5703113169
 20
57.3066935261
 30
0.0
 11
129.5976513095
 21
58.3340335187
 31
0.0
  0
LINE
  5
2C4
330
235
100
AcDbEntity
  8
0
  6
Continuous
 62
     7
100
AcDbLine
 10
135.7616624525
 20
64.49804466180001
 30
0.0
 11
137.3026662673
 21
66.03904847649999
 31
0.0
  0
LINE
  5
2C5
330
235
100
AcDbEntity
  8
0
  6
Continuous
 62
     7
100
AcDbLine
 10
120.1327226766
 20
49.4725026725
 30
0.0
 11
121.6737264914
 21
51.0135064872
 31
0.0
  0
LINE
  5
2C6
330
235
100
AcDbEntity
  8
0
  6
Continuous
 62
     7
100
AcDbLine
 10
127.8377417505
 20
57.1775217463
 30
0.0
 11
128.8650815334
 21
58.2048615293
 31
0.0
  0
LINE
  5
2C7
330
235
100
AcDbEntity
  8
0
  6
Continuous
 62
     7
100
AcDbLine
 10
135.0290928861
 20
64.36887288200001
 30
0.0
 11
136.5700967009
 21
65.90987669669999
 31
0.0
  0
LINE
  5
2C8
330
235
100
AcDbEntity
  8
0
  6
Continuous
 62
     7
100
AcDbLine
 10
119.4001531102
 20
49.3433308926
 30
0.0
 11
120.941156925
 21
50.8843347074
 31
0.0
  0
LINE
  5
2C9
330
235
100
AcDbEntity
  8
0
  6
Continuous
 62
     7
100
AcDbLine
 10
127.1051721841
 20
57.04834996649999
 30
0.0
 11
128.1325117574
 21
58.07568953989999
 31
0.0
  0
LINE
  5
2CA
330
235
100
AcDbEntity
  8
0
  6
Continuous
 62
     7
100
AcDbLine
 10
134.2965233197
 20
64.2397011022
 30
0.0
 11
135.8375271345
 21
65.78070491689999
 31
0.0
  0
LINE
  5
2CB
330
235
100
AcDbEntity
  8
0
  6
Continuous
 62
     7
100
AcDbLine
 10
118.6675835438
 20
49.2141591128
 30
0.0
 11
120.2085873586
 21
50.7551629276
 31
0.0
  0
LINE
  5
2CC
330
235
100
AcDbEntity
  8
0
  6
Continuous
 62
     7
100
AcDbLine
 10
126.3726026177
 20
56.9191781867
 30
0.0
 11
127.3999419814
 21
57.9465175504
 31
0.0
  0
LINE
  5
2CD
330
235
100
AcDbEntity
  8
0
  6
Continuous
 62
     7
100
AcDbLine
 10
133.5639537533
 20
64.1105293224
 30
0.0
 11
135.1049575681
 21
65.6515331371
 31
0.0
  0
LINE
  5
2CE
330
235
100
AcDbEntity
  8
0
  6
Continuous
 62
     7
100
AcDbLine
 10
117.9350139774
 20
49.084987333
 30
0.0
 11
119.4760177921
 21
50.6259911478
 31
0.0
  0
LINE
  5
2CF
330
235
100
AcDbEntity
  8
0
  6
Continuous
 62
     7
100
AcDbLine
 10
125.6400330513
 20
56.79000640689999
 30
0.0
 11
126.6673722054
 21
57.817345561
 31
0.0
  0
LINE
  5
2D0
330
235
100
AcDbEntity
  8
0
  6
Continuous
 62
     7
100
AcDbLine
 10
132.8313841869
 20
63.9813575426
 30
0.0
 11
134.3723880017
 21
65.5223613573
 31
0.0
  0
LINE
  5
2D1
330
235
100
AcDbEntity
  8
0
  6
Continuous
 62
     7
100
AcDbLine
 10
117.2024444109
 20
48.95581555319999
 30
0.0
 11
118.7434482257
 21
50.496819368
 31
0.0
  0
LINE
  5
2D2
330
235
100
AcDbEntity
  8
0
  6
Continuous
 62
     7
100
AcDbLine
 10
124.9074634848
 20
56.6608346271
 30
0.0
 11
125.9348024293
 21
57.68817357159999
 31
0.0
  0
LINE
  5
2D3
330
235
100
AcDbEntity
  8
0
  6
Continuous
 62
     7
100
AcDbLine
 10
132.0988146204999
 20
63.8521857627
 30
0.0
 11
133.6398184352
 21
65.39318957749999
 31
0.0
  0
LINE
  5
2D4
330
235
100
AcDbEntity
  8
0
  6
Continuous
 62
     7
100
AcDbLine
 10
116.4698748445
 20
48.8266437734
 30
0.0
 11
118.0108786593
 21
50.36764758819999
 31
0.0
  0
LINE
  5
2D5
330
235
100
AcDbEntity
  8
0
  6
Continuous
 62
     7
100
AcDbLine
 10
124.1748939184
 20
56.5316628473
 30
0.0
 11
125.2022326533
 21
57.55900158220001
 31
0.0
  0
LINE
  5
2D6
330
235
100
AcDbEntity
  8
0
  6
Continuous
 62
     7
100
AcDbLine
 10
131.366245054
 20
63.7230139829
 30
0.0
 11
132.9072488688
 21
65.26401779770001
 31
0.0
  0
LINE
  5
2D7
330
235
100
AcDbEntity
  8
0
  6
Continuous
 62
     7
100
AcDbLine
 10
115.7373052781
 20
48.69747199359999
 30
0.0
 11
117.2783090929
 21
50.2384758084
 31
0.0
  0
LINE
  5
2D8
330
235
100
AcDbEntity
  8
0
  6
Continuous
 62
     7
100
AcDbLine
 10
123.442324352
 20
56.4024910675
 30
0.0
 11
124.4696628773
 21
57.42982959279999
 31
0.0
  0
LINE
  5
2D9
330
235
100
AcDbEntity
  8
0
  6
Continuous
 62
     7
100
AcDbLine
 10
130.6336754876
 20
63.5938422031
 30
0.0
 11
132.1746793024
 21
65.1348460179
 31
0.0
  0
LINE
  5
2DA
330
235
100
AcDbEntity
  8
0
  6
Continuous
 62
     7
100
AcDbLine
 10
115.1859845056
 20
48.7495490077
 30
0.0
 11
116.5457395265
 21
50.10930402859999
 31
0.0
  0
LINE
  5
2DB
330
235
100
AcDbEntity
  8
0
  6
Continuous
 62
     7
100
AcDbLine
 10
122.7097547856
 20
56.27331928770001
 30
0.0
 11
123.7370931012
 21
57.3006576034
 31
0.0
  0
LINE
  5
2DC
330
235
100
AcDbEntity
  8
0
  6
Continuous
 62
     7
100
AcDbLine
 10
129.9011059212
 20
63.4646704233
 30
0.0
 11
131.442109736
 21
65.0056742381
 31
0.0
  0
LINE
  5
2DD
330
235
100
AcDbEntity
  8
0
  6
Continuous
 62
     7
100
AcDbLine
 10
115.0955374516
 20
49.2624997404
 30
0.0
 11
116.1745599392
 21
50.3415222279
 31
0.0
  0
LINE
  5
2DE
330
235
100
AcDbEntity
  8
0
  6
Continuous
 62
     7
100
AcDbLine
 10
121.9771852192
 20
56.1441475079
 30
0.0
 11
123.0045233252
 21
57.17148561390001
 31
0.0
  0
LINE
  5
2DF
330
235
100
AcDbEntity
  8
0
  6
Continuous
 62
     7
100
AcDbLine
 10
129.1685363548
 20
63.33549864350001
 30
0.0
 11
130.7095401696
 21
64.8765024583
 31
0.0
  0
LINE
  5
2E0
330
235
100
AcDbEntity
  8
0
  6
Continuous
 62
     7
100
AcDbLine
 10
115.0050903977
 20
49.7754504731
 30
0.0
 11
116.0841128852
 21
50.8544729606
 31
0.0
  0
LINE
  5
2E1
330
235
100
AcDbEntity
  8
0
  6
Continuous
 62
     7
100
AcDbLine
 10
121.2446156527
 20
56.0149757281
 30
0.0
 11
122.2719535492
 21
57.04231362449999
 31
0.0
  0
LINE
  5
2E2
330
235
100
AcDbEntity
  8
0
  6
Continuous
 62
     7
100
AcDbLine
 10
128.4359667884
 20
63.2063268637
 30
0.0
 11
129.9769706031
 21
64.7473306785
 31
0.0
  0
LINE
  5
2E3
330
235
100
AcDbEntity
  8
0
  6
Continuous
 62
     7
100
AcDbLine
 10
114.9146433438
 20
50.28840120569999
 30
0.0
 11
115.9936658313
 21
51.3674236932
 31
0.0
  0
LINE
  5
2E4
330
235
100
AcDbEntity
  8
0
  6
Continuous
 62
     7
100
AcDbLine
 10
120.5120460863
 20
55.8858039483
 30
0.0
 11
121.5393837732
 21
56.9131416351
 31
0.0
  0
LINE
  5
2E5
330
235
100
AcDbEntity
  8
0
  6
Continuous
 62
     7
100
AcDbLine
 10
127.703397222
 20
63.0771550839
 30
0.0
 11
129.2444010367
 21
64.6181588987
 31
0.0
  0
LINE
  5
2E6
330
235
100
AcDbEntity
  8
0
  6
Continuous
 62
     7
100
AcDbLine
 10
114.8241962898
 20
50.8013519384
 30
0.0
 11
115.9032187773
 21
51.8803744259
 31
0.0
  0
LINE
  5
2E7
330
235
100
AcDbEntity
  8
0
  6
Continuous
 62
     7
100
AcDbLine
 10
119.7794765199
 20
55.7566321685
 30
0.0
 11
120.8068139971
 21
56.7839696457
 31
0.0
  0
LINE
  5
2E8
330
235
100
AcDbEntity
  8
0
  6
Continuous
 62
     7
100
AcDbLine
 10
126.9708276555
 20
62.94798330409999
 30
0.0
 11
128.5118314703
 21
64.4889871189
 31
0.0
  0
LINE
  5
2E9
330
235
100
AcDbEntity
  8
0
  6
Continuous
 62
     7
100
AcDbLine
 10
114.7337492359
 20
51.31430267109999
 30
0.0
 11
115.8127717234
 21
52.3933251586
 31
0.0
  0
LINE
  5
2EA
330
235
100
AcDbEntity
  8
0
  6
Continuous
 62
     7
100
AcDbLine
 10
119.0469069535
 20
55.6274603887
 30
0.0
 11
120.0742442211
 21
56.65479765629999
 31
0.0
  0
LINE
  5
2EB
330
235
100
AcDbEntity
  8
0
  6
Continuous
 62
     7
100
AcDbLine
 10
126.2382580891
 20
62.8188115243
 30
0.0
 11
127.7792619039
 21
64.35981533909999
 31
0.0
  0
LINE
  5
2EC
330
235
100
AcDbEntity
  8
0
  6
Continuous
 62
     7
100
AcDbLine
 10
114.6433021819
 20
51.8272534037
 30
0.0
 11
115.7223246694
 21
52.90627589119999
 31
0.0
  0
LINE
  5
2ED
330
235
100
AcDbEntity
  8
0
  6
Continuous
 62
     7
100
AcDbLine
 10
118.3143373871
 20
55.4982886089
 30
0.0
 11
119.3416744451
 21
56.5256256669
 31
0.0
  0
LINE
  5
2EE
330
235
100
AcDbEntity
  8
0
  6
Continuous
 62
     7
100
AcDbLine
 10
125.5056885227
 20
62.6896397445
 30
0.0
 11
127.0466923375
 21
64.23064355930001
 31
0.0
  0
LINE
  5
2EF
330
235
100
AcDbEntity
  8
0
  6
Continuous
 62
     7
100
AcDbLine
 10
114.552855128
 20
52.3402041364
 30
0.0
 11
115.6318776155
 21
53.4192266239
 31
0.0
  0
LINE
  5
2F0
330
235
100
AcDbEntity
  8
0
  6
Continuous
 62
     7
100
AcDbLine
 10
117.5817678207
 20
55.3691168291
 30
0.0
 11
118.609104669
 21
56.3964536775
 31
0.0
  0
LINE
  5
2F1
330
235
100
AcDbEntity
  8
0
  6
Continuous
 62
     7
100
AcDbLine
 10
124.7731189563
 20
62.5604679647
 30
0.0
 11
126.3141227711
 21
64.1014717795
 31
0.0
  0
LINE
  5
2F2
330
235
100
AcDbEntity
  8
0
  6
Continuous
 62
     7
100
AcDbLine
 10
114.462408074
 20
52.8531548691
 30
0.0
 11
115.5414305616
 21
53.9321773566
 31
0.0
  0
LINE
  5
2F3
330
235
100
AcDbEntity
  8
0
  6
Continuous
 62
     7
100
AcDbLine
 10
116.8491982542
 20
55.2399450493
 30
0.0
 11
117.876534893
 21
56.267281688
 31
0.0
  0
LINE
  5
2F4
330
235
100
AcDbEntity
  8
0
  6
Continuous
 62
     7
100
AcDbLine
 10
124.0405493899
 20
62.4312961849
 30
0.0
 11
125.5815532046
 21
63.97229999970001
 31
0.0
  0
LINE
  5
2F5
330
235
100
AcDbEntity
  8
0
  6
Continuous
 62
     7
100
AcDbLine
 10
114.3719610201
 20
53.3661056017
 30
0.0
 11
115.4509835076
 21
54.4451280893
 31
0.0
  0
LINE
  5
2F6
330
235
100
AcDbEntity
  8
0
  6
Continuous
 62
     7
100
AcDbLine
 10
116.1166286878
 20
55.1107732695
 30
0.0
 11
117.143965117
 21
56.1381096986
 31
0.0
  0
LINE
  5
2F7
330
235
100
AcDbEntity
  8
0
  6
Continuous
 62
     7
100
AcDbLine
 10
123.3079798234
 20
62.3021244051
 30
0.0
 11
124.8489836382
 21
63.8431282199
 31
0.0
  0
LINE
  5
2F8
330
235
100
AcDbEntity
  8
0
  6
Continuous
 62
     7
100
AcDbLine
 10
114.2815139662
 20
53.87905633439999
 30
0.0
 11
115.3605364537
 21
54.9580788219
 31
0.0
  0
LINE
  5
2F9
330
235
100
AcDbEntity
  8
0
  6
Continuous
 62
     7
100
AcDbLine
 10
115.3840591214
 20
54.9816014896
 30
0.0
 11
116.411395341
 21
56.00893770919999
 31
0.0
  0
LINE
  5
2FA
330
235
100
AcDbEntity
  8
0
  6
Continuous
 62
     7
100
AcDbLine
 10
122.575410257
 20
62.1729526253
 30
0.0
 11
124.1164140718
 21
63.7139564401
 31
0.0
  0
LINE
  5
2FB
330
235
100
AcDbEntity
  8
0
  6
Continuous
 62
     7
100
AcDbLine
 10
114.1910669122
 20
54.3920070671
 30
0.0
 11
115.6788255649
 21
55.8797657198
 31
0.0
  0
LINE
  5
2FC
330
235
100
AcDbEntity
  8
0
  6
Continuous
 62
     7
100
AcDbLine
 10
121.8428406906
 20
62.0437808455
 30
0.0
 11
123.3838445054
 21
63.58478466020001
 31
0.0
  0
LINE
  5
2FD
330
235
100
AcDbEntity
  8
0
  6
Continuous
 62
     7
100
AcDbLine
 10
114.1006198583
 20
54.9049577997
 30
0.0
 11
115.1796423458
 21
55.98398028729999
 31
0.0
  0
LINE
  5
2FE
330
235
100
AcDbEntity
  8
0
  6
Continuous
 62
     7
100
AcDbLine
 10
121.1102711242
 20
61.9146090657
 30
0.0
 11
122.651274939
 21
63.45561288039999
 31
0.0
  0
LINE
  5
2FF
330
235
100
AcDbEntity
  8
0
  6
Continuous
 62
     7
100
AcDbLine
 10
114.0101728043
 20
55.4179085324
 30
0.0
 11
115.0891952918
 21
56.49693101989999
 31
0.0
  0
LINE
  5
300
330
235
100
AcDbEntity
  8
0
  6
Continuous
 62
     7
100
AcDbLine
 10
120.3777015578
 20
61.7854372859
 30
0.0
 11
121.9187053725
 21
63.32644110060001
 31
0.0
  0
LINE
  5
301
330
235
100
AcDbEntity
  8
0
  6
Continuous
 62
     7
100
AcDbLine
 10
113.9197257504
 20
55.9308592651
 30
0.0
 11
114.9987482379
 21
57.0098817526
 31
0.0
  0
LINE
  5
302
330
235
100
AcDbEntity
  8
0
  6
Continuous
 62
     7
100
AcDbLine
 10
119.6451319914
 20
61.65626550609999
 30
0.0
 11
121.1861358061
 21
63.1972693208
 31
0.0
  0
LINE
  5
303
330
235
100
AcDbEntity
  8
0
  6
Continuous
 62
     7
100
AcDbLine
 10
113.8292786964
 20
56.4438099977
 30
0.0
 11
114.908301184
 21
57.5228324853
 31
0.0
  0
LINE
  5
304
330
235
100
AcDbEntity
  8
0
  6
Continuous
 62
     7
100
AcDbLine
 10
118.9125624249
 20
61.5270937262
 30
0.0
 11
120.4535662397
 21
63.06809754100001
 31
0.0
  0
LINE
  5
305
330
235
100
AcDbEntity
  8
0
  6
Continuous
 62
     7
100
AcDbLine
 10
113.7388316425
 20
56.9567607304
 30
0.0
 11
114.81785413
 21
58.03578321789999
 31
0.0
  0
LINE
  5
306
330
235
100
AcDbEntity
  8
0
  6
Continuous
 62
     7
100
AcDbLine
 10
118.1799928585
 20
61.3979219464
 30
0.0
 11
119.7209966733
 21
62.9389257612
 31
0.0
  0
LINE
  5
307
330
235
100
AcDbEntity
  8
0
  6
Continuous
 62
     7
100
AcDbLine
 10
113.6483845885
 20
57.4697114631
 30
0.0
 11
114.7274070761
 21
58.5487339506
 31
0.0
  0
LINE
  5
308
330
235
100
AcDbEntity
  8
0
  6
Continuous
 62
     7
100
AcDbLine
 10
117.4474232921
 20
61.2687501666
 30
0.0
 11
118.9884271069
 21
62.8097539814
 31
0.0
  0
LINE
  5
309
330
235
100
AcDbEntity
  8
0
  6
Continuous
 62
     7
100
AcDbLine
 10
113.5579375346
 20
57.9826621958
 30
0.0
 11
114.6369600220999
 21
59.0616846833
 31
0.0
  0
LINE
  5
30A
330
235
100
AcDbEntity
  8
0
  6
Continuous
 62
     7
100
AcDbLine
 10
116.7148537257
 20
61.13957838680001
 30
0.0
 11
118.2558575405
 21
62.6805822016
 31
0.0
  0
LINE
  5
30B
330
235
100
AcDbEntity
  8
0
  6
Continuous
 62
     7
100
AcDbLine
 10
113.4674904807
 20
58.4956129284
 30
0.0
 11
114.5465129682
 21
59.57463541590001
 31
0.0
  0
LINE
  5
30C
330
235
100
AcDbEntity
  8
0
  6
Continuous
 62
     7
100
AcDbLine
 10
115.9822841593
 20
61.010406607
 30
0.0
 11
117.523287974
 21
62.55141042179999
 31
0.0
  0
LINE
  5
30D
330
235
100
AcDbEntity
  8
0
  6
Continuous
 62
     7
100
AcDbLine
 10
113.3770434267
 20
59.0085636611
 30
0.0
 11
114.4560659142
 21
60.08758614859999
 31
0.0
  0
LINE
  5
30E
330
235
100
AcDbEntity
  8
0
  6
Continuous
 62
     7
100
AcDbLine
 10
115.2497145928
 20
60.8812348272
 30
0.0
 11
116.7907184076
 21
62.42223864199999
 31
0.0
  0
LINE
  5
30F
330
235
100
AcDbEntity
  8
0
  6
Continuous
 62
     7
100
AcDbLine
 10
113.2865963728
 20
59.5215143938
 30
0.0
 11
114.3656188603
 21
60.6005368813
 31
0.0
  0
LINE
  5
310
330
235
100
AcDbEntity
  8
0
  6
Continuous
 62
     7
100
AcDbLine
 10
114.5171450264
 20
60.7520630474
 30
0.0
 11
116.0581488412
 21
62.2930668622
 31
0.0
  0
LINE
  5
311
330
235
100
AcDbEntity
  8
0
  6
Continuous
 62
     7
100
AcDbLine
 10
113.1961493188
 20
60.0344651264
 30
0.0
 11
115.3255792748
 21
62.16389508239999
 31
0.0
  0
LINE
  5
312
330
235
100
AcDbEntity
  8
0
  6
Continuous
 62
     7
100
AcDbLine
 10
113.1057022649
 20
60.5474158591
 30
0.0
 11
114.5930097084
 21
62.0347233026
 31
0.0
  0
LINE
  5
313
330
235
100
AcDbEntity
  8
0
  6
Continuous
 62
     7
100
AcDbLine
 10
113.0152552109
 20
61.0603665918
 30
0.0
 11
113.860440142
 21
61.90555152279999
 31
0.0
  0
LINE
  5
314
330
235
100
AcDbEntity
  8
0
  6
Continuous
 62
     7
100
AcDbLine
 10
112.924808157
 20
61.57331732439999
 30
0.0
 11
113.1278705755
 21
61.776379743
 31
0.0
  0
ENDBLK
  5
315
330
235
100
AcDbEntity
  8
0
  6
ByBlock
 62
     0
100
AcDbBlockEnd
  0
ENDSEC
  0
SECTION
  2
ENTITIES
  0
LWPOLYLINE
  5
437
330
21E
100
AcDbEntity
  8
DEFAULT_2
  6
HIDDEN
 62
     7
100
AcDbPolyline
 90
       17
 70
     0
 43
0.0
 10
20.1773710237
 20
52.3236393672
 10
20.475160061
 20
51.828039092
 10
20.8900881118
 20
51.1374956158
 10
21.0975376878
 20
50.7922159732
 10
21.201185924
 20
50.6195339856
 10
21.3047590534
 20
50.4468094025
 10
21.5116309903
 20
50.10120002459999
 10
21.7180926885
 20
49.7553473429
 10
22.129885178
 20
49.0629747087
 10
22.5402743502
 20
48.3697763222
 10
23.3571229489
 20
46.98106406119999
 10
24.1692806213
 20
45.5895876117
 10
24.977419753
 20
44.1957438318
 10
26.5842812193
 20
41.4025085052
 10
28.1829918764
 20
38.6044710336
 10
29.7788447414
 20
35.8047499271
 10
31.0338210871
 20
33.6064295098
  0
LWPOLYLINE
  5
438
330
21E
100
AcDbEntity
  8
DEFAULT_2
  6
HIDDEN
 62
     7
100
AcDbPolyline
 90
        4
 70
     0
 43
0.0
 10
31.1113941534
 20
33.4707964139
 10
31.3771302818
 20
33.0064620268
 10
31.7525382098
 20
32.3513520376
 10
32.1284382287
 20
31.6965319642
  0
LINE
  5
440
330
21E
100
AcDbEntity
  8
DEFAULT_2
  6
HIDDEN
 62
     7
100
AcDbLine
 10
50.1775903833
 20
30.1432737907
 30
0.0
 11
50.5349162862
 21
29.7859478878
 31
0.0
  0
LWPOLYLINE
  5
46A
330
21E
100
AcDbEntity
  8
DEFAULT_2
  6
HIDDEN
 62
     7
100
AcDbPolyline
 90
        4
 70
     0
 43
0.0
 10
53.4831395909
 20
46.23763369249999
 10
53.48309398439999
 20
46.2338834288
 10
53.48295724829999
 20
46.2301348264
 10
53.4827295078
 20
46.22639050439999
  0
LWPOLYLINE
  5
46B
330
21E
100
AcDbEntity
  8
DEFAULT_2
  6
HIDDEN
 62
     7
100
AcDbPolyline
 90
       47
 70
     0
 43
0.0
 10
53.4827295078
 20
46.22639050439999
 10
53.4822365393
 20
46.2207148464
 10
53.4815355024
 20
46.2151055689
 10
53.48063472979999
 20
46.2095161799
 10
53.479536831
 20
46.20396214489999
 10
53.4782406109
 20
46.19843799449999
 10
53.4767506834
 20
46.19296290770001
 10
53.4750644546
 20
46.18752775399999
 10
53.4731889903
 20
46.1821549576
 10
53.4711198864
 20
46.17683219769999
 10
53.4688670034
 20
46.171584576
 10
53.4664238255
 20
46.1663971396
 10
53.4638032301
 20
46.1612970268
 10
53.4609964112
 20
46.1562672718
 10
53.4580193543
 20
46.15133636289999
 10
53.45486091459999
 20
46.1464859728
 10
53.45154014350001
 20
46.1417452375
 10
53.4480436377
 20
46.13709512249999
 10
53.4443933426
 20
46.13256472109999
 10
53.4405737999
 20
46.1281349229
 10
53.43660955529999
 20
46.1238341263
 10
53.4324834114
 20
46.1196437275
 10
53.4282221129
 20
46.1155908386
 10
53.4238071356
 20
46.1116578774
 10
53.4192669318
 20
46.1078701571
 10
53.41458214020001
 20
46.1042115471
 10
53.4097823595
 20
46.100705143
 10
53.404847938
 20
46.09733659889999
 10
53.3998090104
 20
46.094126478
 10
53.3946462171
 20
46.0910624476
 10
53.3893895918
 20
46.08816233289999
 10
53.384020663
 20
46.0854159355
 10
53.37856872119999
 20
46.08283824699999
 10
53.3730167717
 20
46.08042121829999
 10
53.3673927354
 20
46.0781770191
 10
53.3616816564
 20
46.0760996621
 10
53.355909492
 20
46.0741986092
 10
53.3500638409
 20
46.07246975259999
 10
53.3441681635
 20
46.0709200533
 10
53.3382130705
 20
46.0695470163
 10
53.3322190275
 20
46.0683553907
 10
53.3261800321
 20
46.06734395479999
 10
53.32011325279999
 20
46.0665156039
 10
53.31401639420001
 20
46.0658699912
 10
53.30790267800001
 20
46.065408571
 10
53.3017736239
 20
46.06513142989999
 10
53.2956395909
 20
46.0650390325
  0
LWPOLYLINE
  5
46C
330
21E
100
AcDbEntity
  8
DEFAULT_2
  6
HIDDEN
 62
     7
100
AcDbPolyline
 90
       50
 70
     0
 43
0.0
 10
53.4824107926
 20
46.22265159029999
 10
53.48200150130001
 20
46.2189216516
 10
53.4815020053
 20
46.21520275939999
 10
53.480911938
 20
46.21149246359999
 10
53.4802324241
 20
46.20779746149999
 10
53.4794640707
 20
46.2041198973
 10
53.478606286
 20
46.20045689069999
 10
53.4776608513
 20
46.1968155318
 10
53.476628591
 20
46.19319783199999
 10
53.4755070464
 20
46.1895955666
 10
53.47430003159999
 20
46.18602102799999
 10
53.47300856909999
 20
46.1824761251
 10
53.470908196
 20
46.17720131319999
 10
53.46862291979999
 20
46.1720039341
 10
53.4661498751
 20
46.1668760453
 10
53.46349949060001
 20
46.161837523
 10
53.4606628809
 20
46.15687110999999
 10
53.4576567697
 20
46.1520054162
 10
53.4544704284
 20
46.14722261839999
 10
53.4511231652
 20
46.14255102229999
 10
53.4476062302
 20
46.13797739069999
 10
53.4439378621
 20
46.13352429359999
 10
53.44010091979999
 20
46.12917076689999
 10
53.43612194470001
 20
46.12494665089999
 10
53.4319827671
 20
46.1208324237
 10
53.42771138839999
 20
46.11685561069999
 10
53.4232938333
 20
46.1130025005
 10
53.4187544865
 20
46.1092936405
 10
53.41407060229999
 20
46.10571043310001
 10
53.40927510180001
 20
46.10227802899999
 10
53.4043457111
 20
46.0989804186
 10
53.3993150938
 20
46.0958393885
 10
53.39416757409999
 20
46.0928446934
 10
53.3889295501
 20
46.0900112656
 10
53.38357821729999
 20
46.08732682409999
 10
53.37814688169999
 20
46.08480816439999
 10
53.3726149088
 20
46.08244573989999
 10
53.36701352529999
 20
46.0802529527
 10
53.361330228
 20
46.07822462539999
 10
53.3555882714
 20
46.07636883489999
 10
53.3497713105
 20
46.0746803564
 10
53.34390631529999
 20
46.07316713689999
 10
53.3379806259
 20
46.0718259468
 10
53.332017543
 20
46.0706621676
 10
53.32601207159999
 20
46.0696746785
 10
53.3199799599
 20
46.0688659868
 10
53.3139164564
 20
46.068235481
 10
53.3078367846
 20
46.0677848678
 10
53.30174057609999
 20
46.0675141422
 10
53.2956395909
 20
46.06742388689999
  0
LINE
  5
52B
330
21E
100
AcDbEntity
  8
DEFAULT_2
  6
HIDDEN
 62
     7
100
AcDbLine
 10
53.95629169380001
 20
30.2163287215
 30
0.0
 11
70.38470943580001
 21
30.819579074
 31
0.0
  0
LINE
  5
53B
330
21E
100
AcDbEntity
  8
DEFAULT_2
  6
HIDDEN
 62
     7
100
AcDbLine
 10
50.7116929815
 20
29.7127245831
 30
0.0
 11
53.2545862003
 21
29.7127245831
 31
0.0
  0
LINE
  5
53F
330
21E
100
AcDbEntity
  8
DEFAULT_2
  6
HIDDEN
 62
     7
100
AcDbLine
 10
33.58156974590001
 20
30.819579074
 30
0.0
 11
50.00998748789999
 21
30.2163287215
 31
0.0
  0
LWPOLYLINE
  5
5C4
330
21E
100
AcDbEntity
  8
DEFAULT_2
  6
HIDDEN
 62
     7
100
AcDbPolyline
 90
      121
 70
     0
 43
0.0
 10
53.5456395909
 20
45.8100037097
 10
53.5570910555
 20
45.81014170069999
 10
53.5685365717
 20
45.8105556247
 10
53.5799637531
 20
45.81124503739999
 10
53.5913707935
 20
45.8122098568
 10
53.6027418307
 20
45.81344868899999
 10
53.6140796693
 20
45.81496187189999
 10
53.62536358709999
 20
45.81674661979999
 10
53.6366009556
 20
45.818804127
 10
53.64776684159999
 20
45.8211297972
 10
53.6588729231
 20
45.8237260907
 10
53.66989025409999
 20
45.826586216
 10
53.6808345259
 20
45.8297142722
 10
53.6916731854
 20
45.8331009313
 10
53.7024255688
 20
45.8367522584
 10
53.7130559454
 20
45.84065609939999
 10
53.7235868722
 20
45.8448207585
 10
53.7339799345
 20
45.8492310266
 10
53.7442604345
 20
45.8538976575
 10
53.75438780959999
 20
45.8588022255
 10
53.7643895909
 20
45.86395807609999
 10
53.77422364
 20
45.8693434793
 10
53.7839191687
 20
45.8749744395
 10
53.79343306009999
 20
45.8808259132
 10
53.8027956387
 20
45.88691655249999
 10
53.81196341879999
 20
45.8932180733
 10
53.82096726189999
 20
45.8997516827
 10
53.8297639234
 20
45.90648601279999
 10
53.83838423109999
 20
45.9134446499
 10
53.84678577869999
 20
45.9205933837
 10
53.85499880760001
 20
45.9279579226
 10
53.8629823208
 20
45.93550153699999
 10
53.870765452
 20
45.9432517209
 10
53.878309145
 20
45.9511696276
 10
53.885640949
 20
45.95928412560001
 10
53.89272422739999
 20
45.9675547256
 10
53.89958452590001
 20
45.9760111929
 10
53.90618804079999
 20
45.9846119338
 10
53.91255796430001
 20
45.9933870752
 10
53.91866366270001
 20
46.00229451039999
 10
53.924525705
 20
46.0113641464
 10
53.9301168777
 20
46.020553996
 10
53.93545494520001
 20
46.0298931325
 10
53.9405162709
 20
46.0393403468
 10
53.9453157286
 20
46.04892324699999
 10
53.9498333154
 20
46.0586020709
 10
53.9540810275
 20
46.06840232949999
 10
53.9580424506
 20
46.07828636959999
 10
53.9617268167
 20
46.0882769892
 10
53.96512115350001
 20
46.0983392818
 10
53.9682321399
 20
46.10849275119999
 10
53.9710500006
 20
46.11870583229999
 10
53.97357916619999
 20
46.12899420539999
 10
53.9758127225
 20
46.13933018229999
 10
53.9777532399
 20
46.14972515869999
 10
53.9793962486
 20
46.16015578339999
 10
53.9807429201
 20
46.1706287891
 10
53.98179074419999
 20
46.1811255326
 10
53.98254001229999
 20
46.1916478011
 10
53.98298963729999
 20
46.2021819298
 10
53.9831395909
 20
46.2127245831
 10
53.98298963729999
 20
46.2232672363
 10
53.98254001229999
 20
46.23380136509999
 10
53.98179074419999
 20
46.24432363359999
 10
53.9807429201
 20
46.2548203771
 10
53.9793962486
 20
46.2652933828
 10
53.9777532399
 20
46.2757240075
 10
53.9758127225
 20
46.2861189839
 10
53.97357916619999
 20
46.2964549608
 10
53.9710500006
 20
46.3067433339
 10
53.9682321399
 20
46.316956415
 10
53.96512115350001
 20
46.32710988439999
 10
53.9617268167
 20
46.337172177
 10
53.9580424506
 20
46.3471627966
 10
53.9540810275
 20
46.3570468367
 10
53.9498333154
 20
46.36684709529999
 10
53.9453157286
 20
46.3765259192
 10
53.9405162709
 20
46.38610881939999
 10
53.93545494520001
 20
46.39555603369999
 10
53.9301168777
 20
46.4048951702
 10
53.924525705
 20
46.41408501979999
 10
53.91866366270001
 20
46.4231546558
 10
53.91255796430001
 20
46.432062091
 10
53.90618804079999
 20
46.4408372324
 10
53.89958452590001
 20
46.44943797329999
 10
53.89272422739999
 20
46.4578944406
 10
53.885640949
 20
46.4661650406
 10
53.878309145
 20
46.47427953859999
 10
53.870765452
 20
46.48219744529999
 10
53.8629823208
 20
46.4899476291
 10
53.85499880760001
 20
46.49749124359999
 10
53.84678577869999
 20
46.5048557825
 10
53.83838423109999
 20
46.5120045163
 10
53.8297639234
 20
46.5189631534
 10
53.82096726189999
 20
46.5256974834
 10
53.81196341879999
 20
46.53223109279999
 10
53.8027956387
 20
46.5385326137
 10
53.79343306009999
 20
46.544623253
 10
53.7839191687
 20
46.5504747267
 10
53.77422364
 20
46.5561056869
 10
53.7643895909
 20
46.5614910901
 10
53.75438780959999
 20
46.5666469406
 10
53.7442604345
 20
46.57155150869999
 10
53.7339799345
 20
46.5762181395
 10
53.7235868722
 20
46.5806284077
 10
53.7130559454
 20
46.5847930668
 10
53.7024255688
 20
46.5886969078
 10
53.6916731854
 20
46.5923482349
 10
53.6808345259
 20
46.59573489399999
 10
53.66989025409999
 20
46.5988629502
 10
53.6588729231
 20
46.6017230755
 10
53.64776684159999
 20
46.60431936899999
 10
53.6366009556
 20
46.6066450392
 10
53.62536358709999
 20
46.6087025464
 10
53.6140796693
 20
46.6104872942
 10
53.6027418307
 20
46.6120004772
 10
53.5913707935
 20
46.61323930939999
 10
53.5799637531
 20
46.6142041287
 10
53.5685365717
 20
46.61489354149999
 10
53.5570910555
 20
46.6153074655
 10
53.5456395909
 20
46.61544545649999
  0
LINE
  5
5CB
330
21E
100
AcDbEntity
  8
DEFAULT_2
  6
HIDDEN
 62
     7
100
AcDbLine
 10
53.5456395909
 20
45.8100037097
 30
0.0
 11
50.4206395909
 21
45.8100037097
 31
0.0
  0
LINE
  5
5CC
330
21E
100
AcDbEntity
  8
DEFAULT_2
  6
HIDDEN
 62
     7
100
AcDbLine
 10
53.2956395909
 20
46.06742388689999
 30
0.0
 11
50.6706395909
 21
46.06742388689999
 31
0.0
  0
LINE
  5
5CD
330
21E
100
AcDbEntity
  8
DEFAULT_2
  6
HIDDEN
 62
     7
100
AcDbLine
 10
50.6706395909
 20
46.4102283526
 30
0.0
 11
53.2956395909
 21
46.4102283526
 31
0.0
  0
LINE
  5
5CE
330
21E
100
AcDbEntity
  8
DEFAULT_2
  6
HIDDEN
 62
     7
100
AcDbLine
 10
50.4206395909
 20
46.61544545649999
 30
0.0
 11
53.5456395909
 21
46.61544545649999
 31
0.0
  0
LWPOLYLINE
  5
5D0
330
21E
100
AcDbEntity
  8
DEFAULT_2
  6
HIDDEN
 62
     7
100
AcDbPolyline
 90
      121
 70
     0
 43
0.0
 10
50.4206395909
 20
45.8100037097
 10
50.4091881262
 20
45.81014170069999
 10
50.39774261
 20
45.8105556247
 10
50.3863154287
 20
45.81124503739999
 10
50.3749083882
 20
45.8122098568
 10
50.3635373511
 20
45.81344868899999
 10
50.3521995124
 20
45.81496187189999
 10
50.3409155946
 20
45.81674661979999
 10
50.32967822609999
 20
45.818804127
 10
50.3185123401
 20
45.8211297972
 10
50.3074062586
 20
45.8237260907
 10
50.2963889276
 20
45.826586216
 10
50.2854446558
 20
45.8297142722
 10
50.2746059963
 20
45.8331009313
 10
50.2638536129
 20
45.8367522584
 10
50.2532232363
 20
45.84065609939999
 10
50.2426923095
 20
45.8448207585
 10
50.23229924729999
 20
45.8492310266
 10
50.2220187472
 20
45.8538976575
 10
50.2118913721
 20
45.8588022255
 10
50.2018895909
 20
45.86395807609999
 10
50.1920555418
 20
45.8693434793
 10
50.182360013
 20
45.8749744395
 10
50.1728461217
 20
45.8808259132
 10
50.163483543
 20
45.88691655249999
 10
50.1543157629
 20
45.8932180733
 10
50.14531191979999
 20
45.8997516827
 10
50.1365152583
 20
45.90648601279999
 10
50.1278949506
 20
45.9134446499
 10
50.119493403
 20
45.9205933837
 10
50.11128037409999
 20
45.9279579226
 10
50.1032968609
 20
45.93550153699999
 10
50.0955137297
 20
45.9432517209
 10
50.0879700367
 20
45.9511696276
 10
50.0806382327
 20
45.95928412560001
 10
50.0735549543
 20
45.9675547256
 10
50.06669465579999
 20
45.9760111929
 10
50.0600911409
 20
45.9846119338
 10
50.05372121739999
 20
45.9933870752
 10
50.04761551899999
 20
46.00229451039999
 10
50.0417534767
 20
46.0113641464
 10
50.03616230399999
 20
46.020553996
 10
50.03082423649999
 20
46.0298931325
 10
50.0257629108
 20
46.0393403468
 10
50.0209634531
 20
46.04892324699999
 10
50.01644586640001
 20
46.0586020709
 10
50.0121981543
 20
46.06840232949999
 10
50.0082367311
 20
46.07828636959999
 10
50.004552365
 20
46.0882769892
 10
50.00115802829999
 20
46.0983392818
 10
49.99804704189999
 20
46.10849275119999
 10
49.99522918109999
 20
46.11870583229999
 10
49.9927000155
 20
46.12899420539999
 10
49.9904664593
 20
46.13933018229999
 10
49.98852594189999
 20
46.14972515869999
 10
49.9868829331
 20
46.16015578339999
 10
49.98553626159999
 20
46.1706287891
 10
49.9844884375
 20
46.1811255326
 10
49.9837391694
 20
46.1916478011
 10
49.98328954449999
 20
46.2021819298
 10
49.9831395909
 20
46.2127245831
 10
49.98328954449999
 20
46.2232672363
 10
49.9837391694
 20
46.23380136509999
 10
49.9844884375
 20
46.24432363359999
 10
49.98553626159999
 20
46.2548203771
 10
49.9868829331
 20
46.2652933828
 10
49.98852594189999
 20
46.2757240075
 10
49.9904664593
 20
46.2861189839
 10
49.9927000155
 20
46.2964549608
 10
49.99522918109999
 20
46.3067433339
 10
49.99804704189999
 20
46.316956415
 10
50.00115802829999
 20
46.32710988439999
 10
50.004552365
 20
46.337172177
 10
50.0082367311
 20
46.3471627966
 10
50.0121981543
 20
46.3570468367
 10
50.01644586640001
 20
46.36684709529999
 10
50.0209634531
 20
46.3765259192
 10
50.0257629108
 20
46.38610881939999
 10
50.03082423649999
 20
46.39555603369999
 10
50.03616230399999
 20
46.4048951702
 10
50.0417534767
 20
46.41408501979999
 10
50.04761551899999
 20
46.4231546558
 10
50.05372121739999
 20
46.432062091
 10
50.0600911409
 20
46.4408372324
 10
50.06669465579999
 20
46.44943797329999
 10
50.0735549543
 20
46.4578944406
 10
50.0806382327
 20
46.4661650406
 10
50.0879700367
 20
46.47427953859999
 10
50.0955137297
 20
46.48219744529999
 10
50.1032968609
 20
46.4899476291
 10
50.11128037409999
 20
46.49749124359999
 10
50.119493403
 20
46.5048557825
 10
50.1278949506
 20
46.5120045163
 10
50.1365152583
 20
46.5189631534
 10
50.14531191979999
 20
46.5256974834
 10
50.1543157629
 20
46.53223109279999
 10
50.163483543
 20
46.5385326137
 10
50.1728461217
 20
46.544623253
 10
50.182360013
 20
46.5504747267
 10
50.1920555418
 20
46.5561056869
 10
50.2018895909
 20
46.5614910901
 10
50.2118913721
 20
46.5666469406
 10
50.2220187472
 20
46.57155150869999
 10
50.23229924729999
 20
46.5762181395
 10
50.2426923095
 20
46.5806284077
 10
50.2532232363
 20
46.5847930668
 10
50.2638536129
 20
46.5886969078
 10
50.2746059963
 20
46.5923482349
 10
50.2854446558
 20
46.59573489399999
 10
50.2963889276
 20
46.5988629502
 10
50.3074062586
 20
46.6017230755
 10
50.3185123401
 20
46.60431936899999
 10
50.32967822609999
 20
46.6066450392
 10
50.3409155946
 20
46.6087025464
 10
50.3521995124
 20
46.6104872942
 10
50.3635373511
 20
46.6120004772
 10
50.3749083882
 20
46.61323930939999
 10
50.3863154287
 20
46.6142041287
 10
50.39774261
 20
46.61489354149999
 10
50.4091881262
 20
46.6153074655
 10
50.4206395909
 20
46.61544545649999
  0
LWPOLYLINE
  5
5D1
330
21E
100
AcDbEntity
  8
DEFAULT_2
  6
HIDDEN
 62
     7
100
AcDbPolyline
 90
       97
 70
     0
 43
0.0
 10
50.6706395909
 20
46.0650390325
 10
50.6645055578
 20
46.06513142989999
 10
50.65837650369999
 20
46.065408571
 10
50.65226278749999
 20
46.0658699912
 10
50.646165929
 20
46.0665156039
 10
50.64009914959999
 20
46.06734395479999
 10
50.6340601542
 20
46.0683553907
 10
50.6280661112
 20
46.0695470163
 10
50.6221110182
 20
46.0709200533
 10
50.6162153408
 20
46.07246975259999
 10
50.6103696897
 20
46.0741986092
 10
50.6045975253
 20
46.0760996621
 10
50.59888644629999
 20
46.0781770191
 10
50.59326241
 20
46.08042121829999
 10
50.5877104605
 20
46.08283824699999
 10
50.5822585187
 20
46.0854159355
 10
50.5768895899
 20
46.08816233289999
 10
50.5716329647
 20
46.0910624476
 10
50.5664701713
 20
46.094126478
 10
50.5614312437
 20
46.09733659889999
 10
50.5564968222
 20
46.100705143
 10
50.55169704149999
 20
46.1042115471
 10
50.5470122499
 20
46.1078701571
 10
50.5424720462
 20
46.1116578774
 10
50.5380570688
 20
46.1155908386
 10
50.5337957704
 20
46.1196437275
 10
50.5296696265
 20
46.1238341263
 10
50.5257053818
 20
46.1281349229
 10
50.5218858392
 20
46.13256472109999
 10
50.518235544
 20
46.13709512249999
 10
50.51473903819999
 20
46.1417452375
 10
50.5114182671
 20
46.1464859728
 10
50.5082598274
 20
46.15133636289999
 10
50.5052827705
 20
46.1562672718
 10
50.5024759516
 20
46.1612970268
 10
50.4998553562
 20
46.1663971396
 10
50.49741217840001
 20
46.171584576
 10
50.4951592954
 20
46.17683219769999
 10
50.49309019149999
 20
46.1821549576
 10
50.4912147271
 20
46.18752775399999
 10
50.4895284984
 20
46.19296290770001
 10
50.4880385708
 20
46.19843799449999
 10
50.4867423507
 20
46.20396214489999
 10
50.48564445189999
 20
46.2095161799
 10
50.4847436793
 20
46.2151055689
 10
50.4840426424
 20
46.2207148464
 10
50.4835410428
 20
46.2263454617
 10
50.48324001560001
 20
46.2319860103
 10
50.4831395909
 20
46.23763369249999
 10
50.48324001560001
 20
46.2432813748
 10
50.4835410428
 20
46.24892192329999
 10
50.4840426424
 20
46.2545525387
 10
50.4847436793
 20
46.26016181619999
 10
50.48564445189999
 20
46.2657512052
 10
50.4867423507
 20
46.2713052402
 10
50.4880385708
 20
46.2768293906
 10
50.4895284984
 20
46.2823044774
 10
50.4912147271
 20
46.28773963109999
 10
50.49309019149999
 20
46.2931124275
 10
50.4951592954
 20
46.29843518739999
 10
50.49741217840001
 20
46.30368280909999
 10
50.4998553562
 20
46.3088702454
 10
50.5024759516
 20
46.3139703583
 10
50.5052827705
 20
46.31900011319999
 10
50.5082598274
 20
46.3239310221
 10
50.5114182671
 20
46.32878141219999
 10
50.51473903819999
 20
46.3335221476
 10
50.518235544
 20
46.3381722626
 10
50.5218858392
 20
46.3427026639
 10
50.5257053818
 20
46.3471324621
 10
50.5296696265
 20
46.3514332588
 10
50.5337957704
 20
46.3556236575
 10
50.5380570688
 20
46.35967654649999
 10
50.5424720462
 20
46.3636095076
 10
50.5470122499
 20
46.367397228
 10
50.55169704149999
 20
46.371055838
 10
50.5564968222
 20
46.3745622421
 10
50.5614312437
 20
46.37793078619999
 10
50.5664701713
 20
46.38114090699999
 10
50.5716329647
 20
46.38420493749999
 10
50.5768895899
 20
46.3871050522
 10
50.5822585187
 20
46.3898514495
 10
50.5877104605
 20
46.392429138
 10
50.59326241
 20
46.39484616679999
 10
50.59888644629999
 20
46.397090366
 10
50.6045975253
 20
46.399167723
 10
50.6103696897
 20
46.4010687759
 10
50.6162153408
 20
46.40279763249999
 10
50.6221110182
 20
46.4043473317
 10
50.6280661112
 20
46.4057203688
 10
50.6340601542
 20
46.4069119943
 10
50.64009914959999
 20
46.40792343029999
 10
50.646165929
 20
46.40875178119999
 10
50.65226278749999
 20
46.4093973939
 10
50.65837650369999
 20
46.40985881409999
 10
50.6645055578
 20
46.4101359551
 10
50.6706395909
 20
46.4102283526
  0
LWPOLYLINE
  5
5D2
330
21E
100
AcDbEntity
  8
DEFAULT_2
  6
HIDDEN
 62
     7
100
AcDbPolyline
 90
       51
 70
     0
 43
0.0
 10
53.2956395909
 20
46.4102283526
 10
53.3017736239
 20
46.4101359551
 10
53.30790267800001
 20
46.40985881409999
 10
53.31401639420001
 20
46.4093973939
 10
53.3201132527
 20
46.40875178119999
 10
53.3261800321
 20
46.40792343029999
 10
53.3322190275
 20
46.4069119943
 10
53.3382130705
 20
46.4057203688
 10
53.3441681635
 20
46.4043473317
 10
53.3500638409
 20
46.40279763249999
 10
53.355909492
 20
46.4010687759
 10
53.3616816564
 20
46.399167723
 10
53.3673927354
 20
46.397090366
 10
53.3730167717
 20
46.39484616679999
 10
53.37856872119999
 20
46.392429138
 10
53.384020663
 20
46.3898514495
 10
53.3893895918
 20
46.3871050522
 10
53.3946462171
 20
46.38420493749999
 10
53.3998090104
 20
46.38114090699999
 10
53.404847938
 20
46.37793078619999
 10
53.4097823595
 20
46.3745622421
 10
53.41458214020001
 20
46.371055838
 10
53.4192669318
 20
46.367397228
 10
53.4238071356
 20
46.3636095076
 10
53.4282221129
 20
46.35967654649999
 10
53.4324834114
 20
46.3556236575
 10
53.43660955529999
 20
46.3514332588
 10
53.4405737999
 20
46.3471324621
 10
53.4443933426
 20
46.3427026639
 10
53.4480436377
 20
46.3381722626
 10
53.45154014350001
 20
46.3335221476
 10
53.45486091459999
 20
46.32878141219999
 10
53.4580193543
 20
46.3239310221
 10
53.4609964112
 20
46.31900011319999
 10
53.4638032301
 20
46.3139703583
 10
53.4664238255
 20
46.3088702454
 10
53.4688670034
 20
46.30368280909999
 10
53.4711198864
 20
46.29843518739999
 10
53.4731889903
 20
46.2931124275
 10
53.4750644546
 20
46.28773963109999
 10
53.4767506834
 20
46.2823044774
 10
53.4782406109
 20
46.2768293906
 10
53.479536831
 20
46.2713052402
 10
53.48063472979999
 20
46.2657512052
 10
53.4815355024
 20
46.26016181619999
 10
53.4822365393
 20
46.2545525387
 10
53.482738139
 20
46.24892192329999
 10
53.4830391662
 20
46.2432813748
 10
53.4831395909
 20
46.23763369249999
 10
53.4830391662
 20
46.2319860103
 10
53.482738139
 20
46.2263454617
  0
LINE
  5
62E
330
21E
100
AcDbEntity
  8
DEFAULT_2
  6
HIDDEN
 62
     7
100
AcDbLine
 10
53.4313628956
 20
29.7859478878
 30
0.0
 11
53.7886887984
 21
30.1432737907
 31
0.0
  0
LWPOLYLINE
  5
693
330
21E
100
AcDbEntity
  8
DEFAULT_2
  6
HIDDEN
 62
     7
100
AcDbPolyline
 90
       16
 70
     0
 43
0.0
 10
72.9324580946
 20
33.6064295098
 10
74.1874344404
 20
35.8047499271
 10
75.7832873053
 20
38.6044710336
 10
77.38199796239999
 20
41.4025085052
 10
78.98885942879999
 20
44.1957438318
 10
79.7969985605
 20
45.5895876117
 10
80.6091562329
 20
46.98106406119999
 10
81.4260048316
 20
48.3697763222
 10
81.83639400369999
 20
49.0629747087
 10
82.24818649319999
 20
49.7553473429
 10
82.4546481914
 20
50.10120002459999
 10
82.6615201283
 20
50.4468094025
 10
82.7650932577
 20
50.6195339856
 10
82.86874149399999
 20
50.7922159732
 10
83.07619106989999
 20
51.1374956158
 10
83.78890815810001
 20
52.3236393672
  0
LWPOLYLINE
  5
694
330
21E
100
AcDbEntity
  8
DEFAULT_2
  6
HIDDEN
 62
     7
100
AcDbPolyline
 90
        4
 70
     0
 43
0.0
 10
71.8378409533
 20
31.6965319647
 10
72.2137409721
 20
32.3513520379
 10
72.58914890000001
 20
33.0064620268
 10
72.8548850283
 20
33.4707964139
  0
LINE
  5
14B6
330
21E
100
AcDbEntity
  8
0
  6
Continuous
 62
     7
100
AcDbLine
 10
26.9150484726
 20
25.0508709819
 30
0.0
 11
18.9831395909
 21
52.71272458310001
 31
0.0
  0
LINE
  5
14B7
330
21E
100
AcDbEntity
  8
0
  6
Continuous
 62
     7
100
AcDbLine
 10
75.6427420942
 20
24.7789296583
 30
0.0
 11
75.6443159369
 21
24.779025067
 31
0.0
  0
LINE
  5
14B8
330
21E
100
AcDbEntity
  8
0
  6
Continuous
 62
     7
100
AcDbLine
 10
75.59726191600001
 20
24.7764218338
 30
0.0
 11
75.64289416300001
 21
24.7789404368
 31
0.0
  0
LINE
  5
14B9
330
21E
100
AcDbEntity
  8
0
  6
Continuous
 62
     7
100
AcDbLine
 10
75.6443326854
 20
24.7790260823
 30
0.0
 11
75.6456579595
 21
24.7790751257
 31
0.0
  0
LINE
  5
14BA
330
21E
100
AcDbEntity
  8
0
  6
Continuous
 62
     7
100
AcDbLine
 10
75.5444048483
 20
24.7745778875
 30
0.0
 11
75.59726191600001
 21
24.7764218338
 31
0.0
  0
LWPOLYLINE
  5
14BB
330
21E
100
AcDbEntity
  8
0
  6
Continuous
 62
     7
100
AcDbPolyline
 90
       13
 70
     0
 43
0.0
 10
28.4214467976
 20
24.7745899773
 10
28.4801041393
 20
24.7732176669
 10
28.5444508563
 20
24.7721835712
 10
28.614437237
 20
24.7714217414
 10
28.6901027693
 20
24.7709065638
 10
28.7718163955
 20
24.7706310767
 10
28.8599103291
 20
24.7706207065
 10
28.9540250677
 20
24.7709184601
 10
29.0536939799
 20
24.77158514340001
 10
29.1583761227
 20
24.7727095177
 10
29.2674797456
 20
24.7743997518
 10
29.3804136628
 20
24.7767920045
 10
29.4876704647
 20
24.7797726079
  0
LINE
  5
14BC
330
21E
100
AcDbEntity
  8
0
  6
Continuous
 62
     7
100
AcDbLine
 10
28.4218743334
 20
24.7745778875
 30
0.0
 11
28.4241748347
 21
24.7745242296
 31
0.0
  0
LINE
  5
14BD
330
21E
100
AcDbEntity
  8
0
  6
Continuous
 62
     7
100
AcDbLine
 10
28.3686745721
 20
24.7764366714
 30
0.0
 11
28.4218743334
 21
24.7745778875
 31
0.0
  0
LINE
  5
14BE
330
21E
100
AcDbEntity
  8
0
  6
Continuous
 62
     7
100
AcDbLine
 10
28.3233728677
 20
24.7789413009
 30
0.0
 11
28.3690172657
 21
24.7764218338
 31
0.0
  0
LINE
  5
14BF
330
21E
100
AcDbEntity
  8
0
  6
Continuous
 62
     7
100
AcDbLine
 10
28.3219632448
 20
24.779025067
 30
0.0
 11
28.3235370875
 21
24.7789296583
 31
0.0
  0
LWPOLYLINE
  5
14C0
330
21E
100
AcDbEntity
  8
0
  6
Continuous
 62
     7
100
AcDbPolyline
 90
        4
 70
     0
 43
0.0
 10
29.4876676757
 20
24.779772521
 10
29.7644780048
 20
24.78589619760001
 10
30.046726289
 20
24.78781869460001
 10
30.3131973052
 20
24.7876916125
  0
LINE
  5
14C1
330
21E
100
AcDbEntity
  8
0
  6
Continuous
 62
     7
100
AcDbLine
 10
75.64565092810001
 20
24.7790748655
 30
0.0
 11
75.64617559510001
 21
24.7790816148
 31
0.0
  0
LWPOLYLINE
  5
14C2
330
21E
100
AcDbEntity
  8
0
  6
Continuous
 62
     7
100
AcDbPolyline
 90
        4
 70
     0
 43
0.0
 10
73.6530818766
 20
24.7876916125
 10
73.91955289270001
 20
24.78781869460001
 10
74.20180117689999
 20
24.78589619760001
 10
74.47861150600001
 20
24.779772521
  0
LINE
  5
14C3
330
21E
100
AcDbEntity
  8
0
  6
Continuous
 62
     7
100
AcDbLine
 10
75.6461734322
 20
24.7790816099
 30
0.0
 11
76.69125541939999
 21
24.7792353208
 31
0.0
  0
LWPOLYLINE
  5
14C4
330
21E
100
AcDbEntity
  8
0
  6
Continuous
 62
     7
100
AcDbPolyline
 90
        9
 70
     0
 43
0.0
 10
51.9831399834
 20
24.7860935574
 10
54.6919973359
 20
24.786119919
 10
57.4105546734
 20
24.7861991934
 10
60.1277695019
 20
24.7863305254
 10
62.84279512659999
 20
24.7865122712
 10
65.55477843670001
 20
24.7867421121
 10
68.26287595689999
 20
24.7870175883
 10
70.96625647589999
 20
24.7873357689
 10
73.6530836136
 20
24.7876916096
  0
LINE
  5
14C5
330
21E
100
AcDbEntity
  8
0
  6
Continuous
 62
     7
100
AcDbLine
 10
27.2753649333
 20
24.779235023
 30
0.0
 11
28.3201057495
 21
24.7790816099
 31
0.0
  0
LWPOLYLINE
  5
14C6
330
21E
100
AcDbEntity
  8
0
  6
Continuous
 62
     7
100
AcDbPolyline
 90
        9
 70
     0
 43
0.0
 10
30.3131955681
 20
24.7876916096
 10
33.0000228034
 20
24.7873357689
 10
35.7034034203
 20
24.7870175882
 10
38.41150103869999
 20
24.7867421121
 10
41.1234844472
 20
24.7865122712
 10
43.8385101704
 20
24.7863305254
 10
46.55572509729999
 20
24.7861991934
 10
49.27428253310001
 20
24.786119919
 10
51.9831399834
 20
24.7860935574
  0
LWPOLYLINE
  5
14C7
330
21E
100
AcDbEntity
  8
0
  6
Continuous
 62
     7
100
AcDbPolyline
 90
        3
 70
     0
 43
0.0
 10
28.3201035524
 20
24.7790816148
 10
28.3206212223
 20
24.7790751257
 10
28.3219464963
 20
24.7790260823
  0
LWPOLYLINE
  5
14C8
330
21E
100
AcDbEntity
  8
0
  6
Continuous
 62
     7
100
AcDbPolyline
 90
       15
 70
     0
 43
0.0
 10
74.478608717
 20
24.7797726079
 10
74.58586551899999
 20
24.7767920045
 10
74.6987994362
 20
24.7743997518
 10
74.807903059
 20
24.7727095177
 10
74.9125852018
 20
24.77158514340001
 10
75.0122541141
 20
24.7709184601
 10
75.1063688526
 20
24.7706207065
 10
75.19446278619999
 20
24.7706310767
 10
75.27617641239999
 20
24.7709065638
 10
75.3518419448
 20
24.7714217414
 10
75.4218283255
 20
24.7721835712
 10
75.4861750425
 20
24.7732176669
 10
75.5448323841
 20
24.7745899773
 10
75.5976046097
 20
24.7764366714
 10
75.6429063141
 20
24.7789413009
  0
LINE
  5
14C9
330
21E
100
AcDbEntity
  8
DEFAULT_1
  6
CENTER
 62
     7
100
AcDbLine
 10
51.9831395909
 20
23.4449632746
 30
0.0
 11
51.9831395909
 21
53.78954638869999
 31
0.0
  0
LINE
  5
14CA
330
21E
100
AcDbEntity
  8
0
  6
Continuous
 62
     7
100
AcDbLine
 10
77.0512307092
 20
25.0508709819
 30
0.0
 11
84.98313959089999
 21
52.71272458310001
 31
0.0
  0
ARC
  5
1549
330
21E
100
AcDbEntity
  8
DEFAULT_2
  6
HIDDEN
 62
     7
100
AcDbCircle
 10
70.320492828
 20
32.56840045630001
 30
0.0
 40
1.75
100
AcDbArc
 50
272.1029524749
 51
330.118317511
  0
ARC
  5
154A
330
21E
100
AcDbEntity
  8
DEFAULT_2
  6
HIDDEN
 62
     7
100
AcDbCircle
 10
33.6457863537
 20
32.56840045630001
 30
0.0
 40
1.75
100
AcDbArc
 50
209.8816825082
 51
267.8970475255
  0
ARC
  5
1553
330
21E
100
AcDbEntity
  8
DEFAULT_2
  6
HIDDEN
 62
     7
100
AcDbCircle
 10
84.21749011539999
 20
52.0661175121
 30
0.0
 40
0.5
100
AcDbArc
 50
100.1173031798
 51
148.9996233213999
  0
ARC
  5
1554
330
21E
100
AcDbEntity
  8
DEFAULT_2
  6
HIDDEN
 62
     7
100
AcDbCircle
 10
19.7487890663
 20
52.0661175121
 30
0.0
 40
0.5
100
AcDbArc
 50
31.0003766769
 51
79.88269682020001
  0
ARC
  5
1557
330
21E
100
AcDbEntity
  8
DEFAULT_2
  6
HIDDEN
 62
     7
100
AcDbCircle
 10
53.9654654937
 20
29.9664970954
 30
0.0
 40
0.25
100
AcDbArc
 50
92.10295219909999
 51
134.9999999922
  0
ARC
  5
1558
330
21E
100
AcDbEntity
  8
DEFAULT_2
  6
HIDDEN
 62
     7
100
AcDbCircle
 10
53.2545862003
 20
29.9627245831
 30
0.0
 40
0.25
100
AcDbArc
 50
270.0
 51
315.0
  0
ARC
  5
1559
330
21E
100
AcDbEntity
  8
DEFAULT_2
  6
HIDDEN
 62
     7
100
AcDbCircle
 10
50.7116929815
 20
29.9627245831
 30
0.0
 40
0.25
100
AcDbArc
 50
225.0
 51
270.0
  0
ARC
  5
155A
330
21E
100
AcDbEntity
  8
DEFAULT_2
  6
HIDDEN
 62
     7
100
AcDbCircle
 10
50.000813688
 20
29.9664970954
 30
0.0
 40
0.25
100
AcDbArc
 50
45.0000000052
 51
87.8970478009
  0
ARC
  5
1561
330
21E
100
AcDbEntity
  8
0
  6
Continuous
 62
     7
100
AcDbCircle
 10
51.9831395909
 20
232.7127245831
 30
0.0
 40
183.0
100
AcDbArc
 50
259.6111421845
 51
280.3888578155
  0
ARC
  5
1562
330
21E
100
AcDbEntity
  8
0
  6
Continuous
 62
     7
100
AcDbCircle
 10
27.2755216085
 20
25.1542349903
 30
0.0
 40
0.375
100
AcDbArc
 50
196.0
 51
269.975535079
  0
ARC
  5
1563
330
21E
100
AcDbEntity
  8
0
  6
Continuous
 62
     7
100
AcDbCircle
 10
76.6907575732
 20
25.1542349903
 30
0.0
 40
0.375
100
AcDbArc
 50
270.0760912483
 51
344.0
  0
ENDSEC
  0
SECTION
  2
OBJECTS
  0
DICTIONARY
  5
C
330
0
100
AcDbDictionary
281
     1
  3
ACAD_COLOR
350
1599
  3
ACAD_GROUP
350
D
  3
ACAD_LAYOUT
350
1A
  3
ACAD_MATERIAL
350
156C
  3
ACAD_MLEADERSTYLE
350
15BE
  3
ACAD_MLINESTYLE
350
17
  3
ACAD_PLOTSETTINGS
350
19
  3
ACAD_PLOTSTYLENAME
350
E
  3
ACAD_SCALELIST
350
159C
  3
ACAD_TABLESTYLE
350
159A
  3
ACAD_VISUALSTYLE
350
1585
  3
ACDB_RECOMPOSE_DATA
350
15C4
  3
AcDbVariableDictionary
350
15F6
  0
DICTIONARY
  5
15C5
330
8
100
AcDbDictionary
280
     1
281
     1
  0
DICTIONARY
  5
1605
330
10
100
AcDbDictionary
280
     1
281
     1
  3
ADSK_XREC_LAYER_RECONCILED
360
1606
  0
DICTIONARY
  5
1607
330
1FA
100
AcDbDictionary
280
     1
281
     1
  3
ADSK_XREC_LAYER_RECONCILED
360
1608
  0
DICTIONARY
  5
1609
330
1FB
100
AcDbDictionary
280
     1
281
     1
  3
ADSK_XREC_LAYER_RECONCILED
360
160A
  0
DICTIONARY
  5
160B
330
1FC
100
AcDbDictionary
280
     1
281
     1
  3
ADSK_XREC_LAYER_RECONCILED
360
160C
  0
DICTIONARY
  5
160D
330
1FD
100
AcDbDictionary
280
     1
281
     1
  3
ADSK_XREC_LAYER_RECONCILED
360
160E
  0
DICTIONARY
  5
160F
330
1FE
100
AcDbDictionary
280
     1
281
     1
  3
ADSK_XREC_LAYER_RECONCILED
360
1610
  0
DICTIONARY
  5
1611
330
1FF
100
AcDbDictionary
280
     1
281
     1
  3
ADSK_XREC_LAYER_RECONCILED
360
1612
  0
DICTIONARY
  5
1613
330
200
100
AcDbDictionary
280
     1
281
     1
  3
ADSK_XREC_LAYER_RECONCILED
360
1614
  0
DICTIONARY
  5
1615
330
201
100
AcDbDictionary
280
     1
281
     1
  3
ADSK_XREC_LAYER_RECONCILED
360
1616
  0
DICTIONARY
  5
1617
330
202
100
AcDbDictionary
280
     1
281
     1
  3
ADSK_XREC_LAYER_RECONCILED
360
1618
  0
DICTIONARY
  5
1619
330
203
100
AcDbDictionary
280
     1
281
     1
  3
ADSK_XREC_LAYER_RECONCILED
360
161A
  0
DICTIONARY
  5
161B
330
204
100
AcDbDictionary
280
     1
281
     1
  3
ADSK_XREC_LAYER_RECONCILED
360
161C
  0
DICTIONARY
  5
161D
330
205
100
AcDbDictionary
280
     1
281
     1
  3
ADSK_XREC_LAYER_RECONCILED
360
161E
  0
DICTIONARY
  5
161F
330
206
100
AcDbDictionary
280
     1
281
     1
  3
ADSK_XREC_LAYER_RECONCILED
360
1620
  0
DICTIONARY
  5
1621
330
207
100
AcDbDictionary
280
     1
281
     1
  3
ADSK_XREC_LAYER_RECONCILED
360
1622
  0
DICTIONARY
  5
1623
330
208
100
AcDbDictionary
280
     1
281
     1
  3
ADSK_XREC_LAYER_RECONCILED
360
1624
  0
DICTIONARY
  5
1625
330
209
100
AcDbDictionary
280
     1
281
     1
  3
ADSK_XREC_LAYER_RECONCILED
360
1626
  0
DICTIONARY
  5
1627
330
20A
100
AcDbDictionary
280
     1
281
     1
  3
ADSK_XREC_LAYER_RECONCILED
360
1628
  0
DICTIONARY
  5
1629
330
20B
100
AcDbDictionary
280
     1
281
     1
  3
ADSK_XREC_LAYER_RECONCILED
360
162A
  0
DICTIONARY
  5
162B
330
20C
100
AcDbDictionary
280
     1
281
     1
  3
ADSK_XREC_LAYER_RECONCILED
360
162C
  0
DICTIONARY
  5
162D
330
20D
100
AcDbDictionary
280
     1
281
     1
  3
ADSK_XREC_LAYER_RECONCILED
360
162E
  0
DICTIONARY
  5
162F
330
20E
100
AcDbDictionary
280
     1
281
     1
  3
ADSK_XREC_LAYER_RECONCILED
360
1630
  0
DICTIONARY
  5
1631
330
20F
100
AcDbDictionary
280
     1
281
     1
  3
ADSK_XREC_LAYER_RECONCILED
360
1632
  0
DICTIONARY
  5
1633
330
210
100
AcDbDictionary
280
     1
281
     1
  3
ADSK_XREC_LAYER_RECONCILED
360
1634
  0
DICTIONARY
  5
1635
330
211
100
AcDbDictionary
280
     1
281
     1
  3
ADSK_XREC_LAYER_RECONCILED
360
1636
  0
DICTIONARY
  5
1637
330
212
100
AcDbDictionary
280
     1
281
     1
  3
ADSK_XREC_LAYER_RECONCILED
360
1638
  0
DICTIONARY
  5
1639
330
213
100
AcDbDictionary
280
     1
281
     1
  3
ADSK_XREC_LAYER_RECONCILED
360
163A
  0
DICTIONARY
  5
163B
330
214
100
AcDbDictionary
280
     1
281
     1
  3
ADSK_XREC_LAYER_RECONCILED
360
163C
  0
DICTIONARY
  5
163D
330
215
100
AcDbDictionary
280
     1
281
     1
  3
ADSK_XREC_LAYER_RECONCILED
360
163E
  0
DICTIONARY
  5
1599
102
{ACAD_REACTORS
330
C
102
}
330
C
100
AcDbDictionary
281
     1
  0
DICTIONARY
  5
D
102
{ACAD_REACTORS
330
C
102
}
330
C
100
AcDbDictionary
281
     1
  0
DICTIONARY
  5
1A
102
{ACAD_REACTORS
330
C
102
}
330
C
100
AcDbDictionary
281
     1
  3
Layout1
350
1568
  3
Model
350
1567
  0
DICTIONARY
  5
156C
102
{ACAD_REACTORS
330
C
102
}
330
C
100
AcDbDictionary
281
     1
  3
ByBlock
350
1575
  3
ByLayer
350
156D
  3
Global
350
157D
  0
DICTIONARY
  5
15BE
102
{ACAD_REACTORS
330
C
102
}
330
C
100
AcDbDictionary
281
     1
  3
Standard
350
15BF
  0
DICTIONARY
  5
17
102
{ACAD_REACTORS
330
C
102
}
330
C
100
AcDbDictionary
281
     1
  3
Standard
350
18
  0
DICTIONARY
  5
19
102
{ACAD_REACTORS
330
C
102
}
330
C
100
AcDbDictionary
281
     1
  0
ACDBDICTIONARYWDFLT
  5
E
102
{ACAD_REACTORS
330
C
102
}
330
C
100
AcDbDictionary
281
     1
  3
Normal
350
F
100
AcDbDictionaryWithDefault
340
F
  0
DICTIONARY
  5
159C
102
{ACAD_REACTORS
330
C
102
}
330
C
100
AcDbDictionary
281
     1
  3
A0
350
159D
  3
A1
350
159E
  3
A2
350
159F
  3
A3
350
15A0
  3
A4
350
15A1
  3
A5
350
15A2
  3
A6
350
15A3
  3
A7
350
15A4
  3
A8
350
15A5
  3
A9
350
15A6
  3
B0
350
15A7
  3
B1
350
15A8
  3
B2
350
15A9
  3
B3
350
15AA
  3
B4
350
15AB
  3
B5
350
15AC
  3
B6
350
15AD
  3
B7
350
15AE
  3
B8
350
15AF
  3
B9
350
15B0
  3
C0
350
15B1
  3
C1
350
15B2
  3
C2
350
15B3
  3
C3
350
15B4
  3
C4
350
15B5
  3
C5
350
15B6
  3
C6
350
15B7
  3
C7
350
15B8
  3
C8
350
15B9
  3
C9
350
15BA
  3
D0
350
15BB
  3
D1
350
15BC
  3
D2
350
15BD
  0
DICTIONARY
  5
159A
102
{ACAD_REACTORS
330
C
102
}
330
C
100
AcDbDictionary
281
     1
  3
Standard
350
159B
  0
DICTIONARY
  5
1585
102
{ACAD_REACTORS
330
C
102
}
330
C
100
AcDbDictionary
281
     1
  3
2dWireframe
350
158B
  3
3D Hidden
350
158D
  3
3dWireframe
350
158C
  3
Basic
350
158A
  3
Brighten
350
1591
  3
ColorChange
350
1595
  3
Conceptual
350
158E
  3
Dim
350
1590
  3
EdgeColorOff
350
1598
  3
Facepattern
350
1594
  3
Flat
350
1586
  3
FlatWithEdges
350
1587
  3
Gouraud
350
1588
  3
GouraudWithEdges
350
1589
  3
JitterOff
350
1596
  3
Linepattern
350
1593
  3
OverhangOff
350
1597
  3
Realistic
350
158F
  3
Thicken
350
1592
  0
XRECORD
  5
15C4
102
{ACAD_REACTORS
330
C
102
}
330
C
100
AcDbXrecord
280
     1
 90
        1
330
159B
  0
DICTIONARY
  5
15F6
102
{ACAD_REACTORS
330
C
102
}
330
C
100
AcDbDictionary
281
     1
  3
CANNOSCALE
350
15F9
  3
CMLEADERSTYLE
350
15F8
  3
CTABLESTYLE
350
15F7
  3
DIMASSOC
350
15FC
  3
INDEXCTL
350
15FB
  3
LAYEREVAL
350
1646
  3
LAYERNOTIFY
350
1647
  3
LIGHTINGUNITS
350
1645
  3
MSLTSCALE
350
1644
  3
SORTENTS
350
15FA
  3
XCLIPFRAME
350
15FD
  0
XRECORD
  5
1606
102
{ACAD_REACTORS
330
1605
102
}
330
1605
100
AcDbXrecord
280
     1
290
     1
  0
XRECORD
  5
1608
102
{ACAD_REACTORS
330
1607
102
}
330
1607
100
AcDbXrecord
280
     1
290
     1
  0
XRECORD
  5
160A
102
{ACAD_REACTORS
330
1609
102
}
330
1609
100
AcDbXrecord
280
     1
290
     1
  0
XRECORD
  5
160C
102
{ACAD_REACTORS
330
160B
102
}
330
160B
100
AcDbXrecord
280
     1
290
     1
  0
XRECORD
  5
160E
102
{ACAD_REACTORS
330
160D
102
}
330
160D
100
AcDbXrecord
280
     1
290
     1
  0
XRECORD
  5
1610
102
{ACAD_REACTORS
330
160F
102
}
330
160F
100
AcDbXrecord
280
     1
290
     1
  0
XRECORD
  5
1612
102
{ACAD_REACTORS
330
1611
102
}
330
1611
100
AcDbXrecord
280
     1
290
     1
  0
XRECORD
  5
1614
102
{ACAD_REACTORS
330
1613
102
}
330
1613
100
AcDbXrecord
280
     1
290
     1
  0
XRECORD
  5
1616
102
{ACAD_REACTORS
330
1615
102
}
330
1615
100
AcDbXrecord
280
     1
290
     1
  0
XRECORD
  5
1618
102
{ACAD_REACTORS
330
1617
102
}
330
1617
100
AcDbXrecord
280
     1
290
     1
  0
XRECORD
  5
161A
102
{ACAD_REACTORS
330
1619
102
}
330
1619
100
AcDbXrecord
280
     1
290
     1
  0
XRECORD
  5
161C
102
{ACAD_REACTORS
330
161B
102
}
330
161B
100
AcDbXrecord
280
     1
290
     1
  0
XRECORD
  5
161E
102
{ACAD_REACTORS
330
161D
102
}
330
161D
100
AcDbXrecord
280
     1
290
     1
  0
XRECORD
  5
1620
102
{ACAD_REACTORS
330
161F
102
}
330
161F
100
AcDbXrecord
280
     1
290
     1
  0
XRECORD
  5
1622
102
{ACAD_REACTORS
330
1621
102
}
330
1621
100
AcDbXrecord
280
     1
290
     1
  0
XRECORD
  5
1624
102
{ACAD_REACTORS
330
1623
102
}
330
1623
100
AcDbXrecord
280
     1
290
     1
  0
XRECORD
  5
1626
102
{ACAD_REACTORS
330
1625
102
}
330
1625
100
AcDbXrecord
280
     1
290
     1
  0
XRECORD
  5
1628
102
{ACAD_REACTORS
330
1627
102
}
330
1627
100
AcDbXrecord
280
     1
290
     1
  0
XRECORD
  5
162A
102
{ACAD_REACTORS
330
1629
102
}
330
1629
100
AcDbXrecord
280
     1
290
     1
  0
XRECORD
  5
162C
102
{ACAD_REACTORS
330
162B
102
}
330
162B
100
AcDbXrecord
280
     1
290
     1
  0
XRECORD
  5
162E
102
{ACAD_REACTORS
330
162D
102
}
330
162D
100
AcDbXrecord
280
     1
290
     1
  0
XRECORD
  5
1630
102
{ACAD_REACTORS
330
162F
102
}
330
162F
100
AcDbXrecord
280
     1
290
     1
  0
XRECORD
  5
1632
102
{ACAD_REACTORS
330
1631
102
}
330
1631
100
AcDbXrecord
280
     1
290
     1
  0
XRECORD
  5
1634
102
{ACAD_REACTORS
330
1633
102
}
330
1633
100
AcDbXrecord
280
     1
290
     1
  0
XRECORD
  5
1636
102
{ACAD_REACTORS
330
1635
102
}
330
1635
100
AcDbXrecord
280
     1
290
     1
  0
XRECORD
  5
1638
102
{ACAD_REACTORS
330
1637
102
}
330
1637
100
AcDbXrecord
280
     1
290
     1
  0
XRECORD
  5
163A
102
{ACAD_REACTORS
330
1639
102
}
330
1639
100
AcDbXrecord
280
     1
290
     1
  0
XRECORD
  5
163C
102
{ACAD_REACTORS
330
163B
102
}
330
163B
100
AcDbXrecord
280
     1
290
     1
  0
XRECORD
  5
163E
102
{ACAD_REACTORS
330
163D
102
}
330
163D
100
AcDbXrecord
280
     1
290
     1
  0
LAYOUT
  5
1568
102
{ACAD_REACTORS
330
1A
102
}
330
1A
100
AcDbPlotSettings
  1

  2
none_device
  4
ANSI_B_(17.00_x_11.00_Inches)
  6

 40
0.0
 41
0.0
 42
0.0
 43
0.0
 44
431.8
 45
279.4
 46
0.0
 47
0.0
 48
0.0
 49
0.0
140
0.0
141
0.0
142
1.0
143
1.0
 70
     0
 72
     0
 73
     0
 74
     0
  7

 75
     0
147
1.0
 76
     0
 77
     2
 78
   300
148
0.0
149
0.0
100
AcDbLayout
  1
Layout1
 70
     1
 71
     1
 10
0.0
 20
0.0
 11
12.0
 21
9.0
 12
0.0
 22
0.0
 32
0.0
 14
1.000000000000000E+20
 24
1.000000000000000E+20
 34
1.000000000000000E+20
 15
-1.000000000000000E+20
 25
-1.000000000000000E+20
 35
-1.000000000000000E+20
146
0.0
 13
0.0
 23
0.0
 33
0.0
 16
1.0
 26
0.0
 36
0.0
 17
0.0
 27
1.0
 37
0.0
 76
     0
330
21F
  0
LAYOUT
  5
1567
102
{ACAD_REACTORS
330
1A
102
}
330
1A
100
AcDbPlotSettings
  1

  2
none_device
  4
ANSI_B_(17.00_x_11.00_Inches)
  6

 40
0.0
 41
0.0
 42
0.0
 43
0.0
 44
431.8
 45
279.4
 46
0.0
 47
0.0
 48
0.0
 49
0.0
140
0.0
141
0.0
142
1.0
143
1.0
 70
  1024
 72
     0
 73
     0
 74
     0
  7

 75
     0
147
1.0
 76
     0
 77
     2
 78
   300
148
0.0
149
0.0
100
AcDbLayout
  1
Model
 70
     0
 71
     0
 10
0.0
 20
0.0
 11
17.0
 21
11.0
 12
0.0
 22
0.0
 32
0.0
 14
0.0
 24
0.0
 34
0.0
 15
0.0
 25
0.0
 35
0.0
146
0.0
 13
0.0
 23
0.0
 33
0.0
 16
1.0
 26
0.0
 36
0.0
 17
0.0
 27
1.0
 37
0.0
 76
     0
330
21E
331
1F4
  0
MATERIAL
  5
1575
102
{ACAD_XDICTIONARY
360
1576
102
}
102
{ACAD_REACTORS
330
156C
102
}
330
156C
100
AcDbMaterial
  1
ByBlock
 72
     0
 43
0.0208333333333333
 43
0.0
 43
0.0
 43
0.0
 43
0.0
 43
0.0208333333333333
 43
0.0
 43
0.0
 43
0.0
 43
0.0
 43
1.0
 43
0.0
 43
0.0
 43
0.0
 43
0.0
 43
1.0
 77
     0
 47
0.0208333333333333
 47
0.0
 47
0.0
 47
0.0
 47
0.0
 47
0.0208333333333333
 47
0.0
 47
0.0
 47
0.0
 47
0.0
 47
1.0
 47
0.0
 47
0.0
 47
0.0
 47
0.0
 47
1.0
171
     0
 49
0.0208333333333333
 49
0.0
 49
0.0
 49
0.0
 49
0.0
 49
0.0208333333333333
 49
0.0
 49
0.0
 49
0.0
 49
0.0
 49
1.0
 49
0.0
 49
0.0
 49
0.0
 49
0.0
 49
1.0
175
     0
142
0.0208333333333333
142
0.0
142
0.0
142
0.0
142
0.0
142
0.0208333333333333
142
0.0
142
0.0
142
0.0
142
0.0
142
1.0
142
0.0
142
0.0
142
0.0
142
0.0
142
1.0
179
     0
144
0.0208333333333333
144
0.0
144
0.0
144
0.0
144
0.0
144
0.0208333333333333
144
0.0
144
0.0
144
0.0
144
0.0
144
1.0
144
0.0
144
0.0
144
0.0
144
0.0
144
1.0
147
0.0208333333333333
147
0.0
147
0.0
147
0.0
147
0.0
147
0.0208333333333333
147
0.0
147
0.0
147
0.0
147
0.0
147
1.0
147
0.0
147
0.0
147
0.0
147
0.0
147
1.0
  0
MATERIAL
  5
156D
102
{ACAD_XDICTIONARY
360
156E
102
}
102
{ACAD_REACTORS
330
156C
102
}
330
156C
100
AcDbMaterial
  1
ByLayer
 72
     0
 43
0.0208333333333333
 43
0.0
 43
0.0
 43
0.0
 43
0.0
 43
0.0208333333333333
 43
0.0
 43
0.0
 43
0.0
 43
0.0
 43
1.0
 43
0.0
 43
0.0
 43
0.0
 43
0.0
 43
1.0
 77
     0
 47
0.0208333333333333
 47
0.0
 47
0.0
 47
0.0
 47
0.0
 47
0.0208333333333333
 47
0.0
 47
0.0
 47
0.0
 47
0.0
 47
1.0
 47
0.0
 47
0.0
 47
0.0
 47
0.0
 47
1.0
171
     0
 49
0.0208333333333333
 49
0.0
 49
0.0
 49
0.0
 49
0.0
 49
0.0208333333333333
 49
0.0
 49
0.0
 49
0.0
 49
0.0
 49
1.0
 49
0.0
 49
0.0
 49
0.0
 49
0.0
 49
1.0
175
     0
142
0.0208333333333333
142
0.0
142
0.0
142
0.0
142
0.0
142
0.0208333333333333
142
0.0
142
0.0
142
0.0
142
0.0
142
1.0
142
0.0
142
0.0
142
0.0
142
0.0
142
1.0
179
     0
144
0.0208333333333333
144
0.0
144
0.0
144
0.0
144
0.0
144
0.0208333333333333
144
0.0
144
0.0
144
0.0
144
0.0
144
1.0
144
0.0
144
0.0
144
0.0
144
0.0
144
1.0
147
0.0208333333333333
147
0.0
147
0.0
147
0.0
147
0.0
147
0.0208333333333333
147
0.0
147
0.0
147
0.0
147
0.0
147
1.0
147
0.0
147
0.0
147
0.0
147
0.0
147
1.0
  0
MATERIAL
  5
157D
102
{ACAD_XDICTIONARY
360
157E
102
}
102
{ACAD_REACTORS
330
156C
102
}
330
156C
100
AcDbMaterial
  1
Global
 72
     0
 43
0.0208333333333333
 43
0.0
 43
0.0
 43
0.0
 43
0.0
 43
0.0208333333333333
 43
0.0
 43
0.0
 43
0.0
 43
0.0
 43
1.0
 43
0.0
 43
0.0
 43
0.0
 43
0.0
 43
1.0
 77
     0
 47
0.0208333333333333
 47
0.0
 47
0.0
 47
0.0
 47
0.0
 47
0.0208333333333333
 47
0.0
 47
0.0
 47
0.0
 47
0.0
 47
1.0
 47
0.0
 47
0.0
 47
0.0
 47
0.0
 47
1.0
171
     0
 49
0.0208333333333333
 49
0.0
 49
0.0
 49
0.0
 49
0.0
 49
0.0208333333333333
 49
0.0
 49
0.0
 49
0.0
 49
0.0
 49
1.0
 49
0.0
 49
0.0
 49
0.0
 49
0.0
 49
1.0
175
     0
142
0.0208333333333333
142
0.0
142
0.0
142
0.0
142
0.0
142
0.0208333333333333
142
0.0
142
0.0
142
0.0
142
0.0
142
1.0
142
0.0
142
0.0
142
0.0
142
0.0
142
1.0
179
     0
144
0.0208333333333333
144
0.0
144
0.0
144
0.0
144
0.0
144
0.0208333333333333
144
0.0
144
0.0
144
0.0
144
0.0
144
1.0
144
0.0
144
0.0
144
0.0
144
0.0
144
1.0
147
0.0208333333333333
147
0.0
147
0.0
147
0.0
147
0.0
147
0.0208333333333333
147
0.0
147
0.0
147
0.0
147
0.0
147
1.0
147
0.0
147
0.0
147
0.0
147
0.0
147
1.0
  0
MLEADERSTYLE
  5
15BF
102
{ACAD_REACTORS
330
15BE
102
}
330
15BE
100
AcDbMLeaderStyle
170
     2
171
     1
172
     0
 90
        2
 40
0.0
 41
0.0
173
     1
 91
-1056964608
340
14
 92
       -2
290
     1
 42
0.09
291
     1
 43
0.36
  3
Standard
 44
0.18
300

342
11
174
     1
178
     6
175
     1
176
     0
 93
-1056964608
 45
0.18
292
     0
297
     0
 46
0.18
 94
-1056964608
 47
1.0
 49
1.0
140
1.0
293
     1
141
0.0
294
     1
177
     0
142
1.0
295
     0
296
     0
143
0.125
1001
ACAD_MLEADERVER
1070
     2
  0
MLINESTYLE
  5
18
102
{ACAD_REACTORS
330
17
102
}
330
17
100
AcDbMlineStyle
  2
STANDARD
 70
     0
  3

 62
   256
 51
90.0
 52
90.0
 71
     2
 49
0.5
 62
   256
  6
BYLAYER
 49
-0.5
 62
   256
  6
BYLAYER
  0
ACDBPLACEHOLDER
  5
F
102
{ACAD_REACTORS
330
E
102
}
330
E
  0
SCALE
  5
159D
102
{ACAD_REACTORS
330
159C
102
}
330
159C
100
AcDbScale
 70
     0
300
1:1
140
1.0
141
1.0
290
     1
  0
SCALE
  5
159E
102
{ACAD_REACTORS
330
159C
102
}
330
159C
100
AcDbScale
 70
     0
300
1:2
140
1.0
141
2.0
290
     0
  0
SCALE
  5
159F
102
{ACAD_REACTORS
330
159C
102
}
330
159C
100
AcDbScale
 70
     0
300
1:4
140
1.0
141
4.0
290
     0
  0
SCALE
  5
15A0
102
{ACAD_REACTORS
330
159C
102
}
330
159C
100
AcDbScale
 70
     0
300
1:5
140
1.0
141
5.0
290
     0
  0
SCALE
  5
15A1
102
{ACAD_REACTORS
330
159C
102
}
330
159C
100
AcDbScale
 70
     0
300
1:8
140
1.0
141
8.0
290
     0
  0
SCALE
  5
15A2
102
{ACAD_REACTORS
330
159C
102
}
330
159C
100
AcDbScale
 70
     0
300
1:10
140
1.0
141
10.0
290
     0
  0
SCALE
  5
15A3
102
{ACAD_REACTORS
330
159C
102
}
330
159C
100
AcDbScale
 70
     0
300
1:16
140
1.0
141
16.0
290
     0
  0
SCALE
  5
15A4
102
{ACAD_REACTORS
330
159C
102
}
330
159C
100
AcDbScale
 70
     0
300
1:20
140
1.0
141
20.0
290
     0
  0
SCALE
  5
15A5
102
{ACAD_REACTORS
330
159C
102
}
330
159C
100
AcDbScale
 70
     0
300
1:30
140
1.0
141
30.0
290
     0
  0
SCALE
  5
15A6
102
{ACAD_REACTORS
330
159C
102
}
330
159C
100
AcDbScale
 70
     0
300
1:40
140
1.0
141
40.0
290
     0
  0
SCALE
  5
15A7
102
{ACAD_REACTORS
330
159C
102
}
330
159C
100
AcDbScale
 70
     0
300
1:50
140
1.0
141
50.0
290
     0
  0
SCALE
  5
15A8
102
{ACAD_REACTORS
330
159C
102
}
330
159C
100
AcDbScale
 70
     0
300
1:100
140
1.0
141
100.0
290
     0
  0
SCALE
  5
15A9
102
{ACAD_REACTORS
330
159C
102
}
330
159C
100
AcDbScale
 70
     0
300
2:1
140
2.0
141
1.0
290
     0
  0
SCALE
  5
15AA
102
{ACAD_REACTORS
330
159C
102
}
330
159C
100
AcDbScale
 70
     0
300
4:1
140
4.0
141
1.0
290
     0
  0
SCALE
  5
15AB
102
{ACAD_REACTORS
330
159C
102
}
330
159C
100
AcDbScale
 70
     0
300
8:1
140
8.0
141
1.0
290
     0
  0
SCALE
  5
15AC
102
{ACAD_REACTORS
330
159C
102
}
330
159C
100
AcDbScale
 70
     0
300
10:1
140
10.0
141
1.0
290
     0
  0
SCALE
  5
15AD
102
{ACAD_REACTORS
330
159C
102
}
330
159C
100
AcDbScale
 70
     0
300
100:1
140
100.0
141
1.0
290
     0
  0
SCALE
  5
15AE
102
{ACAD_REACTORS
330
159C
102
}
330
159C
100
AcDbScale
 70
     0
300
1/128" = 1'-0"
140
0.0078125
141
12.0
290
     0
  0
SCALE
  5
15AF
102
{ACAD_REACTORS
330
159C
102
}
330
159C
100
AcDbScale
 70
     0
300
1/64" = 1'-0"
140
0.015625
141
12.0
290
     0
  0
SCALE
  5
15B0
102
{ACAD_REACTORS
330
159C
102
}
330
159C
100
AcDbScale
 70
     0
300
1/32" = 1'-0"
140
0.03125
141
12.0
290
     0
  0
SCALE
  5
15B1
102
{ACAD_REACTORS
330
159C
102
}
330
159C
100
AcDbScale
 70
     0
300
1/16" = 1'-0"
140
0.0625
141
12.0
290
     0
  0
SCALE
  5
15B2
102
{ACAD_REACTORS
330
159C
102
}
330
159C
100
AcDbScale
 70
     0
300
3/32" = 1'-0"
140
0.09375
141
12.0
290
     0
  0
SCALE
  5
15B3
102
{ACAD_REACTORS
330
159C
102
}
330
159C
100
AcDbScale
 70
     0
300
1/8" = 1'-0"
140
0.125
141
12.0
290
     0
  0
SCALE
  5
15B4
102
{ACAD_REACTORS
330
159C
102
}
330
159C
100
AcDbScale
 70
     0
300
3/16" = 1'-0"
140
0.1875
141
12.0
290
     0
  0
SCALE
  5
15B5
102
{ACAD_REACTORS
330
159C
102
}
330
159C
100
AcDbScale
 70
     0
300
1/4" = 1'-0"
140
0.25
141
12.0
290
     0
  0
SCALE
  5
15B6
102
{ACAD_REACTORS
330
159C
102
}
330
159C
100
AcDbScale
 70
     0
300
3/8" = 1'-0"
140
0.375
141
12.0
290
     0
  0
SCALE
  5
15B7
102
{ACAD_REACTORS
330
159C
102
}
330
159C
100
AcDbScale
 70
     0
300
1/2" = 1'-0"
140
0.5
141
12.0
290
     0
  0
SCALE
  5
15B8
102
{ACAD_REACTORS
330
159C
102
}
330
159C
100
AcDbScale
 70
     0
300
3/4" = 1'-0"
140
0.75
141
12.0
290
     0
  0
SCALE
  5
15B9
102
{ACAD_REACTORS
330
159C
102
}
330
159C
100
AcDbScale
 70
     0
300
1" = 1'-0"
140
1.0
141
12.0
290
     0
  0
SCALE
  5
15BA
102
{ACAD_REACTORS
330
159C
102
}
330
159C
100
AcDbScale
 70
     0
300
1-1/2" = 1'-0"
140
1.5
141
12.0
290
     0
  0
SCALE
  5
15BB
102
{ACAD_REACTORS
330
159C
102
}
330
159C
100
AcDbScale
 70
     0
300
3" = 1'-0"
140
3.0
141
12.0
290
     0
  0
SCALE
  5
15BC
102
{ACAD_REACTORS
330
159C
102
}
330
159C
100
AcDbScale
 70
     0
300
6" = 1'-0"
140
6.0
141
12.0
290
     0
  0
SCALE
  5
15BD
102
{ACAD_REACTORS
330
159C
102
}
330
159C
100
AcDbScale
 70
     0
300
1'-0" = 1'-0"
140
12.0
141
12.0
290
     0
  0
TABLESTYLE
  5
159B
102
{ACAD_XDICTIONARY
360
15C2
102
}
102
{ACAD_REACTORS
330
159A
102
}
330
159A
100
AcDbTableStyle
  3
Standard
 70
     0
 71
     0
 40
0.06
 41
0.06
280
     0
281
     0
  7
STANDARD
140
0.18
170
     2
 62
     0
 63
     7
283
     0
 90
      512
 91
        0
  1

274
    -2
284
     1
 64
     0
275
    -2
285
     1
 65
     0
276
    -2
286
     1
 66
     0
277
    -2
287
     1
 67
     0
278
    -2
288
     1
 68
     0
279
    -2
289
     1
 69
     0
  7
STANDARD
140
0.25
170
     5
 62
     0
 63
     7
283
     0
 90
      512
 91
        0
  1

274
    -2
284
     1
 64
     0
275
    -2
285
     1
 65
     0
276
    -2
286
     1
 66
     0
277
    -2
287
     1
 67
     0
278
    -2
288
     1
 68
     0
279
    -2
289
     1
 69
     0
  7
STANDARD
140
0.18
170
     5
 62
     0
 63
     7
283
     0
 90
      512
 91
        0
  1

274
    -2
284
     1
 64
     0
275
    -2
285
     1
 65
     0
276
    -2
286
     1
 66
     0
277
    -2
287
     1
 67
     0
278
    -2
288
     1
 68
     0
279
    -2
289
     1
 69
     0
  0
VISUALSTYLE
  5
158B
102
{ACAD_XDICTIONARY
360
15D8
102
}
102
{ACAD_REACTORS
330
1585
102
}
330
1585
100
AcDbVisualStyle
  2
2dWireframe
 70
     4
 71
     0
 72
     2
 73
     0
 90
        0
 40
-0.6
 41
-30.0
 62
     5
 63
     7
 74
     1
 91
        4
 64
     7
 65
   257
 75
     1
175
     1
 42
1.0
 92
        0
 66
   257
 43
1.0
 76
     1
 77
     6
 78
     2
 67
     7
 79
     5
170
     0
171
     0
290
     0
174
     0
 93
        1
 44
0.0
173
     0
291
     0
 45
0.0
  0
VISUALSTYLE
  5
158D
102
{ACAD_XDICTIONARY
360
15DC
102
}
102
{ACAD_REACTORS
330
1585
102
}
330
1585
100
AcDbVisualStyle
  2
3D Hidden
 70
     6
 71
     1
 72
     2
 73
     2
 90
        0
 40
-0.6
 41
-30.0
 62
     5
 63
     7
 74
     2
 91
        2
 64
     7
 65
   257
 75
     2
175
     1
 42
179.0
 92
        0
 66
   257
 43
1.0
 76
     1
 77
     6
 78
     2
 67
     7
 79
     3
170
     0
171
     0
290
     0
174
     0
 93
        1
 44
0.0
173
     0
291
     0
 45
0.0
  0
VISUALSTYLE
  5
158C
102
{ACAD_XDICTIONARY
360
15DA
102
}
102
{ACAD_REACTORS
330
1585
102
}
330
1585
100
AcDbVisualStyle
  2
3dWireframe
 70
     5
 71
     0
 72
     2
 73
     0
 90
        0
 40
-0.6
 41
-30.0
 62
     5
 63
     7
 74
     1
 91
        4
 64
     7
 65
   257
 75
     1
175
     1
 42
1.0
 92
        0
 66
   257
 43
1.0
 76
     1
 77
     6
 78
     2
 67
     7
 79
     5
170
     0
171
     0
290
     0
174
     0
 93
        1
 44
0.0
173
     0
291
     0
 45
0.0
  0
VISUALSTYLE
  5
158A
102
{ACAD_XDICTIONARY
360
15D6
102
}
102
{ACAD_REACTORS
330
1585
102
}
330
1585
100
AcDbVisualStyle
  2
Basic
 70
     7
 71
     1
 72
     0
 73
     1
 90
        0
 40
-0.6
 41
-30.0
 62
     5
 63
     7
 74
     0
 91
        4
 64
     7
 65
   257
 75
     1
175
     1
 42
1.0
 92
        8
 66
     7
 43
1.0
 76
     1
 77
     6
 78
     2
 67
     7
 79
     5
170
     0
171
     0
290
     0
174
     0
 93
        1
 44
0.0
173
     0
291
     1
 45
0.0
  0
VISUALSTYLE
  5
1591
102
{ACAD_XDICTIONARY
360
15E4
102
}
102
{ACAD_REACTORS
330
1585
102
}
330
1585
100
AcDbVisualStyle
  2
Brighten
 70
    12
 71
     2
 72
     2
 73
     0
 90
        0
 40
-0.6
 41
-30.0
 62
     5
 63
     7
 74
     1
 91
        4
 64
     7
 65
   257
 75
     1
175
     1
 42
1.0
 92
        8
 66
     7
 43
1.0
 76
     1
 77
     6
 78
     2
 67
     7
 79
     5
170
     0
171
     0
290
     0
174
     0
 93
        1
 44
50.0
173
     0
291
     1
 45
0.0
  0
VISUALSTYLE
  5
1595
102
{ACAD_XDICTIONARY
360
15EC
102
}
102
{ACAD_REACTORS
330
1585
102
}
330
1585
100
AcDbVisualStyle
  2
ColorChange
 70
    16
 71
     2
 72
     2
 73
     3
 90
        0
 40
-0.6
 41
-30.0
 62
     5
 63
     8
 74
     1
 91
        4
 64
     7
 65
   257
 75
     1
175
     1
 42
1.0
 92
        8
 66
     8
 43
1.0
 76
     1
 77
     6
 78
     2
 67
     7
 79
     5
170
     0
171
     0
290
     0
174
     0
 93
        1
 44
0.0
173
     0
291
     1
 45
0.0
  0
VISUALSTYLE
  5
158E
102
{ACAD_XDICTIONARY
360
15DE
102
}
102
{ACAD_REACTORS
330
1585
102
}
330
1585
100
AcDbVisualStyle
  2
Conceptual
 70
     9
 71
     3
 72
     2
 73
     0
 90
        0
 40
-0.6
 41
-30.0
 62
     5
 63
     7
 74
     2
 91
        2
 64
     7
 65
   257
 75
     1
175
     1
 42
179.0
 92
        8
 66
     7
 43
1.0
 76
     1
 77
     6
 78
     2
 67
     7
 79
     3
170
     0
171
     0
290
     0
174
     0
 93
        1
 44
0.0
173
     0
291
     0
 45
0.0
  0
VISUALSTYLE
  5
1590
102
{ACAD_XDICTIONARY
360
15E2
102
}
102
{ACAD_REACTORS
330
1585
102
}
330
1585
100
AcDbVisualStyle
  2
Dim
 70
    11
 71
     2
 72
     2
 73
     0
 90
        0
 40
-0.6
 41
-30.0
 62
     5
 63
     7
 74
     1
 91
        4
 64
     7
 65
   257
 75
     1
175
     1
 42
1.0
 92
        8
 66
     7
 43
1.0
 76
     1
 77
     6
 78
     2
 67
     7
 79
     5
170
     0
171
     0
290
     0
174
     0
 93
        1
 44
-50.0
173
     0
291
     1
 45
0.0
  0
VISUALSTYLE
  5
1598
102
{ACAD_XDICTIONARY
360
15F2
102
}
102
{ACAD_REACTORS
330
1585
102
}
330
1585
100
AcDbVisualStyle
  2
EdgeColorOff
 70
    22
 71
     2
 72
     2
 73
     0
 90
        0
 40
-0.6
 41
-30.0
 62
     5
 63
     7
 74
     1
 91
        4
 64
     7
 65
   257
 75
     1
175
     1
 42
1.0
 92
        8
 66
     7
 43
1.0
 76
     1
 77
     6
 78
     2
 67
     7
 79
     5
170
     0
171
     0
290
     0
174
     0
 93
        1
 44
0.0
173
     0
291
     1
 45
0.0
  0
VISUALSTYLE
  5
1594
102
{ACAD_XDICTIONARY
360
15EA
102
}
102
{ACAD_REACTORS
330
1585
102
}
330
1585
100
AcDbVisualStyle
  2
Facepattern
 70
    15
 71
     2
 72
     2
 73
     0
 90
        0
 40
-0.6
 41
-30.0
 62
     5
 63
     7
 74
     1
 91
        4
 64
     7
 65
   257
 75
     1
175
     1
 42
1.0
 92
        8
 66
     7
 43
1.0
 76
     1
 77
     6
 78
     2
 67
     7
 79
     5
170
     0
171
     0
290
     0
174
     0
 93
        1
 44
0.0
173
     0
291
     1
 45
0.0
  0
VISUALSTYLE
  5
1586
102
{ACAD_XDICTIONARY
360
15CE
102
}
102
{ACAD_REACTORS
330
1585
102
}
330
1585
100
AcDbVisualStyle
  2
Flat
 70
     0
 71
     2
 72
     1
 73
     1
 90
        2
 40
-0.6
 41
30.0
 62
     5
 63
     7
 74
     0
 91
        4
 64
     7
 65
   257
 75
     1
175
     1
 42
1.0
 92
        8
 66
     7
 43
1.0
 76
     1
 77
     6
 78
     2
 67
     7
 79
     5
170
     0
171
     0
290
     0
174
     0
 93
       13
 44
0.0
173
     0
291
     1
 45
0.0
  0
VISUALSTYLE
  5
1587
102
{ACAD_XDICTIONARY
360
15D0
102
}
102
{ACAD_REACTORS
330
1585
102
}
330
1585
100
AcDbVisualStyle
  2
FlatWithEdges
 70
     1
 71
     2
 72
     1
 73
     1
 90
        2
 40
-0.6
 41
30.0
 62
     5
 63
     7
 74
     1
 91
        4
 64
     7
 65
   257
 75
     1
175
     1
 42
1.0
 92
        0
 66
   257
 43
1.0
 76
     1
 77
     6
 78
     2
 67
     7
 79
     5
170
     0
171
     0
290
     0
174
     0
 93
       13
 44
0.0
173
     0
291
     1
 45
0.0
  0
VISUALSTYLE
  5
1588
102
{ACAD_XDICTIONARY
360
15D2
102
}
102
{ACAD_REACTORS
330
1585
102
}
330
1585
100
AcDbVisualStyle
  2
Gouraud
 70
     2
 71
     2
 72
     2
 73
     1
 90
        2
 40
-0.6
 41
30.0
 62
     5
 63
     7
 74
     0
 91
        4
 64
     7
 65
   257
 75
     1
175
     1
 42
1.0
 92
        0
 66
     7
 43
1.0
 76
     1
 77
     6
 78
     2
 67
     7
 79
     5
170
     0
171
     0
290
     0
174
     0
 93
       13
 44
0.0
173
     0
291
     1
 45
0.0
  0
VISUALSTYLE
  5
1589
102
{ACAD_XDICTIONARY
360
15D4
102
}
102
{ACAD_REACTORS
330
1585
102
}
330
1585
100
AcDbVisualStyle
  2
GouraudWithEdges
 70
     3
 71
     2
 72
     2
 73
     1
 90
        2
 40
-0.6
 41
30.0
 62
     5
 63
     7
 74
     1
 91
        4
 64
     7
 65
   257
 75
     1
175
     1
 42
1.0
 92
        0
 66
   257
 43
1.0
 76
     1
 77
     6
 78
     2
 67
     7
 79
     5
170
     0
171
     0
290
     0
174
     0
 93
       13
 44
0.0
173
     0
291
     1
 45
0.0
  0
VISUALSTYLE
  5
1596
102
{ACAD_XDICTIONARY
360
15EE
102
}
102
{ACAD_REACTORS
330
1585
102
}
330
1585
100
AcDbVisualStyle
  2
JitterOff
 70
    20
 71
     2
 72
     2
 73
     0
 90
        0
 40
-0.6
 41
-30.0
 62
     5
 63
     7
 74
     1
 91
        4
 64
     7
 65
   257
 75
     1
175
     1
 42
1.0
 92
       10
 66
     7
 43
1.0
 76
     1
 77
     6
 78
     2
 67
     7
 79
     5
170
     0
171
     0
290
     0
174
     0
 93
        1
 44
0.0
173
     0
291
     1
 45
0.0
  0
VISUALSTYLE
  5
1593
102
{ACAD_XDICTIONARY
360
15E8
102
}
102
{ACAD_REACTORS
330
1585
102
}
330
1585
100
AcDbVisualStyle
  2
Linepattern
 70
    14
 71
     2
 72
     2
 73
     0
 90
        0
 40
-0.6
 41
-30.0
 62
     5
 63
     7
 74
     1
 91
        4
 64
     7
 65
   257
 75
     7
175
     7
 42
1.0
 92
        8
 66
     7
 43
1.0
 76
     1
 77
     6
 78
     2
 67
     7
 79
     5
170
     0
171
     0
290
     0
174
     0
 93
        1
 44
0.0
173
     0
291
     1
 45
0.0
  0
VISUALSTYLE
  5
1597
102
{ACAD_XDICTIONARY
360
15F0
102
}
102
{ACAD_REACTORS
330
1585
102
}
330
1585
100
AcDbVisualStyle
  2
OverhangOff
 70
    21
 71
     2
 72
     2
 73
     0
 90
        0
 40
-0.6
 41
-30.0
 62
     5
 63
     7
 74
     1
 91
        4
 64
     7
 65
   257
 75
     1
175
     1
 42
1.0
 92
        9
 66
     7
 43
1.0
 76
     1
 77
     6
 78
     2
 67
     7
 79
     5
170
     0
171
     0
290
     0
174
     0
 93
        1
 44
0.0
173
     0
291
     1
 45
0.0
  0
VISUALSTYLE
  5
158F
102
{ACAD_XDICTIONARY
360
15E0
102
}
102
{ACAD_REACTORS
330
1585
102
}
330
1585
100
AcDbVisualStyle
  2
Realistic
 70
     8
 71
     2
 72
     2
 73
     0
 90
        0
 40
-0.6
 41
-30.0
 62
     5
 63
     7
 74
     1
 91
        0
 64
     7
 65
   257
 75
     1
175
     1
 42
1.0
 92
        8
 66
     8
 43
1.0
 76
     1
 77
     6
 78
     2
 67
     7
 79
     5
170
     0
171
     0
290
     0
174
     0
 93
       13
 44
0.0
173
     0
291
     0
 45
0.0
  0
VISUALSTYLE
  5
1592
102
{ACAD_XDICTIONARY
360
15E6
102
}
102
{ACAD_REACTORS
330
1585
102
}
330
1585
100
AcDbVisualStyle
  2
Thicken
 70
    13
 71
     2
 72
     2
 73
     0
 90
        0
 40
-0.6
 41
-30.0
 62
     5
 63
     7
 74
     1
 91
        4
 64
     7
 65
   257
 75
     1
175
     1
 42
1.0
 92
       12
 66
     7
 43
1.0
 76
     1
 77
     6
 78
     2
 67
     7
 79
     5
170
     0
171
     0
290
     0
174
     0
 93
        1
 44
0.0
173
     0
291
     1
 45
0.0
  0
DICTIONARYVAR
  5
15F9
102
{ACAD_REACTORS
330
15F6
102
}
330
15F6
100
DictionaryVariables
280
     0
  1
1:1
  0
DICTIONARYVAR
  5
15F8
102
{ACAD_REACTORS
330
15F6
102
}
330
15F6
100
DictionaryVariables
280
     0
  1
STANDARD
  0
DICTIONARYVAR
  5
15F7
102
{ACAD_REACTORS
330
15F6
102
}
330
15F6
100
DictionaryVariables
280
     0
  1
STANDARD
  0
DICTIONARYVAR
  5
15FC
102
{ACAD_REACTORS
330
15F6
102
}
330
15F6
100
DictionaryVariables
280
     0
  1
1
  0
DICTIONARYVAR
  5
15FB
102
{ACAD_REACTORS
330
15F6
102
}
330
15F6
100
DictionaryVariables
280
     0
  1
0
  0
DICTIONARYVAR
  5
1646
102
{ACAD_REACTORS
330
15F6
102
}
330
15F6
100
DictionaryVariables
280
     0
  1
1
  0
DICTIONARYVAR
  5
1647
102
{ACAD_REACTORS
330
15F6
102
}
330
15F6
100
DictionaryVariables
280
     0
  1
15
  0
DICTIONARYVAR
  5
1645
102
{ACAD_REACTORS
330
15F6
102
}
330
15F6
100
DictionaryVariables
280
     0
  1
0
  0
DICTIONARYVAR
  5
1644
102
{ACAD_REACTORS
330
15F6
102
}
330
15F6
100
DictionaryVariables
280
     0
  1
0
  0
DICTIONARYVAR
  5
15FA
102
{ACAD_REACTORS
330
15F6
102
}
330
15F6
100
DictionaryVariables
280
     0
  1
127
  0
DICTIONARYVAR
  5
15FD
102
{ACAD_REACTORS
330
15F6
102
}
330
15F6
100
DictionaryVariables
280
     0
  1
2
  0
DICTIONARY
  5
1576
330
1575
100
AcDbDictionary
280
     1
281
     1
  3
BUMPTILE
360
1578
  3
DIFFUSETILE
360
1577
  3
OPACITYTILE
360
157B
  3
REFLECTIONTILE
360
157A
  3
REFRACTIONTILE
360
157C
  3
SPECULARTILE
360
1579
  0
DICTIONARY
  5
156E
330
156D
100
AcDbDictionary
280
     1
281
     1
  3
BUMPTILE
360
1570
  3
DIFFUSETILE
360
156F
  3
OPACITYTILE
360
1573
  3
REFLECTIONTILE
360
1572
  3
REFRACTIONTILE
360
1574
  3
SPECULARTILE
360
1571
  0
DICTIONARY
  5
157E
330
157D
100
AcDbDictionary
280
     1
281
     1
  3
BUMPTILE
360
1580
  3
DIFFUSETILE
360
157F
  3
OPACITYTILE
360
1583
  3
REFLECTIONTILE
360
1582
  3
REFRACTIONTILE
360
1584
  3
SPECULARTILE
360
1581
  0
DICTIONARY
  5
15C2
330
159B
100
AcDbDictionary
280
     1
281
     1
  3
ACAD_ROUNDTRIP_2008_TABLESTYLE_CELLSTYLEMAP
360
1648
  0
DICTIONARY
  5
15D8
330
158B
100
AcDbDictionary
280
     1
281
     1
  3
ACAD_XREC_ROUNDTRIP
360
15D9
  0
DICTIONARY
  5
15DC
330
158D
100
AcDbDictionary
280
     1
281
     1
  3
ACAD_XREC_ROUNDTRIP
360
15DD
  0
DICTIONARY
  5
15DA
330
158C
100
AcDbDictionary
280
     1
281
     1
  3
ACAD_XREC_ROUNDTRIP
360
15DB
  0
DICTIONARY
  5
15D6
330
158A
100
AcDbDictionary
280
     1
281
     1
  3
ACAD_XREC_ROUNDTRIP
360
15D7
  0
DICTIONARY
  5
15E4
330
1591
100
AcDbDictionary
280
     1
281
     1
  3
ACAD_XREC_ROUNDTRIP
360
15E5
  0
DICTIONARY
  5
15EC
330
1595
100
AcDbDictionary
280
     1
281
     1
  3
ACAD_XREC_ROUNDTRIP
360
15ED
  0
DICTIONARY
  5
15DE
330
158E
100
AcDbDictionary
280
     1
281
     1
  3
ACAD_XREC_ROUNDTRIP
360
15DF
  0
DICTIONARY
  5
15E2
330
1590
100
AcDbDictionary
280
     1
281
     1
  3
ACAD_XREC_ROUNDTRIP
360
15E3
  0
DICTIONARY
  5
15F2
330
1598
100
AcDbDictionary
280
     1
281
     1
  3
ACAD_XREC_ROUNDTRIP
360
15F3
  0
DICTIONARY
  5
15EA
330
1594
100
AcDbDictionary
280
     1
281
     1
  3
ACAD_XREC_ROUNDTRIP
360
15EB
  0
DICTIONARY
  5
15CE
330
1586
100
AcDbDictionary
280
     1
281
     1
  3
ACAD_XREC_ROUNDTRIP
360
15CF
  0
DICTIONARY
  5
15D0
330
1587
100
AcDbDictionary
280
     1
281
     1
  3
ACAD_XREC_ROUNDTRIP
360
15D1
  0
DICTIONARY
  5
15D2
330
1588
100
AcDbDictionary
280
     1
281
     1
  3
ACAD_XREC_ROUNDTRIP
360
15D3
  0
DICTIONARY
  5
15D4
330
1589
100
AcDbDictionary
280
     1
281
     1
  3
ACAD_XREC_ROUNDTRIP
360
15D5
  0
DICTIONARY
  5
15EE
330
1596
100
AcDbDictionary
280
     1
281
     1
  3
ACAD_XREC_ROUNDTRIP
360
15EF
  0
DICTIONARY
  5
15E8
330
1593
100
AcDbDictionary
280
     1
281
     1
  3
ACAD_XREC_ROUNDTRIP
360
15E9
  0
DICTIONARY
  5
15F0
330
1597
100
AcDbDictionary
280
     1
281
     1
  3
ACAD_XREC_ROUNDTRIP
360
15F1
  0
DICTIONARY
  5
15E0
330
158F
100
AcDbDictionary
280
     1
281
     1
  3
ACAD_XREC_ROUNDTRIP
360
15E1
  0
DICTIONARY
  5
15E6
330
1592
100
AcDbDictionary
280
     1
281
     1
  3
ACAD_XREC_ROUNDTRIP
360
15E7
  0
XRECORD
  5
1578
102
{ACAD_REACTORS
330
1576
102
}
330
1576
100
AcDbXrecord
280
     1
270
     1
271
     1
  0
XRECORD
  5
1577
102
{ACAD_REACTORS
330
1576
102
}
330
1576
100
AcDbXrecord
280
     1
270
     1
271
     1
  0
XRECORD
  5
157B
102
{ACAD_REACTORS
330
1576
102
}
330
1576
100
AcDbXrecord
280
     1
270
     1
271
     1
  0
XRECORD
  5
157A
102
{ACAD_REACTORS
330
1576
102
}
330
1576
100
AcDbXrecord
280
     1
270
     1
271
     1
  0
XRECORD
  5
157C
102
{ACAD_REACTORS
330
1576
102
}
330
1576
100
AcDbXrecord
280
     1
270
     1
271
     1
  0
XRECORD
  5
1579
102
{ACAD_REACTORS
330
1576
102
}
330
1576
100
AcDbXrecord
280
     1
270
     1
271
     1
  0
XRECORD
  5
1570
102
{ACAD_REACTORS
330
156E
102
}
330
156E
100
AcDbXrecord
280
     1
270
     1
271
     1
  0
XRECORD
  5
156F
102
{ACAD_REACTORS
330
156E
102
}
330
156E
100
AcDbXrecord
280
     1
270
     1
271
     1
  0
XRECORD
  5
1573
102
{ACAD_REACTORS
330
156E
102
}
330
156E
100
AcDbXrecord
280
     1
270
     1
271
     1
  0
XRECORD
  5
1572
102
{ACAD_REACTORS
330
156E
102
}
330
156E
100
AcDbXrecord
280
     1
270
     1
271
     1
  0
XRECORD
  5
1574
102
{ACAD_REACTORS
330
156E
102
}
330
156E
100
AcDbXrecord
280
     1
270
     1
271
     1
  0
XRECORD
  5
1571
102
{ACAD_REACTORS
330
156E
102
}
330
156E
100
AcDbXrecord
280
     1
270
     1
271
     1
  0
XRECORD
  5
1580
102
{ACAD_REACTORS
330
157E
102
}
330
157E
100
AcDbXrecord
280
     1
270
     1
271
     1
  0
XRECORD
  5
157F
102
{ACAD_REACTORS
330
157E
102
}
330
157E
100
AcDbXrecord
280
     1
270
     1
271
     1
  0
XRECORD
  5
1583
102
{ACAD_REACTORS
330
157E
102
}
330
157E
100
AcDbXrecord
280
     1
270
     1
271
     1
  0
XRECORD
  5
1582
102
{ACAD_REACTORS
330
157E
102
}
330
157E
100
AcDbXrecord
280
     1
270
     1
271
     1
  0
XRECORD
  5
1584
102
{ACAD_REACTORS
330
157E
102
}
330
157E
100
AcDbXrecord
280
     1
270
     1
271
     1
  0
XRECORD
  5
1581
102
{ACAD_REACTORS
330
157E
102
}
330
157E
100
AcDbXrecord
280
     1
270
     1
271
     1
  0
CELLSTYLEMAP
  5
1648
102
{ACAD_REACTORS
330
15C2
102
}
330
15C2
100
AcDbCellStyleMap
 90
        3
300
CELLSTYLE
  1
TABLEFORMAT_BEGIN
 90
        5
170
     1
 91
        0
 92
    32768
 62
   257
 93
        1
300
CONTENTFORMAT
  1
CONTENTFORMAT_BEGIN
 90
        0
 91
        0
 92
      512
 93
        0
300

 40
0.0
140
1.0
 94
        5
 62
     0
340
11
144
0.25
309
CONTENTFORMAT_END
171
     0
 94
        0
309
TABLEFORMAT_END
  1
CELLSTYLE_BEGIN
 90
        1
 91
        1
300
_TITLE
309
CELLSTYLE_END
300
CELLSTYLE
  1
TABLEFORMAT_BEGIN
 90
        5
170
     1
 91
        0
 92
        0
 62
   257
 93
        1
300
CONTENTFORMAT
  1
CONTENTFORMAT_BEGIN
 90
        0
 91
        0
 92
      512
 93
        0
300

 40
0.0
140
1.0
 94
        5
 62
     0
340
11
144
0.18
309
CONTENTFORMAT_END
171
     0
 94
        0
309
TABLEFORMAT_END
  1
CELLSTYLE_BEGIN
 90
        2
 91
        1
300
_HEADER
309
CELLSTYLE_END
300
CELLSTYLE
  1
TABLEFORMAT_BEGIN
 90
        5
170
     1
 91
        0
 92
        0
 62
   257
 93
        1
300
CONTENTFORMAT
  1
CONTENTFORMAT_BEGIN
 90
        0
 91
        0
 92
      512
 93
        0
300

 40
0.0
140
1.0
 94
        2
 62
     0
340
11
144
0.18
309
CONTENTFORMAT_END
171
     0
 94
        0
309
TABLEFORMAT_END
  1
CELLSTYLE_BEGIN
 90
        3
 91
        2
300
_DATA
309
CELLSTYLE_END
  0
XRECORD
  5
15D9
102
{ACAD_REACTORS
330
15D8
102
}
330
15D8
100
AcDbXrecord
280
     1
102
RTVSPropertyOp0
 70
     1
102
RTVSPropertyOp1
 70
     1
102
RTVSPropertyOp2
 70
     1
102
RTVSPropertyOp3
 70
     1
102
RTVSPropertyOp4
 70
     1
102
RTVSPropertyOp5
 70
     1
102
RTVSPropertyOp6
 70
     1
102
RTVSPropertyOp7
 70
     1
102
RTVSPropertyOp8
 70
     1
102
RTVSPropertyOp9
 70
     1
102
RTVSPropertyOp10
 70
     1
102
RTVSPropertyOp11
 70
     1
102
RTVSPropertyOp12
 70
     1
102
RTVSPropertyOp13
 70
     1
102
RTVSPropertyOp14
 70
     1
102
RTVSPropertyOp15
 70
     1
102
RTVSPropertyOp16
 70
     1
102
RTVSPropertyOp17
 70
     1
102
RTVSPropertyOp18
 70
     1
102
RTVSPropertyOp19
 70
     1
102
RTVSPropertyOp20
 70
     1
102
RTVSPropertyOp21
 70
     1
102
RTVSPropertyOp22
 70
     1
102
RTVSPropertyOp23
 70
     1
102
RTVSPropertyOp24
 70
     1
102
RTVSPropertyOp25
 70
     1
102
RTVSPropertyOp26
 70
     1
102
RTVSPropertyOp27
 70
     1
  0
XRECORD
  5
15DD
102
{ACAD_REACTORS
330
15DC
102
}
330
15DC
100
AcDbXrecord
280
     1
102
RTVSPropertyOp0
 70
     1
102
RTVSPropertyOp1
 70
     1
102
RTVSPropertyOp2
 70
     1
102
RTVSPropertyOp3
 70
     1
102
RTVSPropertyOp4
 70
     1
102
RTVSPropertyOp5
 70
     1
102
RTVSPropertyOp6
 70
     1
102
RTVSPropertyOp7
 70
     1
102
RTVSPropertyOp8
 70
     1
102
RTVSPropertyOp9
 70
     1
102
RTVSPropertyOp10
 70
     1
102
RTVSPropertyOp11
 70
     1
102
RTVSPropertyOp12
 70
     1
102
RTVSPropertyOp13
 70
     1
102
RTVSPropertyOp14
 70
     1
102
RTVSPropertyOp15
 70
     1
102
RTVSPropertyOp16
 70
     1
102
RTVSPropertyOp17
 70
     1
102
RTVSPropertyOp18
 70
     1
102
RTVSPropertyOp19
 70
     1
102
RTVSPropertyOp20
 70
     1
102
RTVSPropertyOp21
 70
     1
102
RTVSPropertyOp22
 70
     1
102
RTVSPropertyOp23
 70
     1
102
RTVSPropertyOp24
 70
     1
102
RTVSPropertyOp25
 70
     1
102
RTVSPropertyOp26
 70
     1
102
RTVSPropertyOp27
 70
     1
  0
XRECORD
  5
15DB
102
{ACAD_REACTORS
330
15DA
102
}
330
15DA
100
AcDbXrecord
280
     1
102
RTVSPropertyOp0
 70
     1
102
RTVSPropertyOp1
 70
     1
102
RTVSPropertyOp2
 70
     1
102
RTVSPropertyOp3
 70
     1
102
RTVSPropertyOp4
 70
     1
102
RTVSPropertyOp5
 70
     1
102
RTVSPropertyOp6
 70
     1
102
RTVSPropertyOp7
 70
     1
102
RTVSPropertyOp8
 70
     1
102
RTVSPropertyOp9
 70
     1
102
RTVSPropertyOp10
 70
     1
102
RTVSPropertyOp11
 70
     1
102
RTVSPropertyOp12
 70
     1
102
RTVSPropertyOp13
 70
     1
102
RTVSPropertyOp14
 70
     1
102
RTVSPropertyOp15
 70
     1
102
RTVSPropertyOp16
 70
     1
102
RTVSPropertyOp17
 70
     1
102
RTVSPropertyOp18
 70
     1
102
RTVSPropertyOp19
 70
     1
102
RTVSPropertyOp20
 70
     1
102
RTVSPropertyOp21
 70
     1
102
RTVSPropertyOp22
 70
     1
102
RTVSPropertyOp23
 70
     1
102
RTVSPropertyOp24
 70
     1
102
RTVSPropertyOp25
 70
     1
102
RTVSPropertyOp26
 70
     1
102
RTVSPropertyOp27
 70
     1
  0
XRECORD
  5
15D7
102
{ACAD_REACTORS
330
15D6
102
}
330
15D6
100
AcDbXrecord
280
     1
102
RTVSPropertyOp0
 70
     1
102
RTVSPropertyOp1
 70
     1
102
RTVSPropertyOp2
 70
     1
102
RTVSPropertyOp3
 70
     1
102
RTVSPropertyOp4
 70
     1
102
RTVSPropertyOp5
 70
     1
102
RTVSPropertyOp6
 70
     1
102
RTVSPropertyOp7
 70
     1
102
RTVSPropertyOp8
 70
     1
102
RTVSPropertyOp9
 70
     1
102
RTVSPropertyOp10
 70
     1
102
RTVSPropertyOp11
 70
     1
102
RTVSPropertyOp12
 70
     1
102
RTVSPropertyOp13
 70
     1
102
RTVSPropertyOp14
 70
     1
102
RTVSPropertyOp15
 70
     1
102
RTVSPropertyOp16
 70
     1
102
RTVSPropertyOp17
 70
     1
102
RTVSPropertyOp18
 70
     1
102
RTVSPropertyOp19
 70
     1
102
RTVSPropertyOp20
 70
     1
102
RTVSPropertyOp21
 70
     1
102
RTVSPropertyOp22
 70
     1
102
RTVSPropertyOp23
 70
     1
102
RTVSPropertyOp24
 70
     1
102
RTVSPropertyOp25
 70
     1
102
RTVSPropertyOp26
 70
     1
102
RTVSPropertyOp27
 70
     1
  0
XRECORD
  5
15E5
102
{ACAD_REACTORS
330
15E4
102
}
330
15E4
100
AcDbXrecord
280
     1
102
RTVSPropertyOp0
 70
     1
102
RTVSPropertyOp1
 70
     1
102
RTVSPropertyOp2
 70
     1
102
RTVSPropertyOp3
 70
     1
102
RTVSPropertyOp4
 70
     1
102
RTVSPropertyOp5
 70
     1
102
RTVSPropertyOp6
 70
     1
102
RTVSPropertyOp7
 70
     1
102
RTVSPropertyOp8
 70
     1
102
RTVSPropertyOp9
 70
     1
102
RTVSPropertyOp10
 70
     1
102
RTVSPropertyOp11
 70
     1
102
RTVSPropertyOp12
 70
     1
102
RTVSPropertyOp13
 70
     1
102
RTVSPropertyOp14
 70
     1
102
RTVSPropertyOp15
 70
     1
102
RTVSPropertyOp16
 70
     1
102
RTVSPropertyOp17
 70
     1
102
RTVSPropertyOp18
 70
     1
102
RTVSPropertyOp19
 70
     1
102
RTVSPropertyOp20
 70
     1
102
RTVSPropertyOp21
 70
     1
102
RTVSPropertyOp22
 70
     1
102
RTVSPropertyOp23
 70
     1
102
RTVSPropertyOp24
 70
     1
102
RTVSPropertyOp25
 70
     1
102
RTVSPropertyOp26
 70
     1
102
RTVSPropertyOp27
 70
     1
  0
XRECORD
  5
15ED
102
{ACAD_REACTORS
330
15EC
102
}
330
15EC
100
AcDbXrecord
280
     1
102
RTVSPropertyOp0
 70
     1
102
RTVSPropertyOp1
 70
     1
102
RTVSPropertyOp2
 70
     1
102
RTVSPropertyOp3
 70
     1
102
RTVSPropertyOp4
 70
     1
102
RTVSPropertyOp5
 70
     1
102
RTVSPropertyOp6
 70
     1
102
RTVSPropertyOp7
 70
     1
102
RTVSPropertyOp8
 70
     1
102
RTVSPropertyOp9
 70
     1
102
RTVSPropertyOp10
 70
     1
102
RTVSPropertyOp11
 70
     1
102
RTVSPropertyOp12
 70
     1
102
RTVSPropertyOp13
 70
     1
102
RTVSPropertyOp14
 70
     1
102
RTVSPropertyOp15
 70
     1
102
RTVSPropertyOp16
 70
     1
102
RTVSPropertyOp17
 70
     1
102
RTVSPropertyOp18
 70
     1
102
RTVSPropertyOp19
 70
     1
102
RTVSPropertyOp20
 70
     1
102
RTVSPropertyOp21
 70
     1
102
RTVSPropertyOp22
 70
     1
102
RTVSPropertyOp23
 70
     1
102
RTVSPropertyOp24
 70
     1
102
RTVSPropertyOp25
 70
     1
102
RTVSPropertyOp26
 70
     1
102
RTVSPropertyOp27
 70
     1
  0
XRECORD
  5
15DF
102
{ACAD_REACTORS
330
15DE
102
}
330
15DE
100
AcDbXrecord
280
     1
102
RTVSPropertyOp0
 70
     1
102
RTVSPropertyOp1
 70
     1
102
RTVSPropertyOp2
 70
     1
102
RTVSPropertyOp3
 70
     1
102
RTVSPropertyOp4
 70
     1
102
RTVSPropertyOp5
 70
     1
102
RTVSPropertyOp6
 70
     1
102
RTVSPropertyOp7
 70
     1
102
RTVSPropertyOp8
 70
     1
102
RTVSPropertyOp9
 70
     1
102
RTVSPropertyOp10
 70
     1
102
RTVSPropertyOp11
 70
     1
102
RTVSPropertyOp12
 70
     1
102
RTVSPropertyOp13
 70
     1
102
RTVSPropertyOp14
 70
     1
102
RTVSPropertyOp15
 70
     1
102
RTVSPropertyOp16
 70
     1
102
RTVSPropertyOp17
 70
     1
102
RTVSPropertyOp18
 70
     1
102
RTVSPropertyOp19
 70
     1
102
RTVSPropertyOp20
 70
     1
102
RTVSPropertyOp21
 70
     1
102
RTVSPropertyOp22
 70
     1
102
RTVSPropertyOp23
 70
     1
102
RTVSPropertyOp24
 70
     1
102
RTVSPropertyOp25
 70
     1
102
RTVSPropertyOp26
 70
     1
102
RTVSPropertyOp27
 70
     1
  0
XRECORD
  5
15E3
102
{ACAD_REACTORS
330
15E2
102
}
330
15E2
100
AcDbXrecord
280
     1
102
RTVSPropertyOp0
 70
     1
102
RTVSPropertyOp1
 70
     1
102
RTVSPropertyOp2
 70
     1
102
RTVSPropertyOp3
 70
     1
102
RTVSPropertyOp4
 70
     1
102
RTVSPropertyOp5
 70
     1
102
RTVSPropertyOp6
 70
     1
102
RTVSPropertyOp7
 70
     1
102
RTVSPropertyOp8
 70
     1
102
RTVSPropertyOp9
 70
     1
102
RTVSPropertyOp10
 70
     1
102
RTVSPropertyOp11
 70
     1
102
RTVSPropertyOp12
 70
     1
102
RTVSPropertyOp13
 70
     1
102
RTVSPropertyOp14
 70
     1
102
RTVSPropertyOp15
 70
     1
102
RTVSPropertyOp16
 70
     1
102
RTVSPropertyOp17
 70
     1
102
RTVSPropertyOp18
 70
     1
102
RTVSPropertyOp19
 70
     1
102
RTVSPropertyOp20
 70
     1
102
RTVSPropertyOp21
 70
     1
102
RTVSPropertyOp22
 70
     1
102
RTVSPropertyOp23
 70
     1
102
RTVSPropertyOp24
 70
     1
102
RTVSPropertyOp25
 70
     1
102
RTVSPropertyOp26
 70
     1
102
RTVSPropertyOp27
 70
     1
  0
XRECORD
  5
15F3
102
{ACAD_REACTORS
330
15F2
102
}
330
15F2
100
AcDbXrecord
280
     1
102
RTVSPropertyOp0
 70
     0
102
RTVSPropertyOp1
 70
     0
102
RTVSPropertyOp2
 70
     0
102
RTVSPropertyOp3
 70
     0
102
RTVSPropertyOp4
 70
     0
102
RTVSPropertyOp5
 70
     0
102
RTVSPropertyOp6
 70
     0
102
RTVSPropertyOp7
 70
     0
102
RTVSPropertyOp8
 70
     0
102
RTVSPropertyOp9
 70
     0
102
RTVSPropertyOp10
 70
     0
102
RTVSPropertyOp11
 70
     0
102
RTVSPropertyOp12
 70
     0
102
RTVSPropertyOp13
 70
     0
102
RTVSPropertyOp14
 70
     2
102
RTVSPropertyOp15
 70
     0
102
RTVSPropertyOp16
 70
     0
102
RTVSPropertyOp17
 70
     0
102
RTVSPropertyOp18
 70
     0
102
RTVSPropertyOp19
 70
     0
102
RTVSPropertyOp20
 70
     0
102
RTVSPropertyOp21
 70
     0
102
RTVSPropertyOp22
 70
     0
102
RTVSPropertyOp23
 70
     0
102
RTVSPropertyOp24
 70
     0
102
RTVSPropertyOp25
 70
     0
102
RTVSPropertyOp26
 70
     0
102
RTVSPropertyOp27
 70
     0
  0
XRECORD
  5
15EB
102
{ACAD_REACTORS
330
15EA
102
}
330
15EA
100
AcDbXrecord
280
     1
102
RTVSPropertyOp0
 70
     1
102
RTVSPropertyOp1
 70
     1
102
RTVSPropertyOp2
 70
     1
102
RTVSPropertyOp3
 70
     1
102
RTVSPropertyOp4
 70
     1
102
RTVSPropertyOp5
 70
     1
102
RTVSPropertyOp6
 70
     1
102
RTVSPropertyOp7
 70
     1
102
RTVSPropertyOp8
 70
     1
102
RTVSPropertyOp9
 70
     1
102
RTVSPropertyOp10
 70
     1
102
RTVSPropertyOp11
 70
     1
102
RTVSPropertyOp12
 70
     1
102
RTVSPropertyOp13
 70
     1
102
RTVSPropertyOp14
 70
     1
102
RTVSPropertyOp15
 70
     1
102
RTVSPropertyOp16
 70
     1
102
RTVSPropertyOp17
 70
     1
102
RTVSPropertyOp18
 70
     1
102
RTVSPropertyOp19
 70
     1
102
RTVSPropertyOp20
 70
     1
102
RTVSPropertyOp21
 70
     1
102
RTVSPropertyOp22
 70
     1
102
RTVSPropertyOp23
 70
     1
102
RTVSPropertyOp24
 70
     1
102
RTVSPropertyOp25
 70
     1
102
RTVSPropertyOp26
 70
     1
102
RTVSPropertyOp27
 70
     1
  0
XRECORD
  5
15CF
102
{ACAD_REACTORS
330
15CE
102
}
330
15CE
100
AcDbXrecord
280
     1
102
RTVSPropertyOp0
 70
     1
102
RTVSPropertyOp1
 70
     1
102
RTVSPropertyOp2
 70
     1
102
RTVSPropertyOp3
 70
     1
102
RTVSPropertyOp4
 70
     1
102
RTVSPropertyOp5
 70
     1
102
RTVSPropertyOp6
 70
     1
102
RTVSPropertyOp7
 70
     1
102
RTVSPropertyOp8
 70
     1
102
RTVSPropertyOp9
 70
     1
102
RTVSPropertyOp10
 70
     1
102
RTVSPropertyOp11
 70
     1
102
RTVSPropertyOp12
 70
     1
102
RTVSPropertyOp13
 70
     1
102
RTVSPropertyOp14
 70
     1
102
RTVSPropertyOp15
 70
     1
102
RTVSPropertyOp16
 70
     1
102
RTVSPropertyOp17
 70
     1
102
RTVSPropertyOp18
 70
     1
102
RTVSPropertyOp19
 70
     1
102
RTVSPropertyOp20
 70
     1
102
RTVSPropertyOp21
 70
     1
102
RTVSPropertyOp22
 70
     1
102
RTVSPropertyOp23
 70
     1
102
RTVSPropertyOp24
 70
     1
102
RTVSPropertyOp25
 70
     1
102
RTVSPropertyOp26
 70
     1
102
RTVSPropertyOp27
 70
     1
  0
XRECORD
  5
15D1
102
{ACAD_REACTORS
330
15D0
102
}
330
15D0
100
AcDbXrecord
280
     1
102
RTVSPropertyOp0
 70
     1
102
RTVSPropertyOp1
 70
     1
102
RTVSPropertyOp2
 70
     1
102
RTVSPropertyOp3
 70
     1
102
RTVSPropertyOp4
 70
     1
102
RTVSPropertyOp5
 70
     1
102
RTVSPropertyOp6
 70
     1
102
RTVSPropertyOp7
 70
     1
102
RTVSPropertyOp8
 70
     1
102
RTVSPropertyOp9
 70
     1
102
RTVSPropertyOp10
 70
     1
102
RTVSPropertyOp11
 70
     1
102
RTVSPropertyOp12
 70
     1
102
RTVSPropertyOp13
 70
     1
102
RTVSPropertyOp14
 70
     1
102
RTVSPropertyOp15
 70
     1
102
RTVSPropertyOp16
 70
     1
102
RTVSPropertyOp17
 70
     1
102
RTVSPropertyOp18
 70
     1
102
RTVSPropertyOp19
 70
     1
102
RTVSPropertyOp20
 70
     1
102
RTVSPropertyOp21
 70
     1
102
RTVSPropertyOp22
 70
     1
102
RTVSPropertyOp23
 70
     1
102
RTVSPropertyOp24
 70
     1
102
RTVSPropertyOp25
 70
     1
102
RTVSPropertyOp26
 70
     1
102
RTVSPropertyOp27
 70
     1
  0
XRECORD
  5
15D3
102
{ACAD_REACTORS
330
15D2
102
}
330
15D2
100
AcDbXrecord
280
     1
102
RTVSPropertyOp0
 70
     1
102
RTVSPropertyOp1
 70
     1
102
RTVSPropertyOp2
 70
     1
102
RTVSPropertyOp3
 70
     1
102
RTVSPropertyOp4
 70
     1
102
RTVSPropertyOp5
 70
     1
102
RTVSPropertyOp6
 70
     1
102
RTVSPropertyOp7
 70
     1
102
RTVSPropertyOp8
 70
     1
102
RTVSPropertyOp9
 70
     1
102
RTVSPropertyOp10
 70
     1
102
RTVSPropertyOp11
 70
     1
102
RTVSPropertyOp12
 70
     1
102
RTVSPropertyOp13
 70
     1
102
RTVSPropertyOp14
 70
     1
102
RTVSPropertyOp15
 70
     1
102
RTVSPropertyOp16
 70
     1
102
RTVSPropertyOp17
 70
     1
102
RTVSPropertyOp18
 70
     1
102
RTVSPropertyOp19
 70
     1
102
RTVSPropertyOp20
 70
     1
102
RTVSPropertyOp21
 70
     1
102
RTVSPropertyOp22
 70
     1
102
RTVSPropertyOp23
 70
     1
102
RTVSPropertyOp24
 70
     1
102
RTVSPropertyOp25
 70
     1
102
RTVSPropertyOp26
 70
     1
102
RTVSPropertyOp27
 70
     1
  0
XRECORD
  5
15D5
102
{ACAD_REACTORS
330
15D4
102
}
330
15D4
100
AcDbXrecord
280
     1
102
RTVSPropertyOp0
 70
     1
102
RTVSPropertyOp1
 70
     1
102
RTVSPropertyOp2
 70
     1
102
RTVSPropertyOp3
 70
     1
102
RTVSPropertyOp4
 70
     1
102
RTVSPropertyOp5
 70
     1
102
RTVSPropertyOp6
 70
     1
102
RTVSPropertyOp7
 70
     1
102
RTVSPropertyOp8
 70
     1
102
RTVSPropertyOp9
 70
     1
102
RTVSPropertyOp10
 70
     1
102
RTVSPropertyOp11
 70
     1
102
RTVSPropertyOp12
 70
     1
102
RTVSPropertyOp13
 70
     1
102
RTVSPropertyOp14
 70
     1
102
RTVSPropertyOp15
 70
     1
102
RTVSPropertyOp16
 70
     1
102
RTVSPropertyOp17
 70
     1
102
RTVSPropertyOp18
 70
     1
102
RTVSPropertyOp19
 70
     1
102
RTVSPropertyOp20
 70
     1
102
RTVSPropertyOp21
 70
     1
102
RTVSPropertyOp22
 70
     1
102
RTVSPropertyOp23
 70
     1
102
RTVSPropertyOp24
 70
     1
102
RTVSPropertyOp25
 70
     1
102
RTVSPropertyOp26
 70
     1
102
RTVSPropertyOp27
 70
     1
  0
XRECORD
  5
15EF
102
{ACAD_REACTORS
330
15EE
102
}
330
15EE
100
AcDbXrecord
280
     1
102
RTVSPropertyOp0
 70
     0
102
RTVSPropertyOp1
 70
     0
102
RTVSPropertyOp2
 70
     0
102
RTVSPropertyOp3
 70
     0
102
RTVSPropertyOp4
 70
     0
102
RTVSPropertyOp5
 70
     0
102
RTVSPropertyOp6
 70
     0
102
RTVSPropertyOp7
 70
     0
102
RTVSPropertyOp8
 70
     0
102
RTVSPropertyOp9
 70
     0
102
RTVSPropertyOp10
 70
     0
102
RTVSPropertyOp11
 70
     0
102
RTVSPropertyOp12
 70
     0
102
RTVSPropertyOp13
 70
     0
102
RTVSPropertyOp14
 70
     2
102
RTVSPropertyOp15
 70
     0
102
RTVSPropertyOp16
 70
     0
102
RTVSPropertyOp17
 70
     0
102
RTVSPropertyOp18
 70
     0
102
RTVSPropertyOp19
 70
     0
102
RTVSPropertyOp20
 70
     0
102
RTVSPropertyOp21
 70
     0
102
RTVSPropertyOp22
 70
     0
102
RTVSPropertyOp23
 70
     0
102
RTVSPropertyOp24
 70
     0
102
RTVSPropertyOp25
 70
     0
102
RTVSPropertyOp26
 70
     0
102
RTVSPropertyOp27
 70
     0
  0
XRECORD
  5
15E9
102
{ACAD_REACTORS
330
15E8
102
}
330
15E8
100
AcDbXrecord
280
     1
102
RTVSPropertyOp0
 70
     1
102
RTVSPropertyOp1
 70
     1
102
RTVSPropertyOp2
 70
     1
102
RTVSPropertyOp3
 70
     1
102
RTVSPropertyOp4
 70
     1
102
RTVSPropertyOp5
 70
     1
102
RTVSPropertyOp6
 70
     1
102
RTVSPropertyOp7
 70
     1
102
RTVSPropertyOp8
 70
     1
102
RTVSPropertyOp9
 70
     1
102
RTVSPropertyOp10
 70
     1
102
RTVSPropertyOp11
 70
     1
102
RTVSPropertyOp12
 70
     1
102
RTVSPropertyOp13
 70
     1
102
RTVSPropertyOp14
 70
     1
102
RTVSPropertyOp15
 70
     1
102
RTVSPropertyOp16
 70
     1
102
RTVSPropertyOp17
 70
     1
102
RTVSPropertyOp18
 70
     1
102
RTVSPropertyOp19
 70
     1
102
RTVSPropertyOp20
 70
     1
102
RTVSPropertyOp21
 70
     1
102
RTVSPropertyOp22
 70
     1
102
RTVSPropertyOp23
 70
     1
102
RTVSPropertyOp24
 70
     1
102
RTVSPropertyOp25
 70
     1
102
RTVSPropertyOp26
 70
     1
102
RTVSPropertyOp27
 70
     1
  0
XRECORD
  5
15F1
102
{ACAD_REACTORS
330
15F0
102
}
330
15F0
100
AcDbXrecord
280
     1
102
RTVSPropertyOp0
 70
     0
102
RTVSPropertyOp1
 70
     0
102
RTVSPropertyOp2
 70
     0
102
RTVSPropertyOp3
 70
     0
102
RTVSPropertyOp4
 70
     0
102
RTVSPropertyOp5
 70
     0
102
RTVSPropertyOp6
 70
     0
102
RTVSPropertyOp7
 70
     0
102
RTVSPropertyOp8
 70
     0
102
RTVSPropertyOp9
 70
     0
102
RTVSPropertyOp10
 70
     0
102
RTVSPropertyOp11
 70
     0
102
RTVSPropertyOp12
 70
     0
102
RTVSPropertyOp13
 70
     0
102
RTVSPropertyOp14
 70
     2
102
RTVSPropertyOp15
 70
     0
102
RTVSPropertyOp16
 70
     0
102
RTVSPropertyOp17
 70
     0
102
RTVSPropertyOp18
 70
     0
102
RTVSPropertyOp19
 70
     0
102
RTVSPropertyOp20
 70
     0
102
RTVSPropertyOp21
 70
     0
102
RTVSPropertyOp22
 70
     0
102
RTVSPropertyOp23
 70
     0
102
RTVSPropertyOp24
 70
     0
102
RTVSPropertyOp25
 70
     0
102
RTVSPropertyOp26
 70
     0
102
RTVSPropertyOp27
 70
     0
  0
XRECORD
  5
15E1
102
{ACAD_REACTORS
330
15E0
102
}
330
15E0
100
AcDbXrecord
280
     1
102
RTVSPropertyOp0
 70
     1
102
RTVSPropertyOp1
 70
     1
102
RTVSPropertyOp2
 70
     1
102
RTVSPropertyOp3
 70
     1
102
RTVSPropertyOp4
 70
     1
102
RTVSPropertyOp5
 70
     1
102
RTVSPropertyOp6
 70
     1
102
RTVSPropertyOp7
 70
     1
102
RTVSPropertyOp8
 70
     1
102
RTVSPropertyOp9
 70
     1
102
RTVSPropertyOp10
 70
     1
102
RTVSPropertyOp11
 70
     1
102
RTVSPropertyOp12
 70
     1
102
RTVSPropertyOp13
 70
     1
102
RTVSPropertyOp14
 70
     1
102
RTVSPropertyOp15
 70
     1
102
RTVSPropertyOp16
 70
     1
102
RTVSPropertyOp17
 70
     1
102
RTVSPropertyOp18
 70
     1
102
RTVSPropertyOp19
 70
     1
102
RTVSPropertyOp20
 70
     1
102
RTVSPropertyOp21
 70
     1
102
RTVSPropertyOp22
 70
     1
102
RTVSPropertyOp23
 70
     1
102
RTVSPropertyOp24
 70
     1
102
RTVSPropertyOp25
 70
     1
102
RTVSPropertyOp26
 70
     1
102
RTVSPropertyOp27
 70
     1
  0
XRECORD
  5
15E7
102
{ACAD_REACTORS
330
15E6
102
}
330
15E6
100
AcDbXrecord
280
     1
102
RTVSPropertyOp0
 70
     1
102
RTVSPropertyOp1
 70
     1
102
RTVSPropertyOp2
 70
     1
102
RTVSPropertyOp3
 70
     1
102
RTVSPropertyOp4
 70
     1
102
RTVSPropertyOp5
 70
     1
102
RTVSPropertyOp6
 70
     1
102
RTVSPropertyOp7
 70
     1
102
RTVSPropertyOp8
 70
     1
102
RTVSPropertyOp9
 70
     1
102
RTVSPropertyOp10
 70
     1
102
RTVSPropertyOp11
 70
     1
102
RTVSPropertyOp12
 70
     1
102
RTVSPropertyOp13
 70
     1
102
RTVSPropertyOp14
 70
     1
102
RTVSPropertyOp15
 70
     1
102
RTVSPropertyOp16
 70
     1
102
RTVSPropertyOp17
 70
     1
102
RTVSPropertyOp18
 70
     1
102
RTVSPropertyOp19
 70
     1
102
RTVSPropertyOp20
 70
     1
102
RTVSPropertyOp21
 70
     1
102
RTVSPropertyOp22
 70
     1
102
RTVSPropertyOp23
 70
     1
102
RTVSPropertyOp24
 70
     1
102
RTVSPropertyOp25
 70
     1
102
RTVSPropertyOp26
 70
     1
102
RTVSPropertyOp27
 70
     1
  0
ENDSEC
  0
EOF
