  0
SECTION
  2
HEADER
  9
$ACADVER
  1
AC1021
  9
$ACADMAINTVER
 70
    50
  9
$DWGCODEPAGE
  3
ANSI_1252
  9
$LASTSAVEDBY
  1
francoisbu
  9
$INSBASE
 10
0.0
 20
0.0
 30
0.0
  9
$EXTMIN
 10
21.8053438448046
 20
21.9104126263
 30
0.0
  9
$EXTMAX
 10
87.80534384499535
 20
52.0598338268
 30
0.0
  9
$LIMMIN
 10
0.0
 20
0.0
  9
$LIMMAX
 10
181.3333333333
 20
117.3333333333
  9
$ORTHOMODE
 70
     0
  9
$REGENMODE
 70
     1
  9
$FILLMODE
 70
     1
  9
$QTEXTMODE
 70
     0
  9
$MIRRTEXT
 70
     0
  9
$LTSCALE
 40
9.973333333300001
  9
$ATTMODE
 70
     1
  9
$TEXTSIZE
 40
0.2
  9
$TRACEWID
 40
0.05
  9
$TEXTSTYLE
  7
STANDARD
  9
$CLAYER
  8
0
  9
$CELTYPE
  6
BYLAYER
  9
$CECOLOR
 62
   256
  9
$CELTSCALE
 40
1.0
  9
$DISPSILH
 70
     0
  9
$DIMSCALE
 40
1.0
  9
$DIMASZ
 40
2.0
  9
$DIMEXO
 40
0.0625
  9
$DIMDLI
 40
6.890666666699999
  9
$DIMRND
 40
0.0
  9
$DIMDLE
 40
0.0
  9
$DIMEXE
 40
0.125
  9
$DIMTP
 40
0.00001
  9
$DIMTM
 40
0.00001
  9
$DIMTXT
 40
1.333333333299999
  9
$DIMCEN
 40
1.631999999999999
  9
$DIMTSZ
 40
0.0
  9
$DIMTOL
 70
     1
  9
$DIMLIM
 70
     0
  9
$DIMTIH
 70
     1
  9
$DIMTOH
 70
     1
  9
$DIMSE1
 70
     0
  9
$DIMSE2
 70
     0
  9
$DIMTAD
 70
     0
  9
$DIMZIN
 70
     0
  9
$DIMBLK
  1
_FILLED
  9
$DIMASO
 70
     1
  9
$DIMSHO
 70
     1
  9
$DIMPOST
  1

  9
$DIMAPOST
  1

  9
$DIMALT
 70
     0
  9
$DIMALTD
 70
     2
  9
$DIMALTF
 40
25.4
  9
$DIMLFAC
 40
1.0
  9
$DIMTOFL
 70
     0
  9
$DIMTVP
 40
0.0
  9
$DIMTIX
 70
     0
  9
$DIMSOXD
 70
     0
  9
$DIMSAH
 70
     0
  9
$DIMBLK1
  1

  9
$DIMBLK2
  1

  9
$DIMSTYLE
  2
STANDARD
  9
$DIMCLRD
 70
     0
  9
$DIMCLRE
 70
     0
  9
$DIMCLRT
 70
     0
  9
$DIMTFAC
 40
1.0
  9
$DIMGAP
 40
0.09
  9
$DIMJUST
 70
     0
  9
$DIMSD1
 70
     0
  9
$DIMSD2
 70
     0
  9
$DIMTOLJ
 70
     1
  9
$DIMTZIN
 70
     0
  9
$DIMALTZ
 70
     0
  9
$DIMALTTZ
 70
     0
  9
$DIMUPT
 70
     0
  9
$DIMDEC
 70
     4
  9
$DIMTDEC
 70
     4
  9
$DIMALTU
 70
     2
  9
$DIMALTTD
 70
     2
  9
$DIMTXSTY
  7
STANDARD
  9
$DIMAUNIT
 70
     0
  9
$DIMADEC
 70
     0
  9
$DIMALTRND
 40
0.0
  9
$DIMAZIN
 70
     0
  9
$DIMDSEP
 70
    46
  9
$DIMATFIT
 70
     3
  9
$DIMFRAC
 70
     0
  9
$DIMLDRBLK
  1

  9
$DIMLUNIT
 70
     2
  9
$DIMLWD
 70
    -2
  9
$DIMLWE
 70
    -2
  9
$DIMTMOVE
 70
     0
  9
$DIMFXL
 40
1.0
  9
$DIMFXLON
 70
     0
  9
$DIMJOGANG
 40
0.7853981633974483
  9
$DIMTFILL
 70
     0
  9
$DIMTFILLCLR
 70
     0
  9
$DIMARCSYM
 70
     0
  9
$DIMLTYPE
  6

  9
$DIMLTEX1
  6

  9
$DIMLTEX2
  6

  9
$LUNITS
 70
     2
  9
$LUPREC
 70
     4
  9
$SKETCHINC
 40
0.1
  9
$FILLETRAD
 40
0.0
  9
$AUNITS
 70
     0
  9
$AUPREC
 70
     0
  9
$MENU
  1
.
  9
$ELEVATION
 40
0.0
  9
$PELEVATION
 40
0.0
  9
$THICKNESS
 40
0.0
  9
$LIMCHECK
 70
     0
  9
$CHAMFERA
 40
0.0
  9
$CHAMFERB
 40
0.0
  9
$CHAMFERC
 40
0.0
  9
$CHAMFERD
 40
0.0
  9
$SKPOLY
 70
     0
  9
$TDCREATE
 40
2456630.443109398
  9
$TDUCREATE
 40
2456630.651442731
  9
$TDUPDATE
 40
2456630.472092570
  9
$TDUUPDATE
 40
2456630.680425903
  9
$TDINDWG
 40
0.0042978588
  9
$TDUSRTIMER
 40
0.0042978588
  9
$USRTIMER
 70
     1
  9
$ANGBASE
 50
0.0
  9
$ANGDIR
 70
     0
  9
$PDMODE
 70
     3
  9
$PDSIZE
 40
0.03125
  9
$PLINEWID
 40
0.0
  9
$SPLFRAME
 70
     0
  9
$SPLINETYPE
 70
     6
  9
$SPLINESEGS
 70
     8
  9
$HANDSEED
  5
1678
  9
$SURFTAB1
 70
     6
  9
$SURFTAB2
 70
     6
  9
$SURFTYPE
 70
     6
  9
$SURFU
 70
     6
  9
$SURFV
 70
     6
  9
$UCSBASE
  2

  9
$UCSNAME
  2

  9
$UCSORG
 10
0.0
 20
0.0
 30
0.0
  9
$UCSXDIR
 10
1.0
 20
0.0
 30
0.0
  9
$UCSYDIR
 10
0.0
 20
1.0
 30
0.0
  9
$UCSORTHOREF
  2

  9
$UCSORTHOVIEW
 70
     0
  9
$UCSORGTOP
 10
0.0
 20
0.0
 30
0.0
  9
$UCSORGBOTTOM
 10
0.0
 20
0.0
 30
0.0
  9
$UCSORGLEFT
 10
0.0
 20
0.0
 30
0.0
  9
$UCSORGRIGHT
 10
0.0
 20
0.0
 30
0.0
  9
$UCSORGFRONT
 10
0.0
 20
0.0
 30
0.0
  9
$UCSORGBACK
 10
0.0
 20
0.0
 30
0.0
  9
$PUCSBASE
  2

  9
$PUCSNAME
  2

  9
$PUCSORG
 10
0.0
 20
0.0
 30
0.0
  9
$PUCSXDIR
 10
1.0
 20
0.0
 30
0.0
  9
$PUCSYDIR
 10
0.0
 20
1.0
 30
0.0
  9
$PUCSORTHOREF
  2

  9
$PUCSORTHOVIEW
 70
     0
  9
$PUCSORGTOP
 10
0.0
 20
0.0
 30
0.0
  9
$PUCSORGBOTTOM
 10
0.0
 20
0.0
 30
0.0
  9
$PUCSORGLEFT
 10
0.0
 20
0.0
 30
0.0
  9
$PUCSORGRIGHT
 10
0.0
 20
0.0
 30
0.0
  9
$PUCSORGFRONT
 10
0.0
 20
0.0
 30
0.0
  9
$PUCSORGBACK
 10
0.0
 20
0.0
 30
0.0
  9
$USERI1
 70
     0
  9
$USERI2
 70
     0
  9
$USERI3
 70
     0
  9
$USERI4
 70
     0
  9
$USERI5
 70
     0
  9
$USERR1
 40
0.0
  9
$USERR2
 40
0.0
  9
$USERR3
 40
0.0
  9
$USERR4
 40
0.0
  9
$USERR5
 40
0.0
  9
$WORLDVIEW
 70
     1
  9
$SHADEDGE
 70
     3
  9
$SHADEDIF
 70
    70
  9
$TILEMODE
 70
     1
  9
$MAXACTVP
 70
    64
  9
$PINSBASE
 10
0.0
 20
0.0
 30
0.0
  9
$PLIMCHECK
 70
     0
  9
$PEXTMIN
 10
1.000000000000000E+20
 20
1.000000000000000E+20
 30
1.000000000000000E+20
  9
$PEXTMAX
 10
-1.000000000000000E+20
 20
-1.000000000000000E+20
 30
-1.000000000000000E+20
  9
$PLIMMIN
 10
0.0
 20
0.0
  9
$PLIMMAX
 10
12.0
 20
9.0
  9
$UNITMODE
 70
     0
  9
$VISRETAIN
 70
     1
  9
$PLINEGEN
 70
     0
  9
$PSLTSCALE
 70
     1
  9
$TREEDEPTH
 70
  3020
  9
$CMLSTYLE
  2
Standard
  9
$CMLJUST
 70
     0
  9
$CMLSCALE
 40
1.0
  9
$PROXYGRAPHICS
 70
     1
  9
$MEASUREMENT
 70
     0
  9
$CELWEIGHT
370
    -1
  9
$ENDCAPS
280
     0
  9
$JOINSTYLE
280
     0
  9
$LWDISPLAY
290
     0
  9
$INSUNITS
 70
     1
  9
$HYPERLINKBASE
  1

  9
$STYLESHEET
  1

  9
$XEDIT
290
     1
  9
$CEPSNTYPE
380
     0
  9
$PSTYLEMODE
290
     1
  9
$FINGERPRINTGUID
  2
{7A456867-0E38-4B44-8C61-794F327E8B7A}
  9
$VERSIONGUID
  2
{B4EC5DA6-185F-4452-88C1-A2FA0BBE9562}
  9
$EXTNAMES
290
     1
  9
$PSVPSCALE
 40
0.0
  9
$OLESTARTUP
290
     0
  9
$SORTENTS
280
   127
  9
$INDEXCTL
280
     0
  9
$HIDETEXT
280
     0
  9
$XCLIPFRAME
290
     0
  9
$HALOGAP
280
     0
  9
$OBSCOLOR
 70
   257
  9
$OBSLTYPE
280
     0
  9
$INTERSECTIONDISPLAY
280
     0
  9
$INTERSECTIONCOLOR
 70
   257
  9
$DIMASSOC
280
     1
  9
$PROJECTNAME
  1

  9
$CAMERADISPLAY
290
     0
  9
$LENSLENGTH
 40
50.0
  9
$CAMERAHEIGHT
 40
0.0
  9
$STEPSPERSEC
 40
2.0
  9
$STEPSIZE
 40
6.0
  9
$3DDWFPREC
 40
2.0
  9
$PSOLWIDTH
 40
0.25
  9
$PSOLHEIGHT
 40
4.0
  9
$LOFTANG1
 40
1.570796326794896
  9
$LOFTANG2
 40
1.570796326794896
  9
$LOFTMAG1
 40
0.0
  9
$LOFTMAG2
 40
0.0
  9
$LOFTPARAM
 70
     7
  9
$LOFTNORMALS
280
     1
  9
$LATITUDE
 40
37.795
  9
$LONGITUDE
 40
-122.394
  9
$NORTHDIRECTION
 40
0.0
  9
$TIMEZONE
 70
 -8000
  9
$LIGHTGLYPHDISPLAY
280
     1
  9
$TILEMODELIGHTSYNCH
280
     1
  9
$CMATERIAL
347
1597
  9
$SOLIDHIST
280
     1
  9
$SHOWHIST
280
     1
  9
$DWFFRAME
280
     2
  9
$DGNFRAME
280
     0
  9
$REALWORLDSCALE
290
     1
  9
$INTERFERECOLOR
 62
     1
  9
$INTERFEREOBJVS
345
15B9
  9
$INTERFEREVPVS
346
15B6
  9
$CSHADOW
280
     0
  9
$SHADOWPLANELOCATION
 40
0.0
  0
ENDSEC
  0
SECTION
  2
CLASSES
  0
CLASS
  1
ACDBDICTIONARYWDFLT
  2
AcDbDictionaryWithDefault
  3
ObjectDBX Classes
 90
        0
 91
        1
280
     0
281
     0
  0
CLASS
  1
MATERIAL
  2
AcDbMaterial
  3
ObjectDBX Classes
 90
     1153
 91
        3
280
     0
281
     0
  0
CLASS
  1
VISUALSTYLE
  2
AcDbVisualStyle
  3
ObjectDBX Classes
 90
     4095
 91
       19
280
     0
281
     0
  0
CLASS
  1
TABLESTYLE
  2
AcDbTableStyle
  3
ObjectDBX Classes
 90
     4095
 91
        1
280
     0
281
     0
  0
CLASS
  1
SCALE
  2
AcDbScale
  3
ObjectDBX Classes
 90
     1153
 91
       33
280
     0
281
     0
  0
CLASS
  1
MLEADERSTYLE
  2
AcDbMLeaderStyle
  3
ACDB_MLEADERSTYLE_CLASS
 90
     4095
 91
        1
280
     0
281
     0
  0
CLASS
  1
CELLSTYLEMAP
  2
AcDbCellStyleMap
  3
ObjectDBX Classes
 90
     1152
 91
        2
280
     0
281
     0
  0
CLASS
  1
DICTIONARYVAR
  2
AcDbDictionaryVar
  3
ObjectDBX Classes
 90
        0
 91
       11
280
     0
281
     0
  0
ENDSEC
  0
SECTION
  2
TABLES
  0
TABLE
  2
VPORT
  5
8
102
{ACAD_XDICTIONARY
360
15EF
102
}
330
0
100
AcDbSymbolTable
 70
     1
  0
VPORT
  5
1F4
330
8
100
AcDbSymbolTableRecord
100
AcDbViewportTableRecord
  2
*ACTIVE
 70
     0
 10
0.0
 20
0.0
 11
1.0
 21
1.0
 12
61.09195620356058
 22
45.14924984905771
 13
0.0
 23
0.0
 14
1.0
 24
1.0
 15
0.0
 25
0.0
 16
0.0
 26
0.0
 36
1.0
 17
0.0
 27
0.0
 37
0.0
 40
48.66565249348811
 41
2.41111111111111
 42
50.0
 43
0.0
 44
0.0
 50
0.0
 51
0.0
 71
     0
 72
   100
 73
     1
 74
     1
 75
     0
 76
     0
 77
     0
 78
     0
281
     0
 65
     1
110
0.0
120
0.0
130
0.0
111
1.0
121
0.0
131
0.0
112
0.0
122
1.0
132
0.0
 79
     0
146
0.0
348
15B5
 60
     3
 61
     5
292
     1
282
     1
141
0.0
142
0.0
 63
   250
421
  3355443
  0
ENDTAB
  0
TABLE
  2
LTYPE
  5
5
330
0
100
AcDbSymbolTable
 70
     6
  0
LTYPE
  5
14
330
5
100
AcDbSymbolTableRecord
100
AcDbLinetypeTableRecord
  2
BYBLOCK
 70
     0
  3

 72
    65
 73
     0
 40
0.0
  0
LTYPE
  5
15
330
5
100
AcDbSymbolTableRecord
100
AcDbLinetypeTableRecord
  2
BYLAYER
 70
     0
  3

 72
    65
 73
     0
 40
0.0
  0
LTYPE
  5
16
330
5
100
AcDbSymbolTableRecord
100
AcDbLinetypeTableRecord
  2
CONTINUOUS
 70
     0
  3
Solid line
 72
    65
 73
     0
 40
0.0
  0
LTYPE
  5
1F5
330
5
100
AcDbSymbolTableRecord
100
AcDbLinetypeTableRecord
  2
CENTER
 70
     0
  3
____ _ ____ _ ____ _ ____ _ ____ _ ____ _ ____
 72
    65
 73
     4
 40
0.6
 49
0.375
 74
     0
 49
-0.075
 74
     0
 49
0.075
 74
     0
 49
-0.075
 74
     0
  0
LTYPE
  5
1F6
330
5
100
AcDbSymbolTableRecord
100
AcDbLinetypeTableRecord
  2
HIDDEN
 70
     0
  3
- - - - - - - - - - - - - - - - - - - -
 72
    65
 73
     2
 40
0.2
 49
0.1
 74
     0
 49
-0.1
 74
     0
  0
LTYPE
  5
1F7
330
5
100
AcDbSymbolTableRecord
100
AcDbLinetypeTableRecord
  2
PHANTOM
 70
     0
  3
_____ _ _ _____ _ _ _____ _ _ _____
 72
    65
 73
     6
 40
0.8
 49
0.45
 74
     0
 49
-0.05
 74
     0
 49
0.1
 74
     0
 49
-0.05
 74
     0
 49
0.1
 74
     0
 49
-0.05
 74
     0
  0
LTYPE
  5
1F8
330
5
100
AcDbSymbolTableRecord
100
AcDbLinetypeTableRecord
  2
DOT
 70
     0
  3
. . . . . . . . . . . . . . . . . . . .
 72
    65
 73
     2
 40
0.2
 49
0.1
 74
     0
 49
-0.1
 74
     0
  0
LTYPE
  5
1F9
330
5
100
AcDbSymbolTableRecord
100
AcDbLinetypeTableRecord
  2
DASHED
 70
     0
  3
- - - - - - - - - - - - - - - - - - - -
 72
    65
 73
     2
 40
0.2
 49
0.1
 74
     0
 49
-0.1
 74
     0
  0
ENDTAB
  0
TABLE
  2
LAYER
  5
2
330
0
100
AcDbSymbolTable
 70
    28
  0
LAYER
  5
10
102
{ACAD_XDICTIONARY
360
162F
102
}
330
2
100
AcDbSymbolTableRecord
100
AcDbLayerTableRecord
  2
0
 70
     0
 62
     7
  6
CONTINUOUS
370
    -3
390
F
347
15A7
  0
LAYER
  5
1FA
102
{ACAD_XDICTIONARY
360
1631
102
}
330
2
100
AcDbSymbolTableRecord
100
AcDbLayerTableRecord
  2
DEFAULT_1
 70
     0
 62
     7
  6
CENTER
370
    -3
390
F
347
15A7
  0
LAYER
  5
1FB
102
{ACAD_XDICTIONARY
360
1633
102
}
330
2
100
AcDbSymbolTableRecord
100
AcDbLayerTableRecord
  2
DEFAULT_2
 70
     0
 62
     7
  6
HIDDEN
370
    -3
390
F
347
15A7
  0
LAYER
  5
1FC
102
{ACAD_XDICTIONARY
360
1635
102
}
330
2
100
AcDbSymbolTableRecord
100
AcDbLayerTableRecord
  2
DEFAULT_3
 70
     0
 62
     7
  6
PHANTOM
370
    -3
390
F
347
15A7
  0
LAYER
  5
1FD
102
{ACAD_XDICTIONARY
360
1637
102
}
330
2
100
AcDbSymbolTableRecord
100
AcDbLayerTableRecord
  2
1_CURVES
 70
     0
 62
     7
  6
CONTINUOUS
370
    -3
390
F
347
15A7
  0
LAYER
  5
1FE
102
{ACAD_XDICTIONARY
360
1639
102
}
330
2
100
AcDbSymbolTableRecord
100
AcDbLayerTableRecord
  2
1_CURVES_CONDUIT
 70
     0
 62
     7
  6
CONTINUOUS
370
    -3
390
F
347
15A7
  0
LAYER
  5
1FF
102
{ACAD_XDICTIONARY
360
163B
102
}
330
2
100
AcDbSymbolTableRecord
100
AcDbLayerTableRecord
  2
1_CURVES_JETS
 70
     0
 62
     7
  6
CONTINUOUS
370
    -3
390
F
347
15A7
  0
LAYER
  5
200
102
{ACAD_XDICTIONARY
360
163D
102
}
330
2
100
AcDbSymbolTableRecord
100
AcDbLayerTableRecord
  2
1_CURVES_PATINS
 70
     0
 62
     7
  6
CONTINUOUS
370
    -3
390
F
347
15A7
  0
LAYER
  5
201
102
{ACAD_XDICTIONARY
360
163F
102
}
330
2
100
AcDbSymbolTableRecord
100
AcDbLayerTableRecord
  2
1_CURVES_SPEC_FRONT
 70
     0
 62
     7
  6
CONTINUOUS
370
    -3
390
F
347
15A7
  0
LAYER
  5
202
102
{ACAD_XDICTIONARY
360
1641
102
}
330
2
100
AcDbSymbolTableRecord
100
AcDbLayerTableRecord
  2
1_CURVES_SPEC_RIGHT
 70
     0
 62
     7
  6
CONTINUOUS
370
    -3
390
F
347
15A7
  0
LAYER
  5
203
102
{ACAD_XDICTIONARY
360
1643
102
}
330
2
100
AcDbSymbolTableRecord
100
AcDbLayerTableRecord
  2
2_PLANES
 70
     0
 62
     7
  6
CONTINUOUS
370
    -3
390
F
347
15A7
  0
LAYER
  5
204
102
{ACAD_XDICTIONARY
360
1645
102
}
330
2
100
AcDbSymbolTableRecord
100
AcDbLayerTableRecord
  2
2_PLANES_JETS
 70
     0
 62
     7
  6
CONTINUOUS
370
    -3
390
F
347
15A7
  0
LAYER
  5
205
102
{ACAD_XDICTIONARY
360
1647
102
}
330
2
100
AcDbSymbolTableRecord
100
AcDbLayerTableRecord
  2
3_POINTS
 70
     0
 62
     7
  6
CONTINUOUS
370
    -3
390
F
347
15A7
  0
LAYER
  5
206
102
{ACAD_XDICTIONARY
360
1649
102
}
330
2
100
AcDbSymbolTableRecord
100
AcDbLayerTableRecord
  2
3_POINTS_JETS
 70
     0
 62
     7
  6
CONTINUOUS
370
    -3
390
F
347
15A7
  0
LAYER
  5
207
102
{ACAD_XDICTIONARY
360
164B
102
}
330
2
100
AcDbSymbolTableRecord
100
AcDbLayerTableRecord
  2
4_CSYS
 70
     0
 62
     7
  6
CONTINUOUS
370
    -3
390
F
347
15A7
  0
LAYER
  5
208
102
{ACAD_XDICTIONARY
360
164D
102
}
330
2
100
AcDbSymbolTableRecord
100
AcDbLayerTableRecord
  2
5_AXIS
 70
     0
 62
     7
  6
CONTINUOUS
370
    -3
390
F
347
15A7
  0
LAYER
  5
209
102
{ACAD_XDICTIONARY
360
164F
102
}
330
2
100
AcDbSymbolTableRecord
100
AcDbLayerTableRecord
  2
5_AXIS_JETS
 70
     0
 62
     7
  6
CONTINUOUS
370
    -3
390
F
347
15A7
  0
LAYER
  5
20A
102
{ACAD_XDICTIONARY
360
1651
102
}
330
2
100
AcDbSymbolTableRecord
100
AcDbLayerTableRecord
  2
6_AIRE_CONDUIT
 70
     0
 62
     7
  6
CONTINUOUS
370
    -3
390
F
347
15A7
  0
LAYER
  5
20B
102
{ACAD_XDICTIONARY
360
1653
102
}
330
2
100
AcDbSymbolTableRecord
100
AcDbLayerTableRecord
  2
6_SURFACES
 70
     0
 62
     7
  6
CONTINUOUS
370
    -3
390
F
347
15A7
  0
LAYER
  5
20C
102
{ACAD_XDICTIONARY
360
1655
102
}
330
2
100
AcDbSymbolTableRecord
100
AcDbLayerTableRecord
  2
6_SURFACES_AIRE
 70
     0
 62
     7
  6
CONTINUOUS
370
    -3
390
F
347
15A7
  0
LAYER
  5
20D
102
{ACAD_XDICTIONARY
360
1657
102
}
330
2
100
AcDbSymbolTableRecord
100
AcDbLayerTableRecord
  2
6_SURFACES_OFFSET_FIBRE_ACRYLIQ
 70
     0
 62
     7
  6
CONTINUOUS
370
    -3
390
F
347
15A7
  0
LAYER
  5
20E
102
{ACAD_XDICTIONARY
360
1659
102
}
330
2
100
AcDbSymbolTableRecord
100
AcDbLayerTableRecord
  2
6_SURFACES_POUR_CONDUIT
 70
     0
 62
     7
  6
CONTINUOUS
370
    -3
390
F
347
15A7
  0
LAYER
  5
20F
102
{ACAD_XDICTIONARY
360
165B
102
}
330
2
100
AcDbSymbolTableRecord
100
AcDbLayerTableRecord
  2
6_SURFACES_POUR_HFL
 70
     0
 62
     7
  6
CONTINUOUS
370
    -3
390
F
347
15A7
  0
LAYER
  5
210
102
{ACAD_XDICTIONARY
360
165D
102
}
330
2
100
AcDbSymbolTableRecord
100
AcDbLayerTableRecord
  2
6_SURFACES_TOOLING
 70
     0
 62
     7
  6
CONTINUOUS
370
    -3
390
F
347
15A7
  0
LAYER
  5
211
102
{ACAD_XDICTIONARY
360
165F
102
}
330
2
100
AcDbSymbolTableRecord
100
AcDbLayerTableRecord
  2
7_NOTES
 70
     0
 62
     7
  6
CONTINUOUS
370
    -3
390
F
347
15A7
  0
LAYER
  5
212
102
{ACAD_XDICTIONARY
360
1661
102
}
330
2
100
AcDbSymbolTableRecord
100
AcDbLayerTableRecord
  2
8_TOL_GEOM
 70
     0
 62
     7
  6
CONTINUOUS
370
    -3
390
F
347
15A7
  0
LAYER
  5
213
102
{ACAD_XDICTIONARY
360
1663
102
}
330
2
100
AcDbSymbolTableRecord
100
AcDbLayerTableRecord
  2
NONE
 70
     0
 62
     7
  6
CONTINUOUS
370
    -3
390
F
347
15A7
  0
LAYER
  5
214
102
{ACAD_XDICTIONARY
360
1665
102
}
330
2
100
AcDbSymbolTableRecord
100
AcDbLayerTableRecord
  2
XSEC_DATUMS
 70
     0
 62
     7
  6
CONTINUOUS
370
    -3
390
F
347
15A7
  0
ENDTAB
  0
TABLE
  2
STYLE
  5
3
330
0
100
AcDbSymbolTable
 70
     8
  0
STYLE
  5
11
330
3
100
AcDbSymbolTableRecord
100
AcDbTextStyleTableRecord
  2
STANDARD
 70
     0
 40
0.0
 41
0.8
 50
0.0
 71
     0
 42
0.2
  3
txt
  4

  0
STYLE
  5
215
330
3
100
AcDbSymbolTableRecord
100
AcDbTextStyleTableRecord
  2
TEXTSTYLE_1
 70
     0
 40
0.0
 41
0.8
 50
0.0
 71
     0
 42
0.2
  3
gdt
  4

  0
STYLE
  5
216
330
3
100
AcDbSymbolTableRecord
100
AcDbTextStyleTableRecord
  2
TEXTSTYLE_2
 70
     0
 40
0.0
 41
1.0
 50
0.0
 71
     0
 42
0.2
  3
trium.ttf
  4

  0
STYLE
  5
217
330
3
100
AcDbSymbolTableRecord
100
AcDbTextStyleTableRecord
  2
TEXTSTYLE_3
 70
     0
 40
0.0
 41
1.0
 50
0.0
 71
     0
 42
0.2
  3
trium.ttf
  4

  0
STYLE
  5
218
330
3
100
AcDbSymbolTableRecord
100
AcDbTextStyleTableRecord
  2
TEXTSTYLE_4
 70
     0
 40
0.0
 41
1.0
 50
0.0
 71
     0
 42
0.2
  3
txt_____.ttf
  4

1001
ACAD
1000
txt
1071
        2
  0
STYLE
  5
219
330
3
100
AcDbSymbolTableRecord
100
AcDbTextStyleTableRecord
  2
TEXTSTYLE_5
 70
     0
 40
0.0
 41
1.0
 50
0.0
 71
     0
 42
0.2
  3
txt_____.ttf
  4

1001
ACAD
1000
txt
1071
        2
  0
STYLE
  5
21A
330
3
100
AcDbSymbolTableRecord
100
AcDbTextStyleTableRecord
  2
TEXTSTYLE_6
 70
     0
 40
0.0
 41
1.0
 50
0.0
 71
     0
 42
0.2
  3
trium.ttf
  4

  0
STYLE
  5
21B
330
3
100
AcDbSymbolTableRecord
100
AcDbTextStyleTableRecord
  2
TEXTSTYLE_7
 70
     0
 40
0.0
 41
0.8
 50
0.0
 71
     0
 42
0.2
  3
txt_____.ttf
  4

1001
ACAD
1000
txt
1071
        2
  0
ENDTAB
  0
TABLE
  2
VIEW
  5
6
330
0
100
AcDbSymbolTable
 70
     0
  0
ENDTAB
  0
TABLE
  2
UCS
  5
7
330
0
100
AcDbSymbolTable
 70
     0
  0
ENDTAB
  0
TABLE
  2
APPID
  5
9
330
0
100
AcDbSymbolTable
 70
     2
  0
APPID
  5
21C
330
9
100
AcDbSymbolTableRecord
100
AcDbRegAppTableRecord
  2
ACAD
 70
     0
  0
APPID
  5
161F
330
9
100
AcDbSymbolTableRecord
100
AcDbRegAppTableRecord
  2
ACAD_MLEADERVER
 70
     0
  0
ENDTAB
  0
TABLE
  2
DIMSTYLE
  5
A
330
0
100
AcDbSymbolTable
 70
     6
100
AcDbDimStyleTable
 71
     0
  0
DIMSTYLE
105
235
330
A
100
AcDbSymbolTableRecord
100
AcDbDimStyleTableRecord
  2
STANDARD
 70
     0
 41
2.0
 44
0.125
 47
0.00001
 48
0.00001
 71
     1
 78
     4
140
1.333333333299999
271
     5
272
     5
284
     4
340
11
341
21F
342
21F
343
21F
344
21F
  0
DIMSTYLE
105
236
330
A
100
AcDbSymbolTableRecord
100
AcDbDimStyleTableRecord
  2
DIMSTYLE_1
 70
     0
 41
2.0
 44
0.125
 47
0.00001
 48
0.00001
 78
     4
140
1.333333333299999
147
0.0625
271
     3
272
     3
284
     4
340
11
341
21F
342
21F
343
21F
344
21F
  0
DIMSTYLE
105
237
330
A
100
AcDbSymbolTableRecord
100
AcDbDimStyleTableRecord
  2
DIMSTYLE_2
 70
     0
 41
2.0
 44
0.125
 47
0.001
 48
0.001
 78
     4
140
1.333333333299999
147
0.0625
271
     3
272
     3
284
     4
340
11
341
21F
342
21F
343
21F
344
21F
  0
DIMSTYLE
105
238
330
A
100
AcDbSymbolTableRecord
100
AcDbDimStyleTableRecord
  2
DIMSTYLE_3
 70
     0
 41
2.0
 44
0.125
 47
1.0
 48
1.0
 78
     4
140
1.333333333299999
271
     0
272
     0
284
     4
340
11
341
21F
342
21F
343
21F
344
21F
  0
DIMSTYLE
105
239
330
A
100
AcDbSymbolTableRecord
100
AcDbDimStyleTableRecord
  2
DIMSTYLE_4
 70
     0
 41
2.0
 44
0.125
 47
0.00001
 48
0.00001
 78
     4
140
1.333333333299999
147
0.0625
271
     6
272
     6
284
     4
340
11
341
21F
342
21F
343
21F
344
21F
  0
DIMSTYLE
105
23A
330
A
100
AcDbSymbolTableRecord
100
AcDbDimStyleTableRecord
  2
DIMSTYLE_5
 70
     0
 41
2.0
 44
0.125
 47
0.5
 48
0.5
 78
     4
140
1.333333333299999
271
     6
272
     6
284
     4
340
11
341
21F
342
21F
343
21F
344
21F
  0
ENDTAB
  0
TABLE
  2
BLOCK_RECORD
  5
1
330
0
100
AcDbSymbolTable
 70
    22
  0
BLOCK_RECORD
  5
21D
330
1
100
AcDbSymbolTableRecord
100
AcDbBlockTableRecord
  2
*Model_Space
340
1591
 70
     0
280
     1
281
     0
  0
BLOCK_RECORD
  5
21E
330
1
100
AcDbSymbolTableRecord
100
AcDbBlockTableRecord
  2
*Paper_Space
340
1592
 70
     0
280
     1
281
     0
  0
BLOCK_RECORD
  5
21F
330
1
100
AcDbSymbolTableRecord
100
AcDbBlockTableRecord
  2
_FILLED
340
0
102
{BLKREFS
331
31F
331
320
331
328
331
329
331
331
331
332
331
33A
331
33B
331
343
331
344
331
34C
331
34D
331
355
331
356
331
35E
331
35F
331
368
331
369
331
371
331
372
331
37A
331
37B
331
384
331
385
331
395
331
396
331
39F
331
3A0
102
}
 70
     0
280
     1
281
     0
  0
BLOCK_RECORD
  5
230
330
1
100
AcDbSymbolTableRecord
100
AcDbBlockTableRecord
  2
SYMBOL_7_BL4
340
0
 70
     0
280
     1
281
     0
  0
BLOCK_RECORD
  5
231
330
1
100
AcDbSymbolTableRecord
100
AcDbBlockTableRecord
  2
SYMBOL_6_BL3
340
0
 70
     0
280
     1
281
     0
  0
BLOCK_RECORD
  5
232
330
1
100
AcDbSymbolTableRecord
100
AcDbBlockTableRecord
  2
SYMBOL_5_BL2
340
0
 70
     0
280
     1
281
     0
  0
BLOCK_RECORD
  5
233
330
1
100
AcDbSymbolTableRecord
100
AcDbBlockTableRecord
  2
SYMBOL_2_BL1
340
0
 70
     0
280
     1
281
     0
  0
BLOCK_RECORD
  5
234
330
1
100
AcDbSymbolTableRecord
100
AcDbBlockTableRecord
  2
SYMBOL_0_BL0
340
0
 70
     0
280
     1
281
     0
  0
ENDTAB
  0
ENDSEC
  0
SECTION
  2
BLOCKS
  0
BLOCK
  5
20
330
21D
100
AcDbEntity
  8
0
100
AcDbBlockBegin
  2
*Model_Space
 70
     0
 10
0.0
 20
0.0
 30
0.0
  3
*Model_Space
  1

  0
ENDBLK
  5
21
330
21D
100
AcDbEntity
  8
0
100
AcDbBlockEnd
  0
BLOCK
  5
1C
330
21E
100
AcDbEntity
 67
     1
  8
0
100
AcDbBlockBegin
  2
*Paper_Space
 70
     0
 10
0.0
 20
0.0
 30
0.0
  3
*Paper_Space
  1

  0
ENDBLK
  5
1D
330
21E
100
AcDbEntity
 67
     1
  8
0
100
AcDbBlockEnd
  0
BLOCK
  5
316
330
21F
100
AcDbEntity
  8
0
100
AcDbBlockBegin
  2
_FILLED
 70
     0
 10
0.0
 20
0.0
 30
0.0
  3
_FILLED
  1

  0
SOLID
  5
317
330
21F
100
AcDbEntity
  8
0
  6
ByBlock
 62
     0
100
AcDbTrace
 10
0.0
 20
0.0
 30
0.0
 11
-1.0
 21
0.1666666667
 31
0.0
 12
-1.0
 22
-0.1666666667
 32
0.0
 13
-1.0
 23
-0.1666666667
 33
0.0
  0
ENDBLK
  5
318
330
21F
100
AcDbEntity
  8
0
  6
ByBlock
 62
     0
100
AcDbBlockEnd
  0
BLOCK
  5
23B
330
230
100
AcDbEntity
  8
0
  6
Continuous
 62
     7
100
AcDbBlockBegin
  2
SYMBOL_7_BL4
 70
     0
 10
54.7106074615
 20
72.0693470575
 30
0.0
  3
SYMBOL_7_BL4
  1

  0
TEXT
  5
23C
330
230
100
AcDbEntity
  8
0
  6
Continuous
 62
     7
100
AcDbText
 10
54.1822121942
 20
71.40268013149999
 30
0.0
 40
1.333333852099999
  1
L
  7
TEXTSTYLE_2
100
AcDbText
  0
ELLIPSE
  5
23D
330
230
100
AcDbEntity
  8
0
  6
Continuous
 62
     7
100
AcDbEllipse
 10
54.7106074615
 20
72.0693470575
 30
0.0
 11
-1.942887567899999
 21
0.0
 31
0.0
210
0.0
220
0.0
230
1.0
 40
0.6606458385
 41
0.0
 42
6.283185307179586
  0
ENDBLK
  5
23E
330
230
100
AcDbEntity
  8
0
  6
ByBlock
 62
     0
100
AcDbBlockEnd
  0
BLOCK
  5
23F
330
231
100
AcDbEntity
  8
0
  6
Continuous
 62
     7
100
AcDbBlockBegin
  2
SYMBOL_6_BL3
 70
     0
 10
67.47228777540001
 20
97.55083821360001
 30
0.0
  3
SYMBOL_6_BL3
  1

  0
TEXT
  5
240
330
231
100
AcDbEntity
  8
0
  6
Continuous
 62
     7
100
AcDbText
 10
66.7482789077
 20
97.06208392870001
 30
0.0
 40
1.333333852099999
  1
L
 50
343.0
  7
TEXTSTYLE_2
100
AcDbText
  0
TEXT
  5
241
330
231
100
AcDbEntity
  8
0
  6
Continuous
 62
     7
100
AcDbText
 10
63.228320101
 20
98.15122123389999
 30
0.0
 40
1.333333852099999
  1
4
 50
343.0
  7
TEXTSTYLE_2
100
AcDbText
  0
TEXT
  5
242
330
231
100
AcDbEntity
  8
0
  6
Continuous
 62
     7
100
AcDbText
 10
70.3488700054
 20
95.9742506593
 30
0.0
 40
1.333333852099999
  1
5
 50
343.0
  7
TEXTSTYLE_2
100
AcDbText
  0
ELLIPSE
  5
243
330
231
100
AcDbEntity
  8
0
  6
Continuous
 62
     7
100
AcDbEllipse
 10
67.4485003605
 20
97.54513285559999
 30
0.0
 11
-1.8579926215
 21
0.5680453503000002
 31
0.0
210
0.0
220
0.0
230
1.0
 40
0.6606458385
 41
0.0
 42
6.283185307179586
  0
ENDBLK
  5
244
330
231
100
AcDbEntity
  8
0
  6
ByBlock
 62
     0
100
AcDbBlockEnd
  0
BLOCK
  5
245
330
232
100
AcDbEntity
  8
0
  6
Continuous
 62
     7
100
AcDbBlockBegin
  2
SYMBOL_5_BL2
 70
     0
 10
42.1688817786
 20
97.62304354900001
 30
0.0
  3
SYMBOL_5_BL2
  1

  0
TEXT
  5
246
330
232
100
AcDbEntity
  8
0
  6
Continuous
 62
     7
100
AcDbText
 10
41.8419591521
 20
96.81298726219999
 30
0.0
 40
1.333333852099999
  1
L
 50
17.0
  7
TEXTSTYLE_2
100
AcDbText
  0
TEXT
  5
247
330
232
100
AcDbEntity
  8
0
  6
Continuous
 62
     7
100
AcDbText
 10
38.3147431955
 20
95.74758702469999
 30
0.0
 40
1.333333852099999
  1
5
 50
17.0
  7
TEXTSTYLE_2
100
AcDbText
  0
TEXT
  5
248
330
232
100
AcDbEntity
  8
0
  6
Continuous
 62
     7
100
AcDbText
 10
45.4352930999
 20
97.92455759940001
 30
0.0
 40
1.333333852099999
  1
4
 50
17.0
  7
TEXTSTYLE_2
100
AcDbText
  0
ELLIPSE
  5
249
330
232
100
AcDbEntity
  8
0
  6
Continuous
 62
     7
100
AcDbEllipse
 10
42.1523515136
 20
97.60501183930001
 30
0.0
 11
-1.8579926215
 21
-0.5680453503000002
 31
0.0
210
0.0
220
0.0
230
1.0
 40
0.6606458385
 41
0.0
 42
6.283185307179586
  0
ENDBLK
  5
24A
330
232
100
AcDbEntity
  8
0
  6
ByBlock
 62
     0
100
AcDbBlockEnd
  0
BLOCK
  5
24B
330
233
100
AcDbEntity
  8
0
  6
Continuous
 62
     7
100
AcDbBlockBegin
  2
SYMBOL_2_BL1
 70
     0
 10
126.1941507041
 20
57.02881593949999
 30
0.0
  3
SYMBOL_2_BL1
  1

  0
TEXT
  5
24C
330
233
100
AcDbEntity
  8
0
  6
Continuous
 62
     7
100
AcDbText
 10
119.8800904024
 20
59.2738499253
 30
0.0
 40
1.1626666667
  1
INTERNAL USE 
 50
10.0
  7
TEXTSTYLE_3
100
AcDbText
  0
TEXT
  5
24D
330
233
100
AcDbEntity
  8
0
  6
Continuous
 62
     7
100
AcDbText
 10
119.1364061984
 20
57.2723287477
 30
0.0
 40
1.1626666667
  1
DOCUMENT ONLY
 50
10.0
  7
TEXTSTYLE_3
100
AcDbText
  0
TEXT
  5
24E
330
233
100
AcDbEntity
  8
0
  6
Continuous
 62
     7
100
AcDbText
 10
124.9211337616
 20
57.0239006971
 30
0.0
 40
1.1626666667
  1
 
 50
10.0
  7
TEXTSTYLE_5
100
AcDbText
  0
TEXT
  5
24F
330
233
100
AcDbEntity
  8
0
  6
Continuous
 62
     7
100
AcDbText
 10
116.4764858786
 20
52.8468062908
 30
0.0
 40
1.1626666667
  1
DOCUMENT POUR USAGE
 50
10.0
  7
TEXTSTYLE_3
100
AcDbText
  0
TEXT
  5
250
330
233
100
AcDbEntity
  8
0
  6
Continuous
 62
     7
100
AcDbText
 10
116.9055853246
 20
50.8300578304
 30
0.0
 40
1.1626666667
  1
A L'INTERNE SEULEMENT
 50
10.0
  7
TEXTSTYLE_3
100
AcDbText
  0
LINE
  5
251
330
233
100
AcDbEntity
  8
0
  6
Continuous
 62
     7
100
AcDbLine
 10
140.0507024275
 20
52.6852823216
 30
0.0
 11
140.0574613601
 21
52.69204125419999
 31
0.0
  0
LINE
  5
252
330
233
100
AcDbEntity
  8
0
  6
Continuous
 62
     7
100
AcDbLine
 10
139.3181328611
 20
52.5561105418
 30
0.0
 11
139.9670143062
 21
53.2049919869
 31
0.0
  0
LINE
  5
253
330
233
100
AcDbEntity
  8
0
  6
Continuous
 62
     7
100
AcDbLine
 10
138.5855632946
 20
52.426938762
 30
0.0
 11
139.8765672522
 21
53.7179427196
 31
0.0
  0
LINE
  5
254
330
233
100
AcDbEntity
  8
0
  6
Continuous
 62
     7
100
AcDbLine
 10
137.8529937282
 20
52.2977669821
 30
0.0
 11
139.7861201983
 21
54.2308934522
 31
0.0
  0
LINE
  5
255
330
233
100
AcDbEntity
  8
0
  6
Continuous
 62
     7
100
AcDbLine
 10
137.1204241618
 20
52.16859520229999
 30
0.0
 11
139.6956731443
 21
54.7438441849
 31
0.0
  0
LINE
  5
256
330
233
100
AcDbEntity
  8
0
  6
Continuous
 62
     7
100
AcDbLine
 10
136.3878545954
 20
52.0394234225
 30
0.0
 11
137.9288584102
 21
53.58042723729999
 31
0.0
  0
LINE
  5
257
330
233
100
AcDbEntity
  8
0
  6
Continuous
 62
     7
100
AcDbLine
 10
138.5262036029
 20
54.17777242999999
 30
0.0
 11
139.6052260904
 21
55.2567949176
 31
0.0
  0
LINE
  5
258
330
233
100
AcDbEntity
  8
0
  6
Continuous
 62
     7
100
AcDbLine
 10
135.655285029
 20
51.9102516427
 30
0.0
 11
137.1962888437
 21
53.4512554575
 31
0.0
  0
LINE
  5
259
330
233
100
AcDbEntity
  8
0
  6
Continuous
 62
     7
100
AcDbLine
 10
138.4357565489
 20
54.69072316270001
 30
0.0
 11
139.5147790365
 21
55.76974565020001
 31
0.0
  0
LINE
  5
25A
330
233
100
AcDbEntity
  8
0
  6
Continuous
 62
     7
100
AcDbLine
 10
134.9227154625
 20
51.7810798629
 30
0.0
 11
136.4637192773
 21
53.3220836777
 31
0.0
  0
LINE
  5
25B
330
233
100
AcDbEntity
  8
0
  6
Continuous
 62
     7
100
AcDbLine
 10
138.345309495
 20
55.2036738954
 30
0.0
 11
139.4243319825
 21
56.28269638289999
 31
0.0
  0
LINE
  5
25C
330
233
100
AcDbEntity
  8
0
  6
Continuous
 62
     7
100
AcDbLine
 10
134.1901458961
 20
51.65190808310001
 30
0.0
 11
135.7311497109
 21
53.1929118979
 31
0.0
  0
LINE
  5
25D
330
233
100
AcDbEntity
  8
0
  6
Continuous
 62
     7
100
AcDbLine
 10
138.2548624411
 20
55.716624628
 30
0.0
 11
139.3338849286
 21
56.79564711560001
 31
0.0
  0
LINE
  5
25E
330
233
100
AcDbEntity
  8
0
  6
Continuous
 62
     7
100
AcDbLine
 10
133.4575763297
 20
51.5227363033
 30
0.0
 11
134.9985801445
 21
53.0637401181
 31
0.0
  0
LINE
  5
25F
330
233
100
AcDbEntity
  8
0
  6
Continuous
 62
     7
100
AcDbLine
 10
138.1644153871
 20
56.2295753607
 30
0.0
 11
139.2434378746
 21
57.30859784819999
 31
0.0
  0
LINE
  5
260
330
233
100
AcDbEntity
  8
0
  6
Continuous
 62
     7
100
AcDbLine
 10
132.7250067633
 20
51.3935645235
 30
0.0
 11
134.2660105781
 21
52.93456833829999
 31
0.0
  0
LINE
  5
261
330
233
100
AcDbEntity
  8
0
  6
Continuous
 62
     7
100
AcDbLine
 10
138.0739683332
 20
56.7425260934
 30
0.0
 11
139.1529908207
 21
57.8215485809
 31
0.0
  0
LINE
  5
262
330
233
100
AcDbEntity
  8
0
  6
Continuous
 62
     7
100
AcDbLine
 10
131.9924371969
 20
51.2643927437
 30
0.0
 11
133.5334410117
 21
52.80539655850001
 31
0.0
  0
LINE
  5
263
330
233
100
AcDbEntity
  8
0
  6
Continuous
 62
     7
100
AcDbLine
 10
137.9835212792
 20
57.25547682609999
 30
0.0
 11
139.0625437667
 21
58.3344993136
 31
0.0
  0
LINE
  5
264
330
233
100
AcDbEntity
  8
0
  6
Continuous
 62
     7
100
AcDbLine
 10
131.2598676305
 20
51.1352209639
 30
0.0
 11
132.8008714452
 21
52.67622477869999
 31
0.0
  0
LINE
  5
265
330
233
100
AcDbEntity
  8
0
  6
Continuous
 62
     7
100
AcDbLine
 10
137.8930742253
 20
57.76842755869999
 30
0.0
 11
138.9720967128
 21
58.8474500462
 31
0.0
  0
LINE
  5
266
330
233
100
AcDbEntity
  8
0
  6
Continuous
 62
     7
100
AcDbLine
 10
130.527298064
 20
51.0060491841
 30
0.0
 11
132.0683018788
 21
52.5470529989
 31
0.0
  0
LINE
  5
267
330
233
100
AcDbEntity
  8
0
  6
Continuous
 62
     7
100
AcDbLine
 10
137.8026271713
 20
58.28137829140001
 30
0.0
 11
138.8816496589
 21
59.3604007789
 31
0.0
  0
LINE
  5
268
330
233
100
AcDbEntity
  8
0
  6
Continuous
 62
     7
100
AcDbLine
 10
129.7947284976
 20
50.8768774043
 30
0.0
 11
131.3357323124
 21
52.41788121909999
 31
0.0
  0
LINE
  5
269
330
233
100
AcDbEntity
  8
0
  6
Continuous
 62
     7
100
AcDbLine
 10
137.4997475715
 20
58.58189647819999
 30
0.0
 11
138.7912026049
 21
59.87335151159999
 31
0.0
  0
LINE
  5
26A
330
233
100
AcDbEntity
  8
0
  6
Continuous
 62
     7
100
AcDbLine
 10
129.0621589312
 20
50.7477056245
 30
0.0
 11
130.603162746
 21
52.2887094393
 31
0.0
  0
LINE
  5
26B
330
233
100
AcDbEntity
  8
0
  6
Continuous
 62
     7
100
AcDbLine
 10
136.7671780051
 20
58.45272469840001
 30
0.0
 11
138.700755551
 21
60.3863022442
 31
0.0
  0
LINE
  5
26C
330
233
100
AcDbEntity
  8
0
  6
Continuous
 62
     7
100
AcDbLine
 10
128.3295893648
 20
50.6185338447
 30
0.0
 11
129.8705931796
 21
52.1595376595
 31
0.0
  0
LINE
  5
26D
330
233
100
AcDbEntity
  8
0
  6
Continuous
 62
     7
100
AcDbLine
 10
136.0346084387
 20
58.32355291859999
 30
0.0
 11
137.0619507369
 21
59.35089521680001
 31
0.0
  0
LINE
  5
26E
330
233
100
AcDbEntity
  8
0
  6
Continuous
 62
     7
100
AcDbLine
 10
137.5312860095
 20
59.8202304894
 30
0.0
 11
138.610308497
 21
60.89925297689999
 31
0.0
  0
LINE
  5
26F
330
233
100
AcDbEntity
  8
0
  6
Continuous
 62
     7
100
AcDbLine
 10
127.5970197984
 20
50.4893620649
 30
0.0
 11
129.1380236131
 21
52.0303658797
 31
0.0
  0
LINE
  5
270
330
233
100
AcDbEntity
  8
0
  6
Continuous
 62
     7
100
AcDbLine
 10
135.3020388723
 20
58.1943811388
 30
0.0
 11
136.3293809609
 21
59.22172322739999
 31
0.0
  0
LINE
  5
271
330
233
100
AcDbEntity
  8
0
  6
Continuous
 62
     7
100
AcDbLine
 10
137.4408389556
 20
60.3331812221
 30
0.0
 11
138.5198614431
 21
61.4122037096
 31
0.0
  0
LINE
  5
272
330
233
100
AcDbEntity
  8
0
  6
Continuous
 62
     7
100
AcDbLine
 10
126.864450232
 20
50.36019028510001
 30
0.0
 11
128.4054540467
 21
51.90119409979999
 31
0.0
  0
LINE
  5
273
330
233
100
AcDbEntity
  8
0
  6
Continuous
 62
     7
100
AcDbLine
 10
134.5694693058
 20
58.065209359
 30
0.0
 11
135.5968111849
 21
59.092551238
 31
0.0
  0
LINE
  5
274
330
233
100
AcDbEntity
  8
0
  6
Continuous
 62
     7
100
AcDbLine
 10
137.3503919016
 20
60.84613195470001
 30
0.0
 11
138.4294143891
 21
61.9251544423
 31
0.0
  0
LINE
  5
275
330
233
100
AcDbEntity
  8
0
  6
Continuous
 62
     7
100
AcDbLine
 10
126.1318806655
 20
50.2310185053
 30
0.0
 11
127.6728844803
 21
51.77202231999999
 31
0.0
  0
LINE
  5
276
330
233
100
AcDbEntity
  8
0
  6
Continuous
 62
     7
100
AcDbLine
 10
133.8368997394
 20
57.93603757909999
 30
0.0
 11
134.8642414088
 21
58.9633792486
 31
0.0
  0
LINE
  5
277
330
233
100
AcDbEntity
  8
0
  6
Continuous
 62
     7
100
AcDbLine
 10
137.2599448477
 20
61.35908268739999
 30
0.0
 11
138.3389673352
 21
62.4381051749
 31
0.0
  0
LINE
  5
278
330
233
100
AcDbEntity
  8
0
  6
Continuous
 62
     7
100
AcDbLine
 10
125.3993110991
 20
50.1018467255
 30
0.0
 11
126.9403149139
 21
51.6428505402
 31
0.0
  0
LINE
  5
279
330
233
100
AcDbEntity
  8
0
  6
Continuous
 62
     7
100
AcDbLine
 10
133.104330173
 20
57.80686579930001
 30
0.0
 11
134.1316716328
 21
58.8342072592
 31
0.0
  0
LINE
  5
27A
330
233
100
AcDbEntity
  8
0
  6
Continuous
 62
     7
100
AcDbLine
 10
137.1694977937
 20
61.8720334201
 30
0.0
 11
138.2485202812
 21
62.9510559076
 31
0.0
  0
LINE
  5
27B
330
233
100
AcDbEntity
  8
0
  6
Continuous
 62
     7
100
AcDbLine
 10
124.6667415327
 20
49.97267494569999
 30
0.0
 11
126.2077453475
 21
51.5136787604
 31
0.0
  0
LINE
  5
27C
330
233
100
AcDbEntity
  8
0
  6
Continuous
 62
     7
100
AcDbLine
 10
132.3717606066
 20
57.67769401949999
 30
0.0
 11
133.3991018568
 21
58.70503526970001
 31
0.0
  0
LINE
  5
27D
330
233
100
AcDbEntity
  8
0
  6
Continuous
 62
     7
100
AcDbLine
 10
137.0790507398
 20
62.38498415270001
 30
0.0
 11
138.1580732273
 21
63.46400664029999
 31
0.0
  0
LINE
  5
27E
330
233
100
AcDbEntity
  8
0
  6
Continuous
 62
     7
100
AcDbLine
 10
123.9341719663
 20
49.8435031658
 30
0.0
 11
125.4751757811
 21
51.3845069806
 31
0.0
  0
LINE
  5
27F
330
233
100
AcDbEntity
  8
0
  6
Continuous
 62
     7
100
AcDbLine
 10
131.6391910402
 20
57.54852223970001
 30
0.0
 11
132.6665320808
 21
58.5758632803
 31
0.0
  0
LINE
  5
280
330
233
100
AcDbEntity
  8
0
  6
Continuous
 62
     7
100
AcDbLine
 10
136.9886036858
 20
62.89793488539999
 30
0.0
 11
138.0676261734
 21
63.9769573729
 31
0.0
  0
LINE
  5
281
330
233
100
AcDbEntity
  8
0
  6
Continuous
 62
     7
100
AcDbLine
 10
123.2016023999
 20
49.71433138600001
 30
0.0
 11
124.7426062146
 21
51.2553352008
 31
0.0
  0
LINE
  5
282
330
233
100
AcDbEntity
  8
0
  6
Continuous
 62
     7
100
AcDbLine
 10
130.9066214737
 20
57.4193504599
 30
0.0
 11
131.9339623047
 21
58.4466912909
 31
0.0
  0
LINE
  5
283
330
233
100
AcDbEntity
  8
0
  6
Continuous
 62
     7
100
AcDbLine
 10
136.8981566319
 20
63.4108856181
 30
0.0
 11
137.9771791194
 21
64.48990810560001
 31
0.0
  0
LINE
  5
284
330
233
100
AcDbEntity
  8
0
  6
Continuous
 62
     7
100
AcDbLine
 10
122.4690328334
 20
49.5851596062
 30
0.0
 11
124.0100366482
 21
51.126163421
 31
0.0
  0
LINE
  5
285
330
233
100
AcDbEntity
  8
0
  6
Continuous
 62
     7
100
AcDbLine
 10
130.1740519073
 20
57.2901786801
 30
0.0
 11
131.2013925287
 21
58.3175193015
 31
0.0
  0
LINE
  5
286
330
233
100
AcDbEntity
  8
0
  6
Continuous
 62
     7
100
AcDbLine
 10
136.807709578
 20
63.9238363507
 30
0.0
 11
137.8867320655
 21
65.0028588383
 31
0.0
  0
LINE
  5
287
330
233
100
AcDbEntity
  8
0
  6
Continuous
 62
     7
100
AcDbLine
 10
121.736463267
 20
49.45598782640001
 30
0.0
 11
123.2774670818
 21
50.9969916412
 31
0.0
  0
LINE
  5
288
330
233
100
AcDbEntity
  8
0
  6
Continuous
 62
     7
100
AcDbLine
 10
129.4414823409
 20
57.1610069003
 30
0.0
 11
130.4688227527
 21
58.18834731209999
 31
0.0
  0
LINE
  5
289
330
233
100
AcDbEntity
  8
0
  6
Continuous
 62
     7
100
AcDbLine
 10
136.6328334765
 20
64.3523580359
 30
0.0
 11
137.7962850115
 21
65.5158095709
 31
0.0
  0
LINE
  5
28A
330
233
100
AcDbEntity
  8
0
  6
Continuous
 62
     7
100
AcDbLine
 10
121.0038937006
 20
49.3268160466
 30
0.0
 11
122.5448975154
 21
50.8678198614
 31
0.0
  0
LINE
  5
28B
330
233
100
AcDbEntity
  8
0
  6
Continuous
 62
     7
100
AcDbLine
 10
128.7089127745
 20
57.03183512049999
 30
0.0
 11
129.7362529766
 21
58.05917532270001
 31
0.0
  0
LINE
  5
28C
330
233
100
AcDbEntity
  8
0
  6
Continuous
 62
     7
100
AcDbLine
 10
135.9002639101
 20
64.22318625609999
 30
0.0
 11
137.4412677249
 21
65.7641900709
 31
0.0
  0
LINE
  5
28D
330
233
100
AcDbEntity
  8
0
  6
Continuous
 62
     7
100
AcDbLine
 10
120.2713241342
 20
49.1976442668
 30
0.0
 11
121.812327949
 21
50.73864808159999
 31
0.0
  0
LINE
  5
28E
330
233
100
AcDbEntity
  8
0
  6
Continuous
 62
     7
100
AcDbLine
 10
127.9763432081
 20
56.90266334069999
 30
0.0
 11
129.0036832006
 21
57.9300033332
 31
0.0
  0
LINE
  5
28F
330
233
100
AcDbEntity
  8
0
  6
Continuous
 62
     7
100
AcDbLine
 10
135.1676943437
 20
64.0940144763
 30
0.0
 11
136.7086981585
 21
65.63501829109999
 31
0.0
  0
LINE
  5
290
330
233
100
AcDbEntity
  8
0
  6
Continuous
 62
     7
100
AcDbLine
 10
119.5387545678
 20
49.068472487
 30
0.0
 11
121.0797583825
 21
50.6094763018
 31
0.0
  0
LINE
  5
291
330
233
100
AcDbEntity
  8
0
  6
Continuous
 62
     7
100
AcDbLine
 10
127.2437736417
 20
56.7734915609
 30
0.0
 11
128.2711134246
 21
57.80083134379999
 31
0.0
  0
LINE
  5
292
330
233
100
AcDbEntity
  8
0
  6
Continuous
 62
     7
100
AcDbLine
 10
134.4351247773
 20
63.96484269649999
 30
0.0
 11
135.9761285921
 21
65.50584651130001
 31
0.0
  0
LINE
  5
293
330
233
100
AcDbEntity
  8
0
  6
Continuous
 62
     7
100
AcDbLine
 10
118.8061850014
 20
48.9393007072
 30
0.0
 11
120.3471888161
 21
50.48030452199999
 31
0.0
  0
LINE
  5
294
330
233
100
AcDbEntity
  8
0
  6
Continuous
 62
     7
100
AcDbLine
 10
126.5112040752
 20
56.64431978109999
 30
0.0
 11
127.5385436486
 21
57.6716593544
 31
0.0
  0
LINE
  5
295
330
233
100
AcDbEntity
  8
0
  6
Continuous
 62
     7
100
AcDbLine
 10
133.7025552109
 20
63.8356709167
 30
0.0
 11
135.2435590256
 21
65.3766747315
 31
0.0
  0
LINE
  5
296
330
233
100
AcDbEntity
  8
0
  6
Continuous
 62
     7
100
AcDbLine
 10
118.0736154349
 20
48.8101289274
 30
0.0
 11
119.6146192497
 21
50.3511327422
 31
0.0
  0
LINE
  5
297
330
233
100
AcDbEntity
  8
0
  6
Continuous
 62
     7
100
AcDbLine
 10
125.7786345088
 20
56.5151480013
 30
0.0
 11
126.8059738725
 21
57.542487365
 31
0.0
  0
LINE
  5
298
330
233
100
AcDbEntity
  8
0
  6
Continuous
 62
     7
100
AcDbLine
 10
132.9699856444
 20
63.70649913689999
 30
0.0
 11
134.5109894592
 21
65.2475029517
 31
0.0
  0
LINE
  5
299
330
233
100
AcDbEntity
  8
0
  6
Continuous
 62
     7
100
AcDbLine
 10
117.3410458685
 20
48.6809571476
 30
0.0
 11
118.8820496833
 21
50.2219609624
 31
0.0
  0
LINE
  5
29A
330
233
100
AcDbEntity
  8
0
  6
Continuous
 62
     7
100
AcDbLine
 10
125.0460649424
 20
56.38597622149999
 30
0.0
 11
126.0734040965
 21
57.4133153756
 31
0.0
  0
LINE
  5
29B
330
233
100
AcDbEntity
  8
0
  6
Continuous
 62
     7
100
AcDbLine
 10
132.237416078
 20
63.5773273571
 30
0.0
 11
133.7784198928
 21
65.1183311719
 31
0.0
  0
LINE
  5
29C
330
233
100
AcDbEntity
  8
0
  6
Continuous
 62
     7
100
AcDbLine
 10
116.6084763021
 20
48.5517853678
 30
0.0
 11
118.1494801169
 21
50.0927891826
 31
0.0
  0
LINE
  5
29D
330
233
100
AcDbEntity
  8
0
  6
Continuous
 62
     7
100
AcDbLine
 10
124.313495376
 20
56.2568044417
 30
0.0
 11
125.3408343205
 21
57.2841433862
 31
0.0
  0
LINE
  5
29E
330
233
100
AcDbEntity
  8
0
  6
Continuous
 62
     7
100
AcDbLine
 10
131.5048465116
 20
63.44815557729999
 30
0.0
 11
133.0458503264
 21
64.9891593921
 31
0.0
  0
LINE
  5
29F
330
233
100
AcDbEntity
  8
0
  6
Continuous
 62
     7
100
AcDbLine
 10
115.8759067357
 20
48.422613588
 30
0.0
 11
117.4169105505
 21
49.9636174028
 31
0.0
  0
LINE
  5
2A0
330
233
100
AcDbEntity
  8
0
  6
Continuous
 62
     7
100
AcDbLine
 10
123.5809258096
 20
56.12763266189999
 30
0.0
 11
124.6082645444
 21
57.1549713968
 31
0.0
  0
LINE
  5
2A1
330
233
100
AcDbEntity
  8
0
  6
Continuous
 62
     7
100
AcDbLine
 10
130.7722769452
 20
63.31898379750001
 30
0.0
 11
132.31328076
 21
64.85998761229999
 31
0.0
  0
LINE
  5
2A2
330
233
100
AcDbEntity
  8
0
  6
Continuous
 62
     7
100
AcDbLine
 10
115.1433371693
 20
48.29344180819999
 30
0.0
 11
116.684340984
 21
49.834445623
 31
0.0
  0
LINE
  5
2A3
330
233
100
AcDbEntity
  8
0
  6
Continuous
 62
     7
100
AcDbLine
 10
122.8483562431
 20
55.9984608821
 30
0.0
 11
123.8756947684
 21
57.02579940729999
 31
0.0
  0
LINE
  5
2A4
330
233
100
AcDbEntity
  8
0
  6
Continuous
 62
     7
100
AcDbLine
 10
130.0397073788
 20
63.1898120177
 30
0.0
 11
131.5807111936
 21
64.73081583249999
 31
0.0
  0
LINE
  5
2A5
330
233
100
AcDbEntity
  8
0
  6
Continuous
 62
     7
100
AcDbLine
 10
114.5920163967
 20
48.34551882229999
 30
0.0
 11
115.9517714176
 21
49.7052738432
 31
0.0
  0
LINE
  5
2A6
330
233
100
AcDbEntity
  8
0
  6
Continuous
 62
     7
100
AcDbLine
 10
122.1157866767
 20
55.8692891023
 30
0.0
 11
123.1431249924
 21
56.8966274179
 31
0.0
  0
LINE
  5
2A7
330
233
100
AcDbEntity
  8
0
  6
Continuous
 62
     7
100
AcDbLine
 10
129.3071378124
 20
63.0606402379
 30
0.0
 11
130.8481416271
 21
64.60164405270001
 31
0.0
  0
LINE
  5
2A8
330
233
100
AcDbEntity
  8
0
  6
Continuous
 62
     7
100
AcDbLine
 10
114.5015693428
 20
48.85846955489999
 30
0.0
 11
115.5805918303
 21
49.9374920425
 31
0.0
  0
LINE
  5
2A9
330
233
100
AcDbEntity
  8
0
  6
Continuous
 62
     7
100
AcDbLine
 10
121.3832171103
 20
55.74011732249999
 30
0.0
 11
122.4105552164
 21
56.7674554285
 31
0.0
  0
LINE
  5
2AA
330
233
100
AcDbEntity
  8
0
  6
Continuous
 62
     7
100
AcDbLine
 10
128.5745682459
 20
62.9314684581
 30
0.0
 11
130.1155720607
 21
64.4724722729
 31
0.0
  0
LINE
  5
2AB
330
233
100
AcDbEntity
  8
0
  6
Continuous
 62
     7
100
AcDbLine
 10
114.4111222889
 20
49.3714202876
 30
0.0
 11
115.4901447764
 21
50.4504427751
 31
0.0
  0
LINE
  5
2AC
330
233
100
AcDbEntity
  8
0
  6
Continuous
 62
     7
100
AcDbLine
 10
120.6506475439
 20
55.6109455427
 30
0.0
 11
121.6779854403
 21
56.6382834391
 31
0.0
  0
LINE
  5
2AD
330
233
100
AcDbEntity
  8
0
  6
Continuous
 62
     7
100
AcDbLine
 10
127.8419986795
 20
62.80229667829999
 30
0.0
 11
129.3830024943
 21
64.3433004931
 31
0.0
  0
LINE
  5
2AE
330
233
100
AcDbEntity
  8
0
  6
Continuous
 62
     7
100
AcDbLine
 10
114.3206752349
 20
49.88437102029999
 30
0.0
 11
115.3996977224
 21
50.9633935078
 31
0.0
  0
LINE
  5
2AF
330
233
100
AcDbEntity
  8
0
  6
Continuous
 62
     7
100
AcDbLine
 10
119.9180779775
 20
55.48177376279999
 30
0.0
 11
120.9454156643
 21
56.5091114497
 31
0.0
  0
LINE
  5
2B0
330
233
100
AcDbEntity
  8
0
  6
Continuous
 62
     7
100
AcDbLine
 10
127.1094291131
 20
62.67312489850001
 30
0.0
 11
128.6504329279
 21
64.2141287132
 31
0.0
  0
LINE
  5
2B1
330
233
100
AcDbEntity
  8
0
  6
Continuous
 62
     7
100
AcDbLine
 10
114.230228181
 20
50.3973217529
 30
0.0
 11
115.3092506685
 21
51.4763442405
 31
0.0
  0
LINE
  5
2B2
330
233
100
AcDbEntity
  8
0
  6
Continuous
 62
     7
100
AcDbLine
 10
119.1855084111
 20
55.352601983
 30
0.0
 11
120.2128458883
 21
56.37993946029999
 31
0.0
  0
LINE
  5
2B3
330
233
100
AcDbEntity
  8
0
  6
Continuous
 62
     7
100
AcDbLine
 10
126.3768595467
 20
62.54395311869999
 30
0.0
 11
127.9178633615
 21
64.0849569334
 31
0.0
  0
LINE
  5
2B4
330
233
100
AcDbEntity
  8
0
  6
Continuous
 62
     7
100
AcDbLine
 10
114.139781127
 20
50.9102724856
 30
0.0
 11
115.2188036145
 21
51.9892949731
 31
0.0
  0
LINE
  5
2B5
330
233
100
AcDbEntity
  8
0
  6
Continuous
 62
     7
100
AcDbLine
 10
118.4529388446
 20
55.2234302032
 30
0.0
 11
119.4802761122
 21
56.2507674708
 31
0.0
  0
LINE
  5
2B6
330
233
100
AcDbEntity
  8
0
  6
Continuous
 62
     7
100
AcDbLine
 10
125.6442899803
 20
62.41478133890001
 30
0.0
 11
127.185293795
 21
63.9557851536
 31
0.0
  0
LINE
  5
2B7
330
233
100
AcDbEntity
  8
0
  6
Continuous
 62
     7
100
AcDbLine
 10
114.0493340731
 20
51.4232232183
 30
0.0
 11
115.1283565606
 21
52.5022457058
 31
0.0
  0
LINE
  5
2B8
330
233
100
AcDbEntity
  8
0
  6
Continuous
 62
     7
100
AcDbLine
 10
117.7203692782
 20
55.0942584234
 30
0.0
 11
118.7477063362
 21
56.1215954814
 31
0.0
  0
LINE
  5
2B9
330
233
100
AcDbEntity
  8
0
  6
Continuous
 62
     7
100
AcDbLine
 10
124.9117204139
 20
62.28560955909999
 30
0.0
 11
126.4527242286
 21
63.8266133738
 31
0.0
  0
LINE
  5
2BA
330
233
100
AcDbEntity
  8
0
  6
Continuous
 62
     7
100
AcDbLine
 10
113.9588870191
 20
51.936173951
 30
0.0
 11
115.0379095067
 21
53.0151964385
 31
0.0
  0
LINE
  5
2BB
330
233
100
AcDbEntity
  8
0
  6
Continuous
 62
     7
100
AcDbLine
 10
116.9877997118
 20
54.9650866436
 30
0.0
 11
118.0151365602
 21
55.992423492
 31
0.0
  0
LINE
  5
2BC
330
233
100
AcDbEntity
  8
0
  6
Continuous
 62
     7
100
AcDbLine
 10
124.1791508474
 20
62.15643777930001
 30
0.0
 11
125.7201546622
 21
63.69744159399999
 31
0.0
  0
LINE
  5
2BD
330
233
100
AcDbEntity
  8
0
  6
Continuous
 62
     7
100
AcDbLine
 10
113.8684399652
 20
52.44912468359999
 30
0.0
 11
114.9474624527
 21
53.5281471711
 31
0.0
  0
LINE
  5
2BE
330
233
100
AcDbEntity
  8
0
  6
Continuous
 62
     7
100
AcDbLine
 10
116.2552301454
 20
54.83591486379999
 30
0.0
 11
117.2825667842
 21
55.8632515026
 31
0.0
  0
LINE
  5
2BF
330
233
100
AcDbEntity
  8
0
  6
Continuous
 62
     7
100
AcDbLine
 10
123.446581281
 20
62.0272659994
 30
0.0
 11
124.9875850958
 21
63.5682698142
 31
0.0
  0
LINE
  5
2C0
330
233
100
AcDbEntity
  8
0
  6
Continuous
 62
     7
100
AcDbLine
 10
113.7779929113
 20
52.9620754163
 30
0.0
 11
114.8570153988
 21
54.0410979038
 31
0.0
  0
LINE
  5
2C1
330
233
100
AcDbEntity
  8
0
  6
Continuous
 62
     7
100
AcDbLine
 10
115.522660579
 20
54.70674308399999
 30
0.0
 11
116.5499970081
 21
55.7340795132
 31
0.0
  0
LINE
  5
2C2
330
233
100
AcDbEntity
  8
0
  6
Continuous
 62
     7
100
AcDbLine
 10
122.7140117146
 20
61.89809421959999
 30
0.0
 11
124.2550155294
 21
63.43909803439999
 31
0.0
  0
LINE
  5
2C3
330
233
100
AcDbEntity
  8
0
  6
Continuous
 62
     7
100
AcDbLine
 10
113.6875458573
 20
53.47502614899999
 30
0.0
 11
114.7665683448
 21
54.5540486365
 31
0.0
  0
LINE
  5
2C4
330
233
100
AcDbEntity
  8
0
  6
Continuous
 62
     7
100
AcDbLine
 10
114.7900910126
 20
54.5775713042
 30
0.0
 11
115.8174272321
 21
55.6049075238
 31
0.0
  0
LINE
  5
2C5
330
233
100
AcDbEntity
  8
0
  6
Continuous
 62
     7
100
AcDbLine
 10
121.9814421482
 20
61.76892243979999
 30
0.0
 11
123.522445963
 21
63.3099262546
 31
0.0
  0
LINE
  5
2C6
330
233
100
AcDbEntity
  8
0
  6
Continuous
 62
     7
100
AcDbLine
 10
113.5970988034
 20
53.9879768816
 30
0.0
 11
115.0848574561
 21
55.4757355343
 31
0.0
  0
LINE
  5
2C7
330
233
100
AcDbEntity
  8
0
  6
Continuous
 62
     7
100
AcDbLine
 10
121.2488725818
 20
61.63975065999999
 30
0.0
 11
122.7898763965
 21
63.1807544748
 31
0.0
  0
LINE
  5
2C8
330
233
100
AcDbEntity
  8
0
  6
Continuous
 62
     7
100
AcDbLine
 10
113.5066517494
 20
54.5009276143
 30
0.0
 11
114.5856742369
 21
55.5799501018
 31
0.0
  0
LINE
  5
2C9
330
233
100
AcDbEntity
  8
0
  6
Continuous
 62
     7
100
AcDbLine
 10
120.5163030153
 20
61.51057888020001
 30
0.0
 11
122.0573068301
 21
63.051582695
 31
0.0
  0
LINE
  5
2CA
330
233
100
AcDbEntity
  8
0
  6
Continuous
 62
     7
100
AcDbLine
 10
113.4162046955
 20
55.013878347
 30
0.0
 11
114.495227183
 21
56.0929008345
 31
0.0
  0
LINE
  5
2CB
330
233
100
AcDbEntity
  8
0
  6
Continuous
 62
     7
100
AcDbLine
 10
119.7837334489
 20
61.3814071004
 30
0.0
 11
121.3247372637
 21
62.92241091520001
 31
0.0
  0
LINE
  5
2CC
330
233
100
AcDbEntity
  8
0
  6
Continuous
 62
     7
100
AcDbLine
 10
113.3257576415
 20
55.5268290796
 30
0.0
 11
114.404780129
 21
56.6058515672
 31
0.0
  0
LINE
  5
2CD
330
233
100
AcDbEntity
  8
0
  6
Continuous
 62
     7
100
AcDbLine
 10
119.0511638825
 20
61.25223532060001
 30
0.0
 11
120.5921676973
 21
62.7932391354
 31
0.0
  0
LINE
  5
2CE
330
233
100
AcDbEntity
  8
0
  6
Continuous
 62
     7
100
AcDbLine
 10
113.2353105876
 20
56.03977981229999
 30
0.0
 11
114.3143330751
 21
57.1188022998
 31
0.0
  0
LINE
  5
2CF
330
233
100
AcDbEntity
  8
0
  6
Continuous
 62
     7
100
AcDbLine
 10
118.3185943161
 20
61.1230635408
 30
0.0
 11
119.8595981309
 21
62.6640673556
 31
0.0
  0
LINE
  5
2D0
330
233
100
AcDbEntity
  8
0
  6
Continuous
 62
     7
100
AcDbLine
 10
113.1448635336
 20
56.552730545
 30
0.0
 11
114.2238860212
 21
57.6317530325
 31
0.0
  0
LINE
  5
2D1
330
233
100
AcDbEntity
  8
0
  6
Continuous
 62
     7
100
AcDbLine
 10
117.5860247497
 20
60.993891761
 30
0.0
 11
119.1270285644
 21
62.5348955758
 31
0.0
  0
LINE
  5
2D2
330
233
100
AcDbEntity
  8
0
  6
Continuous
 62
     7
100
AcDbLine
 10
113.0544164797
 20
57.0656812776
 30
0.0
 11
114.1334389672
 21
58.1447037652
 31
0.0
  0
LINE
  5
2D3
330
233
100
AcDbEntity
  8
0
  6
Continuous
 62
     7
100
AcDbLine
 10
116.8534551833
 20
60.8647199812
 30
0.0
 11
118.394458998
 21
62.405723796
 31
0.0
  0
LINE
  5
2D4
330
233
100
AcDbEntity
  8
0
  6
Continuous
 62
     7
100
AcDbLine
 10
112.9639694258
 20
57.5786320103
 30
0.0
 11
114.0429919133
 21
58.65765449779999
 31
0.0
  0
LINE
  5
2D5
330
233
100
AcDbEntity
  8
0
  6
Continuous
 62
     7
100
AcDbLine
 10
116.1208856168
 20
60.7355482014
 30
0.0
 11
117.6618894316
 21
62.2765520162
 31
0.0
  0
LINE
  5
2D6
330
233
100
AcDbEntity
  8
0
  6
Continuous
 62
     7
100
AcDbLine
 10
112.8735223718
 20
58.091582743
 30
0.0
 11
113.9525448593
 21
59.1706052305
 31
0.0
  0
LINE
  5
2D7
330
233
100
AcDbEntity
  8
0
  6
Continuous
 62
     7
100
AcDbLine
 10
115.3883160504
 20
60.60637642159999
 30
0.0
 11
116.9293198652
 21
62.1473802364
 31
0.0
  0
LINE
  5
2D8
330
233
100
AcDbEntity
  8
0
  6
Continuous
 62
     7
100
AcDbLine
 10
112.7830753179
 20
58.6045334757
 30
0.0
 11
113.8620978054
 21
59.6835559632
 31
0.0
  0
LINE
  5
2D9
330
233
100
AcDbEntity
  8
0
  6
Continuous
 62
     7
100
AcDbLine
 10
114.655746484
 20
60.4772046418
 30
0.0
 11
116.1967502988
 21
62.0182084566
 31
0.0
  0
LINE
  5
2DA
330
233
100
AcDbEntity
  8
0
  6
Continuous
 62
     7
100
AcDbLine
 10
112.6926282639
 20
59.1174842083
 30
0.0
 11
113.7716507514
 21
60.19650669579999
 31
0.0
  0
LINE
  5
2DB
330
233
100
AcDbEntity
  8
0
  6
Continuous
 62
     7
100
AcDbLine
 10
113.9231769176
 20
60.34803286199999
 30
0.0
 11
115.4641807324
 21
61.8890366768
 31
0.0
  0
LINE
  5
2DC
330
233
100
AcDbEntity
  8
0
  6
Continuous
 62
     7
100
AcDbLine
 10
112.60218121
 20
59.630434941
 30
0.0
 11
114.7316111659
 21
61.7598648969
 31
0.0
  0
LINE
  5
2DD
330
233
100
AcDbEntity
  8
0
  6
Continuous
 62
     7
100
AcDbLine
 10
112.511734156
 20
60.1433856737
 30
0.0
 11
113.9990415995
 21
61.6306931171
 31
0.0
  0
LINE
  5
2DE
330
233
100
AcDbEntity
  8
0
  6
Continuous
 62
     7
100
AcDbLine
 10
112.4212871021
 20
60.6563364063
 30
0.0
 11
113.2664720331
 21
61.50152133729999
 31
0.0
  0
LINE
  5
2DF
330
233
100
AcDbEntity
  8
0
  6
Continuous
 62
     7
100
AcDbLine
 10
112.3308400482
 20
61.169287139
 30
0.0
 11
112.5339024667
 21
61.3723495575
 31
0.0
  0
ENDBLK
  5
2E0
330
233
100
AcDbEntity
  8
0
  6
ByBlock
 62
     0
100
AcDbBlockEnd
  0
BLOCK
  5
2E1
330
234
100
AcDbEntity
  8
0
  6
Continuous
 62
     7
100
AcDbBlockBegin
  2
SYMBOL_0_BL0
 70
     0
 10
160.6665744185
 20
55.3333957601
 30
0.0
  3
SYMBOL_0_BL0
  1

  0
TEXT
  5
2E2
330
234
100
AcDbEntity
  8
0
  6
Continuous
 62
     7
100
AcDbText
 10
144.4187893423
 20
63.1068291512
 30
0.0
 40
0.5
  1
Infomations Techniques/Technical Infomations
  7
TEXTSTYLE_2
100
AcDbText
  0
TEXT
  5
2E3
330
234
100
AcDbEntity
  8
0
  6
Continuous
 62
     7
100
AcDbText
 10
144.6665744185
 20
61.6667290935
 30
0.0
 40
0.6666666667
  1
NOMBRE DE JETS:     
  7
TEXTSTYLE_2
100
AcDbText
  0
TEXT
  5
2E4
330
234
100
AcDbEntity
  8
0
  6
Continuous
 62
     7
100
AcDbText
 10
154.5110188629
 20
61.6667290935
 30
0.0
 40
0.6666666667
  1
35
  7
TEXTSTYLE_2
100
AcDbText
  0
TEXT
  5
2E5
330
234
100
AcDbEntity
  8
0
  6
Continuous
 62
     7
100
AcDbText
 10
144.6665744185
 20
60.6667290935
 30
0.0
 40
0.6666666667
  1
 
  7
TEXTSTYLE_2
100
AcDbText
  0
TEXT
  5
2E6
330
234
100
AcDbEntity
  8
0
  6
Continuous
 62
     7
100
AcDbText
 10
144.6665744185
 20
59.6667290935
 30
0.0
 40
0.6666666667
  1
NIVEAU D'EAU              GALLONS(US)        LITRES        GALLONS(UK)
  7
TEXTSTYLE_2
100
AcDbText
  0
TEXT
  5
2E7
330
234
100
AcDbEntity
  8
0
  6
Continuous
 62
     7
100
AcDbText
 10
144.6665744185
 20
58.6667290935
 30
0.0
 40
0.6666666667
  1
PLEIN
  7
TEXTSTYLE_2
100
AcDbText
  0
TEXT
  5
2E8
330
234
100
AcDbEntity
  8
0
  6
Continuous
 62
     7
100
AcDbText
 10
144.6665744185
 20
57.6667290935
 30
0.0
 40
0.6666666667
  1
HAUT T.PLEIN
  7
TEXTSTYLE_2
100
AcDbText
  0
TEXT
  5
2E9
330
234
100
AcDbEntity
  8
0
  6
Continuous
 62
     7
100
AcDbText
 10
144.6665744185
 20
56.6667290935
 30
0.0
 40
0.6666666667
  1
MILIEU T.PLEIN
  7
TEXTSTYLE_2
100
AcDbText
  0
TEXT
  5
2EA
330
234
100
AcDbEntity
  8
0
  6
Continuous
 62
     7
100
AcDbText
 10
144.6665744185
 20
55.6667290935
 30
0.0
 40
0.6666666667
  1
BAS T.PLEIN
  7
TEXTSTYLE_2
100
AcDbText
  0
TEXT
  5
2EB
330
234
100
AcDbEntity
  8
0
  6
Continuous
 62
     7
100
AcDbText
 10
144.6665744185
 20
54.6667290935
 30
0.0
 40
0.6666666667
  1
3" EN BAS T.PLEIN
  7
TEXTSTYLE_2
100
AcDbText
  0
TEXT
  5
2EC
330
234
100
AcDbEntity
  8
0
  6
Continuous
 62
     7
100
AcDbText
 10
144.6665744185
 20
53.6667290935
 30
0.0
 40
0.6666666667
  1
 
  7
TEXTSTYLE_2
100
AcDbText
  0
TEXT
  5
2ED
330
234
100
AcDbEntity
  8
0
  6
Continuous
 62
     7
100
AcDbText
 10
144.4664129129
 20
53.1199421686
 30
0.0
 40
0.5
  1
Legende/Legend
  7
TEXTSTYLE_2
100
AcDbText
  0
TEXT
  5
2EE
330
234
100
AcDbEntity
  8
0
  6
Continuous
 62
     7
100
AcDbText
 10
150.995247857
 20
51.6086771909
 30
0.0
 40
0.6666666667
  1
ZONE DE ROBINETTERIE
  7
TEXTSTYLE_2
100
AcDbText
  0
TEXT
  5
2EF
330
234
100
AcDbEntity
  8
0
  6
Continuous
 62
     7
100
AcDbText
 10
145.91552329
 20
50.1134326765
 30
0.0
 40
0.6666666667
  1
L   :  SYSTEME LED       DC   :  DOUBLE DOSSIER CHAUFFANT
  7
TEXTSTYLE_2
100
AcDbText
  0
TEXT
  5
2F0
330
234
100
AcDbEntity
  8
0
  6
Continuous
 62
     7
100
AcDbText
 10
145.91552329
 20
48.7800993432
 30
0.0
 40
0.6666666667
  1
C   :  CONTROLE
  7
TEXTSTYLE_2
100
AcDbText
  0
TEXT
  5
2F1
330
234
100
AcDbEntity
  8
0
  6
Continuous
 62
     7
100
AcDbText
 10
145.91552329
 20
47.4467660099
 30
0.0
 40
0.6666666667
  1
T   :  MOTEUR
  7
TEXTSTYLE_2
100
AcDbText
  0
TEXT
  5
2F2
330
234
100
AcDbEntity
  8
0
  6
Continuous
 62
     7
100
AcDbText
 10
157.4992711178
 20
58.6667290935
 30
0.0
 40
0.6666666667
  1
90
  7
TEXTSTYLE_2
100
AcDbText
  0
TEXT
  5
2F3
330
234
100
AcDbEntity
  8
0
  6
Continuous
 62
     7
100
AcDbText
 10
157.4992711178
 20
57.6667290935
 30
0.0
 40
0.6666666667
  1
69
  7
TEXTSTYLE_2
100
AcDbText
  0
TEXT
  5
2F4
330
234
100
AcDbEntity
  8
0
  6
Continuous
 62
     7
100
AcDbText
 10
157.4992711178
 20
56.6667290935
 30
0.0
 40
0.6666666667
  1
68
  7
TEXTSTYLE_2
100
AcDbText
  0
TEXT
  5
2F5
330
234
100
AcDbEntity
  8
0
  6
Continuous
 62
     7
100
AcDbText
 10
157.4992711178
 20
55.6667290935
 30
0.0
 40
0.6666666667
  1
66
  7
TEXTSTYLE_2
100
AcDbText
  0
TEXT
  5
2F6
330
234
100
AcDbEntity
  8
0
  6
Continuous
 62
     7
100
AcDbText
 10
157.4992711178
 20
54.6667290935
 30
0.0
 40
0.6666666667
  1
51
  7
TEXTSTYLE_2
100
AcDbText
  0
TEXT
  5
2F7
330
234
100
AcDbEntity
  8
0
  6
Continuous
 62
     7
100
AcDbText
 10
164.4194770615
 20
58.68380849560001
 30
0.0
 40
0.6666666667
  1
341
  7
TEXTSTYLE_2
100
AcDbText
  0
TEXT
  5
2F8
330
234
100
AcDbEntity
  8
0
  6
Continuous
 62
     7
100
AcDbText
 10
164.4194770615
 20
57.6838084956
 30
0.0
 40
0.6666666667
  1
260
  7
TEXTSTYLE_2
100
AcDbText
  0
TEXT
  5
2F9
330
234
100
AcDbEntity
  8
0
  6
Continuous
 62
     7
100
AcDbText
 10
164.4194770615
 20
56.6838084956
 30
0.0
 40
0.6666666667
  1
256
  7
TEXTSTYLE_2
100
AcDbText
  0
TEXT
  5
2FA
330
234
100
AcDbEntity
  8
0
  6
Continuous
 62
     7
100
AcDbText
 10
164.4194770615
 20
55.6838084956
 30
0.0
 40
0.6666666667
  1
251
  7
TEXTSTYLE_2
100
AcDbText
  0
TEXT
  5
2FB
330
234
100
AcDbEntity
  8
0
  6
Continuous
 62
     7
100
AcDbText
 10
164.4194770615
 20
54.6838084956
 30
0.0
 40
0.6666666667
  1
192
  7
TEXTSTYLE_2
100
AcDbText
  0
TEXT
  5
2FC
330
234
100
AcDbEntity
  8
0
  6
Continuous
 62
     7
100
AcDbText
 10
171.364115999
 20
58.6667290935
 30
0.0
 40
0.6666666667
  1
75
  7
TEXTSTYLE_2
100
AcDbText
  0
TEXT
  5
2FD
330
234
100
AcDbEntity
  8
0
  6
Continuous
 62
     7
100
AcDbText
 10
171.364115999
 20
57.6667290935
 30
0.0
 40
0.6666666667
  1
57
  7
TEXTSTYLE_2
100
AcDbText
  0
TEXT
  5
2FE
330
234
100
AcDbEntity
  8
0
  6
Continuous
 62
     7
100
AcDbText
 10
171.364115999
 20
56.6667290935
 30
0.0
 40
0.6666666667
  1
56
  7
TEXTSTYLE_2
100
AcDbText
  0
TEXT
  5
2FF
330
234
100
AcDbEntity
  8
0
  6
Continuous
 62
     7
100
AcDbText
 10
171.364115999
 20
55.6667290935
 30
0.0
 40
0.6666666667
  1
55
  7
TEXTSTYLE_2
100
AcDbText
  0
TEXT
  5
300
330
234
100
AcDbEntity
  8
0
  6
Continuous
 62
     7
100
AcDbText
 10
171.364115999
 20
54.6667290935
 30
0.0
 40
0.6666666667
  1
42
  7
TEXTSTYLE_2
100
AcDbText
  0
LINE
  5
301
330
234
100
AcDbEntity
  8
0
  6
Continuous
 62
     7
100
AcDbLine
 10
143.9999077518
 20
64.00006242679999
 30
0.0
 11
143.9999077518
 21
46.6667290935
 31
0.0
  0
LINE
  5
302
330
234
100
AcDbEntity
  8
0
  6
Continuous
 62
     7
100
AcDbLine
 10
143.9999077518
 20
64.00006242679999
 30
0.0
 11
177.3332410852
 21
64.00006242679999
 31
0.0
  0
LINE
  5
303
330
234
100
AcDbEntity
  8
0
  6
Continuous
 62
     7
100
AcDbLine
 10
177.3332410852
 20
64.00006242679999
 30
0.0
 11
177.3332410852
 21
46.6667290935
 31
0.0
  0
LINE
  5
304
330
234
100
AcDbEntity
  8
0
  6
Continuous
 62
     7
100
AcDbLine
 10
143.9999077518
 20
46.6667290935
 30
0.0
 11
177.3332410852
 21
46.6667290935
 31
0.0
  0
LINE
  5
305
330
234
100
AcDbEntity
  8
0
  6
Continuous
 62
     7
100
AcDbLine
 10
145.3332410852
 20
54.00006242679999
 30
0.0
 11
175.9999077518
 21
54.00006242679999
 31
0.0
  0
LINE
  5
306
330
234
100
AcDbEntity
  8
0
  6
Continuous
 62
     7
100
AcDbLine
 10
145.3332410852
 20
61.0000624268
 30
0.0
 11
175.9999077518
 21
61.0000624268
 31
0.0
  0
LINE
  5
307
330
234
100
AcDbEntity
  8
0
  6
Continuous
 62
     7
100
AcDbLine
 10
144.8088143111
 20
52.3782269312
 30
0.0
 11
144.4397935688
 21
52.0092061888
 31
0.0
  0
LINE
  5
308
330
234
100
AcDbEntity
  8
0
  6
Continuous
 62
     7
100
AcDbLine
 10
145.4754809778
 20
52.3782269312
 30
0.0
 11
144.6774651873
 21
51.58021114069999
 31
0.0
  0
LINE
  5
309
330
234
100
AcDbEntity
  8
0
  6
Continuous
 62
     7
100
AcDbLine
 10
146.1421476444
 20
52.3782269312
 30
0.0
 11
145.344131854
 21
51.58021114069999
 31
0.0
  0
LINE
  5
30A
330
234
100
AcDbEntity
  8
0
  6
Continuous
 62
     7
100
AcDbLine
 10
146.8088143111
 20
52.3782269312
 30
0.0
 11
146.0107985207
 21
51.58021114069999
 31
0.0
  0
LINE
  5
30B
330
234
100
AcDbEntity
  8
0
  6
Continuous
 62
     7
100
AcDbLine
 10
147.4754809778
 20
52.3782269312
 30
0.0
 11
146.6774651873
 21
51.58021114069999
 31
0.0
  0
LINE
  5
30C
330
234
100
AcDbEntity
  8
0
  6
Continuous
 62
     7
100
AcDbLine
 10
148.1421476444
 20
52.3782269312
 30
0.0
 11
147.344131854
 21
51.58021114069999
 31
0.0
  0
LINE
  5
30D
330
234
100
AcDbEntity
  8
0
  6
Continuous
 62
     7
100
AcDbLine
 10
148.8088143111
 20
52.3782269312
 30
0.0
 11
148.0107985207
 21
51.58021114069999
 31
0.0
  0
LINE
  5
30E
330
234
100
AcDbEntity
  8
0
  6
Continuous
 62
     7
100
AcDbLine
 10
149.4754809778
 20
52.3782269312
 30
0.0
 11
148.6774651873
 21
51.58021114069999
 31
0.0
  0
LINE
  5
30F
330
234
100
AcDbEntity
  8
0
  6
Continuous
 62
     7
100
AcDbLine
 10
150.1421476444
 20
52.3782269312
 30
0.0
 11
149.344131854
 21
51.58021114069999
 31
0.0
  0
LINE
  5
310
330
234
100
AcDbEntity
  8
0
  6
Continuous
 62
     7
100
AcDbLine
 10
150.5856350786
 20
52.15504769859999
 30
0.0
 11
150.0107985207
 21
51.58021114069999
 31
0.0
  0
ELLIPSE
  5
311
330
234
100
AcDbEntity
  8
0
  6
Continuous
 62
     7
100
AcDbEllipse
 10
146.145310234
 20
50.4310101337
 30
0.0
 11
1.0473539356
 21
0.0
 31
0.0
210
0.0
220
0.0
230
1.0
 40
0.4938647983
 41
0.0
 42
6.283185307179586
  0
ELLIPSE
  5
312
330
234
100
AcDbEntity
  8
0
  6
Continuous
 62
     7
100
AcDbEllipse
 10
146.145310234
 20
49.0976768004
 30
0.0
 11
1.0473539356
 21
0.0
 31
0.0
210
0.0
220
0.0
230
1.0
 40
0.4938647983
 41
0.0
 42
6.283185307179586
  0
ELLIPSE
  5
313
330
234
100
AcDbEntity
  8
0
  6
Continuous
 62
     7
100
AcDbEllipse
 10
146.145310234
 20
47.7643434671
 30
0.0
 11
1.0473539356
 21
0.0
 31
0.0
210
0.0
220
0.0
230
1.0
 40
0.4938647983
 41
0.0
 42
6.283185307179586
  0
ELLIPSE
  5
314
330
234
100
AcDbEntity
  8
0
  6
Continuous
 62
     7
100
AcDbEllipse
 10
157.1639458151
 20
50.4505314908
 30
0.0
 11
1.0473539356
 21
0.0
 31
0.0
210
0.0
220
0.0
230
1.0
 40
0.4938647983
 41
0.0
 42
6.283185307179586
  0
ENDBLK
  5
315
330
234
100
AcDbEntity
  8
0
  6
ByBlock
 62
     0
100
AcDbBlockEnd
  0
ENDSEC
  0
SECTION
  2
ENTITIES
  0
LWPOLYLINE
  5
439
330
21D
100
AcDbEntity
  8
DEFAULT_2
  6
HIDDEN
 62
     7
100
AcDbPolyline
 90
       17
 70
     0
 43
0.0
 10
22.9995752872
 20
50.5960251954
 10
23.2973643151
 20
50.1004249714
 10
23.7122923659
 20
49.4098814952
 10
23.9197419418
 20
49.0646018526
 10
24.1269633075
 20
48.71919528189999
 10
24.3338352444
 20
48.373585904
 10
24.5402969426
 20
48.02773322229999
 10
24.9520894321
 20
47.3353605881
 10
25.3624786042
 20
46.6421622016
 10
26.1793272029
 20
45.25344994060001
 10
26.9914848753
 20
43.86197349109999
 10
27.799624007
 20
42.46812971119999
 10
29.4064854734
 20
39.6748943846
 10
31.0051961305
 20
36.876856913
 10
32.6010489954
 20
34.0771358065
 10
34.1993345358
 20
31.2788479062
 10
34.7429967603
 20
30.3304866347
  0
LINE
  5
43F
330
21D
100
AcDbEntity
  8
DEFAULT_2
  6
HIDDEN
 62
     7
100
AcDbLine
 10
52.9997946374
 20
28.4156596701
 30
0.0
 11
53.3571205402
 21
28.0583337672
 31
0.0
  0
LWPOLYLINE
  5
442
330
21D
100
AcDbEntity
  8
DEFAULT_2
  6
HIDDEN
 62
     7
100
AcDbPolyline
 90
       61
 70
     0
 43
0.0
 10
52.8053438449
 20
44.49439032679999
 10
52.8054914147
 20
44.50499815759999
 10
52.805933915
 20
44.5155986497
 10
52.8066715304
 20
44.5261896277
 10
52.8077032251
 20
44.5367557815
 10
52.8090294733
 20
44.54730011689999
 10
52.8106479118
 20
44.5578036376
 10
52.8125601478
 20
44.56827478189999
 10
52.8147617887
 20
44.5786889072
 10
52.81725785249999
 20
44.589066641
 10
52.8200400147
 20
44.5993713697
 10
52.8231120108
 20
44.6096162426
 10
52.8264652358
 20
44.619772546
 10
52.83010525159999
 20
44.6298565731
 10
52.8340207183
 20
44.63983688009999
 10
52.8382228122
 20
44.6497405055
 10
52.8426941504
 20
44.6595255269
 10
52.8474517504
 20
44.66922724849999
 10
52.8524718741
 20
44.67879577149999
 10
52.8577665361
 20
44.6882537145
 10
52.8633154173
 20
44.69756478999999
 10
52.8691326563
 20
44.70675252199999
 10
52.87519508449999
 20
44.7157803553
 10
52.8815292891
 20
44.72468647529999
 10
52.8880997407
 20
44.73341976999999
 10
52.8949329856
 20
44.7420145571
 10
52.9019926738
 20
44.75042434449999
 10
52.9092984599
 20
44.75867252909999
 10
52.9168197551
 20
44.7667246881
 10
52.92457749909999
 20
44.7746032694
 10
52.93253934039999
 20
44.7822755478
 10
52.94074669909999
 20
44.7897800802
 10
52.94914721659999
 20
44.7970677545
 10
52.9577680917
 20
44.8041619581
 10
52.9665700386
 20
44.8110302209
 10
52.9755756225
 20
44.81769028609999
 10
52.9847496726
 20
44.82411631869999
 10
52.99411646020001
 20
44.8303253635
 10
53.0036389232
 20
44.8362929235
 10
53.01336121640001
 20
44.8420456643
 10
53.0232267588
 20
44.8475491363
 10
53.0332558983
 20
44.8528148777
 10
53.0434149569
 20
44.85782539279999
 10
53.0537226602
 20
44.8625901114
 10
53.0641468281
 20
44.86709434149999
 10
53.0747116438
 20
44.8713484008
 10
53.08537951499999
 20
44.8753370053
 10
53.0961773161
 20
44.8790698707
 10
53.1070647235
 20
44.882532704
 10
53.1180535232
 20
44.88572943779999
 10
53.12911818999999
 20
44.8886527971
 10
53.14026759549999
 20
44.89130529689999
 10
53.1514790957
 20
44.89368168529999
 10
53.1627659664
 20
44.895784642
 10
53.17410122510001
 20
44.8976089631
 10
53.18549063319999
 20
44.8991555858
 10
53.1969145611
 20
44.90042182189999
 10
53.2083716549
 20
44.90140765
 10
53.21984968329999
 20
44.90211207539999
 10
53.23134367379999
 20
44.9025348989
 10
53.2428438449
 20
44.9026758604
  0
LWPOLYLINE
  5
46A
330
21D
100
AcDbEntity
  8
DEFAULT_2
  6
HIDDEN
 62
     7
100
AcDbPolyline
 90
       61
 70
     0
 43
0.0
 10
56.8053438449
 20
44.49439032679999
 10
56.8051962751
 20
44.50499815759999
 10
56.8047537749
 20
44.5155986497
 10
56.8040161595
 20
44.5261896277
 10
56.80298446470001
 20
44.5367557815
 10
56.8016582166
 20
44.54730011689999
 10
56.80003977810001
 20
44.5578036376
 10
56.7981275421
 20
44.56827478189999
 10
56.7959259012
 20
44.5786889072
 10
56.79342983739999
 20
44.589066641
 10
56.7906476752
 20
44.5993713697
 10
56.7875756791
 20
44.6096162426
 10
56.7842224541
 20
44.619772546
 10
56.7805824382
 20
44.6298565731
 10
56.7766669715
 20
44.63983688009999
 10
56.7724648777
 20
44.6497405055
 10
56.76799353949999
 20
44.6595255269
 10
56.7632359395
 20
44.66922724849999
 10
56.7582158157
 20
44.67879577149999
 10
56.7529211538
 20
44.6882537145
 10
56.7473722725
 20
44.69756478999999
 10
56.7415550335
 20
44.70675252199999
 10
56.73549260529999
 20
44.7157803553
 10
56.72915840079999
 20
44.72468647529999
 10
56.7225879491
 20
44.73341976999999
 10
56.7157547042
 20
44.7420145571
 10
56.70869501609999
 20
44.75042434449999
 10
56.70138922999999
 20
44.75867252909999
 10
56.6938679348
 20
44.7667246881
 10
56.6861101908
 20
44.7746032694
 10
56.67814834939999
 20
44.7822755478
 10
56.6699409907
 20
44.7897800802
 10
56.6615404732
 20
44.7970677545
 10
56.6529195982
 20
44.8041619581
 10
56.6441176512
 20
44.8110302209
 10
56.63511206739999
 20
44.81769028609999
 10
56.62593801729999
 20
44.82411631869999
 10
56.6165712297
 20
44.8303253635
 10
56.6070487666
 20
44.8362929235
 10
56.59732647350001
 20
44.8420456643
 10
56.587460931
 20
44.8475491363
 10
56.57743179149999
 20
44.8528148777
 10
56.567272733
 20
44.85782539279999
 10
56.5569650297
 20
44.8625901114
 10
56.5465408618
 20
44.86709434149999
 10
56.535976046
 20
44.8713484008
 10
56.52530817489999
 20
44.8753370053
 10
56.5145103737
 20
44.8790698707
 10
56.5036229663
 20
44.882532704
 10
56.4926341667
 20
44.88572943779999
 10
56.48156949979999
 20
44.8886527971
 10
56.47042009439999
 20
44.89130529689999
 10
56.4592085941
 20
44.89368168529999
 10
56.4479217234
 20
44.895784642
 10
56.4365864647
 20
44.8976089631
 10
56.4251970567
 20
44.8991555858
 10
56.4137731288
 20
44.90042182189999
 10
56.402316035
 20
44.90140765
 10
56.39083800659999
 20
44.90211207539999
 10
56.37934401609999
 20
44.9025348989
 10
56.3678438449
 20
44.9026758604
  0
LINE
  5
4DA
330
21D
100
AcDbEntity
  8
DEFAULT_2
  6
HIDDEN
 62
     7
100
AcDbLine
 10
36.819471055
 20
29.0767005865
 30
0.0
 11
52.8321917419
 21
28.4887146009
 31
0.0
  0
LINE
  5
52A
330
21D
100
AcDbEntity
  8
DEFAULT_2
  6
HIDDEN
 62
     7
100
AcDbLine
 10
56.7784959479
 20
28.4887146009
 30
0.0
 11
72.79121663479999
 21
29.0767005865
 31
0.0
  0
LINE
  5
539
330
21D
100
AcDbEntity
  8
DEFAULT_2
  6
HIDDEN
 62
     7
100
AcDbLine
 10
53.5338972355
 20
27.9851104625
 30
0.0
 11
56.0767904543
 21
27.9851104625
 31
0.0
  0
LWPOLYLINE
  5
5C2
330
21D
100
AcDbEntity
  8
DEFAULT_2
  6
HIDDEN
 62
     7
100
AcDbPolyline
 90
      121
 70
     0
 43
0.0
 10
56.3678438449
 20
44.0823895891
 10
56.37929530960001
 20
44.08252758009999
 10
56.3907408258
 20
44.08294150409999
 10
56.4021680071
 20
44.0836309168
 10
56.41357504760001
 20
44.0845957362
 10
56.4249460847
 20
44.0858345684
 10
56.43628392340001
 20
44.0873477513
 10
56.4475678412
 20
44.0891324992
 10
56.4588052097
 20
44.0911900064
 10
56.4699710957
 20
44.09351567659999
 10
56.4810771772
 20
44.0961119701
 10
56.49209450819999
 20
44.0989720954
 10
56.50303877999999
 20
44.10210015159999
 10
56.51387743949999
 20
44.10548681069999
 10
56.5246298229
 20
44.10913813779999
 10
56.5352601995
 20
44.11304197879999
 10
56.5457911263
 20
44.11720663789999
 10
56.5561841885
 20
44.121616906
 10
56.56646468859999
 20
44.12628353689999
 10
56.57659206369999
 20
44.1311881049
 10
56.5865938449
 20
44.1363439555
 10
56.59642789399999
 20
44.14172935869999
 10
56.6061234228
 20
44.1473603189
 10
56.6156373141
 20
44.1532117926
 10
56.6249998928
 20
44.1593024319
 10
56.6341676729
 20
44.1656039527
 10
56.643171516
 20
44.17213756209999
 10
56.6519681775
 20
44.1788718921
 10
56.6605884852
 20
44.1858305293
 10
56.6689900328
 20
44.1929792631
 10
56.6772030617
 20
44.20034380199999
 10
56.6851865749
 20
44.2078874164
 10
56.69296970609999
 20
44.21563760029999
 10
56.70051339909999
 20
44.22355550699999
 10
56.7078452031
 20
44.231670005
 10
56.71492848149999
 20
44.239940605
 10
56.72178878
 20
44.24839707229999
 10
56.7283922949
 20
44.25699781319999
 10
56.7347622184
 20
44.2657729546
 10
56.7408679168
 20
44.27468038979999
 10
56.7467299591
 20
44.2837500258
 10
56.7523211318
 20
44.2929398754
 10
56.7576591993
 20
44.3022790119
 10
56.76272052499999
 20
44.3117262262
 10
56.7675199827
 20
44.3213091264
 10
56.7720375694
 20
44.3309879503
 10
56.77628528149999
 20
44.34078820889999
 10
56.78024670470001
 20
44.350672249
 10
56.7839310708
 20
44.3606628686
 10
56.7873254075
 20
44.37072516119999
 10
56.7904363939
 20
44.3808786306
 10
56.7932542547
 20
44.3910917117
 10
56.7957834203
 20
44.40138008479999
 10
56.79801697649999
 20
44.4117160617
 10
56.7999574939
 20
44.4221110381
 10
56.8016005027
 20
44.4325416628
 10
56.8029471742
 20
44.4430146685
 10
56.8039949983
 20
44.45351141199999
 10
56.8047442664
 20
44.4640336805
 10
56.8051938913
 20
44.4745678092
 10
56.8053438449
 20
44.4851104625
 10
56.8051938913
 20
44.49565311569999
 10
56.8047442664
 20
44.50618724449999
 10
56.8039949983
 20
44.516709513
 10
56.8029471742
 20
44.52720625649999
 10
56.8016005027
 20
44.5376792622
 10
56.7999574939
 20
44.54810988689999
 10
56.79801697649999
 20
44.5585048633
 10
56.7957834203
 20
44.5688408402
 10
56.7932542547
 20
44.5791292133
 10
56.7904363939
 20
44.58934229439999
 10
56.7873254075
 20
44.5994957638
 10
56.7839310708
 20
44.6095580564
 10
56.78024670470001
 20
44.619548676
 10
56.77628528149999
 20
44.6294327161
 10
56.7720375694
 20
44.6392329747
 10
56.7675199827
 20
44.64891179859999
 10
56.76272052499999
 20
44.6584946988
 10
56.7576591993
 20
44.66794191309999
 10
56.7523211318
 20
44.67728104959999
 10
56.7467299591
 20
44.6864708992
 10
56.7408679168
 20
44.6955405352
 10
56.7347622184
 20
44.70444797029999
 10
56.7283922949
 20
44.7132231118
 10
56.72178878
 20
44.7218238527
 10
56.71492848149999
 20
44.73028032
 10
56.7078452031
 20
44.73855091999999
 10
56.70051339909999
 20
44.746665418
 10
56.69296970609999
 20
44.7545833247
 10
56.6851865749
 20
44.76233350850001
 10
56.6772030617
 20
44.769877123
 10
56.6689900328
 20
44.77724166189999
 10
56.6605884852
 20
44.78439039569999
 10
56.6519681775
 20
44.7913490328
 10
56.643171516
 20
44.7980833628
 10
56.6341676729
 20
44.80461697219999
 10
56.6249998928
 20
44.810918493
 10
56.6156373141
 20
44.8170091324
 10
56.6061234228
 20
44.82286060609999
 10
56.59642789399999
 20
44.8284915663
 10
56.5865938449
 20
44.83387696949999
 10
56.57659206369999
 20
44.83903281999999
 10
56.56646468859999
 20
44.8439373881
 10
56.5561841885
 20
44.8486040189
 10
56.5457911263
 20
44.8530142871
 10
56.5352601995
 20
44.8571789462
 10
56.5246298229
 20
44.8610827872
 10
56.51387743949999
 20
44.8647341143
 10
56.50303877999999
 20
44.8681207734
 10
56.49209450819999
 20
44.87124882959999
 10
56.4810771772
 20
44.8741089549
 10
56.4699710957
 20
44.8767052484
 10
56.4588052097
 20
44.87903091859999
 10
56.4475678412
 20
44.88108842579999
 10
56.43628392340001
 20
44.8828731736
 10
56.4249460847
 20
44.88438635659999
 10
56.41357504760001
 20
44.8856251888
 10
56.4021680071
 20
44.8865900081
 10
56.3907408258
 20
44.8872794209
 10
56.37929530960001
 20
44.8876933449
 10
56.3678438449
 20
44.8878313359
  0
LINE
  5
5C6
330
21D
100
AcDbEntity
  8
DEFAULT_2
  6
HIDDEN
 62
     7
100
AcDbLine
 10
56.3678438449
 20
44.0823895891
 30
0.0
 11
53.2428438449
 21
44.0823895891
 31
0.0
  0
LINE
  5
5C7
330
21D
100
AcDbEntity
  8
DEFAULT_2
  6
HIDDEN
 62
     7
100
AcDbLine
 10
56.1178438449
 20
44.33742491189999
 30
0.0
 11
53.4928438449
 21
44.33742491189999
 31
0.0
  0
LINE
  5
5C8
330
21D
100
AcDbEntity
  8
DEFAULT_2
  6
HIDDEN
 62
     7
100
AcDbLine
 10
53.4928438449
 20
44.682614232
 30
0.0
 11
56.1178438449
 21
44.682614232
 31
0.0
  0
LINE
  5
5C9
330
21D
100
AcDbEntity
  8
DEFAULT_2
  6
HIDDEN
 62
     7
100
AcDbLine
 10
53.2428438449
 20
44.9026758604
 30
0.0
 11
56.3678438449
 21
44.9026758604
 31
0.0
  0
LWPOLYLINE
  5
5CE
330
21D
100
AcDbEntity
  8
DEFAULT_2
  6
HIDDEN
 62
     7
100
AcDbPolyline
 90
      121
 70
     0
 43
0.0
 10
53.2428438449
 20
44.0823895891
 10
53.2313923803
 20
44.08252758009999
 10
53.2199468641
 20
44.08294150409999
 10
53.20851968270001
 20
44.0836309168
 10
53.1971126423
 20
44.0845957362
 10
53.1857416051
 20
44.0858345684
 10
53.1744037665
 20
44.0873477513
 10
53.1631198487
 20
44.0891324992
 10
53.1518824802
 20
44.0911900064
 10
53.1407165942
 20
44.09351567659999
 10
53.12961051270001
 20
44.0961119701
 10
53.1185931817
 20
44.0989720954
 10
53.1076489099
 20
44.10210015159999
 10
53.09681025039999
 20
44.10548681069999
 10
53.086057867
 20
44.10913813779999
 10
53.0754274904
 20
44.11304197879999
 10
53.0648965636
 20
44.11720663789999
 10
53.0545035013
 20
44.121616906
 10
53.0442230013
 20
44.12628353689999
 10
53.0340956262
 20
44.1311881049
 10
53.0240938449
 20
44.1363439555
 10
53.0142597958
 20
44.14172935869999
 10
53.0045642671
 20
44.1473603189
 10
52.9950503757
 20
44.1532117926
 10
52.9856877971
 20
44.1593024319
 10
52.976520017
 20
44.1656039527
 10
52.9675161739
 20
44.17213756209999
 10
52.95871951239999
 20
44.1788718921
 10
52.9500992047
 20
44.1858305293
 10
52.9416976571
 20
44.1929792631
 10
52.9334846282
 20
44.20034380199999
 10
52.925501115
 20
44.2078874164
 10
52.91771798380001
 20
44.21563760029999
 10
52.9101742908
 20
44.22355550699999
 10
52.9028424868
 20
44.231670005
 10
52.8957592084
 20
44.239940605
 10
52.8888989099
 20
44.24839707229999
 10
52.882295395
 20
44.25699781319999
 10
52.8759254715
 20
44.2657729546
 10
52.8698197731
 20
44.27468038979999
 10
52.86395773079999
 20
44.2837500258
 10
52.8583665581
 20
44.2929398754
 10
52.8530284906
 20
44.3022790119
 10
52.84796716489999
 20
44.3117262262
 10
52.8431677072
 20
44.3213091264
 10
52.83865012039999
 20
44.3309879503
 10
52.8344024083
 20
44.34078820889999
 10
52.83044098520001
 20
44.350672249
 10
52.82675661909999
 20
44.3606628686
 10
52.8233622823
 20
44.37072516119999
 10
52.8202512959
 20
44.3808786306
 10
52.8174334352
 20
44.3910917117
 10
52.8149042696
 20
44.40138008479999
 10
52.8126707133
 20
44.4117160617
 10
52.81073019589999
 20
44.4221110381
 10
52.8090871872
 20
44.4325416628
 10
52.80774051569999
 20
44.4430146685
 10
52.8066926916
 20
44.45351141199999
 10
52.8059434235
 20
44.4640336805
 10
52.8054937985
 20
44.4745678092
 10
52.8053438449
 20
44.4851104625
 10
52.8054937985
 20
44.49565311569999
 10
52.8059434235
 20
44.50618724449999
 10
52.8066926916
 20
44.516709513
 10
52.80774051569999
 20
44.52720625649999
 10
52.8090871872
 20
44.5376792622
 10
52.81073019589999
 20
44.54810988689999
 10
52.8126707133
 20
44.5585048633
 10
52.8149042696
 20
44.5688408402
 10
52.8174334352
 20
44.5791292133
 10
52.8202512959
 20
44.58934229439999
 10
52.8233622823
 20
44.5994957638
 10
52.82675661909999
 20
44.6095580564
 10
52.83044098520001
 20
44.619548676
 10
52.8344024083
 20
44.6294327161
 10
52.83865012039999
 20
44.6392329747
 10
52.8431677072
 20
44.64891179859999
 10
52.84796716489999
 20
44.6584946988
 10
52.8530284906
 20
44.66794191309999
 10
52.8583665581
 20
44.67728104959999
 10
52.86395773079999
 20
44.6864708992
 10
52.8698197731
 20
44.6955405352
 10
52.8759254715
 20
44.70444797029999
 10
52.882295395
 20
44.7132231118
 10
52.8888989099
 20
44.7218238527
 10
52.8957592084
 20
44.73028032
 10
52.9028424868
 20
44.73855091999999
 10
52.9101742908
 20
44.746665418
 10
52.91771798380001
 20
44.7545833247
 10
52.925501115
 20
44.76233350850001
 10
52.9334846282
 20
44.769877123
 10
52.9416976571
 20
44.77724166189999
 10
52.9500992047
 20
44.78439039569999
 10
52.95871951239999
 20
44.7913490328
 10
52.9675161739
 20
44.7980833628
 10
52.976520017
 20
44.80461697219999
 10
52.9856877971
 20
44.810918493
 10
52.9950503757
 20
44.8170091324
 10
53.0045642671
 20
44.82286060609999
 10
53.0142597958
 20
44.8284915663
 10
53.0240938449
 20
44.83387696949999
 10
53.0340956262
 20
44.83903281999999
 10
53.0442230013
 20
44.8439373881
 10
53.0545035013
 20
44.8486040189
 10
53.0648965636
 20
44.8530142871
 10
53.0754274904
 20
44.8571789462
 10
53.086057867
 20
44.8610827872
 10
53.09681025039999
 20
44.8647341143
 10
53.1076489099
 20
44.8681207734
 10
53.1185931817
 20
44.87124882959999
 10
53.12961051270001
 20
44.8741089549
 10
53.1407165942
 20
44.8767052484
 10
53.1518824802
 20
44.87903091859999
 10
53.1631198487
 20
44.88108842579999
 10
53.1744037665
 20
44.8828731736
 10
53.1857416051
 20
44.88438635659999
 10
53.1971126423
 20
44.8856251888
 10
53.20851968270001
 20
44.8865900081
 10
53.2199468641
 20
44.8872794209
 10
53.2313923803
 20
44.8876933449
 10
53.2428438449
 20
44.8878313359
  0
LWPOLYLINE
  5
5CF
330
21D
100
AcDbEntity
  8
DEFAULT_2
  6
HIDDEN
 62
     7
100
AcDbPolyline
 90
       97
 70
     0
 43
0.0
 10
53.4928438449
 20
44.33742491189999
 10
53.4867098119
 20
44.3375173093
 10
53.4805807578
 20
44.33779445029999
 10
53.4744670416
 20
44.3382558706
 10
53.468370183
 20
44.33890148329999
 10
53.4623034037
 20
44.3397298342
 10
53.4562644083
 20
44.3407412701
 10
53.4502703653
 20
44.34193289569999
 10
53.4443152723
 20
44.3433059327
 10
53.43841959489999
 20
44.34485563199999
 10
53.4325739438
 20
44.34658448859999
 10
53.4268017794
 20
44.3484855415
 10
53.4210907004
 20
44.3505628985
 10
53.4154666641
 20
44.3528070977
 10
53.4099147146
 20
44.3552241264
 10
53.40446277279999
 20
44.3578018149
 10
53.399093844
 20
44.36054821229999
 10
53.39383721869999
 20
44.363448327
 10
53.38867442539999
 20
44.3665123574
 10
53.3836354978
 20
44.36972247829999
 10
53.3787010763
 20
44.37309102239999
 10
53.37390129560001
 20
44.3765974265
 10
53.36921650399999
 20
44.38025603649999
 10
53.3646763002
 20
44.3840437568
 10
53.3602613229
 20
44.387976718
 10
53.35600002439999
 20
44.39202960689999
 10
53.3518738805
 20
44.3962200056
 10
53.3479096359
 20
44.40052080229999
 10
53.34409009319999
 20
44.40495060049999
 10
53.34043979810001
 20
44.40948100189999
 10
53.33694329229999
 20
44.41413111689999
 10
53.3336225212
 20
44.4188718522
 10
53.3304640815
 20
44.42372224229999
 10
53.3274870246
 20
44.42865315119999
 10
53.3246802057
 20
44.43368290619999
 10
53.32205961029999
 20
44.43878301899999
 10
53.31961643239999
 20
44.44397045539999
 10
53.31736354939999
 20
44.4492180771
 10
53.3152944456
 20
44.45454083699999
 10
53.3134189812
 20
44.4599136334
 10
53.3117327524
 20
44.46534878709999
 10
53.31024282489999
 20
44.4708238739
 10
53.30894660479999
 20
44.4763480243
 10
53.307848706
 20
44.4819020593
 10
53.30694793340001
 20
44.48749144829999
 10
53.3062468965
 20
44.4931007258
 10
53.3057452968
 20
44.49873134109999
 10
53.3054442696
 20
44.5043718897
 10
53.3053438449
 20
44.51001957189999
 10
53.3054442696
 20
44.5156672542
 10
53.3057452968
 20
44.5213078027
 10
53.3062468965
 20
44.526938418
 10
53.30694793340001
 20
44.53254769559999
 10
53.307848706
 20
44.5381370846
 10
53.30894660479999
 20
44.5436911196
 10
53.31024282489999
 20
44.54921526999999
 10
53.3117327524
 20
44.5546903568
 10
53.3134189812
 20
44.5601255105
 10
53.3152944456
 20
44.5654983069
 10
53.31736354939999
 20
44.5708210668
 10
53.31961643239999
 20
44.5760686885
 10
53.32205961029999
 20
44.58125612479999
 10
53.3246802057
 20
44.5863562377
 10
53.3274870246
 20
44.5913859926
 10
53.3304640815
 20
44.5963169015
 10
53.3336225212
 20
44.6011672916
 10
53.33694329229999
 20
44.60590802699999
 10
53.34043979810001
 20
44.61055814199999
 10
53.34409009319999
 20
44.61508854329999
 10
53.3479096359
 20
44.61951834149999
 10
53.3518738805
 20
44.62381913819999
 10
53.35600002439999
 20
44.62800953689999
 10
53.3602613229
 20
44.6320624259
 10
53.3646763002
 20
44.635995387
 10
53.36921650399999
 20
44.63978310739999
 10
53.37390129560001
 20
44.64344171739999
 10
53.3787010763
 20
44.64694812149999
 10
53.3836354978
 20
44.6503166656
 10
53.38867442539999
 20
44.6535267864
 10
53.39383721869999
 20
44.65659081689999
 10
53.399093844
 20
44.65949093159999
 10
53.40446277279999
 20
44.6622373289
 10
53.4099147146
 20
44.66481501739999
 10
53.4154666641
 20
44.6672320462
 10
53.4210907004
 20
44.6694762454
 10
53.4268017794
 20
44.67155360239999
 10
53.4325739438
 20
44.6734546553
 10
53.43841959489999
 20
44.67518351189999
 10
53.4443152723
 20
44.67673321109999
 10
53.4502703653
 20
44.67810624819999
 10
53.4562644083
 20
44.6792978737
 10
53.4623034037
 20
44.6803093097
 10
53.46837018310001
 20
44.6811376606
 10
53.4744670416
 20
44.6817832733
 10
53.4805807578
 20
44.6822446935
 10
53.4867098119
 20
44.6825218345
 10
53.4928438449
 20
44.682614232
  0
LWPOLYLINE
  5
5D0
330
21D
100
AcDbEntity
  8
DEFAULT_2
  6
HIDDEN
 62
     7
100
AcDbPolyline
 90
       97
 70
     0
 43
0.0
 10
56.1178438449
 20
44.682614232
 10
56.123977878
 20
44.6825218345
 10
56.1301069321
 20
44.6822446935
 10
56.1362206483
 20
44.6817832733
 10
56.14231750680001
 20
44.6811376606
 10
56.1483842862
 20
44.6803093097
 10
56.1544232816
 20
44.6792978737
 10
56.1604173246
 20
44.67810624819999
 10
56.1663724176
 20
44.67673321109999
 10
56.17226809499999
 20
44.67518351189999
 10
56.17811374609999
 20
44.6734546553
 10
56.1838859105
 20
44.67155360239999
 10
56.1895969895
 20
44.6694762454
 10
56.1952210258
 20
44.6672320462
 10
56.20077297529999
 20
44.66481501739999
 10
56.2062249171
 20
44.6622373289
 10
56.21159384590001
 20
44.65949093159999
 10
56.21685047109999
 20
44.65659081689999
 10
56.22201326449999
 20
44.6535267864
 10
56.2270521921
 20
44.6503166656
 10
56.2319866136
 20
44.64694812149999
 10
56.2367863943
 20
44.64344171739999
 10
56.2414711859
 20
44.63978310739999
 10
56.2460113896
 20
44.635995387
 10
56.25042636699999
 20
44.6320624259
 10
56.2546876654
 20
44.62800953689999
 10
56.2588138093
 20
44.62381913819999
 10
56.26277805399999
 20
44.61951834149999
 10
56.2665975966
 20
44.61508854329999
 10
56.2702478918
 20
44.61055814199999
 10
56.2737443976
 20
44.60590802699999
 10
56.2770651687
 20
44.6011672916
 10
56.2802236084
 20
44.5963169015
 10
56.2832006653
 20
44.5913859926
 10
56.2860074842
 20
44.5863562377
 10
56.2886280796
 20
44.58125612479999
 10
56.2910712574
 20
44.5760686885
 10
56.2933241404
 20
44.5708210668
 10
56.2953932443
 20
44.5654983069
 10
56.29726870869999
 20
44.5601255105
 10
56.2989549374
 20
44.5546903568
 10
56.300444865
 20
44.54921526999999
 10
56.30174108510001
 20
44.5436911196
 10
56.3028389839
 20
44.5381370846
 10
56.30373975649999
 20
44.53254769559999
 10
56.30444079340001
 20
44.526938418
 10
56.304942393
 20
44.5213078027
 10
56.3052434203
 20
44.5156672542
 10
56.3053438449
 20
44.51001957189999
 10
56.30524342020001
 20
44.5043718897
 10
56.304942393
 20
44.49873134109999
 10
56.30444079340001
 20
44.4931007258
 10
56.30373975649999
 20
44.48749144829999
 10
56.3028389839
 20
44.4819020593
 10
56.30174108510001
 20
44.4763480243
 10
56.300444865
 20
44.4708238739
 10
56.2989549374
 20
44.46534878709999
 10
56.29726870869999
 20
44.4599136334
 10
56.2953932443
 20
44.45454083699999
 10
56.2933241404
 20
44.4492180771
 10
56.2910712574
 20
44.44397045539999
 10
56.2886280796
 20
44.43878301899999
 10
56.2860074842
 20
44.43368290619999
 10
56.2832006653
 20
44.42865315119999
 10
56.2802236084
 20
44.42372224229999
 10
56.2770651687
 20
44.4188718522
 10
56.2737443976
 20
44.41413111689999
 10
56.2702478918
 20
44.40948100189999
 10
56.2665975966
 20
44.40495060049999
 10
56.26277805399999
 20
44.40052080229999
 10
56.2588138093
 20
44.3962200056
 10
56.2546876654
 20
44.39202960689999
 10
56.25042636699999
 20
44.387976718
 10
56.2460113896
 20
44.3840437568
 10
56.2414711859
 20
44.38025603649999
 10
56.2367863943
 20
44.3765974265
 10
56.2319866136
 20
44.37309102239999
 10
56.2270521921
 20
44.36972247829999
 10
56.22201326449999
 20
44.3665123574
 10
56.21685047109999
 20
44.363448327
 10
56.21159384590001
 20
44.36054821229999
 10
56.2062249171
 20
44.3578018149
 10
56.20077297529999
 20
44.3552241264
 10
56.1952210258
 20
44.3528070977
 10
56.1895969895
 20
44.3505628985
 10
56.1838859105
 20
44.3484855415
 10
56.17811374609999
 20
44.34658448859999
 10
56.17226809499999
 20
44.34485563199999
 10
56.1663724176
 20
44.3433059327
 10
56.1604173246
 20
44.34193289569999
 10
56.1544232816
 20
44.3407412701
 10
56.1483842862
 20
44.3397298342
 10
56.14231750680001
 20
44.33890148329999
 10
56.1362206483
 20
44.3382558706
 10
56.1301069321
 20
44.33779445029999
 10
56.123977878
 20
44.3375173093
 10
56.1178438449
 20
44.33742491189999
  0
LWPOLYLINE
  5
68E
330
21D
100
AcDbEntity
  8
DEFAULT_2
  6
HIDDEN
 62
     7
100
AcDbPolyline
 90
       16
 70
     0
 43
0.0
 10
74.8676909305
 20
30.3304866362
 10
75.411353154
 20
31.2788479062
 10
77.00963869439999
 20
34.0771358065
 10
78.60549155939999
 20
36.876856913
 10
80.20420221649999
 20
39.6748943846
 10
81.8110636829
 20
42.46812971119999
 10
82.61920281450001
 20
43.86197349109999
 10
83.43136048689999
 20
45.25344994060001
 10
84.2482090856
 20
46.6421622016
 10
84.65859825779999
 20
47.3353605881
 10
85.0703907473
 20
48.02773322229999
 10
85.27685244549999
 20
48.373585904
 10
85.48372438239999
 20
48.71919528189999
 10
85.69094574800001
 20
49.0646018526
 10
85.89839532399999
 20
49.4098814952
 10
86.6111124028
 20
50.59602519560001
  0
LINE
  5
68F
330
21D
100
AcDbEntity
  8
DEFAULT_2
  6
HIDDEN
 62
     7
100
AcDbLine
 10
56.2535671496
 20
28.0583337672
 30
0.0
 11
56.6108930525
 21
28.4156596701
 31
0.0
  0
LINE
  5
14AF
330
21D
100
AcDbEntity
  8
0
  6
Continuous
 62
     7
100
AcDbLine
 10
29.7372527266
 20
23.3232568613
 30
0.0
 11
21.8053438449
 21
50.9851104625
 31
0.0
  0
LINE
  5
14B0
330
21D
100
AcDbEntity
  8
0
  6
Continuous
 62
     7
100
AcDbLine
 10
78.9389051776
 20
23.0475649478
 30
0.0
 11
79.3263331134
 21
23.0503302782
 31
0.0
  0
LWPOLYLINE
  5
14B1
330
21D
100
AcDbEntity
  8
0
  6
Continuous
 62
     7
100
AcDbPolyline
 90
        3
 70
     0
 43
0.0
 10
79.3263331134
 20
23.0503302782
 10
79.4676345941
 20
23.0513121655
 10
79.50335074619999
 20
23.0515504758
  0
LINE
  5
14B2
330
21D
100
AcDbEntity
  8
0
  6
Continuous
 62
     7
100
AcDbLine
 10
79.4085732306
 20
23.0509069064
 30
0.0
 11
79.5153317638
 21
23.0516283586
 31
0.0
  0
LWPOLYLINE
  5
14BC
330
21D
100
AcDbEntity
  8
0
  6
Continuous
 62
     7
100
AcDbPolyline
 90
        7
 70
     0
 43
0.0
 10
45.5934903213
 20
23.0193145751
 10
47.9826306881
 20
23.0222215211
 10
49.2450228921
 20
23.0236521303
 10
50.5565803843
 20
23.0249416833
 10
51.9202464139
 20
23.0259962268
 10
53.3389443731
 20
23.026711963
 10
54.8053444855
 20
23.0269742736
  0
LWPOLYLINE
  5
14CF
330
21D
100
AcDbEntity
  8
0
  6
Continuous
 62
     7
100
AcDbPolyline
 90
       32
 70
     0
 43
0.0
 10
54.8053444855
 20
23.0269742736
 10
56.27174128
 20
23.0267119637
 10
57.6904361767
 20
23.0259962301
 10
59.05409938
 20
23.0249416904
 10
60.3656542621
 20
23.0236521415
 10
61.628044052
 20
23.0222215365
 10
62.8442325831
 20
23.02073806340001
 10
64.0171800989
 20
23.0193145953
 10
65.1497682599
 20
23.0180745627
 10
66.2436203056
 20
23.0171052807
 10
67.29742198470001
 20
23.0164674488
 10
68.30945439689999
 20
23.0161724633
 10
69.2779717463
 20
23.0162431406
 10
70.2012299963
 20
23.0166584461
 10
71.0771762312
 20
23.0174054534
 10
71.9032455283
 20
23.0184721567
 10
72.67717254359999
 20
23.0198082171
 10
73.3989627748
 20
23.0213806493
 10
74.0702249928
 20
23.0231697934
 10
74.69256647689999
 20
23.0251190482
 10
75.26681191609999
 20
23.0271833375
 10
75.7928929543
 20
23.0293215353
 10
76.27151932149999
 20
23.0314948084
 10
76.7059483041
 20
23.0336482523
 10
77.09994792909999
 20
23.0357522148
 10
77.45676537109999
 20
23.0377930113
 10
77.7788290366
 20
23.0397466057
 10
78.06835390519999
 20
23.0415924882
 10
78.3274204546
 20
23.0433093526
 10
78.5578531135
 20
23.0448834439
 10
78.7612379107
 20
23.0463035943
 10
78.9389051776
 20
23.0475649478
  0
LWPOLYLINE
  5
14E3
330
21D
100
AcDbEntity
  8
0
  6
Continuous
 62
     7
100
AcDbPolyline
 90
        4
 70
     0
 43
0.0
 10
79.8734349633
 20
23.3232568613
 10
79.87229209689999
 20
23.3232595765
 10
79.868874068
 20
23.3232677569
 10
79.86319868549999
 20
23.3232814897
  0
LINE
  5
14E7
330
21D
100
AcDbEntity
  8
0
  6
Continuous
 62
     7
100
AcDbLine
 10
30.0953587825
 20
23.0516283405
 30
0.0
 11
30.2021122017
 21
23.0509069224
 31
0.0
  0
LWPOLYLINE
  5
14E8
330
21D
100
AcDbEntity
  8
0
  6
Continuous
 62
     7
100
AcDbPolyline
 90
       28
 70
     0
 43
0.0
 10
30.2021122017
 20
23.0509069224
 10
30.3898270611
 20
23.0495810795
 10
30.5187990662
 20
23.0486584472
 10
30.6717708865
 20
23.0475650308
 10
30.8494371438
 20
23.0463036834
 10
31.0528207513
 20
23.0448835395
 10
31.28325208090001
 20
23.0433094547
 10
31.5423172664
 20
23.0415925958
 10
31.8318408638
 20
23.0397467166
 10
32.1539033574
 20
23.0377931232
 10
32.5107196912
 20
23.0357523259
 10
32.9047182104
 20
23.0336483614
 10
33.3391460559
 20
23.0314949147
 10
33.8177712877
 20
23.0293216364
 10
34.3438513165
 20
23.0271834311
 10
34.9180959735
 20
23.0251191331
 10
35.5404368894
 20
23.0231698684
 10
36.21169869860001
 20
23.0213807129
 10
36.9334886867
 20
23.0198082687
 10
37.70741564610001
 20
23.0184721968
 10
38.5334851764
 20
23.0174054817
 10
39.409431951
 20
23.0166584627
 10
40.3326910267
 20
23.0162431471
 10
41.3012094536
 20
23.0161724607
 10
42.3132431844
 20
23.0164674385
 10
43.36704640939999
 20
23.01710526489999
 10
44.4609002177
 20
23.0180745434
 10
45.5934903213
 20
23.0193145751
  0
LINE
  5
14E9
330
21D
100
AcDbEntity
  8
DEFAULT_1
  6
CENTER
 62
     7
100
AcDbLine
 10
54.8053438449
 20
21.9104126263
 30
0.0
 11
54.8053444855
 21
23.0269742736
 31
0.0
  0
LINE
  5
14EA
330
21D
100
AcDbEntity
  8
DEFAULT_1
  6
CENTER
 62
     7
100
AcDbLine
 10
54.8053438449
 20
47.8601104625
 30
0.0
 11
54.8053438449
 21
52.0598338268
 31
0.0
  0
LINE
  5
14EB
330
21D
100
AcDbEntity
  8
0
  6
Continuous
 62
     7
100
AcDbLine
 10
54.8053438449
 20
47.8601104625
 30
0.0
 11
54.8053444855
 21
23.0269742736
 31
0.0
  0
LINE
  5
14EE
330
21D
100
AcDbEntity
  8
0
  6
Continuous
 62
     7
100
AcDbLine
 10
79.8734349633
 20
23.3232568613
 30
0.0
 11
87.8053438449
 21
50.9851104625
 31
0.0
  0
ARC
  5
1574
330
21D
100
AcDbEntity
  8
DEFAULT_2
  6
HIDDEN
 62
     7
100
AcDbCircle
 10
72.69947863609999
 20
31.5750168475
 30
0.0
 40
2.5
100
AcDbArc
 50
272.1029521882
 51
330.1446460635
  0
ARC
  5
1575
330
21D
100
AcDbEntity
  8
DEFAULT_2
  6
HIDDEN
 62
     7
100
AcDbCircle
 10
36.9112090537
 20
31.5750168475
 30
0.0
 40
2.5
100
AcDbArc
 50
209.8553539548
 51
267.8970478118
  0
ARC
  5
157F
330
21D
100
AcDbEntity
  8
DEFAULT_2
  6
HIDDEN
 62
     7
100
AcDbCircle
 10
87.0396943933
 20
50.33850339569999
 30
0.0
 40
0.5
100
AcDbArc
 50
100.1173033017
 51
148.9996307177
  0
ARC
  5
1580
330
21D
100
AcDbEntity
  8
DEFAULT_2
  6
HIDDEN
 62
     7
100
AcDbCircle
 10
22.5709932966
 20
50.33850339569999
 30
0.0
 40
0.5
100
AcDbArc
 50
31.0003692702
 51
79.8826966984
  0
ARC
  5
1583
330
21D
100
AcDbEntity
  8
DEFAULT_2
  6
HIDDEN
 62
     7
100
AcDbCircle
 10
56.7876697478
 20
28.2388829748
 30
0.0
 40
0.25
100
AcDbArc
 50
92.1029521966
 51
134.9999999943
  0
ARC
  5
1584
330
21D
100
AcDbEntity
  8
DEFAULT_2
  6
HIDDEN
 62
     7
100
AcDbCircle
 10
56.0767904543
 20
28.2351104625
 30
0.0
 40
0.25
100
AcDbArc
 50
270.0
 51
315.0
  0
ARC
  5
1585
330
21D
100
AcDbEntity
  8
DEFAULT_2
  6
HIDDEN
 62
     7
100
AcDbCircle
 10
53.5338972355
 20
28.2351104625
 30
0.0
 40
0.25
100
AcDbArc
 50
225.0
 51
270.0
  0
ARC
  5
1586
330
21D
100
AcDbEntity
  8
DEFAULT_2
  6
HIDDEN
 62
     7
100
AcDbCircle
 10
52.8230179421
 20
28.2388829748
 30
0.0
 40
0.25
100
AcDbArc
 50
45.0000000085
 51
87.89704779959999
  0
ARC
  5
158B
330
21D
100
AcDbEntity
  8
0
  6
Continuous
 62
     7
100
AcDbCircle
 10
54.8053438449
 20
230.9851104625
 30
0.0
 40
183.0
100
AcDbArc
 50
259.6111421845
 51
280.3888578155
  0
ARC
  5
158C
330
21D
100
AcDbEntity
  8
0
  6
Continuous
 62
     7
100
AcDbCircle
 10
79.5129618272
 20
23.4266208697
 30
0.0
 40
0.375
100
AcDbArc
 50
270.3621232915001
 51
344.0000000041
  0
ARC
  5
158D
330
21D
100
AcDbEntity
  8
0
  6
Continuous
 62
     7
100
AcDbCircle
 10
30.0977258627
 20
23.4266208697
 30
0.0
 40
0.375
100
AcDbArc
 50
195.9999999959
 51
269.63833446
  0
ENDSEC
  0
SECTION
  2
OBJECTS
  0
DICTIONARY
  5
C
330
0
100
AcDbDictionary
281
     1
  3
ACAD_COLOR
350
15C3
  3
ACAD_GROUP
350
D
  3
ACAD_LAYOUT
350
1A
  3
ACAD_MATERIAL
350
1596
  3
ACAD_MLEADERSTYLE
350
15E8
  3
ACAD_MLINESTYLE
350
17
  3
ACAD_PLOTSETTINGS
350
19
  3
ACAD_PLOTSTYLENAME
350
E
  3
ACAD_SCALELIST
350
15C6
  3
ACAD_TABLESTYLE
350
15C4
  3
ACAD_VISUALSTYLE
350
15AF
  3
ACDB_RECOMPOSE_DATA
350
15EE
  3
AcDbVariableDictionary
350
1620
  0
DICTIONARY
  5
15EF
330
8
100
AcDbDictionary
280
     1
281
     1
  0
DICTIONARY
  5
162F
330
10
100
AcDbDictionary
280
     1
281
     1
  3
ADSK_XREC_LAYER_RECONCILED
360
1630
  0
DICTIONARY
  5
1631
330
1FA
100
AcDbDictionary
280
     1
281
     1
  3
ADSK_XREC_LAYER_RECONCILED
360
1632
  0
DICTIONARY
  5
1633
330
1FB
100
AcDbDictionary
280
     1
281
     1
  3
ADSK_XREC_LAYER_RECONCILED
360
1634
  0
DICTIONARY
  5
1635
330
1FC
100
AcDbDictionary
280
     1
281
     1
  3
ADSK_XREC_LAYER_RECONCILED
360
1636
  0
DICTIONARY
  5
1637
330
1FD
100
AcDbDictionary
280
     1
281
     1
  3
ADSK_XREC_LAYER_RECONCILED
360
1638
  0
DICTIONARY
  5
1639
330
1FE
100
AcDbDictionary
280
     1
281
     1
  3
ADSK_XREC_LAYER_RECONCILED
360
163A
  0
DICTIONARY
  5
163B
330
1FF
100
AcDbDictionary
280
     1
281
     1
  3
ADSK_XREC_LAYER_RECONCILED
360
163C
  0
DICTIONARY
  5
163D
330
200
100
AcDbDictionary
280
     1
281
     1
  3
ADSK_XREC_LAYER_RECONCILED
360
163E
  0
DICTIONARY
  5
163F
330
201
100
AcDbDictionary
280
     1
281
     1
  3
ADSK_XREC_LAYER_RECONCILED
360
1640
  0
DICTIONARY
  5
1641
330
202
100
AcDbDictionary
280
     1
281
     1
  3
ADSK_XREC_LAYER_RECONCILED
360
1642
  0
DICTIONARY
  5
1643
330
203
100
AcDbDictionary
280
     1
281
     1
  3
ADSK_XREC_LAYER_RECONCILED
360
1644
  0
DICTIONARY
  5
1645
330
204
100
AcDbDictionary
280
     1
281
     1
  3
ADSK_XREC_LAYER_RECONCILED
360
1646
  0
DICTIONARY
  5
1647
330
205
100
AcDbDictionary
280
     1
281
     1
  3
ADSK_XREC_LAYER_RECONCILED
360
1648
  0
DICTIONARY
  5
1649
330
206
100
AcDbDictionary
280
     1
281
     1
  3
ADSK_XREC_LAYER_RECONCILED
360
164A
  0
DICTIONARY
  5
164B
330
207
100
AcDbDictionary
280
     1
281
     1
  3
ADSK_XREC_LAYER_RECONCILED
360
164C
  0
DICTIONARY
  5
164D
330
208
100
AcDbDictionary
280
     1
281
     1
  3
ADSK_XREC_LAYER_RECONCILED
360
164E
  0
DICTIONARY
  5
164F
330
209
100
AcDbDictionary
280
     1
281
     1
  3
ADSK_XREC_LAYER_RECONCILED
360
1650
  0
DICTIONARY
  5
1651
330
20A
100
AcDbDictionary
280
     1
281
     1
  3
ADSK_XREC_LAYER_RECONCILED
360
1652
  0
DICTIONARY
  5
1653
330
20B
100
AcDbDictionary
280
     1
281
     1
  3
ADSK_XREC_LAYER_RECONCILED
360
1654
  0
DICTIONARY
  5
1655
330
20C
100
AcDbDictionary
280
     1
281
     1
  3
ADSK_XREC_LAYER_RECONCILED
360
1656
  0
DICTIONARY
  5
1657
330
20D
100
AcDbDictionary
280
     1
281
     1
  3
ADSK_XREC_LAYER_RECONCILED
360
1658
  0
DICTIONARY
  5
1659
330
20E
100
AcDbDictionary
280
     1
281
     1
  3
ADSK_XREC_LAYER_RECONCILED
360
165A
  0
DICTIONARY
  5
165B
330
20F
100
AcDbDictionary
280
     1
281
     1
  3
ADSK_XREC_LAYER_RECONCILED
360
165C
  0
DICTIONARY
  5
165D
330
210
100
AcDbDictionary
280
     1
281
     1
  3
ADSK_XREC_LAYER_RECONCILED
360
165E
  0
DICTIONARY
  5
165F
330
211
100
AcDbDictionary
280
     1
281
     1
  3
ADSK_XREC_LAYER_RECONCILED
360
1660
  0
DICTIONARY
  5
1661
330
212
100
AcDbDictionary
280
     1
281
     1
  3
ADSK_XREC_LAYER_RECONCILED
360
1662
  0
DICTIONARY
  5
1663
330
213
100
AcDbDictionary
280
     1
281
     1
  3
ADSK_XREC_LAYER_RECONCILED
360
1664
  0
DICTIONARY
  5
1665
330
214
100
AcDbDictionary
280
     1
281
     1
  3
ADSK_XREC_LAYER_RECONCILED
360
1666
  0
DICTIONARY
  5
15C3
102
{ACAD_REACTORS
330
C
102
}
330
C
100
AcDbDictionary
281
     1
  0
DICTIONARY
  5
D
102
{ACAD_REACTORS
330
C
102
}
330
C
100
AcDbDictionary
281
     1
  0
DICTIONARY
  5
1A
102
{ACAD_REACTORS
330
C
102
}
330
C
100
AcDbDictionary
281
     1
  3
Layout1
350
1592
  3
Model
350
1591
  0
DICTIONARY
  5
1596
102
{ACAD_REACTORS
330
C
102
}
330
C
100
AcDbDictionary
281
     1
  3
ByBlock
350
159F
  3
ByLayer
350
1597
  3
Global
350
15A7
  0
DICTIONARY
  5
15E8
102
{ACAD_REACTORS
330
C
102
}
330
C
100
AcDbDictionary
281
     1
  3
Standard
350
15E9
  0
DICTIONARY
  5
17
102
{ACAD_REACTORS
330
C
102
}
330
C
100
AcDbDictionary
281
     1
  3
Standard
350
18
  0
DICTIONARY
  5
19
102
{ACAD_REACTORS
330
C
102
}
330
C
100
AcDbDictionary
281
     1
  0
ACDBDICTIONARYWDFLT
  5
E
102
{ACAD_REACTORS
330
C
102
}
330
C
100
AcDbDictionary
281
     1
  3
Normal
350
F
100
AcDbDictionaryWithDefault
340
F
  0
DICTIONARY
  5
15C6
102
{ACAD_REACTORS
330
C
102
}
330
C
100
AcDbDictionary
281
     1
  3
A0
350
15C7
  3
A1
350
15C8
  3
A2
350
15C9
  3
A3
350
15CA
  3
A4
350
15CB
  3
A5
350
15CC
  3
A6
350
15CD
  3
A7
350
15CE
  3
A8
350
15CF
  3
A9
350
15D0
  3
B0
350
15D1
  3
B1
350
15D2
  3
B2
350
15D3
  3
B3
350
15D4
  3
B4
350
15D5
  3
B5
350
15D6
  3
B6
350
15D7
  3
B7
350
15D8
  3
B8
350
15D9
  3
B9
350
15DA
  3
C0
350
15DB
  3
C1
350
15DC
  3
C2
350
15DD
  3
C3
350
15DE
  3
C4
350
15DF
  3
C5
350
15E0
  3
C6
350
15E1
  3
C7
350
15E2
  3
C8
350
15E3
  3
C9
350
15E4
  3
D0
350
15E5
  3
D1
350
15E6
  3
D2
350
15E7
  0
DICTIONARY
  5
15C4
102
{ACAD_REACTORS
330
C
102
}
330
C
100
AcDbDictionary
281
     1
  3
Standard
350
15C5
  0
DICTIONARY
  5
15AF
102
{ACAD_REACTORS
330
C
102
}
330
C
100
AcDbDictionary
281
     1
  3
2dWireframe
350
15B5
  3
3D Hidden
350
15B7
  3
3dWireframe
350
15B6
  3
Basic
350
15B4
  3
Brighten
350
15BB
  3
ColorChange
350
15BF
  3
Conceptual
350
15B8
  3
Dim
350
15BA
  3
EdgeColorOff
350
15C2
  3
Facepattern
350
15BE
  3
Flat
350
15B0
  3
FlatWithEdges
350
15B1
  3
Gouraud
350
15B2
  3
GouraudWithEdges
350
15B3
  3
JitterOff
350
15C0
  3
Linepattern
350
15BD
  3
OverhangOff
350
15C1
  3
Realistic
350
15B9
  3
Thicken
350
15BC
  0
XRECORD
  5
15EE
102
{ACAD_REACTORS
330
C
102
}
330
C
100
AcDbXrecord
280
     1
 90
        1
330
15C5
  0
DICTIONARY
  5
1620
102
{ACAD_REACTORS
330
C
102
}
330
C
100
AcDbDictionary
281
     1
  3
CANNOSCALE
350
1623
  3
CMLEADERSTYLE
350
1622
  3
CTABLESTYLE
350
1621
  3
DIMASSOC
350
1626
  3
INDEXCTL
350
1625
  3
LAYEREVAL
350
166F
  3
LAYERNOTIFY
350
1670
  3
LIGHTINGUNITS
350
166E
  3
MSLTSCALE
350
166D
  3
SORTENTS
350
1624
  3
XCLIPFRAME
350
1627
  0
XRECORD
  5
1630
102
{ACAD_REACTORS
330
162F
102
}
330
162F
100
AcDbXrecord
280
     1
290
     1
  0
XRECORD
  5
1632
102
{ACAD_REACTORS
330
1631
102
}
330
1631
100
AcDbXrecord
280
     1
290
     1
  0
XRECORD
  5
1634
102
{ACAD_REACTORS
330
1633
102
}
330
1633
100
AcDbXrecord
280
     1
290
     1
  0
XRECORD
  5
1636
102
{ACAD_REACTORS
330
1635
102
}
330
1635
100
AcDbXrecord
280
     1
290
     1
  0
XRECORD
  5
1638
102
{ACAD_REACTORS
330
1637
102
}
330
1637
100
AcDbXrecord
280
     1
290
     1
  0
XRECORD
  5
163A
102
{ACAD_REACTORS
330
1639
102
}
330
1639
100
AcDbXrecord
280
     1
290
     1
  0
XRECORD
  5
163C
102
{ACAD_REACTORS
330
163B
102
}
330
163B
100
AcDbXrecord
280
     1
290
     1
  0
XRECORD
  5
163E
102
{ACAD_REACTORS
330
163D
102
}
330
163D
100
AcDbXrecord
280
     1
290
     1
  0
XRECORD
  5
1640
102
{ACAD_REACTORS
330
163F
102
}
330
163F
100
AcDbXrecord
280
     1
290
     1
  0
XRECORD
  5
1642
102
{ACAD_REACTORS
330
1641
102
}
330
1641
100
AcDbXrecord
280
     1
290
     1
  0
XRECORD
  5
1644
102
{ACAD_REACTORS
330
1643
102
}
330
1643
100
AcDbXrecord
280
     1
290
     1
  0
XRECORD
  5
1646
102
{ACAD_REACTORS
330
1645
102
}
330
1645
100
AcDbXrecord
280
     1
290
     1
  0
XRECORD
  5
1648
102
{ACAD_REACTORS
330
1647
102
}
330
1647
100
AcDbXrecord
280
     1
290
     1
  0
XRECORD
  5
164A
102
{ACAD_REACTORS
330
1649
102
}
330
1649
100
AcDbXrecord
280
     1
290
     1
  0
XRECORD
  5
164C
102
{ACAD_REACTORS
330
164B
102
}
330
164B
100
AcDbXrecord
280
     1
290
     1
  0
XRECORD
  5
164E
102
{ACAD_REACTORS
330
164D
102
}
330
164D
100
AcDbXrecord
280
     1
290
     1
  0
XRECORD
  5
1650
102
{ACAD_REACTORS
330
164F
102
}
330
164F
100
AcDbXrecord
280
     1
290
     1
  0
XRECORD
  5
1652
102
{ACAD_REACTORS
330
1651
102
}
330
1651
100
AcDbXrecord
280
     1
290
     1
  0
XRECORD
  5
1654
102
{ACAD_REACTORS
330
1653
102
}
330
1653
100
AcDbXrecord
280
     1
290
     1
  0
XRECORD
  5
1656
102
{ACAD_REACTORS
330
1655
102
}
330
1655
100
AcDbXrecord
280
     1
290
     1
  0
XRECORD
  5
1658
102
{ACAD_REACTORS
330
1657
102
}
330
1657
100
AcDbXrecord
280
     1
290
     1
  0
XRECORD
  5
165A
102
{ACAD_REACTORS
330
1659
102
}
330
1659
100
AcDbXrecord
280
     1
290
     1
  0
XRECORD
  5
165C
102
{ACAD_REACTORS
330
165B
102
}
330
165B
100
AcDbXrecord
280
     1
290
     1
  0
XRECORD
  5
165E
102
{ACAD_REACTORS
330
165D
102
}
330
165D
100
AcDbXrecord
280
     1
290
     1
  0
XRECORD
  5
1660
102
{ACAD_REACTORS
330
165F
102
}
330
165F
100
AcDbXrecord
280
     1
290
     1
  0
XRECORD
  5
1662
102
{ACAD_REACTORS
330
1661
102
}
330
1661
100
AcDbXrecord
280
     1
290
     1
  0
XRECORD
  5
1664
102
{ACAD_REACTORS
330
1663
102
}
330
1663
100
AcDbXrecord
280
     1
290
     1
  0
XRECORD
  5
1666
102
{ACAD_REACTORS
330
1665
102
}
330
1665
100
AcDbXrecord
280
     1
290
     1
  0
LAYOUT
  5
1592
102
{ACAD_REACTORS
330
1A
102
}
330
1A
100
AcDbPlotSettings
  1

  2
none_device
  4
ANSI_B_(17.00_x_11.00_Inches)
  6

 40
0.0
 41
0.0
 42
0.0
 43
0.0
 44
431.8
 45
279.4
 46
0.0
 47
0.0
 48
0.0
 49
0.0
140
0.0
141
0.0
142
1.0
143
1.0
 70
     0
 72
     0
 73
     0
 74
     0
  7

 75
     0
147
1.0
 76
     0
 77
     2
 78
   300
148
0.0
149
0.0
100
AcDbLayout
  1
Layout1
 70
     1
 71
     1
 10
0.0
 20
0.0
 11
12.0
 21
9.0
 12
0.0
 22
0.0
 32
0.0
 14
1.000000000000000E+20
 24
1.000000000000000E+20
 34
1.000000000000000E+20
 15
-1.000000000000000E+20
 25
-1.000000000000000E+20
 35
-1.000000000000000E+20
146
0.0
 13
0.0
 23
0.0
 33
0.0
 16
1.0
 26
0.0
 36
0.0
 17
0.0
 27
1.0
 37
0.0
 76
     0
330
21E
  0
LAYOUT
  5
1591
102
{ACAD_REACTORS
330
1A
102
}
330
1A
100
AcDbPlotSettings
  1

  2
none_device
  4
ANSI_B_(17.00_x_11.00_Inches)
  6

 40
0.0
 41
0.0
 42
0.0
 43
0.0
 44
431.8
 45
279.4
 46
0.0
 47
0.0
 48
0.0
 49
0.0
140
0.0
141
0.0
142
1.0
143
1.0
 70
  1024
 72
     0
 73
     0
 74
     0
  7

 75
     0
147
1.0
 76
     0
 77
     2
 78
   300
148
0.0
149
0.0
100
AcDbLayout
  1
Model
 70
     0
 71
     0
 10
0.0
 20
0.0
 11
17.0
 21
11.0
 12
0.0
 22
0.0
 32
0.0
 14
0.0
 24
0.0
 34
0.0
 15
0.0
 25
0.0
 35
0.0
146
0.0
 13
0.0
 23
0.0
 33
0.0
 16
1.0
 26
0.0
 36
0.0
 17
0.0
 27
1.0
 37
0.0
 76
     0
330
21D
331
1F4
  0
MATERIAL
  5
159F
102
{ACAD_XDICTIONARY
360
15A0
102
}
102
{ACAD_REACTORS
330
1596
102
}
330
1596
100
AcDbMaterial
  1
ByBlock
 72
     0
 43
0.0208333333333333
 43
0.0
 43
0.0
 43
0.0
 43
0.0
 43
0.0208333333333333
 43
0.0
 43
0.0
 43
0.0
 43
0.0
 43
1.0
 43
0.0
 43
0.0
 43
0.0
 43
0.0
 43
1.0
 77
     0
 47
0.0208333333333333
 47
0.0
 47
0.0
 47
0.0
 47
0.0
 47
0.0208333333333333
 47
0.0
 47
0.0
 47
0.0
 47
0.0
 47
1.0
 47
0.0
 47
0.0
 47
0.0
 47
0.0
 47
1.0
171
     0
 49
0.0208333333333333
 49
0.0
 49
0.0
 49
0.0
 49
0.0
 49
0.0208333333333333
 49
0.0
 49
0.0
 49
0.0
 49
0.0
 49
1.0
 49
0.0
 49
0.0
 49
0.0
 49
0.0
 49
1.0
175
     0
142
0.0208333333333333
142
0.0
142
0.0
142
0.0
142
0.0
142
0.0208333333333333
142
0.0
142
0.0
142
0.0
142
0.0
142
1.0
142
0.0
142
0.0
142
0.0
142
0.0
142
1.0
179
     0
144
0.0208333333333333
144
0.0
144
0.0
144
0.0
144
0.0
144
0.0208333333333333
144
0.0
144
0.0
144
0.0
144
0.0
144
1.0
144
0.0
144
0.0
144
0.0
144
0.0
144
1.0
147
0.0208333333333333
147
0.0
147
0.0
147
0.0
147
0.0
147
0.0208333333333333
147
0.0
147
0.0
147
0.0
147
0.0
147
1.0
147
0.0
147
0.0
147
0.0
147
0.0
147
1.0
  0
MATERIAL
  5
1597
102
{ACAD_XDICTIONARY
360
1598
102
}
102
{ACAD_REACTORS
330
1596
102
}
330
1596
100
AcDbMaterial
  1
ByLayer
 72
     0
 43
0.0208333333333333
 43
0.0
 43
0.0
 43
0.0
 43
0.0
 43
0.0208333333333333
 43
0.0
 43
0.0
 43
0.0
 43
0.0
 43
1.0
 43
0.0
 43
0.0
 43
0.0
 43
0.0
 43
1.0
 77
     0
 47
0.0208333333333333
 47
0.0
 47
0.0
 47
0.0
 47
0.0
 47
0.0208333333333333
 47
0.0
 47
0.0
 47
0.0
 47
0.0
 47
1.0
 47
0.0
 47
0.0
 47
0.0
 47
0.0
 47
1.0
171
     0
 49
0.0208333333333333
 49
0.0
 49
0.0
 49
0.0
 49
0.0
 49
0.0208333333333333
 49
0.0
 49
0.0
 49
0.0
 49
0.0
 49
1.0
 49
0.0
 49
0.0
 49
0.0
 49
0.0
 49
1.0
175
     0
142
0.0208333333333333
142
0.0
142
0.0
142
0.0
142
0.0
142
0.0208333333333333
142
0.0
142
0.0
142
0.0
142
0.0
142
1.0
142
0.0
142
0.0
142
0.0
142
0.0
142
1.0
179
     0
144
0.0208333333333333
144
0.0
144
0.0
144
0.0
144
0.0
144
0.0208333333333333
144
0.0
144
0.0
144
0.0
144
0.0
144
1.0
144
0.0
144
0.0
144
0.0
144
0.0
144
1.0
147
0.0208333333333333
147
0.0
147
0.0
147
0.0
147
0.0
147
0.0208333333333333
147
0.0
147
0.0
147
0.0
147
0.0
147
1.0
147
0.0
147
0.0
147
0.0
147
0.0
147
1.0
  0
MATERIAL
  5
15A7
102
{ACAD_XDICTIONARY
360
15A8
102
}
102
{ACAD_REACTORS
330
1596
102
}
330
1596
100
AcDbMaterial
  1
Global
 72
     0
 43
0.0208333333333333
 43
0.0
 43
0.0
 43
0.0
 43
0.0
 43
0.0208333333333333
 43
0.0
 43
0.0
 43
0.0
 43
0.0
 43
1.0
 43
0.0
 43
0.0
 43
0.0
 43
0.0
 43
1.0
 77
     0
 47
0.0208333333333333
 47
0.0
 47
0.0
 47
0.0
 47
0.0
 47
0.0208333333333333
 47
0.0
 47
0.0
 47
0.0
 47
0.0
 47
1.0
 47
0.0
 47
0.0
 47
0.0
 47
0.0
 47
1.0
171
     0
 49
0.0208333333333333
 49
0.0
 49
0.0
 49
0.0
 49
0.0
 49
0.0208333333333333
 49
0.0
 49
0.0
 49
0.0
 49
0.0
 49
1.0
 49
0.0
 49
0.0
 49
0.0
 49
0.0
 49
1.0
175
     0
142
0.0208333333333333
142
0.0
142
0.0
142
0.0
142
0.0
142
0.0208333333333333
142
0.0
142
0.0
142
0.0
142
0.0
142
1.0
142
0.0
142
0.0
142
0.0
142
0.0
142
1.0
179
     0
144
0.0208333333333333
144
0.0
144
0.0
144
0.0
144
0.0
144
0.0208333333333333
144
0.0
144
0.0
144
0.0
144
0.0
144
1.0
144
0.0
144
0.0
144
0.0
144
0.0
144
1.0
147
0.0208333333333333
147
0.0
147
0.0
147
0.0
147
0.0
147
0.0208333333333333
147
0.0
147
0.0
147
0.0
147
0.0
147
1.0
147
0.0
147
0.0
147
0.0
147
0.0
147
1.0
  0
MLEADERSTYLE
  5
15E9
102
{ACAD_REACTORS
330
15E8
102
}
330
15E8
100
AcDbMLeaderStyle
170
     2
171
     1
172
     0
 90
        2
 40
0.0
 41
0.0
173
     1
 91
-1056964608
340
14
 92
       -2
290
     1
 42
0.09
291
     1
 43
0.36
  3
Standard
 44
0.18
300

342
11
174
     1
178
     6
175
     1
176
     0
 93
-1056964608
 45
0.18
292
     0
297
     0
 46
0.18
 94
-1056964608
 47
1.0
 49
1.0
140
1.0
293
     1
141
0.0
294
     1
177
     0
142
1.0
295
     0
296
     0
143
0.125
1001
ACAD_MLEADERVER
1070
     2
  0
MLINESTYLE
  5
18
102
{ACAD_REACTORS
330
17
102
}
330
17
100
AcDbMlineStyle
  2
STANDARD
 70
     0
  3

 62
   256
 51
90.0
 52
90.0
 71
     2
 49
0.5
 62
   256
  6
BYLAYER
 49
-0.5
 62
   256
  6
BYLAYER
  0
ACDBPLACEHOLDER
  5
F
102
{ACAD_REACTORS
330
E
102
}
330
E
  0
SCALE
  5
15C7
102
{ACAD_REACTORS
330
15C6
102
}
330
15C6
100
AcDbScale
 70
     0
300
1:1
140
1.0
141
1.0
290
     1
  0
SCALE
  5
15C8
102
{ACAD_REACTORS
330
15C6
102
}
330
15C6
100
AcDbScale
 70
     0
300
1:2
140
1.0
141
2.0
290
     0
  0
SCALE
  5
15C9
102
{ACAD_REACTORS
330
15C6
102
}
330
15C6
100
AcDbScale
 70
     0
300
1:4
140
1.0
141
4.0
290
     0
  0
SCALE
  5
15CA
102
{ACAD_REACTORS
330
15C6
102
}
330
15C6
100
AcDbScale
 70
     0
300
1:5
140
1.0
141
5.0
290
     0
  0
SCALE
  5
15CB
102
{ACAD_REACTORS
330
15C6
102
}
330
15C6
100
AcDbScale
 70
     0
300
1:8
140
1.0
141
8.0
290
     0
  0
SCALE
  5
15CC
102
{ACAD_REACTORS
330
15C6
102
}
330
15C6
100
AcDbScale
 70
     0
300
1:10
140
1.0
141
10.0
290
     0
  0
SCALE
  5
15CD
102
{ACAD_REACTORS
330
15C6
102
}
330
15C6
100
AcDbScale
 70
     0
300
1:16
140
1.0
141
16.0
290
     0
  0
SCALE
  5
15CE
102
{ACAD_REACTORS
330
15C6
102
}
330
15C6
100
AcDbScale
 70
     0
300
1:20
140
1.0
141
20.0
290
     0
  0
SCALE
  5
15CF
102
{ACAD_REACTORS
330
15C6
102
}
330
15C6
100
AcDbScale
 70
     0
300
1:30
140
1.0
141
30.0
290
     0
  0
SCALE
  5
15D0
102
{ACAD_REACTORS
330
15C6
102
}
330
15C6
100
AcDbScale
 70
     0
300
1:40
140
1.0
141
40.0
290
     0
  0
SCALE
  5
15D1
102
{ACAD_REACTORS
330
15C6
102
}
330
15C6
100
AcDbScale
 70
     0
300
1:50
140
1.0
141
50.0
290
     0
  0
SCALE
  5
15D2
102
{ACAD_REACTORS
330
15C6
102
}
330
15C6
100
AcDbScale
 70
     0
300
1:100
140
1.0
141
100.0
290
     0
  0
SCALE
  5
15D3
102
{ACAD_REACTORS
330
15C6
102
}
330
15C6
100
AcDbScale
 70
     0
300
2:1
140
2.0
141
1.0
290
     0
  0
SCALE
  5
15D4
102
{ACAD_REACTORS
330
15C6
102
}
330
15C6
100
AcDbScale
 70
     0
300
4:1
140
4.0
141
1.0
290
     0
  0
SCALE
  5
15D5
102
{ACAD_REACTORS
330
15C6
102
}
330
15C6
100
AcDbScale
 70
     0
300
8:1
140
8.0
141
1.0
290
     0
  0
SCALE
  5
15D6
102
{ACAD_REACTORS
330
15C6
102
}
330
15C6
100
AcDbScale
 70
     0
300
10:1
140
10.0
141
1.0
290
     0
  0
SCALE
  5
15D7
102
{ACAD_REACTORS
330
15C6
102
}
330
15C6
100
AcDbScale
 70
     0
300
100:1
140
100.0
141
1.0
290
     0
  0
SCALE
  5
15D8
102
{ACAD_REACTORS
330
15C6
102
}
330
15C6
100
AcDbScale
 70
     0
300
1/128" = 1'-0"
140
0.0078125
141
12.0
290
     0
  0
SCALE
  5
15D9
102
{ACAD_REACTORS
330
15C6
102
}
330
15C6
100
AcDbScale
 70
     0
300
1/64" = 1'-0"
140
0.015625
141
12.0
290
     0
  0
SCALE
  5
15DA
102
{ACAD_REACTORS
330
15C6
102
}
330
15C6
100
AcDbScale
 70
     0
300
1/32" = 1'-0"
140
0.03125
141
12.0
290
     0
  0
SCALE
  5
15DB
102
{ACAD_REACTORS
330
15C6
102
}
330
15C6
100
AcDbScale
 70
     0
300
1/16" = 1'-0"
140
0.0625
141
12.0
290
     0
  0
SCALE
  5
15DC
102
{ACAD_REACTORS
330
15C6
102
}
330
15C6
100
AcDbScale
 70
     0
300
3/32" = 1'-0"
140
0.09375
141
12.0
290
     0
  0
SCALE
  5
15DD
102
{ACAD_REACTORS
330
15C6
102
}
330
15C6
100
AcDbScale
 70
     0
300
1/8" = 1'-0"
140
0.125
141
12.0
290
     0
  0
SCALE
  5
15DE
102
{ACAD_REACTORS
330
15C6
102
}
330
15C6
100
AcDbScale
 70
     0
300
3/16" = 1'-0"
140
0.1875
141
12.0
290
     0
  0
SCALE
  5
15DF
102
{ACAD_REACTORS
330
15C6
102
}
330
15C6
100
AcDbScale
 70
     0
300
1/4" = 1'-0"
140
0.25
141
12.0
290
     0
  0
SCALE
  5
15E0
102
{ACAD_REACTORS
330
15C6
102
}
330
15C6
100
AcDbScale
 70
     0
300
3/8" = 1'-0"
140
0.375
141
12.0
290
     0
  0
SCALE
  5
15E1
102
{ACAD_REACTORS
330
15C6
102
}
330
15C6
100
AcDbScale
 70
     0
300
1/2" = 1'-0"
140
0.5
141
12.0
290
     0
  0
SCALE
  5
15E2
102
{ACAD_REACTORS
330
15C6
102
}
330
15C6
100
AcDbScale
 70
     0
300
3/4" = 1'-0"
140
0.75
141
12.0
290
     0
  0
SCALE
  5
15E3
102
{ACAD_REACTORS
330
15C6
102
}
330
15C6
100
AcDbScale
 70
     0
300
1" = 1'-0"
140
1.0
141
12.0
290
     0
  0
SCALE
  5
15E4
102
{ACAD_REACTORS
330
15C6
102
}
330
15C6
100
AcDbScale
 70
     0
300
1-1/2" = 1'-0"
140
1.5
141
12.0
290
     0
  0
SCALE
  5
15E5
102
{ACAD_REACTORS
330
15C6
102
}
330
15C6
100
AcDbScale
 70
     0
300
3" = 1'-0"
140
3.0
141
12.0
290
     0
  0
SCALE
  5
15E6
102
{ACAD_REACTORS
330
15C6
102
}
330
15C6
100
AcDbScale
 70
     0
300
6" = 1'-0"
140
6.0
141
12.0
290
     0
  0
SCALE
  5
15E7
102
{ACAD_REACTORS
330
15C6
102
}
330
15C6
100
AcDbScale
 70
     0
300
1'-0" = 1'-0"
140
12.0
141
12.0
290
     0
  0
TABLESTYLE
  5
15C5
102
{ACAD_XDICTIONARY
360
15EC
102
}
102
{ACAD_REACTORS
330
15C4
102
}
330
15C4
100
AcDbTableStyle
  3
Standard
 70
     0
 71
     0
 40
0.06
 41
0.06
280
     0
281
     0
  7
STANDARD
140
0.18
170
     2
 62
     0
 63
     7
283
     0
 90
      512
 91
        0
  1

274
    -2
284
     1
 64
     0
275
    -2
285
     1
 65
     0
276
    -2
286
     1
 66
     0
277
    -2
287
     1
 67
     0
278
    -2
288
     1
 68
     0
279
    -2
289
     1
 69
     0
  7
STANDARD
140
0.25
170
     5
 62
     0
 63
     7
283
     0
 90
      512
 91
        0
  1

274
    -2
284
     1
 64
     0
275
    -2
285
     1
 65
     0
276
    -2
286
     1
 66
     0
277
    -2
287
     1
 67
     0
278
    -2
288
     1
 68
     0
279
    -2
289
     1
 69
     0
  7
STANDARD
140
0.18
170
     5
 62
     0
 63
     7
283
     0
 90
      512
 91
        0
  1

274
    -2
284
     1
 64
     0
275
    -2
285
     1
 65
     0
276
    -2
286
     1
 66
     0
277
    -2
287
     1
 67
     0
278
    -2
288
     1
 68
     0
279
    -2
289
     1
 69
     0
  0
VISUALSTYLE
  5
15B5
102
{ACAD_XDICTIONARY
360
1602
102
}
102
{ACAD_REACTORS
330
15AF
102
}
330
15AF
100
AcDbVisualStyle
  2
2dWireframe
 70
     4
 71
     0
 72
     2
 73
     0
 90
        0
 40
-0.6
 41
-30.0
 62
     5
 63
     7
 74
     1
 91
        4
 64
     7
 65
   257
 75
     1
175
     1
 42
1.0
 92
        0
 66
   257
 43
1.0
 76
     1
 77
     6
 78
     2
 67
     7
 79
     5
170
     0
171
     0
290
     0
174
     0
 93
        1
 44
0.0
173
     0
291
     0
 45
0.0
  0
VISUALSTYLE
  5
15B7
102
{ACAD_XDICTIONARY
360
1606
102
}
102
{ACAD_REACTORS
330
15AF
102
}
330
15AF
100
AcDbVisualStyle
  2
3D Hidden
 70
     6
 71
     1
 72
     2
 73
     2
 90
        0
 40
-0.6
 41
-30.0
 62
     5
 63
     7
 74
     2
 91
        2
 64
     7
 65
   257
 75
     2
175
     1
 42
179.0
 92
        0
 66
   257
 43
1.0
 76
     1
 77
     6
 78
     2
 67
     7
 79
     3
170
     0
171
     0
290
     0
174
     0
 93
        1
 44
0.0
173
     0
291
     0
 45
0.0
  0
VISUALSTYLE
  5
15B6
102
{ACAD_XDICTIONARY
360
1604
102
}
102
{ACAD_REACTORS
330
15AF
102
}
330
15AF
100
AcDbVisualStyle
  2
3dWireframe
 70
     5
 71
     0
 72
     2
 73
     0
 90
        0
 40
-0.6
 41
-30.0
 62
     5
 63
     7
 74
     1
 91
        4
 64
     7
 65
   257
 75
     1
175
     1
 42
1.0
 92
        0
 66
   257
 43
1.0
 76
     1
 77
     6
 78
     2
 67
     7
 79
     5
170
     0
171
     0
290
     0
174
     0
 93
        1
 44
0.0
173
     0
291
     0
 45
0.0
  0
VISUALSTYLE
  5
15B4
102
{ACAD_XDICTIONARY
360
1600
102
}
102
{ACAD_REACTORS
330
15AF
102
}
330
15AF
100
AcDbVisualStyle
  2
Basic
 70
     7
 71
     1
 72
     0
 73
     1
 90
        0
 40
-0.6
 41
-30.0
 62
     5
 63
     7
 74
     0
 91
        4
 64
     7
 65
   257
 75
     1
175
     1
 42
1.0
 92
        8
 66
     7
 43
1.0
 76
     1
 77
     6
 78
     2
 67
     7
 79
     5
170
     0
171
     0
290
     0
174
     0
 93
        1
 44
0.0
173
     0
291
     1
 45
0.0
  0
VISUALSTYLE
  5
15BB
102
{ACAD_XDICTIONARY
360
160E
102
}
102
{ACAD_REACTORS
330
15AF
102
}
330
15AF
100
AcDbVisualStyle
  2
Brighten
 70
    12
 71
     2
 72
     2
 73
     0
 90
        0
 40
-0.6
 41
-30.0
 62
     5
 63
     7
 74
     1
 91
        4
 64
     7
 65
   257
 75
     1
175
     1
 42
1.0
 92
        8
 66
     7
 43
1.0
 76
     1
 77
     6
 78
     2
 67
     7
 79
     5
170
     0
171
     0
290
     0
174
     0
 93
        1
 44
50.0
173
     0
291
     1
 45
0.0
  0
VISUALSTYLE
  5
15BF
102
{ACAD_XDICTIONARY
360
1616
102
}
102
{ACAD_REACTORS
330
15AF
102
}
330
15AF
100
AcDbVisualStyle
  2
ColorChange
 70
    16
 71
     2
 72
     2
 73
     3
 90
        0
 40
-0.6
 41
-30.0
 62
     5
 63
     8
 74
     1
 91
        4
 64
     7
 65
   257
 75
     1
175
     1
 42
1.0
 92
        8
 66
     8
 43
1.0
 76
     1
 77
     6
 78
     2
 67
     7
 79
     5
170
     0
171
     0
290
     0
174
     0
 93
        1
 44
0.0
173
     0
291
     1
 45
0.0
  0
VISUALSTYLE
  5
15B8
102
{ACAD_XDICTIONARY
360
1608
102
}
102
{ACAD_REACTORS
330
15AF
102
}
330
15AF
100
AcDbVisualStyle
  2
Conceptual
 70
     9
 71
     3
 72
     2
 73
     0
 90
        0
 40
-0.6
 41
-30.0
 62
     5
 63
     7
 74
     2
 91
        2
 64
     7
 65
   257
 75
     1
175
     1
 42
179.0
 92
        8
 66
     7
 43
1.0
 76
     1
 77
     6
 78
     2
 67
     7
 79
     3
170
     0
171
     0
290
     0
174
     0
 93
        1
 44
0.0
173
     0
291
     0
 45
0.0
  0
VISUALSTYLE
  5
15BA
102
{ACAD_XDICTIONARY
360
160C
102
}
102
{ACAD_REACTORS
330
15AF
102
}
330
15AF
100
AcDbVisualStyle
  2
Dim
 70
    11
 71
     2
 72
     2
 73
     0
 90
        0
 40
-0.6
 41
-30.0
 62
     5
 63
     7
 74
     1
 91
        4
 64
     7
 65
   257
 75
     1
175
     1
 42
1.0
 92
        8
 66
     7
 43
1.0
 76
     1
 77
     6
 78
     2
 67
     7
 79
     5
170
     0
171
     0
290
     0
174
     0
 93
        1
 44
-50.0
173
     0
291
     1
 45
0.0
  0
VISUALSTYLE
  5
15C2
102
{ACAD_XDICTIONARY
360
161C
102
}
102
{ACAD_REACTORS
330
15AF
102
}
330
15AF
100
AcDbVisualStyle
  2
EdgeColorOff
 70
    22
 71
     2
 72
     2
 73
     0
 90
        0
 40
-0.6
 41
-30.0
 62
     5
 63
     7
 74
     1
 91
        4
 64
     7
 65
   257
 75
     1
175
     1
 42
1.0
 92
        8
 66
     7
 43
1.0
 76
     1
 77
     6
 78
     2
 67
     7
 79
     5
170
     0
171
     0
290
     0
174
     0
 93
        1
 44
0.0
173
     0
291
     1
 45
0.0
  0
VISUALSTYLE
  5
15BE
102
{ACAD_XDICTIONARY
360
1614
102
}
102
{ACAD_REACTORS
330
15AF
102
}
330
15AF
100
AcDbVisualStyle
  2
Facepattern
 70
    15
 71
     2
 72
     2
 73
     0
 90
        0
 40
-0.6
 41
-30.0
 62
     5
 63
     7
 74
     1
 91
        4
 64
     7
 65
   257
 75
     1
175
     1
 42
1.0
 92
        8
 66
     7
 43
1.0
 76
     1
 77
     6
 78
     2
 67
     7
 79
     5
170
     0
171
     0
290
     0
174
     0
 93
        1
 44
0.0
173
     0
291
     1
 45
0.0
  0
VISUALSTYLE
  5
15B0
102
{ACAD_XDICTIONARY
360
15F8
102
}
102
{ACAD_REACTORS
330
15AF
102
}
330
15AF
100
AcDbVisualStyle
  2
Flat
 70
     0
 71
     2
 72
     1
 73
     1
 90
        2
 40
-0.6
 41
30.0
 62
     5
 63
     7
 74
     0
 91
        4
 64
     7
 65
   257
 75
     1
175
     1
 42
1.0
 92
        8
 66
     7
 43
1.0
 76
     1
 77
     6
 78
     2
 67
     7
 79
     5
170
     0
171
     0
290
     0
174
     0
 93
       13
 44
0.0
173
     0
291
     1
 45
0.0
  0
VISUALSTYLE
  5
15B1
102
{ACAD_XDICTIONARY
360
15FA
102
}
102
{ACAD_REACTORS
330
15AF
102
}
330
15AF
100
AcDbVisualStyle
  2
FlatWithEdges
 70
     1
 71
     2
 72
     1
 73
     1
 90
        2
 40
-0.6
 41
30.0
 62
     5
 63
     7
 74
     1
 91
        4
 64
     7
 65
   257
 75
     1
175
     1
 42
1.0
 92
        0
 66
   257
 43
1.0
 76
     1
 77
     6
 78
     2
 67
     7
 79
     5
170
     0
171
     0
290
     0
174
     0
 93
       13
 44
0.0
173
     0
291
     1
 45
0.0
  0
VISUALSTYLE
  5
15B2
102
{ACAD_XDICTIONARY
360
15FC
102
}
102
{ACAD_REACTORS
330
15AF
102
}
330
15AF
100
AcDbVisualStyle
  2
Gouraud
 70
     2
 71
     2
 72
     2
 73
     1
 90
        2
 40
-0.6
 41
30.0
 62
     5
 63
     7
 74
     0
 91
        4
 64
     7
 65
   257
 75
     1
175
     1
 42
1.0
 92
        0
 66
     7
 43
1.0
 76
     1
 77
     6
 78
     2
 67
     7
 79
     5
170
     0
171
     0
290
     0
174
     0
 93
       13
 44
0.0
173
     0
291
     1
 45
0.0
  0
VISUALSTYLE
  5
15B3
102
{ACAD_XDICTIONARY
360
15FE
102
}
102
{ACAD_REACTORS
330
15AF
102
}
330
15AF
100
AcDbVisualStyle
  2
GouraudWithEdges
 70
     3
 71
     2
 72
     2
 73
     1
 90
        2
 40
-0.6
 41
30.0
 62
     5
 63
     7
 74
     1
 91
        4
 64
     7
 65
   257
 75
     1
175
     1
 42
1.0
 92
        0
 66
   257
 43
1.0
 76
     1
 77
     6
 78
     2
 67
     7
 79
     5
170
     0
171
     0
290
     0
174
     0
 93
       13
 44
0.0
173
     0
291
     1
 45
0.0
  0
VISUALSTYLE
  5
15C0
102
{ACAD_XDICTIONARY
360
1618
102
}
102
{ACAD_REACTORS
330
15AF
102
}
330
15AF
100
AcDbVisualStyle
  2
JitterOff
 70
    20
 71
     2
 72
     2
 73
     0
 90
        0
 40
-0.6
 41
-30.0
 62
     5
 63
     7
 74
     1
 91
        4
 64
     7
 65
   257
 75
     1
175
     1
 42
1.0
 92
       10
 66
     7
 43
1.0
 76
     1
 77
     6
 78
     2
 67
     7
 79
     5
170
     0
171
     0
290
     0
174
     0
 93
        1
 44
0.0
173
     0
291
     1
 45
0.0
  0
VISUALSTYLE
  5
15BD
102
{ACAD_XDICTIONARY
360
1612
102
}
102
{ACAD_REACTORS
330
15AF
102
}
330
15AF
100
AcDbVisualStyle
  2
Linepattern
 70
    14
 71
     2
 72
     2
 73
     0
 90
        0
 40
-0.6
 41
-30.0
 62
     5
 63
     7
 74
     1
 91
        4
 64
     7
 65
   257
 75
     7
175
     7
 42
1.0
 92
        8
 66
     7
 43
1.0
 76
     1
 77
     6
 78
     2
 67
     7
 79
     5
170
     0
171
     0
290
     0
174
     0
 93
        1
 44
0.0
173
     0
291
     1
 45
0.0
  0
VISUALSTYLE
  5
15C1
102
{ACAD_XDICTIONARY
360
161A
102
}
102
{ACAD_REACTORS
330
15AF
102
}
330
15AF
100
AcDbVisualStyle
  2
OverhangOff
 70
    21
 71
     2
 72
     2
 73
     0
 90
        0
 40
-0.6
 41
-30.0
 62
     5
 63
     7
 74
     1
 91
        4
 64
     7
 65
   257
 75
     1
175
     1
 42
1.0
 92
        9
 66
     7
 43
1.0
 76
     1
 77
     6
 78
     2
 67
     7
 79
     5
170
     0
171
     0
290
     0
174
     0
 93
        1
 44
0.0
173
     0
291
     1
 45
0.0
  0
VISUALSTYLE
  5
15B9
102
{ACAD_XDICTIONARY
360
160A
102
}
102
{ACAD_REACTORS
330
15AF
102
}
330
15AF
100
AcDbVisualStyle
  2
Realistic
 70
     8
 71
     2
 72
     2
 73
     0
 90
        0
 40
-0.6
 41
-30.0
 62
     5
 63
     7
 74
     1
 91
        0
 64
     7
 65
   257
 75
     1
175
     1
 42
1.0
 92
        8
 66
     8
 43
1.0
 76
     1
 77
     6
 78
     2
 67
     7
 79
     5
170
     0
171
     0
290
     0
174
     0
 93
       13
 44
0.0
173
     0
291
     0
 45
0.0
  0
VISUALSTYLE
  5
15BC
102
{ACAD_XDICTIONARY
360
1610
102
}
102
{ACAD_REACTORS
330
15AF
102
}
330
15AF
100
AcDbVisualStyle
  2
Thicken
 70
    13
 71
     2
 72
     2
 73
     0
 90
        0
 40
-0.6
 41
-30.0
 62
     5
 63
     7
 74
     1
 91
        4
 64
     7
 65
   257
 75
     1
175
     1
 42
1.0
 92
       12
 66
     7
 43
1.0
 76
     1
 77
     6
 78
     2
 67
     7
 79
     5
170
     0
171
     0
290
     0
174
     0
 93
        1
 44
0.0
173
     0
291
     1
 45
0.0
  0
DICTIONARYVAR
  5
1623
102
{ACAD_REACTORS
330
1620
102
}
330
1620
100
DictionaryVariables
280
     0
  1
1:1
  0
DICTIONARYVAR
  5
1622
102
{ACAD_REACTORS
330
1620
102
}
330
1620
100
DictionaryVariables
280
     0
  1
STANDARD
  0
DICTIONARYVAR
  5
1621
102
{ACAD_REACTORS
330
1620
102
}
330
1620
100
DictionaryVariables
280
     0
  1
STANDARD
  0
DICTIONARYVAR
  5
1626
102
{ACAD_REACTORS
330
1620
102
}
330
1620
100
DictionaryVariables
280
     0
  1
1
  0
DICTIONARYVAR
  5
1625
102
{ACAD_REACTORS
330
1620
102
}
330
1620
100
DictionaryVariables
280
     0
  1
0
  0
DICTIONARYVAR
  5
166F
102
{ACAD_REACTORS
330
1620
102
}
330
1620
100
DictionaryVariables
280
     0
  1
1
  0
DICTIONARYVAR
  5
1670
102
{ACAD_REACTORS
330
1620
102
}
330
1620
100
DictionaryVariables
280
     0
  1
15
  0
DICTIONARYVAR
  5
166E
102
{ACAD_REACTORS
330
1620
102
}
330
1620
100
DictionaryVariables
280
     0
  1
0
  0
DICTIONARYVAR
  5
166D
102
{ACAD_REACTORS
330
1620
102
}
330
1620
100
DictionaryVariables
280
     0
  1
0
  0
DICTIONARYVAR
  5
1624
102
{ACAD_REACTORS
330
1620
102
}
330
1620
100
DictionaryVariables
280
     0
  1
127
  0
DICTIONARYVAR
  5
1627
102
{ACAD_REACTORS
330
1620
102
}
330
1620
100
DictionaryVariables
280
     0
  1
2
  0
DICTIONARY
  5
15A0
330
159F
100
AcDbDictionary
280
     1
281
     1
  3
BUMPTILE
360
15A2
  3
DIFFUSETILE
360
15A1
  3
OPACITYTILE
360
15A5
  3
REFLECTIONTILE
360
15A4
  3
REFRACTIONTILE
360
15A6
  3
SPECULARTILE
360
15A3
  0
DICTIONARY
  5
1598
330
1597
100
AcDbDictionary
280
     1
281
     1
  3
BUMPTILE
360
159A
  3
DIFFUSETILE
360
1599
  3
OPACITYTILE
360
159D
  3
REFLECTIONTILE
360
159C
  3
REFRACTIONTILE
360
159E
  3
SPECULARTILE
360
159B
  0
DICTIONARY
  5
15A8
330
15A7
100
AcDbDictionary
280
     1
281
     1
  3
BUMPTILE
360
15AA
  3
DIFFUSETILE
360
15A9
  3
OPACITYTILE
360
15AD
  3
REFLECTIONTILE
360
15AC
  3
REFRACTIONTILE
360
15AE
  3
SPECULARTILE
360
15AB
  0
DICTIONARY
  5
15EC
330
15C5
100
AcDbDictionary
280
     1
281
     1
  3
ACAD_ROUNDTRIP_2008_TABLESTYLE_CELLSTYLEMAP
360
1677
  0
DICTIONARY
  5
1602
330
15B5
100
AcDbDictionary
280
     1
281
     1
  3
ACAD_XREC_ROUNDTRIP
360
1603
  0
DICTIONARY
  5
1606
330
15B7
100
AcDbDictionary
280
     1
281
     1
  3
ACAD_XREC_ROUNDTRIP
360
1607
  0
DICTIONARY
  5
1604
330
15B6
100
AcDbDictionary
280
     1
281
     1
  3
ACAD_XREC_ROUNDTRIP
360
1605
  0
DICTIONARY
  5
1600
330
15B4
100
AcDbDictionary
280
     1
281
     1
  3
ACAD_XREC_ROUNDTRIP
360
1601
  0
DICTIONARY
  5
160E
330
15BB
100
AcDbDictionary
280
     1
281
     1
  3
ACAD_XREC_ROUNDTRIP
360
160F
  0
DICTIONARY
  5
1616
330
15BF
100
AcDbDictionary
280
     1
281
     1
  3
ACAD_XREC_ROUNDTRIP
360
1617
  0
DICTIONARY
  5
1608
330
15B8
100
AcDbDictionary
280
     1
281
     1
  3
ACAD_XREC_ROUNDTRIP
360
1609
  0
DICTIONARY
  5
160C
330
15BA
100
AcDbDictionary
280
     1
281
     1
  3
ACAD_XREC_ROUNDTRIP
360
160D
  0
DICTIONARY
  5
161C
330
15C2
100
AcDbDictionary
280
     1
281
     1
  3
ACAD_XREC_ROUNDTRIP
360
161D
  0
DICTIONARY
  5
1614
330
15BE
100
AcDbDictionary
280
     1
281
     1
  3
ACAD_XREC_ROUNDTRIP
360
1615
  0
DICTIONARY
  5
15F8
330
15B0
100
AcDbDictionary
280
     1
281
     1
  3
ACAD_XREC_ROUNDTRIP
360
15F9
  0
DICTIONARY
  5
15FA
330
15B1
100
AcDbDictionary
280
     1
281
     1
  3
ACAD_XREC_ROUNDTRIP
360
15FB
  0
DICTIONARY
  5
15FC
330
15B2
100
AcDbDictionary
280
     1
281
     1
  3
ACAD_XREC_ROUNDTRIP
360
15FD
  0
DICTIONARY
  5
15FE
330
15B3
100
AcDbDictionary
280
     1
281
     1
  3
ACAD_XREC_ROUNDTRIP
360
15FF
  0
DICTIONARY
  5
1618
330
15C0
100
AcDbDictionary
280
     1
281
     1
  3
ACAD_XREC_ROUNDTRIP
360
1619
  0
DICTIONARY
  5
1612
330
15BD
100
AcDbDictionary
280
     1
281
     1
  3
ACAD_XREC_ROUNDTRIP
360
1613
  0
DICTIONARY
  5
161A
330
15C1
100
AcDbDictionary
280
     1
281
     1
  3
ACAD_XREC_ROUNDTRIP
360
161B
  0
DICTIONARY
  5
160A
330
15B9
100
AcDbDictionary
280
     1
281
     1
  3
ACAD_XREC_ROUNDTRIP
360
160B
  0
DICTIONARY
  5
1610
330
15BC
100
AcDbDictionary
280
     1
281
     1
  3
ACAD_XREC_ROUNDTRIP
360
1611
  0
XRECORD
  5
15A2
102
{ACAD_REACTORS
330
15A0
102
}
330
15A0
100
AcDbXrecord
280
     1
270
     1
271
     1
  0
XRECORD
  5
15A1
102
{ACAD_REACTORS
330
15A0
102
}
330
15A0
100
AcDbXrecord
280
     1
270
     1
271
     1
  0
XRECORD
  5
15A5
102
{ACAD_REACTORS
330
15A0
102
}
330
15A0
100
AcDbXrecord
280
     1
270
     1
271
     1
  0
XRECORD
  5
15A4
102
{ACAD_REACTORS
330
15A0
102
}
330
15A0
100
AcDbXrecord
280
     1
270
     1
271
     1
  0
XRECORD
  5
15A6
102
{ACAD_REACTORS
330
15A0
102
}
330
15A0
100
AcDbXrecord
280
     1
270
     1
271
     1
  0
XRECORD
  5
15A3
102
{ACAD_REACTORS
330
15A0
102
}
330
15A0
100
AcDbXrecord
280
     1
270
     1
271
     1
  0
XRECORD
  5
159A
102
{ACAD_REACTORS
330
1598
102
}
330
1598
100
AcDbXrecord
280
     1
270
     1
271
     1
  0
XRECORD
  5
1599
102
{ACAD_REACTORS
330
1598
102
}
330
1598
100
AcDbXrecord
280
     1
270
     1
271
     1
  0
XRECORD
  5
159D
102
{ACAD_REACTORS
330
1598
102
}
330
1598
100
AcDbXrecord
280
     1
270
     1
271
     1
  0
XRECORD
  5
159C
102
{ACAD_REACTORS
330
1598
102
}
330
1598
100
AcDbXrecord
280
     1
270
     1
271
     1
  0
XRECORD
  5
159E
102
{ACAD_REACTORS
330
1598
102
}
330
1598
100
AcDbXrecord
280
     1
270
     1
271
     1
  0
XRECORD
  5
159B
102
{ACAD_REACTORS
330
1598
102
}
330
1598
100
AcDbXrecord
280
     1
270
     1
271
     1
  0
XRECORD
  5
15AA
102
{ACAD_REACTORS
330
15A8
102
}
330
15A8
100
AcDbXrecord
280
     1
270
     1
271
     1
  0
XRECORD
  5
15A9
102
{ACAD_REACTORS
330
15A8
102
}
330
15A8
100
AcDbXrecord
280
     1
270
     1
271
     1
  0
XRECORD
  5
15AD
102
{ACAD_REACTORS
330
15A8
102
}
330
15A8
100
AcDbXrecord
280
     1
270
     1
271
     1
  0
XRECORD
  5
15AC
102
{ACAD_REACTORS
330
15A8
102
}
330
15A8
100
AcDbXrecord
280
     1
270
     1
271
     1
  0
XRECORD
  5
15AE
102
{ACAD_REACTORS
330
15A8
102
}
330
15A8
100
AcDbXrecord
280
     1
270
     1
271
     1
  0
XRECORD
  5
15AB
102
{ACAD_REACTORS
330
15A8
102
}
330
15A8
100
AcDbXrecord
280
     1
270
     1
271
     1
  0
CELLSTYLEMAP
  5
1677
102
{ACAD_REACTORS
330
15EC
102
}
330
15EC
100
AcDbCellStyleMap
 90
        3
300
CELLSTYLE
  1
TABLEFORMAT_BEGIN
 90
        5
170
     1
 91
        0
 92
    32768
 62
   257
 93
        1
300
CONTENTFORMAT
  1
CONTENTFORMAT_BEGIN
 90
        0
 91
        0
 92
      512
 93
        0
300

 40
0.0
140
1.0
 94
        5
 62
     0
340
11
144
0.25
309
CONTENTFORMAT_END
171
     0
 94
        0
309
TABLEFORMAT_END
  1
CELLSTYLE_BEGIN
 90
        1
 91
        1
300
_TITLE
309
CELLSTYLE_END
300
CELLSTYLE
  1
TABLEFORMAT_BEGIN
 90
        5
170
     1
 91
        0
 92
        0
 62
   257
 93
        1
300
CONTENTFORMAT
  1
CONTENTFORMAT_BEGIN
 90
        0
 91
        0
 92
      512
 93
        0
300

 40
0.0
140
1.0
 94
        5
 62
     0
340
11
144
0.18
309
CONTENTFORMAT_END
171
     0
 94
        0
309
TABLEFORMAT_END
  1
CELLSTYLE_BEGIN
 90
        2
 91
        1
300
_HEADER
309
CELLSTYLE_END
300
CELLSTYLE
  1
TABLEFORMAT_BEGIN
 90
        5
170
     1
 91
        0
 92
        0
 62
   257
 93
        1
300
CONTENTFORMAT
  1
CONTENTFORMAT_BEGIN
 90
        0
 91
        0
 92
      512
 93
        0
300

 40
0.0
140
1.0
 94
        2
 62
     0
340
11
144
0.18
309
CONTENTFORMAT_END
171
     0
 94
        0
309
TABLEFORMAT_END
  1
CELLSTYLE_BEGIN
 90
        3
 91
        2
300
_DATA
309
CELLSTYLE_END
  0
XRECORD
  5
1603
102
{ACAD_REACTORS
330
1602
102
}
330
1602
100
AcDbXrecord
280
     1
102
RTVSPropertyOp0
 70
     1
102
RTVSPropertyOp1
 70
     1
102
RTVSPropertyOp2
 70
     1
102
RTVSPropertyOp3
 70
     1
102
RTVSPropertyOp4
 70
     1
102
RTVSPropertyOp5
 70
     1
102
RTVSPropertyOp6
 70
     1
102
RTVSPropertyOp7
 70
     1
102
RTVSPropertyOp8
 70
     1
102
RTVSPropertyOp9
 70
     1
102
RTVSPropertyOp10
 70
     1
102
RTVSPropertyOp11
 70
     1
102
RTVSPropertyOp12
 70
     1
102
RTVSPropertyOp13
 70
     1
102
RTVSPropertyOp14
 70
     1
102
RTVSPropertyOp15
 70
     1
102
RTVSPropertyOp16
 70
     1
102
RTVSPropertyOp17
 70
     1
102
RTVSPropertyOp18
 70
     1
102
RTVSPropertyOp19
 70
     1
102
RTVSPropertyOp20
 70
     1
102
RTVSPropertyOp21
 70
     1
102
RTVSPropertyOp22
 70
     1
102
RTVSPropertyOp23
 70
     1
102
RTVSPropertyOp24
 70
     1
102
RTVSPropertyOp25
 70
     1
102
RTVSPropertyOp26
 70
     1
102
RTVSPropertyOp27
 70
     1
  0
XRECORD
  5
1607
102
{ACAD_REACTORS
330
1606
102
}
330
1606
100
AcDbXrecord
280
     1
102
RTVSPropertyOp0
 70
     1
102
RTVSPropertyOp1
 70
     1
102
RTVSPropertyOp2
 70
     1
102
RTVSPropertyOp3
 70
     1
102
RTVSPropertyOp4
 70
     1
102
RTVSPropertyOp5
 70
     1
102
RTVSPropertyOp6
 70
     1
102
RTVSPropertyOp7
 70
     1
102
RTVSPropertyOp8
 70
     1
102
RTVSPropertyOp9
 70
     1
102
RTVSPropertyOp10
 70
     1
102
RTVSPropertyOp11
 70
     1
102
RTVSPropertyOp12
 70
     1
102
RTVSPropertyOp13
 70
     1
102
RTVSPropertyOp14
 70
     1
102
RTVSPropertyOp15
 70
     1
102
RTVSPropertyOp16
 70
     1
102
RTVSPropertyOp17
 70
     1
102
RTVSPropertyOp18
 70
     1
102
RTVSPropertyOp19
 70
     1
102
RTVSPropertyOp20
 70
     1
102
RTVSPropertyOp21
 70
     1
102
RTVSPropertyOp22
 70
     1
102
RTVSPropertyOp23
 70
     1
102
RTVSPropertyOp24
 70
     1
102
RTVSPropertyOp25
 70
     1
102
RTVSPropertyOp26
 70
     1
102
RTVSPropertyOp27
 70
     1
  0
XRECORD
  5
1605
102
{ACAD_REACTORS
330
1604
102
}
330
1604
100
AcDbXrecord
280
     1
102
RTVSPropertyOp0
 70
     1
102
RTVSPropertyOp1
 70
     1
102
RTVSPropertyOp2
 70
     1
102
RTVSPropertyOp3
 70
     1
102
RTVSPropertyOp4
 70
     1
102
RTVSPropertyOp5
 70
     1
102
RTVSPropertyOp6
 70
     1
102
RTVSPropertyOp7
 70
     1
102
RTVSPropertyOp8
 70
     1
102
RTVSPropertyOp9
 70
     1
102
RTVSPropertyOp10
 70
     1
102
RTVSPropertyOp11
 70
     1
102
RTVSPropertyOp12
 70
     1
102
RTVSPropertyOp13
 70
     1
102
RTVSPropertyOp14
 70
     1
102
RTVSPropertyOp15
 70
     1
102
RTVSPropertyOp16
 70
     1
102
RTVSPropertyOp17
 70
     1
102
RTVSPropertyOp18
 70
     1
102
RTVSPropertyOp19
 70
     1
102
RTVSPropertyOp20
 70
     1
102
RTVSPropertyOp21
 70
     1
102
RTVSPropertyOp22
 70
     1
102
RTVSPropertyOp23
 70
     1
102
RTVSPropertyOp24
 70
     1
102
RTVSPropertyOp25
 70
     1
102
RTVSPropertyOp26
 70
     1
102
RTVSPropertyOp27
 70
     1
  0
XRECORD
  5
1601
102
{ACAD_REACTORS
330
1600
102
}
330
1600
100
AcDbXrecord
280
     1
102
RTVSPropertyOp0
 70
     1
102
RTVSPropertyOp1
 70
     1
102
RTVSPropertyOp2
 70
     1
102
RTVSPropertyOp3
 70
     1
102
RTVSPropertyOp4
 70
     1
102
RTVSPropertyOp5
 70
     1
102
RTVSPropertyOp6
 70
     1
102
RTVSPropertyOp7
 70
     1
102
RTVSPropertyOp8
 70
     1
102
RTVSPropertyOp9
 70
     1
102
RTVSPropertyOp10
 70
     1
102
RTVSPropertyOp11
 70
     1
102
RTVSPropertyOp12
 70
     1
102
RTVSPropertyOp13
 70
     1
102
RTVSPropertyOp14
 70
     1
102
RTVSPropertyOp15
 70
     1
102
RTVSPropertyOp16
 70
     1
102
RTVSPropertyOp17
 70
     1
102
RTVSPropertyOp18
 70
     1
102
RTVSPropertyOp19
 70
     1
102
RTVSPropertyOp20
 70
     1
102
RTVSPropertyOp21
 70
     1
102
RTVSPropertyOp22
 70
     1
102
RTVSPropertyOp23
 70
     1
102
RTVSPropertyOp24
 70
     1
102
RTVSPropertyOp25
 70
     1
102
RTVSPropertyOp26
 70
     1
102
RTVSPropertyOp27
 70
     1
  0
XRECORD
  5
160F
102
{ACAD_REACTORS
330
160E
102
}
330
160E
100
AcDbXrecord
280
     1
102
RTVSPropertyOp0
 70
     1
102
RTVSPropertyOp1
 70
     1
102
RTVSPropertyOp2
 70
     1
102
RTVSPropertyOp3
 70
     1
102
RTVSPropertyOp4
 70
     1
102
RTVSPropertyOp5
 70
     1
102
RTVSPropertyOp6
 70
     1
102
RTVSPropertyOp7
 70
     1
102
RTVSPropertyOp8
 70
     1
102
RTVSPropertyOp9
 70
     1
102
RTVSPropertyOp10
 70
     1
102
RTVSPropertyOp11
 70
     1
102
RTVSPropertyOp12
 70
     1
102
RTVSPropertyOp13
 70
     1
102
RTVSPropertyOp14
 70
     1
102
RTVSPropertyOp15
 70
     1
102
RTVSPropertyOp16
 70
     1
102
RTVSPropertyOp17
 70
     1
102
RTVSPropertyOp18
 70
     1
102
RTVSPropertyOp19
 70
     1
102
RTVSPropertyOp20
 70
     1
102
RTVSPropertyOp21
 70
     1
102
RTVSPropertyOp22
 70
     1
102
RTVSPropertyOp23
 70
     1
102
RTVSPropertyOp24
 70
     1
102
RTVSPropertyOp25
 70
     1
102
RTVSPropertyOp26
 70
     1
102
RTVSPropertyOp27
 70
     1
  0
XRECORD
  5
1617
102
{ACAD_REACTORS
330
1616
102
}
330
1616
100
AcDbXrecord
280
     1
102
RTVSPropertyOp0
 70
     1
102
RTVSPropertyOp1
 70
     1
102
RTVSPropertyOp2
 70
     1
102
RTVSPropertyOp3
 70
     1
102
RTVSPropertyOp4
 70
     1
102
RTVSPropertyOp5
 70
     1
102
RTVSPropertyOp6
 70
     1
102
RTVSPropertyOp7
 70
     1
102
RTVSPropertyOp8
 70
     1
102
RTVSPropertyOp9
 70
     1
102
RTVSPropertyOp10
 70
     1
102
RTVSPropertyOp11
 70
     1
102
RTVSPropertyOp12
 70
     1
102
RTVSPropertyOp13
 70
     1
102
RTVSPropertyOp14
 70
     1
102
RTVSPropertyOp15
 70
     1
102
RTVSPropertyOp16
 70
     1
102
RTVSPropertyOp17
 70
     1
102
RTVSPropertyOp18
 70
     1
102
RTVSPropertyOp19
 70
     1
102
RTVSPropertyOp20
 70
     1
102
RTVSPropertyOp21
 70
     1
102
RTVSPropertyOp22
 70
     1
102
RTVSPropertyOp23
 70
     1
102
RTVSPropertyOp24
 70
     1
102
RTVSPropertyOp25
 70
     1
102
RTVSPropertyOp26
 70
     1
102
RTVSPropertyOp27
 70
     1
  0
XRECORD
  5
1609
102
{ACAD_REACTORS
330
1608
102
}
330
1608
100
AcDbXrecord
280
     1
102
RTVSPropertyOp0
 70
     1
102
RTVSPropertyOp1
 70
     1
102
RTVSPropertyOp2
 70
     1
102
RTVSPropertyOp3
 70
     1
102
RTVSPropertyOp4
 70
     1
102
RTVSPropertyOp5
 70
     1
102
RTVSPropertyOp6
 70
     1
102
RTVSPropertyOp7
 70
     1
102
RTVSPropertyOp8
 70
     1
102
RTVSPropertyOp9
 70
     1
102
RTVSPropertyOp10
 70
     1
102
RTVSPropertyOp11
 70
     1
102
RTVSPropertyOp12
 70
     1
102
RTVSPropertyOp13
 70
     1
102
RTVSPropertyOp14
 70
     1
102
RTVSPropertyOp15
 70
     1
102
RTVSPropertyOp16
 70
     1
102
RTVSPropertyOp17
 70
     1
102
RTVSPropertyOp18
 70
     1
102
RTVSPropertyOp19
 70
     1
102
RTVSPropertyOp20
 70
     1
102
RTVSPropertyOp21
 70
     1
102
RTVSPropertyOp22
 70
     1
102
RTVSPropertyOp23
 70
     1
102
RTVSPropertyOp24
 70
     1
102
RTVSPropertyOp25
 70
     1
102
RTVSPropertyOp26
 70
     1
102
RTVSPropertyOp27
 70
     1
  0
XRECORD
  5
160D
102
{ACAD_REACTORS
330
160C
102
}
330
160C
100
AcDbXrecord
280
     1
102
RTVSPropertyOp0
 70
     1
102
RTVSPropertyOp1
 70
     1
102
RTVSPropertyOp2
 70
     1
102
RTVSPropertyOp3
 70
     1
102
RTVSPropertyOp4
 70
     1
102
RTVSPropertyOp5
 70
     1
102
RTVSPropertyOp6
 70
     1
102
RTVSPropertyOp7
 70
     1
102
RTVSPropertyOp8
 70
     1
102
RTVSPropertyOp9
 70
     1
102
RTVSPropertyOp10
 70
     1
102
RTVSPropertyOp11
 70
     1
102
RTVSPropertyOp12
 70
     1
102
RTVSPropertyOp13
 70
     1
102
RTVSPropertyOp14
 70
     1
102
RTVSPropertyOp15
 70
     1
102
RTVSPropertyOp16
 70
     1
102
RTVSPropertyOp17
 70
     1
102
RTVSPropertyOp18
 70
     1
102
RTVSPropertyOp19
 70
     1
102
RTVSPropertyOp20
 70
     1
102
RTVSPropertyOp21
 70
     1
102
RTVSPropertyOp22
 70
     1
102
RTVSPropertyOp23
 70
     1
102
RTVSPropertyOp24
 70
     1
102
RTVSPropertyOp25
 70
     1
102
RTVSPropertyOp26
 70
     1
102
RTVSPropertyOp27
 70
     1
  0
XRECORD
  5
161D
102
{ACAD_REACTORS
330
161C
102
}
330
161C
100
AcDbXrecord
280
     1
102
RTVSPropertyOp0
 70
     0
102
RTVSPropertyOp1
 70
     0
102
RTVSPropertyOp2
 70
     0
102
RTVSPropertyOp3
 70
     0
102
RTVSPropertyOp4
 70
     0
102
RTVSPropertyOp5
 70
     0
102
RTVSPropertyOp6
 70
     0
102
RTVSPropertyOp7
 70
     0
102
RTVSPropertyOp8
 70
     0
102
RTVSPropertyOp9
 70
     0
102
RTVSPropertyOp10
 70
     0
102
RTVSPropertyOp11
 70
     0
102
RTVSPropertyOp12
 70
     0
102
RTVSPropertyOp13
 70
     0
102
RTVSPropertyOp14
 70
     2
102
RTVSPropertyOp15
 70
     0
102
RTVSPropertyOp16
 70
     0
102
RTVSPropertyOp17
 70
     0
102
RTVSPropertyOp18
 70
     0
102
RTVSPropertyOp19
 70
     0
102
RTVSPropertyOp20
 70
     0
102
RTVSPropertyOp21
 70
     0
102
RTVSPropertyOp22
 70
     0
102
RTVSPropertyOp23
 70
     0
102
RTVSPropertyOp24
 70
     0
102
RTVSPropertyOp25
 70
     0
102
RTVSPropertyOp26
 70
     0
102
RTVSPropertyOp27
 70
     0
  0
XRECORD
  5
1615
102
{ACAD_REACTORS
330
1614
102
}
330
1614
100
AcDbXrecord
280
     1
102
RTVSPropertyOp0
 70
     1
102
RTVSPropertyOp1
 70
     1
102
RTVSPropertyOp2
 70
     1
102
RTVSPropertyOp3
 70
     1
102
RTVSPropertyOp4
 70
     1
102
RTVSPropertyOp5
 70
     1
102
RTVSPropertyOp6
 70
     1
102
RTVSPropertyOp7
 70
     1
102
RTVSPropertyOp8
 70
     1
102
RTVSPropertyOp9
 70
     1
102
RTVSPropertyOp10
 70
     1
102
RTVSPropertyOp11
 70
     1
102
RTVSPropertyOp12
 70
     1
102
RTVSPropertyOp13
 70
     1
102
RTVSPropertyOp14
 70
     1
102
RTVSPropertyOp15
 70
     1
102
RTVSPropertyOp16
 70
     1
102
RTVSPropertyOp17
 70
     1
102
RTVSPropertyOp18
 70
     1
102
RTVSPropertyOp19
 70
     1
102
RTVSPropertyOp20
 70
     1
102
RTVSPropertyOp21
 70
     1
102
RTVSPropertyOp22
 70
     1
102
RTVSPropertyOp23
 70
     1
102
RTVSPropertyOp24
 70
     1
102
RTVSPropertyOp25
 70
     1
102
RTVSPropertyOp26
 70
     1
102
RTVSPropertyOp27
 70
     1
  0
XRECORD
  5
15F9
102
{ACAD_REACTORS
330
15F8
102
}
330
15F8
100
AcDbXrecord
280
     1
102
RTVSPropertyOp0
 70
     1
102
RTVSPropertyOp1
 70
     1
102
RTVSPropertyOp2
 70
     1
102
RTVSPropertyOp3
 70
     1
102
RTVSPropertyOp4
 70
     1
102
RTVSPropertyOp5
 70
     1
102
RTVSPropertyOp6
 70
     1
102
RTVSPropertyOp7
 70
     1
102
RTVSPropertyOp8
 70
     1
102
RTVSPropertyOp9
 70
     1
102
RTVSPropertyOp10
 70
     1
102
RTVSPropertyOp11
 70
     1
102
RTVSPropertyOp12
 70
     1
102
RTVSPropertyOp13
 70
     1
102
RTVSPropertyOp14
 70
     1
102
RTVSPropertyOp15
 70
     1
102
RTVSPropertyOp16
 70
     1
102
RTVSPropertyOp17
 70
     1
102
RTVSPropertyOp18
 70
     1
102
RTVSPropertyOp19
 70
     1
102
RTVSPropertyOp20
 70
     1
102
RTVSPropertyOp21
 70
     1
102
RTVSPropertyOp22
 70
     1
102
RTVSPropertyOp23
 70
     1
102
RTVSPropertyOp24
 70
     1
102
RTVSPropertyOp25
 70
     1
102
RTVSPropertyOp26
 70
     1
102
RTVSPropertyOp27
 70
     1
  0
XRECORD
  5
15FB
102
{ACAD_REACTORS
330
15FA
102
}
330
15FA
100
AcDbXrecord
280
     1
102
RTVSPropertyOp0
 70
     1
102
RTVSPropertyOp1
 70
     1
102
RTVSPropertyOp2
 70
     1
102
RTVSPropertyOp3
 70
     1
102
RTVSPropertyOp4
 70
     1
102
RTVSPropertyOp5
 70
     1
102
RTVSPropertyOp6
 70
     1
102
RTVSPropertyOp7
 70
     1
102
RTVSPropertyOp8
 70
     1
102
RTVSPropertyOp9
 70
     1
102
RTVSPropertyOp10
 70
     1
102
RTVSPropertyOp11
 70
     1
102
RTVSPropertyOp12
 70
     1
102
RTVSPropertyOp13
 70
     1
102
RTVSPropertyOp14
 70
     1
102
RTVSPropertyOp15
 70
     1
102
RTVSPropertyOp16
 70
     1
102
RTVSPropertyOp17
 70
     1
102
RTVSPropertyOp18
 70
     1
102
RTVSPropertyOp19
 70
     1
102
RTVSPropertyOp20
 70
     1
102
RTVSPropertyOp21
 70
     1
102
RTVSPropertyOp22
 70
     1
102
RTVSPropertyOp23
 70
     1
102
RTVSPropertyOp24
 70
     1
102
RTVSPropertyOp25
 70
     1
102
RTVSPropertyOp26
 70
     1
102
RTVSPropertyOp27
 70
     1
  0
XRECORD
  5
15FD
102
{ACAD_REACTORS
330
15FC
102
}
330
15FC
100
AcDbXrecord
280
     1
102
RTVSPropertyOp0
 70
     1
102
RTVSPropertyOp1
 70
     1
102
RTVSPropertyOp2
 70
     1
102
RTVSPropertyOp3
 70
     1
102
RTVSPropertyOp4
 70
     1
102
RTVSPropertyOp5
 70
     1
102
RTVSPropertyOp6
 70
     1
102
RTVSPropertyOp7
 70
     1
102
RTVSPropertyOp8
 70
     1
102
RTVSPropertyOp9
 70
     1
102
RTVSPropertyOp10
 70
     1
102
RTVSPropertyOp11
 70
     1
102
RTVSPropertyOp12
 70
     1
102
RTVSPropertyOp13
 70
     1
102
RTVSPropertyOp14
 70
     1
102
RTVSPropertyOp15
 70
     1
102
RTVSPropertyOp16
 70
     1
102
RTVSPropertyOp17
 70
     1
102
RTVSPropertyOp18
 70
     1
102
RTVSPropertyOp19
 70
     1
102
RTVSPropertyOp20
 70
     1
102
RTVSPropertyOp21
 70
     1
102
RTVSPropertyOp22
 70
     1
102
RTVSPropertyOp23
 70
     1
102
RTVSPropertyOp24
 70
     1
102
RTVSPropertyOp25
 70
     1
102
RTVSPropertyOp26
 70
     1
102
RTVSPropertyOp27
 70
     1
  0
XRECORD
  5
15FF
102
{ACAD_REACTORS
330
15FE
102
}
330
15FE
100
AcDbXrecord
280
     1
102
RTVSPropertyOp0
 70
     1
102
RTVSPropertyOp1
 70
     1
102
RTVSPropertyOp2
 70
     1
102
RTVSPropertyOp3
 70
     1
102
RTVSPropertyOp4
 70
     1
102
RTVSPropertyOp5
 70
     1
102
RTVSPropertyOp6
 70
     1
102
RTVSPropertyOp7
 70
     1
102
RTVSPropertyOp8
 70
     1
102
RTVSPropertyOp9
 70
     1
102
RTVSPropertyOp10
 70
     1
102
RTVSPropertyOp11
 70
     1
102
RTVSPropertyOp12
 70
     1
102
RTVSPropertyOp13
 70
     1
102
RTVSPropertyOp14
 70
     1
102
RTVSPropertyOp15
 70
     1
102
RTVSPropertyOp16
 70
     1
102
RTVSPropertyOp17
 70
     1
102
RTVSPropertyOp18
 70
     1
102
RTVSPropertyOp19
 70
     1
102
RTVSPropertyOp20
 70
     1
102
RTVSPropertyOp21
 70
     1
102
RTVSPropertyOp22
 70
     1
102
RTVSPropertyOp23
 70
     1
102
RTVSPropertyOp24
 70
     1
102
RTVSPropertyOp25
 70
     1
102
RTVSPropertyOp26
 70
     1
102
RTVSPropertyOp27
 70
     1
  0
XRECORD
  5
1619
102
{ACAD_REACTORS
330
1618
102
}
330
1618
100
AcDbXrecord
280
     1
102
RTVSPropertyOp0
 70
     0
102
RTVSPropertyOp1
 70
     0
102
RTVSPropertyOp2
 70
     0
102
RTVSPropertyOp3
 70
     0
102
RTVSPropertyOp4
 70
     0
102
RTVSPropertyOp5
 70
     0
102
RTVSPropertyOp6
 70
     0
102
RTVSPropertyOp7
 70
     0
102
RTVSPropertyOp8
 70
     0
102
RTVSPropertyOp9
 70
     0
102
RTVSPropertyOp10
 70
     0
102
RTVSPropertyOp11
 70
     0
102
RTVSPropertyOp12
 70
     0
102
RTVSPropertyOp13
 70
     0
102
RTVSPropertyOp14
 70
     2
102
RTVSPropertyOp15
 70
     0
102
RTVSPropertyOp16
 70
     0
102
RTVSPropertyOp17
 70
     0
102
RTVSPropertyOp18
 70
     0
102
RTVSPropertyOp19
 70
     0
102
RTVSPropertyOp20
 70
     0
102
RTVSPropertyOp21
 70
     0
102
RTVSPropertyOp22
 70
     0
102
RTVSPropertyOp23
 70
     0
102
RTVSPropertyOp24
 70
     0
102
RTVSPropertyOp25
 70
     0
102
RTVSPropertyOp26
 70
     0
102
RTVSPropertyOp27
 70
     0
  0
XRECORD
  5
1613
102
{ACAD_REACTORS
330
1612
102
}
330
1612
100
AcDbXrecord
280
     1
102
RTVSPropertyOp0
 70
     1
102
RTVSPropertyOp1
 70
     1
102
RTVSPropertyOp2
 70
     1
102
RTVSPropertyOp3
 70
     1
102
RTVSPropertyOp4
 70
     1
102
RTVSPropertyOp5
 70
     1
102
RTVSPropertyOp6
 70
     1
102
RTVSPropertyOp7
 70
     1
102
RTVSPropertyOp8
 70
     1
102
RTVSPropertyOp9
 70
     1
102
RTVSPropertyOp10
 70
     1
102
RTVSPropertyOp11
 70
     1
102
RTVSPropertyOp12
 70
     1
102
RTVSPropertyOp13
 70
     1
102
RTVSPropertyOp14
 70
     1
102
RTVSPropertyOp15
 70
     1
102
RTVSPropertyOp16
 70
     1
102
RTVSPropertyOp17
 70
     1
102
RTVSPropertyOp18
 70
     1
102
RTVSPropertyOp19
 70
     1
102
RTVSPropertyOp20
 70
     1
102
RTVSPropertyOp21
 70
     1
102
RTVSPropertyOp22
 70
     1
102
RTVSPropertyOp23
 70
     1
102
RTVSPropertyOp24
 70
     1
102
RTVSPropertyOp25
 70
     1
102
RTVSPropertyOp26
 70
     1
102
RTVSPropertyOp27
 70
     1
  0
XRECORD
  5
161B
102
{ACAD_REACTORS
330
161A
102
}
330
161A
100
AcDbXrecord
280
     1
102
RTVSPropertyOp0
 70
     0
102
RTVSPropertyOp1
 70
     0
102
RTVSPropertyOp2
 70
     0
102
RTVSPropertyOp3
 70
     0
102
RTVSPropertyOp4
 70
     0
102
RTVSPropertyOp5
 70
     0
102
RTVSPropertyOp6
 70
     0
102
RTVSPropertyOp7
 70
     0
102
RTVSPropertyOp8
 70
     0
102
RTVSPropertyOp9
 70
     0
102
RTVSPropertyOp10
 70
     0
102
RTVSPropertyOp11
 70
     0
102
RTVSPropertyOp12
 70
     0
102
RTVSPropertyOp13
 70
     0
102
RTVSPropertyOp14
 70
     2
102
RTVSPropertyOp15
 70
     0
102
RTVSPropertyOp16
 70
     0
102
RTVSPropertyOp17
 70
     0
102
RTVSPropertyOp18
 70
     0
102
RTVSPropertyOp19
 70
     0
102
RTVSPropertyOp20
 70
     0
102
RTVSPropertyOp21
 70
     0
102
RTVSPropertyOp22
 70
     0
102
RTVSPropertyOp23
 70
     0
102
RTVSPropertyOp24
 70
     0
102
RTVSPropertyOp25
 70
     0
102
RTVSPropertyOp26
 70
     0
102
RTVSPropertyOp27
 70
     0
  0
XRECORD
  5
160B
102
{ACAD_REACTORS
330
160A
102
}
330
160A
100
AcDbXrecord
280
     1
102
RTVSPropertyOp0
 70
     1
102
RTVSPropertyOp1
 70
     1
102
RTVSPropertyOp2
 70
     1
102
RTVSPropertyOp3
 70
     1
102
RTVSPropertyOp4
 70
     1
102
RTVSPropertyOp5
 70
     1
102
RTVSPropertyOp6
 70
     1
102
RTVSPropertyOp7
 70
     1
102
RTVSPropertyOp8
 70
     1
102
RTVSPropertyOp9
 70
     1
102
RTVSPropertyOp10
 70
     1
102
RTVSPropertyOp11
 70
     1
102
RTVSPropertyOp12
 70
     1
102
RTVSPropertyOp13
 70
     1
102
RTVSPropertyOp14
 70
     1
102
RTVSPropertyOp15
 70
     1
102
RTVSPropertyOp16
 70
     1
102
RTVSPropertyOp17
 70
     1
102
RTVSPropertyOp18
 70
     1
102
RTVSPropertyOp19
 70
     1
102
RTVSPropertyOp20
 70
     1
102
RTVSPropertyOp21
 70
     1
102
RTVSPropertyOp22
 70
     1
102
RTVSPropertyOp23
 70
     1
102
RTVSPropertyOp24
 70
     1
102
RTVSPropertyOp25
 70
     1
102
RTVSPropertyOp26
 70
     1
102
RTVSPropertyOp27
 70
     1
  0
XRECORD
  5
1611
102
{ACAD_REACTORS
330
1610
102
}
330
1610
100
AcDbXrecord
280
     1
102
RTVSPropertyOp0
 70
     1
102
RTVSPropertyOp1
 70
     1
102
RTVSPropertyOp2
 70
     1
102
RTVSPropertyOp3
 70
     1
102
RTVSPropertyOp4
 70
     1
102
RTVSPropertyOp5
 70
     1
102
RTVSPropertyOp6
 70
     1
102
RTVSPropertyOp7
 70
     1
102
RTVSPropertyOp8
 70
     1
102
RTVSPropertyOp9
 70
     1
102
RTVSPropertyOp10
 70
     1
102
RTVSPropertyOp11
 70
     1
102
RTVSPropertyOp12
 70
     1
102
RTVSPropertyOp13
 70
     1
102
RTVSPropertyOp14
 70
     1
102
RTVSPropertyOp15
 70
     1
102
RTVSPropertyOp16
 70
     1
102
RTVSPropertyOp17
 70
     1
102
RTVSPropertyOp18
 70
     1
102
RTVSPropertyOp19
 70
     1
102
RTVSPropertyOp20
 70
     1
102
RTVSPropertyOp21
 70
     1
102
RTVSPropertyOp22
 70
     1
102
RTVSPropertyOp23
 70
     1
102
RTVSPropertyOp24
 70
     1
102
RTVSPropertyOp25
 70
     1
102
RTVSPropertyOp26
 70
     1
102
RTVSPropertyOp27
 70
     1
  0
ENDSEC
  0
EOF
