  0
SECTION
  2
HEADER
  9
$ACADVER
  1
AC1021
  9
$ACADMAINTVER
 70
    50
  9
$DWGCODEPAGE
  3
ANSI_1252
  9
$LASTSAVEDBY
  1
francoisbu
  9
$INSBASE
 10
0.0
 20
0.0
 30
0.0
  9
$EXTMIN
 10
21.79316042046611
 20
67.75276727912665
 30
-0.0015258207003583
  9
$EXTMAX
 10
87.815372011781
 20
103.7569989552702
 30
0.0000000349246037
  9
$LIMMIN
 10
0.0
 20
0.0
  9
$LIMMAX
 10
181.3333333333
 20
117.3333333333
  9
$ORTHOMODE
 70
     0
  9
$REGENMODE
 70
     1
  9
$FILLMODE
 70
     1
  9
$QTEXTMODE
 70
     0
  9
$MIRRTEXT
 70
     0
  9
$LTSCALE
 40
9.973333333300001
  9
$ATTMODE
 70
     1
  9
$TEXTSIZE
 40
0.2
  9
$TRACEWID
 40
0.05
  9
$TEXTSTYLE
  7
STANDARD
  9
$CLAYER
  8
0
  9
$CELTYPE
  6
BYLAYER
  9
$CECOLOR
 62
   256
  9
$CELTSCALE
 40
1.0
  9
$DISPSILH
 70
     0
  9
$DIMSCALE
 40
1.0
  9
$DIMASZ
 40
2.0
  9
$DIMEXO
 40
0.0625
  9
$DIMDLI
 40
6.890666666699999
  9
$DIMRND
 40
0.0
  9
$DIMDLE
 40
0.0
  9
$DIMEXE
 40
0.125
  9
$DIMTP
 40
0.00001
  9
$DIMTM
 40
0.00001
  9
$DIMTXT
 40
1.333333333299999
  9
$DIMCEN
 40
1.631999999999999
  9
$DIMTSZ
 40
0.0
  9
$DIMTOL
 70
     1
  9
$DIMLIM
 70
     0
  9
$DIMTIH
 70
     1
  9
$DIMTOH
 70
     1
  9
$DIMSE1
 70
     0
  9
$DIMSE2
 70
     0
  9
$DIMTAD
 70
     0
  9
$DIMZIN
 70
     0
  9
$DIMBLK
  1
_FILLED
  9
$DIMASO
 70
     1
  9
$DIMSHO
 70
     1
  9
$DIMPOST
  1

  9
$DIMAPOST
  1

  9
$DIMALT
 70
     0
  9
$DIMALTD
 70
     2
  9
$DIMALTF
 40
25.4
  9
$DIMLFAC
 40
1.0
  9
$DIMTOFL
 70
     0
  9
$DIMTVP
 40
0.0
  9
$DIMTIX
 70
     0
  9
$DIMSOXD
 70
     0
  9
$DIMSAH
 70
     0
  9
$DIMBLK1
  1

  9
$DIMBLK2
  1

  9
$DIMSTYLE
  2
STANDARD
  9
$DIMCLRD
 70
     0
  9
$DIMCLRE
 70
     0
  9
$DIMCLRT
 70
     0
  9
$DIMTFAC
 40
1.0
  9
$DIMGAP
 40
0.09
  9
$DIMJUST
 70
     0
  9
$DIMSD1
 70
     0
  9
$DIMSD2
 70
     0
  9
$DIMTOLJ
 70
     1
  9
$DIMTZIN
 70
     0
  9
$DIMALTZ
 70
     0
  9
$DIMALTTZ
 70
     0
  9
$DIMUPT
 70
     0
  9
$DIMDEC
 70
     4
  9
$DIMTDEC
 70
     4
  9
$DIMALTU
 70
     2
  9
$DIMALTTD
 70
     2
  9
$DIMTXSTY
  7
STANDARD
  9
$DIMAUNIT
 70
     0
  9
$DIMADEC
 70
     0
  9
$DIMALTRND
 40
0.0
  9
$DIMAZIN
 70
     0
  9
$DIMDSEP
 70
    46
  9
$DIMATFIT
 70
     3
  9
$DIMFRAC
 70
     0
  9
$DIMLDRBLK
  1

  9
$DIMLUNIT
 70
     2
  9
$DIMLWD
 70
    -2
  9
$DIMLWE
 70
    -2
  9
$DIMTMOVE
 70
     0
  9
$DIMFXL
 40
1.0
  9
$DIMFXLON
 70
     0
  9
$DIMJOGANG
 40
0.7853981633974483
  9
$DIMTFILL
 70
     0
  9
$DIMTFILLCLR
 70
     0
  9
$DIMARCSYM
 70
     0
  9
$DIMLTYPE
  6

  9
$DIMLTEX1
  6

  9
$DIMLTEX2
  6

  9
$LUNITS
 70
     2
  9
$LUPREC
 70
     4
  9
$SKETCHINC
 40
0.1
  9
$FILLETRAD
 40
0.0
  9
$AUNITS
 70
     0
  9
$AUPREC
 70
     0
  9
$MENU
  1
.
  9
$ELEVATION
 40
0.0
  9
$PELEVATION
 40
0.0
  9
$THICKNESS
 40
0.0
  9
$LIMCHECK
 70
     0
  9
$CHAMFERA
 40
0.0
  9
$CHAMFERB
 40
0.0
  9
$CHAMFERC
 40
0.0
  9
$CHAMFERD
 40
0.0
  9
$SKPOLY
 70
     0
  9
$TDCREATE
 40
2456630.443109398
  9
$TDUCREATE
 40
2456630.651442731
  9
$TDUPDATE
 40
2456630.471438252
  9
$TDUUPDATE
 40
2456630.679771586
  9
$TDINDWG
 40
0.0031330671
  9
$TDUSRTIMER
 40
0.0031330671
  9
$USRTIMER
 70
     1
  9
$ANGBASE
 50
0.0
  9
$ANGDIR
 70
     0
  9
$PDMODE
 70
     3
  9
$PDSIZE
 40
0.03125
  9
$PLINEWID
 40
0.0
  9
$SPLFRAME
 70
     0
  9
$SPLINETYPE
 70
     6
  9
$SPLINESEGS
 70
     8
  9
$HANDSEED
  5
1676
  9
$SURFTAB1
 70
     6
  9
$SURFTAB2
 70
     6
  9
$SURFTYPE
 70
     6
  9
$SURFU
 70
     6
  9
$SURFV
 70
     6
  9
$UCSBASE
  2

  9
$UCSNAME
  2

  9
$UCSORG
 10
0.0
 20
0.0
 30
0.0
  9
$UCSXDIR
 10
1.0
 20
0.0
 30
0.0
  9
$UCSYDIR
 10
0.0
 20
1.0
 30
0.0
  9
$UCSORTHOREF
  2

  9
$UCSORTHOVIEW
 70
     0
  9
$UCSORGTOP
 10
0.0
 20
0.0
 30
0.0
  9
$UCSORGBOTTOM
 10
0.0
 20
0.0
 30
0.0
  9
$UCSORGLEFT
 10
0.0
 20
0.0
 30
0.0
  9
$UCSORGRIGHT
 10
0.0
 20
0.0
 30
0.0
  9
$UCSORGFRONT
 10
0.0
 20
0.0
 30
0.0
  9
$UCSORGBACK
 10
0.0
 20
0.0
 30
0.0
  9
$PUCSBASE
  2

  9
$PUCSNAME
  2

  9
$PUCSORG
 10
0.0
 20
0.0
 30
0.0
  9
$PUCSXDIR
 10
1.0
 20
0.0
 30
0.0
  9
$PUCSYDIR
 10
0.0
 20
1.0
 30
0.0
  9
$PUCSORTHOREF
  2

  9
$PUCSORTHOVIEW
 70
     0
  9
$PUCSORGTOP
 10
0.0
 20
0.0
 30
0.0
  9
$PUCSORGBOTTOM
 10
0.0
 20
0.0
 30
0.0
  9
$PUCSORGLEFT
 10
0.0
 20
0.0
 30
0.0
  9
$PUCSORGRIGHT
 10
0.0
 20
0.0
 30
0.0
  9
$PUCSORGFRONT
 10
0.0
 20
0.0
 30
0.0
  9
$PUCSORGBACK
 10
0.0
 20
0.0
 30
0.0
  9
$USERI1
 70
     0
  9
$USERI2
 70
     0
  9
$USERI3
 70
     0
  9
$USERI4
 70
     0
  9
$USERI5
 70
     0
  9
$USERR1
 40
0.0
  9
$USERR2
 40
0.0
  9
$USERR3
 40
0.0
  9
$USERR4
 40
0.0
  9
$USERR5
 40
0.0
  9
$WORLDVIEW
 70
     1
  9
$SHADEDGE
 70
     3
  9
$SHADEDIF
 70
    70
  9
$TILEMODE
 70
     1
  9
$MAXACTVP
 70
    64
  9
$PINSBASE
 10
0.0
 20
0.0
 30
0.0
  9
$PLIMCHECK
 70
     0
  9
$PEXTMIN
 10
1.000000000000000E+20
 20
1.000000000000000E+20
 30
1.000000000000000E+20
  9
$PEXTMAX
 10
-1.000000000000000E+20
 20
-1.000000000000000E+20
 30
-1.000000000000000E+20
  9
$PLIMMIN
 10
0.0
 20
0.0
  9
$PLIMMAX
 10
12.0
 20
9.0
  9
$UNITMODE
 70
     0
  9
$VISRETAIN
 70
     1
  9
$PLINEGEN
 70
     0
  9
$PSLTSCALE
 70
     1
  9
$TREEDEPTH
 70
  3020
  9
$CMLSTYLE
  2
Standard
  9
$CMLJUST
 70
     0
  9
$CMLSCALE
 40
1.0
  9
$PROXYGRAPHICS
 70
     1
  9
$MEASUREMENT
 70
     0
  9
$CELWEIGHT
370
    -1
  9
$ENDCAPS
280
     0
  9
$JOINSTYLE
280
     0
  9
$LWDISPLAY
290
     0
  9
$INSUNITS
 70
     1
  9
$HYPERLINKBASE
  1

  9
$STYLESHEET
  1

  9
$XEDIT
290
     1
  9
$CEPSNTYPE
380
     0
  9
$PSTYLEMODE
290
     1
  9
$FINGERPRINTGUID
  2
{7A456867-0E38-4B44-8C61-794F327E8B7A}
  9
$VERSIONGUID
  2
{D747C45E-5E8F-4BB7-951B-DD6D3502989C}
  9
$EXTNAMES
290
     1
  9
$PSVPSCALE
 40
0.0
  9
$OLESTARTUP
290
     0
  9
$SORTENTS
280
   127
  9
$INDEXCTL
280
     0
  9
$HIDETEXT
280
     0
  9
$XCLIPFRAME
290
     0
  9
$HALOGAP
280
     0
  9
$OBSCOLOR
 70
   257
  9
$OBSLTYPE
280
     0
  9
$INTERSECTIONDISPLAY
280
     0
  9
$INTERSECTIONCOLOR
 70
   257
  9
$DIMASSOC
280
     1
  9
$PROJECTNAME
  1

  9
$CAMERADISPLAY
290
     0
  9
$LENSLENGTH
 40
50.0
  9
$CAMERAHEIGHT
 40
0.0
  9
$STEPSPERSEC
 40
2.0
  9
$STEPSIZE
 40
6.0
  9
$3DDWFPREC
 40
2.0
  9
$PSOLWIDTH
 40
0.25
  9
$PSOLHEIGHT
 40
4.0
  9
$LOFTANG1
 40
1.570796326794896
  9
$LOFTANG2
 40
1.570796326794896
  9
$LOFTMAG1
 40
0.0
  9
$LOFTMAG2
 40
0.0
  9
$LOFTPARAM
 70
     7
  9
$LOFTNORMALS
280
     1
  9
$LATITUDE
 40
37.795
  9
$LONGITUDE
 40
-122.394
  9
$NORTHDIRECTION
 40
0.0
  9
$TIMEZONE
 70
 -8000
  9
$LIGHTGLYPHDISPLAY
280
     1
  9
$TILEMODELIGHTSYNCH
280
     1
  9
$CMATERIAL
347
1597
  9
$SOLIDHIST
280
     1
  9
$SHOWHIST
280
     1
  9
$DWFFRAME
280
     2
  9
$DGNFRAME
280
     0
  9
$REALWORLDSCALE
290
     1
  9
$INTERFERECOLOR
 62
     1
  9
$INTERFEREOBJVS
345
15B9
  9
$INTERFEREVPVS
346
15B6
  9
$CSHADOW
280
     0
  9
$SHADOWPLANELOCATION
 40
0.0
  0
ENDSEC
  0
SECTION
  2
CLASSES
  0
CLASS
  1
ACDBDICTIONARYWDFLT
  2
AcDbDictionaryWithDefault
  3
ObjectDBX Classes
 90
        0
 91
        1
280
     0
281
     0
  0
CLASS
  1
MATERIAL
  2
AcDbMaterial
  3
ObjectDBX Classes
 90
     1153
 91
        3
280
     0
281
     0
  0
CLASS
  1
VISUALSTYLE
  2
AcDbVisualStyle
  3
ObjectDBX Classes
 90
     4095
 91
       19
280
     0
281
     0
  0
CLASS
  1
TABLESTYLE
  2
AcDbTableStyle
  3
ObjectDBX Classes
 90
     4095
 91
        1
280
     0
281
     0
  0
CLASS
  1
SCALE
  2
AcDbScale
  3
ObjectDBX Classes
 90
     1153
 91
       33
280
     0
281
     0
  0
CLASS
  1
MLEADERSTYLE
  2
AcDbMLeaderStyle
  3
ACDB_MLEADERSTYLE_CLASS
 90
     4095
 91
        1
280
     0
281
     0
  0
CLASS
  1
CELLSTYLEMAP
  2
AcDbCellStyleMap
  3
ObjectDBX Classes
 90
     1152
 91
        3
280
     0
281
     0
  0
CLASS
  1
DICTIONARYVAR
  2
AcDbDictionaryVar
  3
ObjectDBX Classes
 90
        0
 91
       11
280
     0
281
     0
  0
ENDSEC
  0
SECTION
  2
TABLES
  0
TABLE
  2
VPORT
  5
8
102
{ACAD_XDICTIONARY
360
15EF
102
}
330
0
100
AcDbSymbolTable
 70
     1
  0
VPORT
  5
1F4
330
8
100
AcDbSymbolTableRecord
100
AcDbViewportTableRecord
  2
*ACTIVE
 70
     0
 10
0.0
 20
0.0
 11
1.0
 21
1.0
 12
54.80426621612355
 22
85.75488311719846
 13
0.0
 23
0.0
 14
1.0
 24
1.0
 15
0.0
 25
0.0
 16
0.0
 26
0.0
 36
1.0
 17
0.0
 27
0.0
 37
0.0
 40
36.30385080243608
 41
2.41111111111111
 42
50.0
 43
0.0
 44
0.0
 50
0.0
 51
0.0
 71
     0
 72
   100
 73
     1
 74
     1
 75
     0
 76
     0
 77
     0
 78
     0
281
     0
 65
     1
110
0.0
120
0.0
130
0.0
111
1.0
121
0.0
131
0.0
112
0.0
122
1.0
132
0.0
 79
     0
146
0.0
348
15B5
 60
     3
 61
     5
292
     1
282
     1
141
0.0
142
0.0
 63
   250
421
  3355443
  0
ENDTAB
  0
TABLE
  2
LTYPE
  5
5
330
0
100
AcDbSymbolTable
 70
     6
  0
LTYPE
  5
14
330
5
100
AcDbSymbolTableRecord
100
AcDbLinetypeTableRecord
  2
BYBLOCK
 70
     0
  3

 72
    65
 73
     0
 40
0.0
  0
LTYPE
  5
15
330
5
100
AcDbSymbolTableRecord
100
AcDbLinetypeTableRecord
  2
BYLAYER
 70
     0
  3

 72
    65
 73
     0
 40
0.0
  0
LTYPE
  5
16
330
5
100
AcDbSymbolTableRecord
100
AcDbLinetypeTableRecord
  2
CONTINUOUS
 70
     0
  3
Solid line
 72
    65
 73
     0
 40
0.0
  0
LTYPE
  5
1F5
330
5
100
AcDbSymbolTableRecord
100
AcDbLinetypeTableRecord
  2
CENTER
 70
     0
  3
____ _ ____ _ ____ _ ____ _ ____ _ ____ _ ____
 72
    65
 73
     4
 40
0.6
 49
0.375
 74
     0
 49
-0.075
 74
     0
 49
0.075
 74
     0
 49
-0.075
 74
     0
  0
LTYPE
  5
1F6
330
5
100
AcDbSymbolTableRecord
100
AcDbLinetypeTableRecord
  2
HIDDEN
 70
     0
  3
- - - - - - - - - - - - - - - - - - - -
 72
    65
 73
     2
 40
0.2
 49
0.1
 74
     0
 49
-0.1
 74
     0
  0
LTYPE
  5
1F7
330
5
100
AcDbSymbolTableRecord
100
AcDbLinetypeTableRecord
  2
PHANTOM
 70
     0
  3
_____ _ _ _____ _ _ _____ _ _ _____
 72
    65
 73
     6
 40
0.8
 49
0.45
 74
     0
 49
-0.05
 74
     0
 49
0.1
 74
     0
 49
-0.05
 74
     0
 49
0.1
 74
     0
 49
-0.05
 74
     0
  0
LTYPE
  5
1F8
330
5
100
AcDbSymbolTableRecord
100
AcDbLinetypeTableRecord
  2
DOT
 70
     0
  3
. . . . . . . . . . . . . . . . . . . .
 72
    65
 73
     2
 40
0.2
 49
0.1
 74
     0
 49
-0.1
 74
     0
  0
LTYPE
  5
1F9
330
5
100
AcDbSymbolTableRecord
100
AcDbLinetypeTableRecord
  2
DASHED
 70
     0
  3
- - - - - - - - - - - - - - - - - - - -
 72
    65
 73
     2
 40
0.2
 49
0.1
 74
     0
 49
-0.1
 74
     0
  0
ENDTAB
  0
TABLE
  2
LAYER
  5
2
330
0
100
AcDbSymbolTable
 70
    28
  0
LAYER
  5
10
102
{ACAD_XDICTIONARY
360
162F
102
}
330
2
100
AcDbSymbolTableRecord
100
AcDbLayerTableRecord
  2
0
 70
     0
 62
     7
  6
CONTINUOUS
370
    -3
390
F
347
15A7
  0
LAYER
  5
1FA
102
{ACAD_XDICTIONARY
360
1631
102
}
330
2
100
AcDbSymbolTableRecord
100
AcDbLayerTableRecord
  2
DEFAULT_1
 70
     0
 62
     7
  6
CENTER
370
    -3
390
F
347
15A7
  0
LAYER
  5
1FB
102
{ACAD_XDICTIONARY
360
1633
102
}
330
2
100
AcDbSymbolTableRecord
100
AcDbLayerTableRecord
  2
DEFAULT_2
 70
     0
 62
     7
  6
HIDDEN
370
    -3
390
F
347
15A7
  0
LAYER
  5
1FC
102
{ACAD_XDICTIONARY
360
1635
102
}
330
2
100
AcDbSymbolTableRecord
100
AcDbLayerTableRecord
  2
DEFAULT_3
 70
     0
 62
     7
  6
PHANTOM
370
    -3
390
F
347
15A7
  0
LAYER
  5
1FD
102
{ACAD_XDICTIONARY
360
1637
102
}
330
2
100
AcDbSymbolTableRecord
100
AcDbLayerTableRecord
  2
1_CURVES
 70
     0
 62
     7
  6
CONTINUOUS
370
    -3
390
F
347
15A7
  0
LAYER
  5
1FE
102
{ACAD_XDICTIONARY
360
1639
102
}
330
2
100
AcDbSymbolTableRecord
100
AcDbLayerTableRecord
  2
1_CURVES_CONDUIT
 70
     0
 62
     7
  6
CONTINUOUS
370
    -3
390
F
347
15A7
  0
LAYER
  5
1FF
102
{ACAD_XDICTIONARY
360
163B
102
}
330
2
100
AcDbSymbolTableRecord
100
AcDbLayerTableRecord
  2
1_CURVES_JETS
 70
     0
 62
     7
  6
CONTINUOUS
370
    -3
390
F
347
15A7
  0
LAYER
  5
200
102
{ACAD_XDICTIONARY
360
163D
102
}
330
2
100
AcDbSymbolTableRecord
100
AcDbLayerTableRecord
  2
1_CURVES_PATINS
 70
     0
 62
     7
  6
CONTINUOUS
370
    -3
390
F
347
15A7
  0
LAYER
  5
201
102
{ACAD_XDICTIONARY
360
163F
102
}
330
2
100
AcDbSymbolTableRecord
100
AcDbLayerTableRecord
  2
1_CURVES_SPEC_FRONT
 70
     0
 62
     7
  6
CONTINUOUS
370
    -3
390
F
347
15A7
  0
LAYER
  5
202
102
{ACAD_XDICTIONARY
360
1641
102
}
330
2
100
AcDbSymbolTableRecord
100
AcDbLayerTableRecord
  2
1_CURVES_SPEC_RIGHT
 70
     0
 62
     7
  6
CONTINUOUS
370
    -3
390
F
347
15A7
  0
LAYER
  5
203
102
{ACAD_XDICTIONARY
360
1643
102
}
330
2
100
AcDbSymbolTableRecord
100
AcDbLayerTableRecord
  2
2_PLANES
 70
     0
 62
     7
  6
CONTINUOUS
370
    -3
390
F
347
15A7
  0
LAYER
  5
204
102
{ACAD_XDICTIONARY
360
1645
102
}
330
2
100
AcDbSymbolTableRecord
100
AcDbLayerTableRecord
  2
2_PLANES_JETS
 70
     0
 62
     7
  6
CONTINUOUS
370
    -3
390
F
347
15A7
  0
LAYER
  5
205
102
{ACAD_XDICTIONARY
360
1647
102
}
330
2
100
AcDbSymbolTableRecord
100
AcDbLayerTableRecord
  2
3_POINTS
 70
     0
 62
     7
  6
CONTINUOUS
370
    -3
390
F
347
15A7
  0
LAYER
  5
206
102
{ACAD_XDICTIONARY
360
1649
102
}
330
2
100
AcDbSymbolTableRecord
100
AcDbLayerTableRecord
  2
3_POINTS_JETS
 70
     0
 62
     7
  6
CONTINUOUS
370
    -3
390
F
347
15A7
  0
LAYER
  5
207
102
{ACAD_XDICTIONARY
360
164B
102
}
330
2
100
AcDbSymbolTableRecord
100
AcDbLayerTableRecord
  2
4_CSYS
 70
     0
 62
     7
  6
CONTINUOUS
370
    -3
390
F
347
15A7
  0
LAYER
  5
208
102
{ACAD_XDICTIONARY
360
164D
102
}
330
2
100
AcDbSymbolTableRecord
100
AcDbLayerTableRecord
  2
5_AXIS
 70
     0
 62
     7
  6
CONTINUOUS
370
    -3
390
F
347
15A7
  0
LAYER
  5
209
102
{ACAD_XDICTIONARY
360
164F
102
}
330
2
100
AcDbSymbolTableRecord
100
AcDbLayerTableRecord
  2
5_AXIS_JETS
 70
     0
 62
     7
  6
CONTINUOUS
370
    -3
390
F
347
15A7
  0
LAYER
  5
20A
102
{ACAD_XDICTIONARY
360
1651
102
}
330
2
100
AcDbSymbolTableRecord
100
AcDbLayerTableRecord
  2
6_AIRE_CONDUIT
 70
     0
 62
     7
  6
CONTINUOUS
370
    -3
390
F
347
15A7
  0
LAYER
  5
20B
102
{ACAD_XDICTIONARY
360
1653
102
}
330
2
100
AcDbSymbolTableRecord
100
AcDbLayerTableRecord
  2
6_SURFACES
 70
     0
 62
     7
  6
CONTINUOUS
370
    -3
390
F
347
15A7
  0
LAYER
  5
20C
102
{ACAD_XDICTIONARY
360
1655
102
}
330
2
100
AcDbSymbolTableRecord
100
AcDbLayerTableRecord
  2
6_SURFACES_AIRE
 70
     0
 62
     7
  6
CONTINUOUS
370
    -3
390
F
347
15A7
  0
LAYER
  5
20D
102
{ACAD_XDICTIONARY
360
1657
102
}
330
2
100
AcDbSymbolTableRecord
100
AcDbLayerTableRecord
  2
6_SURFACES_OFFSET_FIBRE_ACRYLIQ
 70
     0
 62
     7
  6
CONTINUOUS
370
    -3
390
F
347
15A7
  0
LAYER
  5
20E
102
{ACAD_XDICTIONARY
360
1659
102
}
330
2
100
AcDbSymbolTableRecord
100
AcDbLayerTableRecord
  2
6_SURFACES_POUR_CONDUIT
 70
     0
 62
     7
  6
CONTINUOUS
370
    -3
390
F
347
15A7
  0
LAYER
  5
20F
102
{ACAD_XDICTIONARY
360
165B
102
}
330
2
100
AcDbSymbolTableRecord
100
AcDbLayerTableRecord
  2
6_SURFACES_POUR_HFL
 70
     0
 62
     7
  6
CONTINUOUS
370
    -3
390
F
347
15A7
  0
LAYER
  5
210
102
{ACAD_XDICTIONARY
360
165D
102
}
330
2
100
AcDbSymbolTableRecord
100
AcDbLayerTableRecord
  2
6_SURFACES_TOOLING
 70
     0
 62
     7
  6
CONTINUOUS
370
    -3
390
F
347
15A7
  0
LAYER
  5
211
102
{ACAD_XDICTIONARY
360
165F
102
}
330
2
100
AcDbSymbolTableRecord
100
AcDbLayerTableRecord
  2
7_NOTES
 70
     0
 62
     7
  6
CONTINUOUS
370
    -3
390
F
347
15A7
  0
LAYER
  5
212
102
{ACAD_XDICTIONARY
360
1661
102
}
330
2
100
AcDbSymbolTableRecord
100
AcDbLayerTableRecord
  2
8_TOL_GEOM
 70
     0
 62
     7
  6
CONTINUOUS
370
    -3
390
F
347
15A7
  0
LAYER
  5
213
102
{ACAD_XDICTIONARY
360
1663
102
}
330
2
100
AcDbSymbolTableRecord
100
AcDbLayerTableRecord
  2
NONE
 70
     0
 62
     7
  6
CONTINUOUS
370
    -3
390
F
347
15A7
  0
LAYER
  5
214
102
{ACAD_XDICTIONARY
360
1665
102
}
330
2
100
AcDbSymbolTableRecord
100
AcDbLayerTableRecord
  2
XSEC_DATUMS
 70
     0
 62
     7
  6
CONTINUOUS
370
    -3
390
F
347
15A7
  0
ENDTAB
  0
TABLE
  2
STYLE
  5
3
330
0
100
AcDbSymbolTable
 70
     8
  0
STYLE
  5
11
330
3
100
AcDbSymbolTableRecord
100
AcDbTextStyleTableRecord
  2
STANDARD
 70
     0
 40
0.0
 41
0.8
 50
0.0
 71
     0
 42
0.2
  3
txt
  4

  0
STYLE
  5
215
330
3
100
AcDbSymbolTableRecord
100
AcDbTextStyleTableRecord
  2
TEXTSTYLE_1
 70
     0
 40
0.0
 41
0.8
 50
0.0
 71
     0
 42
0.2
  3
gdt
  4

  0
STYLE
  5
216
330
3
100
AcDbSymbolTableRecord
100
AcDbTextStyleTableRecord
  2
TEXTSTYLE_2
 70
     0
 40
0.0
 41
1.0
 50
0.0
 71
     0
 42
0.2
  3
trium.ttf
  4

  0
STYLE
  5
217
330
3
100
AcDbSymbolTableRecord
100
AcDbTextStyleTableRecord
  2
TEXTSTYLE_3
 70
     0
 40
0.0
 41
1.0
 50
0.0
 71
     0
 42
0.2
  3
trium.ttf
  4

  0
STYLE
  5
218
330
3
100
AcDbSymbolTableRecord
100
AcDbTextStyleTableRecord
  2
TEXTSTYLE_4
 70
     0
 40
0.0
 41
1.0
 50
0.0
 71
     0
 42
0.2
  3
txt_____.ttf
  4

1001
ACAD
1000
txt
1071
        2
  0
STYLE
  5
219
330
3
100
AcDbSymbolTableRecord
100
AcDbTextStyleTableRecord
  2
TEXTSTYLE_5
 70
     0
 40
0.0
 41
1.0
 50
0.0
 71
     0
 42
0.2
  3
txt_____.ttf
  4

1001
ACAD
1000
txt
1071
        2
  0
STYLE
  5
21A
330
3
100
AcDbSymbolTableRecord
100
AcDbTextStyleTableRecord
  2
TEXTSTYLE_6
 70
     0
 40
0.0
 41
1.0
 50
0.0
 71
     0
 42
0.2
  3
trium.ttf
  4

  0
STYLE
  5
21B
330
3
100
AcDbSymbolTableRecord
100
AcDbTextStyleTableRecord
  2
TEXTSTYLE_7
 70
     0
 40
0.0
 41
0.8
 50
0.0
 71
     0
 42
0.2
  3
txt_____.ttf
  4

1001
ACAD
1000
txt
1071
        2
  0
ENDTAB
  0
TABLE
  2
VIEW
  5
6
330
0
100
AcDbSymbolTable
 70
     0
  0
ENDTAB
  0
TABLE
  2
UCS
  5
7
330
0
100
AcDbSymbolTable
 70
     0
  0
ENDTAB
  0
TABLE
  2
APPID
  5
9
330
0
100
AcDbSymbolTable
 70
     2
  0
APPID
  5
21C
330
9
100
AcDbSymbolTableRecord
100
AcDbRegAppTableRecord
  2
ACAD
 70
     0
  0
APPID
  5
161F
330
9
100
AcDbSymbolTableRecord
100
AcDbRegAppTableRecord
  2
ACAD_MLEADERVER
 70
     0
  0
ENDTAB
  0
TABLE
  2
DIMSTYLE
  5
A
330
0
100
AcDbSymbolTable
 70
     6
100
AcDbDimStyleTable
 71
     0
  0
DIMSTYLE
105
235
330
A
100
AcDbSymbolTableRecord
100
AcDbDimStyleTableRecord
  2
STANDARD
 70
     0
 41
2.0
 44
0.125
 47
0.00001
 48
0.00001
 71
     1
 78
     4
140
1.333333333299999
271
     5
272
     5
284
     4
340
11
341
21F
342
21F
343
21F
344
21F
  0
DIMSTYLE
105
236
330
A
100
AcDbSymbolTableRecord
100
AcDbDimStyleTableRecord
  2
DIMSTYLE_1
 70
     0
 41
2.0
 44
0.125
 47
0.00001
 48
0.00001
 78
     4
140
1.333333333299999
147
0.0625
271
     3
272
     3
284
     4
340
11
341
21F
342
21F
343
21F
344
21F
  0
DIMSTYLE
105
237
330
A
100
AcDbSymbolTableRecord
100
AcDbDimStyleTableRecord
  2
DIMSTYLE_2
 70
     0
 41
2.0
 44
0.125
 47
0.001
 48
0.001
 78
     4
140
1.333333333299999
147
0.0625
271
     3
272
     3
284
     4
340
11
341
21F
342
21F
343
21F
344
21F
  0
DIMSTYLE
105
238
330
A
100
AcDbSymbolTableRecord
100
AcDbDimStyleTableRecord
  2
DIMSTYLE_3
 70
     0
 41
2.0
 44
0.125
 47
1.0
 48
1.0
 78
     4
140
1.333333333299999
271
     0
272
     0
284
     4
340
11
341
21F
342
21F
343
21F
344
21F
  0
DIMSTYLE
105
239
330
A
100
AcDbSymbolTableRecord
100
AcDbDimStyleTableRecord
  2
DIMSTYLE_4
 70
     0
 41
2.0
 44
0.125
 47
0.00001
 48
0.00001
 78
     4
140
1.333333333299999
147
0.0625
271
     6
272
     6
284
     4
340
11
341
21F
342
21F
343
21F
344
21F
  0
DIMSTYLE
105
23A
330
A
100
AcDbSymbolTableRecord
100
AcDbDimStyleTableRecord
  2
DIMSTYLE_5
 70
     0
 41
2.0
 44
0.125
 47
0.5
 48
0.5
 78
     4
140
1.333333333299999
271
     6
272
     6
284
     4
340
11
341
21F
342
21F
343
21F
344
21F
  0
ENDTAB
  0
TABLE
  2
BLOCK_RECORD
  5
1
330
0
100
AcDbSymbolTable
 70
    22
  0
BLOCK_RECORD
  5
21D
330
1
100
AcDbSymbolTableRecord
100
AcDbBlockTableRecord
  2
*Model_Space
340
1591
 70
     0
280
     1
281
     0
  0
BLOCK_RECORD
  5
21E
330
1
100
AcDbSymbolTableRecord
100
AcDbBlockTableRecord
  2
*Paper_Space
340
1592
 70
     0
280
     1
281
     0
  0
BLOCK_RECORD
  5
21F
330
1
100
AcDbSymbolTableRecord
100
AcDbBlockTableRecord
  2
_FILLED
340
0
102
{BLKREFS
331
31F
331
320
331
328
331
329
331
331
331
332
331
33A
331
33B
331
343
331
344
331
34C
331
34D
331
355
331
356
331
35E
331
35F
331
368
331
369
331
371
331
372
331
37A
331
37B
331
384
331
385
331
395
331
396
331
39F
331
3A0
102
}
 70
     0
280
     1
281
     0
  0
BLOCK_RECORD
  5
220
330
1
100
AcDbSymbolTableRecord
100
AcDbBlockTableRecord
  2
*D1
340
0
 70
     0
280
     1
281
     0
  0
BLOCK_RECORD
  5
221
330
1
100
AcDbSymbolTableRecord
100
AcDbBlockTableRecord
  2
*D2
340
0
 70
     0
280
     1
281
     0
  0
BLOCK_RECORD
  5
222
330
1
100
AcDbSymbolTableRecord
100
AcDbBlockTableRecord
  2
*D3
340
0
 70
     0
280
     1
281
     0
  0
BLOCK_RECORD
  5
223
330
1
100
AcDbSymbolTableRecord
100
AcDbBlockTableRecord
  2
*D4
340
0
 70
     0
280
     1
281
     0
  0
BLOCK_RECORD
  5
224
330
1
100
AcDbSymbolTableRecord
100
AcDbBlockTableRecord
  2
*D5
340
0
 70
     0
280
     1
281
     0
  0
BLOCK_RECORD
  5
225
330
1
100
AcDbSymbolTableRecord
100
AcDbBlockTableRecord
  2
*D6
340
0
 70
     0
280
     1
281
     0
  0
BLOCK_RECORD
  5
226
330
1
100
AcDbSymbolTableRecord
100
AcDbBlockTableRecord
  2
*D7
340
0
 70
     0
280
     1
281
     0
  0
BLOCK_RECORD
  5
227
330
1
100
AcDbSymbolTableRecord
100
AcDbBlockTableRecord
  2
*D8
340
0
 70
     0
280
     1
281
     0
  0
BLOCK_RECORD
  5
228
330
1
100
AcDbSymbolTableRecord
100
AcDbBlockTableRecord
  2
*D9
340
0
 70
     0
280
     1
281
     0
  0
BLOCK_RECORD
  5
229
330
1
100
AcDbSymbolTableRecord
100
AcDbBlockTableRecord
  2
*D10
340
0
 70
     0
280
     1
281
     0
  0
BLOCK_RECORD
  5
22A
330
1
100
AcDbSymbolTableRecord
100
AcDbBlockTableRecord
  2
*D11
340
0
 70
     0
280
     1
281
     0
  0
BLOCK_RECORD
  5
22B
330
1
100
AcDbSymbolTableRecord
100
AcDbBlockTableRecord
  2
*D12
340
0
 70
     0
280
     1
281
     0
  0
BLOCK_RECORD
  5
22C
330
1
100
AcDbSymbolTableRecord
100
AcDbBlockTableRecord
  2
*D13
340
0
 70
     0
280
     1
281
     0
  0
BLOCK_RECORD
  5
22D
330
1
100
AcDbSymbolTableRecord
100
AcDbBlockTableRecord
  2
*D14
340
0
 70
     0
280
     1
281
     0
  0
BLOCK_RECORD
  5
22E
330
1
100
AcDbSymbolTableRecord
100
AcDbBlockTableRecord
  2
*D15
340
0
 70
     0
280
     1
281
     0
  0
BLOCK_RECORD
  5
22F
330
1
100
AcDbSymbolTableRecord
100
AcDbBlockTableRecord
  2
*D16
340
0
 70
     0
280
     1
281
     0
  0
BLOCK_RECORD
  5
230
330
1
100
AcDbSymbolTableRecord
100
AcDbBlockTableRecord
  2
SYMBOL_7_BL4
340
0
 70
     0
280
     1
281
     0
  0
BLOCK_RECORD
  5
231
330
1
100
AcDbSymbolTableRecord
100
AcDbBlockTableRecord
  2
SYMBOL_6_BL3
340
0
 70
     0
280
     1
281
     0
  0
BLOCK_RECORD
  5
232
330
1
100
AcDbSymbolTableRecord
100
AcDbBlockTableRecord
  2
SYMBOL_5_BL2
340
0
 70
     0
280
     1
281
     0
  0
BLOCK_RECORD
  5
233
330
1
100
AcDbSymbolTableRecord
100
AcDbBlockTableRecord
  2
SYMBOL_2_BL1
340
0
 70
     0
280
     1
281
     0
  0
BLOCK_RECORD
  5
234
330
1
100
AcDbSymbolTableRecord
100
AcDbBlockTableRecord
  2
SYMBOL_0_BL0
340
0
 70
     0
280
     1
281
     0
  0
ENDTAB
  0
ENDSEC
  0
SECTION
  2
BLOCKS
  0
BLOCK
  5
20
330
21D
100
AcDbEntity
  8
0
100
AcDbBlockBegin
  2
*Model_Space
 70
     0
 10
0.0
 20
0.0
 30
0.0
  3
*Model_Space
  1

  0
ENDBLK
  5
21
330
21D
100
AcDbEntity
  8
0
100
AcDbBlockEnd
  0
BLOCK
  5
1C
330
21E
100
AcDbEntity
 67
     1
  8
0
100
AcDbBlockBegin
  2
*Paper_Space
 70
     0
 10
0.0
 20
0.0
 30
0.0
  3
*Paper_Space
  1

  0
ENDBLK
  5
1D
330
21E
100
AcDbEntity
 67
     1
  8
0
100
AcDbBlockEnd
  0
BLOCK
  5
316
330
21F
100
AcDbEntity
  8
0
100
AcDbBlockBegin
  2
_FILLED
 70
     0
 10
0.0
 20
0.0
 30
0.0
  3
_FILLED
  1

  0
SOLID
  5
317
330
21F
100
AcDbEntity
  8
0
  6
ByBlock
 62
     0
100
AcDbTrace
 10
0.0
 20
0.0
 30
0.0
 11
-1.0
 21
0.1666666667
 31
0.0
 12
-1.0
 22
-0.1666666667
 32
0.0
 13
-1.0
 23
-0.1666666667
 33
0.0
  0
ENDBLK
  5
318
330
21F
100
AcDbEntity
  8
0
  6
ByBlock
 62
     0
100
AcDbBlockEnd
  0
BLOCK
  5
319
330
220
100
AcDbEntity
  8
0
  6
Continuous
 62
     7
100
AcDbBlockBegin
  2
*D1
 70
     1
 10
0.0
 20
0.0
 30
0.0
  3
*D1
  1

  0
MTEXT
  5
31A
330
220
100
AcDbEntity
  8
0
  6
Continuous
 62
     7
100
AcDbMText
 10
54.0501770301
 20
109.6191450961
 30
0.0
 40
1.333333333299999
 41
7.466666666699999
 46
0.0
 71
     2
 72
     1
  1
66\P[167,6]
 73
     1
 44
0.9
  0
LINE
  5
31B
330
220
100
AcDbEntity
  8
0
  6
Continuous
 62
     7
100
AcDbLine
 10
21.8053434952
 20
86.42121119729999
 30
0.0
 11
21.8053434952
 21
110.2858117627
 31
0.0
  0
LINE
  5
31C
330
220
100
AcDbEntity
  8
0
  6
Continuous
 62
     7
100
AcDbLine
 10
87.80534419469999
 20
86.42121119729999
 30
0.0
 11
87.80534419469999
 21
110.2858117627
 31
0.0
  0
LINE
  5
31D
330
220
100
AcDbEntity
  8
0
  6
Continuous
 62
     7
100
AcDbLine
 10
21.8053434952
 20
108.9524784294
 30
0.0
 11
52.3168436968
 21
108.9524784294
 31
0.0
  0
LINE
  5
31E
330
220
100
AcDbEntity
  8
0
  6
Continuous
 62
     7
100
AcDbLine
 10
87.80534419469999
 20
108.9524784294
 30
0.0
 11
61.1168436968
 21
108.9524784294
 31
0.0
  0
INSERT
  5
31F
330
220
100
AcDbEntity
  8
0
  6
Continuous
 62
     7
100
AcDbBlockReference
  2
_FILLED
 10
21.8053434952
 20
108.9524784294
 30
0.0
 41
2.0
 42
2.0
 43
2.0
 50
180.0
  0
INSERT
  5
320
330
220
100
AcDbEntity
  8
0
  6
Continuous
 62
     7
100
AcDbBlockReference
  2
_FILLED
 10
87.80534419469999
 20
108.9524784294
 30
0.0
 41
2.0
 42
2.0
 43
2.0
  0
ENDBLK
  5
321
330
220
100
AcDbEntity
  8
0
  6
ByBlock
 62
     0
100
AcDbBlockEnd
  0
BLOCK
  5
322
330
221
100
AcDbEntity
  8
0
  6
Continuous
 62
     7
100
AcDbBlockBegin
  2
*D2
 70
     1
 10
0.0
 20
0.0
 30
0.0
  3
*D2
  1

  0
MTEXT
  5
323
330
221
100
AcDbEntity
  8
0
  6
Continuous
 62
     7
100
AcDbMText
 10
112.3964165349
 20
86.42121119729999
 30
0.0
 40
1.333333333299999
 41
6.4
 46
0.0
 71
     2
 72
     1
  1
36\P[91,4]
 73
     1
 44
0.9
  0
LINE
  5
324
330
221
100
AcDbEntity
  8
0
  6
Continuous
 62
     7
100
AcDbLine
 10
55.472003711
 20
103.7545447423
 30
0.0
 11
115.8630832016
 21
103.7545447423
 31
0.0
  0
LINE
  5
325
330
221
100
AcDbEntity
  8
0
  6
Continuous
 62
     7
100
AcDbLine
 10
55.472003711
 20
67.7545443189
 30
0.0
 11
115.8630832016
 21
67.7545443189
 31
0.0
  0
LINE
  5
326
330
221
100
AcDbEntity
  8
0
  6
Continuous
 62
     7
100
AcDbLine
 10
114.5297498682
 20
103.7545447423
 30
0.0
 11
114.5297498682
 21
87.08787786389999
 31
0.0
  0
LINE
  5
327
330
221
100
AcDbEntity
  8
0
  6
Continuous
 62
     7
100
AcDbLine
 10
114.5297498682
 20
67.7545443189
 30
0.0
 11
114.5297498682
 21
82.42121119729999
 31
0.0
  0
INSERT
  5
328
330
221
100
AcDbEntity
  8
0
  6
Continuous
 62
     7
100
AcDbBlockReference
  2
_FILLED
 10
114.5297498682
 20
103.7545447423
 30
0.0
 41
2.0
 42
2.0
 43
2.0
 50
90.0
  0
INSERT
  5
329
330
221
100
AcDbEntity
  8
0
  6
Continuous
 62
     7
100
AcDbBlockReference
  2
_FILLED
 10
114.5297498682
 20
67.7545443189
 30
0.0
 41
2.0
 42
2.0
 43
2.0
 50
270.0
  0
ENDBLK
  5
32A
330
221
100
AcDbEntity
  8
0
  6
ByBlock
 62
     0
100
AcDbBlockEnd
  0
BLOCK
  5
32B
330
222
100
AcDbEntity
  8
0
  6
Continuous
 62
     7
100
AcDbBlockBegin
  2
*D3
 70
     1
 10
0.0
 20
0.0
 30
0.0
  3
*D3
  1

  0
MTEXT
  5
32C
330
222
100
AcDbEntity
  8
0
  6
Continuous
 62
     7
100
AcDbMText
 10
7.903626123899999
 20
37.6517771292
 30
0.0
 40
1.333333333299999
 41
6.4
 46
0.0
 71
     2
 72
     1
  1
28\P[71,1]
 73
     1
 44
0.9
  0
LINE
  5
32D
330
222
100
AcDbEntity
  8
0
  6
Continuous
 62
     7
100
AcDbLine
 10
28.4953918585
 20
22.9851104625
 30
0.0
 11
8.703626123899999
 21
22.9851104625
 31
0.0
  0
LINE
  5
32E
330
222
100
AcDbEntity
  8
0
  6
Continuous
 62
     7
100
AcDbLine
 10
20.5847251918
 20
50.9851104625
 30
0.0
 11
8.703626123899999
 21
50.9851104625
 31
0.0
  0
LINE
  5
32F
330
222
100
AcDbEntity
  8
0
  6
Continuous
 62
     7
100
AcDbLine
 10
10.0369594572
 20
22.9851104625
 30
0.0
 11
10.0369594572
 21
33.6517771292
 31
0.0
  0
LINE
  5
330
330
222
100
AcDbEntity
  8
0
  6
Continuous
 62
     7
100
AcDbLine
 10
10.0369594572
 20
50.9851104625
 30
0.0
 11
10.0369594572
 21
38.3184437958
 31
0.0
  0
INSERT
  5
331
330
222
100
AcDbEntity
  8
0
  6
Continuous
 62
     7
100
AcDbBlockReference
  2
_FILLED
 10
10.0369594572
 20
22.9851104625
 30
0.0
 41
2.0
 42
2.0
 43
2.0
 50
270.0
  0
INSERT
  5
332
330
222
100
AcDbEntity
  8
0
  6
Continuous
 62
     7
100
AcDbBlockReference
  2
_FILLED
 10
10.0369594572
 20
50.9851104625
 30
0.0
 41
2.0
 42
2.0
 43
2.0
 50
90.0
  0
ENDBLK
  5
333
330
222
100
AcDbEntity
  8
0
  6
ByBlock
 62
     0
100
AcDbBlockEnd
  0
BLOCK
  5
334
330
223
100
AcDbEntity
  8
0
  6
Continuous
 62
     7
100
AcDbBlockBegin
  2
*D4
 70
     1
 10
0.0
 20
0.0
 30
0.0
  3
*D4
  1

  0
MTEXT
  5
335
330
223
100
AcDbEntity
  8
0
  6
Continuous
 62
     7
100
AcDbMText
 10
16.37882418
 20
36.1517771292
 30
0.0
 40
1.333333333299999
 41
6.4
 46
0.0
 71
     2
 72
     1
  1
25\P[63,5]
 73
     1
 44
0.9
  0
LINE
  5
336
330
223
100
AcDbEntity
  8
0
  6
Continuous
 62
     7
100
AcDbLine
 10
28.6330054111
 20
22.9851104625
 30
0.0
 11
17.17882418
 21
22.9851104625
 31
0.0
  0
LINE
  5
337
330
223
100
AcDbEntity
  8
0
  6
Continuous
 62
     7
100
AcDbLine
 10
21.8500054111
 20
47.9851104625
 30
0.0
 11
17.17882418
 21
47.9851104625
 31
0.0
  0
LINE
  5
338
330
223
100
AcDbEntity
  8
0
  6
Continuous
 62
     7
100
AcDbLine
 10
18.5121575133
 20
22.9851104625
 30
0.0
 11
18.5121575133
 21
32.1517771292
 31
0.0
  0
LINE
  5
339
330
223
100
AcDbEntity
  8
0
  6
Continuous
 62
     7
100
AcDbLine
 10
18.5121575133
 20
47.9851104625
 30
0.0
 11
18.5121575133
 21
36.8184437958
 31
0.0
  0
INSERT
  5
33A
330
223
100
AcDbEntity
  8
0
  6
Continuous
 62
     7
100
AcDbBlockReference
  2
_FILLED
 10
18.5121575133
 20
22.9851104625
 30
0.0
 41
2.0
 42
2.0
 43
2.0
 50
270.0
  0
INSERT
  5
33B
330
223
100
AcDbEntity
  8
0
  6
Continuous
 62
     7
100
AcDbBlockReference
  2
_FILLED
 10
18.5121575133
 20
47.9851104625
 30
0.0
 41
2.0
 42
2.0
 43
2.0
 50
90.0
  0
ENDBLK
  5
33C
330
223
100
AcDbEntity
  8
0
  6
ByBlock
 62
     0
100
AcDbBlockEnd
  0
BLOCK
  5
33D
330
224
100
AcDbEntity
  8
0
  6
Continuous
 62
     7
100
AcDbBlockBegin
  2
*D5
 70
     1
 10
0.0
 20
0.0
 30
0.0
  3
*D5
  1

  0
MTEXT
  5
33E
330
224
100
AcDbEntity
  8
0
  6
Continuous
 62
     7
100
AcDbMText
 10
52.1386771783
 20
16.627966627
 30
0.0
 40
1.333333333299999
 41
7.466666666699999
 46
0.0
 71
     2
 72
     1
  1
50\P[126,9]
 73
     1
 44
0.9
  0
LINE
  5
33F
330
224
100
AcDbEntity
  8
0
  6
Continuous
 62
     7
100
AcDbLine
 10
79.77647304369999
 20
22.3184437958
 30
0.0
 11
79.77647304369999
 21
14.627966627
 31
0.0
  0
LINE
  5
340
330
224
100
AcDbEntity
  8
0
  6
Continuous
 62
     7
100
AcDbLine
 10
29.8342146462
 20
22.3184437958
 30
0.0
 11
29.8342146462
 21
14.627966627
 31
0.0
  0
LINE
  5
341
330
224
100
AcDbEntity
  8
0
  6
Continuous
 62
     7
100
AcDbLine
 10
79.77647304369999
 20
15.9612999603
 30
0.0
 11
59.2053438449
 21
15.9612999603
 31
0.0
  0
LINE
  5
342
330
224
100
AcDbEntity
  8
0
  6
Continuous
 62
     7
100
AcDbLine
 10
29.8342146462
 20
15.9612999603
 30
0.0
 11
50.40534384489999
 21
15.9612999603
 31
0.0
  0
INSERT
  5
343
330
224
100
AcDbEntity
  8
0
  6
Continuous
 62
     7
100
AcDbBlockReference
  2
_FILLED
 10
79.77647304369999
 20
15.9612999603
 30
0.0
 41
2.0
 42
2.0
 43
2.0
  0
INSERT
  5
344
330
224
100
AcDbEntity
  8
0
  6
Continuous
 62
     7
100
AcDbBlockReference
  2
_FILLED
 10
29.8342146462
 20
15.9612999603
 30
0.0
 41
2.0
 42
2.0
 43
2.0
 50
180.0
  0
ENDBLK
  5
345
330
224
100
AcDbEntity
  8
0
  6
ByBlock
 62
     0
100
AcDbBlockEnd
  0
BLOCK
  5
346
330
225
100
AcDbEntity
  8
0
  6
Continuous
 62
     7
100
AcDbBlockBegin
  2
*D6
 70
     1
 10
0.0
 20
0.0
 30
0.0
  3
*D6
  1

  0
MTEXT
  5
347
330
225
100
AcDbEntity
  8
0
  6
Continuous
 62
     7
100
AcDbMText
 10
115.2562467628
 20
18.244874247
 30
0.0
 40
1.333333333299999
 41
6.4
 46
0.0
 71
     2
 72
     1
  1
26-1/4\P[66,8]
 73
     1
 44
0.9
  0
LINE
  5
348
330
225
100
AcDbEntity
  8
0
  6
Continuous
 62
     7
100
AcDbLine
 10
128.3967390344
 20
22.3184437958
 30
0.0
 11
128.3967390344
 21
16.244874247
 31
0.0
  0
LINE
  5
349
330
225
100
AcDbEntity
  8
0
  6
Continuous
 62
     7
100
AcDbLine
 10
102.1157544913
 20
22.3184437958
 30
0.0
 11
102.1157544913
 21
16.244874247
 31
0.0
  0
LINE
  5
34A
330
225
100
AcDbEntity
  8
0
  6
Continuous
 62
     7
100
AcDbLine
 10
128.3967390344
 20
17.5782075803
 30
0.0
 11
119.1229134295
 21
17.5782075803
 31
0.0
  0
LINE
  5
34B
330
225
100
AcDbEntity
  8
0
  6
Continuous
 62
     7
100
AcDbLine
 10
102.1157544913
 20
17.5782075803
 30
0.0
 11
111.3895800962
 21
17.5782075803
 31
0.0
  0
INSERT
  5
34C
330
225
100
AcDbEntity
  8
0
  6
Continuous
 62
     7
100
AcDbBlockReference
  2
_FILLED
 10
128.3967390344
 20
17.5782075803
 30
0.0
 41
2.0
 42
2.0
 43
2.0
  0
INSERT
  5
34D
330
225
100
AcDbEntity
  8
0
  6
Continuous
 62
     7
100
AcDbBlockReference
  2
_FILLED
 10
102.1157544913
 20
17.5782075803
 30
0.0
 41
2.0
 42
2.0
 43
2.0
 50
180.0
  0
ENDBLK
  5
34E
330
225
100
AcDbEntity
  8
0
  6
ByBlock
 62
     0
100
AcDbBlockEnd
  0
BLOCK
  5
34F
330
226
100
AcDbEntity
  8
0
  6
Continuous
 62
     7
100
AcDbBlockBegin
  2
*D7
 70
     1
 10
0.0
 20
0.0
 30
0.0
  3
*D7
  1

  0
MTEXT
  5
350
330
226
100
AcDbEntity
  8
0
  6
Continuous
 62
     7
100
AcDbMText
 10
54.80534384439999
 20
59.7634667715
 30
0.0
 40
1.333333333299999
 41
6.4
 46
0.0
 71
     2
 72
     1
  1
41-3/4\P[106]
 73
     1
 44
0.9
  0
LINE
  5
351
330
226
100
AcDbEntity
  8
0
  6
Continuous
 62
     7
100
AcDbLine
 10
75.68551645699999
 20
85.77283388959999
 30
0.0
 11
75.68551645699999
 21
57.7634667715
 31
0.0
  0
LINE
  5
352
330
226
100
AcDbEntity
  8
0
  6
Continuous
 62
     7
100
AcDbLine
 10
33.9251712318
 20
85.7728338897
 30
0.0
 11
33.9251712318
 21
57.7634667715
 31
0.0
  0
LINE
  5
353
330
226
100
AcDbEntity
  8
0
  6
Continuous
 62
     7
100
AcDbLine
 10
75.68551645699999
 20
59.09680010489999
 30
0.0
 11
58.672010511
 21
59.09680010489999
 31
0.0
  0
LINE
  5
354
330
226
100
AcDbEntity
  8
0
  6
Continuous
 62
     7
100
AcDbLine
 10
33.9251712318
 20
59.09680010489999
 30
0.0
 11
50.93867717770001
 21
59.09680010489999
 31
0.0
  0
INSERT
  5
355
330
226
100
AcDbEntity
  8
0
  6
Continuous
 62
     7
100
AcDbBlockReference
  2
_FILLED
 10
75.68551645699999
 20
59.09680010489999
 30
0.0
 41
2.0
 42
2.0
 43
2.0
  0
INSERT
  5
356
330
226
100
AcDbEntity
  8
0
  6
Continuous
 62
     7
100
AcDbBlockReference
  2
_FILLED
 10
33.9251712318
 20
59.09680010489999
 30
0.0
 41
2.0
 42
2.0
 43
2.0
 50
180.0
  0
ENDBLK
  5
357
330
226
100
AcDbEntity
  8
0
  6
ByBlock
 62
     0
100
AcDbBlockEnd
  0
BLOCK
  5
358
330
227
100
AcDbEntity
  8
0
  6
Continuous
 62
     7
100
AcDbBlockBegin
  2
*D8
 70
     1
 10
0.0
 20
0.0
 30
0.0
  3
*D8
  1

  0
MTEXT
  5
359
330
227
100
AcDbEntity
  8
0
  6
Continuous
 62
     7
100
AcDbMText
 10
102.3434375802
 20
86.3699433198
 30
0.0
 40
1.333333333299999
 41
6.4
 46
0.0
 71
     2
 72
     1
  1
23-5/8\P[60]
 73
     1
 44
0.9
  0
LINE
  5
35A
330
227
100
AcDbEntity
  8
0
  6
Continuous
 62
     7
100
AcDbLine
 10
82.6934347863
 20
73.9131812002
 30
0.0
 11
103.6767709135
 21
73.9131812002
 31
0.0
  0
LINE
  5
35B
330
227
100
AcDbEntity
  8
0
  6
Continuous
 62
     7
100
AcDbLine
 10
83.26701051159998
 20
97.49337210620002
 30
0.0
 11
103.6767709135
 21
97.49337210620002
 31
0.0
  0
LINE
  5
35C
330
227
100
AcDbEntity
  8
0
  6
Continuous
 62
     7
100
AcDbLine
 10
102.3434375802
 20
73.9131812002
 30
0.0
 11
102.3434375802
 21
82.3699433198
 31
0.0
  0
LINE
  5
35D
330
227
100
AcDbEntity
  8
0
  6
Continuous
 62
     7
100
AcDbLine
 10
102.3434375802
 20
97.49337210620002
 30
0.0
 11
102.3434375802
 21
87.03660998649999
 31
0.0
  0
INSERT
  5
35E
330
227
100
AcDbEntity
  8
0
  6
Continuous
 62
     7
100
AcDbBlockReference
  2
_FILLED
 10
102.3434375802
 20
73.9131812002
 30
0.0
 41
2.0
 42
2.0
 43
2.0
 50
270.0
  0
INSERT
  5
35F
330
227
100
AcDbEntity
  8
0
  6
Continuous
 62
     7
100
AcDbBlockReference
  2
_FILLED
 10
102.3434375802
 20
97.49337210620002
 30
0.0
 41
2.0
 42
2.0
 43
2.0
 50
90.0
  0
ENDBLK
  5
360
330
227
100
AcDbEntity
  8
0
  6
ByBlock
 62
     0
100
AcDbBlockEnd
  0
BLOCK
  5
361
330
228
100
AcDbEntity
  8
0
  6
Continuous
 62
     7
100
AcDbBlockBegin
  2
*D9
 70
     1
 10
0.0
 20
0.0
 30
0.0
  3
*D9
  1

  0
MTEXT
  5
362
330
228
100
AcDbEntity
  8
0
  6
Continuous
 62
     7
100
AcDbMText
 10
107.7737233804
 20
63.48360120609999
 30
0.0
 40
1.333333333299999
 41
5.333333333299999
 46
0.0
 71
     1
 72
     1
  1
1-1/8\P[3]
 73
     1
 44
0.9
  0
LINE
  5
363
330
228
100
AcDbEntity
  8
0
  6
Continuous
 62
     7
100
AcDbLine
 10
55.472003711
 20
67.7545443189
 30
0.0
 11
106.4403900471
 21
67.7545443189
 31
0.0
  0
LINE
  5
364
330
228
100
AcDbEntity
  8
0
  6
Continuous
 62
     7
100
AcDbLine
 10
72.0526771738
 20
68.86792617810001
 30
0.0
 11
106.4403900471
 21
68.86792617810001
 31
0.0
  0
LINE
  5
365
330
228
100
AcDbEntity
  8
0
  6
Continuous
 62
     7
100
AcDbLine
 10
105.1070567138
 20
67.7545443189
 30
0.0
 11
105.1070567138
 21
62.8169345395
 31
0.0
  0
LINE
  5
366
330
228
100
AcDbEntity
  8
0
  6
Continuous
 62
     7
100
AcDbLine
 10
105.1070567138
 20
62.8169345395
 30
0.0
 11
107.1070567138
 21
62.8169345395
 31
0.0
  0
LINE
  5
367
330
228
100
AcDbEntity
  8
0
  6
Continuous
 62
     7
100
AcDbLine
 10
105.1070567138
 20
68.86792617810001
 30
0.0
 11
105.1070567138
 21
74.2012595114
 31
0.0
  0
INSERT
  5
368
330
228
100
AcDbEntity
  8
0
  6
Continuous
 62
     7
100
AcDbBlockReference
  2
_FILLED
 10
105.1070567138
 20
67.7545443189
 30
0.0
 41
2.0
 42
2.0
 43
2.0
 50
90.0
  0
INSERT
  5
369
330
228
100
AcDbEntity
  8
0
  6
Continuous
 62
     7
100
AcDbBlockReference
  2
_FILLED
 10
105.1070567138
 20
68.86792617810001
 30
0.0
 41
2.0
 42
2.0
 43
2.0
 50
270.0
  0
ENDBLK
  5
36A
330
228
100
AcDbEntity
  8
0
  6
ByBlock
 62
     0
100
AcDbBlockEnd
  0
BLOCK
  5
36B
330
229
100
AcDbEntity
  8
0
  6
Continuous
 62
     7
100
AcDbBlockBegin
  2
*D10
 70
     1
 10
0.0
 20
0.0
 30
0.0
  3
*D10
  1

  0
MTEXT
  5
36C
330
229
100
AcDbEntity
  8
0
  6
Continuous
 62
     7
100
AcDbMText
 10
15.3648268623
 20
69.57822049649999
 30
0.0
 40
1.333333333299999
 41
5.333333333299999
 46
0.0
 71
     3
 72
     1
  1
1-1/4\P[3]
 73
     1
 44
0.9
  0
LINE
  5
36D
330
229
100
AcDbEntity
  8
0
  6
Continuous
 62
     7
100
AcDbLine
 10
21.8053434952
 20
85.0878778639
 30
0.0
 11
21.8053434952
 21
67.57822049649999
 31
0.0
  0
LINE
  5
36E
330
229
100
AcDbEntity
  8
0
  6
Continuous
 62
     7
100
AcDbLine
 10
22.9995752871
 20
77.9365445374
 30
0.0
 11
22.9995752871
 21
67.57822049649999
 31
0.0
  0
LINE
  5
36F
330
229
100
AcDbEntity
  8
0
  6
Continuous
 62
     7
100
AcDbLine
 10
21.8053434952
 20
68.9115538298
 30
0.0
 11
16.031493529
 21
68.9115538298
 31
0.0
  0
LINE
  5
370
330
229
100
AcDbEntity
  8
0
  6
Continuous
 62
     7
100
AcDbLine
 10
22.9995752871
 20
68.9115538298
 30
0.0
 11
28.3329086204
 21
68.9115538298
 31
0.0
  0
INSERT
  5
371
330
229
100
AcDbEntity
  8
0
  6
Continuous
 62
     7
100
AcDbBlockReference
  2
_FILLED
 10
21.8053434952
 20
68.9115538298
 30
0.0
 41
2.0
 42
2.0
 43
2.0
  0
INSERT
  5
372
330
229
100
AcDbEntity
  8
0
  6
Continuous
 62
     7
100
AcDbBlockReference
  2
_FILLED
 10
22.9995752871
 20
68.9115538298
 30
0.0
 41
2.0
 42
2.0
 43
2.0
 50
180.0
  0
ENDBLK
  5
373
330
229
100
AcDbEntity
  8
0
  6
ByBlock
 62
     0
100
AcDbBlockEnd
  0
BLOCK
  5
374
330
22A
100
AcDbEntity
  8
0
  6
Continuous
 62
     7
100
AcDbBlockBegin
  2
*D11
 70
     1
 10
0.0
 20
0.0
 30
0.0
  3
*D11
  1

  0
MTEXT
  5
375
330
22A
100
AcDbEntity
  8
0
  6
Continuous
 62
     7
100
AcDbMText
 10
138.0300890191
 20
37.1517771292
 30
0.0
 40
1.333333333299999
 41
4.266666666699999
 46
0.0
 71
     2
 72
     1
  1
16\P[41]
 73
     1
 44
0.9
  0
LINE
  5
376
330
22A
100
AcDbEntity
  8
0
  6
Continuous
 62
     7
100
AcDbLine
 10
130.2302149004
 20
28.4851104625
 30
0.0
 11
140.4300890191
 21
28.4851104625
 31
0.0
  0
LINE
  5
377
330
22A
100
AcDbEntity
  8
0
  6
Continuous
 62
     7
100
AcDbLine
 10
131.3862149004
 20
44.4851104625
 30
0.0
 11
140.4300890191
 21
44.4851104625
 31
0.0
  0
LINE
  5
378
330
22A
100
AcDbEntity
  8
0
  6
Continuous
 62
     7
100
AcDbLine
 10
139.0967556857
 20
28.4851104625
 30
0.0
 11
139.0967556857
 21
33.1517771292
 31
0.0
  0
LINE
  5
379
330
22A
100
AcDbEntity
  8
0
  6
Continuous
 62
     7
100
AcDbLine
 10
139.0967556857
 20
44.4851104625
 30
0.0
 11
139.0967556857
 21
37.8184437958
 31
0.0
  0
INSERT
  5
37A
330
22A
100
AcDbEntity
  8
0
  6
Continuous
 62
     7
100
AcDbBlockReference
  2
_FILLED
 10
139.0967556857
 20
28.4851104625
 30
0.0
 41
2.0
 42
2.0
 43
2.0
 50
270.0
  0
INSERT
  5
37B
330
22A
100
AcDbEntity
  8
0
  6
Continuous
 62
     7
100
AcDbBlockReference
  2
_FILLED
 10
139.0967556857
 20
44.4851104625
 30
0.0
 41
2.0
 42
2.0
 43
2.0
 50
90.0
  0
ENDBLK
  5
37C
330
22A
100
AcDbEntity
  8
0
  6
ByBlock
 62
     0
100
AcDbBlockEnd
  0
BLOCK
  5
37D
330
22B
100
AcDbEntity
  8
0
  6
Continuous
 62
     7
100
AcDbBlockBegin
  2
*D12
 70
     1
 10
0.0
 20
0.0
 30
0.0
  3
*D12
  1

  0
MTEXT
  5
37E
330
22B
100
AcDbEntity
  8
0
  6
Continuous
 62
     7
100
AcDbMText
 10
15.1103334144
 20
94.14872933059999
 30
0.0
 40
1.333333333299999
 41
5.333333333299999
 46
0.0
 71
     3
 72
     1
  1
4-1/4\P[11]
 73
     1
 44
0.9
  0
LINE
  5
37F
330
22B
100
AcDbEntity
  8
0
  6
Continuous
 62
     7
100
AcDbLine
 10
20.0422131631
 20
85.7545445306
 30
0.0
 11
16.4436667477
 21
85.7545445306
 31
0.0
  0
LINE
  5
380
330
22B
100
AcDbEntity
  8
0
  6
Continuous
 62
     7
100
AcDbLine
 10
20.5933438449
 20
89.98204453059999
 30
0.0
 11
16.4436667477
 21
89.98204453059999
 31
0.0
  0
LINE
  5
381
330
22B
100
AcDbEntity
  8
0
  6
Continuous
 62
     7
100
AcDbLine
 10
17.7770000811
 20
85.7545445306
 30
0.0
 11
17.7770000811
 21
80.42121119729999
 31
0.0
  0
LINE
  5
382
330
22B
100
AcDbEntity
  8
0
  6
Continuous
 62
     7
100
AcDbLine
 10
17.7770000811
 20
89.98204453059999
 30
0.0
 11
17.7770000811
 21
93.48206266389999
 31
0.0
  0
LINE
  5
383
330
22B
100
AcDbEntity
  8
0
  6
Continuous
 62
     7
100
AcDbLine
 10
17.7770000811
 20
93.48206266389999
 30
0.0
 11
15.7770000811
 21
93.48206266389999
 31
0.0
  0
INSERT
  5
384
330
22B
100
AcDbEntity
  8
0
  6
Continuous
 62
     7
100
AcDbBlockReference
  2
_FILLED
 10
17.7770000811
 20
85.7545445306
 30
0.0
 41
2.0
 42
2.0
 43
2.0
 50
90.0
  0
INSERT
  5
385
330
22B
100
AcDbEntity
  8
0
  6
Continuous
 62
     7
100
AcDbBlockReference
  2
_FILLED
 10
17.7770000811
 20
89.98204453059999
 30
0.0
 41
2.0
 42
2.0
 43
2.0
 50
270.0
  0
ENDBLK
  5
386
330
22B
100
AcDbEntity
  8
0
  6
ByBlock
 62
     0
100
AcDbBlockEnd
  0
BLOCK
  5
387
330
22C
100
AcDbEntity
  8
0
  6
Continuous
 62
     7
100
AcDbBlockBegin
  2
*D13
 70
     1
 10
0.0
 20
0.0
 30
0.0
  3
*D13
  1

  0
MTEXT
  5
388
330
22C
100
AcDbEntity
  8
0
  6
Continuous
 62
     7
100
AcDbMText
 10
67.01602497439999
 20
21.2462324077
 30
0.0
 40
1.333333333299999
 41
1.955555555599999
 46
0.0
 71
     2
 72
     1
  1
2\Fgdt;{\Fgdt;~}
 73
     1
 44
0.9
  0
LINE
  5
389
330
22C
100
AcDbEntity
  8
0
  6
Continuous
 62
     7
100
AcDbLine
 10
57.4451624079
 20
28.4881896114
 30
0.0
 11
71.0486573999
 21
28.4774770702
 31
0.0
  0
ARC
  5
38A
330
22C
100
AcDbEntity
  8
0
  6
Continuous
 62
     7
100
AcDbCircle
 10
56.7784959479
 20
28.4887146009
 30
0.0
 40
12.9368325433
100
AcDbArc
 50
322.3116086496
 51
359.9548804719999
  0
ARC
  5
38B
330
22C
100
AcDbEntity
  8
0
  6
Continuous
 62
     7
100
AcDbCircle
 10
56.7784959479
 20
28.4887146009
 30
0.0
 40
12.9368325433
100
AcDbArc
 50
2.102952189
 51
25.72368699510001
  0
SOLID
  5
38C
330
22C
100
AcDbEntity
  8
0
  6
Continuous
 62
     7
100
AcDbTrace
 10
69.8916284322
 20
26.4586191236
 30
0.0
 11
69.71532448000001
 21
28.4785270491
 31
0.0
 12
69.22699321569999
 22
26.5106236756
 32
0.0
 13
69.22699321569999
 23
26.5106236756
 33
0.0
  0
SOLID
  5
38D
330
22C
100
AcDbEntity
  8
0
  6
Continuous
 62
     7
100
AcDbTrace
 10
69.1479353206
 20
30.9125333938
 30
0.0
 11
69.70661559109998
 21
28.9634342516
 31
0.0
 12
69.8102745165
 22
30.9883702847
 32
0.0
 13
69.8102745165
 23
30.9883702847
 33
0.0
  0
ENDBLK
  5
38E
330
22C
100
AcDbEntity
  8
0
  6
ByBlock
 62
     0
100
AcDbBlockEnd
  0
BLOCK
  5
38F
330
22D
100
AcDbEntity
  8
0
  6
Continuous
 62
     7
100
AcDbBlockBegin
  2
*D14
 70
     1
 10
0.0
 20
0.0
 30
0.0
  3
*D14
  1

  0
MTEXT
  5
390
330
22D
100
AcDbEntity
  8
0
  6
Continuous
 62
     7
100
AcDbMText
 10
63.0685270163
 20
64.7968798506
 30
0.0
 40
1.333333333299999
 41
5.333333333299999
 46
0.0
 71
     1
 72
     1
  1
3-7/8\P[9,8]
 73
     1
 44
0.9
  0
LINE
  5
391
330
22D
100
AcDbEntity
  8
0
  6
Continuous
 62
     7
100
AcDbLine
 10
54.8053438449
 20
66.52374718209999
 30
0.0
 11
54.8053438449
 21
62.7968798506
 31
0.0
  0
LINE
  5
392
330
22D
100
AcDbEntity
  8
0
  6
Continuous
 62
     7
100
AcDbLine
 10
58.6803438449
 20
66.68387786390001
 30
0.0
 11
58.6803438449
 21
62.7968798506
 31
0.0
  0
LINE
  5
393
330
22D
100
AcDbEntity
  8
0
  6
Continuous
 62
     7
100
AcDbLine
 10
54.8053438449
 20
64.1302131839
 30
0.0
 11
49.4720105116
 21
64.1302131839
 31
0.0
  0
LINE
  5
394
330
22D
100
AcDbEntity
  8
0
  6
Continuous
 62
     7
100
AcDbLine
 10
58.6803438449
 20
64.1302131839
 30
0.0
 11
62.4018603496
 21
64.1302131839
 31
0.0
  0
INSERT
  5
395
330
22D
100
AcDbEntity
  8
0
  6
Continuous
 62
     7
100
AcDbBlockReference
  2
_FILLED
 10
54.8053438449
 20
64.1302131839
 30
0.0
 41
2.0
 42
2.0
 43
2.0
  0
INSERT
  5
396
330
22D
100
AcDbEntity
  8
0
  6
Continuous
 62
     7
100
AcDbBlockReference
  2
_FILLED
 10
58.6803438449
 20
64.1302131839
 30
0.0
 41
2.0
 42
2.0
 43
2.0
 50
180.0
  0
ENDBLK
  5
397
330
22D
100
AcDbEntity
  8
0
  6
ByBlock
 62
     0
100
AcDbBlockEnd
  0
BLOCK
  5
398
330
22E
100
AcDbEntity
  8
0
  6
Continuous
 62
     7
100
AcDbBlockBegin
  2
*D15
 70
     1
 10
0.0
 20
0.0
 30
0.0
  3
*D15
  1

  0
MTEXT
  5
399
330
22E
100
AcDbEntity
  8
0
  6
Continuous
 62
     7
100
AcDbMText
 10
93.2836733985
 20
93.46520327200002
 30
0.0
 40
1.333333333299999
 41
6.4
 46
0.0
 71
     1
 72
     1
  1
4-1/4\P[10,8]
 73
     1
 44
0.9
  0
LINE
  5
39A
330
22E
100
AcDbEntity
  8
0
  6
Continuous
 62
     7
100
AcDbLine
 10
88.37280786009999
 20
85.7545445306
 30
0.0
 11
91.95034006510001
 21
85.7545445306
 31
0.0
  0
LINE
  5
39B
330
22E
100
AcDbEntity
  8
0
  6
Continuous
 62
     7
100
AcDbLine
 10
88.0076771783
 20
81.5045445306
 30
0.0
 11
91.95034006510001
 21
81.5045445306
 31
0.0
  0
LINE
  5
39C
330
22E
100
AcDbEntity
  8
0
  6
Continuous
 62
     7
100
AcDbLine
 10
90.6170067318
 20
85.7545445306
 30
0.0
 11
90.6170067318
 21
92.79853660529999
 31
0.0
  0
LINE
  5
39D
330
22E
100
AcDbEntity
  8
0
  6
Continuous
 62
     7
100
AcDbLine
 10
90.6170067318
 20
92.79853660529999
 30
0.0
 11
92.6170067318
 21
92.79853660529999
 31
0.0
  0
LINE
  5
39E
330
22E
100
AcDbEntity
  8
0
  6
Continuous
 62
     7
100
AcDbLine
 10
90.6170067318
 20
81.5045445306
 30
0.0
 11
90.6170067318
 21
76.1712111973
 31
0.0
  0
INSERT
  5
39F
330
22E
100
AcDbEntity
  8
0
  6
Continuous
 62
     7
100
AcDbBlockReference
  2
_FILLED
 10
90.6170067318
 20
85.7545445306
 30
0.0
 41
2.0
 42
2.0
 43
2.0
 50
270.0
  0
INSERT
  5
3A0
330
22E
100
AcDbEntity
  8
0
  6
Continuous
 62
     7
100
AcDbBlockReference
  2
_FILLED
 10
90.6170067318
 20
81.5045445306
 30
0.0
 41
2.0
 42
2.0
 43
2.0
 50
90.0
  0
ENDBLK
  5
3A1
330
22E
100
AcDbEntity
  8
0
  6
ByBlock
 62
     0
100
AcDbBlockEnd
  0
BLOCK
  5
3A2
330
22F
100
AcDbEntity
  8
0
  6
Continuous
 62
     7
100
AcDbBlockBegin
  2
*D16
 70
     1
 10
0.0
 20
0.0
 30
0.0
  3
*D16
  1

  0
MTEXT
  5
3A3
330
22F
100
AcDbEntity
  8
0
  6
Continuous
 62
     7
100
AcDbMText
 10
93.68954675739999
 20
44.3778936322
 30
0.0
 40
1.333333333299999
 41
3.0222222222
 46
0.0
 71
     2
 72
     1
  1
31\Fgdt;{\Fgdt;~}
 73
     1
 44
0.9
  0
LINE
  5
3A4
330
22F
100
AcDbEntity
  8
0
  6
Continuous
 62
     7
100
AcDbLine
 10
82.24638686069999
 20
43.33190036779999
 30
0.0
 11
80.92778511029999
 21
41.13737852909999
 31
0.0
  0
LINE
  5
3A5
330
22F
100
AcDbEntity
  8
0
  6
Continuous
 62
     7
100
AcDbLine
 10
86.7282481886
 20
50.12430355180001
 30
0.0
 11
86.7282481886
 21
39.5287677506
 31
0.0
  0
ARC
  5
3A6
330
22F
100
AcDbEntity
  8
0
  6
Continuous
 62
     7
100
AcDbCircle
 10
86.7282481886
 20
50.7909702185
 30
0.0
 40
9.928869134600001
100
AcDbArc
 50
208.2233338365
 51
239.0
  0
ARC
  5
3A7
330
22F
100
AcDbEntity
  8
0
  6
Continuous
 62
     7
100
AcDbCircle
 10
86.7282481886
 20
50.7909702185
 30
0.0
 40
9.928869134600001
100
AcDbArc
 50
270.0
 51
314.5166868929
  0
SOLID
  5
3A8
330
22F
100
AcDbEntity
  8
0
  6
Continuous
 62
     7
100
AcDbTrace
 10
79.81288811899999
 20
43.21048145219999
 30
0.0
 11
81.6145025435
 21
42.2802682634
 31
0.0
 12
80.21196344649998
 22
43.7445070391
 32
0.0
 13
80.21196344649998
 23
43.7445070391
 33
0.0
  0
SOLID
  5
3A9
330
22F
100
AcDbEntity
  8
0
  6
Continuous
 62
     7
100
AcDbTrace
 10
88.6845975608
 20
41.3948376464
 30
0.0
 11
86.7282481886
 21
40.8621010839
 31
0.0
 12
88.75162837180001
 22
40.7315493872
 32
0.0
 13
88.75162837180001
 23
40.7315493872
 33
0.0
  0
ENDBLK
  5
3AA
330
22F
100
AcDbEntity
  8
0
  6
ByBlock
 62
     0
100
AcDbBlockEnd
  0
BLOCK
  5
23B
330
230
100
AcDbEntity
  8
0
  6
Continuous
 62
     7
100
AcDbBlockBegin
  2
SYMBOL_7_BL4
 70
     0
 10
54.7106074615
 20
72.0693470575
 30
0.0
  3
SYMBOL_7_BL4
  1

  0
TEXT
  5
23C
330
230
100
AcDbEntity
  8
0
  6
Continuous
 62
     7
100
AcDbText
 10
54.1822121942
 20
71.40268013149999
 30
0.0
 40
1.333333852099999
  1
L
  7
TEXTSTYLE_2
100
AcDbText
  0
ELLIPSE
  5
23D
330
230
100
AcDbEntity
  8
0
  6
Continuous
 62
     7
100
AcDbEllipse
 10
54.7106074615
 20
72.0693470575
 30
0.0
 11
-1.942887567899999
 21
0.0
 31
0.0
210
0.0
220
0.0
230
1.0
 40
0.6606458385
 41
0.0
 42
6.283185307179586
  0
ENDBLK
  5
23E
330
230
100
AcDbEntity
  8
0
  6
ByBlock
 62
     0
100
AcDbBlockEnd
  0
BLOCK
  5
23F
330
231
100
AcDbEntity
  8
0
  6
Continuous
 62
     7
100
AcDbBlockBegin
  2
SYMBOL_6_BL3
 70
     0
 10
67.47228777540001
 20
97.55083821360001
 30
0.0
  3
SYMBOL_6_BL3
  1

  0
TEXT
  5
240
330
231
100
AcDbEntity
  8
0
  6
Continuous
 62
     7
100
AcDbText
 10
66.7482789077
 20
97.06208392870001
 30
0.0
 40
1.333333852099999
  1
L
 50
343.0
  7
TEXTSTYLE_2
100
AcDbText
  0
TEXT
  5
241
330
231
100
AcDbEntity
  8
0
  6
Continuous
 62
     7
100
AcDbText
 10
63.228320101
 20
98.15122123389999
 30
0.0
 40
1.333333852099999
  1
4
 50
343.0
  7
TEXTSTYLE_2
100
AcDbText
  0
TEXT
  5
242
330
231
100
AcDbEntity
  8
0
  6
Continuous
 62
     7
100
AcDbText
 10
70.3488700054
 20
95.9742506593
 30
0.0
 40
1.333333852099999
  1
5
 50
343.0
  7
TEXTSTYLE_2
100
AcDbText
  0
ELLIPSE
  5
243
330
231
100
AcDbEntity
  8
0
  6
Continuous
 62
     7
100
AcDbEllipse
 10
67.4485003605
 20
97.54513285559999
 30
0.0
 11
-1.8579926215
 21
0.5680453503000002
 31
0.0
210
0.0
220
0.0
230
1.0
 40
0.6606458385
 41
0.0
 42
6.283185307179586
  0
ENDBLK
  5
244
330
231
100
AcDbEntity
  8
0
  6
ByBlock
 62
     0
100
AcDbBlockEnd
  0
BLOCK
  5
245
330
232
100
AcDbEntity
  8
0
  6
Continuous
 62
     7
100
AcDbBlockBegin
  2
SYMBOL_5_BL2
 70
     0
 10
42.1688817786
 20
97.62304354900001
 30
0.0
  3
SYMBOL_5_BL2
  1

  0
TEXT
  5
246
330
232
100
AcDbEntity
  8
0
  6
Continuous
 62
     7
100
AcDbText
 10
41.8419591521
 20
96.81298726219999
 30
0.0
 40
1.333333852099999
  1
L
 50
17.0
  7
TEXTSTYLE_2
100
AcDbText
  0
TEXT
  5
247
330
232
100
AcDbEntity
  8
0
  6
Continuous
 62
     7
100
AcDbText
 10
38.3147431955
 20
95.74758702469999
 30
0.0
 40
1.333333852099999
  1
5
 50
17.0
  7
TEXTSTYLE_2
100
AcDbText
  0
TEXT
  5
248
330
232
100
AcDbEntity
  8
0
  6
Continuous
 62
     7
100
AcDbText
 10
45.4352930999
 20
97.92455759940001
 30
0.0
 40
1.333333852099999
  1
4
 50
17.0
  7
TEXTSTYLE_2
100
AcDbText
  0
ELLIPSE
  5
249
330
232
100
AcDbEntity
  8
0
  6
Continuous
 62
     7
100
AcDbEllipse
 10
42.1523515136
 20
97.60501183930001
 30
0.0
 11
-1.8579926215
 21
-0.5680453503000002
 31
0.0
210
0.0
220
0.0
230
1.0
 40
0.6606458385
 41
0.0
 42
6.283185307179586
  0
ENDBLK
  5
24A
330
232
100
AcDbEntity
  8
0
  6
ByBlock
 62
     0
100
AcDbBlockEnd
  0
BLOCK
  5
24B
330
233
100
AcDbEntity
  8
0
  6
Continuous
 62
     7
100
AcDbBlockBegin
  2
SYMBOL_2_BL1
 70
     0
 10
126.1941507041
 20
57.02881593949999
 30
0.0
  3
SYMBOL_2_BL1
  1

  0
TEXT
  5
24C
330
233
100
AcDbEntity
  8
0
  6
Continuous
 62
     7
100
AcDbText
 10
119.8800904024
 20
59.2738499253
 30
0.0
 40
1.1626666667
  1
INTERNAL USE 
 50
10.0
  7
TEXTSTYLE_3
100
AcDbText
  0
TEXT
  5
24D
330
233
100
AcDbEntity
  8
0
  6
Continuous
 62
     7
100
AcDbText
 10
119.1364061984
 20
57.2723287477
 30
0.0
 40
1.1626666667
  1
DOCUMENT ONLY
 50
10.0
  7
TEXTSTYLE_3
100
AcDbText
  0
TEXT
  5
24E
330
233
100
AcDbEntity
  8
0
  6
Continuous
 62
     7
100
AcDbText
 10
124.9211337616
 20
57.0239006971
 30
0.0
 40
1.1626666667
  1
 
 50
10.0
  7
TEXTSTYLE_5
100
AcDbText
  0
TEXT
  5
24F
330
233
100
AcDbEntity
  8
0
  6
Continuous
 62
     7
100
AcDbText
 10
116.4764858786
 20
52.8468062908
 30
0.0
 40
1.1626666667
  1
DOCUMENT POUR USAGE
 50
10.0
  7
TEXTSTYLE_3
100
AcDbText
  0
TEXT
  5
250
330
233
100
AcDbEntity
  8
0
  6
Continuous
 62
     7
100
AcDbText
 10
116.9055853246
 20
50.8300578304
 30
0.0
 40
1.1626666667
  1
A L'INTERNE SEULEMENT
 50
10.0
  7
TEXTSTYLE_3
100
AcDbText
  0
LINE
  5
251
330
233
100
AcDbEntity
  8
0
  6
Continuous
 62
     7
100
AcDbLine
 10
140.0507024275
 20
52.6852823216
 30
0.0
 11
140.0574613601
 21
52.69204125419999
 31
0.0
  0
LINE
  5
252
330
233
100
AcDbEntity
  8
0
  6
Continuous
 62
     7
100
AcDbLine
 10
139.3181328611
 20
52.5561105418
 30
0.0
 11
139.9670143062
 21
53.2049919869
 31
0.0
  0
LINE
  5
253
330
233
100
AcDbEntity
  8
0
  6
Continuous
 62
     7
100
AcDbLine
 10
138.5855632946
 20
52.426938762
 30
0.0
 11
139.8765672522
 21
53.7179427196
 31
0.0
  0
LINE
  5
254
330
233
100
AcDbEntity
  8
0
  6
Continuous
 62
     7
100
AcDbLine
 10
137.8529937282
 20
52.2977669821
 30
0.0
 11
139.7861201983
 21
54.2308934522
 31
0.0
  0
LINE
  5
255
330
233
100
AcDbEntity
  8
0
  6
Continuous
 62
     7
100
AcDbLine
 10
137.1204241618
 20
52.16859520229999
 30
0.0
 11
139.6956731443
 21
54.7438441849
 31
0.0
  0
LINE
  5
256
330
233
100
AcDbEntity
  8
0
  6
Continuous
 62
     7
100
AcDbLine
 10
136.3878545954
 20
52.0394234225
 30
0.0
 11
137.9288584102
 21
53.58042723729999
 31
0.0
  0
LINE
  5
257
330
233
100
AcDbEntity
  8
0
  6
Continuous
 62
     7
100
AcDbLine
 10
138.5262036029
 20
54.17777242999999
 30
0.0
 11
139.6052260904
 21
55.2567949176
 31
0.0
  0
LINE
  5
258
330
233
100
AcDbEntity
  8
0
  6
Continuous
 62
     7
100
AcDbLine
 10
135.655285029
 20
51.9102516427
 30
0.0
 11
137.1962888437
 21
53.4512554575
 31
0.0
  0
LINE
  5
259
330
233
100
AcDbEntity
  8
0
  6
Continuous
 62
     7
100
AcDbLine
 10
138.4357565489
 20
54.69072316270001
 30
0.0
 11
139.5147790365
 21
55.76974565020001
 31
0.0
  0
LINE
  5
25A
330
233
100
AcDbEntity
  8
0
  6
Continuous
 62
     7
100
AcDbLine
 10
134.9227154625
 20
51.7810798629
 30
0.0
 11
136.4637192773
 21
53.3220836777
 31
0.0
  0
LINE
  5
25B
330
233
100
AcDbEntity
  8
0
  6
Continuous
 62
     7
100
AcDbLine
 10
138.345309495
 20
55.2036738954
 30
0.0
 11
139.4243319825
 21
56.28269638289999
 31
0.0
  0
LINE
  5
25C
330
233
100
AcDbEntity
  8
0
  6
Continuous
 62
     7
100
AcDbLine
 10
134.1901458961
 20
51.65190808310001
 30
0.0
 11
135.7311497109
 21
53.1929118979
 31
0.0
  0
LINE
  5
25D
330
233
100
AcDbEntity
  8
0
  6
Continuous
 62
     7
100
AcDbLine
 10
138.2548624411
 20
55.716624628
 30
0.0
 11
139.3338849286
 21
56.79564711560001
 31
0.0
  0
LINE
  5
25E
330
233
100
AcDbEntity
  8
0
  6
Continuous
 62
     7
100
AcDbLine
 10
133.4575763297
 20
51.5227363033
 30
0.0
 11
134.9985801445
 21
53.0637401181
 31
0.0
  0
LINE
  5
25F
330
233
100
AcDbEntity
  8
0
  6
Continuous
 62
     7
100
AcDbLine
 10
138.1644153871
 20
56.2295753607
 30
0.0
 11
139.2434378746
 21
57.30859784819999
 31
0.0
  0
LINE
  5
260
330
233
100
AcDbEntity
  8
0
  6
Continuous
 62
     7
100
AcDbLine
 10
132.7250067633
 20
51.3935645235
 30
0.0
 11
134.2660105781
 21
52.93456833829999
 31
0.0
  0
LINE
  5
261
330
233
100
AcDbEntity
  8
0
  6
Continuous
 62
     7
100
AcDbLine
 10
138.0739683332
 20
56.7425260934
 30
0.0
 11
139.1529908207
 21
57.8215485809
 31
0.0
  0
LINE
  5
262
330
233
100
AcDbEntity
  8
0
  6
Continuous
 62
     7
100
AcDbLine
 10
131.9924371969
 20
51.2643927437
 30
0.0
 11
133.5334410117
 21
52.80539655850001
 31
0.0
  0
LINE
  5
263
330
233
100
AcDbEntity
  8
0
  6
Continuous
 62
     7
100
AcDbLine
 10
137.9835212792
 20
57.25547682609999
 30
0.0
 11
139.0625437667
 21
58.3344993136
 31
0.0
  0
LINE
  5
264
330
233
100
AcDbEntity
  8
0
  6
Continuous
 62
     7
100
AcDbLine
 10
131.2598676305
 20
51.1352209639
 30
0.0
 11
132.8008714452
 21
52.67622477869999
 31
0.0
  0
LINE
  5
265
330
233
100
AcDbEntity
  8
0
  6
Continuous
 62
     7
100
AcDbLine
 10
137.8930742253
 20
57.76842755869999
 30
0.0
 11
138.9720967128
 21
58.8474500462
 31
0.0
  0
LINE
  5
266
330
233
100
AcDbEntity
  8
0
  6
Continuous
 62
     7
100
AcDbLine
 10
130.527298064
 20
51.0060491841
 30
0.0
 11
132.0683018788
 21
52.5470529989
 31
0.0
  0
LINE
  5
267
330
233
100
AcDbEntity
  8
0
  6
Continuous
 62
     7
100
AcDbLine
 10
137.8026271713
 20
58.28137829140001
 30
0.0
 11
138.8816496589
 21
59.3604007789
 31
0.0
  0
LINE
  5
268
330
233
100
AcDbEntity
  8
0
  6
Continuous
 62
     7
100
AcDbLine
 10
129.7947284976
 20
50.8768774043
 30
0.0
 11
131.3357323124
 21
52.41788121909999
 31
0.0
  0
LINE
  5
269
330
233
100
AcDbEntity
  8
0
  6
Continuous
 62
     7
100
AcDbLine
 10
137.4997475715
 20
58.58189647819999
 30
0.0
 11
138.7912026049
 21
59.87335151159999
 31
0.0
  0
LINE
  5
26A
330
233
100
AcDbEntity
  8
0
  6
Continuous
 62
     7
100
AcDbLine
 10
129.0621589312
 20
50.7477056245
 30
0.0
 11
130.603162746
 21
52.2887094393
 31
0.0
  0
LINE
  5
26B
330
233
100
AcDbEntity
  8
0
  6
Continuous
 62
     7
100
AcDbLine
 10
136.7671780051
 20
58.45272469840001
 30
0.0
 11
138.700755551
 21
60.3863022442
 31
0.0
  0
LINE
  5
26C
330
233
100
AcDbEntity
  8
0
  6
Continuous
 62
     7
100
AcDbLine
 10
128.3295893648
 20
50.6185338447
 30
0.0
 11
129.8705931796
 21
52.1595376595
 31
0.0
  0
LINE
  5
26D
330
233
100
AcDbEntity
  8
0
  6
Continuous
 62
     7
100
AcDbLine
 10
136.0346084387
 20
58.32355291859999
 30
0.0
 11
137.0619507369
 21
59.35089521680001
 31
0.0
  0
LINE
  5
26E
330
233
100
AcDbEntity
  8
0
  6
Continuous
 62
     7
100
AcDbLine
 10
137.5312860095
 20
59.8202304894
 30
0.0
 11
138.610308497
 21
60.89925297689999
 31
0.0
  0
LINE
  5
26F
330
233
100
AcDbEntity
  8
0
  6
Continuous
 62
     7
100
AcDbLine
 10
127.5970197984
 20
50.4893620649
 30
0.0
 11
129.1380236131
 21
52.0303658797
 31
0.0
  0
LINE
  5
270
330
233
100
AcDbEntity
  8
0
  6
Continuous
 62
     7
100
AcDbLine
 10
135.3020388723
 20
58.1943811388
 30
0.0
 11
136.3293809609
 21
59.22172322739999
 31
0.0
  0
LINE
  5
271
330
233
100
AcDbEntity
  8
0
  6
Continuous
 62
     7
100
AcDbLine
 10
137.4408389556
 20
60.3331812221
 30
0.0
 11
138.5198614431
 21
61.4122037096
 31
0.0
  0
LINE
  5
272
330
233
100
AcDbEntity
  8
0
  6
Continuous
 62
     7
100
AcDbLine
 10
126.864450232
 20
50.36019028510001
 30
0.0
 11
128.4054540467
 21
51.90119409979999
 31
0.0
  0
LINE
  5
273
330
233
100
AcDbEntity
  8
0
  6
Continuous
 62
     7
100
AcDbLine
 10
134.5694693058
 20
58.065209359
 30
0.0
 11
135.5968111849
 21
59.092551238
 31
0.0
  0
LINE
  5
274
330
233
100
AcDbEntity
  8
0
  6
Continuous
 62
     7
100
AcDbLine
 10
137.3503919016
 20
60.84613195470001
 30
0.0
 11
138.4294143891
 21
61.9251544423
 31
0.0
  0
LINE
  5
275
330
233
100
AcDbEntity
  8
0
  6
Continuous
 62
     7
100
AcDbLine
 10
126.1318806655
 20
50.2310185053
 30
0.0
 11
127.6728844803
 21
51.77202231999999
 31
0.0
  0
LINE
  5
276
330
233
100
AcDbEntity
  8
0
  6
Continuous
 62
     7
100
AcDbLine
 10
133.8368997394
 20
57.93603757909999
 30
0.0
 11
134.8642414088
 21
58.9633792486
 31
0.0
  0
LINE
  5
277
330
233
100
AcDbEntity
  8
0
  6
Continuous
 62
     7
100
AcDbLine
 10
137.2599448477
 20
61.35908268739999
 30
0.0
 11
138.3389673352
 21
62.4381051749
 31
0.0
  0
LINE
  5
278
330
233
100
AcDbEntity
  8
0
  6
Continuous
 62
     7
100
AcDbLine
 10
125.3993110991
 20
50.1018467255
 30
0.0
 11
126.9403149139
 21
51.6428505402
 31
0.0
  0
LINE
  5
279
330
233
100
AcDbEntity
  8
0
  6
Continuous
 62
     7
100
AcDbLine
 10
133.104330173
 20
57.80686579930001
 30
0.0
 11
134.1316716328
 21
58.8342072592
 31
0.0
  0
LINE
  5
27A
330
233
100
AcDbEntity
  8
0
  6
Continuous
 62
     7
100
AcDbLine
 10
137.1694977937
 20
61.8720334201
 30
0.0
 11
138.2485202812
 21
62.9510559076
 31
0.0
  0
LINE
  5
27B
330
233
100
AcDbEntity
  8
0
  6
Continuous
 62
     7
100
AcDbLine
 10
124.6667415327
 20
49.97267494569999
 30
0.0
 11
126.2077453475
 21
51.5136787604
 31
0.0
  0
LINE
  5
27C
330
233
100
AcDbEntity
  8
0
  6
Continuous
 62
     7
100
AcDbLine
 10
132.3717606066
 20
57.67769401949999
 30
0.0
 11
133.3991018568
 21
58.70503526970001
 31
0.0
  0
LINE
  5
27D
330
233
100
AcDbEntity
  8
0
  6
Continuous
 62
     7
100
AcDbLine
 10
137.0790507398
 20
62.38498415270001
 30
0.0
 11
138.1580732273
 21
63.46400664029999
 31
0.0
  0
LINE
  5
27E
330
233
100
AcDbEntity
  8
0
  6
Continuous
 62
     7
100
AcDbLine
 10
123.9341719663
 20
49.8435031658
 30
0.0
 11
125.4751757811
 21
51.3845069806
 31
0.0
  0
LINE
  5
27F
330
233
100
AcDbEntity
  8
0
  6
Continuous
 62
     7
100
AcDbLine
 10
131.6391910402
 20
57.54852223970001
 30
0.0
 11
132.6665320808
 21
58.5758632803
 31
0.0
  0
LINE
  5
280
330
233
100
AcDbEntity
  8
0
  6
Continuous
 62
     7
100
AcDbLine
 10
136.9886036858
 20
62.89793488539999
 30
0.0
 11
138.0676261734
 21
63.9769573729
 31
0.0
  0
LINE
  5
281
330
233
100
AcDbEntity
  8
0
  6
Continuous
 62
     7
100
AcDbLine
 10
123.2016023999
 20
49.71433138600001
 30
0.0
 11
124.7426062146
 21
51.2553352008
 31
0.0
  0
LINE
  5
282
330
233
100
AcDbEntity
  8
0
  6
Continuous
 62
     7
100
AcDbLine
 10
130.9066214737
 20
57.4193504599
 30
0.0
 11
131.9339623047
 21
58.4466912909
 31
0.0
  0
LINE
  5
283
330
233
100
AcDbEntity
  8
0
  6
Continuous
 62
     7
100
AcDbLine
 10
136.8981566319
 20
63.4108856181
 30
0.0
 11
137.9771791194
 21
64.48990810560001
 31
0.0
  0
LINE
  5
284
330
233
100
AcDbEntity
  8
0
  6
Continuous
 62
     7
100
AcDbLine
 10
122.4690328334
 20
49.5851596062
 30
0.0
 11
124.0100366482
 21
51.126163421
 31
0.0
  0
LINE
  5
285
330
233
100
AcDbEntity
  8
0
  6
Continuous
 62
     7
100
AcDbLine
 10
130.1740519073
 20
57.2901786801
 30
0.0
 11
131.2013925287
 21
58.3175193015
 31
0.0
  0
LINE
  5
286
330
233
100
AcDbEntity
  8
0
  6
Continuous
 62
     7
100
AcDbLine
 10
136.807709578
 20
63.9238363507
 30
0.0
 11
137.8867320655
 21
65.0028588383
 31
0.0
  0
LINE
  5
287
330
233
100
AcDbEntity
  8
0
  6
Continuous
 62
     7
100
AcDbLine
 10
121.736463267
 20
49.45598782640001
 30
0.0
 11
123.2774670818
 21
50.9969916412
 31
0.0
  0
LINE
  5
288
330
233
100
AcDbEntity
  8
0
  6
Continuous
 62
     7
100
AcDbLine
 10
129.4414823409
 20
57.1610069003
 30
0.0
 11
130.4688227527
 21
58.18834731209999
 31
0.0
  0
LINE
  5
289
330
233
100
AcDbEntity
  8
0
  6
Continuous
 62
     7
100
AcDbLine
 10
136.6328334765
 20
64.3523580359
 30
0.0
 11
137.7962850115
 21
65.5158095709
 31
0.0
  0
LINE
  5
28A
330
233
100
AcDbEntity
  8
0
  6
Continuous
 62
     7
100
AcDbLine
 10
121.0038937006
 20
49.3268160466
 30
0.0
 11
122.5448975154
 21
50.8678198614
 31
0.0
  0
LINE
  5
28B
330
233
100
AcDbEntity
  8
0
  6
Continuous
 62
     7
100
AcDbLine
 10
128.7089127745
 20
57.03183512049999
 30
0.0
 11
129.7362529766
 21
58.05917532270001
 31
0.0
  0
LINE
  5
28C
330
233
100
AcDbEntity
  8
0
  6
Continuous
 62
     7
100
AcDbLine
 10
135.9002639101
 20
64.22318625609999
 30
0.0
 11
137.4412677249
 21
65.7641900709
 31
0.0
  0
LINE
  5
28D
330
233
100
AcDbEntity
  8
0
  6
Continuous
 62
     7
100
AcDbLine
 10
120.2713241342
 20
49.1976442668
 30
0.0
 11
121.812327949
 21
50.73864808159999
 31
0.0
  0
LINE
  5
28E
330
233
100
AcDbEntity
  8
0
  6
Continuous
 62
     7
100
AcDbLine
 10
127.9763432081
 20
56.90266334069999
 30
0.0
 11
129.0036832006
 21
57.9300033332
 31
0.0
  0
LINE
  5
28F
330
233
100
AcDbEntity
  8
0
  6
Continuous
 62
     7
100
AcDbLine
 10
135.1676943437
 20
64.0940144763
 30
0.0
 11
136.7086981585
 21
65.63501829109999
 31
0.0
  0
LINE
  5
290
330
233
100
AcDbEntity
  8
0
  6
Continuous
 62
     7
100
AcDbLine
 10
119.5387545678
 20
49.068472487
 30
0.0
 11
121.0797583825
 21
50.6094763018
 31
0.0
  0
LINE
  5
291
330
233
100
AcDbEntity
  8
0
  6
Continuous
 62
     7
100
AcDbLine
 10
127.2437736417
 20
56.7734915609
 30
0.0
 11
128.2711134246
 21
57.80083134379999
 31
0.0
  0
LINE
  5
292
330
233
100
AcDbEntity
  8
0
  6
Continuous
 62
     7
100
AcDbLine
 10
134.4351247773
 20
63.96484269649999
 30
0.0
 11
135.9761285921
 21
65.50584651130001
 31
0.0
  0
LINE
  5
293
330
233
100
AcDbEntity
  8
0
  6
Continuous
 62
     7
100
AcDbLine
 10
118.8061850014
 20
48.9393007072
 30
0.0
 11
120.3471888161
 21
50.48030452199999
 31
0.0
  0
LINE
  5
294
330
233
100
AcDbEntity
  8
0
  6
Continuous
 62
     7
100
AcDbLine
 10
126.5112040752
 20
56.64431978109999
 30
0.0
 11
127.5385436486
 21
57.6716593544
 31
0.0
  0
LINE
  5
295
330
233
100
AcDbEntity
  8
0
  6
Continuous
 62
     7
100
AcDbLine
 10
133.7025552109
 20
63.8356709167
 30
0.0
 11
135.2435590256
 21
65.3766747315
 31
0.0
  0
LINE
  5
296
330
233
100
AcDbEntity
  8
0
  6
Continuous
 62
     7
100
AcDbLine
 10
118.0736154349
 20
48.8101289274
 30
0.0
 11
119.6146192497
 21
50.3511327422
 31
0.0
  0
LINE
  5
297
330
233
100
AcDbEntity
  8
0
  6
Continuous
 62
     7
100
AcDbLine
 10
125.7786345088
 20
56.5151480013
 30
0.0
 11
126.8059738725
 21
57.542487365
 31
0.0
  0
LINE
  5
298
330
233
100
AcDbEntity
  8
0
  6
Continuous
 62
     7
100
AcDbLine
 10
132.9699856444
 20
63.70649913689999
 30
0.0
 11
134.5109894592
 21
65.2475029517
 31
0.0
  0
LINE
  5
299
330
233
100
AcDbEntity
  8
0
  6
Continuous
 62
     7
100
AcDbLine
 10
117.3410458685
 20
48.6809571476
 30
0.0
 11
118.8820496833
 21
50.2219609624
 31
0.0
  0
LINE
  5
29A
330
233
100
AcDbEntity
  8
0
  6
Continuous
 62
     7
100
AcDbLine
 10
125.0460649424
 20
56.38597622149999
 30
0.0
 11
126.0734040965
 21
57.4133153756
 31
0.0
  0
LINE
  5
29B
330
233
100
AcDbEntity
  8
0
  6
Continuous
 62
     7
100
AcDbLine
 10
132.237416078
 20
63.5773273571
 30
0.0
 11
133.7784198928
 21
65.1183311719
 31
0.0
  0
LINE
  5
29C
330
233
100
AcDbEntity
  8
0
  6
Continuous
 62
     7
100
AcDbLine
 10
116.6084763021
 20
48.5517853678
 30
0.0
 11
118.1494801169
 21
50.0927891826
 31
0.0
  0
LINE
  5
29D
330
233
100
AcDbEntity
  8
0
  6
Continuous
 62
     7
100
AcDbLine
 10
124.313495376
 20
56.2568044417
 30
0.0
 11
125.3408343205
 21
57.2841433862
 31
0.0
  0
LINE
  5
29E
330
233
100
AcDbEntity
  8
0
  6
Continuous
 62
     7
100
AcDbLine
 10
131.5048465116
 20
63.44815557729999
 30
0.0
 11
133.0458503264
 21
64.9891593921
 31
0.0
  0
LINE
  5
29F
330
233
100
AcDbEntity
  8
0
  6
Continuous
 62
     7
100
AcDbLine
 10
115.8759067357
 20
48.422613588
 30
0.0
 11
117.4169105505
 21
49.9636174028
 31
0.0
  0
LINE
  5
2A0
330
233
100
AcDbEntity
  8
0
  6
Continuous
 62
     7
100
AcDbLine
 10
123.5809258096
 20
56.12763266189999
 30
0.0
 11
124.6082645444
 21
57.1549713968
 31
0.0
  0
LINE
  5
2A1
330
233
100
AcDbEntity
  8
0
  6
Continuous
 62
     7
100
AcDbLine
 10
130.7722769452
 20
63.31898379750001
 30
0.0
 11
132.31328076
 21
64.85998761229999
 31
0.0
  0
LINE
  5
2A2
330
233
100
AcDbEntity
  8
0
  6
Continuous
 62
     7
100
AcDbLine
 10
115.1433371693
 20
48.29344180819999
 30
0.0
 11
116.684340984
 21
49.834445623
 31
0.0
  0
LINE
  5
2A3
330
233
100
AcDbEntity
  8
0
  6
Continuous
 62
     7
100
AcDbLine
 10
122.8483562431
 20
55.9984608821
 30
0.0
 11
123.8756947684
 21
57.02579940729999
 31
0.0
  0
LINE
  5
2A4
330
233
100
AcDbEntity
  8
0
  6
Continuous
 62
     7
100
AcDbLine
 10
130.0397073788
 20
63.1898120177
 30
0.0
 11
131.5807111936
 21
64.73081583249999
 31
0.0
  0
LINE
  5
2A5
330
233
100
AcDbEntity
  8
0
  6
Continuous
 62
     7
100
AcDbLine
 10
114.5920163967
 20
48.34551882229999
 30
0.0
 11
115.9517714176
 21
49.7052738432
 31
0.0
  0
LINE
  5
2A6
330
233
100
AcDbEntity
  8
0
  6
Continuous
 62
     7
100
AcDbLine
 10
122.1157866767
 20
55.8692891023
 30
0.0
 11
123.1431249924
 21
56.8966274179
 31
0.0
  0
LINE
  5
2A7
330
233
100
AcDbEntity
  8
0
  6
Continuous
 62
     7
100
AcDbLine
 10
129.3071378124
 20
63.0606402379
 30
0.0
 11
130.8481416271
 21
64.60164405270001
 31
0.0
  0
LINE
  5
2A8
330
233
100
AcDbEntity
  8
0
  6
Continuous
 62
     7
100
AcDbLine
 10
114.5015693428
 20
48.85846955489999
 30
0.0
 11
115.5805918303
 21
49.9374920425
 31
0.0
  0
LINE
  5
2A9
330
233
100
AcDbEntity
  8
0
  6
Continuous
 62
     7
100
AcDbLine
 10
121.3832171103
 20
55.74011732249999
 30
0.0
 11
122.4105552164
 21
56.7674554285
 31
0.0
  0
LINE
  5
2AA
330
233
100
AcDbEntity
  8
0
  6
Continuous
 62
     7
100
AcDbLine
 10
128.5745682459
 20
62.9314684581
 30
0.0
 11
130.1155720607
 21
64.4724722729
 31
0.0
  0
LINE
  5
2AB
330
233
100
AcDbEntity
  8
0
  6
Continuous
 62
     7
100
AcDbLine
 10
114.4111222889
 20
49.3714202876
 30
0.0
 11
115.4901447764
 21
50.4504427751
 31
0.0
  0
LINE
  5
2AC
330
233
100
AcDbEntity
  8
0
  6
Continuous
 62
     7
100
AcDbLine
 10
120.6506475439
 20
55.6109455427
 30
0.0
 11
121.6779854403
 21
56.6382834391
 31
0.0
  0
LINE
  5
2AD
330
233
100
AcDbEntity
  8
0
  6
Continuous
 62
     7
100
AcDbLine
 10
127.8419986795
 20
62.80229667829999
 30
0.0
 11
129.3830024943
 21
64.3433004931
 31
0.0
  0
LINE
  5
2AE
330
233
100
AcDbEntity
  8
0
  6
Continuous
 62
     7
100
AcDbLine
 10
114.3206752349
 20
49.88437102029999
 30
0.0
 11
115.3996977224
 21
50.9633935078
 31
0.0
  0
LINE
  5
2AF
330
233
100
AcDbEntity
  8
0
  6
Continuous
 62
     7
100
AcDbLine
 10
119.9180779775
 20
55.48177376279999
 30
0.0
 11
120.9454156643
 21
56.5091114497
 31
0.0
  0
LINE
  5
2B0
330
233
100
AcDbEntity
  8
0
  6
Continuous
 62
     7
100
AcDbLine
 10
127.1094291131
 20
62.67312489850001
 30
0.0
 11
128.6504329279
 21
64.2141287132
 31
0.0
  0
LINE
  5
2B1
330
233
100
AcDbEntity
  8
0
  6
Continuous
 62
     7
100
AcDbLine
 10
114.230228181
 20
50.3973217529
 30
0.0
 11
115.3092506685
 21
51.4763442405
 31
0.0
  0
LINE
  5
2B2
330
233
100
AcDbEntity
  8
0
  6
Continuous
 62
     7
100
AcDbLine
 10
119.1855084111
 20
55.352601983
 30
0.0
 11
120.2128458883
 21
56.37993946029999
 31
0.0
  0
LINE
  5
2B3
330
233
100
AcDbEntity
  8
0
  6
Continuous
 62
     7
100
AcDbLine
 10
126.3768595467
 20
62.54395311869999
 30
0.0
 11
127.9178633615
 21
64.0849569334
 31
0.0
  0
LINE
  5
2B4
330
233
100
AcDbEntity
  8
0
  6
Continuous
 62
     7
100
AcDbLine
 10
114.139781127
 20
50.9102724856
 30
0.0
 11
115.2188036145
 21
51.9892949731
 31
0.0
  0
LINE
  5
2B5
330
233
100
AcDbEntity
  8
0
  6
Continuous
 62
     7
100
AcDbLine
 10
118.4529388446
 20
55.2234302032
 30
0.0
 11
119.4802761122
 21
56.2507674708
 31
0.0
  0
LINE
  5
2B6
330
233
100
AcDbEntity
  8
0
  6
Continuous
 62
     7
100
AcDbLine
 10
125.6442899803
 20
62.41478133890001
 30
0.0
 11
127.185293795
 21
63.9557851536
 31
0.0
  0
LINE
  5
2B7
330
233
100
AcDbEntity
  8
0
  6
Continuous
 62
     7
100
AcDbLine
 10
114.0493340731
 20
51.4232232183
 30
0.0
 11
115.1283565606
 21
52.5022457058
 31
0.0
  0
LINE
  5
2B8
330
233
100
AcDbEntity
  8
0
  6
Continuous
 62
     7
100
AcDbLine
 10
117.7203692782
 20
55.0942584234
 30
0.0
 11
118.7477063362
 21
56.1215954814
 31
0.0
  0
LINE
  5
2B9
330
233
100
AcDbEntity
  8
0
  6
Continuous
 62
     7
100
AcDbLine
 10
124.9117204139
 20
62.28560955909999
 30
0.0
 11
126.4527242286
 21
63.8266133738
 31
0.0
  0
LINE
  5
2BA
330
233
100
AcDbEntity
  8
0
  6
Continuous
 62
     7
100
AcDbLine
 10
113.9588870191
 20
51.936173951
 30
0.0
 11
115.0379095067
 21
53.0151964385
 31
0.0
  0
LINE
  5
2BB
330
233
100
AcDbEntity
  8
0
  6
Continuous
 62
     7
100
AcDbLine
 10
116.9877997118
 20
54.9650866436
 30
0.0
 11
118.0151365602
 21
55.992423492
 31
0.0
  0
LINE
  5
2BC
330
233
100
AcDbEntity
  8
0
  6
Continuous
 62
     7
100
AcDbLine
 10
124.1791508474
 20
62.15643777930001
 30
0.0
 11
125.7201546622
 21
63.69744159399999
 31
0.0
  0
LINE
  5
2BD
330
233
100
AcDbEntity
  8
0
  6
Continuous
 62
     7
100
AcDbLine
 10
113.8684399652
 20
52.44912468359999
 30
0.0
 11
114.9474624527
 21
53.5281471711
 31
0.0
  0
LINE
  5
2BE
330
233
100
AcDbEntity
  8
0
  6
Continuous
 62
     7
100
AcDbLine
 10
116.2552301454
 20
54.83591486379999
 30
0.0
 11
117.2825667842
 21
55.8632515026
 31
0.0
  0
LINE
  5
2BF
330
233
100
AcDbEntity
  8
0
  6
Continuous
 62
     7
100
AcDbLine
 10
123.446581281
 20
62.0272659994
 30
0.0
 11
124.9875850958
 21
63.5682698142
 31
0.0
  0
LINE
  5
2C0
330
233
100
AcDbEntity
  8
0
  6
Continuous
 62
     7
100
AcDbLine
 10
113.7779929113
 20
52.9620754163
 30
0.0
 11
114.8570153988
 21
54.0410979038
 31
0.0
  0
LINE
  5
2C1
330
233
100
AcDbEntity
  8
0
  6
Continuous
 62
     7
100
AcDbLine
 10
115.522660579
 20
54.70674308399999
 30
0.0
 11
116.5499970081
 21
55.7340795132
 31
0.0
  0
LINE
  5
2C2
330
233
100
AcDbEntity
  8
0
  6
Continuous
 62
     7
100
AcDbLine
 10
122.7140117146
 20
61.89809421959999
 30
0.0
 11
124.2550155294
 21
63.43909803439999
 31
0.0
  0
LINE
  5
2C3
330
233
100
AcDbEntity
  8
0
  6
Continuous
 62
     7
100
AcDbLine
 10
113.6875458573
 20
53.47502614899999
 30
0.0
 11
114.7665683448
 21
54.5540486365
 31
0.0
  0
LINE
  5
2C4
330
233
100
AcDbEntity
  8
0
  6
Continuous
 62
     7
100
AcDbLine
 10
114.7900910126
 20
54.5775713042
 30
0.0
 11
115.8174272321
 21
55.6049075238
 31
0.0
  0
LINE
  5
2C5
330
233
100
AcDbEntity
  8
0
  6
Continuous
 62
     7
100
AcDbLine
 10
121.9814421482
 20
61.76892243979999
 30
0.0
 11
123.522445963
 21
63.3099262546
 31
0.0
  0
LINE
  5
2C6
330
233
100
AcDbEntity
  8
0
  6
Continuous
 62
     7
100
AcDbLine
 10
113.5970988034
 20
53.9879768816
 30
0.0
 11
115.0848574561
 21
55.4757355343
 31
0.0
  0
LINE
  5
2C7
330
233
100
AcDbEntity
  8
0
  6
Continuous
 62
     7
100
AcDbLine
 10
121.2488725818
 20
61.63975065999999
 30
0.0
 11
122.7898763965
 21
63.1807544748
 31
0.0
  0
LINE
  5
2C8
330
233
100
AcDbEntity
  8
0
  6
Continuous
 62
     7
100
AcDbLine
 10
113.5066517494
 20
54.5009276143
 30
0.0
 11
114.5856742369
 21
55.5799501018
 31
0.0
  0
LINE
  5
2C9
330
233
100
AcDbEntity
  8
0
  6
Continuous
 62
     7
100
AcDbLine
 10
120.5163030153
 20
61.51057888020001
 30
0.0
 11
122.0573068301
 21
63.051582695
 31
0.0
  0
LINE
  5
2CA
330
233
100
AcDbEntity
  8
0
  6
Continuous
 62
     7
100
AcDbLine
 10
113.4162046955
 20
55.013878347
 30
0.0
 11
114.495227183
 21
56.0929008345
 31
0.0
  0
LINE
  5
2CB
330
233
100
AcDbEntity
  8
0
  6
Continuous
 62
     7
100
AcDbLine
 10
119.7837334489
 20
61.3814071004
 30
0.0
 11
121.3247372637
 21
62.92241091520001
 31
0.0
  0
LINE
  5
2CC
330
233
100
AcDbEntity
  8
0
  6
Continuous
 62
     7
100
AcDbLine
 10
113.3257576415
 20
55.5268290796
 30
0.0
 11
114.404780129
 21
56.6058515672
 31
0.0
  0
LINE
  5
2CD
330
233
100
AcDbEntity
  8
0
  6
Continuous
 62
     7
100
AcDbLine
 10
119.0511638825
 20
61.25223532060001
 30
0.0
 11
120.5921676973
 21
62.7932391354
 31
0.0
  0
LINE
  5
2CE
330
233
100
AcDbEntity
  8
0
  6
Continuous
 62
     7
100
AcDbLine
 10
113.2353105876
 20
56.03977981229999
 30
0.0
 11
114.3143330751
 21
57.1188022998
 31
0.0
  0
LINE
  5
2CF
330
233
100
AcDbEntity
  8
0
  6
Continuous
 62
     7
100
AcDbLine
 10
118.3185943161
 20
61.1230635408
 30
0.0
 11
119.8595981309
 21
62.6640673556
 31
0.0
  0
LINE
  5
2D0
330
233
100
AcDbEntity
  8
0
  6
Continuous
 62
     7
100
AcDbLine
 10
113.1448635336
 20
56.552730545
 30
0.0
 11
114.2238860212
 21
57.6317530325
 31
0.0
  0
LINE
  5
2D1
330
233
100
AcDbEntity
  8
0
  6
Continuous
 62
     7
100
AcDbLine
 10
117.5860247497
 20
60.993891761
 30
0.0
 11
119.1270285644
 21
62.5348955758
 31
0.0
  0
LINE
  5
2D2
330
233
100
AcDbEntity
  8
0
  6
Continuous
 62
     7
100
AcDbLine
 10
113.0544164797
 20
57.0656812776
 30
0.0
 11
114.1334389672
 21
58.1447037652
 31
0.0
  0
LINE
  5
2D3
330
233
100
AcDbEntity
  8
0
  6
Continuous
 62
     7
100
AcDbLine
 10
116.8534551833
 20
60.8647199812
 30
0.0
 11
118.394458998
 21
62.405723796
 31
0.0
  0
LINE
  5
2D4
330
233
100
AcDbEntity
  8
0
  6
Continuous
 62
     7
100
AcDbLine
 10
112.9639694258
 20
57.5786320103
 30
0.0
 11
114.0429919133
 21
58.65765449779999
 31
0.0
  0
LINE
  5
2D5
330
233
100
AcDbEntity
  8
0
  6
Continuous
 62
     7
100
AcDbLine
 10
116.1208856168
 20
60.7355482014
 30
0.0
 11
117.6618894316
 21
62.2765520162
 31
0.0
  0
LINE
  5
2D6
330
233
100
AcDbEntity
  8
0
  6
Continuous
 62
     7
100
AcDbLine
 10
112.8735223718
 20
58.091582743
 30
0.0
 11
113.9525448593
 21
59.1706052305
 31
0.0
  0
LINE
  5
2D7
330
233
100
AcDbEntity
  8
0
  6
Continuous
 62
     7
100
AcDbLine
 10
115.3883160504
 20
60.60637642159999
 30
0.0
 11
116.9293198652
 21
62.1473802364
 31
0.0
  0
LINE
  5
2D8
330
233
100
AcDbEntity
  8
0
  6
Continuous
 62
     7
100
AcDbLine
 10
112.7830753179
 20
58.6045334757
 30
0.0
 11
113.8620978054
 21
59.6835559632
 31
0.0
  0
LINE
  5
2D9
330
233
100
AcDbEntity
  8
0
  6
Continuous
 62
     7
100
AcDbLine
 10
114.655746484
 20
60.4772046418
 30
0.0
 11
116.1967502988
 21
62.0182084566
 31
0.0
  0
LINE
  5
2DA
330
233
100
AcDbEntity
  8
0
  6
Continuous
 62
     7
100
AcDbLine
 10
112.6926282639
 20
59.1174842083
 30
0.0
 11
113.7716507514
 21
60.19650669579999
 31
0.0
  0
LINE
  5
2DB
330
233
100
AcDbEntity
  8
0
  6
Continuous
 62
     7
100
AcDbLine
 10
113.9231769176
 20
60.34803286199999
 30
0.0
 11
115.4641807324
 21
61.8890366768
 31
0.0
  0
LINE
  5
2DC
330
233
100
AcDbEntity
  8
0
  6
Continuous
 62
     7
100
AcDbLine
 10
112.60218121
 20
59.630434941
 30
0.0
 11
114.7316111659
 21
61.7598648969
 31
0.0
  0
LINE
  5
2DD
330
233
100
AcDbEntity
  8
0
  6
Continuous
 62
     7
100
AcDbLine
 10
112.511734156
 20
60.1433856737
 30
0.0
 11
113.9990415995
 21
61.6306931171
 31
0.0
  0
LINE
  5
2DE
330
233
100
AcDbEntity
  8
0
  6
Continuous
 62
     7
100
AcDbLine
 10
112.4212871021
 20
60.6563364063
 30
0.0
 11
113.2664720331
 21
61.50152133729999
 31
0.0
  0
LINE
  5
2DF
330
233
100
AcDbEntity
  8
0
  6
Continuous
 62
     7
100
AcDbLine
 10
112.3308400482
 20
61.169287139
 30
0.0
 11
112.5339024667
 21
61.3723495575
 31
0.0
  0
ENDBLK
  5
2E0
330
233
100
AcDbEntity
  8
0
  6
ByBlock
 62
     0
100
AcDbBlockEnd
  0
BLOCK
  5
2E1
330
234
100
AcDbEntity
  8
0
  6
Continuous
 62
     7
100
AcDbBlockBegin
  2
SYMBOL_0_BL0
 70
     0
 10
160.6665744185
 20
55.3333957601
 30
0.0
  3
SYMBOL_0_BL0
  1

  0
TEXT
  5
2E2
330
234
100
AcDbEntity
  8
0
  6
Continuous
 62
     7
100
AcDbText
 10
144.4187893423
 20
63.1068291512
 30
0.0
 40
0.5
  1
Infomations Techniques/Technical Infomations
  7
TEXTSTYLE_2
100
AcDbText
  0
TEXT
  5
2E3
330
234
100
AcDbEntity
  8
0
  6
Continuous
 62
     7
100
AcDbText
 10
144.6665744185
 20
61.6667290935
 30
0.0
 40
0.6666666667
  1
NOMBRE DE JETS:     
  7
TEXTSTYLE_2
100
AcDbText
  0
TEXT
  5
2E4
330
234
100
AcDbEntity
  8
0
  6
Continuous
 62
     7
100
AcDbText
 10
154.5110188629
 20
61.6667290935
 30
0.0
 40
0.6666666667
  1
35
  7
TEXTSTYLE_2
100
AcDbText
  0
TEXT
  5
2E5
330
234
100
AcDbEntity
  8
0
  6
Continuous
 62
     7
100
AcDbText
 10
144.6665744185
 20
60.6667290935
 30
0.0
 40
0.6666666667
  1
 
  7
TEXTSTYLE_2
100
AcDbText
  0
TEXT
  5
2E6
330
234
100
AcDbEntity
  8
0
  6
Continuous
 62
     7
100
AcDbText
 10
144.6665744185
 20
59.6667290935
 30
0.0
 40
0.6666666667
  1
NIVEAU D'EAU              GALLONS(US)        LITRES        GALLONS(UK)
  7
TEXTSTYLE_2
100
AcDbText
  0
TEXT
  5
2E7
330
234
100
AcDbEntity
  8
0
  6
Continuous
 62
     7
100
AcDbText
 10
144.6665744185
 20
58.6667290935
 30
0.0
 40
0.6666666667
  1
PLEIN
  7
TEXTSTYLE_2
100
AcDbText
  0
TEXT
  5
2E8
330
234
100
AcDbEntity
  8
0
  6
Continuous
 62
     7
100
AcDbText
 10
144.6665744185
 20
57.6667290935
 30
0.0
 40
0.6666666667
  1
HAUT T.PLEIN
  7
TEXTSTYLE_2
100
AcDbText
  0
TEXT
  5
2E9
330
234
100
AcDbEntity
  8
0
  6
Continuous
 62
     7
100
AcDbText
 10
144.6665744185
 20
56.6667290935
 30
0.0
 40
0.6666666667
  1
MILIEU T.PLEIN
  7
TEXTSTYLE_2
100
AcDbText
  0
TEXT
  5
2EA
330
234
100
AcDbEntity
  8
0
  6
Continuous
 62
     7
100
AcDbText
 10
144.6665744185
 20
55.6667290935
 30
0.0
 40
0.6666666667
  1
BAS T.PLEIN
  7
TEXTSTYLE_2
100
AcDbText
  0
TEXT
  5
2EB
330
234
100
AcDbEntity
  8
0
  6
Continuous
 62
     7
100
AcDbText
 10
144.6665744185
 20
54.6667290935
 30
0.0
 40
0.6666666667
  1
3" EN BAS T.PLEIN
  7
TEXTSTYLE_2
100
AcDbText
  0
TEXT
  5
2EC
330
234
100
AcDbEntity
  8
0
  6
Continuous
 62
     7
100
AcDbText
 10
144.6665744185
 20
53.6667290935
 30
0.0
 40
0.6666666667
  1
 
  7
TEXTSTYLE_2
100
AcDbText
  0
TEXT
  5
2ED
330
234
100
AcDbEntity
  8
0
  6
Continuous
 62
     7
100
AcDbText
 10
144.4664129129
 20
53.1199421686
 30
0.0
 40
0.5
  1
Legende/Legend
  7
TEXTSTYLE_2
100
AcDbText
  0
TEXT
  5
2EE
330
234
100
AcDbEntity
  8
0
  6
Continuous
 62
     7
100
AcDbText
 10
150.995247857
 20
51.6086771909
 30
0.0
 40
0.6666666667
  1
ZONE DE ROBINETTERIE
  7
TEXTSTYLE_2
100
AcDbText
  0
TEXT
  5
2EF
330
234
100
AcDbEntity
  8
0
  6
Continuous
 62
     7
100
AcDbText
 10
145.91552329
 20
50.1134326765
 30
0.0
 40
0.6666666667
  1
L   :  SYSTEME LED       DC   :  DOUBLE DOSSIER CHAUFFANT
  7
TEXTSTYLE_2
100
AcDbText
  0
TEXT
  5
2F0
330
234
100
AcDbEntity
  8
0
  6
Continuous
 62
     7
100
AcDbText
 10
145.91552329
 20
48.7800993432
 30
0.0
 40
0.6666666667
  1
C   :  CONTROLE
  7
TEXTSTYLE_2
100
AcDbText
  0
TEXT
  5
2F1
330
234
100
AcDbEntity
  8
0
  6
Continuous
 62
     7
100
AcDbText
 10
145.91552329
 20
47.4467660099
 30
0.0
 40
0.6666666667
  1
T   :  MOTEUR
  7
TEXTSTYLE_2
100
AcDbText
  0
TEXT
  5
2F2
330
234
100
AcDbEntity
  8
0
  6
Continuous
 62
     7
100
AcDbText
 10
157.4992711178
 20
58.6667290935
 30
0.0
 40
0.6666666667
  1
90
  7
TEXTSTYLE_2
100
AcDbText
  0
TEXT
  5
2F3
330
234
100
AcDbEntity
  8
0
  6
Continuous
 62
     7
100
AcDbText
 10
157.4992711178
 20
57.6667290935
 30
0.0
 40
0.6666666667
  1
69
  7
TEXTSTYLE_2
100
AcDbText
  0
TEXT
  5
2F4
330
234
100
AcDbEntity
  8
0
  6
Continuous
 62
     7
100
AcDbText
 10
157.4992711178
 20
56.6667290935
 30
0.0
 40
0.6666666667
  1
68
  7
TEXTSTYLE_2
100
AcDbText
  0
TEXT
  5
2F5
330
234
100
AcDbEntity
  8
0
  6
Continuous
 62
     7
100
AcDbText
 10
157.4992711178
 20
55.6667290935
 30
0.0
 40
0.6666666667
  1
66
  7
TEXTSTYLE_2
100
AcDbText
  0
TEXT
  5
2F6
330
234
100
AcDbEntity
  8
0
  6
Continuous
 62
     7
100
AcDbText
 10
157.4992711178
 20
54.6667290935
 30
0.0
 40
0.6666666667
  1
51
  7
TEXTSTYLE_2
100
AcDbText
  0
TEXT
  5
2F7
330
234
100
AcDbEntity
  8
0
  6
Continuous
 62
     7
100
AcDbText
 10
164.4194770615
 20
58.68380849560001
 30
0.0
 40
0.6666666667
  1
341
  7
TEXTSTYLE_2
100
AcDbText
  0
TEXT
  5
2F8
330
234
100
AcDbEntity
  8
0
  6
Continuous
 62
     7
100
AcDbText
 10
164.4194770615
 20
57.6838084956
 30
0.0
 40
0.6666666667
  1
260
  7
TEXTSTYLE_2
100
AcDbText
  0
TEXT
  5
2F9
330
234
100
AcDbEntity
  8
0
  6
Continuous
 62
     7
100
AcDbText
 10
164.4194770615
 20
56.6838084956
 30
0.0
 40
0.6666666667
  1
256
  7
TEXTSTYLE_2
100
AcDbText
  0
TEXT
  5
2FA
330
234
100
AcDbEntity
  8
0
  6
Continuous
 62
     7
100
AcDbText
 10
164.4194770615
 20
55.6838084956
 30
0.0
 40
0.6666666667
  1
251
  7
TEXTSTYLE_2
100
AcDbText
  0
TEXT
  5
2FB
330
234
100
AcDbEntity
  8
0
  6
Continuous
 62
     7
100
AcDbText
 10
164.4194770615
 20
54.6838084956
 30
0.0
 40
0.6666666667
  1
192
  7
TEXTSTYLE_2
100
AcDbText
  0
TEXT
  5
2FC
330
234
100
AcDbEntity
  8
0
  6
Continuous
 62
     7
100
AcDbText
 10
171.364115999
 20
58.6667290935
 30
0.0
 40
0.6666666667
  1
75
  7
TEXTSTYLE_2
100
AcDbText
  0
TEXT
  5
2FD
330
234
100
AcDbEntity
  8
0
  6
Continuous
 62
     7
100
AcDbText
 10
171.364115999
 20
57.6667290935
 30
0.0
 40
0.6666666667
  1
57
  7
TEXTSTYLE_2
100
AcDbText
  0
TEXT
  5
2FE
330
234
100
AcDbEntity
  8
0
  6
Continuous
 62
     7
100
AcDbText
 10
171.364115999
 20
56.6667290935
 30
0.0
 40
0.6666666667
  1
56
  7
TEXTSTYLE_2
100
AcDbText
  0
TEXT
  5
2FF
330
234
100
AcDbEntity
  8
0
  6
Continuous
 62
     7
100
AcDbText
 10
171.364115999
 20
55.6667290935
 30
0.0
 40
0.6666666667
  1
55
  7
TEXTSTYLE_2
100
AcDbText
  0
TEXT
  5
300
330
234
100
AcDbEntity
  8
0
  6
Continuous
 62
     7
100
AcDbText
 10
171.364115999
 20
54.6667290935
 30
0.0
 40
0.6666666667
  1
42
  7
TEXTSTYLE_2
100
AcDbText
  0
LINE
  5
301
330
234
100
AcDbEntity
  8
0
  6
Continuous
 62
     7
100
AcDbLine
 10
143.9999077518
 20
64.00006242679999
 30
0.0
 11
143.9999077518
 21
46.6667290935
 31
0.0
  0
LINE
  5
302
330
234
100
AcDbEntity
  8
0
  6
Continuous
 62
     7
100
AcDbLine
 10
143.9999077518
 20
64.00006242679999
 30
0.0
 11
177.3332410852
 21
64.00006242679999
 31
0.0
  0
LINE
  5
303
330
234
100
AcDbEntity
  8
0
  6
Continuous
 62
     7
100
AcDbLine
 10
177.3332410852
 20
64.00006242679999
 30
0.0
 11
177.3332410852
 21
46.6667290935
 31
0.0
  0
LINE
  5
304
330
234
100
AcDbEntity
  8
0
  6
Continuous
 62
     7
100
AcDbLine
 10
143.9999077518
 20
46.6667290935
 30
0.0
 11
177.3332410852
 21
46.6667290935
 31
0.0
  0
LINE
  5
305
330
234
100
AcDbEntity
  8
0
  6
Continuous
 62
     7
100
AcDbLine
 10
145.3332410852
 20
54.00006242679999
 30
0.0
 11
175.9999077518
 21
54.00006242679999
 31
0.0
  0
LINE
  5
306
330
234
100
AcDbEntity
  8
0
  6
Continuous
 62
     7
100
AcDbLine
 10
145.3332410852
 20
61.0000624268
 30
0.0
 11
175.9999077518
 21
61.0000624268
 31
0.0
  0
LINE
  5
307
330
234
100
AcDbEntity
  8
0
  6
Continuous
 62
     7
100
AcDbLine
 10
144.8088143111
 20
52.3782269312
 30
0.0
 11
144.4397935688
 21
52.0092061888
 31
0.0
  0
LINE
  5
308
330
234
100
AcDbEntity
  8
0
  6
Continuous
 62
     7
100
AcDbLine
 10
145.4754809778
 20
52.3782269312
 30
0.0
 11
144.6774651873
 21
51.58021114069999
 31
0.0
  0
LINE
  5
309
330
234
100
AcDbEntity
  8
0
  6
Continuous
 62
     7
100
AcDbLine
 10
146.1421476444
 20
52.3782269312
 30
0.0
 11
145.344131854
 21
51.58021114069999
 31
0.0
  0
LINE
  5
30A
330
234
100
AcDbEntity
  8
0
  6
Continuous
 62
     7
100
AcDbLine
 10
146.8088143111
 20
52.3782269312
 30
0.0
 11
146.0107985207
 21
51.58021114069999
 31
0.0
  0
LINE
  5
30B
330
234
100
AcDbEntity
  8
0
  6
Continuous
 62
     7
100
AcDbLine
 10
147.4754809778
 20
52.3782269312
 30
0.0
 11
146.6774651873
 21
51.58021114069999
 31
0.0
  0
LINE
  5
30C
330
234
100
AcDbEntity
  8
0
  6
Continuous
 62
     7
100
AcDbLine
 10
148.1421476444
 20
52.3782269312
 30
0.0
 11
147.344131854
 21
51.58021114069999
 31
0.0
  0
LINE
  5
30D
330
234
100
AcDbEntity
  8
0
  6
Continuous
 62
     7
100
AcDbLine
 10
148.8088143111
 20
52.3782269312
 30
0.0
 11
148.0107985207
 21
51.58021114069999
 31
0.0
  0
LINE
  5
30E
330
234
100
AcDbEntity
  8
0
  6
Continuous
 62
     7
100
AcDbLine
 10
149.4754809778
 20
52.3782269312
 30
0.0
 11
148.6774651873
 21
51.58021114069999
 31
0.0
  0
LINE
  5
30F
330
234
100
AcDbEntity
  8
0
  6
Continuous
 62
     7
100
AcDbLine
 10
150.1421476444
 20
52.3782269312
 30
0.0
 11
149.344131854
 21
51.58021114069999
 31
0.0
  0
LINE
  5
310
330
234
100
AcDbEntity
  8
0
  6
Continuous
 62
     7
100
AcDbLine
 10
150.5856350786
 20
52.15504769859999
 30
0.0
 11
150.0107985207
 21
51.58021114069999
 31
0.0
  0
ELLIPSE
  5
311
330
234
100
AcDbEntity
  8
0
  6
Continuous
 62
     7
100
AcDbEllipse
 10
146.145310234
 20
50.4310101337
 30
0.0
 11
1.0473539356
 21
0.0
 31
0.0
210
0.0
220
0.0
230
1.0
 40
0.4938647983
 41
0.0
 42
6.283185307179586
  0
ELLIPSE
  5
312
330
234
100
AcDbEntity
  8
0
  6
Continuous
 62
     7
100
AcDbEllipse
 10
146.145310234
 20
49.0976768004
 30
0.0
 11
1.0473539356
 21
0.0
 31
0.0
210
0.0
220
0.0
230
1.0
 40
0.4938647983
 41
0.0
 42
6.283185307179586
  0
ELLIPSE
  5
313
330
234
100
AcDbEntity
  8
0
  6
Continuous
 62
     7
100
AcDbEllipse
 10
146.145310234
 20
47.7643434671
 30
0.0
 11
1.0473539356
 21
0.0
 31
0.0
210
0.0
220
0.0
230
1.0
 40
0.4938647983
 41
0.0
 42
6.283185307179586
  0
ELLIPSE
  5
314
330
234
100
AcDbEntity
  8
0
  6
Continuous
 62
     7
100
AcDbEllipse
 10
157.1639458151
 20
50.4505314908
 30
0.0
 11
1.0473539356
 21
0.0
 31
0.0
210
0.0
220
0.0
230
1.0
 40
0.4938647983
 41
0.0
 42
6.283185307179586
  0
ENDBLK
  5
315
330
234
100
AcDbEntity
  8
0
  6
ByBlock
 62
     0
100
AcDbBlockEnd
  0
ENDSEC
  0
SECTION
  2
ENTITIES
  0
LWPOLYLINE
  5
1530
330
21D
100
AcDbEntity
  8
0
  6
Continuous
 62
     7
100
AcDbPolyline
 90
       69
 70
     0
 43
0.0
 10
22.6588253144
 20
85.7545445306
 10
22.6727443898
 20
85.1681870064
 10
22.7138251167
 20
84.5944699618
 10
22.7817083561
 20
84.02835438270001
 10
22.876274366
 20
83.4690964371
 10
22.9976950521
 20
82.91550304240001
 10
23.1463048951
 20
82.3665119061
 10
23.3228450658
 20
81.82111512649999
 10
23.5281887047
 20
81.27832346609999
 10
23.7633536672
 20
80.73771955339999
 10
24.0296259803
 20
80.19872666439999
 10
24.3276775143
 20
79.6621613684
 10
24.6596193698
 20
79.12686758399999
 10
25.0279342853
 20
78.59157305540001
 10
25.4341222932
 20
78.05711843430001
 10
25.8817341959
 20
77.52200240979999
 10
26.3671546289
 20
76.9930138079
 10
26.8659927017
 20
76.4951329458
 10
27.3462373802
 20
76.0524581211
 10
27.7909906403
 20
75.66999491770001
 10
28.1946835664
 20
75.3429091781
 10
28.5589437976
 20
75.06249354479999
 10
28.8931212836
 20
74.8164594712
 10
29.2121320569
 20
74.5908628248
 10
29.5306366429
 20
74.3740323561
 10
29.8550347708
 20
74.16127682279999
 10
30.1836371945
 20
73.9535702917
 10
30.5142161417
 20
73.7520544092
 10
30.8476705755
 20
73.55592242580001
 10
31.1890014896
 20
73.3621869162
 10
31.542478315
 20
73.1686542236
 10
31.9043175233
 20
72.9776222447
 10
32.2726246181
 20
72.79013682909999
 10
32.65907293250001
 20
72.60056146380001
 10
33.0872356485
 20
72.39862133469999
 10
33.5650546554
 20
72.1827889278
 10
34.0577109895
 20
71.970195581
 10
34.5424029346
 20
71.7703421236
 10
35.0300106924
 20
71.5781044611
 10
35.5328381445
 20
71.38865942310001
 10
36.0483058216
 20
71.2032593344
 10
36.5669045024
 20
71.0253026339
 10
37.083331536
 20
70.8562453623
 10
37.601909929
 20
70.69428862009999
 10
38.1381607459
 20
70.53467828569999
 10
38.6888629085
 20
70.37876912859999
 10
39.2163983823
 20
70.2367147063
 10
39.7222266754
 20
70.1069376267
 10
40.2378207857
 20
69.9809031114
 10
40.76034783619999
 20
69.8593962323
 10
41.27857416789999
 20
69.7448732382
 10
41.79693368639999
 20
69.6360950276
 10
42.329591725
 20
69.530150251
 10
42.8970421377
 20
69.4235815452
 10
43.5225663262
 20
69.31337963909999
 10
44.2178464006
 20
69.1995328258
 10
44.9509915711
 20
69.0890051862
 10
45.6685006334
 20
68.9899840897
 10
46.365871273
 20
68.90215166049999
 10
47.069423841
 20
68.82168873479999
 10
47.7816951784
 20
68.74831429939999
 10
48.49082866319999
 20
68.68311078859999
 10
49.1919955563
 20
68.6261273414
 10
49.90242243109999
 20
68.5757930542
 10
50.6635425215
 20
68.52993925319999
 10
51.52227156270001
 20
68.48797800159999
 10
52.4983196654
 20
68.4525236625
 10
53.593011085
 20
68.4278263147
 10
54.8053438449
 20
68.4185284862
  0
LWPOLYLINE
  5
1531
330
21D
100
AcDbEntity
  8
0
  6
Continuous
 62
     7
100
AcDbPolyline
 90
       50
 70
     0
 43
0.0
 10
21.805343845
 20
85.7545445306
 10
21.8164799254
 20
85.2160800989
 10
21.850604224
 20
84.67250670309999
 10
21.9079018618
 20
84.1323436703
 10
21.9871438335
 20
83.60399215820001
 10
22.0875140145
 20
83.086902847
 10
22.2112189828
 20
82.5696603581
 10
22.3625427997
 20
82.04090093979999
 10
22.5473650495
 20
81.4913839445
 10
22.7683883308
 20
80.925029962
 10
23.0243914954
 20
80.35333185729999
 10
23.3121513242
 20
79.78675864829999
 10
23.6308006665
 20
79.2279910972
 10
23.9813489439
 20
78.67606652880001
 10
24.3647983693
 20
78.1304143079
 10
24.7815844023
 20
77.5918181146
 10
25.2284659907
 20
77.0647861911
 10
25.7005445898
 20
76.55434293279999
 10
26.1931697889
 20
76.0638502435
 10
26.7038416545
 20
75.5936540067
 10
27.2301042582
 20
75.1439662346
 10
27.7689729466
 20
74.71516515100001
 10
28.3191485433
 20
74.3062994105
 10
28.8826525038
 20
73.9144317504
 10
29.4615600965
 20
73.53709041790001
 10
30.0557052931
 20
73.17354891069999
 10
30.6636128759
 20
72.8240406803
 10
31.2856241933
 20
72.4878122562
 10
31.9231431966
 20
72.163724004
 10
32.5782079317
 20
71.8505085739
 10
33.2549581308
 20
71.5463125742
 10
33.9581081845
 20
71.249523803
 10
34.6938641426
 20
70.9584165963
 10
35.4699483015
 20
70.6713411679
 10
36.2936753117
 20
70.387494414
 10
37.1718030149
 20
70.10687654909999
 10
38.1106795756
 20
69.83011106460001
 10
39.11278697530001
 20
69.55945719489999
 10
40.1687823657
 20
69.29997130550001
 10
41.26822986879999
 20
69.0559912315
 10
42.40903735229999
 20
68.8292476934
 10
43.5930269537
 20
68.6205995248
 10
44.8224845797
 20
68.4309989438
 10
46.09925626779999
 20
68.2616090167
 10
47.4224784596
 20
68.1140386989
 10
48.7887725772
 20
67.9900116978
 10
50.2167605458
 20
67.889644618
 10
51.7040093293
 20
67.81544145939999
 10
53.2378892781
 20
67.7698959305
 10
54.80533874439999
 20
67.7545445306
  0
LWPOLYLINE
  5
1532
330
21D
100
AcDbEntity
  8
0
  6
Continuous
 62
     7
100
AcDbPolyline
 90
       75
 70
     0
 43
0.0
 10
34.7429967593
 20
85.7545445306
 10
34.7456268648
 20
85.53552637140001
 10
34.7526443764
 20
85.3356447416
 10
34.7630086495
 20
85.15208928209998
 10
34.7757107331
 20
84.9853734542
 10
34.7898462201
 20
84.8353743738
 10
34.8049153201
 20
84.69929282449999
 10
34.8209424202
 20
84.5721933729
 10
34.83836698280001
 20
84.44854380529999
 10
34.8576673611
 20
84.32461703820001
 10
34.8789877259
 20
84.19982935430001
 10
34.9021003873
 20
84.07571661750001
 10
34.9267133091
 20
83.95360826319999
 10
34.9532974053
 20
83.8310633645
 10
34.9834264945
 20
83.7017018512
 10
35.0186114079
 20
83.56108114989998
 10
35.0596215027
 20
83.40875955559999
 10
35.1068736618
 20
83.2458347981
 10
35.1612634049
 20
83.0718741369
 10
35.2237932387
 20
82.8865064814
 10
35.2933904365
 20
82.69526876289999
 10
35.3665001094
 20
82.5085234023
 10
35.4410855603
 20
82.33036780669999
 10
35.5206280211
 20
82.15191758299999
 10
35.6117517786
 20
81.95989094540001
 10
35.7195154952
 20
81.7472715401
 10
35.84740507
 20
81.5120844253
 10
35.9990868449
 20
81.2533964576
 10
36.1802358391
 20
80.96836545930001
 10
36.3982389742
 20
80.6534858518
 10
36.6623188212
 20
80.3054258022
 10
36.97477570530001
 20
79.9317955212
 10
37.3269975738
 20
79.5507087381
 10
37.7139346315
 20
79.171645425
 10
38.1374704994
 20
78.7954552438
 10
38.600805607
 20
78.4221459267
 10
39.1080169903
 20
78.0515445254
 10
39.6623298017
 20
77.68453926789999
 10
40.26698946919999
 20
77.32250216069999
 10
40.9291660191
 20
76.964878048
 10
41.6555481765
 20
76.612355744
 10
42.4095432358
 20
76.2843890363
 10
43.1158135121
 20
76.0077721188
 10
43.7418419525
 20
75.78459444169999
 10
44.3003498271
 20
75.60145823149999
 10
44.80398550989999
 20
75.44827748100001
 10
45.25929002489999
 20
75.31896656029999
 10
45.667522632
 20
75.21005661450001
 10
46.0318728614
 20
75.1182464732
 10
46.3637612118
 20
75.0388932214
 10
46.6795749464
 20
74.96705810849999
 10
46.9940204775
 20
74.89899679130001
 10
47.31346593749999
 20
74.833301663
 10
47.6343095441
 20
74.77074270740001
 10
47.9534843575
 20
74.7118549213
 10
48.27094660850001
 20
74.6565221426
 10
48.594054788
 20
74.6034460162
 10
48.935313614
 20
74.5508608249
 10
49.30662854569999
 20
74.49760303239999
 10
49.71171687
 20
74.44409199839999
 10
50.1305769062
 20
74.39367215859999
 10
50.5365604618
 20
74.34944707220001
 10
50.9080546563
 20
74.31289041609999
 10
51.2448564679
 20
74.28290927399999
 10
51.5585453934
 20
74.2576394632
 10
51.8600366282
 20
74.2357254243
 10
52.1588664219
 20
74.21626521970001
 10
52.4582988267
 20
74.1989889129
 10
52.7582788917
 20
74.18387824439999
 10
53.0555965441
 20
74.1710391699
 10
53.3513869071
 20
74.160346268
 10
53.6591822671
 20
74.15138790520001
 10
53.9941065847
 20
74.1441119528
 10
54.37117558
 20
74.13894915420001
 10
54.8053438449
 20
74.13689696289999
  0
LWPOLYLINE
  5
1533
330
21D
100
AcDbEntity
  8
0
  6
Continuous
 62
     7
100
AcDbPolyline
 90
       50
 70
     0
 43
0.0
 10
54.80533874439999
 20
67.7545445306
 10
56.3727891809
 20
67.7698957485
 10
57.9066700136
 20
67.8154411271
 10
59.3939197083
 20
67.88964417079999
 10
60.821908823
 20
67.9900111909
 10
62.1882111158
 20
68.1140388896
 10
63.51144156970001
 20
68.26161025569999
 10
64.7882165706
 20
68.4310008746
 10
66.01767484399999
 20
68.62060185549999
 10
67.20166414399999
 20
68.82925028159999
 10
68.3424714572
 20
69.0559940991
 10
69.4419193509
 20
69.29997458479999
 10
70.4979152443
 20
69.55946094259999
 10
71.5000216197
 20
69.8301148804
 10
72.43889432839999
 20
70.1068795156
 10
73.3170161471
 20
70.3874956659
 10
74.1407368265
 20
70.6713402525
 10
74.91681583880001
 20
70.9584136455
 10
75.65256953239999
 20
71.24951972569999
 10
76.3557192876
 20
71.546308099
 10
77.03247024959999
 20
71.85050416500001
 10
77.6875359849
 20
72.1637198092
 10
78.32505564859999
 20
72.4878081425
 10
78.9470673856
 20
72.8240365396
 10
79.55497535319999
 20
73.1735447337
 10
80.1491209938
 20
73.53708625109999
 10
80.7280290355
 20
73.9144276107
 10
81.29153339469999
 20
74.3062952769
 10
81.8417093517
 20
74.7151610068
 10
82.3805783871
 20
75.1439620774
 10
82.90684135399999
 20
75.593649857
 10
83.41751359199999
 20
76.0638461205
 10
83.9101391712
 20
76.5543388593
 10
84.38221815930001
 20
77.0647821962
 10
84.82910015199999
 20
77.59181424640001
 10
85.24588659269999
 20
78.1304106105
 10
85.62933641079998
 20
78.6760630354
 10
85.97988504969999
 20
79.2279878205
 10
86.29853472
 20
79.78675559359999
 10
86.58629484009999
 20
80.3533290212
 10
86.84229827440001
 20
80.9250273698
 10
87.0633218022
 20
81.49138163249999
 10
87.24814427
 20
82.0408989421
 10
87.39946826409999
 20
82.56965866829999
 10
87.5231733725
 20
83.08690144759999
 10
87.6235436628
 20
83.6039910334
 10
87.70278571819998
 20
84.1323428121
 10
87.760083417
 20
84.67250612409999
 10
87.7942077524
 20
85.21607980769999
 10
87.8053438449
 20
85.75454453069999
  0
LWPOLYLINE
  5
1534
330
21D
100
AcDbEntity
  8
0
  6
Continuous
 62
     7
100
AcDbPolyline
 90
       69
 70
     0
 43
0.0
 10
54.8053438449
 20
68.4185284862
 10
55.9237037677
 20
68.42643429600001
 10
56.9290424621
 20
68.4472888212
 10
57.82538911029999
 20
68.47715630430001
 10
58.6225995055
 20
68.51287714979999
 10
59.3532742316
 20
68.5533791617
 10
60.0576903971
 20
68.59963022470001
 10
60.76490728140001
 20
68.65334586839999
 10
61.48102649710001
 20
68.7153549018
 10
62.1939129528
 20
68.7849051467
 10
62.8895495741
 20
68.86051387010001
 10
63.5921233232
 20
68.9448734692
 10
64.3327620251
 20
69.0427811663
 10
65.070681682
 20
69.14978082720001
 10
65.75303026180001
 20
69.25739401369999
 10
66.37107594279999
 20
69.3623007477
 10
66.94002389000001
 20
69.4653310265
 10
67.47829857640001
 20
69.5686957395
 10
68.0027043044
 20
69.67508870499999
 10
68.5266829975
 20
69.78718478399999
 10
69.05230981439999
 20
69.9056324829
 10
69.5672553169
 20
70.027693032
 10
70.0860630675
 20
70.1569008498
 10
70.64313075859999
 20
70.30285292319999
 10
71.21106258729999
 20
70.4596631723
 10
71.7536062721
 20
70.6173614817
 10
72.27972713529999
 20
70.77795529060001
 10
72.80147300680001
 20
70.9449901234
 10
73.3224145375
 20
71.11987063019999
 10
73.83696503119999
 20
71.30093661470001
 10
74.33915976859999
 20
71.48602406950001
 10
74.8363892438
 20
71.6778434104
 10
75.34761366640001
 20
71.8844211057
 10
75.86243915229999
 20
72.10258862249999
 10
76.3330397111
 20
72.31143735489999
 10
76.7472301706
 20
72.50312892060001
 10
77.1307878362
 20
72.6875715485
 10
77.50539907789999
 20
72.8744724072
 10
77.8776957533
 20
73.06720507899999
 10
78.23964991
 20
73.26164271679999
 10
78.58825165899999
 20
73.45586318729999
 10
78.92719330529999
 20
73.65161652880001
 10
79.260794808
 20
73.85131853619999
 10
79.5915121294
 20
74.0565740469
 10
79.91760489239999
 20
74.2665043927
 10
80.2398400428
 20
74.4817979437
 10
80.5706079141
 20
74.7114492551
 10
80.92958705079999
 20
74.9713580379
 10
81.33212086710001
 20
75.27714724239999
 10
81.78480989289999
 20
75.6410072466
 10
82.28330528589999
 20
76.0692286398
 10
82.80438444319999
 20
76.55253850390001
 10
83.3142646379
 20
77.06715955389999
 10
83.78751552549999
 20
77.58922232819999
 10
84.2181611168
 20
78.1095247968
 10
84.61095380699999
 20
78.6307024805
 10
84.9685605005
 20
79.15370412369999
 10
85.29247404139999
 20
79.67830321529999
 10
85.58444920399999
 20
80.2051924566
 10
85.8460978237
 20
80.7350570664
 10
86.07847756379999
 20
81.2684377625
 10
86.28245384000001
 20
81.8057852321
 10
86.4588961673
 20
82.3480903079
 10
86.6082981441
 20
82.8963961674
 10
86.73100523020002
 20
83.45160816539999
 10
86.8269717401
 20
84.01450623450001
 10
86.89607783719999
 20
84.58630036370001
 10
86.93786958729999
 20
85.166644049
 10
86.95186237540001
 20
85.7545445306
  0
LWPOLYLINE
  5
1535
330
21D
100
AcDbEntity
  8
0
  6
Continuous
 62
     7
100
AcDbPolyline
 90
       69
 70
     0
 43
0.0
 10
54.8053438449
 20
74.13689696289999
 10
55.6523680045
 20
74.1447677464
 10
56.50797644229999
 20
74.169197869
 10
57.27538725149999
 20
74.20581843239999
 10
57.95154544959999
 20
74.2500707589
 10
58.55856819020001
 20
74.29970177609999
 10
59.10720860659999
 20
74.3528823451
 10
59.60475396869999
 20
74.40816178829999
 10
60.0536595419
 20
74.4639681255
 10
60.4554938932
 20
74.5188314002
 10
60.81633630249999
 20
74.57215461779999
 10
61.1488914244
 20
74.6247810806
 10
61.4668887228
 20
74.67830070579999
 10
61.7836255988
 20
74.7347849397
 10
62.1033392129
 20
74.7950920261
 10
62.42387599829999
 20
74.85893766560001
 10
62.74139805709999
 20
74.92558732399999
 10
63.0543631664
 20
74.99467268939999
 10
63.37351046310001
 20
75.06868613569999
 10
63.71472398609999
 20
75.1519103001
 10
64.09398975329999
 20
75.24953844470001
 10
64.5194093257
 20
75.36569994389999
 10
64.99195237880001
 20
75.50335282489999
 10
65.51530249539999
 20
75.6669931374
 10
66.10156174720001
 20
75.8652682165
 10
66.7612390236
 20
76.10885922539999
 10
67.4795725284
 20
76.40133723339999
 10
68.1973600017
 20
76.72565671920001
 10
68.8657783572
 20
77.06067347939999
 10
69.4786805563
 20
77.4001829523
 10
70.04341609259999
 20
77.7449288679
 10
70.56361253770001
 20
78.0941993644
 10
71.0420256963
 20
78.4468992222
 10
71.48203419229999
 20
78.8029236168
 10
71.8871058938
 20
79.1626557477
 10
72.2586658155
 20
79.5250290917
 10
72.5916233757
 20
79.8817220199
 10
72.8794065079
 20
80.2196849751
 10
73.12332216439999
 20
80.53228762059999
 10
73.3301179944
 20
80.8199841252
 10
73.50633612819999
 20
81.0849099658
 10
73.657350631
 20
81.32931956430001
 10
73.78715410179999
 20
81.55471036139999
 10
73.89849180929999
 20
81.7612672457
 10
73.99415166930001
 20
81.9501367722
 10
74.07837909299999
 20
82.1266055909
 10
74.15731318579999
 20
82.30206786630001
 10
74.234972845
 20
82.4858826146
 10
74.30958292069999
 20
82.6749275336
 10
74.37735507540001
 20
82.85942016559999
 10
74.4370335766
 20
83.03399413479999
 10
74.4895345275
 20
83.19887100909999
 10
74.53578299819999
 20
83.35471523749999
 10
74.5760710436
 20
83.5002829083
 10
74.6108202
 20
83.6347225479
 10
74.64103618420001
 20
83.75971317779999
 10
74.6683274383
 20
83.8804294284
 10
74.6938812395
 20
84.0016532247
 10
74.7178439204
 20
84.1242009676
 10
74.73995982099999
 20
84.2468602533
 10
74.7601193018
 20
84.36883415310001
 10
74.77862066
 20
84.4917817209
 10
74.79609547489999
 20
84.6207745817
 10
74.81301874029999
 20
84.76231801229999
 10
74.82927134339999
 20
84.92148199929999
 10
74.8440062179
 20
85.09941992420001
 10
74.8561445027
 20
85.2964052605
 10
74.8645200854
 20
85.51409634789999
 10
74.86769093060001
 20
85.7545445306
  0
LINE
  5
1536
330
21D
100
AcDbEntity
  8
DEFAULT_1
  6
CENTER
 62
     7
100
AcDbLine
 10
58.6803438449
 20
81.5045445306
 30
0.0
 11
56.4886771783
 21
81.5045445306
 31
0.0
  0
LINE
  5
1537
330
21D
100
AcDbEntity
  8
DEFAULT_1
  6
CENTER
 62
     7
100
AcDbLine
 10
58.6803438449
 20
81.5045445306
 30
0.0
 11
60.8720105116
 21
81.5045445306
 31
0.0
  0
LWPOLYLINE
  5
1538
330
21D
100
AcDbEntity
  8
0
  6
Continuous
 62
     7
100
AcDbPolyline
 90
       22
 70
     0
 43
0.0
 10
52.8321917419
 20
85.7545445306
 10
52.837811364
 20
85.60595532710001
 10
52.8543148674
 20
85.46034172659998
 10
52.8816199573
 20
85.31631747049999
 10
52.91956842600001
 20
85.1747308975
 10
52.9679706717
 20
85.03630984309999
 10
53.02654498029999
 20
84.901873
 10
53.0949739045
 20
84.77215129580001
 10
53.1729011666
 20
84.6478344473
 10
53.25987779560001
 20
84.52964569909999
 10
53.35544210720001
 20
84.41821971479999
 10
53.4590773642
 20
84.31416887839999
 10
53.5702271931
 20
84.21806406649999
 10
53.6882805676
 20
84.1304496484
 10
53.8125305218
 20
84.05185258819999
 10
53.9423165517
 20
83.98269235909999
 10
54.07688876489999
 20
83.92337144349999
 10
54.2154667565
 20
83.8742285588
 10
54.3571862829
 20
83.8355551859
 10
54.50383767649999
 20
83.80714040209999
 10
54.654131261
 20
83.7897504286
 10
54.8053438449
 20
83.78393804419999
  0
LINE
  5
1539
330
21D
100
AcDbEntity
  8
0
  6
Continuous
 62
     7
100
AcDbLine
 10
52.8053438449
 20
101.1959840112
 30
0.0
 11
52.8053438449
 21
101.2178460015
 31
0.0
  0
LINE
  5
153A
330
21D
100
AcDbEntity
  8
0
  6
Continuous
 62
     7
100
AcDbLine
 10
53.2428438449
 20
100.9823903215
 30
0.0
 11
53.2428438449
 21
100.9879549818
 31
0.0
  0
LINE
  5
153B
330
21D
100
AcDbEntity
  8
0
  6
Continuous
 62
     7
100
AcDbLine
 10
53.4928438449
 20
101.2165326919
 30
0.0
 11
53.4928438449
 21
101.2141478375
 31
0.0
  0
LWPOLYLINE
  5
153C
330
21D
100
AcDbEntity
  8
0
  6
Continuous
 62
     7
100
AcDbPolyline
 90
       31
 70
     0
 43
0.0
 10
52.8053438449
 20
101.2178460015
 10
52.8059434235
 20
101.2267925647
 10
52.80774051569999
 20
101.2357146059
 10
52.81073019589999
 20
101.2445876706
 10
52.8149042696
 20
101.2533874382
 10
52.8202512959
 20
101.2620897892
 10
52.82675661909999
 20
101.270670871
 10
52.8344024083
 20
101.2791071636
 10
52.8431677072
 20
101.2873755435
 10
52.8530284906
 20
101.2954533479
 10
52.86395773079999
 20
101.3033184358
 10
52.8759254715
 20
101.3109492498
 10
52.8888989099
 20
101.3183248743
 10
52.9028424868
 20
101.3254250931
 10
52.91771798380001
 20
101.3322304451
 10
52.9334846282
 20
101.3387222774
 10
52.9500992047
 20
101.3448827961
 10
52.9675161739
 20
101.3506951158
 10
52.9856877971
 20
101.3561433054
 10
53.0045642671
 20
101.3612124316
 10
53.0240938449
 20
101.3658886004
 10
53.0442230013
 20
101.3701589948
 10
53.0648965636
 20
101.3740119098
 10
53.086057867
 20
101.3774367849
 10
53.1076489099
 20
101.3804242328
 10
53.12961051270001
 20
101.3829660651
 10
53.1518824802
 20
101.3850553147
 10
53.1744037665
 20
101.3866862552
 10
53.1971126423
 20
101.3878544163
 10
53.2199468641
 20
101.3885565962
 10
53.2428438449
 20
101.3887908702
  0
LWPOLYLINE
  5
153D
330
21D
100
AcDbEntity
  8
0
  6
Continuous
 62
     7
100
AcDbPolyline
 90
        4
 70
     0
 43
0.0
 10
57.6086356342
 20
101.316433562
 10
57.66660097479999
 20
101.5855281743
 10
57.7219566049
 20
101.8558034239
 10
57.77988210189999
 20
102.1450703265
  0
LWPOLYLINE
  5
153E
330
21D
100
AcDbEntity
  8
0
  6
Continuous
 62
     7
100
AcDbPolyline
 90
       15
 70
     0
 43
0.0
 10
56.9640976458
 20
101.3590041307
 10
56.9489058413
 20
101.29116841
 10
56.9421422584
 20
101.2608588957
 10
56.9358190602
 20
101.2327529914
 10
56.9302098796
 20
101.2067367571
 10
56.9231272246
 20
101.1831715521
 10
56.9116134117
 20
101.1616032472
 10
56.89452949060001
 20
101.1406704775
 10
56.8716560501
 20
101.1201056344
 10
56.8435175066
 20
101.1005333829
 10
56.8104483102
 20
101.0822083508
 10
56.7727389811
 20
101.0652841623
 10
56.7308383639
 20
101.0499563308
 10
56.6851292999
 20
101.0363644222
 10
56.64903547229999
 20
101.027747814
  0
LINE
  5
153F
330
21D
100
AcDbEntity
  8
0
  6
Continuous
 62
     7
100
AcDbLine
 10
56.981705048
 20
101.4376322613
 30
0.0
 11
56.9640976458
 21
101.3590041307
 31
0.0
  0
LWPOLYLINE
  5
1540
330
21D
100
AcDbEntity
  8
0
  6
Continuous
 62
     7
100
AcDbPolyline
 90
        7
 70
     0
 43
0.0
 10
56.981705048
 20
101.4376322613
 10
57.0033156879
 20
101.5278282877
 10
57.0271229077
 20
101.6186627532
 10
57.053248945
 20
101.717408461
 10
57.08260703989999
 20
101.8358083595
 10
57.1159524023
 20
101.9852644802
 10
57.1530763838
 20
102.1670394053
  0
LWPOLYLINE
  5
1541
330
21D
100
AcDbEntity
  8
0
  6
Continuous
 62
     7
100
AcDbPolyline
 90
       22
 70
     0
 43
0.0
 10
54.8053438449
 20
83.78393804419999
 10
54.9541361625
 20
83.78956562329999
 10
55.1000747147
 20
83.80610385569999
 10
55.2444862211
 20
83.83347407630001
 10
55.3864874906
 20
83.871514842
 10
55.5253246229
 20
83.92002906250001
 10
55.6601629942
 20
83.9787265045
 10
55.7902314327
 20
84.04726712250001
 10
55.9148363721
 20
84.125282256
 10
56.0332353465
 20
84.21230028910001
 10
56.1447742622
 20
84.307828351
 10
56.2488535589
 20
84.41133824519999
 10
56.3449129735
 20
84.5222643459
 10
56.4324411029
 20
84.6400140307
 10
56.5109333126
 20
84.76389962409999
 10
56.5799795628
 20
84.8932673891
 10
56.6392016643
 20
85.0274073103
 10
56.6882668346
 20
85.16556048140001
 10
56.7268857516
 20
85.3068742854
 10
56.755264743
 20
85.4531063601
 10
56.7726627055
 20
85.60316158979999
 10
56.7784959479
 20
85.7545445306
  0
LINE
  5
1542
330
21D
100
AcDbEntity
  8
DEFAULT_1
  6
CENTER
 62
     7
100
AcDbLine
 10
54.8053438449
 20
89.98204453059999
 30
0.0
 11
54.8053438449
 21
87.79037786389999
 31
0.0
  0
LINE
  5
1543
330
21D
100
AcDbEntity
  8
DEFAULT_1
  6
CENTER
 62
     7
100
AcDbLine
 10
54.8053438449
 20
85.7545445306
 30
0.0
 11
54.8053438449
 21
77.9910805155
 31
0.0
  0
LINE
  5
1544
330
21D
100
AcDbEntity
  8
DEFAULT_1
  6
CENTER
 62
     7
100
AcDbLine
 10
54.8053438449
 20
89.98204453059999
 30
0.0
 11
54.8053438449
 21
92.1737111973
 31
0.0
  0
LINE
  5
1545
330
21D
100
AcDbEntity
  8
DEFAULT_1
  6
CENTER
 62
     7
100
AcDbLine
 10
54.8053438449
 20
85.7545445306
 30
0.0
 11
54.8053438449
 21
87.79037786389999
 31
0.0
  0
LINE
  5
1546
330
21D
100
AcDbEntity
  8
DEFAULT_1
  6
CENTER
 62
     7
100
AcDbLine
 10
54.8053438449
 20
92.1737111973
 30
0.0
 11
54.8053438449
 21
93.51800854569999
 31
0.0
  0
LINE
  5
1547
330
21D
100
AcDbEntity
  8
0
  6
Continuous
 62
     7
100
AcDbLine
 10
56.1178438449
 20
101.2165326919
 30
0.0
 11
56.1178438449
 21
101.2141478375
 31
0.0
  0
LINE
  5
1548
330
21D
100
AcDbEntity
  8
0
  6
Continuous
 62
     7
100
AcDbLine
 10
56.3678438449
 20
100.9823903215
 30
0.0
 11
56.3678438449
 21
100.9879549818
 31
0.0
  0
LWPOLYLINE
  5
1549
330
21D
100
AcDbEntity
  8
0
  6
Continuous
 62
     7
100
AcDbPolyline
 90
       25
 70
     0
 43
0.0
 10
56.3053438449
 20
101.1591638171
 10
56.304942393
 20
101.1543722474
 10
56.30373975649999
 20
101.1496011959
 10
56.30174108510001
 20
101.1448710931
 10
56.2989549374
 20
101.1402021939
 10
56.2953932443
 20
101.1356144913
 10
56.2910712574
 20
101.1311276305
 10
56.2860074842
 20
101.1267608249
 10
56.2802236084
 20
101.122532774
 10
56.2737443976
 20
101.1184615828
 10
56.2665975966
 20
101.1145646848
 10
56.2588138093
 20
101.1108587670999
 10
56.25042636699999
 20
101.1073596991
 10
56.2414711859
 20
101.1040824642
 10
56.2319866136
 20
101.1010410962
 10
56.22201326449999
 20
101.0982486186
 10
56.21159384590001
 20
101.0957169892
 10
56.20077297529999
 20
101.0934570488
 10
56.1895969895
 20
101.0914784749
 10
56.17811374609999
 20
101.0897897401
 10
56.1663724176
 20
101.0883980757
 10
56.1544232816
 20
101.087309441
 10
56.14231750680001
 20
101.0865284978
 10
56.1301069321
 20
101.0860585903
 10
56.1178438449
 20
101.0859017305
  0
LINE
  5
154A
330
21D
100
AcDbEntity
  8
DEFAULT_1
  6
CENTER
 62
     7
100
AcDbLine
 10
54.8053438449
 20
85.7545445306
 30
0.0
 11
47.04187982979999
 21
85.7545445306
 31
0.0
  0
LINE
  5
154B
330
21D
100
AcDbEntity
  8
DEFAULT_1
  6
CENTER
 62
     7
100
AcDbLine
 10
54.8053438449
 20
85.7545445306
 30
0.0
 11
56.6108930525
 21
85.7545445306
 31
0.0
  0
LINE
  5
154C
330
21D
100
AcDbEntity
  8
DEFAULT_1
  6
CENTER
 62
     7
100
AcDbLine
 10
56.7784959479
 20
85.7545445306
 30
0.0
 11
62.5688078601
 21
85.7545445306
 31
0.0
  0
LINE
  5
154D
330
21D
100
AcDbEntity
  8
0
  6
Continuous
 62
     7
100
AcDbLine
 10
56.6108930525
 20
85.7545445306
 30
0.0
 11
56.7784959479
 21
85.7545445306
 31
0.0
  0
LWPOLYLINE
  5
154E
330
21D
100
AcDbEntity
  8
0
  6
Continuous
 62
     7
100
AcDbPolyline
 90
        7
 70
     0
 43
0.0
 10
52.62898264189999
 20
101.4376322613
 10
52.607372012
 20
101.527828243
 10
52.58356480109999
 20
101.6186626614
 10
52.5574387726
 20
101.7174083097
 10
52.5280806872
 20
101.835808134
 10
52.4947353331
 20
101.985264195
 10
52.4576113802
 20
102.1670390308
  0
LWPOLYLINE
  5
154F
330
21D
100
AcDbEntity
  8
0
  6
Continuous
 62
     7
100
AcDbPolyline
 90
        4
 70
     0
 43
0.0
 10
52.6617131329
 20
101.2914750298
 10
52.646537575
 20
101.3592346085
 10
52.6380780868
 20
101.3970114162
 10
52.62898264189999
 20
101.4376322613
  0
LWPOLYLINE
  5
1550
330
21D
100
AcDbEntity
  8
0
  6
Continuous
 62
     7
100
AcDbPolyline
 90
       33
 70
     0
 43
0.0
 10
52.0020592904
 20
101.3164338409
 10
52.0163273992
 20
101.2522556892
 10
52.0294469453
 20
101.1939628331
 10
52.0415246441
 20
101.1408828488
 10
52.0524349219
 20
101.0924320351
 10
52.0636285854
 20
101.0487094676
 10
52.0794401074
 20
101.0102764002
 10
52.1032246116
 20
100.975224392
 10
52.13500791680001
 20
100.9414013767
 10
52.17363569159999
 20
100.9099487804
 10
52.2189474533
 20
100.8804895661
 10
52.27051051220001
 20
100.8531446296
 10
52.3281707832
 20
100.8278203723
 10
52.3915914709
 20
100.8045833869
 10
52.4604718686
 20
100.7834923303
 10
52.534540305
 20
100.7646048011
 10
52.6135303083
 20
100.7479886866
 10
52.69730073449999
 20
100.7336975334
 10
52.7858142191
 20
100.7217901922
 10
52.87870713890001
 20
100.7123769945
 10
52.9740602665
 20
100.7056926364
 10
53.0716081251
 20
100.7017292601
 10
53.1686516179
 20
100.7006053175
 10
53.2767939246
 20
100.7020759313
 10
53.3969117397
 20
100.704624964
 10
53.52689613109999
 20
100.7070727063
 10
53.6677563834
 20
100.7094542133
 10
53.8204897747
 20
100.7117186121
 10
53.9861975163
 20
100.7138026828
 10
54.16610047149999
 20
100.7156277511
 10
54.3615552652
 20
100.7170966664
 10
54.57407365459999
 20
100.7180894593
 10
54.8053438449
 20
100.7184583806
  0
LWPOLYLINE
  5
1551
330
21D
100
AcDbEntity
  8
0
  6
Continuous
 62
     7
100
AcDbPolyline
 90
        4
 70
     0
 43
0.0
 10
51.83079215380001
 20
102.1450696715
 10
51.8888377304
 20
101.8551756116
 10
51.9441868578
 20
101.5850595639
 10
52.0020524693
 20
101.3164335781
  0
LWPOLYLINE
  5
1552
330
21D
100
AcDbEntity
  8
0
  6
Continuous
 62
     7
100
AcDbPolyline
 90
       31
 70
     0
 43
0.0
 10
56.8053438449
 20
101.2178460015
 10
56.8047442664
 20
101.2267925647
 10
56.8029471742
 20
101.2357146059
 10
56.7999574939
 20
101.2445876706
 10
56.7957834203
 20
101.2533874382
 10
56.7904363939
 20
101.2620897892
 10
56.7839310708
 20
101.270670871
 10
56.77628528149999
 20
101.2791071636
 10
56.7675199827
 20
101.2873755435
 10
56.7576591993
 20
101.2954533479
 10
56.7467299591
 20
101.3033184358
 10
56.7347622184
 20
101.3109492498
 10
56.72178878
 20
101.3183248743
 10
56.7078452031
 20
101.3254250931
 10
56.69296970609999
 20
101.3322304451
 10
56.6772030617
 20
101.3387222774
 10
56.6605884852
 20
101.3448827961
 10
56.643171516
 20
101.3506951158
 10
56.6249998928
 20
101.3561433054
 10
56.6061234228
 20
101.3612124316
 10
56.5865938449
 20
101.3658886004
 10
56.56646468859999
 20
101.3701589948
 10
56.5457911263
 20
101.3740119098
 10
56.5246298229
 20
101.3774367849
 10
56.50303877999999
 20
101.3804242328
 10
56.4810771772
 20
101.3829660651
 10
56.4588052097
 20
101.3850553147
 10
56.43628392340001
 20
101.3866862552
 10
56.41357504760001
 20
101.3878544163
 10
56.3907408258
 20
101.3885565962
 10
56.3678438449
 20
101.3887908702
  0
LWPOLYLINE
  5
1553
330
21D
100
AcDbEntity
  8
0
  6
Continuous
 62
     7
100
AcDbPolyline
 90
       22
 70
     0
 43
0.0
 10
56.7784959479
 20
85.7545445306
 10
56.7728763259
 20
85.90313373409999
 10
56.7563728225
 20
86.04874733450001
 10
56.7290677325
 20
86.19277159059999
 10
56.69111926390001
 20
86.3343581636
 10
56.64271701819999
 20
86.472779218
 10
56.5841427096
 20
86.6072160611
 10
56.5157137855
 20
86.73693776530001
 10
56.43778652329999
 20
86.86125461379999
 10
56.35080989439999
 20
86.979443362
 10
56.25524558270001
 20
87.0908693464
 10
56.1516103256
 20
87.1949201828
 10
56.04046049669999
 20
87.2910249947
 10
55.9224071222
 20
87.37863941280002
 10
55.7981571681
 20
87.457236473
 10
55.66837113810001
 20
87.52639670209999
 10
55.53379892489999
 20
87.58571761769999
 10
55.3952209333
 20
87.6348605024
 10
55.25350140699999
 20
87.6735338753
 10
55.1068500134
 20
87.70194865909999
 10
54.9565564289
 20
87.71933863260001
 10
54.8053438449
 20
87.72515101699999
  0
LINE
  5
1554
330
21D
100
AcDbEntity
  8
0
  6
Continuous
 62
     7
100
AcDbLine
 10
56.8053438449
 20
101.2178460015
 30
0.0
 11
56.8053438449
 21
101.1959840112
 31
0.0
  0
LINE
  5
1555
330
21D
100
AcDbEntity
  8
DEFAULT_1
  6
CENTER
 62
     7
100
AcDbLine
 10
58.6803438449
 20
81.5045445306
 30
0.0
 11
58.6803438449
 21
79.3128778639
 31
0.0
  0
LINE
  5
1556
330
21D
100
AcDbEntity
  8
DEFAULT_1
  6
CENTER
 62
     7
100
AcDbLine
 10
58.6803438449
 20
81.5045445306
 30
0.0
 11
58.6803438449
 21
83.6962111973
 31
0.0
  0
LWPOLYLINE
  5
1557
330
21D
100
AcDbEntity
  8
0
  6
Continuous
 62
     7
100
AcDbPolyline
 90
       22
 70
     0
 43
0.0
 10
54.8053438449
 20
87.72515101699999
 10
54.6565515273
 20
87.71952343790001
 10
54.5106129752
 20
87.7029852054
 10
54.3662014687
 20
87.6756149849
 10
54.2242001993
 20
87.63757421920001
 10
54.085363067
 20
87.5890599987
 10
53.9505246956
 20
87.53036255659999
 10
53.8204562571
 20
87.46182193870001
 10
53.6958513177
 20
87.38380680510001
 10
53.57745234340001
 20
87.29678877209998
 10
53.4659134278
 20
87.20126071020001
 10
53.361834131
 20
87.097750816
 10
53.2657747164
 20
86.9868247153
 10
53.178246587
 20
86.8690750306
 10
53.09975437729999
 20
86.74518943709999
 10
53.0307081271
 20
86.61582167209999
 10
52.9714860256
 20
86.48168175089999
 10
52.92242085529999
 20
86.34352857979999
 10
52.8838019383
 20
86.20221477580001
 10
52.85542294689999
 20
86.0559827011
 10
52.8380249844
 20
85.90592747139998
 10
52.8321917419
 20
85.7545445306
  0
LINE
  5
1558
330
21D
100
AcDbEntity
  8
DEFAULT_1
  6
CENTER
 62
     7
100
AcDbLine
 10
54.8053438449
 20
89.98204453059999
 30
0.0
 11
52.6136771783
 21
89.98204453059999
 31
0.0
  0
LINE
  5
1559
330
21D
100
AcDbEntity
  8
DEFAULT_1
  6
CENTER
 62
     7
100
AcDbLine
 10
54.8053438449
 20
89.98204453059999
 30
0.0
 11
56.99701051159999
 21
89.98204453059999
 31
0.0
  0
LWPOLYLINE
  5
155A
330
21D
100
AcDbEntity
  8
0
  6
Continuous
 62
     7
100
AcDbPolyline
 90
       69
 70
     0
 43
0.0
 10
54.8053438449
 20
97.37219209830001
 10
53.9583196854
 20
97.3643213148
 10
53.1027112477
 20
97.3398911922
 10
52.3353004385
 20
97.30327062870001
 10
51.6591422404
 20
97.2590183023
 10
51.05211949979999
 20
97.20938728510001
 10
50.5034790833
 20
97.1562067161
 10
50.0059337213
 20
97.10092727290001
 10
49.5570281481
 20
97.0451209357
 10
49.1551937968
 20
96.990257661
 10
48.7943513875
 20
96.9369344434
 10
48.46179626560001
 20
96.88430798049999
 10
48.14379896720001
 20
96.83078835540001
 10
47.82706209119999
 20
96.7743041215
 10
47.507348477
 20
96.71399703510001
 10
47.18681169159999
 20
96.65015139559999
 10
46.86928963289999
 20
96.5835017372
 10
46.5563245235
 20
96.51441637180001
 10
46.23717722689999
 20
96.4404029255
 10
45.89596370379999
 20
96.3571787611
 10
45.51669793659999
 20
96.2595506165
 10
45.0912783642
 20
96.14338911729999
 10
44.6187353111
 20
96.00573623629999
 10
44.09538519449999
 20
95.84209592370001
 10
43.5091259427
 20
95.64382084469999
 10
42.8494486663
 20
95.40022983570001
 10
42.13111516149999
 20
95.10775182779999
 10
41.41332768819999
 20
94.78343234200002
 10
40.74490933269999
 20
94.44841558170001
 10
40.13200713359999
 20
94.10890610889998
 10
39.5672715973
 20
93.76416019329999
 10
39.0470751522
 20
93.4148896968
 10
38.5686619936
 20
93.062189839
 10
38.12865349760001
 20
92.70616544440001
 10
37.723581796
 20
92.3464333135
 10
37.3520218744
 20
91.9840599695
 10
37.0190643141
 20
91.6273670412
 10
36.731281182
 20
91.28940408610001
 10
36.4873655255
 20
90.97680144059999
 10
36.2805696955
 20
90.689104936
 10
36.1043515617
 20
90.4241790953
 10
35.9533370589
 20
90.1797694969
 10
35.8235335881
 20
89.95437869979999
 10
35.7121958806
 20
89.74782181549999
 10
35.6165360206
 20
89.55895228899999
 10
35.5323085968
 20
89.3824834702
 10
35.4533745041
 20
89.20702119479999
 10
35.3757148448
 20
89.02320644659999
 10
35.3011047692
 20
88.8341615276
 10
35.2333326144
 20
88.64966889559999
 10
35.1736541133
 20
88.47509492629999
 10
35.1211531623
 20
88.31021805209998
 10
35.0749046917
 20
88.15437382370001
 10
35.0346166462
 20
88.00880615290001
 10
34.9998674899
 20
87.8743665132
 10
34.9696515056
 20
87.7493758834
 10
34.9423602515
 20
87.62865963280001
 10
34.9168064503
 20
87.50743583649999
 10
34.8928437695
 20
87.3848880935
 10
34.8707278689
 20
87.26222880790002
 10
34.8505683881
 20
87.1402549081
 10
34.8320670299
 20
87.0173073403
 10
34.814592215
 20
86.88831447950001
 10
34.7976689496
 20
86.74677104889999
 10
34.7814163465
 20
86.5876070618
 10
34.7666814719
 20
86.40966913700001
 10
34.7545431872
 20
86.21268380069999
 10
34.7461676045
 20
85.99499271319999
 10
34.7429967593
 20
85.7545445306
  0
LWPOLYLINE
  5
155B
330
21D
100
AcDbEntity
  8
0
  6
Continuous
 62
     7
100
AcDbPolyline
 90
       14
 70
     0
 43
0.0
 10
52.9617222517
 20
101.027720737
 10
52.9247924873
 20
101.0365686825
 10
52.87915343979999
 20
101.050185331
 10
52.8373299647
 20
101.0655354057
 10
52.7996995051
 20
101.0824775528
 10
52.7667109995
 20
101.1008163056
 10
52.7386635356
 20
101.1203988501
 10
52.7158879537
 20
101.1409553864
 10
52.6988886122
 20
101.1618776353
 10
52.68744279829999
 20
101.183457387
 10
52.6804134282
 20
101.207041649
 10
52.67479982
 20
101.2330668956
 10
52.6684779118
 20
101.2611734421
 10
52.6617131329
 20
101.2914750298
  0
LINE
  5
155C
330
21D
100
AcDbEntity
  8
0
  6
Continuous
 62
     7
100
AcDbLine
 10
53.4791972705
 20
101.21636525
 30
0.0
 11
53.4928438449
 21
101.2165326919
 31
0.0
  0
LWPOLYLINE
  5
155D
330
21D
100
AcDbEntity
  8
0
  6
Continuous
 62
     7
100
AcDbPolyline
 90
       27
 70
     0
 43
0.0
 10
53.4928438449
 20
101.2141478375
 10
53.48015913
 20
101.2139949248
 10
53.4675337001
 20
101.2135372177
 10
53.4550290795
 20
101.2127779968
 10
53.44270633
 20
101.2117228836
 10
53.43062446020001
 20
101.2103797291
 10
53.4188405533
 20
101.2087585746
 10
53.4074148195
 20
101.2068725693
 10
53.3964040767
 20
101.2047374296
 10
53.3858632135
 20
101.2023717961
 10
53.3758375137
 20
101.1997954622
 10
53.3663809237
 20
101.1970341408
 10
53.35753991549999
 20
101.1941163696
 10
53.3493554468
 20
101.1910741489
 10
53.3418546695
 20
101.187939681
 10
53.33507039229999
 20
101.1847534667
 10
53.329024448
 20
101.181558928
 10
53.3237248413
 20
101.1784004632
 10
53.31916330529999
 20
101.175320427
 10
53.31533482060001
 20
101.1723721357
 10
53.3122097124
 20
101.1696007683
 10
53.3097472678
 20
101.1670496208
 10
53.30790380689999
 20
101.1647687098
 10
53.3066079555
 20
101.1627810722
 10
53.30580371189999
 20
101.1611371142
 10
53.30543067739999
 20
101.1599420402
 10
53.3053438449
 20
101.1591638171
  0
LWPOLYLINE
  5
155E
330
21D
100
AcDbEntity
  8
0
  6
Continuous
 62
     7
100
AcDbPolyline
 90
       31
 70
     0
 43
0.0
 10
56.3678438449
 20
100.9823903215
 10
56.3902919899
 20
100.982639842
 10
56.4126866818
 20
100.9833883077
 10
56.43498147369999
 20
100.9846359078
 10
56.4571267492
 20
100.9863830203
 10
56.4790702314
 20
100.9886299597
 10
56.50077240779999
 20
100.9913788724
 10
56.5221912131
 20
100.994632935
 10
56.5432725785
 20
100.9983944644
 10
56.5639788433
 20
101.0026697992
 10
56.5842787302
 20
101.0074695205
 10
56.60413700300001
 20
101.0128072412
 10
56.62349247319999
 20
101.0186929039
 10
56.64232044550001
 20
101.025151617
 10
56.6605821311
 20
101.0322120404
 10
56.6782206741
 20
101.03990411
 10
56.6951257949
 20
101.0482386938
 10
56.7111814202
 20
101.0572204435
 10
56.72623421439999
 20
101.0668219239
 10
56.7400909266
 20
101.0769577474
 10
56.7525313858
 20
101.0874551874
 10
56.7634534503
 20
101.0981496105
 10
56.7729189231
 20
101.1089799748
 10
56.78092771340001
 20
101.1197817011
 10
56.78765617899999
 20
101.1306093205
 10
56.79318686609999
 20
101.1414259363
 10
56.7976234125
 20
101.1522724106
 10
56.8010177929
 20
101.1631276431
 10
56.8034282917
 20
101.1740556881
 10
56.804863292
 20
101.1849813746
 10
56.8053438449
 20
101.1959840112
  0
LINE
  5
155F
330
21D
100
AcDbEntity
  8
0
  6
Continuous
 62
     7
100
AcDbLine
 10
56.3678438449
 20
100.9823903215
 30
0.0
 11
53.2428438449
 21
100.9823903215
 31
0.0
  0
LINE
  5
1560
330
21D
100
AcDbEntity
  8
0
  6
Continuous
 62
     7
100
AcDbLine
 10
56.3678438449
 20
100.9879549818
 30
0.0
 11
53.2428438449
 21
100.9879549818
 31
0.0
  0
LINE
  5
1561
330
21D
100
AcDbEntity
  8
0
  6
Continuous
 62
     7
100
AcDbLine
 10
56.1178438449
 20
101.046564651
 30
0.0
 11
53.4928438449
 21
101.046564651
 31
0.0
  0
LINE
  5
1562
330
21D
100
AcDbEntity
  8
0
  6
Continuous
 62
     7
100
AcDbLine
 10
56.1178438449
 20
101.0859017305
 30
0.0
 11
53.4928438449
 21
101.0859017305
 31
0.0
  0
LINE
  5
1563
330
21D
100
AcDbEntity
  8
0
  6
Continuous
 62
     7
100
AcDbLine
 10
53.4928438449
 20
101.2141478375
 30
0.0
 11
56.1178438449
 21
101.2141478375
 31
0.0
  0
LINE
  5
1564
330
21D
100
AcDbEntity
  8
0
  6
Continuous
 62
     7
100
AcDbLine
 10
53.4928438449
 20
101.2165326919
 30
0.0
 11
56.1178438449
 21
101.2165326919
 31
0.0
  0
LINE
  5
1565
330
21D
100
AcDbEntity
  8
0
  6
Continuous
 62
     7
100
AcDbLine
 10
53.2428438449
 20
101.2751423612
 30
0.0
 11
56.3678438449
 21
101.2751423612
 31
0.0
  0
LINE
  5
1566
330
21D
100
AcDbEntity
  8
0
  6
Continuous
 62
     7
100
AcDbLine
 10
53.2428438449
 20
101.3887908702
 30
0.0
 11
56.3678438449
 21
101.3887908702
 31
0.0
  0
LWPOLYLINE
  5
1567
330
21D
100
AcDbEntity
  8
0
  6
Continuous
 62
     7
100
AcDbPolyline
 90
       34
 70
     0
 43
0.0
 10
54.8053438449
 20
100.7184583806
 10
55.0285812383
 20
100.7181149866
 10
55.233943297
 20
100.7171885856
 10
55.4230159391
 20
100.7158160298
 10
55.5972223785
 20
100.7141085136
 10
55.75784224189999
 20
100.7121560089
 10
55.9060286343
 20
100.7100316161
 10
56.0428231054
 20
100.7077947085
 10
56.16916919770001
 20
100.7054912905
 10
56.28595530350001
 20
100.7031463439
 10
56.3934405022
 20
100.7009396895
 10
56.4892586846
 20
100.7007748253
 10
56.58240640199999
 20
100.7031359167
 10
56.6780188433
 20
100.7082464817
 10
56.7709572616
 20
100.715954519
 10
56.86057008249999
 20
100.7262604247
 10
56.94782950979999
 20
100.7392467231
 10
57.0285674063
 20
100.7542076142
 10
57.1047947357
 20
100.7715046087
 10
57.17646552279999
 20
100.7910776774
 10
57.2425696782
 20
100.8126708073
 10
57.303196685
 20
100.8363457957
 10
57.3584016619
 20
100.8622025087
 10
57.4072688042
 20
100.8898760622
 10
57.4501062811
 20
100.9198145216
 10
57.48669242750001
 20
100.9521091184
 10
57.515792051
 20
100.9860296383
 10
57.5370304312
 20
101.0217243433
 10
57.5503606604
 20
101.0600745198
 10
57.56039241649999
 20
101.1022204096
 10
57.570953993
 20
101.1486317331
 10
57.58248419800001
 20
101.1994674289
 10
57.5950148475
 20
101.2551947511
 10
57.60862663100001
 20
101.3164339088
  0
LWPOLYLINE
  5
1568
330
21D
100
AcDbEntity
  8
0
  6
Continuous
 62
     7
100
AcDbPolyline
 90
       57
 70
     0
 43
0.0
 10
53.2428438449
 20
100.9879549818
 10
53.222248876
 20
100.9881806416
 10
53.20170641649999
 20
100.9888574498
 10
53.1812951474
 20
100.9899831612
 10
53.1610764792
 20
100.9915543659
 10
53.1411154584
 20
100.9935660325
 10
53.12147440109999
 20
100.9960118724
 10
53.10221527109999
 20
100.9988841726
 10
53.0833986153
 20
101.0021739019
 10
53.0650836557
 20
101.005870707
 10
53.0473280157
 20
101.0099629566
 10
53.0301875644
 20
101.0144377743
 10
53.0137162338
 20
101.0192810802
 10
52.9979658507
 20
101.0244776348
 10
52.98298597359999
 20
101.0300110873
 10
52.96882373649999
 20
101.0358640268
 10
52.9555237007
 20
101.0420180369
 10
52.9431277147
 20
101.0484537542
 10
52.9316747822
 20
101.0551509288
 10
52.9212009399
 20
101.0620884881
 10
52.9117391435
 20
101.069244603
 10
52.9033191645
 20
101.0765967571
 10
52.8959674962
 20
101.0841218168
 10
52.8897072706
 20
101.0917961045
 10
52.88455818550001
 20
101.0995954733
 10
52.8805364423
 20
101.1074953825
 10
52.8776546955
 20
101.1154709751
 10
52.87592201239999
 20
101.1234971559
 10
52.87534384489999
 20
101.1315486709
 10
52.8759220122
 20
101.1396001858
 10
52.8776546952
 20
101.1476263667
 10
52.8805364418
 20
101.1556019593
 10
52.88455818479999
 20
101.1635018685
 10
52.8897072698
 20
101.1713012373
 10
52.89596749520001
 20
101.178975525
 10
52.9033191633
 20
101.1865005847
 10
52.9117391421
 20
101.1938527388
 10
52.9212009384
 20
101.2010088538
 10
52.9316747805
 20
101.2079464131
 10
52.9431277128
 20
101.2146435877
 10
52.9555236987
 20
101.2210793051
 10
52.96882373439999
 20
101.2272333152
 10
52.9829859713
 20
101.2330862547
 10
52.9979658483
 20
101.2386197073
 10
53.0137162313
 20
101.243816262
 10
53.03018756180001
 20
101.248659568
 10
53.04732801300001
 20
101.2531343857
 10
53.0650836529
 20
101.2572266354
 10
53.0833986124
 20
101.2609234405
 10
53.1022152682
 20
101.2642131699
 10
53.121474398
 20
101.2670854701
 10
53.1411154554
 20
101.2695313101
 10
53.1610764759
 20
101.2715429768
 10
53.1812951446
 20
101.2731141816
 10
53.2017064132
 20
101.274239893
 10
53.2222488717
 20
101.2749167012
 10
53.2428438449
 20
101.2751423612
  0
LWPOLYLINE
  5
1569
330
21D
100
AcDbEntity
  8
0
  6
Continuous
 62
     7
100
AcDbPolyline
 90
       57
 70
     0
 43
0.0
 10
56.3678438449
 20
101.2751423612
 10
56.38843881819999
 20
101.2749167012
 10
56.4089812767
 20
101.274239893
 10
56.42939254529999
 20
101.2731141816
 10
56.44961121399999
 20
101.2715429768
 10
56.4695722345
 20
101.2695313101
 10
56.48921329189999
 20
101.2670854701
 10
56.5084724217
 20
101.2642131699
 10
56.5272890774
 20
101.2609234405
 10
56.54560403689999
 20
101.2572266354
 10
56.5633596769
 20
101.2531343857
 10
56.58050012810001
 20
101.248659568
 10
56.5969714586
 20
101.243816262
 10
56.6127218416
 20
101.2386197073
 10
56.6277017186
 20
101.2330862547
 10
56.6418639555
 20
101.2272333152
 10
56.6551639912
 20
101.2210793051
 10
56.667559977
 20
101.2146435877
 10
56.6790129093
 20
101.2079464131
 10
56.6894867515
 20
101.2010088538
 10
56.6989485478
 20
101.1938527388
 10
56.7073685266
 20
101.1865005847
 10
56.7147201947
 20
101.178975525
 10
56.7209804201
 20
101.1713012373
 10
56.7261295051
 20
101.1635018685
 10
56.7301512481
 20
101.1556019593
 10
56.7330329947
 20
101.1476263667
 10
56.7347656776
 20
101.1396001858
 10
56.7353438449
 20
101.1315486709
 10
56.73476567739999
 20
101.1234971559
 10
56.7330329944
 20
101.1154709751
 10
56.7301512475
 20
101.1074953825
 10
56.7261295044
 20
101.0995954733
 10
56.7209804192
 20
101.0917961045
 10
56.7147201937
 20
101.0841218168
 10
56.7073685254
 20
101.0765967571
 10
56.6989485464
 20
101.069244603
 10
56.68948675
 20
101.0620884881
 10
56.6790129076
 20
101.0551509288
 10
56.66755997520001
 20
101.0484537542
 10
56.6551639892
 20
101.0420180369
 10
56.6418639534
 20
101.0358640268
 10
56.6277017163
 20
101.0300110873
 10
56.6127218392
 20
101.0244776348
 10
56.5969714561
 20
101.0192810802
 10
56.5805001254
 20
101.0144377743
 10
56.5633596741
 20
101.0099629566
 10
56.5456040341
 20
101.005870707
 10
56.5272890746
 20
101.0021739019
 10
56.50847241880001
 20
100.9988841726
 10
56.4892132888
 20
100.9960118724
 10
56.4695722315
 20
100.9935660325
 10
56.4496112107
 20
100.9915543659
 10
56.42939254249999
 20
100.9899831612
 10
56.4089812734
 20
100.9888574498
 10
56.3884388138
 20
100.9881806416
 10
56.3678438449
 20
100.9879549818
  0
LWPOLYLINE
  5
156A
330
21D
100
AcDbEntity
  8
0
  6
Continuous
 62
     7
100
AcDbPolyline
 90
       31
 70
     0
 43
0.0
 10
53.2428438449
 20
100.9823903215
 10
53.22039570000001
 20
100.982639842
 10
53.198001008
 20
100.9833883077
 10
53.17570621609999
 20
100.9846359078
 10
53.1535609407
 20
100.9863830203
 10
53.1316174585
 20
100.9886299597
 10
53.10991528199999
 20
100.9913788724
 10
53.0884964768
 20
100.994632935
 10
53.0674151114
 20
100.9983944644
 10
53.0467088465
 20
101.0026697992
 10
53.02640895959999
 20
101.0074695205
 10
53.0065506869
 20
101.0128072412
 10
52.9871952167
 20
101.0186929039
 10
52.96836724439999
 20
101.025151617
 10
52.95010555880001
 20
101.0322120404
 10
52.9324670158
 20
101.03990411
 10
52.91556189489999
 20
101.0482386938
 10
52.8995062697
 20
101.0572204435
 10
52.8844534754
 20
101.0668219239
 10
52.8705967633
 20
101.0769577474
 10
52.8581563041
 20
101.0874551874
 10
52.8472342396
 20
101.0981496105
 10
52.83776876680001
 20
101.1089799748
 10
52.82975997649999
 20
101.1197817011
 10
52.8230315109
 20
101.1306093205
 10
52.8175008238
 20
101.1414259363
 10
52.81306427729999
 20
101.1522724106
 10
52.809669897
 20
101.1631276431
 10
52.80725939819999
 20
101.1740556881
 10
52.80582439789999
 20
101.1849813746
 10
52.8053438449
 20
101.1959840112
  0
LWPOLYLINE
  5
156B
330
21D
100
AcDbEntity
  8
0
  6
Continuous
 62
     7
100
AcDbPolyline
 90
       27
 70
     0
 43
0.0
 10
56.1178438449
 20
101.2141478375
 10
56.1305285598
 20
101.2139949248
 10
56.1431539898
 20
101.2135372177
 10
56.1556586104
 20
101.2127779968
 10
56.16798135989999
 20
101.2117228836
 10
56.1800632297
 20
101.2103797291
 10
56.1918471366
 20
101.2087585746
 10
56.2032728704
 20
101.2068725693
 10
56.2142836131
 20
101.2047374296
 10
56.2248244763
 20
101.2023717961
 10
56.2348501761
 20
101.1997954622
 10
56.2443067661
 20
101.1970341408
 10
56.25314777439999
 20
101.1941163696
 10
56.26133224310001
 20
101.1910741489
 10
56.2688330203
 20
101.187939681
 10
56.2756172975
 20
101.1847534667
 10
56.2816632419
 20
101.181558928
 10
56.2869628486
 20
101.1784004632
 10
56.2915243846
 20
101.175320427
 10
56.2953528692
 20
101.1723721357
 10
56.2984779775
 20
101.1696007683
 10
56.30094042199999
 20
101.1670496208
 10
56.3027838829
 20
101.1647687098
 10
56.3040797344
 20
101.1627810722
 10
56.30488397789999
 20
101.1611371142
 10
56.3052570125
 20
101.1599420402
 10
56.3053438449
 20
101.1591638171
  0
LWPOLYLINE
  5
156C
330
21D
100
AcDbEntity
  8
0
  6
Continuous
 62
     7
100
AcDbPolyline
 90
       50
 70
     0
 43
0.0
 10
53.4928438449
 20
101.046564651
 10
53.47919730720001
 20
101.046732092
 10
53.4655929651
 20
101.0472343264
 10
53.4520976413
 20
101.0480692636
 10
53.43876233979999
 20
101.0492337231
 10
53.42564067859999
 20
101.0507230457
 10
53.4127842027
 20
101.0525313754
 10
53.4002437162
 20
101.0546515682
 10
53.3880687029
 20
101.0570752573
 10
53.3763072153
 20
101.0597928769
 10
53.36500567199999
 20
101.0627937014
 10
53.35420867829999
 20
101.0660658872
 10
53.3439588482
 20
101.0695965195
 10
53.3342966356
 20
101.0733716637
 10
53.32526017479999
 20
101.07737642
 10
53.31688513079999
 20
101.0815949827
 10
53.3092045583
 20
101.0860107019
 10
53.3022487708
 20
101.0906061498
 10
53.2960452214
 20
101.095363189
 10
53.290618394
 20
101.1002630445
 10
53.2859897072
 20
101.1052863778
 10
53.28217742949999
 20
101.1104133627
 10
53.2791966071
 20
101.1156237642
 10
53.27705900459999
 20
101.1208970178
 10
53.2757730588
 20
101.1262123113
 10
53.2753438449
 20
101.1315486662
 10
53.27577305710001
 20
101.1368850212
 10
53.2770590012
 20
101.1422003147
 10
53.279196602
 20
101.1474735685
 10
53.28217742279999
 20
101.1526839701
 10
53.2859896989
 20
101.1578109552
 10
53.2906183841
 20
101.1628342886
 10
53.2960452099
 20
101.1677341445
 10
53.3022487579
 20
101.172491184
 10
53.3092045439
 20
101.1770866321
 10
53.316885115
 20
101.1815023517
 10
53.3252601576
 20
101.1857209148
 10
53.3342966171
 20
101.1897256716
 10
53.34395882859999
 20
101.1935008162
 10
53.3542086575
 20
101.197031449
 10
53.3650056501
 20
101.2003036353
 10
53.3763071926
 20
101.2033044605
 10
53.3880686792
 20
101.2060220806
 10
53.4002436919
 20
101.2084457703
 10
53.41278417729999
 20
101.2105659636
 10
53.4256406537
 20
101.2123742941
 10
53.43876231189999
 20
101.2138636171
 10
53.4520976178
 20
101.2150280776
 10
53.46559293609999
 20
101.2158630151
 10
53.4791972705
 20
101.21636525
  0
LWPOLYLINE
  5
156D
330
21D
100
AcDbEntity
  8
0
  6
Continuous
 62
     7
100
AcDbPolyline
 90
       51
 70
     0
 43
0.0
 10
56.1178438449
 20
101.2165326919
 10
56.13149041939999
 20
101.21636525
 10
56.1450947538
 20
101.2158630151
 10
56.1585900721
 20
101.2150280776
 10
56.17192537800001
 20
101.2138636171
 10
56.1850470361
 20
101.2123742941
 10
56.19790351249999
 20
101.2105659636
 10
56.2104439979
 20
101.2084457703
 10
56.2226190106
 20
101.2060220806
 10
56.2343804972
 20
101.2033044605
 10
56.2456820397
 20
101.2003036354
 10
56.25647903229999
 20
101.197031449
 10
56.2667288613
 20
101.1935008162
 10
56.27639107270001
 20
101.1897256716
 10
56.2854275323
 20
101.1857209148
 10
56.2938025749
 20
101.1815023517
 10
56.301483146
 20
101.1770866322
 10
56.308438932
 20
101.172491184
 10
56.31464248
 20
101.1677341445
 10
56.3200693058
 20
101.1628342887
 10
56.324697991
 20
101.1578109552
 10
56.3285102671
 20
101.1526839701
 10
56.3314910879
 20
101.1474735685
 10
56.33362868859999
 20
101.1422003147
 10
56.3349146328
 20
101.1368850212
 10
56.33534384489999
 20
101.1315486662
 10
56.3349146311
 20
101.1262123113
 10
56.33362868529999
 20
101.1208970178
 10
56.3314910828
 20
101.1156237642
 10
56.3285102604
 20
101.1104133627
 10
56.3246979827
 20
101.1052863778
 10
56.3200692959
 20
101.1002630446
 10
56.31464246850001
 20
101.095363189
 10
56.3084389191
 20
101.0906061498
 10
56.3014831316
 20
101.0860107019
 10
56.2938025591
 20
101.0815949827
 10
56.28542751520001
 20
101.07737642
 10
56.2763910544
 20
101.0733716637
 10
56.2667288417
 20
101.0695965195
 10
56.2564790116
 20
101.0660658872
 10
56.245682018
 20
101.0627937014
 10
56.2343804746
 20
101.0597928769
 10
56.22261898699999
 20
101.0570752573
 10
56.2104439737
 20
101.0546515682
 10
56.1979034872
 20
101.0525313755
 10
56.1850470113
 20
101.0507230457
 10
56.1719253501
 20
101.0492337231
 10
56.15859004859999
 20
101.0480692636
 10
56.14509472489999
 20
101.0472343264
 10
56.13149038270001
 20
101.046732092
 10
56.1178438449
 20
101.046564651
  0
LWPOLYLINE
  5
156E
330
21D
100
AcDbEntity
  8
0
  6
Continuous
 62
     7
100
AcDbPolyline
 90
       25
 70
     0
 43
0.0
 10
53.4928438449
 20
101.0859017305
 10
53.4805807578
 20
101.0860585903
 10
53.468370183
 20
101.0865284978
 10
53.4562644083
 20
101.087309441
 10
53.4443152723
 20
101.0883980757
 10
53.4325739438
 20
101.0897897401
 10
53.4210907004
 20
101.0914784749
 10
53.4099147146
 20
101.0934570488
 10
53.399093844
 20
101.0957169892
 10
53.38867442539999
 20
101.0982486186
 10
53.3787010763
 20
101.1010410962
 10
53.36921650399999
 20
101.1040824642
 10
53.3602613229
 20
101.1073596991
 10
53.3518738805
 20
101.1108587670999
 10
53.34409009319999
 20
101.1145646848
 10
53.33694329229999
 20
101.1184615828
 10
53.3304640815
 20
101.122532774
 10
53.3246802057
 20
101.1267608249
 10
53.31961643239999
 20
101.1311276305
 10
53.3152944456
 20
101.1356144913
 10
53.3117327524
 20
101.1402021939
 10
53.30894660479999
 20
101.1448710931
 10
53.30694793340001
 20
101.1496011959
 10
53.3057452968
 20
101.1543722474
 10
53.3053438449
 20
101.1591638171
  0
LWPOLYLINE
  5
156F
330
21D
100
AcDbEntity
  8
0
  6
Continuous
 62
     7
100
AcDbPolyline
 90
       75
 70
     0
 43
0.0
 10
74.86769093060001
 20
85.7545445306
 10
74.865060825
 20
85.97356268979998
 10
74.8580433135
 20
86.1734443195
 10
74.84767904039999
 20
86.35699977909998
 10
74.8349769568
 20
86.52371560690001
 10
74.8208414698
 20
86.67371468739998
 10
74.8057723698
 20
86.80979623659998
 10
74.7897452697
 20
86.9368956883
 10
74.77232070709999
 20
87.06054525579999
 10
74.75302032880001
 20
87.184472023
 10
74.731699964
 20
87.3092597069
 10
74.70858730260001
 20
87.43337244370001
 10
74.6839743808
 20
87.55548079799998
 10
74.65739028459999
 20
87.6780256966
 10
74.6272611954
 20
87.80738721
 10
74.59207628199999
 20
87.94800791129999
 10
74.55106618710001
 20
88.1003295056
 10
74.50381402810001
 20
88.263254263
 10
74.449424285
 20
88.43721492430001
 10
74.38689445119999
 20
88.6225825798
 10
74.3172972534
 20
88.8138202983
 10
74.24418758049999
 20
89.00056565889999
 10
74.16960212949999
 20
89.17872125450001
 10
74.09005966869999
 20
89.3571714782
 10
73.99893591119999
 20
89.54919811579999
 10
73.8911721946
 20
89.76181752109999
 10
73.7632826199
 20
89.9970046359
 10
73.61160084499999
 20
90.25569260360001
 10
73.4304518508
 20
90.54072360190001
 10
73.21244871569999
 20
90.8556032094
 10
72.9483688686
 20
91.20366325899999
 10
72.6359119846
 20
91.57729354
 10
72.283690116
 20
91.95838032320001
 10
71.89675305829999
 20
92.33744363620001
 10
71.47321719039999
 20
92.7136338174
 10
71.00988208290001
 20
93.08694313450001
 10
70.5026706995
 20
93.45754453579999
 10
69.9483578881
 20
93.82454979329999
 10
69.3436982206
 20
94.1865869005
 10
68.68152167069999
 20
94.54421101319999
 10
67.9551395133
 20
94.89673331719998
 10
67.201144454
 20
95.22470002490001
 10
66.49487417759999
 20
95.50131694239999
 10
65.8688457372
 20
95.72449461959999
 10
65.3103378627
 20
95.9076308298
 10
64.8067021799
 20
96.06081158020002
 10
64.35139766479998
 20
96.19012250090001
 10
63.9431650577
 20
96.2990324467
 10
63.57881482839999
 20
96.390842588
 10
63.2469264779
 20
96.47019583990001
 10
62.9311127433
 20
96.5420309527
 10
62.6166672122
 20
96.6100922699
 10
62.2972217522
 20
96.67578739820001
 10
61.9763781456
 20
96.7383463538
 10
61.65720333220001
 20
96.7972341399
 10
61.3397410812
 20
96.85256691860001
 10
61.0166329017
 20
96.905643045
 10
60.6753740757
 20
96.95822823629999
 10
60.30405914399999
 20
97.0114860288
 10
59.8989708197
 20
97.0649970628
 10
59.4801107835
 20
97.1154169026
 10
59.0741272279
 20
97.15964198889999
 10
58.7026330334
 20
97.19619864510001
 10
58.36583122189999
 20
97.2261797872
 10
58.0521422964
 20
97.25144959799999
 10
57.75065106149999
 20
97.2733636369
 10
57.4518212678
 20
97.2928238415
 10
57.1523888631
 20
97.31010014829999
 10
56.8524087981
 20
97.32521081680001
 10
56.5550911457
 20
97.3380498913
 10
56.2593007827
 20
97.34874279320001
 10
55.95150542279999
 20
97.35770115600001
 10
55.6165811051
 20
97.3649771084
 10
55.23951210979999
 20
97.37013990700001
 10
54.8053438449
 20
97.37219209830001
  0
LWPOLYLINE
  5
1570
330
21D
100
AcDbEntity
  8
0
  6
Continuous
 62
     7
100
AcDbPolyline
 90
       50
 70
     0
 43
0.0
 10
54.80533874439999
 20
103.7545445306
 10
53.2378892781
 20
103.7391931307
 10
51.7040093293
 20
103.6936476018
 10
50.2167605458
 20
103.6194444432
 10
48.7887725772
 20
103.5190773634
 10
47.4224784596
 20
103.3950503622
 10
46.09925626779999
 20
103.2474800445
 10
44.8224845797
 20
103.0780901174
 10
43.5930269537
 20
102.8884895364
 10
42.40903735229999
 20
102.6798413678
 10
41.26822986879999
 20
102.4530978297
 10
40.1687823657
 20
102.2091177556
 10
39.11278697530001
 20
101.9496318663
 10
38.1106795756
 20
101.6789779966
 10
37.1718030149
 20
101.4022125121
 10
36.2936753117
 20
101.1215946472
 10
35.4699483015
 20
100.8377478933
 10
34.6938641426
 20
100.5506724649
 10
33.9581081845
 20
100.2595652582
 10
33.2549581308
 20
99.96277648700001
 10
32.5782079317
 20
99.6585804873
 10
31.9231431966
 20
99.3453650572
 10
31.2856241933
 20
99.0212768049
 10
30.6636128759
 20
98.6850483809
 10
30.0557052931
 20
98.33554015049999
 10
29.4615600965
 20
97.9719986433
 10
28.8826525038
 20
97.59465731070001
 10
28.3191485433
 20
97.20278965070001
 10
27.7689729466
 20
96.79392391020002
 10
27.2301042582
 20
96.3651228266
 10
26.7038416545
 20
95.91543505450001
 10
26.1931697889
 20
95.4452388177
 10
25.7005445898
 20
94.9547461284
 10
25.2284659907
 20
94.4443028701
 10
24.7815844023
 20
93.9172709466
 10
24.3647983693
 20
93.3786747533
 10
23.9813489439
 20
92.8330225324
 10
23.6308006665
 20
92.281097964
 10
23.3121513242
 20
91.72233041290001
 10
23.0243914954
 20
91.15575720389999
 10
22.7683883308
 20
90.58405909920001
 10
22.5473650495
 20
90.01770511670001
 10
22.3625427997
 20
89.4681881214
 10
22.2112189828
 20
88.93942870309999
 10
22.0875140145
 20
88.4221862142
 10
21.9871438335
 20
87.90509690299998
 10
21.9079018618
 20
87.37674539089999
 10
21.850604224
 20
86.83658235809998
 10
21.8164799254
 20
86.29300896229999
 10
21.805343845
 20
85.7545445306
  0
LWPOLYLINE
  5
1571
330
21D
100
AcDbEntity
  8
0
  6
Continuous
 62
     7
100
AcDbPolyline
 90
       69
 70
     0
 43
0.0
 10
54.8053438449
 20
103.090560575
 10
53.6866575521
 20
103.0826501278
 10
52.68110106209999
 20
103.0617853609
 10
51.784653598
 20
103.031907372
 10
50.9873628424
 20
102.9961754183
 10
50.2565569283
 20
102.9556579901
 10
49.5519475683
 20
102.9093845538
 10
48.8444991541
 20
102.8556391515
 10
48.1281425126
 20
102.7935943673
 10
47.4150734224
 20
102.7240084186
 10
46.7192743005
 20
102.6483621377
 10
46.0165416839
 20
102.563960882
 10
45.2761368237
 20
102.4660600382
 10
44.5389791804
 20
102.3591526255
 10
43.8575598599
 20
102.2516790506
 10
43.24042357989999
 20
102.1469308546
 10
42.6723848831
 20
102.0440792476
 10
42.13505021999999
 20
101.9409187317
 10
41.61163115809999
 20
101.8347602438
 10
41.08871915819999
 20
101.7229391873
 10
40.564108432
 20
101.6047810318
 10
40.05010552769999
 20
101.483016771
 10
39.5324050533
 20
101.3541731487
 10
38.9759744023
 20
101.2084985594
 10
38.4077418839
 20
101.0517257027
 10
37.8646673974
 20
100.8939871944
 10
37.3382242439
 20
100.7334037464
 10
36.8163005843
 20
100.5664209545
 10
36.2951903785
 20
100.3915952867
 10
35.7803346563
 20
100.2105333116
 10
35.2777185659
 20
100.0253985957
 10
34.78010214760001
 20
99.8335354143
 10
34.2684529231
 20
99.62689267620001
 10
33.7529645802
 20
99.40854691540002
 10
33.2816236851
 20
99.19945528820001
 10
32.8669260119
 20
99.0075971347
 10
32.4831135972
 20
98.82309151480001
 10
32.1083837939
 20
98.63618925540002
 10
31.7359325518
 20
98.44343461180001
 10
31.3737602068
 20
98.2489357618
 10
31.0249622579
 20
98.05465881079999
 10
30.6858647045
 20
97.8588660451
 10
30.35213613030001
 20
97.65913755180001
 10
30.021295162
 20
97.45385452870001
 10
29.6950681269
 20
97.24388642700001
 10
29.3727468208
 20
97.0285838402
 10
29.0419844816
 20
96.7989885086
 10
28.6830755864
 20
96.53919290819999
 10
28.2806372719
 20
96.2335557998
 10
27.8280416062
 20
95.8698750807
 10
27.32955463630001
 20
95.4417949261
 10
26.8083305303
 20
94.958509443
 10
26.2981974788
 20
94.4438011531
 10
25.8246586372
 20
93.92158273680001
 10
25.3937546078
 20
93.4011185577
 10
25.0007413079
 20
92.87978935479999
 10
24.642938827
 20
92.35663325530001
 10
24.3188538105
 20
91.83187941620001
 10
24.0267299391
 20
91.3048352178
 10
23.7649534551
 20
90.77481476370001
 10
23.5324647482
 20
90.24127638040001
 10
23.3283978507
 20
89.70376932489999
 10
23.151882057
 20
89.1613018027
 10
23.0024237124
 20
88.6128314489
 10
22.8796919822
 20
88.05752956190001
 10
22.7837212329
 20
87.494619117
 10
22.7146122732
 20
86.92281380610001
 10
22.6728185006
 20
86.3424533316
 10
22.6588253144
 20
85.7545445306
  0
LWPOLYLINE
  5
1572
330
21D
100
AcDbEntity
  8
0
  6
Continuous
 62
     7
100
AcDbPolyline
 90
       69
 70
     0
 43
0.0
 10
86.95186237540001
 20
85.7545445306
 10
86.93794846839999
 20
86.3407937174
 10
86.89689099350001
 20
86.91432211709999
 10
86.82904873700001
 20
87.48025386540001
 10
86.73454167780001
 20
88.03933120639999
 10
86.61319823079999
 20
88.59274607120001
 10
86.4646848483
 20
89.14155977850001
 10
86.2882614633
 20
89.6867796124
 10
86.08305669020001
 20
90.2293926209
 10
85.8480188793
 20
90.76989376540002
 10
85.5818883325
 20
91.3087854409
 10
85.2839939172
 20
91.84525228629999
 10
84.9521761735
 20
92.3805259482
 10
84.58399202359998
 20
92.91580333129999
 10
84.17794707229999
 20
93.45023775340001
 10
83.7304903008
 20
93.9853326507
 10
83.24524370149999
 20
94.5142931074
 10
82.74655192009999
 20
95.01217860709999
 10
82.2663481929
 20
95.45494501520002
 10
81.8215852446
 20
95.83752121389998
 10
81.41786423319999
 20
96.16471331719999
 10
81.05356401719999
 20
96.44522688990001
 10
80.7193694751
 20
96.69132940950001
 10
80.4004126386
 20
96.9169379585
 10
80.08203525209999
 20
97.133730781
 10
79.7577813485
 20
97.34644180950001
 10
79.4293082639
 20
97.554117337
 10
79.09885234819999
 20
97.75560900120002
 10
78.7655436464
 20
97.9517065625
 10
78.4244126379
 20
98.1453818261
 10
78.0711503352
 20
98.3388533527
 10
77.70947647149999
 20
98.52985623530001
 10
77.34136545850001
 20
98.71730125059999
 10
76.955285894
 20
98.90675991260001
 10
76.5277951491
 20
99.10846064330002
 10
76.0506830125
 20
99.32406967950001
 10
75.55845572069999
 20
99.5365825468
 10
75.0741403942
 20
99.7363855582
 10
74.58698585659999
 20
99.92855190829999
 10
74.0845861227
 20
100.117948608
 10
73.56938650779999
 20
100.3033681728
 10
73.05093744310001
 20
100.4813881379
 10
72.53466987919999
 20
100.6505045022
 10
72.0164132542
 20
100.8124708314
 10
71.48063459560001
 20
100.9720555929
 10
70.9298511281
 20
101.1281042864
 10
70.401575878
 20
101.2704594736
 10
69.8948542941
 20
101.400549476
 10
69.3782994294
 20
101.5268901517
 10
68.8547289809
 20
101.6486977021
 10
68.3354831205
 20
101.7634900115
 10
67.8161618637
 20
101.8725018228
 10
67.2825841879
 20
101.9786508713
 10
66.7142213808
 20
102.0854025936
 10
66.08773682289999
 20
102.195774875
 10
65.3915052549
 20
102.3097664398
 10
64.65780288560001
 20
102.4203569323
 10
63.9402483949
 20
102.5193605177
 10
63.2430332497
 20
102.6071515736
 10
62.5396778104
 20
102.687572659
 10
61.8276463333
 20
102.7609058871
 10
61.11876451029999
 20
102.8260729732
 10
60.4178306829
 20
102.8830272295
 10
59.7075956421
 20
102.9333399906
 10
58.9466156973
 20
102.9791788455
 10
58.0879982775
 20
103.0211289997
 10
57.11207067310001
 20
103.056574251
 10
56.017519286
 20
103.0812651721
 10
54.8053438449
 20
103.090560575
  0
LWPOLYLINE
  5
1573
330
21D
100
AcDbEntity
  8
0
  6
Continuous
 62
     7
100
AcDbPolyline
 90
       50
 70
     0
 43
0.0
 10
87.8053438449
 20
85.75454453069999
 10
87.7942077524
 20
86.29300925370001
 10
87.760083417
 20
86.83658293729999
 10
87.70278571809999
 20
87.37674624929999
 10
87.6235436628
 20
87.90509802790001
 10
87.5231733725
 20
88.4221876137
 10
87.39946826399998
 20
88.9394303931
 10
87.24814426989999
 20
89.4681901192
 10
87.06332180209999
 20
90.01770742879999
 10
86.8422982743
 20
90.5840616915
 10
86.58629484
 20
91.1557600401
 10
86.29853471990001
 20
91.72233346780002
 10
85.97988504959998
 20
92.2811012408
 10
85.62933641069999
 20
92.8330260259
 10
85.2458865926
 20
93.37867845079999
 10
84.82910015189998
 20
93.91727481489999
 10
84.3822181592
 20
94.44430686510001
 10
83.91013917109999
 20
94.95475020200002
 10
83.41751359189998
 20
95.4452429408
 10
82.9068413539
 20
95.91543920419999
 10
82.38057838699999
 20
96.36512698389999
 10
81.8417093516
 20
96.7939280544
 10
81.2915333946
 20
97.2027937844
 10
80.72802903539999
 20
97.5946614505
 10
80.14912099369999
 20
97.97200281010001
 10
79.55497535310001
 20
98.3355443275
 10
78.9470673855
 20
98.68505252170001
 10
78.32505564849999
 20
99.02128091870002
 10
77.6875359848
 20
99.34536925200001
 10
77.03247024949999
 20
99.65858489620002
 10
76.3557192875
 20
99.96278096220001
 10
75.65256953229999
 20
100.2595693355
 10
74.91681583870001
 20
100.5506754157
 10
74.1407368264
 20
100.8377488087
 10
73.317016147
 20
101.1215933953
 10
72.43889432829999
 20
101.4022095456
 10
71.5000216196
 20
101.6789741808
 10
70.4979152442
 20
101.9496281186
 10
69.4419193508
 20
102.2091144764
 10
68.3424714571
 20
102.4530949621
 10
67.20166414399999
 20
102.6798387796
 10
66.01767484399999
 20
102.8884872056
 10
64.7882165705
 20
103.0780881866
 10
63.5114415696
 20
103.2474788055
 10
62.1882111158
 20
103.3950501715
 10
60.821908823
 20
103.5190778703
 10
59.3939197083
 20
103.6194448903
 10
57.9066700136
 20
103.693647934
 10
56.3727891809
 20
103.7391933127
 10
54.80533874439999
 20
103.7545445306
  0
CIRCLE
  5
1579
330
21D
100
AcDbEntity
  8
DEFAULT_2
  6
HIDDEN
 62
     7
100
AcDbCircle
 10
54.8053438449
 20
89.98204453059999
 30
0.0
 40
1.125
  0
CIRCLE
  5
157A
330
21D
100
AcDbEntity
  8
DEFAULT_2
  6
HIDDEN
 62
     7
100
AcDbCircle
 10
58.6803438449
 20
81.5045445306
 30
0.0
 40
1.125
  0
CIRCLE
  5
157C
330
21D
100
AcDbEntity
  8
DEFAULT_2
  6
HIDDEN
 62
     7
100
AcDbCircle
 10
54.8053438449
 20
89.98204453059999
 30
0.0
 40
0.9849999999999999
  0
CIRCLE
  5
157D
330
21D
100
AcDbEntity
  8
DEFAULT_2
  6
HIDDEN
 62
     7
100
AcDbCircle
 10
58.6803438449
 20
81.5045445306
 30
0.0
 40
0.9375
  0
CIRCLE
  5
1590
330
21D
100
AcDbEntity
  8
0
  6
Continuous
 62
     7
100
AcDbCircle
 10
54.8053438449
 20
85.7545445306
 30
0.0
 40
1.448223304699999
  0
ENDSEC
  0
SECTION
  2
OBJECTS
  0
DICTIONARY
  5
C
330
0
100
AcDbDictionary
281
     1
  3
ACAD_COLOR
350
15C3
  3
ACAD_GROUP
350
D
  3
ACAD_LAYOUT
350
1A
  3
ACAD_MATERIAL
350
1596
  3
ACAD_MLEADERSTYLE
350
15E8
  3
ACAD_MLINESTYLE
350
17
  3
ACAD_PLOTSETTINGS
350
19
  3
ACAD_PLOTSTYLENAME
350
E
  3
ACAD_SCALELIST
350
15C6
  3
ACAD_TABLESTYLE
350
15C4
  3
ACAD_VISUALSTYLE
350
15AF
  3
ACDB_RECOMPOSE_DATA
350
15EE
  3
AcDbVariableDictionary
350
1620
  0
DICTIONARY
  5
15EF
330
8
100
AcDbDictionary
280
     1
281
     1
  0
DICTIONARY
  5
162F
330
10
100
AcDbDictionary
280
     1
281
     1
  3
ADSK_XREC_LAYER_RECONCILED
360
1630
  0
DICTIONARY
  5
1631
330
1FA
100
AcDbDictionary
280
     1
281
     1
  3
ADSK_XREC_LAYER_RECONCILED
360
1632
  0
DICTIONARY
  5
1633
330
1FB
100
AcDbDictionary
280
     1
281
     1
  3
ADSK_XREC_LAYER_RECONCILED
360
1634
  0
DICTIONARY
  5
1635
330
1FC
100
AcDbDictionary
280
     1
281
     1
  3
ADSK_XREC_LAYER_RECONCILED
360
1636
  0
DICTIONARY
  5
1637
330
1FD
100
AcDbDictionary
280
     1
281
     1
  3
ADSK_XREC_LAYER_RECONCILED
360
1638
  0
DICTIONARY
  5
1639
330
1FE
100
AcDbDictionary
280
     1
281
     1
  3
ADSK_XREC_LAYER_RECONCILED
360
163A
  0
DICTIONARY
  5
163B
330
1FF
100
AcDbDictionary
280
     1
281
     1
  3
ADSK_XREC_LAYER_RECONCILED
360
163C
  0
DICTIONARY
  5
163D
330
200
100
AcDbDictionary
280
     1
281
     1
  3
ADSK_XREC_LAYER_RECONCILED
360
163E
  0
DICTIONARY
  5
163F
330
201
100
AcDbDictionary
280
     1
281
     1
  3
ADSK_XREC_LAYER_RECONCILED
360
1640
  0
DICTIONARY
  5
1641
330
202
100
AcDbDictionary
280
     1
281
     1
  3
ADSK_XREC_LAYER_RECONCILED
360
1642
  0
DICTIONARY
  5
1643
330
203
100
AcDbDictionary
280
     1
281
     1
  3
ADSK_XREC_LAYER_RECONCILED
360
1644
  0
DICTIONARY
  5
1645
330
204
100
AcDbDictionary
280
     1
281
     1
  3
ADSK_XREC_LAYER_RECONCILED
360
1646
  0
DICTIONARY
  5
1647
330
205
100
AcDbDictionary
280
     1
281
     1
  3
ADSK_XREC_LAYER_RECONCILED
360
1648
  0
DICTIONARY
  5
1649
330
206
100
AcDbDictionary
280
     1
281
     1
  3
ADSK_XREC_LAYER_RECONCILED
360
164A
  0
DICTIONARY
  5
164B
330
207
100
AcDbDictionary
280
     1
281
     1
  3
ADSK_XREC_LAYER_RECONCILED
360
164C
  0
DICTIONARY
  5
164D
330
208
100
AcDbDictionary
280
     1
281
     1
  3
ADSK_XREC_LAYER_RECONCILED
360
164E
  0
DICTIONARY
  5
164F
330
209
100
AcDbDictionary
280
     1
281
     1
  3
ADSK_XREC_LAYER_RECONCILED
360
1650
  0
DICTIONARY
  5
1651
330
20A
100
AcDbDictionary
280
     1
281
     1
  3
ADSK_XREC_LAYER_RECONCILED
360
1652
  0
DICTIONARY
  5
1653
330
20B
100
AcDbDictionary
280
     1
281
     1
  3
ADSK_XREC_LAYER_RECONCILED
360
1654
  0
DICTIONARY
  5
1655
330
20C
100
AcDbDictionary
280
     1
281
     1
  3
ADSK_XREC_LAYER_RECONCILED
360
1656
  0
DICTIONARY
  5
1657
330
20D
100
AcDbDictionary
280
     1
281
     1
  3
ADSK_XREC_LAYER_RECONCILED
360
1658
  0
DICTIONARY
  5
1659
330
20E
100
AcDbDictionary
280
     1
281
     1
  3
ADSK_XREC_LAYER_RECONCILED
360
165A
  0
DICTIONARY
  5
165B
330
20F
100
AcDbDictionary
280
     1
281
     1
  3
ADSK_XREC_LAYER_RECONCILED
360
165C
  0
DICTIONARY
  5
165D
330
210
100
AcDbDictionary
280
     1
281
     1
  3
ADSK_XREC_LAYER_RECONCILED
360
165E
  0
DICTIONARY
  5
165F
330
211
100
AcDbDictionary
280
     1
281
     1
  3
ADSK_XREC_LAYER_RECONCILED
360
1660
  0
DICTIONARY
  5
1661
330
212
100
AcDbDictionary
280
     1
281
     1
  3
ADSK_XREC_LAYER_RECONCILED
360
1662
  0
DICTIONARY
  5
1663
330
213
100
AcDbDictionary
280
     1
281
     1
  3
ADSK_XREC_LAYER_RECONCILED
360
1664
  0
DICTIONARY
  5
1665
330
214
100
AcDbDictionary
280
     1
281
     1
  3
ADSK_XREC_LAYER_RECONCILED
360
1666
  0
DICTIONARY
  5
15C3
102
{ACAD_REACTORS
330
C
102
}
330
C
100
AcDbDictionary
281
     1
  0
DICTIONARY
  5
D
102
{ACAD_REACTORS
330
C
102
}
330
C
100
AcDbDictionary
281
     1
  0
DICTIONARY
  5
1A
102
{ACAD_REACTORS
330
C
102
}
330
C
100
AcDbDictionary
281
     1
  3
Layout1
350
1592
  3
Model
350
1591
  0
DICTIONARY
  5
1596
102
{ACAD_REACTORS
330
C
102
}
330
C
100
AcDbDictionary
281
     1
  3
ByBlock
350
159F
  3
ByLayer
350
1597
  3
Global
350
15A7
  0
DICTIONARY
  5
15E8
102
{ACAD_REACTORS
330
C
102
}
330
C
100
AcDbDictionary
281
     1
  3
Standard
350
15E9
  0
DICTIONARY
  5
17
102
{ACAD_REACTORS
330
C
102
}
330
C
100
AcDbDictionary
281
     1
  3
Standard
350
18
  0
DICTIONARY
  5
19
102
{ACAD_REACTORS
330
C
102
}
330
C
100
AcDbDictionary
281
     1
  0
ACDBDICTIONARYWDFLT
  5
E
102
{ACAD_REACTORS
330
C
102
}
330
C
100
AcDbDictionary
281
     1
  3
Normal
350
F
100
AcDbDictionaryWithDefault
340
F
  0
DICTIONARY
  5
15C6
102
{ACAD_REACTORS
330
C
102
}
330
C
100
AcDbDictionary
281
     1
  3
A0
350
15C7
  3
A1
350
15C8
  3
A2
350
15C9
  3
A3
350
15CA
  3
A4
350
15CB
  3
A5
350
15CC
  3
A6
350
15CD
  3
A7
350
15CE
  3
A8
350
15CF
  3
A9
350
15D0
  3
B0
350
15D1
  3
B1
350
15D2
  3
B2
350
15D3
  3
B3
350
15D4
  3
B4
350
15D5
  3
B5
350
15D6
  3
B6
350
15D7
  3
B7
350
15D8
  3
B8
350
15D9
  3
B9
350
15DA
  3
C0
350
15DB
  3
C1
350
15DC
  3
C2
350
15DD
  3
C3
350
15DE
  3
C4
350
15DF
  3
C5
350
15E0
  3
C6
350
15E1
  3
C7
350
15E2
  3
C8
350
15E3
  3
C9
350
15E4
  3
D0
350
15E5
  3
D1
350
15E6
  3
D2
350
15E7
  0
DICTIONARY
  5
15C4
102
{ACAD_REACTORS
330
C
102
}
330
C
100
AcDbDictionary
281
     1
  3
Standard
350
15C5
  0
DICTIONARY
  5
15AF
102
{ACAD_REACTORS
330
C
102
}
330
C
100
AcDbDictionary
281
     1
  3
2dWireframe
350
15B5
  3
3D Hidden
350
15B7
  3
3dWireframe
350
15B6
  3
Basic
350
15B4
  3
Brighten
350
15BB
  3
ColorChange
350
15BF
  3
Conceptual
350
15B8
  3
Dim
350
15BA
  3
EdgeColorOff
350
15C2
  3
Facepattern
350
15BE
  3
Flat
350
15B0
  3
FlatWithEdges
350
15B1
  3
Gouraud
350
15B2
  3
GouraudWithEdges
350
15B3
  3
JitterOff
350
15C0
  3
Linepattern
350
15BD
  3
OverhangOff
350
15C1
  3
Realistic
350
15B9
  3
Thicken
350
15BC
  0
XRECORD
  5
15EE
102
{ACAD_REACTORS
330
C
102
}
330
C
100
AcDbXrecord
280
     1
 90
        1
330
15C5
  0
DICTIONARY
  5
1620
102
{ACAD_REACTORS
330
C
102
}
330
C
100
AcDbDictionary
281
     1
  3
CANNOSCALE
350
1623
  3
CMLEADERSTYLE
350
1622
  3
CTABLESTYLE
350
1621
  3
DIMASSOC
350
1626
  3
INDEXCTL
350
1625
  3
LAYEREVAL
350
166A
  3
LAYERNOTIFY
350
166B
  3
LIGHTINGUNITS
350
1669
  3
MSLTSCALE
350
1668
  3
SORTENTS
350
1624
  3
XCLIPFRAME
350
1627
  0
XRECORD
  5
1630
102
{ACAD_REACTORS
330
162F
102
}
330
162F
100
AcDbXrecord
280
     1
290
     1
  0
XRECORD
  5
1632
102
{ACAD_REACTORS
330
1631
102
}
330
1631
100
AcDbXrecord
280
     1
290
     1
  0
XRECORD
  5
1634
102
{ACAD_REACTORS
330
1633
102
}
330
1633
100
AcDbXrecord
280
     1
290
     1
  0
XRECORD
  5
1636
102
{ACAD_REACTORS
330
1635
102
}
330
1635
100
AcDbXrecord
280
     1
290
     1
  0
XRECORD
  5
1638
102
{ACAD_REACTORS
330
1637
102
}
330
1637
100
AcDbXrecord
280
     1
290
     1
  0
XRECORD
  5
163A
102
{ACAD_REACTORS
330
1639
102
}
330
1639
100
AcDbXrecord
280
     1
290
     1
  0
XRECORD
  5
163C
102
{ACAD_REACTORS
330
163B
102
}
330
163B
100
AcDbXrecord
280
     1
290
     1
  0
XRECORD
  5
163E
102
{ACAD_REACTORS
330
163D
102
}
330
163D
100
AcDbXrecord
280
     1
290
     1
  0
XRECORD
  5
1640
102
{ACAD_REACTORS
330
163F
102
}
330
163F
100
AcDbXrecord
280
     1
290
     1
  0
XRECORD
  5
1642
102
{ACAD_REACTORS
330
1641
102
}
330
1641
100
AcDbXrecord
280
     1
290
     1
  0
XRECORD
  5
1644
102
{ACAD_REACTORS
330
1643
102
}
330
1643
100
AcDbXrecord
280
     1
290
     1
  0
XRECORD
  5
1646
102
{ACAD_REACTORS
330
1645
102
}
330
1645
100
AcDbXrecord
280
     1
290
     1
  0
XRECORD
  5
1648
102
{ACAD_REACTORS
330
1647
102
}
330
1647
100
AcDbXrecord
280
     1
290
     1
  0
XRECORD
  5
164A
102
{ACAD_REACTORS
330
1649
102
}
330
1649
100
AcDbXrecord
280
     1
290
     1
  0
XRECORD
  5
164C
102
{ACAD_REACTORS
330
164B
102
}
330
164B
100
AcDbXrecord
280
     1
290
     1
  0
XRECORD
  5
164E
102
{ACAD_REACTORS
330
164D
102
}
330
164D
100
AcDbXrecord
280
     1
290
     1
  0
XRECORD
  5
1650
102
{ACAD_REACTORS
330
164F
102
}
330
164F
100
AcDbXrecord
280
     1
290
     1
  0
XRECORD
  5
1652
102
{ACAD_REACTORS
330
1651
102
}
330
1651
100
AcDbXrecord
280
     1
290
     1
  0
XRECORD
  5
1654
102
{ACAD_REACTORS
330
1653
102
}
330
1653
100
AcDbXrecord
280
     1
290
     1
  0
XRECORD
  5
1656
102
{ACAD_REACTORS
330
1655
102
}
330
1655
100
AcDbXrecord
280
     1
290
     1
  0
XRECORD
  5
1658
102
{ACAD_REACTORS
330
1657
102
}
330
1657
100
AcDbXrecord
280
     1
290
     1
  0
XRECORD
  5
165A
102
{ACAD_REACTORS
330
1659
102
}
330
1659
100
AcDbXrecord
280
     1
290
     1
  0
XRECORD
  5
165C
102
{ACAD_REACTORS
330
165B
102
}
330
165B
100
AcDbXrecord
280
     1
290
     1
  0
XRECORD
  5
165E
102
{ACAD_REACTORS
330
165D
102
}
330
165D
100
AcDbXrecord
280
     1
290
     1
  0
XRECORD
  5
1660
102
{ACAD_REACTORS
330
165F
102
}
330
165F
100
AcDbXrecord
280
     1
290
     1
  0
XRECORD
  5
1662
102
{ACAD_REACTORS
330
1661
102
}
330
1661
100
AcDbXrecord
280
     1
290
     1
  0
XRECORD
  5
1664
102
{ACAD_REACTORS
330
1663
102
}
330
1663
100
AcDbXrecord
280
     1
290
     1
  0
XRECORD
  5
1666
102
{ACAD_REACTORS
330
1665
102
}
330
1665
100
AcDbXrecord
280
     1
290
     1
  0
LAYOUT
  5
1592
102
{ACAD_REACTORS
330
1A
102
}
330
1A
100
AcDbPlotSettings
  1

  2
none_device
  4
ANSI_B_(17.00_x_11.00_Inches)
  6

 40
0.0
 41
0.0
 42
0.0
 43
0.0
 44
431.8
 45
279.4
 46
0.0
 47
0.0
 48
0.0
 49
0.0
140
0.0
141
0.0
142
1.0
143
1.0
 70
     0
 72
     0
 73
     0
 74
     0
  7

 75
     0
147
1.0
 76
     0
 77
     2
 78
   300
148
0.0
149
0.0
100
AcDbLayout
  1
Layout1
 70
     1
 71
     1
 10
0.0
 20
0.0
 11
12.0
 21
9.0
 12
0.0
 22
0.0
 32
0.0
 14
1.000000000000000E+20
 24
1.000000000000000E+20
 34
1.000000000000000E+20
 15
-1.000000000000000E+20
 25
-1.000000000000000E+20
 35
-1.000000000000000E+20
146
0.0
 13
0.0
 23
0.0
 33
0.0
 16
1.0
 26
0.0
 36
0.0
 17
0.0
 27
1.0
 37
0.0
 76
     0
330
21E
  0
LAYOUT
  5
1591
102
{ACAD_REACTORS
330
1A
102
}
330
1A
100
AcDbPlotSettings
  1

  2
none_device
  4
ANSI_B_(17.00_x_11.00_Inches)
  6

 40
0.0
 41
0.0
 42
0.0
 43
0.0
 44
431.8
 45
279.4
 46
0.0
 47
0.0
 48
0.0
 49
0.0
140
0.0
141
0.0
142
1.0
143
1.0
 70
  1024
 72
     0
 73
     0
 74
     0
  7

 75
     0
147
1.0
 76
     0
 77
     2
 78
   300
148
0.0
149
0.0
100
AcDbLayout
  1
Model
 70
     0
 71
     0
 10
0.0
 20
0.0
 11
17.0
 21
11.0
 12
0.0
 22
0.0
 32
0.0
 14
0.0
 24
0.0
 34
0.0
 15
0.0
 25
0.0
 35
0.0
146
0.0
 13
0.0
 23
0.0
 33
0.0
 16
1.0
 26
0.0
 36
0.0
 17
0.0
 27
1.0
 37
0.0
 76
     0
330
21D
331
1F4
  0
MATERIAL
  5
159F
102
{ACAD_XDICTIONARY
360
15A0
102
}
102
{ACAD_REACTORS
330
1596
102
}
330
1596
100
AcDbMaterial
  1
ByBlock
 72
     0
 43
0.0208333333333333
 43
0.0
 43
0.0
 43
0.0
 43
0.0
 43
0.0208333333333333
 43
0.0
 43
0.0
 43
0.0
 43
0.0
 43
1.0
 43
0.0
 43
0.0
 43
0.0
 43
0.0
 43
1.0
 77
     0
 47
0.0208333333333333
 47
0.0
 47
0.0
 47
0.0
 47
0.0
 47
0.0208333333333333
 47
0.0
 47
0.0
 47
0.0
 47
0.0
 47
1.0
 47
0.0
 47
0.0
 47
0.0
 47
0.0
 47
1.0
171
     0
 49
0.0208333333333333
 49
0.0
 49
0.0
 49
0.0
 49
0.0
 49
0.0208333333333333
 49
0.0
 49
0.0
 49
0.0
 49
0.0
 49
1.0
 49
0.0
 49
0.0
 49
0.0
 49
0.0
 49
1.0
175
     0
142
0.0208333333333333
142
0.0
142
0.0
142
0.0
142
0.0
142
0.0208333333333333
142
0.0
142
0.0
142
0.0
142
0.0
142
1.0
142
0.0
142
0.0
142
0.0
142
0.0
142
1.0
179
     0
144
0.0208333333333333
144
0.0
144
0.0
144
0.0
144
0.0
144
0.0208333333333333
144
0.0
144
0.0
144
0.0
144
0.0
144
1.0
144
0.0
144
0.0
144
0.0
144
0.0
144
1.0
147
0.0208333333333333
147
0.0
147
0.0
147
0.0
147
0.0
147
0.0208333333333333
147
0.0
147
0.0
147
0.0
147
0.0
147
1.0
147
0.0
147
0.0
147
0.0
147
0.0
147
1.0
  0
MATERIAL
  5
1597
102
{ACAD_XDICTIONARY
360
1598
102
}
102
{ACAD_REACTORS
330
1596
102
}
330
1596
100
AcDbMaterial
  1
ByLayer
 72
     0
 43
0.0208333333333333
 43
0.0
 43
0.0
 43
0.0
 43
0.0
 43
0.0208333333333333
 43
0.0
 43
0.0
 43
0.0
 43
0.0
 43
1.0
 43
0.0
 43
0.0
 43
0.0
 43
0.0
 43
1.0
 77
     0
 47
0.0208333333333333
 47
0.0
 47
0.0
 47
0.0
 47
0.0
 47
0.0208333333333333
 47
0.0
 47
0.0
 47
0.0
 47
0.0
 47
1.0
 47
0.0
 47
0.0
 47
0.0
 47
0.0
 47
1.0
171
     0
 49
0.0208333333333333
 49
0.0
 49
0.0
 49
0.0
 49
0.0
 49
0.0208333333333333
 49
0.0
 49
0.0
 49
0.0
 49
0.0
 49
1.0
 49
0.0
 49
0.0
 49
0.0
 49
0.0
 49
1.0
175
     0
142
0.0208333333333333
142
0.0
142
0.0
142
0.0
142
0.0
142
0.0208333333333333
142
0.0
142
0.0
142
0.0
142
0.0
142
1.0
142
0.0
142
0.0
142
0.0
142
0.0
142
1.0
179
     0
144
0.0208333333333333
144
0.0
144
0.0
144
0.0
144
0.0
144
0.0208333333333333
144
0.0
144
0.0
144
0.0
144
0.0
144
1.0
144
0.0
144
0.0
144
0.0
144
0.0
144
1.0
147
0.0208333333333333
147
0.0
147
0.0
147
0.0
147
0.0
147
0.0208333333333333
147
0.0
147
0.0
147
0.0
147
0.0
147
1.0
147
0.0
147
0.0
147
0.0
147
0.0
147
1.0
  0
MATERIAL
  5
15A7
102
{ACAD_XDICTIONARY
360
15A8
102
}
102
{ACAD_REACTORS
330
1596
102
}
330
1596
100
AcDbMaterial
  1
Global
 72
     0
 43
0.0208333333333333
 43
0.0
 43
0.0
 43
0.0
 43
0.0
 43
0.0208333333333333
 43
0.0
 43
0.0
 43
0.0
 43
0.0
 43
1.0
 43
0.0
 43
0.0
 43
0.0
 43
0.0
 43
1.0
 77
     0
 47
0.0208333333333333
 47
0.0
 47
0.0
 47
0.0
 47
0.0
 47
0.0208333333333333
 47
0.0
 47
0.0
 47
0.0
 47
0.0
 47
1.0
 47
0.0
 47
0.0
 47
0.0
 47
0.0
 47
1.0
171
     0
 49
0.0208333333333333
 49
0.0
 49
0.0
 49
0.0
 49
0.0
 49
0.0208333333333333
 49
0.0
 49
0.0
 49
0.0
 49
0.0
 49
1.0
 49
0.0
 49
0.0
 49
0.0
 49
0.0
 49
1.0
175
     0
142
0.0208333333333333
142
0.0
142
0.0
142
0.0
142
0.0
142
0.0208333333333333
142
0.0
142
0.0
142
0.0
142
0.0
142
1.0
142
0.0
142
0.0
142
0.0
142
0.0
142
1.0
179
     0
144
0.0208333333333333
144
0.0
144
0.0
144
0.0
144
0.0
144
0.0208333333333333
144
0.0
144
0.0
144
0.0
144
0.0
144
1.0
144
0.0
144
0.0
144
0.0
144
0.0
144
1.0
147
0.0208333333333333
147
0.0
147
0.0
147
0.0
147
0.0
147
0.0208333333333333
147
0.0
147
0.0
147
0.0
147
0.0
147
1.0
147
0.0
147
0.0
147
0.0
147
0.0
147
1.0
  0
MLEADERSTYLE
  5
15E9
102
{ACAD_REACTORS
330
15E8
102
}
330
15E8
100
AcDbMLeaderStyle
170
     2
171
     1
172
     0
 90
        2
 40
0.0
 41
0.0
173
     1
 91
-1056964608
340
14
 92
       -2
290
     1
 42
0.09
291
     1
 43
0.36
  3
Standard
 44
0.18
300

342
11
174
     1
178
     6
175
     1
176
     0
 93
-1056964608
 45
0.18
292
     0
297
     0
 46
0.18
 94
-1056964608
 47
1.0
 49
1.0
140
1.0
293
     1
141
0.0
294
     1
177
     0
142
1.0
295
     0
296
     0
143
0.125
1001
ACAD_MLEADERVER
1070
     2
  0
MLINESTYLE
  5
18
102
{ACAD_REACTORS
330
17
102
}
330
17
100
AcDbMlineStyle
  2
STANDARD
 70
     0
  3

 62
   256
 51
90.0
 52
90.0
 71
     2
 49
0.5
 62
   256
  6
BYLAYER
 49
-0.5
 62
   256
  6
BYLAYER
  0
ACDBPLACEHOLDER
  5
F
102
{ACAD_REACTORS
330
E
102
}
330
E
  0
SCALE
  5
15C7
102
{ACAD_REACTORS
330
15C6
102
}
330
15C6
100
AcDbScale
 70
     0
300
1:1
140
1.0
141
1.0
290
     1
  0
SCALE
  5
15C8
102
{ACAD_REACTORS
330
15C6
102
}
330
15C6
100
AcDbScale
 70
     0
300
1:2
140
1.0
141
2.0
290
     0
  0
SCALE
  5
15C9
102
{ACAD_REACTORS
330
15C6
102
}
330
15C6
100
AcDbScale
 70
     0
300
1:4
140
1.0
141
4.0
290
     0
  0
SCALE
  5
15CA
102
{ACAD_REACTORS
330
15C6
102
}
330
15C6
100
AcDbScale
 70
     0
300
1:5
140
1.0
141
5.0
290
     0
  0
SCALE
  5
15CB
102
{ACAD_REACTORS
330
15C6
102
}
330
15C6
100
AcDbScale
 70
     0
300
1:8
140
1.0
141
8.0
290
     0
  0
SCALE
  5
15CC
102
{ACAD_REACTORS
330
15C6
102
}
330
15C6
100
AcDbScale
 70
     0
300
1:10
140
1.0
141
10.0
290
     0
  0
SCALE
  5
15CD
102
{ACAD_REACTORS
330
15C6
102
}
330
15C6
100
AcDbScale
 70
     0
300
1:16
140
1.0
141
16.0
290
     0
  0
SCALE
  5
15CE
102
{ACAD_REACTORS
330
15C6
102
}
330
15C6
100
AcDbScale
 70
     0
300
1:20
140
1.0
141
20.0
290
     0
  0
SCALE
  5
15CF
102
{ACAD_REACTORS
330
15C6
102
}
330
15C6
100
AcDbScale
 70
     0
300
1:30
140
1.0
141
30.0
290
     0
  0
SCALE
  5
15D0
102
{ACAD_REACTORS
330
15C6
102
}
330
15C6
100
AcDbScale
 70
     0
300
1:40
140
1.0
141
40.0
290
     0
  0
SCALE
  5
15D1
102
{ACAD_REACTORS
330
15C6
102
}
330
15C6
100
AcDbScale
 70
     0
300
1:50
140
1.0
141
50.0
290
     0
  0
SCALE
  5
15D2
102
{ACAD_REACTORS
330
15C6
102
}
330
15C6
100
AcDbScale
 70
     0
300
1:100
140
1.0
141
100.0
290
     0
  0
SCALE
  5
15D3
102
{ACAD_REACTORS
330
15C6
102
}
330
15C6
100
AcDbScale
 70
     0
300
2:1
140
2.0
141
1.0
290
     0
  0
SCALE
  5
15D4
102
{ACAD_REACTORS
330
15C6
102
}
330
15C6
100
AcDbScale
 70
     0
300
4:1
140
4.0
141
1.0
290
     0
  0
SCALE
  5
15D5
102
{ACAD_REACTORS
330
15C6
102
}
330
15C6
100
AcDbScale
 70
     0
300
8:1
140
8.0
141
1.0
290
     0
  0
SCALE
  5
15D6
102
{ACAD_REACTORS
330
15C6
102
}
330
15C6
100
AcDbScale
 70
     0
300
10:1
140
10.0
141
1.0
290
     0
  0
SCALE
  5
15D7
102
{ACAD_REACTORS
330
15C6
102
}
330
15C6
100
AcDbScale
 70
     0
300
100:1
140
100.0
141
1.0
290
     0
  0
SCALE
  5
15D8
102
{ACAD_REACTORS
330
15C6
102
}
330
15C6
100
AcDbScale
 70
     0
300
1/128" = 1'-0"
140
0.0078125
141
12.0
290
     0
  0
SCALE
  5
15D9
102
{ACAD_REACTORS
330
15C6
102
}
330
15C6
100
AcDbScale
 70
     0
300
1/64" = 1'-0"
140
0.015625
141
12.0
290
     0
  0
SCALE
  5
15DA
102
{ACAD_REACTORS
330
15C6
102
}
330
15C6
100
AcDbScale
 70
     0
300
1/32" = 1'-0"
140
0.03125
141
12.0
290
     0
  0
SCALE
  5
15DB
102
{ACAD_REACTORS
330
15C6
102
}
330
15C6
100
AcDbScale
 70
     0
300
1/16" = 1'-0"
140
0.0625
141
12.0
290
     0
  0
SCALE
  5
15DC
102
{ACAD_REACTORS
330
15C6
102
}
330
15C6
100
AcDbScale
 70
     0
300
3/32" = 1'-0"
140
0.09375
141
12.0
290
     0
  0
SCALE
  5
15DD
102
{ACAD_REACTORS
330
15C6
102
}
330
15C6
100
AcDbScale
 70
     0
300
1/8" = 1'-0"
140
0.125
141
12.0
290
     0
  0
SCALE
  5
15DE
102
{ACAD_REACTORS
330
15C6
102
}
330
15C6
100
AcDbScale
 70
     0
300
3/16" = 1'-0"
140
0.1875
141
12.0
290
     0
  0
SCALE
  5
15DF
102
{ACAD_REACTORS
330
15C6
102
}
330
15C6
100
AcDbScale
 70
     0
300
1/4" = 1'-0"
140
0.25
141
12.0
290
     0
  0
SCALE
  5
15E0
102
{ACAD_REACTORS
330
15C6
102
}
330
15C6
100
AcDbScale
 70
     0
300
3/8" = 1'-0"
140
0.375
141
12.0
290
     0
  0
SCALE
  5
15E1
102
{ACAD_REACTORS
330
15C6
102
}
330
15C6
100
AcDbScale
 70
     0
300
1/2" = 1'-0"
140
0.5
141
12.0
290
     0
  0
SCALE
  5
15E2
102
{ACAD_REACTORS
330
15C6
102
}
330
15C6
100
AcDbScale
 70
     0
300
3/4" = 1'-0"
140
0.75
141
12.0
290
     0
  0
SCALE
  5
15E3
102
{ACAD_REACTORS
330
15C6
102
}
330
15C6
100
AcDbScale
 70
     0
300
1" = 1'-0"
140
1.0
141
12.0
290
     0
  0
SCALE
  5
15E4
102
{ACAD_REACTORS
330
15C6
102
}
330
15C6
100
AcDbScale
 70
     0
300
1-1/2" = 1'-0"
140
1.5
141
12.0
290
     0
  0
SCALE
  5
15E5
102
{ACAD_REACTORS
330
15C6
102
}
330
15C6
100
AcDbScale
 70
     0
300
3" = 1'-0"
140
3.0
141
12.0
290
     0
  0
SCALE
  5
15E6
102
{ACAD_REACTORS
330
15C6
102
}
330
15C6
100
AcDbScale
 70
     0
300
6" = 1'-0"
140
6.0
141
12.0
290
     0
  0
SCALE
  5
15E7
102
{ACAD_REACTORS
330
15C6
102
}
330
15C6
100
AcDbScale
 70
     0
300
1'-0" = 1'-0"
140
12.0
141
12.0
290
     0
  0
TABLESTYLE
  5
15C5
102
{ACAD_XDICTIONARY
360
15EC
102
}
102
{ACAD_REACTORS
330
15C4
102
}
330
15C4
100
AcDbTableStyle
  3
Standard
 70
     0
 71
     0
 40
0.06
 41
0.06
280
     0
281
     0
  7
STANDARD
140
0.18
170
     2
 62
     0
 63
     7
283
     0
 90
      512
 91
        0
  1

274
    -2
284
     1
 64
     0
275
    -2
285
     1
 65
     0
276
    -2
286
     1
 66
     0
277
    -2
287
     1
 67
     0
278
    -2
288
     1
 68
     0
279
    -2
289
     1
 69
     0
  7
STANDARD
140
0.25
170
     5
 62
     0
 63
     7
283
     0
 90
      512
 91
        0
  1

274
    -2
284
     1
 64
     0
275
    -2
285
     1
 65
     0
276
    -2
286
     1
 66
     0
277
    -2
287
     1
 67
     0
278
    -2
288
     1
 68
     0
279
    -2
289
     1
 69
     0
  7
STANDARD
140
0.18
170
     5
 62
     0
 63
     7
283
     0
 90
      512
 91
        0
  1

274
    -2
284
     1
 64
     0
275
    -2
285
     1
 65
     0
276
    -2
286
     1
 66
     0
277
    -2
287
     1
 67
     0
278
    -2
288
     1
 68
     0
279
    -2
289
     1
 69
     0
  0
VISUALSTYLE
  5
15B5
102
{ACAD_XDICTIONARY
360
1602
102
}
102
{ACAD_REACTORS
330
15AF
102
}
330
15AF
100
AcDbVisualStyle
  2
2dWireframe
 70
     4
 71
     0
 72
     2
 73
     0
 90
        0
 40
-0.6
 41
-30.0
 62
     5
 63
     7
 74
     1
 91
        4
 64
     7
 65
   257
 75
     1
175
     1
 42
1.0
 92
        0
 66
   257
 43
1.0
 76
     1
 77
     6
 78
     2
 67
     7
 79
     5
170
     0
171
     0
290
     0
174
     0
 93
        1
 44
0.0
173
     0
291
     0
 45
0.0
  0
VISUALSTYLE
  5
15B7
102
{ACAD_XDICTIONARY
360
1606
102
}
102
{ACAD_REACTORS
330
15AF
102
}
330
15AF
100
AcDbVisualStyle
  2
3D Hidden
 70
     6
 71
     1
 72
     2
 73
     2
 90
        0
 40
-0.6
 41
-30.0
 62
     5
 63
     7
 74
     2
 91
        2
 64
     7
 65
   257
 75
     2
175
     1
 42
179.0
 92
        0
 66
   257
 43
1.0
 76
     1
 77
     6
 78
     2
 67
     7
 79
     3
170
     0
171
     0
290
     0
174
     0
 93
        1
 44
0.0
173
     0
291
     0
 45
0.0
  0
VISUALSTYLE
  5
15B6
102
{ACAD_XDICTIONARY
360
1604
102
}
102
{ACAD_REACTORS
330
15AF
102
}
330
15AF
100
AcDbVisualStyle
  2
3dWireframe
 70
     5
 71
     0
 72
     2
 73
     0
 90
        0
 40
-0.6
 41
-30.0
 62
     5
 63
     7
 74
     1
 91
        4
 64
     7
 65
   257
 75
     1
175
     1
 42
1.0
 92
        0
 66
   257
 43
1.0
 76
     1
 77
     6
 78
     2
 67
     7
 79
     5
170
     0
171
     0
290
     0
174
     0
 93
        1
 44
0.0
173
     0
291
     0
 45
0.0
  0
VISUALSTYLE
  5
15B4
102
{ACAD_XDICTIONARY
360
1600
102
}
102
{ACAD_REACTORS
330
15AF
102
}
330
15AF
100
AcDbVisualStyle
  2
Basic
 70
     7
 71
     1
 72
     0
 73
     1
 90
        0
 40
-0.6
 41
-30.0
 62
     5
 63
     7
 74
     0
 91
        4
 64
     7
 65
   257
 75
     1
175
     1
 42
1.0
 92
        8
 66
     7
 43
1.0
 76
     1
 77
     6
 78
     2
 67
     7
 79
     5
170
     0
171
     0
290
     0
174
     0
 93
        1
 44
0.0
173
     0
291
     1
 45
0.0
  0
VISUALSTYLE
  5
15BB
102
{ACAD_XDICTIONARY
360
160E
102
}
102
{ACAD_REACTORS
330
15AF
102
}
330
15AF
100
AcDbVisualStyle
  2
Brighten
 70
    12
 71
     2
 72
     2
 73
     0
 90
        0
 40
-0.6
 41
-30.0
 62
     5
 63
     7
 74
     1
 91
        4
 64
     7
 65
   257
 75
     1
175
     1
 42
1.0
 92
        8
 66
     7
 43
1.0
 76
     1
 77
     6
 78
     2
 67
     7
 79
     5
170
     0
171
     0
290
     0
174
     0
 93
        1
 44
50.0
173
     0
291
     1
 45
0.0
  0
VISUALSTYLE
  5
15BF
102
{ACAD_XDICTIONARY
360
1616
102
}
102
{ACAD_REACTORS
330
15AF
102
}
330
15AF
100
AcDbVisualStyle
  2
ColorChange
 70
    16
 71
     2
 72
     2
 73
     3
 90
        0
 40
-0.6
 41
-30.0
 62
     5
 63
     8
 74
     1
 91
        4
 64
     7
 65
   257
 75
     1
175
     1
 42
1.0
 92
        8
 66
     8
 43
1.0
 76
     1
 77
     6
 78
     2
 67
     7
 79
     5
170
     0
171
     0
290
     0
174
     0
 93
        1
 44
0.0
173
     0
291
     1
 45
0.0
  0
VISUALSTYLE
  5
15B8
102
{ACAD_XDICTIONARY
360
1608
102
}
102
{ACAD_REACTORS
330
15AF
102
}
330
15AF
100
AcDbVisualStyle
  2
Conceptual
 70
     9
 71
     3
 72
     2
 73
     0
 90
        0
 40
-0.6
 41
-30.0
 62
     5
 63
     7
 74
     2
 91
        2
 64
     7
 65
   257
 75
     1
175
     1
 42
179.0
 92
        8
 66
     7
 43
1.0
 76
     1
 77
     6
 78
     2
 67
     7
 79
     3
170
     0
171
     0
290
     0
174
     0
 93
        1
 44
0.0
173
     0
291
     0
 45
0.0
  0
VISUALSTYLE
  5
15BA
102
{ACAD_XDICTIONARY
360
160C
102
}
102
{ACAD_REACTORS
330
15AF
102
}
330
15AF
100
AcDbVisualStyle
  2
Dim
 70
    11
 71
     2
 72
     2
 73
     0
 90
        0
 40
-0.6
 41
-30.0
 62
     5
 63
     7
 74
     1
 91
        4
 64
     7
 65
   257
 75
     1
175
     1
 42
1.0
 92
        8
 66
     7
 43
1.0
 76
     1
 77
     6
 78
     2
 67
     7
 79
     5
170
     0
171
     0
290
     0
174
     0
 93
        1
 44
-50.0
173
     0
291
     1
 45
0.0
  0
VISUALSTYLE
  5
15C2
102
{ACAD_XDICTIONARY
360
161C
102
}
102
{ACAD_REACTORS
330
15AF
102
}
330
15AF
100
AcDbVisualStyle
  2
EdgeColorOff
 70
    22
 71
     2
 72
     2
 73
     0
 90
        0
 40
-0.6
 41
-30.0
 62
     5
 63
     7
 74
     1
 91
        4
 64
     7
 65
   257
 75
     1
175
     1
 42
1.0
 92
        8
 66
     7
 43
1.0
 76
     1
 77
     6
 78
     2
 67
     7
 79
     5
170
     0
171
     0
290
     0
174
     0
 93
        1
 44
0.0
173
     0
291
     1
 45
0.0
  0
VISUALSTYLE
  5
15BE
102
{ACAD_XDICTIONARY
360
1614
102
}
102
{ACAD_REACTORS
330
15AF
102
}
330
15AF
100
AcDbVisualStyle
  2
Facepattern
 70
    15
 71
     2
 72
     2
 73
     0
 90
        0
 40
-0.6
 41
-30.0
 62
     5
 63
     7
 74
     1
 91
        4
 64
     7
 65
   257
 75
     1
175
     1
 42
1.0
 92
        8
 66
     7
 43
1.0
 76
     1
 77
     6
 78
     2
 67
     7
 79
     5
170
     0
171
     0
290
     0
174
     0
 93
        1
 44
0.0
173
     0
291
     1
 45
0.0
  0
VISUALSTYLE
  5
15B0
102
{ACAD_XDICTIONARY
360
15F8
102
}
102
{ACAD_REACTORS
330
15AF
102
}
330
15AF
100
AcDbVisualStyle
  2
Flat
 70
     0
 71
     2
 72
     1
 73
     1
 90
        2
 40
-0.6
 41
30.0
 62
     5
 63
     7
 74
     0
 91
        4
 64
     7
 65
   257
 75
     1
175
     1
 42
1.0
 92
        8
 66
     7
 43
1.0
 76
     1
 77
     6
 78
     2
 67
     7
 79
     5
170
     0
171
     0
290
     0
174
     0
 93
       13
 44
0.0
173
     0
291
     1
 45
0.0
  0
VISUALSTYLE
  5
15B1
102
{ACAD_XDICTIONARY
360
15FA
102
}
102
{ACAD_REACTORS
330
15AF
102
}
330
15AF
100
AcDbVisualStyle
  2
FlatWithEdges
 70
     1
 71
     2
 72
     1
 73
     1
 90
        2
 40
-0.6
 41
30.0
 62
     5
 63
     7
 74
     1
 91
        4
 64
     7
 65
   257
 75
     1
175
     1
 42
1.0
 92
        0
 66
   257
 43
1.0
 76
     1
 77
     6
 78
     2
 67
     7
 79
     5
170
     0
171
     0
290
     0
174
     0
 93
       13
 44
0.0
173
     0
291
     1
 45
0.0
  0
VISUALSTYLE
  5
15B2
102
{ACAD_XDICTIONARY
360
15FC
102
}
102
{ACAD_REACTORS
330
15AF
102
}
330
15AF
100
AcDbVisualStyle
  2
Gouraud
 70
     2
 71
     2
 72
     2
 73
     1
 90
        2
 40
-0.6
 41
30.0
 62
     5
 63
     7
 74
     0
 91
        4
 64
     7
 65
   257
 75
     1
175
     1
 42
1.0
 92
        0
 66
     7
 43
1.0
 76
     1
 77
     6
 78
     2
 67
     7
 79
     5
170
     0
171
     0
290
     0
174
     0
 93
       13
 44
0.0
173
     0
291
     1
 45
0.0
  0
VISUALSTYLE
  5
15B3
102
{ACAD_XDICTIONARY
360
15FE
102
}
102
{ACAD_REACTORS
330
15AF
102
}
330
15AF
100
AcDbVisualStyle
  2
GouraudWithEdges
 70
     3
 71
     2
 72
     2
 73
     1
 90
        2
 40
-0.6
 41
30.0
 62
     5
 63
     7
 74
     1
 91
        4
 64
     7
 65
   257
 75
     1
175
     1
 42
1.0
 92
        0
 66
   257
 43
1.0
 76
     1
 77
     6
 78
     2
 67
     7
 79
     5
170
     0
171
     0
290
     0
174
     0
 93
       13
 44
0.0
173
     0
291
     1
 45
0.0
  0
VISUALSTYLE
  5
15C0
102
{ACAD_XDICTIONARY
360
1618
102
}
102
{ACAD_REACTORS
330
15AF
102
}
330
15AF
100
AcDbVisualStyle
  2
JitterOff
 70
    20
 71
     2
 72
     2
 73
     0
 90
        0
 40
-0.6
 41
-30.0
 62
     5
 63
     7
 74
     1
 91
        4
 64
     7
 65
   257
 75
     1
175
     1
 42
1.0
 92
       10
 66
     7
 43
1.0
 76
     1
 77
     6
 78
     2
 67
     7
 79
     5
170
     0
171
     0
290
     0
174
     0
 93
        1
 44
0.0
173
     0
291
     1
 45
0.0
  0
VISUALSTYLE
  5
15BD
102
{ACAD_XDICTIONARY
360
1612
102
}
102
{ACAD_REACTORS
330
15AF
102
}
330
15AF
100
AcDbVisualStyle
  2
Linepattern
 70
    14
 71
     2
 72
     2
 73
     0
 90
        0
 40
-0.6
 41
-30.0
 62
     5
 63
     7
 74
     1
 91
        4
 64
     7
 65
   257
 75
     7
175
     7
 42
1.0
 92
        8
 66
     7
 43
1.0
 76
     1
 77
     6
 78
     2
 67
     7
 79
     5
170
     0
171
     0
290
     0
174
     0
 93
        1
 44
0.0
173
     0
291
     1
 45
0.0
  0
VISUALSTYLE
  5
15C1
102
{ACAD_XDICTIONARY
360
161A
102
}
102
{ACAD_REACTORS
330
15AF
102
}
330
15AF
100
AcDbVisualStyle
  2
OverhangOff
 70
    21
 71
     2
 72
     2
 73
     0
 90
        0
 40
-0.6
 41
-30.0
 62
     5
 63
     7
 74
     1
 91
        4
 64
     7
 65
   257
 75
     1
175
     1
 42
1.0
 92
        9
 66
     7
 43
1.0
 76
     1
 77
     6
 78
     2
 67
     7
 79
     5
170
     0
171
     0
290
     0
174
     0
 93
        1
 44
0.0
173
     0
291
     1
 45
0.0
  0
VISUALSTYLE
  5
15B9
102
{ACAD_XDICTIONARY
360
160A
102
}
102
{ACAD_REACTORS
330
15AF
102
}
330
15AF
100
AcDbVisualStyle
  2
Realistic
 70
     8
 71
     2
 72
     2
 73
     0
 90
        0
 40
-0.6
 41
-30.0
 62
     5
 63
     7
 74
     1
 91
        0
 64
     7
 65
   257
 75
     1
175
     1
 42
1.0
 92
        8
 66
     8
 43
1.0
 76
     1
 77
     6
 78
     2
 67
     7
 79
     5
170
     0
171
     0
290
     0
174
     0
 93
       13
 44
0.0
173
     0
291
     0
 45
0.0
  0
VISUALSTYLE
  5
15BC
102
{ACAD_XDICTIONARY
360
1610
102
}
102
{ACAD_REACTORS
330
15AF
102
}
330
15AF
100
AcDbVisualStyle
  2
Thicken
 70
    13
 71
     2
 72
     2
 73
     0
 90
        0
 40
-0.6
 41
-30.0
 62
     5
 63
     7
 74
     1
 91
        4
 64
     7
 65
   257
 75
     1
175
     1
 42
1.0
 92
       12
 66
     7
 43
1.0
 76
     1
 77
     6
 78
     2
 67
     7
 79
     5
170
     0
171
     0
290
     0
174
     0
 93
        1
 44
0.0
173
     0
291
     1
 45
0.0
  0
DICTIONARYVAR
  5
1623
102
{ACAD_REACTORS
330
1620
102
}
330
1620
100
DictionaryVariables
280
     0
  1
1:1
  0
DICTIONARYVAR
  5
1622
102
{ACAD_REACTORS
330
1620
102
}
330
1620
100
DictionaryVariables
280
     0
  1
STANDARD
  0
DICTIONARYVAR
  5
1621
102
{ACAD_REACTORS
330
1620
102
}
330
1620
100
DictionaryVariables
280
     0
  1
STANDARD
  0
DICTIONARYVAR
  5
1626
102
{ACAD_REACTORS
330
1620
102
}
330
1620
100
DictionaryVariables
280
     0
  1
1
  0
DICTIONARYVAR
  5
1625
102
{ACAD_REACTORS
330
1620
102
}
330
1620
100
DictionaryVariables
280
     0
  1
0
  0
DICTIONARYVAR
  5
166A
102
{ACAD_REACTORS
330
1620
102
}
330
1620
100
DictionaryVariables
280
     0
  1
1
  0
DICTIONARYVAR
  5
166B
102
{ACAD_REACTORS
330
1620
102
}
330
1620
100
DictionaryVariables
280
     0
  1
15
  0
DICTIONARYVAR
  5
1669
102
{ACAD_REACTORS
330
1620
102
}
330
1620
100
DictionaryVariables
280
     0
  1
0
  0
DICTIONARYVAR
  5
1668
102
{ACAD_REACTORS
330
1620
102
}
330
1620
100
DictionaryVariables
280
     0
  1
0
  0
DICTIONARYVAR
  5
1624
102
{ACAD_REACTORS
330
1620
102
}
330
1620
100
DictionaryVariables
280
     0
  1
127
  0
DICTIONARYVAR
  5
1627
102
{ACAD_REACTORS
330
1620
102
}
330
1620
100
DictionaryVariables
280
     0
  1
2
  0
DICTIONARY
  5
15A0
330
159F
100
AcDbDictionary
280
     1
281
     1
  3
BUMPTILE
360
15A2
  3
DIFFUSETILE
360
15A1
  3
OPACITYTILE
360
15A5
  3
REFLECTIONTILE
360
15A4
  3
REFRACTIONTILE
360
15A6
  3
SPECULARTILE
360
15A3
  0
DICTIONARY
  5
1598
330
1597
100
AcDbDictionary
280
     1
281
     1
  3
BUMPTILE
360
159A
  3
DIFFUSETILE
360
1599
  3
OPACITYTILE
360
159D
  3
REFLECTIONTILE
360
159C
  3
REFRACTIONTILE
360
159E
  3
SPECULARTILE
360
159B
  0
DICTIONARY
  5
15A8
330
15A7
100
AcDbDictionary
280
     1
281
     1
  3
BUMPTILE
360
15AA
  3
DIFFUSETILE
360
15A9
  3
OPACITYTILE
360
15AD
  3
REFLECTIONTILE
360
15AC
  3
REFRACTIONTILE
360
15AE
  3
SPECULARTILE
360
15AB
  0
DICTIONARY
  5
15EC
330
15C5
100
AcDbDictionary
280
     1
281
     1
  3
ACAD_ROUNDTRIP_2008_TABLESTYLE_CELLSTYLEMAP
360
1675
  0
DICTIONARY
  5
1602
330
15B5
100
AcDbDictionary
280
     1
281
     1
  3
ACAD_XREC_ROUNDTRIP
360
1603
  0
DICTIONARY
  5
1606
330
15B7
100
AcDbDictionary
280
     1
281
     1
  3
ACAD_XREC_ROUNDTRIP
360
1607
  0
DICTIONARY
  5
1604
330
15B6
100
AcDbDictionary
280
     1
281
     1
  3
ACAD_XREC_ROUNDTRIP
360
1605
  0
DICTIONARY
  5
1600
330
15B4
100
AcDbDictionary
280
     1
281
     1
  3
ACAD_XREC_ROUNDTRIP
360
1601
  0
DICTIONARY
  5
160E
330
15BB
100
AcDbDictionary
280
     1
281
     1
  3
ACAD_XREC_ROUNDTRIP
360
160F
  0
DICTIONARY
  5
1616
330
15BF
100
AcDbDictionary
280
     1
281
     1
  3
ACAD_XREC_ROUNDTRIP
360
1617
  0
DICTIONARY
  5
1608
330
15B8
100
AcDbDictionary
280
     1
281
     1
  3
ACAD_XREC_ROUNDTRIP
360
1609
  0
DICTIONARY
  5
160C
330
15BA
100
AcDbDictionary
280
     1
281
     1
  3
ACAD_XREC_ROUNDTRIP
360
160D
  0
DICTIONARY
  5
161C
330
15C2
100
AcDbDictionary
280
     1
281
     1
  3
ACAD_XREC_ROUNDTRIP
360
161D
  0
DICTIONARY
  5
1614
330
15BE
100
AcDbDictionary
280
     1
281
     1
  3
ACAD_XREC_ROUNDTRIP
360
1615
  0
DICTIONARY
  5
15F8
330
15B0
100
AcDbDictionary
280
     1
281
     1
  3
ACAD_XREC_ROUNDTRIP
360
15F9
  0
DICTIONARY
  5
15FA
330
15B1
100
AcDbDictionary
280
     1
281
     1
  3
ACAD_XREC_ROUNDTRIP
360
15FB
  0
DICTIONARY
  5
15FC
330
15B2
100
AcDbDictionary
280
     1
281
     1
  3
ACAD_XREC_ROUNDTRIP
360
15FD
  0
DICTIONARY
  5
15FE
330
15B3
100
AcDbDictionary
280
     1
281
     1
  3
ACAD_XREC_ROUNDTRIP
360
15FF
  0
DICTIONARY
  5
1618
330
15C0
100
AcDbDictionary
280
     1
281
     1
  3
ACAD_XREC_ROUNDTRIP
360
1619
  0
DICTIONARY
  5
1612
330
15BD
100
AcDbDictionary
280
     1
281
     1
  3
ACAD_XREC_ROUNDTRIP
360
1613
  0
DICTIONARY
  5
161A
330
15C1
100
AcDbDictionary
280
     1
281
     1
  3
ACAD_XREC_ROUNDTRIP
360
161B
  0
DICTIONARY
  5
160A
330
15B9
100
AcDbDictionary
280
     1
281
     1
  3
ACAD_XREC_ROUNDTRIP
360
160B
  0
DICTIONARY
  5
1610
330
15BC
100
AcDbDictionary
280
     1
281
     1
  3
ACAD_XREC_ROUNDTRIP
360
1611
  0
XRECORD
  5
15A2
102
{ACAD_REACTORS
330
15A0
102
}
330
15A0
100
AcDbXrecord
280
     1
270
     1
271
     1
  0
XRECORD
  5
15A1
102
{ACAD_REACTORS
330
15A0
102
}
330
15A0
100
AcDbXrecord
280
     1
270
     1
271
     1
  0
XRECORD
  5
15A5
102
{ACAD_REACTORS
330
15A0
102
}
330
15A0
100
AcDbXrecord
280
     1
270
     1
271
     1
  0
XRECORD
  5
15A4
102
{ACAD_REACTORS
330
15A0
102
}
330
15A0
100
AcDbXrecord
280
     1
270
     1
271
     1
  0
XRECORD
  5
15A6
102
{ACAD_REACTORS
330
15A0
102
}
330
15A0
100
AcDbXrecord
280
     1
270
     1
271
     1
  0
XRECORD
  5
15A3
102
{ACAD_REACTORS
330
15A0
102
}
330
15A0
100
AcDbXrecord
280
     1
270
     1
271
     1
  0
XRECORD
  5
159A
102
{ACAD_REACTORS
330
1598
102
}
330
1598
100
AcDbXrecord
280
     1
270
     1
271
     1
  0
XRECORD
  5
1599
102
{ACAD_REACTORS
330
1598
102
}
330
1598
100
AcDbXrecord
280
     1
270
     1
271
     1
  0
XRECORD
  5
159D
102
{ACAD_REACTORS
330
1598
102
}
330
1598
100
AcDbXrecord
280
     1
270
     1
271
     1
  0
XRECORD
  5
159C
102
{ACAD_REACTORS
330
1598
102
}
330
1598
100
AcDbXrecord
280
     1
270
     1
271
     1
  0
XRECORD
  5
159E
102
{ACAD_REACTORS
330
1598
102
}
330
1598
100
AcDbXrecord
280
     1
270
     1
271
     1
  0
XRECORD
  5
159B
102
{ACAD_REACTORS
330
1598
102
}
330
1598
100
AcDbXrecord
280
     1
270
     1
271
     1
  0
XRECORD
  5
15AA
102
{ACAD_REACTORS
330
15A8
102
}
330
15A8
100
AcDbXrecord
280
     1
270
     1
271
     1
  0
XRECORD
  5
15A9
102
{ACAD_REACTORS
330
15A8
102
}
330
15A8
100
AcDbXrecord
280
     1
270
     1
271
     1
  0
XRECORD
  5
15AD
102
{ACAD_REACTORS
330
15A8
102
}
330
15A8
100
AcDbXrecord
280
     1
270
     1
271
     1
  0
XRECORD
  5
15AC
102
{ACAD_REACTORS
330
15A8
102
}
330
15A8
100
AcDbXrecord
280
     1
270
     1
271
     1
  0
XRECORD
  5
15AE
102
{ACAD_REACTORS
330
15A8
102
}
330
15A8
100
AcDbXrecord
280
     1
270
     1
271
     1
  0
XRECORD
  5
15AB
102
{ACAD_REACTORS
330
15A8
102
}
330
15A8
100
AcDbXrecord
280
     1
270
     1
271
     1
  0
CELLSTYLEMAP
  5
1675
102
{ACAD_REACTORS
330
15EC
102
}
330
15EC
100
AcDbCellStyleMap
 90
        3
300
CELLSTYLE
  1
TABLEFORMAT_BEGIN
 90
        5
170
     1
 91
        0
 92
    32768
 62
   257
 93
        1
300
CONTENTFORMAT
  1
CONTENTFORMAT_BEGIN
 90
        0
 91
        0
 92
      512
 93
        0
300

 40
0.0
140
1.0
 94
        5
 62
     0
340
11
144
0.25
309
CONTENTFORMAT_END
171
     0
 94
        0
309
TABLEFORMAT_END
  1
CELLSTYLE_BEGIN
 90
        1
 91
        1
300
_TITLE
309
CELLSTYLE_END
300
CELLSTYLE
  1
TABLEFORMAT_BEGIN
 90
        5
170
     1
 91
        0
 92
        0
 62
   257
 93
        1
300
CONTENTFORMAT
  1
CONTENTFORMAT_BEGIN
 90
        0
 91
        0
 92
      512
 93
        0
300

 40
0.0
140
1.0
 94
        5
 62
     0
340
11
144
0.18
309
CONTENTFORMAT_END
171
     0
 94
        0
309
TABLEFORMAT_END
  1
CELLSTYLE_BEGIN
 90
        2
 91
        1
300
_HEADER
309
CELLSTYLE_END
300
CELLSTYLE
  1
TABLEFORMAT_BEGIN
 90
        5
170
     1
 91
        0
 92
        0
 62
   257
 93
        1
300
CONTENTFORMAT
  1
CONTENTFORMAT_BEGIN
 90
        0
 91
        0
 92
      512
 93
        0
300

 40
0.0
140
1.0
 94
        2
 62
     0
340
11
144
0.18
309
CONTENTFORMAT_END
171
     0
 94
        0
309
TABLEFORMAT_END
  1
CELLSTYLE_BEGIN
 90
        3
 91
        2
300
_DATA
309
CELLSTYLE_END
  0
XRECORD
  5
1603
102
{ACAD_REACTORS
330
1602
102
}
330
1602
100
AcDbXrecord
280
     1
102
RTVSPropertyOp0
 70
     1
102
RTVSPropertyOp1
 70
     1
102
RTVSPropertyOp2
 70
     1
102
RTVSPropertyOp3
 70
     1
102
RTVSPropertyOp4
 70
     1
102
RTVSPropertyOp5
 70
     1
102
RTVSPropertyOp6
 70
     1
102
RTVSPropertyOp7
 70
     1
102
RTVSPropertyOp8
 70
     1
102
RTVSPropertyOp9
 70
     1
102
RTVSPropertyOp10
 70
     1
102
RTVSPropertyOp11
 70
     1
102
RTVSPropertyOp12
 70
     1
102
RTVSPropertyOp13
 70
     1
102
RTVSPropertyOp14
 70
     1
102
RTVSPropertyOp15
 70
     1
102
RTVSPropertyOp16
 70
     1
102
RTVSPropertyOp17
 70
     1
102
RTVSPropertyOp18
 70
     1
102
RTVSPropertyOp19
 70
     1
102
RTVSPropertyOp20
 70
     1
102
RTVSPropertyOp21
 70
     1
102
RTVSPropertyOp22
 70
     1
102
RTVSPropertyOp23
 70
     1
102
RTVSPropertyOp24
 70
     1
102
RTVSPropertyOp25
 70
     1
102
RTVSPropertyOp26
 70
     1
102
RTVSPropertyOp27
 70
     1
  0
XRECORD
  5
1607
102
{ACAD_REACTORS
330
1606
102
}
330
1606
100
AcDbXrecord
280
     1
102
RTVSPropertyOp0
 70
     1
102
RTVSPropertyOp1
 70
     1
102
RTVSPropertyOp2
 70
     1
102
RTVSPropertyOp3
 70
     1
102
RTVSPropertyOp4
 70
     1
102
RTVSPropertyOp5
 70
     1
102
RTVSPropertyOp6
 70
     1
102
RTVSPropertyOp7
 70
     1
102
RTVSPropertyOp8
 70
     1
102
RTVSPropertyOp9
 70
     1
102
RTVSPropertyOp10
 70
     1
102
RTVSPropertyOp11
 70
     1
102
RTVSPropertyOp12
 70
     1
102
RTVSPropertyOp13
 70
     1
102
RTVSPropertyOp14
 70
     1
102
RTVSPropertyOp15
 70
     1
102
RTVSPropertyOp16
 70
     1
102
RTVSPropertyOp17
 70
     1
102
RTVSPropertyOp18
 70
     1
102
RTVSPropertyOp19
 70
     1
102
RTVSPropertyOp20
 70
     1
102
RTVSPropertyOp21
 70
     1
102
RTVSPropertyOp22
 70
     1
102
RTVSPropertyOp23
 70
     1
102
RTVSPropertyOp24
 70
     1
102
RTVSPropertyOp25
 70
     1
102
RTVSPropertyOp26
 70
     1
102
RTVSPropertyOp27
 70
     1
  0
XRECORD
  5
1605
102
{ACAD_REACTORS
330
1604
102
}
330
1604
100
AcDbXrecord
280
     1
102
RTVSPropertyOp0
 70
     1
102
RTVSPropertyOp1
 70
     1
102
RTVSPropertyOp2
 70
     1
102
RTVSPropertyOp3
 70
     1
102
RTVSPropertyOp4
 70
     1
102
RTVSPropertyOp5
 70
     1
102
RTVSPropertyOp6
 70
     1
102
RTVSPropertyOp7
 70
     1
102
RTVSPropertyOp8
 70
     1
102
RTVSPropertyOp9
 70
     1
102
RTVSPropertyOp10
 70
     1
102
RTVSPropertyOp11
 70
     1
102
RTVSPropertyOp12
 70
     1
102
RTVSPropertyOp13
 70
     1
102
RTVSPropertyOp14
 70
     1
102
RTVSPropertyOp15
 70
     1
102
RTVSPropertyOp16
 70
     1
102
RTVSPropertyOp17
 70
     1
102
RTVSPropertyOp18
 70
     1
102
RTVSPropertyOp19
 70
     1
102
RTVSPropertyOp20
 70
     1
102
RTVSPropertyOp21
 70
     1
102
RTVSPropertyOp22
 70
     1
102
RTVSPropertyOp23
 70
     1
102
RTVSPropertyOp24
 70
     1
102
RTVSPropertyOp25
 70
     1
102
RTVSPropertyOp26
 70
     1
102
RTVSPropertyOp27
 70
     1
  0
XRECORD
  5
1601
102
{ACAD_REACTORS
330
1600
102
}
330
1600
100
AcDbXrecord
280
     1
102
RTVSPropertyOp0
 70
     1
102
RTVSPropertyOp1
 70
     1
102
RTVSPropertyOp2
 70
     1
102
RTVSPropertyOp3
 70
     1
102
RTVSPropertyOp4
 70
     1
102
RTVSPropertyOp5
 70
     1
102
RTVSPropertyOp6
 70
     1
102
RTVSPropertyOp7
 70
     1
102
RTVSPropertyOp8
 70
     1
102
RTVSPropertyOp9
 70
     1
102
RTVSPropertyOp10
 70
     1
102
RTVSPropertyOp11
 70
     1
102
RTVSPropertyOp12
 70
     1
102
RTVSPropertyOp13
 70
     1
102
RTVSPropertyOp14
 70
     1
102
RTVSPropertyOp15
 70
     1
102
RTVSPropertyOp16
 70
     1
102
RTVSPropertyOp17
 70
     1
102
RTVSPropertyOp18
 70
     1
102
RTVSPropertyOp19
 70
     1
102
RTVSPropertyOp20
 70
     1
102
RTVSPropertyOp21
 70
     1
102
RTVSPropertyOp22
 70
     1
102
RTVSPropertyOp23
 70
     1
102
RTVSPropertyOp24
 70
     1
102
RTVSPropertyOp25
 70
     1
102
RTVSPropertyOp26
 70
     1
102
RTVSPropertyOp27
 70
     1
  0
XRECORD
  5
160F
102
{ACAD_REACTORS
330
160E
102
}
330
160E
100
AcDbXrecord
280
     1
102
RTVSPropertyOp0
 70
     1
102
RTVSPropertyOp1
 70
     1
102
RTVSPropertyOp2
 70
     1
102
RTVSPropertyOp3
 70
     1
102
RTVSPropertyOp4
 70
     1
102
RTVSPropertyOp5
 70
     1
102
RTVSPropertyOp6
 70
     1
102
RTVSPropertyOp7
 70
     1
102
RTVSPropertyOp8
 70
     1
102
RTVSPropertyOp9
 70
     1
102
RTVSPropertyOp10
 70
     1
102
RTVSPropertyOp11
 70
     1
102
RTVSPropertyOp12
 70
     1
102
RTVSPropertyOp13
 70
     1
102
RTVSPropertyOp14
 70
     1
102
RTVSPropertyOp15
 70
     1
102
RTVSPropertyOp16
 70
     1
102
RTVSPropertyOp17
 70
     1
102
RTVSPropertyOp18
 70
     1
102
RTVSPropertyOp19
 70
     1
102
RTVSPropertyOp20
 70
     1
102
RTVSPropertyOp21
 70
     1
102
RTVSPropertyOp22
 70
     1
102
RTVSPropertyOp23
 70
     1
102
RTVSPropertyOp24
 70
     1
102
RTVSPropertyOp25
 70
     1
102
RTVSPropertyOp26
 70
     1
102
RTVSPropertyOp27
 70
     1
  0
XRECORD
  5
1617
102
{ACAD_REACTORS
330
1616
102
}
330
1616
100
AcDbXrecord
280
     1
102
RTVSPropertyOp0
 70
     1
102
RTVSPropertyOp1
 70
     1
102
RTVSPropertyOp2
 70
     1
102
RTVSPropertyOp3
 70
     1
102
RTVSPropertyOp4
 70
     1
102
RTVSPropertyOp5
 70
     1
102
RTVSPropertyOp6
 70
     1
102
RTVSPropertyOp7
 70
     1
102
RTVSPropertyOp8
 70
     1
102
RTVSPropertyOp9
 70
     1
102
RTVSPropertyOp10
 70
     1
102
RTVSPropertyOp11
 70
     1
102
RTVSPropertyOp12
 70
     1
102
RTVSPropertyOp13
 70
     1
102
RTVSPropertyOp14
 70
     1
102
RTVSPropertyOp15
 70
     1
102
RTVSPropertyOp16
 70
     1
102
RTVSPropertyOp17
 70
     1
102
RTVSPropertyOp18
 70
     1
102
RTVSPropertyOp19
 70
     1
102
RTVSPropertyOp20
 70
     1
102
RTVSPropertyOp21
 70
     1
102
RTVSPropertyOp22
 70
     1
102
RTVSPropertyOp23
 70
     1
102
RTVSPropertyOp24
 70
     1
102
RTVSPropertyOp25
 70
     1
102
RTVSPropertyOp26
 70
     1
102
RTVSPropertyOp27
 70
     1
  0
XRECORD
  5
1609
102
{ACAD_REACTORS
330
1608
102
}
330
1608
100
AcDbXrecord
280
     1
102
RTVSPropertyOp0
 70
     1
102
RTVSPropertyOp1
 70
     1
102
RTVSPropertyOp2
 70
     1
102
RTVSPropertyOp3
 70
     1
102
RTVSPropertyOp4
 70
     1
102
RTVSPropertyOp5
 70
     1
102
RTVSPropertyOp6
 70
     1
102
RTVSPropertyOp7
 70
     1
102
RTVSPropertyOp8
 70
     1
102
RTVSPropertyOp9
 70
     1
102
RTVSPropertyOp10
 70
     1
102
RTVSPropertyOp11
 70
     1
102
RTVSPropertyOp12
 70
     1
102
RTVSPropertyOp13
 70
     1
102
RTVSPropertyOp14
 70
     1
102
RTVSPropertyOp15
 70
     1
102
RTVSPropertyOp16
 70
     1
102
RTVSPropertyOp17
 70
     1
102
RTVSPropertyOp18
 70
     1
102
RTVSPropertyOp19
 70
     1
102
RTVSPropertyOp20
 70
     1
102
RTVSPropertyOp21
 70
     1
102
RTVSPropertyOp22
 70
     1
102
RTVSPropertyOp23
 70
     1
102
RTVSPropertyOp24
 70
     1
102
RTVSPropertyOp25
 70
     1
102
RTVSPropertyOp26
 70
     1
102
RTVSPropertyOp27
 70
     1
  0
XRECORD
  5
160D
102
{ACAD_REACTORS
330
160C
102
}
330
160C
100
AcDbXrecord
280
     1
102
RTVSPropertyOp0
 70
     1
102
RTVSPropertyOp1
 70
     1
102
RTVSPropertyOp2
 70
     1
102
RTVSPropertyOp3
 70
     1
102
RTVSPropertyOp4
 70
     1
102
RTVSPropertyOp5
 70
     1
102
RTVSPropertyOp6
 70
     1
102
RTVSPropertyOp7
 70
     1
102
RTVSPropertyOp8
 70
     1
102
RTVSPropertyOp9
 70
     1
102
RTVSPropertyOp10
 70
     1
102
RTVSPropertyOp11
 70
     1
102
RTVSPropertyOp12
 70
     1
102
RTVSPropertyOp13
 70
     1
102
RTVSPropertyOp14
 70
     1
102
RTVSPropertyOp15
 70
     1
102
RTVSPropertyOp16
 70
     1
102
RTVSPropertyOp17
 70
     1
102
RTVSPropertyOp18
 70
     1
102
RTVSPropertyOp19
 70
     1
102
RTVSPropertyOp20
 70
     1
102
RTVSPropertyOp21
 70
     1
102
RTVSPropertyOp22
 70
     1
102
RTVSPropertyOp23
 70
     1
102
RTVSPropertyOp24
 70
     1
102
RTVSPropertyOp25
 70
     1
102
RTVSPropertyOp26
 70
     1
102
RTVSPropertyOp27
 70
     1
  0
XRECORD
  5
161D
102
{ACAD_REACTORS
330
161C
102
}
330
161C
100
AcDbXrecord
280
     1
102
RTVSPropertyOp0
 70
     0
102
RTVSPropertyOp1
 70
     0
102
RTVSPropertyOp2
 70
     0
102
RTVSPropertyOp3
 70
     0
102
RTVSPropertyOp4
 70
     0
102
RTVSPropertyOp5
 70
     0
102
RTVSPropertyOp6
 70
     0
102
RTVSPropertyOp7
 70
     0
102
RTVSPropertyOp8
 70
     0
102
RTVSPropertyOp9
 70
     0
102
RTVSPropertyOp10
 70
     0
102
RTVSPropertyOp11
 70
     0
102
RTVSPropertyOp12
 70
     0
102
RTVSPropertyOp13
 70
     0
102
RTVSPropertyOp14
 70
     2
102
RTVSPropertyOp15
 70
     0
102
RTVSPropertyOp16
 70
     0
102
RTVSPropertyOp17
 70
     0
102
RTVSPropertyOp18
 70
     0
102
RTVSPropertyOp19
 70
     0
102
RTVSPropertyOp20
 70
     0
102
RTVSPropertyOp21
 70
     0
102
RTVSPropertyOp22
 70
     0
102
RTVSPropertyOp23
 70
     0
102
RTVSPropertyOp24
 70
     0
102
RTVSPropertyOp25
 70
     0
102
RTVSPropertyOp26
 70
     0
102
RTVSPropertyOp27
 70
     0
  0
XRECORD
  5
1615
102
{ACAD_REACTORS
330
1614
102
}
330
1614
100
AcDbXrecord
280
     1
102
RTVSPropertyOp0
 70
     1
102
RTVSPropertyOp1
 70
     1
102
RTVSPropertyOp2
 70
     1
102
RTVSPropertyOp3
 70
     1
102
RTVSPropertyOp4
 70
     1
102
RTVSPropertyOp5
 70
     1
102
RTVSPropertyOp6
 70
     1
102
RTVSPropertyOp7
 70
     1
102
RTVSPropertyOp8
 70
     1
102
RTVSPropertyOp9
 70
     1
102
RTVSPropertyOp10
 70
     1
102
RTVSPropertyOp11
 70
     1
102
RTVSPropertyOp12
 70
     1
102
RTVSPropertyOp13
 70
     1
102
RTVSPropertyOp14
 70
     1
102
RTVSPropertyOp15
 70
     1
102
RTVSPropertyOp16
 70
     1
102
RTVSPropertyOp17
 70
     1
102
RTVSPropertyOp18
 70
     1
102
RTVSPropertyOp19
 70
     1
102
RTVSPropertyOp20
 70
     1
102
RTVSPropertyOp21
 70
     1
102
RTVSPropertyOp22
 70
     1
102
RTVSPropertyOp23
 70
     1
102
RTVSPropertyOp24
 70
     1
102
RTVSPropertyOp25
 70
     1
102
RTVSPropertyOp26
 70
     1
102
RTVSPropertyOp27
 70
     1
  0
XRECORD
  5
15F9
102
{ACAD_REACTORS
330
15F8
102
}
330
15F8
100
AcDbXrecord
280
     1
102
RTVSPropertyOp0
 70
     1
102
RTVSPropertyOp1
 70
     1
102
RTVSPropertyOp2
 70
     1
102
RTVSPropertyOp3
 70
     1
102
RTVSPropertyOp4
 70
     1
102
RTVSPropertyOp5
 70
     1
102
RTVSPropertyOp6
 70
     1
102
RTVSPropertyOp7
 70
     1
102
RTVSPropertyOp8
 70
     1
102
RTVSPropertyOp9
 70
     1
102
RTVSPropertyOp10
 70
     1
102
RTVSPropertyOp11
 70
     1
102
RTVSPropertyOp12
 70
     1
102
RTVSPropertyOp13
 70
     1
102
RTVSPropertyOp14
 70
     1
102
RTVSPropertyOp15
 70
     1
102
RTVSPropertyOp16
 70
     1
102
RTVSPropertyOp17
 70
     1
102
RTVSPropertyOp18
 70
     1
102
RTVSPropertyOp19
 70
     1
102
RTVSPropertyOp20
 70
     1
102
RTVSPropertyOp21
 70
     1
102
RTVSPropertyOp22
 70
     1
102
RTVSPropertyOp23
 70
     1
102
RTVSPropertyOp24
 70
     1
102
RTVSPropertyOp25
 70
     1
102
RTVSPropertyOp26
 70
     1
102
RTVSPropertyOp27
 70
     1
  0
XRECORD
  5
15FB
102
{ACAD_REACTORS
330
15FA
102
}
330
15FA
100
AcDbXrecord
280
     1
102
RTVSPropertyOp0
 70
     1
102
RTVSPropertyOp1
 70
     1
102
RTVSPropertyOp2
 70
     1
102
RTVSPropertyOp3
 70
     1
102
RTVSPropertyOp4
 70
     1
102
RTVSPropertyOp5
 70
     1
102
RTVSPropertyOp6
 70
     1
102
RTVSPropertyOp7
 70
     1
102
RTVSPropertyOp8
 70
     1
102
RTVSPropertyOp9
 70
     1
102
RTVSPropertyOp10
 70
     1
102
RTVSPropertyOp11
 70
     1
102
RTVSPropertyOp12
 70
     1
102
RTVSPropertyOp13
 70
     1
102
RTVSPropertyOp14
 70
     1
102
RTVSPropertyOp15
 70
     1
102
RTVSPropertyOp16
 70
     1
102
RTVSPropertyOp17
 70
     1
102
RTVSPropertyOp18
 70
     1
102
RTVSPropertyOp19
 70
     1
102
RTVSPropertyOp20
 70
     1
102
RTVSPropertyOp21
 70
     1
102
RTVSPropertyOp22
 70
     1
102
RTVSPropertyOp23
 70
     1
102
RTVSPropertyOp24
 70
     1
102
RTVSPropertyOp25
 70
     1
102
RTVSPropertyOp26
 70
     1
102
RTVSPropertyOp27
 70
     1
  0
XRECORD
  5
15FD
102
{ACAD_REACTORS
330
15FC
102
}
330
15FC
100
AcDbXrecord
280
     1
102
RTVSPropertyOp0
 70
     1
102
RTVSPropertyOp1
 70
     1
102
RTVSPropertyOp2
 70
     1
102
RTVSPropertyOp3
 70
     1
102
RTVSPropertyOp4
 70
     1
102
RTVSPropertyOp5
 70
     1
102
RTVSPropertyOp6
 70
     1
102
RTVSPropertyOp7
 70
     1
102
RTVSPropertyOp8
 70
     1
102
RTVSPropertyOp9
 70
     1
102
RTVSPropertyOp10
 70
     1
102
RTVSPropertyOp11
 70
     1
102
RTVSPropertyOp12
 70
     1
102
RTVSPropertyOp13
 70
     1
102
RTVSPropertyOp14
 70
     1
102
RTVSPropertyOp15
 70
     1
102
RTVSPropertyOp16
 70
     1
102
RTVSPropertyOp17
 70
     1
102
RTVSPropertyOp18
 70
     1
102
RTVSPropertyOp19
 70
     1
102
RTVSPropertyOp20
 70
     1
102
RTVSPropertyOp21
 70
     1
102
RTVSPropertyOp22
 70
     1
102
RTVSPropertyOp23
 70
     1
102
RTVSPropertyOp24
 70
     1
102
RTVSPropertyOp25
 70
     1
102
RTVSPropertyOp26
 70
     1
102
RTVSPropertyOp27
 70
     1
  0
XRECORD
  5
15FF
102
{ACAD_REACTORS
330
15FE
102
}
330
15FE
100
AcDbXrecord
280
     1
102
RTVSPropertyOp0
 70
     1
102
RTVSPropertyOp1
 70
     1
102
RTVSPropertyOp2
 70
     1
102
RTVSPropertyOp3
 70
     1
102
RTVSPropertyOp4
 70
     1
102
RTVSPropertyOp5
 70
     1
102
RTVSPropertyOp6
 70
     1
102
RTVSPropertyOp7
 70
     1
102
RTVSPropertyOp8
 70
     1
102
RTVSPropertyOp9
 70
     1
102
RTVSPropertyOp10
 70
     1
102
RTVSPropertyOp11
 70
     1
102
RTVSPropertyOp12
 70
     1
102
RTVSPropertyOp13
 70
     1
102
RTVSPropertyOp14
 70
     1
102
RTVSPropertyOp15
 70
     1
102
RTVSPropertyOp16
 70
     1
102
RTVSPropertyOp17
 70
     1
102
RTVSPropertyOp18
 70
     1
102
RTVSPropertyOp19
 70
     1
102
RTVSPropertyOp20
 70
     1
102
RTVSPropertyOp21
 70
     1
102
RTVSPropertyOp22
 70
     1
102
RTVSPropertyOp23
 70
     1
102
RTVSPropertyOp24
 70
     1
102
RTVSPropertyOp25
 70
     1
102
RTVSPropertyOp26
 70
     1
102
RTVSPropertyOp27
 70
     1
  0
XRECORD
  5
1619
102
{ACAD_REACTORS
330
1618
102
}
330
1618
100
AcDbXrecord
280
     1
102
RTVSPropertyOp0
 70
     0
102
RTVSPropertyOp1
 70
     0
102
RTVSPropertyOp2
 70
     0
102
RTVSPropertyOp3
 70
     0
102
RTVSPropertyOp4
 70
     0
102
RTVSPropertyOp5
 70
     0
102
RTVSPropertyOp6
 70
     0
102
RTVSPropertyOp7
 70
     0
102
RTVSPropertyOp8
 70
     0
102
RTVSPropertyOp9
 70
     0
102
RTVSPropertyOp10
 70
     0
102
RTVSPropertyOp11
 70
     0
102
RTVSPropertyOp12
 70
     0
102
RTVSPropertyOp13
 70
     0
102
RTVSPropertyOp14
 70
     2
102
RTVSPropertyOp15
 70
     0
102
RTVSPropertyOp16
 70
     0
102
RTVSPropertyOp17
 70
     0
102
RTVSPropertyOp18
 70
     0
102
RTVSPropertyOp19
 70
     0
102
RTVSPropertyOp20
 70
     0
102
RTVSPropertyOp21
 70
     0
102
RTVSPropertyOp22
 70
     0
102
RTVSPropertyOp23
 70
     0
102
RTVSPropertyOp24
 70
     0
102
RTVSPropertyOp25
 70
     0
102
RTVSPropertyOp26
 70
     0
102
RTVSPropertyOp27
 70
     0
  0
XRECORD
  5
1613
102
{ACAD_REACTORS
330
1612
102
}
330
1612
100
AcDbXrecord
280
     1
102
RTVSPropertyOp0
 70
     1
102
RTVSPropertyOp1
 70
     1
102
RTVSPropertyOp2
 70
     1
102
RTVSPropertyOp3
 70
     1
102
RTVSPropertyOp4
 70
     1
102
RTVSPropertyOp5
 70
     1
102
RTVSPropertyOp6
 70
     1
102
RTVSPropertyOp7
 70
     1
102
RTVSPropertyOp8
 70
     1
102
RTVSPropertyOp9
 70
     1
102
RTVSPropertyOp10
 70
     1
102
RTVSPropertyOp11
 70
     1
102
RTVSPropertyOp12
 70
     1
102
RTVSPropertyOp13
 70
     1
102
RTVSPropertyOp14
 70
     1
102
RTVSPropertyOp15
 70
     1
102
RTVSPropertyOp16
 70
     1
102
RTVSPropertyOp17
 70
     1
102
RTVSPropertyOp18
 70
     1
102
RTVSPropertyOp19
 70
     1
102
RTVSPropertyOp20
 70
     1
102
RTVSPropertyOp21
 70
     1
102
RTVSPropertyOp22
 70
     1
102
RTVSPropertyOp23
 70
     1
102
RTVSPropertyOp24
 70
     1
102
RTVSPropertyOp25
 70
     1
102
RTVSPropertyOp26
 70
     1
102
RTVSPropertyOp27
 70
     1
  0
XRECORD
  5
161B
102
{ACAD_REACTORS
330
161A
102
}
330
161A
100
AcDbXrecord
280
     1
102
RTVSPropertyOp0
 70
     0
102
RTVSPropertyOp1
 70
     0
102
RTVSPropertyOp2
 70
     0
102
RTVSPropertyOp3
 70
     0
102
RTVSPropertyOp4
 70
     0
102
RTVSPropertyOp5
 70
     0
102
RTVSPropertyOp6
 70
     0
102
RTVSPropertyOp7
 70
     0
102
RTVSPropertyOp8
 70
     0
102
RTVSPropertyOp9
 70
     0
102
RTVSPropertyOp10
 70
     0
102
RTVSPropertyOp11
 70
     0
102
RTVSPropertyOp12
 70
     0
102
RTVSPropertyOp13
 70
     0
102
RTVSPropertyOp14
 70
     2
102
RTVSPropertyOp15
 70
     0
102
RTVSPropertyOp16
 70
     0
102
RTVSPropertyOp17
 70
     0
102
RTVSPropertyOp18
 70
     0
102
RTVSPropertyOp19
 70
     0
102
RTVSPropertyOp20
 70
     0
102
RTVSPropertyOp21
 70
     0
102
RTVSPropertyOp22
 70
     0
102
RTVSPropertyOp23
 70
     0
102
RTVSPropertyOp24
 70
     0
102
RTVSPropertyOp25
 70
     0
102
RTVSPropertyOp26
 70
     0
102
RTVSPropertyOp27
 70
     0
  0
XRECORD
  5
160B
102
{ACAD_REACTORS
330
160A
102
}
330
160A
100
AcDbXrecord
280
     1
102
RTVSPropertyOp0
 70
     1
102
RTVSPropertyOp1
 70
     1
102
RTVSPropertyOp2
 70
     1
102
RTVSPropertyOp3
 70
     1
102
RTVSPropertyOp4
 70
     1
102
RTVSPropertyOp5
 70
     1
102
RTVSPropertyOp6
 70
     1
102
RTVSPropertyOp7
 70
     1
102
RTVSPropertyOp8
 70
     1
102
RTVSPropertyOp9
 70
     1
102
RTVSPropertyOp10
 70
     1
102
RTVSPropertyOp11
 70
     1
102
RTVSPropertyOp12
 70
     1
102
RTVSPropertyOp13
 70
     1
102
RTVSPropertyOp14
 70
     1
102
RTVSPropertyOp15
 70
     1
102
RTVSPropertyOp16
 70
     1
102
RTVSPropertyOp17
 70
     1
102
RTVSPropertyOp18
 70
     1
102
RTVSPropertyOp19
 70
     1
102
RTVSPropertyOp20
 70
     1
102
RTVSPropertyOp21
 70
     1
102
RTVSPropertyOp22
 70
     1
102
RTVSPropertyOp23
 70
     1
102
RTVSPropertyOp24
 70
     1
102
RTVSPropertyOp25
 70
     1
102
RTVSPropertyOp26
 70
     1
102
RTVSPropertyOp27
 70
     1
  0
XRECORD
  5
1611
102
{ACAD_REACTORS
330
1610
102
}
330
1610
100
AcDbXrecord
280
     1
102
RTVSPropertyOp0
 70
     1
102
RTVSPropertyOp1
 70
     1
102
RTVSPropertyOp2
 70
     1
102
RTVSPropertyOp3
 70
     1
102
RTVSPropertyOp4
 70
     1
102
RTVSPropertyOp5
 70
     1
102
RTVSPropertyOp6
 70
     1
102
RTVSPropertyOp7
 70
     1
102
RTVSPropertyOp8
 70
     1
102
RTVSPropertyOp9
 70
     1
102
RTVSPropertyOp10
 70
     1
102
RTVSPropertyOp11
 70
     1
102
RTVSPropertyOp12
 70
     1
102
RTVSPropertyOp13
 70
     1
102
RTVSPropertyOp14
 70
     1
102
RTVSPropertyOp15
 70
     1
102
RTVSPropertyOp16
 70
     1
102
RTVSPropertyOp17
 70
     1
102
RTVSPropertyOp18
 70
     1
102
RTVSPropertyOp19
 70
     1
102
RTVSPropertyOp20
 70
     1
102
RTVSPropertyOp21
 70
     1
102
RTVSPropertyOp22
 70
     1
102
RTVSPropertyOp23
 70
     1
102
RTVSPropertyOp24
 70
     1
102
RTVSPropertyOp25
 70
     1
102
RTVSPropertyOp26
 70
     1
102
RTVSPropertyOp27
 70
     1
  0
ENDSEC
  0
EOF
