  0
SECTION
  2
HEADER
  9
$ACADVER
  1
AC1014
  9
$DWGCODEPAGE
  3
ANSI_1252
  9
$EXTMAX
 10
22.0
 20
17.0
 30
0.0
  9
$EXTMIN
 10
0.0
 20
0.0
 30
0.0
  9
$LIMMIN
 10
0.0
 20
0.0
  9
$LIMMAX
 10
22.0
 20
17.0
  9
$VIEWCTR
 10
11.0
 20
8.5
  9
$VIEWSIZE
 40
17.0
  9
$CLAYER
  8
0
  9
$LTSCALE
 40
1.21
  9
$CELTYPE
  6
BYLAYER
  9
$DIMSCALE
 40
1.0
  9
$DIMASZ
 40
0.1875
  9
$DIMEXO
 40
0.1375
  9
$DIMDLI
 40
0.836
  9
$DIMEXE
 40
0.396
  9
$DIMCEN
 40
0.198
  9
$DIMLFAC
 40
1.0
  9
$DIMBLK
  1
_ARROW_FILLED
  9
$DIMTXT
 40
0.125
  9
$DIMTOL
 70
1
  9
$DIMLIM
 70
0
  9
$DIMTFAC
 40
1.0
  9
$DIMTP
 40
0.00001
  9
$DIMTM
 40
0.00001
  9
$PDMODE
 70
3
  9
$PDSIZE
 40
0.03125
  9
$HANDSEED
  5
3D9
  9
$TILEMODE
 70
1
  9
$MEASUREMENT
 70
0
  0
ENDSEC
  0
SECTION
  2
CLASSES
  0
ENDSEC
  0
SECTION
  2
TABLES
  0
TABLE
  2
VPORT
  5
8
100
AcDbSymbolTable
 70
2
  0
VPORT
  5
1F4
100
AcDbSymbolTableRecord
100
AcDbViewportTableRecord
  2
*ACTIVE
 70
0
 10
0.0
 20
0.0
 11
1.0
 21
1.0
 12
11.0
 22
8.5
 13
0.0
 23
0.0
 14
1.0
 24
1.0
 15
0.0
 25
0.0
 16
0.0
 26
0.0
 36
1.0
 17
0.0
 27
0.0
 37
0.0
 40
17.0
 41
1.2941176471
 42
50.0
 43
0.0
 44
0.0
 50
0.0
 51
0.0
 71
0
 72
100
 73
1
 74
1
 75
0
 76
0
 77
0
 78
0
  0
ENDTAB
  0
TABLE
  2
LTYPE
  5
5
100
AcDbSymbolTable
 70
6
  0
LTYPE
  5
14
100
AcDbSymbolTableRecord
100
AcDbLinetypeTableRecord
  2
BYBLOCK
 70
0
  3

 72
65
 73
0
 40
0.0
  0
LTYPE
  5
15
100
AcDbSymbolTableRecord
100
AcDbLinetypeTableRecord
  2
BYLAYER
 70
0
  3

 72
65
 73
0
 40
0.0
  0
LTYPE
  5
16
100
AcDbSymbolTableRecord
100
AcDbLinetypeTableRecord
  2
CONTINUOUS
 70
64
  3
Solid line
 72
65
 73
0
 40
0.0
  0
LTYPE
  5
1F5
100
AcDbSymbolTableRecord
100
AcDbLinetypeTableRecord
  2
CENTER
 70
64
  3
____ _ ____ _ ____ _ ____ _ ____ _ ____ _ ____
 72
65
 73
4
 40
0.6
 49
0.375
 74
0
 49
-0.075
 74
0
 49
0.075
 74
0
 49
-0.075
 74
0
  0
LTYPE
  5
1F6
100
AcDbSymbolTableRecord
100
AcDbLinetypeTableRecord
  2
HIDDEN
 70
64
  3
- - - - - - - - - - - - - - - - - - - -
 72
65
 73
2
 40
0.2
 49
0.1
 74
0
 49
-0.1
 74
0
  0
LTYPE
  5
1F7
100
AcDbSymbolTableRecord
100
AcDbLinetypeTableRecord
  2
PHANTOM
 70
64
  3
_____ _ _ _____ _ _ _____ _ _ _____
 72
65
 73
6
 40
0.8
 49
0.45
 74
0
 49
-0.05
 74
0
 49
0.1
 74
0
 49
-0.05
 74
0
 49
0.1
 74
0
 49
-0.05
 74
0
  0
LTYPE
  5
1F8
100
AcDbSymbolTableRecord
100
AcDbLinetypeTableRecord
  2
DOT
 70
64
  3
. . . . . . . . . . . . . . . . . . . .
 72
65
 73
2
 40
0.2
 49
0.1
 74
0
 49
-0.1
 74
0
  0
LTYPE
  5
1F9
100
AcDbSymbolTableRecord
100
AcDbLinetypeTableRecord
  2
DASHED
 70
64
  3
- - - - - - - - - - - - - - - - - - - -
 72
65
 73
2
 40
0.2
 49
0.1
 74
0
 49
-0.1
 74
0
  0
ENDTAB
  0
TABLE
  2
LAYER
  5
2
100
AcDbSymbolTable
 70
36
  0
LAYER
  5
10
100
AcDbSymbolTableRecord
100
AcDbLayerTableRecord
  2
0
 70
0
 62
7
  6
CONTINUOUS
  0
LAYER
  5
1FA
100
AcDbSymbolTableRecord
100
AcDbLayerTableRecord
  2
DEFAULT_1
 70
0
 62
7
  6
CENTER
  0
LAYER
  5
1FB
100
AcDbSymbolTableRecord
100
AcDbLayerTableRecord
  2
DEFAULT_2
 70
0
 62
8
  6
HIDDEN
  0
LAYER
  5
1FC
100
AcDbSymbolTableRecord
100
AcDbLayerTableRecord
  2
DEFAULT_3
 70
0
 62
7
  6
PHANTOM
  0
LAYER
  5
1FD
100
AcDbSymbolTableRecord
100
AcDbLayerTableRecord
  2
1_CURVES
 70
0
 62
7
  6
CONTINUOUS
  0
LAYER
  5
1FE
100
AcDbSymbolTableRecord
100
AcDbLayerTableRecord
  2
1_CURVES_CONDUIT
 70
0
 62
7
  6
CONTINUOUS
  0
LAYER
  5
1FF
100
AcDbSymbolTableRecord
100
AcDbLayerTableRecord
  2
1_CURVES_JETS
 70
0
 62
7
  6
CONTINUOUS
  0
LAYER
  5
200
100
AcDbSymbolTableRecord
100
AcDbLayerTableRecord
  2
1_CURVES_PATINS
 70
0
 62
7
  6
CONTINUOUS
  0
LAYER
  5
201
100
AcDbSymbolTableRecord
100
AcDbLayerTableRecord
  2
1_CURVES_RESURFACAGE
 70
0
 62
7
  6
CONTINUOUS
  0
LAYER
  5
202
100
AcDbSymbolTableRecord
100
AcDbLayerTableRecord
  2
1_CURVES_SPEC
 70
0
 62
7
  6
CONTINUOUS
  0
LAYER
  5
203
100
AcDbSymbolTableRecord
100
AcDbLayerTableRecord
  2
2_PLANES
 70
0
 62
7
  6
CONTINUOUS
  0
LAYER
  5
204
100
AcDbSymbolTableRecord
100
AcDbLayerTableRecord
  2
2_PLANES_JETS
 70
0
 62
7
  6
CONTINUOUS
  0
LAYER
  5
205
100
AcDbSymbolTableRecord
100
AcDbLayerTableRecord
  2
3_POINTS
 70
0
 62
7
  6
CONTINUOUS
  0
LAYER
  5
206
100
AcDbSymbolTableRecord
100
AcDbLayerTableRecord
  2
3_POINTS_JETS
 70
0
 62
7
  6
CONTINUOUS
  0
LAYER
  5
207
100
AcDbSymbolTableRecord
100
AcDbLayerTableRecord
  2
4_CSYS
 70
0
 62
7
  6
CONTINUOUS
  0
LAYER
  5
208
100
AcDbSymbolTableRecord
100
AcDbLayerTableRecord
  2
5_AXIS
 70
0
 62
7
  6
CONTINUOUS
  0
LAYER
  5
209
100
AcDbSymbolTableRecord
100
AcDbLayerTableRecord
  2
5_AXIS_JETS
 70
0
 62
7
  6
CONTINUOUS
  0
LAYER
  5
20A
100
AcDbSymbolTableRecord
100
AcDbLayerTableRecord
  2
6_AIRE_CONDUIT
 70
0
 62
7
  6
CONTINUOUS
  0
LAYER
  5
20B
100
AcDbSymbolTableRecord
100
AcDbLayerTableRecord
  2
6_SURFACE-OFFSET-FIBRE-ACRYLIQU
 70
0
 62
7
  6
CONTINUOUS
  0
LAYER
  5
20C
100
AcDbSymbolTableRecord
100
AcDbLayerTableRecord
  2
6_SURFACES
 70
0
 62
7
  6
CONTINUOUS
  0
LAYER
  5
20D
100
AcDbSymbolTableRecord
100
AcDbLayerTableRecord
  2
6_SURFACES-PATINS-SPEC
 70
0
 62
7
  6
CONTINUOUS
  0
LAYER
  5
20E
100
AcDbSymbolTableRecord
100
AcDbLayerTableRecord
  2
6_SURFACES_AIRE
 70
0
 62
7
  6
CONTINUOUS
  0
LAYER
  5
20F
100
AcDbSymbolTableRecord
100
AcDbLayerTableRecord
  2
6_SURFACES_OFFSET_FIBRE
 70
0
 62
7
  6
CONTINUOUS
  0
LAYER
  5
210
100
AcDbSymbolTableRecord
100
AcDbLayerTableRecord
  2
6_SURFACES_OFFSET_FIBRE_ACRYLIQ
 70
0
 62
7
  6
CONTINUOUS
  0
LAYER
  5
211
100
AcDbSymbolTableRecord
100
AcDbLayerTableRecord
  2
6_SURFACES_POUR_CONDUIT
 70
0
 62
7
  6
CONTINUOUS
  0
LAYER
  5
212
100
AcDbSymbolTableRecord
100
AcDbLayerTableRecord
  2
6_SURFACES_POUR_HFL
 70
0
 62
7
  6
CONTINUOUS
  0
LAYER
  5
213
100
AcDbSymbolTableRecord
100
AcDbLayerTableRecord
  2
6_SURFACES_TOOLING
 70
0
 62
7
  6
CONTINUOUS
  0
LAYER
  5
214
100
AcDbSymbolTableRecord
100
AcDbLayerTableRecord
  2
7_NOTES
 70
0
 62
7
  6
CONTINUOUS
  0
LAYER
  5
215
100
AcDbSymbolTableRecord
100
AcDbLayerTableRecord
  2
8_COSMETIC
 70
0
 62
7
  6
CONTINUOUS
  0
LAYER
  5
216
100
AcDbSymbolTableRecord
100
AcDbLayerTableRecord
  2
9_IMPORT
 70
0
 62
7
  6
CONTINUOUS
  0
LAYER
  5
217
100
AcDbSymbolTableRecord
100
AcDbLayerTableRecord
  2
DEGAGEMENT_SERIGRAPHIE
 70
0
 62
7
  6
CONTINUOUS
  0
LAYER
  5
218
100
AcDbSymbolTableRecord
100
AcDbLayerTableRecord
  2
NONE
 70
0
 62
7
  6
CONTINUOUS
  0
LAYER
  5
219
100
AcDbSymbolTableRecord
100
AcDbLayerTableRecord
  2
XSEC_DATUMS
 70
0
 62
7
  6
CONTINUOUS
  0
ENDTAB
  0
TABLE
  2
STYLE
  5
3
100
AcDbSymbolTable
 70
1
  0
STYLE
  5
11
100
AcDbSymbolTableRecord
100
AcDbTextStyleTableRecord
  2
STANDARD
 70
0
 40
0.0
 41
0.8
 50
0.0
 71
0
 42
0.2
  3
txt
  4

  0
STYLE
  5
21A
100
AcDbSymbolTableRecord
100
AcDbTextStyleTableRecord
  2
TEXTSTYLE_1
 70
0
 40
0.0
 41
0.8
 50
0.0
 71
0
 42
0.2
  3
gdt
  4

  0
ENDTAB
  0
TABLE
  2
VIEW
  5
6
100
AcDbSymbolTable
 70
0
  0
ENDTAB
  0
TABLE
  2
UCS
  5
7
100
AcDbSymbolTable
 70
0
  0
ENDTAB
  0
TABLE
  2
APPID
  5
9
100
AcDbSymbolTable
 70
1
  0
APPID
  5
21B
100
AcDbSymbolTableRecord
100
AcDbRegAppTableRecord
  2
ACAD
 70
0
  0
ENDTAB
  0
TABLE
  2
BLOCK_RECORD
  5
1
100
AcDbSymbolTable
 70
0
  0
BLOCK_RECORD
  5
1F
100
AcDbSymbolTableRecord
100
AcDbBlockTableRecord
  2
*MODEL_SPACE
  0
BLOCK_RECORD
  5
1B
100
AcDbSymbolTableRecord
100
AcDbBlockTableRecord
  2
*PAPER_SPACE
  0
ENDTAB
  0
TABLE
  2
DIMSTYLE
  5
A
100
AcDbSymbolTable
 70
1
  0
DIMSTYLE
105
21C
100
AcDbSymbolTableRecord
100
AcDbDimStyleTableRecord
  2
STANDARD
 70
0
  3

  4

  5
_ARROW_FILLED
  6
_ARROW_FILLED
  7
_ARROW_FILLED
 40
1.0
 41
0.1875
 42
0.0625
 43
0.38
 44
0.18
 45
0.0
 46
0.0
 47
0.00001
 48
0.00001
140
0.125
141
0.09
142
0.0
143
25.4
144
1.0
145
0.0
146
1.0
147
0.09
 71
1.0
 72
0.0
 73
1
 74
1
 75
0
 76
0
 77
0
 78
4
170
0
171
2
172
0
173
0
174
0
175
0
176
0
177
0
178
0
270
2
271
5
272
5
273
2
274
2
275
0
280
0
281
0
282
0
283
1
284
4
285
0
286
0
287
3
288
0
340
11
  0
ENDTAB
  0
ENDSEC
  0
SECTION
  2
BLOCKS
  0
BLOCK
  5
20
100
AcDbEntity
  8
0
100
AcDbBlockBegin
  2
*MODEL_SPACE
 70
0
 10
0.0
 20
0.0
 30
0.0
  3
*MODEL_SPACE
  1

  0
ENDBLK
  5
21
100
AcDbEntity
  8
0
100
AcDbBlockEnd
  0
BLOCK
  5
1C
100
AcDbEntity
  8
0
100
AcDbBlockBegin
  2
*PAPER_SPACE
 70
0
 10
0.0
 20
0.0
 30
0.0
  3
*PAPER_SPACE
  1

  0
ENDBLK
  5
1D
100
AcDbEntity
  8
0
100
AcDbBlockEnd
  0
ENDSEC
  0
SECTION
  2
ENTITIES
  0
LINE
  5
21D
100
AcDbEntity
  8
6_SURFACES-PATINS-SPEC
100
AcDbLine
 62
7
  6
CONTINUOUS
 10
71.673346504
 20
12.5619438148
 11
71.7536336956
 21
12.579775417
  0
LINE
  5
21E
100
AcDbEntity
  8
6_SURFACES-PATINS-SPEC
100
AcDbLine
 62
7
  6
CONTINUOUS
 10
71.5921049317
 20
12.5512219713
 11
71.673346504
 21
12.5619438148
  0
LINE
  5
21F
100
AcDbEntity
  8
6_SURFACES-PATINS-SPEC
100
AcDbLine
 62
7
  6
CONTINUOUS
 10
42.7132449619
 20
12.562209534
 11
42.7938671048
 21
12.5802777564
  0
LINE
  5
220
100
AcDbEntity
  8
6_SURFACES-PATINS-SPEC
100
AcDbLine
 62
7
  6
CONTINUOUS
 10
44.4068909288
 20
15.4411695362
 11
44.4487079861
 21
15.452783972
  0
LINE
  5
221
100
AcDbEntity
  8
0
100
AcDbLine
 62
7
  6
CONTINUOUS
 10
73.7362096112
 20
13.7831022929
 11
74.1408588612
 21
13.8281846946
  0
LINE
  5
222
100
AcDbEntity
  8
DEFAULT_2
100
AcDbLine
 62
8
  6
CONTINUOUS
 10
73.7223688624
 20
13.9073336644
 11
74.1270181125
 21
13.9524160662
  0
LINE
  5
223
100
AcDbEntity
  8
6_SURFACES-PATINS-SPEC
100
AcDbLine
 62
7
  6
CONTINUOUS
 10
42.6313644189
 20
12.5512987577
 11
42.7132449619
 21
12.562209534
  0
LINE
  5
224
100
AcDbEntity
  8
6_SURFACES-PATINS-SPEC
100
AcDbLine
 62
7
  6
CONTINUOUS
 10
71.5106016256
 20
12.5476281894
 11
71.5921049253
 21
12.5512219707
  0
LINE
  5
225
100
AcDbEntity
  8
6_SURFACES-PATINS-SPEC
100
AcDbLine
 62
7
  6
CONTINUOUS
 10
44.4485463894
 20
15.4527489816
 11
44.4913324323
 21
15.4594641999
  0
LWPOLYLINE
  5
226
100
AcDbEntity
  8
6_SURFACES-PATINS-SPEC
100
AcDbPolyline
 62
7
  6
CONTINUOUS
 90
41
 70
0
 10
72.9207514227
 20
13.9404412319
 10
72.9097165862
 20
13.9398279233
 10
72.8986994398
 20
13.9388894265
 10
72.8877112881
 20
13.9376268444
 10
72.8767634362
 20
13.9360412799
 10
72.8658671888
 20
13.934133836
 10
72.8550370887
 20
13.931906643
 10
72.8442786875
 20
13.9293613158
 10
72.8336008175
 20
13.9265002801
 10
72.8230123107
 20
13.9233259616
 10
72.8125219993
 20
13.919840786
 10
72.8021418348
 20
13.9160485836
 10
72.7918776206
 20
13.9119518954
 10
72.7817383434
 20
13.9075544821
 10
72.77173299
 20
13.9028601048
 10
72.7618705473
 20
13.8978725242
 10
72.7521631495
 20
13.8925975621
 10
72.7426157304
 20
13.8870384021
 10
72.7332364742
 20
13.8812000915
 10
72.7240335656
 20
13.8750876778
 10
72.7150151889
 20
13.8687062082
 10
72.7061921079
 20
13.8620630228
 10
72.6975690106
 20
13.8551621632
 10
72.6891532839
 20
13.8480097995
 10
72.6809523148
 20
13.840612102
 10
72.6729734903
 20
13.832975241
 10
72.6652259745
 20
13.8251076129
 10
72.6577142942
 20
13.8170144723
 10
72.65044487
 20
13.8087031816
 10
72.6434241223
 20
13.8001811035
 10
72.6366584717
 20
13.7914556005
 10
72.630155498
 20
13.7825360373
 10
72.6239190248
 20
13.7734281556
 10
72.6179541483
 20
13.7641396144
 10
72.6122659645
 20
13.7546780727
 10
72.6068595696
 20
13.7450511896
 10
72.6017402457
 20
13.7352676361
 10
72.5969123417
 20
13.7253368862
 10
72.5923804241
 20
13.7152694083
 10
72.5881490592
 20
13.705075671
 10
72.5842228137
 20
13.694766143
  0
LINE
  5
227
100
AcDbEntity
  8
6_SURFACES-PATINS-SPEC
100
AcDbLine
 62
7
  6
CONTINUOUS
 10
42.5488721225
 20
12.5476281869
 11
42.6313644189
 21
12.5512987577
  0
LWPOLYLINE
  5
228
100
AcDbEntity
  8
6_SURFACES-PATINS-SPEC
100
AcDbPolyline
 62
7
  6
CONTINUOUS
 90
32
 70
0
 10
71.4989703943
 20
13.979324244
 10
71.6164226879
 20
13.9827019715
 10
71.7338887748
 20
13.9855806032
 10
71.8513666191
 20
13.9879393583
 10
71.9586656932
 20
13.9896146301
 10
72.0659713162
 20
13.9907805148
 10
72.1732819281
 20
13.99137858
 10
72.2553636713
 20
13.9914082862
 10
72.337443947
 20
13.990996636
 10
72.4195192815
 20
13.990068657
 10
72.5138072186
 20
13.9882392831
 10
72.5936485035
 20
13.9858552692
 10
72.6627693058
 20
13.9829621673
 10
72.6931691098
 20
13.9813727703
 10
72.7235548682
 20
13.97953663
 10
72.7501677382
 20
13.977684052
 10
72.776759651
 20
13.9755476278
 10
72.7998136894
 20
13.9734074556
 10
72.8228308834
 20
13.9709104394
 10
72.8431797211
 20
13.968307393
 10
72.8616383998
 20
13.9654898706
 10
72.8780795359
 20
13.9624359904
 10
72.8923132289
 20
13.9591228852
 10
72.898237301
 20
13.9574491308
 10
72.9040883477
 20
13.9555248936
 10
72.9086676075
 20
13.9537441715
 10
72.9130884764
 20
13.951615355
 10
72.9164300008
 20
13.9495350822
 10
72.9189242646
 20
13.9473651399
 10
72.9205115548
 20
13.945100898
 10
72.9209371969
 20
13.9439480443
 10
72.9211247306
 20
13.9427403609
  0
LWPOLYLINE
  5
229
100
AcDbEntity
  8
6_SURFACES-PATINS-SPEC
100
AcDbPolyline
 62
7
  6
CONTINUOUS
 90
13
 70
0
 10
71.4980300802
 20
14.0105010114
 10
70.6678614329
 20
13.9875879504
 10
69.8375671428
 20
13.9696065562
 10
68.878986173
 20
13.954192156
 10
67.9203391722
 20
13.9436933872
 10
66.8124225815
 20
13.9366501912
 10
65.7044857034
 20
13.9341148556
 10
64.4842852851
 20
13.9354760931
 10
63.2640937647
 20
13.9403127525
 10
60.6997489302
 20
13.958582913
 10
57.9948944874
 20
13.985777025
 10
55.0149253768
 20
14.0215494531
 10
51.5158784908
 20
14.0684461653
  0
LINE
  5
22A
100
AcDbEntity
  8
0
100
AcDbLine
 62
7
  6
CONTINUOUS
 10
17.1242114247
 20
33.2001654774
 11
17.0102541725
 21
31.8976281245
  0
LINE
  5
22B
100
AcDbEntity
  8
6_SURFACES-PATINS-SPEC
100
AcDbLine
 62
7
  6
CONTINUOUS
 10
71.5102541725
 20
12.5476281245
 11
71.5126103309
 21
12.547631108
  0
LINE
  5
22C
100
AcDbEntity
  8
6_SURFACES-PATINS-SPEC
100
AcDbLine
 62
7
  6
CONTINUOUS
 10
51.5102541725
 20
12.5476281245
 11
71.5102541725
 21
12.5476281245
  0
LINE
  5
22D
100
AcDbEntity
  8
6_SURFACES-PATINS-SPEC
100
AcDbLine
 62
7
  6
CONTINUOUS
 10
33.1144302861
 20
12.547628186
 11
42.5488666688
 21
12.547628186
  0
LWPOLYLINE
  5
22E
100
AcDbEntity
  8
6_SURFACES-PATINS-SPEC
100
AcDbPolyline
 62
7
  6
CONTINUOUS
 90
60
 70
0
 10
43.2458101202
 20
12.8639712156
 10
43.2459263987
 20
12.8639701856
 10
43.2460427844
 20
12.8639668481
 10
43.2461590968
 20
12.863960561
 10
43.2462751553
 20
12.8639506824
 10
43.2463907793
 20
12.8639365702
 10
43.2465057884
 20
12.8639175825
 10
43.246620002
 20
12.8638930771
 10
43.2467332395
 20
12.8638624121
 10
43.2468453205
 20
12.8638249455
 10
43.2469257115
 20
12.8637931687
 10
43.2470047488
 20
12.863757394
 10
43.2470817828
 20
12.8637175411
 10
43.2471561635
 20
12.8636735301
 10
43.2472272413
 20
12.8636252808
 10
43.2472943661
 20
12.8635727132
 10
43.2473568883
 20
12.8635157472
 10
43.2474141581
 20
12.8634543027
 10
43.2474655256
 20
12.8633882997
 10
43.2475102779
 20
12.8633181508
 10
43.2475488284
 20
12.8632439945
 10
43.2475814589
 20
12.8631664137
 10
43.2476084512
 20
12.8630859911
 10
43.2476300872
 20
12.8630033097
 10
43.2476466485
 20
12.8629189522
 10
43.2476584171
 20
12.8628335013
 10
43.2476656746
 20
12.86274754
 10
43.247668703
 20
12.8626616511
 10
43.2476664586
 20
12.8625444433
 10
43.2476573675
 20
12.862428432
 10
43.2476420514
 20
12.8623135741
 10
43.2476211316
 20
12.8621998266
 10
43.2475952296
 20
12.8620871464
 10
43.247564967
 20
12.8619754907
 10
43.2475309651
 20
12.8618648162
 10
43.2474938456
 20
12.8617550801
 10
43.2474542299
 20
12.8616462393
 10
43.247378437
 20
12.8614533061
 10
43.2472970904
 20
12.8612629547
 10
43.2472106571
 20
12.8610750295
 10
43.2471196043
 20
12.8608893751
 10
43.2470243991
 20
12.860705836
 10
43.2469255086
 20
12.8605242568
 10
43.2468233998
 20
12.860344482
 10
43.2466616443
 20
12.860072299
 10
43.2464940552
 20
12.8598036872
 10
43.246321254
 20
12.859538349
 10
43.2461438618
 20
12.8592759866
 10
43.2459625001
 20
12.8590163023
 10
43.2457777901
 20
12.8587589984
 10
43.2454963428
 20
12.8583780211
 10
43.2452093313
 20
12.8580013406
 10
43.2449172925
 20
12.8576285936
 10
43.2446207636
 20
12.8572594171
 10
43.2443202816
 20
12.8568934478
 10
43.2439552401
 20
12.8564581594
 10
43.2435857083
 20
12.8560266692
 10
43.2432121129
 20
12.8555986819
 10
43.2428348805
 20
12.855173902
 10
43.2424544376
 20
12.8547520341
  0
LWPOLYLINE
  5
22F
100
AcDbEntity
  8
6_SURFACES-PATINS-SPEC
100
AcDbPolyline
 62
7
  6
CONTINUOUS
 90
49
 70
0
 10
42.8896740511
 20
12.6128512031
 10
42.8895118051
 20
12.612853102
 10
42.8893456674
 20
12.6128599329
 10
42.8891778182
 20
12.6128732942
 10
42.8890104381
 20
12.6128947842
 10
42.8888457075
 20
12.6129260009
 10
42.8886858067
 20
12.6129685428
 10
42.8885329163
 20
12.6130240081
 10
42.8883892166
 20
12.6130939951
 10
42.888256888
 20
12.613180102
 10
42.8881381111
 20
12.613283927
 10
42.8880384032
 20
12.6134014484
 10
42.8879549591
 20
12.6135331769
 10
42.8878894159
 20
12.6136753601
 10
42.8878434107
 20
12.6138242458
 10
42.8878181093
 20
12.6139737366
 10
42.8878104257
 20
12.6141250284
 10
42.887817565
 20
12.6142770782
 10
42.8878367327
 20
12.6144288432
 10
42.8878651339
 20
12.6145792802
 10
42.8879284303
 20
12.6148296386
 10
42.8880076134
 20
12.6150739698
 10
42.8881000181
 20
12.6153130779
 10
42.8882029792
 20
12.615547767
 10
42.8884025934
 20
12.6159505801
 10
42.8886218453
 20
12.6163436039
 10
42.8888561062
 20
12.6167281658
 10
42.8891654527
 20
12.6172008438
 10
42.8894886276
 20
12.6176638201
 10
42.8898230988
 20
12.6181186384
 10
42.8902392765
 20
12.6186594737
 10
42.8906662872
 20
12.6191918903
 10
42.8911021584
 20
12.6197171338
 10
42.8917750135
 20
12.6205006122
 10
42.8924617272
 20
12.6212719801
 10
42.8931603852
 20
12.6220327011
 10
42.8938690732
 20
12.6227842387
 10
42.8945858767
 20
12.6235280562
 10
42.8957407736
 20
12.6246999518
 10
42.8969095842
 20
12.6258576978
 10
42.8980904853
 20
12.6270030219
 10
42.8992816535
 20
12.6281376516
 10
42.9007350547
 20
12.6294990337
 10
42.9021995063
 20
12.6308485575
 10
42.903673685
 20
12.6321875046
 10
42.9051562677
 20
12.6335171564
 10
42.907479385
 20
12.6355720548
 10
42.9098176354
 20
12.6376096536
 10
42.9121689772
 20
12.6396320915
  0
LWPOLYLINE
  5
230
100
AcDbEntity
  8
6_SURFACES-PATINS-SPEC
100
AcDbPolyline
 62
7
  6
CONTINUOUS
 90
28
 70
0
 10
32.7736229039
 20
12.6128512031
 10
32.7734352832
 20
12.6128540551
 10
32.7732478036
 20
12.6128623899
 10
32.7730605229
 20
12.6128757538
 10
32.7728734992
 20
12.6128936933
 10
32.7726867906
 20
12.6129157549
 10
32.7725004551
 20
12.6129414849
 10
32.7723145507
 20
12.6129704298
 10
32.7721291353
 20
12.6130021361
 10
32.7718507198
 20
12.6130543234
 10
32.7715734667
 20
12.6131113468
 10
32.771297296
 20
12.6131728015
 10
32.7710221278
 20
12.6132382825
 10
32.7707478818
 20
12.6133073848
 10
32.7704744781
 20
12.6133797036
 10
32.7702018366
 20
12.6134548338
 10
32.7697660382
 20
12.6135803878
 10
32.7693319213
 20
12.6137117463
 10
32.7688994131
 20
12.6138485247
 10
32.7684684406
 20
12.6139903383
 10
32.768038931
 20
12.6141368024
 10
32.7676108115
 20
12.6142875323
 10
32.7671840092
 20
12.6144421432
 10
32.7667584512
 20
12.6146002506
 10
32.7663340646
 20
12.6147614697
 10
32.7659107766
 20
12.6149254158
 10
32.7654885144
 20
12.6150917042
 10
32.765067205
 20
12.6152599502
  0
LWPOLYLINE
  5
231
100
AcDbEntity
  8
0
100
AcDbPolyline
 62
7
  6
CONTINUOUS
 90
9
 70
0
 10
72.630329557
 20
13.7812271528
 10
72.8684386483
 20
13.7824259956
 10
73.0851174191
 20
13.7833252948
 10
73.2760758847
 20
13.7837878194
 10
73.4375288853
 20
13.7838259099
 10
73.5061866095
 20
13.7837288511
 10
73.5663503997
 20
13.7835913604
 10
73.6177410112
 20
13.7834424664
 10
73.6932872675
 20
13.783199819
  0
LWPOLYLINE
  5
232
100
AcDbEntity
  8
DEFAULT_2
100
AcDbPolyline
 62
8
  6
CONTINUOUS
 90
39
 70
0
 10
69.8360560068
 20
13.8994036094
 10
69.8760473554
 20
13.8994319107
 10
69.9270705591
 20
13.8994694578
 10
69.9888150939
 20
13.8995172511
 10
70.0609166714
 20
13.8995754889
 10
70.1429709776
 20
13.8996453124
 10
70.2344337795
 20
13.8997277055
 10
70.3348332224
 20
13.8998237682
 10
70.4435279434
 20
13.8999355844
 10
70.5598470212
 20
13.900064487
 10
70.6832040016
 20
13.9002133402
 10
70.8126746651
 20
13.900384496
 10
70.947685986
 20
13.9005810961
 10
71.0872791252
 20
13.9008071683
 10
71.2306111733
 20
13.901065849
 10
71.3769572738
 20
13.901362456
 10
71.5253358884
 20
13.9017008594
 10
71.6750229591
 20
13.902085526
 10
71.8251135576
 20
13.9025206953
 10
71.9747464018
 20
13.9030070649
 10
72.1234069213
 20
13.903546469
 10
72.2699457737
 20
13.9041317352
 10
72.414026261
 20
13.9047545388
 10
72.5546124433
 20
13.9053975097
 10
72.6907521527
 20
13.9060327162
 10
72.8217039848
 20
13.9066319338
 10
72.946028443
 20
13.9071561192
 10
73.0631754066
 20
13.9075764309
 10
73.1722858918
 20
13.9078736491
 10
73.2726946822
 20
13.9080384738
 10
73.364214408
 20
13.908083158
 10
73.4461229671
 20
13.9080283584
 10
73.5180691602
 20
13.9079033413
 10
73.5797321138
 20
13.9077462691
 10
73.6306496963
 20
13.9075905315
 10
73.6705709618
 20
13.9074620971
 10
73.6992776586
 20
13.9073794958
 10
73.7165836165
 20
13.9073416928
 10
73.7223688624
 20
13.9073336644
  0
LWPOLYLINE
  5
233
100
AcDbEntity
  8
DEFAULT_2
100
AcDbPolyline
 62
8
  6
CONTINUOUS
 90
3
 70
0
 10
69.784231049
 20
13.8993695466
 10
69.7900057017
 20
13.8993732028
 10
69.8360560068
 20
13.8994036094
  0
LINE
  5
234
100
AcDbEntity
  8
0
100
AcDbLine
 62
7
  6
CONTINUOUS
 10
73.0317007819
 20
13.2726281245
 11
72.4305771594
 21
13.2726281245
  0
LINE
  5
235
100
AcDbEntity
  8
DEFAULT_2
100
AcDbLine
 62
8
  6
CONTINUOUS
 10
70.4888075631
 20
13.3976281245
 11
73.0317007819
 21
13.3976281245
  0
LWPOLYLINE
  5
236
100
AcDbEntity
  8
0
100
AcDbPolyline
 62
7
  6
CONTINUOUS
 90
5
 70
0
 10
73.6932872675
 20
13.783199819
 10
73.7170935726
 20
13.7831356516
 10
73.7254490577
 20
13.7831177984
 10
73.731424818
 20
13.783107589
 10
73.7362096112
 20
13.7831022929
  0
LINE
  5
237
100
AcDbEntity
  8
6_SURFACES-PATINS-SPEC
100
AcDbLine
 62
7
  6
CONTINUOUS
 10
33.0319325363
 20
12.5512987576
 11
33.1144248324
 21
12.5476281869
  0
LINE
  5
238
100
AcDbEntity
  8
6_SURFACES-PATINS-SPEC
100
AcDbLine
 62
7
  6
CONTINUOUS
 10
44.3668409345
 20
15.4248704498
 11
44.4071271619
 21
15.4412500514
  0
LINE
  5
239
100
AcDbEntity
  8
6_SURFACES-PATINS-SPEC
100
AcDbLine
 62
7
  6
CONTINUOUS
 10
42.7938671048
 20
12.5802777564
 11
42.8725883289
 21
12.6053864908
  0
LINE
  5
23A
100
AcDbEntity
  8
6_SURFACES-PATINS-SPEC
100
AcDbLine
 62
7
  6
CONTINUOUS
 10
44.4912508033
 20
15.4594561737
 11
44.5208895549
 21
15.4606560972
  0
LWPOLYLINE
  5
23B
100
AcDbEntity
  8
6_SURFACES-PATINS-SPEC
100
AcDbPolyline
 62
7
  6
CONTINUOUS
 90
28
 70
0
 10
51.5158784908
 20
14.0684461654
 10
51.3269168759
 20
14.0708372177
 10
51.2302534926
 20
14.07186957
 10
51.129384764
 20
14.072806925
 10
51.0225949753
 20
14.0736379074
 10
50.9079988773
 20
14.0743344949
 10
50.7821238885
 20
14.0748462076
 10
50.6499607085
 20
14.0750644607
 10
50.5215297587
 20
14.0749016243
 10
50.4040374434
 20
14.0743327306
 10
50.350820138
 20
14.0739011791
 10
50.3014021525
 20
14.0733744657
 10
50.2561154691
 20
14.0727567977
 10
50.2152316282
 20
14.0720530864
 10
50.1788878966
 20
14.0712668813
 10
50.1471310861
 20
14.0703991473
 10
50.1199947385
 20
14.0694516917
 10
50.0975530737
 20
14.0684264439
 10
50.0881303169
 20
14.0678853146
 10
50.0799282034
 20
14.0673260495
 10
50.0729635387
 20
14.0667494546
 10
50.067249596
 20
14.0661563327
 10
50.0627947652
 20
14.0655474832
 10
50.0596068283
 20
14.0649236875
 10
50.0586689933
 20
14.0646772946
 10
50.0576895842
 20
14.0642854539
 10
50.0572514642
 20
14.0640162274
 10
50.0570436413
 20
14.0636330714
  0
LWPOLYLINE
  5
23C
100
AcDbEntity
  8
6_SURFACES-PATINS-SPEC
100
AcDbPolyline
 62
7
  6
CONTINUOUS
 90
13
 70
0
 10
51.5154458509
 20
14.0372059509
 10
55.0145309551
 20
13.9903113534
 10
57.9945510158
 20
13.9545417842
 10
60.6994786621
 20
13.9273517573
 10
63.2639364303
 20
13.9090877068
 10
64.4842157408
 20
13.90425504
 10
65.704503938
 20
13.9028987217
 10
66.8125653907
 20
13.9054394272
 10
67.9206065313
 20
13.9124887698
 10
68.8794095446
 20
13.922993894
 10
69.838146497
 20
13.9384151444
 10
70.6686212789
 20
13.9564037064
 10
71.4989703949
 20
13.9793242239
  0
LINE
  5
23D
100
AcDbEntity
  8
6_SURFACES-PATINS-SPEC
100
AcDbLine
 62
7
  6
CONTINUOUS
 10
51.4284034137
 20
12.5512219712
 11
51.5099067193
 21
12.5476281894
  0
LINE
  5
23E
100
AcDbEntity
  8
0
100
AcDbLine
 62
7
  6
CONTINUOUS
 10
48.5788876609
 20
14.1398856322
 11
56.5394901333
 21
14.0026619131
  0
LINE
  5
23F
100
AcDbEntity
  8
DEFAULT_2
100
AcDbLine
 62
8
  6
CONTINUOUS
 10
48.5810420728
 20
14.2648670649
 11
69.784231049
 21
13.8993695466
  0
LINE
  5
240
100
AcDbEntity
  8
6_SURFACES-PATINS-SPEC
100
AcDbLine
 62
7
  6
CONTINUOUS
 10
32.9500519934
 20
12.562209534
 11
33.0319325363
 21
12.5512987576
  0
LINE
  5
241
100
AcDbEntity
  8
6_SURFACES-PATINS-SPEC
100
AcDbLine
 62
7
  6
CONTINUOUS
 10
42.8725883289
 20
12.6053864908
 11
42.8982367702
 21
12.6152627679
  0
LINE
  5
242
100
AcDbEntity
  8
6_SURFACES-PATINS-SPEC
100
AcDbLine
 62
7
  6
CONTINUOUS
 10
31.0856491529
 20
15.6959536642
 11
31.070673554
 21
15.6962150543
  0
LINE
  5
243
100
AcDbEntity
  8
6_SURFACES-PATINS-SPEC
100
AcDbLine
 62
7
  6
CONTINUOUS
 10
31.0696940817
 20
15.6962320577
 11
44.5208577694
 21
15.4614412166
  0
LINE
  5
244
100
AcDbEntity
  8
6_SURFACES-PATINS-SPEC
100
AcDbLine
 62
7
  6
CONTINUOUS
 10
44.5208577927
 20
15.4614412161
 11
44.5345301727
 21
15.4612025527
  0
LINE
  5
245
100
AcDbEntity
  8
6_SURFACES-PATINS-SPEC
100
AcDbLine
 62
7
  6
CONTINUOUS
 10
31.0706735786
 20
15.6962150541
 11
31.0704395356
 21
15.6962191406
  0
LINE
  5
246
100
AcDbEntity
  8
6_SURFACES-PATINS-SPEC
100
AcDbLine
 62
7
  6
CONTINUOUS
 10
31.0562499677
 20
15.6964668056
 11
31.0696940817
 21
15.6962320577
  0
LINE
  5
247
100
AcDbEntity
  8
6_SURFACES-PATINS-SPEC
100
AcDbLine
 62
7
  6
CONTINUOUS
 10
31.0567950582
 20
15.7277120503
 11
44.5214031699
 21
15.4926864573
  0
LINE
  5
248
100
AcDbEntity
  8
6_SURFACES-PATINS-SPEC
100
AcDbLine
 62
7
  6
CONTINUOUS
 10
44.5214031699
 20
15.4926864571
 11
44.5350755218
 21
15.4924477935
  0
LINE
  5
249
100
AcDbEntity
  8
0
100
AcDbLine
 62
7
  6
CONTINUOUS
 10
47.6704568351
 20
15.5314837978
 11
29.3353378874
 21
15.8515244895
  0
LINE
  5
24A
100
AcDbEntity
  8
6_SURFACES-PATINS-SPEC
100
AcDbLine
 62
7
  6
CONTINUOUS
 10
44.1755898375
 20
15.214484805
 11
44.1643852908
 21
15.2147558807
  0
LINE
  5
24B
100
AcDbEntity
  8
6_SURFACES-PATINS-SPEC
100
AcDbLine
 62
7
  6
CONTINUOUS
 10
43.2148934547
 20
12.8452080572
 11
43.2149649028
 21
12.8452377785
  0
LINE
  5
24C
100
AcDbEntity
  8
6_SURFACES-PATINS-SPEC
100
AcDbLine
 62
7
  6
CONTINUOUS
 10
42.8982401365
 20
12.6152641357
 11
42.9009504968
 21
12.6163844358
  0
LWPOLYLINE
  5
24D
100
AcDbEntity
  8
6_SURFACES-PATINS-SPEC
100
AcDbPolyline
 62
7
  6
CONTINUOUS
 90
28
 70
0
 10
42.8982368244
 20
12.615262793
 10
42.8978151434
 20
12.6150943551
 10
42.8973925086
 20
12.614927876
 10
42.8969688472
 20
12.6147637408
 10
42.896544086
 20
12.6146023347
 10
42.8961181521
 20
12.6144440427
 10
42.8956909726
 20
12.6142892501
 10
42.8952624743
 20
12.6141383418
 10
42.8948325844
 20
12.6139917031
 10
42.8944012299
 20
12.6138497191
 10
42.8939683377
 20
12.6137127748
 10
42.8935338348
 20
12.6135812555
 10
42.8930976484
 20
12.6134555463
 10
42.8928247932
 20
12.6133803302
 10
42.8925511749
 20
12.6133079279
 10
42.8922767132
 20
12.6132387448
 10
42.892001328
 20
12.6131731864
 10
42.891724939
 20
12.6131116581
 10
42.8914474659
 20
12.6130545654
 10
42.8911688286
 20
12.6130023136
 10
42.890983289
 20
12.6129705714
 10
42.8907972597
 20
12.6129415931
 10
42.8906107986
 20
12.6129158329
 10
42.890423964
 20
12.612893745
 10
42.8902368139
 20
12.6128757839
 10
42.8900494063
 20
12.6128624036
 10
42.8898617993
 20
12.6128540586
 10
42.8896740511
 20
12.6128512031
  0
LINE
  5
24E
100
AcDbEntity
  8
DEFAULT_2
100
AcDbLine
 62
8
  6
CONTINUOUS
 10
29.3375194382
 20
15.9765054514
 11
47.6726540818
 21
15.6564644857
  0
LINE
  5
24F
100
AcDbEntity
  8
0
100
AcDbLine
 62
7
  6
CONTINUOUS
 10
47.6704717061
 20
15.5314835413
 11
47.6780441088
 21
15.5312307853
  0
LINE
  5
250
100
AcDbEntity
  8
0
100
AcDbLine
 62
7
  6
CONTINUOUS
 10
47.6780516617
 20
15.5312302518
 11
47.6704568354
 21
15.5314838004
  0
LWPOLYLINE
  5
251
100
AcDbEntity
  8
6_SURFACES-PATINS-SPEC
100
AcDbPolyline
 62
7
  6
CONTINUOUS
 90
30
 70
0
 10
50.1026647545
 20
14.0262748027
 10
50.0974102886
 20
14.0266590455
 10
50.0921575176
 20
14.0270655837
 10
50.0875678359
 20
14.0274429385
 10
50.0829802404
 20
14.0278459721
 10
50.0803684778
 20
14.0280892951
 10
50.0777579613
 20
14.0283449963
 10
50.0751491259
 20
14.0286153617
 10
50.0729908449
 20
14.0288522042
 10
50.0708340526
 20
14.0291036646
 10
50.0686787871
 20
14.0293727429
 10
50.066975944
 20
14.0296006142
 10
50.0652761243
 20
14.0298467395
 10
50.0635813729
 20
14.0301164804
 10
50.062650454
 20
14.0302775089
 10
50.0617214228
 20
14.0304504924
 10
50.0607940081
 20
14.03063859
 10
50.0598679383
 20
14.0308449606
 10
50.0593920266
 20
14.0309599614
 10
50.0589188026
 20
14.0310846766
 10
50.0584506696
 20
14.0312231404
 10
50.0579900305
 20
14.031379387
 10
50.0575392888
 20
14.0315574506
 10
50.0573172459
 20
14.0316577675
 10
50.0571008049
 20
14.0317720337
 10
50.0568924504
 20
14.0319076471
 10
50.0567991316
 20
14.0319808233
 10
50.0567137869
 20
14.0320618715
 10
50.0566420654
 20
14.032152342
 10
50.0565896167
 20
14.0322537854
  0
LINE
  5
252
100
AcDbEntity
  8
6_SURFACES-PATINS-SPEC
100
AcDbLine
 62
7
  6
CONTINUOUS
 10
42.9009504968
 20
12.6163844358
 11
42.9074677997
 21
12.6192986744
  0
LINE
  5
253
100
AcDbEntity
  8
6_SURFACES-PATINS-SPEC
100
AcDbLine
 62
7
  6
CONTINUOUS
 10
43.2137117158
 20
12.8446900695
 11
43.2148934547
 21
12.8452080572
  0
LINE
  5
254
100
AcDbEntity
  8
6_SURFACES-PATINS-SPEC
100
AcDbLine
 62
7
  6
CONTINUOUS
 10
31.056263151
 20
15.6964667656
 11
31.0981937103
 21
15.6933759195
  0
LINE
  5
255
100
AcDbEntity
  8
6_SURFACES-PATINS-SPEC
100
AcDbLine
 62
7
  6
CONTINUOUS
 10
51.3471618365
 20
12.5619438153
 11
51.4284034137
 21
12.5512219712
  0
LINE
  5
256
100
AcDbEntity
  8
6_SURFACES-PATINS-SPEC
100
AcDbLine
 62
7
  6
CONTINUOUS
 10
32.8694298507
 20
12.5802777562
 11
32.9500519934
 21
12.562209534
  0
LINE
  5
257
100
AcDbEntity
  8
6_SURFACES-PATINS-SPEC
100
AcDbLine
 62
7
  6
CONTINUOUS
 10
44.3289316297
 20
15.4040682831
 11
44.3671429754
 21
15.4250140265
  0
LINE
  5
258
100
AcDbEntity
  8
6_SURFACES-PATINS-SPEC
100
AcDbLine
 62
7
  6
CONTINUOUS
 10
43.2117289294
 20
12.8437596776
 11
43.2137117158
 21
12.8446900695
  0
LINE
  5
259
100
AcDbEntity
  8
6_SURFACES-PATINS-SPEC
100
AcDbLine
 62
7
  6
CONTINUOUS
 10
50.1097313391
 20
14.0265222534
 11
50.1092697741
 21
14.0265693249
  0
LINE
  5
25A
100
AcDbEntity
  8
6_SURFACES-PATINS-SPEC
100
AcDbLine
 62
7
  6
CONTINUOUS
 10
50.1092697741
 20
14.0265693249
 11
50.1097271877
 21
14.0265166298
  0
LWPOLYLINE
  5
25B
100
AcDbEntity
  8
0
100
AcDbPolyline
 62
7
  6
CONTINUOUS
 90
48
 70
0
 10
47.9151586834
 20
15.3033047668
 10
47.9143756519
 20
15.3108633723
 10
47.9133522077
 20
15.3184027257
 10
47.9120915609
 20
15.3259152427
 10
47.9105969213
 20
15.333393339
 10
47.9088714988
 20
15.3408294303
 10
47.9069185033
 20
15.3482159323
 10
47.9047411448
 20
15.3555452607
 10
47.902342633
 20
15.3628098313
 10
47.899726178
 20
15.3700020597
 10
47.8968949896
 20
15.3771143617
 10
47.8938522776
 20
15.3841391529
 10
47.8906012521
 20
15.3910688491
 10
47.8871489886
 20
15.3978887536
 10
47.8834953474
 20
15.404599969
 10
47.8796436108
 20
15.4111962631
 10
47.8755970609
 20
15.4176714039
 10
47.8713589798
 20
15.4240191593
 10
47.8669326497
 20
15.4302332973
 10
47.8623213529
 20
15.4363075859
 10
47.8575283714
 20
15.4422357929
 10
47.8525569873
 20
15.4480116862
 10
47.847410483
 20
15.4536290339
 10
47.8420921404
 20
15.4590816039
 10
47.8366052419
 20
15.464363164
 10
47.8309535938
 20
15.4694680503
 10
47.8251431176
 20
15.4743928556
 10
47.8191802593
 20
15.4791347406
 10
47.8130714647
 20
15.4836908664
 10
47.8068231799
 20
15.4880583939
 10
47.8004418506
 20
15.492234484
 10
47.793933923
 20
15.4962162976
 10
47.7873058428
 20
15.5000009958
 10
47.780564056
 20
15.5035857394
 10
47.7737150086
 20
15.5069676894
 10
47.7667651465
 20
15.5101440066
 10
47.7597209156
 20
15.5131118521
 10
47.7525812088
 20
15.5158712873
 10
47.7453611783
 20
15.5184162803
 10
47.738068614
 20
15.520744158
 10
47.7307113057
 20
15.5228522473
 10
47.7232970432
 20
15.524737875
 10
47.7158336164
 20
15.5263983679
 10
47.7083288151
 20
15.527831053
 10
47.7007904292
 20
15.5290332571
 10
47.6932262484
 20
15.530002307
 10
47.6856440626
 20
15.5307355296
 10
47.6780441088
 20
15.5312307853
  0
LINE
  5
25C
100
AcDbEntity
  8
0
100
AcDbLine
 62
7
  6
CONTINUOUS
 10
47.9670380205
 20
14.7103203761
 11
47.9151205327
 21
15.3037399777
  0
LINE
  5
25D
100
AcDbEntity
  8
DEFAULT_2
100
AcDbLine
 62
8
  6
CONTINUOUS
 10
48.0396824412
 20
15.3142050036
 11
48.0915623473
 21
14.7212149634
  0
LINE
  5
25E
100
AcDbEntity
  8
0
100
AcDbLine
 62
7
  6
CONTINUOUS
 10
82.8962969203
 20
33.2001654774
 11
83.0102541725
 21
31.8976281245
  0
LWPOLYLINE
  5
25F
100
AcDbEntity
  8
0
100
AcDbPolyline
 62
7
  6
CONTINUOUS
 90
20
 70
0
 10
27.7732908053
 20
18.2848756461
 10
27.7724586679
 20
18.2961440885
 10
27.7714591959
 20
18.3074009389
 10
27.7702959385
 20
18.3186442178
 10
27.7689724453
 20
18.3298719452
 10
27.7674922657
 20
18.3410821415
 10
27.7658589491
 20
18.3522728269
 10
27.764076045
 20
18.3634420217
 10
27.7621471028
 20
18.3745877461
 10
27.7600756719
 20
18.3857080203
 10
27.7578653018
 20
18.3968008647
 10
27.7552452461
 20
18.4091150325
 10
27.7524601192
 20
18.4213912907
 10
27.7495126295
 20
18.4336281748
 10
27.7464054848
 20
18.4458242207
 10
27.7431413935
 20
18.457977964
 10
27.7397230636
 20
18.4700879404
 10
27.7361532032
 20
18.4821526856
 10
27.7324345204
 20
18.4941707352
 10
27.7285697234
 20
18.5061406249
  0
LINE
  5
260
100
AcDbEntity
  8
6_SURFACES-PATINS-SPEC
100
AcDbLine
 62
7
  6
CONTINUOUS
 10
72.9194300792
 20
13.9716022878
 11
72.9206547752
 21
13.9427204571
  0
LINE
  5
261
100
AcDbEntity
  8
6_SURFACES-PATINS-SPEC
100
AcDbLine
 62
7
  6
CONTINUOUS
 10
72.9211247296
 20
13.9427403849
 11
72.9198035159
 21
13.9739022359
  0
LINE
  5
262
100
AcDbEntity
  8
6_SURFACES-PATINS-SPEC
100
AcDbLine
 62
7
  6
CONTINUOUS
 10
71.4980300795
 20
14.0105010324
 11
71.4989703949
 21
13.9793242239
  0
LINE
  5
263
100
AcDbEntity
  8
DEFAULT_1
100
AcDbLine
 62
7
  6
CENTER
 10
71.7602541725
 20
11.5730148013
 11
71.7602541725
 21
22.1742091555
  0
LINE
  5
264
100
AcDbEntity
  8
6_SURFACES-PATINS-SPEC
100
AcDbLine
 62
7
  6
CONTINUOUS
 10
51.5158784908
 20
14.0684461653
 11
51.5154458509
 21
14.0372059509
  0
LINE
  5
265
100
AcDbEntity
  8
6_SURFACES-PATINS-SPEC
100
AcDbLine
 62
7
  6
CONTINUOUS
 10
50.0570687308
 20
14.0634964559
 11
50.0565896167
 21
14.0322537854
  0
LINE
  5
266
100
AcDbEntity
  8
6_SURFACES-PATINS-SPEC
100
AcDbLine
 62
7
  6
CONTINUOUS
 10
31.0567949031
 20
15.7277122589
 11
31.0562495048
 21
15.6964670038
  0
LINE
  5
267
100
AcDbEntity
  8
6_SURFACES-PATINS-SPEC
100
AcDbLine
 62
7
  6
CONTINUOUS
 10
31.070673554
 20
15.6962150543
 11
31.0712189529
 21
15.7274602951
  0
LINE
  5
268
100
AcDbEntity
  8
6_SURFACES-PATINS-SPEC
100
AcDbLine
 62
7
  6
CONTINUOUS
 10
32.8792388486
 20
15.6646464271
 11
32.8797842361
 21
15.6958916676
  0
LINE
  5
269
100
AcDbEntity
  8
6_SURFACES-PATINS-SPEC
100
AcDbLine
 62
7
  6
CONTINUOUS
 10
42.3200736164
 20
15.4998560433
 11
42.3206190041
 21
15.5311012869
  0
LINE
  5
26A
100
AcDbEntity
  8
6_SURFACES-PATINS-SPEC
100
AcDbLine
 62
7
  6
CONTINUOUS
 10
44.5208577694
 20
15.4614412166
 11
44.5214031699
 21
15.4926864571
  0
LINE
  5
26B
100
AcDbEntity
  8
6_SURFACES-PATINS-SPEC
100
AcDbLine
 62
7
  6
CONTINUOUS
 10
44.5345301763
 20
15.4612027534
 11
44.5350755255
 21
15.4924480106
  0
LINE
  5
26C
100
AcDbEntity
  8
DEFAULT_2
100
AcDbLine
 62
8
  6
CONTINUOUS
 10
76.15499352
 20
15.8889415614
 11
78.9345427565
 21
33.4383247635
  0
LINE
  5
26D
100
AcDbEntity
  8
0
100
AcDbLine
 62
7
  6
CONTINUOUS
 10
76.2784545626
 20
15.8693872532
 11
78.8170824647
 21
31.8976530156
  0
LINE
  5
26E
100
AcDbEntity
  8
6_SURFACES-PATINS-SPEC
100
AcDbLine
 62
7
  6
CONTINUOUS
 10
72.9194300792
 20
13.9716022878
 11
72.9198037286
 21
13.9738971622
  0
LINE
  5
26F
100
AcDbEntity
  8
6_SURFACES-PATINS-SPEC
100
AcDbLine
 62
7
  6
CONTINUOUS
 10
72.9211263275
 20
13.9427404526
 11
72.9207514227
 21
13.9404412319
  0
LINE
  5
270
100
AcDbEntity
  8
6_SURFACES-PATINS-SPEC
100
AcDbLine
 62
7
  6
CONTINUOUS
 10
43.4233503325
 20
13.1644842401
 11
44.1643852908
 21
15.2147558807
  0
LINE
  5
271
100
AcDbEntity
  8
6_SURFACES-PATINS-SPEC
100
AcDbLine
 62
7
  6
CONTINUOUS
 10
43.6564235008
 20
13.7877883351
 11
43.9096127476
 21
14.4834971388
  0
LINE
  5
272
100
AcDbEntity
  8
6_SURFACES-PATINS-SPEC
100
AcDbLine
 62
7
  6
CONTINUOUS
 10
43.9096127476
 20
14.4834971388
 11
44.1755897111
 21
15.2144848331
  0
LINE
  5
273
100
AcDbEntity
  8
6_SURFACES-PATINS-SPEC
100
AcDbLine
 62
7
  6
CONTINUOUS
 10
72.5842228306
 20
13.6947661368
 11
72.3912160045
 21
13.1644842401
  0
LINE
  5
274
100
AcDbEntity
  8
6_SURFACES-PATINS-SPEC
100
AcDbLine
 62
7
  6
CONTINUOUS
 10
43.4294534175
 20
13.1644842401
 11
43.6564235008
 21
13.7877883351
  0
LWPOLYLINE
  5
275
100
AcDbEntity
  8
6_SURFACES-PATINS-SPEC
100
AcDbPolyline
 62
7
  6
CONTINUOUS
 90
49
 70
0
 10
44.1643852678
 20
15.2147558891
 10
44.1677884214
 20
15.2237992189
 10
44.1714243336
 20
15.2327562186
 10
44.1752900719
 20
15.2416199301
 10
44.1793827037
 20
15.2503833954
 10
44.1836992967
 20
15.2590396563
 10
44.1882369182
 20
15.2675817547
 10
44.1929881272
 20
15.2759953925
 10
44.1979537354
 20
15.2842829975
 10
44.2031304448
 20
15.292439436
 10
44.2085149572
 20
15.3004595746
 10
44.2141039743
 20
15.3083382796
 10
44.219894198
 20
15.3160704175
 10
44.2258760973
 20
15.3236433909
 10
44.2320512878
 20
15.3310600194
 10
44.2384155476
 20
15.3383153559
 10
44.2449646544
 20
15.3454044535
 10
44.2516943863
 20
15.3523223651
 10
44.2586005211
 20
15.3590641437
 10
44.2656710751
 20
15.3656180708
 10
44.2729085238
 20
15.3719871583
 10
44.2803079484
 20
15.3781672606
 10
44.2878644299
 20
15.384154232
 10
44.2955730495
 20
15.3899439267
 10
44.3034288884
 20
15.3955321992
 10
44.3114187826
 20
15.4009097011
 10
44.3195451875
 20
15.4060786789
 10
44.3278026004
 20
15.4110357615
 10
44.3361855188
 20
15.415777578
 10
44.3446884401
 20
15.4203007573
 10
44.3533058619
 20
15.4246019285
 10
44.3620246694
 20
15.4286744845
 10
44.3708461964
 20
15.4325196089
 10
44.3797643509
 20
15.4361348637
 10
44.3887730409
 20
15.4395178109
 10
44.3978661745
 20
15.4426660124
 10
44.4070376597
 20
15.4455770304
 10
44.4162754471
 20
15.448246947
 10
44.4255793889
 20
15.4506760848
 10
44.4349434727
 20
15.4528629783
 10
44.4443616862
 20
15.454806162
 10
44.453828017
 20
15.4565041704
 10
44.4633364527
 20
15.4579555382
 10
44.4728779265
 20
15.4591586654
 10
44.4824477977
 20
15.4601134405
 10
44.4920383919
 20
15.4608194733
 10
44.5016420348
 20
15.4612763736
 10
44.511251052
 20
15.4614837514
 10
44.5208577694
 20
15.4614412166
  0
LWPOLYLINE
  5
276
100
AcDbEntity
  8
6_SURFACES-PATINS-SPEC
100
AcDbPolyline
 62
7
  6
CONTINUOUS
 90
35
 70
0
 10
72.9207514226
 20
13.9404412333
 10
72.9206760002
 20
13.9402431838
 10
72.9205949077
 20
13.9400474285
 10
72.9205083658
 20
13.9398539582
 10
72.9204165949
 20
13.9396627637
 10
72.9203198156
 20
13.9394738356
 10
72.9202182485
 20
13.9392871648
 10
72.9201121141
 20
13.939102742
 10
72.920001633
 20
13.938920558
 10
72.9198870257
 20
13.9387406035
 10
72.9197685128
 20
13.9385628692
 10
72.9196463148
 20
13.9383873461
 10
72.9195206522
 20
13.9382140247
 10
72.9193917457
 20
13.9380428958
 10
72.9192598157
 20
13.9378739503
 10
72.9191250829
 20
13.9377071788
 10
72.9189877677
 20
13.9375425722
 10
72.9188480907
 20
13.9373801212
 10
72.9187062725
 20
13.9372198164
 10
72.9184877025
 20
13.9369809653
 10
72.9182649121
 20
13.9367468485
 10
72.9180380908
 20
13.9365172938
 10
72.9178074279
 20
13.936292129
 10
72.9175731127
 20
13.9360711818
 10
72.9173353348
 20
13.9358542801
 10
72.9170942834
 20
13.9356412515
 10
72.9168501479
 20
13.9354319239
 10
72.9166031177
 20
13.935226125
 10
72.9163533821
 20
13.9350236826
 10
72.9161011305
 20
13.9348244244
 10
72.9158465524
 20
13.9346281783
 10
72.915589837
 20
13.934434772
 10
72.9153311737
 20
13.9342440333
 10
72.9150707519
 20
13.9340557899
 10
72.914808761
 20
13.9338698697
  0
LINE
  5
277
100
AcDbEntity
  8
6_SURFACES-PATINS-SPEC
100
AcDbLine
 62
7
  6
CONTINUOUS
 10
43.4026145496
 20
13.0987229606
 11
43.4294534174
 21
13.1644842401
  0
LINE
  5
278
100
AcDbEntity
  8
6_SURFACES-PATINS-SPEC
100
AcDbLine
 62
7
  6
CONTINUOUS
 10
72.5842234826
 20
13.6947679842
 11
72.5949432481
 21
13.7210232539
  0
LINE
  5
279
100
AcDbEntity
  8
6_SURFACES-PATINS-SPEC
100
AcDbLine
 62
7
  6
CONTINUOUS
 10
44.1755897297
 20
15.214484827
 11
44.1881682362
 21
15.2448431448
  0
LINE
  5
27A
100
AcDbEntity
  8
6_SURFACES-PATINS-SPEC
100
AcDbLine
 62
7
  6
CONTINUOUS
 10
43.365359091
 20
13.0252035282
 11
43.4026145496
 21
13.0987229606
  0
LINE
  5
27B
100
AcDbEntity
  8
6_SURFACES-PATINS-SPEC
100
AcDbLine
 62
7
  6
CONTINUOUS
 10
72.5949432481
 20
13.7210232539
 11
72.6120417695
 21
13.754107768
  0
LINE
  5
27C
100
AcDbEntity
  8
6_SURFACES-PATINS-SPEC
100
AcDbLine
 62
7
  6
CONTINUOUS
 10
44.1878119854
 20
15.2440775099
 11
44.2086381638
 21
15.2828348641
  0
LWPOLYLINE
  5
27D
100
AcDbEntity
  8
6_SURFACES-PATINS-SPEC
100
AcDbPolyline
 62
7
  6
CONTINUOUS
 90
28
 70
0
 10
50.0565647073
 20
14.0323899173
 10
50.0567725302
 20
14.0327730919
 10
50.0572106597
 20
14.0330423386
 10
50.0581900936
 20
14.0334342237
 10
50.0591279554
 20
14.0336806572
 10
50.0623159856
 20
14.0343045431
 10
50.0667709547
 20
14.0349134675
 10
50.072485082
 20
14.0355066527
 10
50.0794499789
 20
14.0360833054
 10
50.0876523734
 20
14.036642629
 10
50.0970754547
 20
14.0371838248
 10
50.1195178845
 20
14.0382092374
 10
50.1466551611
 20
14.0391568341
 10
50.1784130391
 20
14.0400246827
 10
50.2147579519
 20
14.0408110299
 10
50.2556431035
 20
14.041514886
 10
50.3009312497
 20
14.0421326914
 10
50.3503508716
 20
14.0426595379
 10
50.4035699187
 20
14.0430912202
 10
50.521066011
 20
14.0436603836
 10
50.6495013637
 20
14.0438234475
 10
50.7816694016
 20
14.0436054058
 10
50.9075493675
 20
14.0430938425
 10
51.0221495513
 20
14.042397388
 10
51.1289426934
 20
14.0415664897
 10
51.2298142705
 20
14.0406292131
 10
51.3264801041
 20
14.0395969203
 10
51.5154458509
 20
14.0372059509
  0
LINE
  5
27E
100
AcDbEntity
  8
6_SURFACES-PATINS-SPEC
100
AcDbLine
 62
7
  6
CONTINUOUS
 10
43.3218028148
 20
12.9551556109
 11
43.365359091
 21
13.0252035282
  0
LINE
  5
27F
100
AcDbEntity
  8
6_SURFACES-PATINS-SPEC
100
AcDbLine
 62
7
  6
CONTINUOUS
 10
72.6120417695
 20
13.754107768
 11
72.6315118614
 21
13.7840357071
  0
LINE
  5
280
100
AcDbEntity
  8
6_SURFACES-PATINS-SPEC
100
AcDbLine
 62
7
  6
CONTINUOUS
 10
44.2082406841
 20
15.282187667
 11
44.2333372186
 21
15.3182229523
  0
LINE
  5
281
100
AcDbEntity
  8
6_SURFACES-PATINS-SPEC
100
AcDbLine
 62
7
  6
CONTINUOUS
 10
43.2722242744
 20
12.8891684744
 11
43.3218028148
 21
12.9551556109
  0
LINE
  5
282
100
AcDbEntity
  8
6_SURFACES-PATINS-SPEC
100
AcDbLine
 62
7
  6
CONTINUOUS
 10
72.6315118614
 20
13.7840357071
 11
72.6525848782
 21
13.8105018056
  0
LINE
  5
283
100
AcDbEntity
  8
6_SURFACES-PATINS-SPEC
100
AcDbLine
 62
7
  6
CONTINUOUS
 10
43.2424478572
 20
12.8547447904
 11
43.2722242744
 21
12.8891684744
  0
LINE
  5
284
100
AcDbEntity
  8
6_SURFACES-PATINS-SPEC
100
AcDbLine
 62
7
  6
CONTINUOUS
 10
44.2329204047
 20
15.3176925172
 11
44.2619384922
 21
15.3505391018
  0
LINE
  5
285
100
AcDbEntity
  8
6_SURFACES-PATINS-SPEC
100
AcDbLine
 62
7
  6
CONTINUOUS
 10
42.9158632315
 20
12.6369566674
 11
42.9158689251
 21
12.6369629534
  0
LWPOLYLINE
  5
286
100
AcDbEntity
  8
6_SURFACES-PATINS-SPEC
100
AcDbPolyline
 62
7
  6
CONTINUOUS
 90
17
 70
0
 10
43.2424477846
 20
12.8547447095
 10
43.2415068208
 20
12.8537245508
 10
43.2405515556
 20
12.8527176525
 10
43.2395838208
 20
12.8517225347
 10
43.238605448
 20
12.8507377176
 10
43.2376182688
 20
12.8497617215
 10
43.2360544154
 20
12.8482444889
 10
43.2344753961
 20
12.846743317
 10
43.232883232
 20
12.8452561766
 10
43.2312799442
 20
12.8437810388
 10
43.2289010791
 20
12.8416261122
 10
43.2265042969
 20
12.8394910029
 10
43.2240914382
 20
12.8373738807
 10
43.2216643437
 20
12.8352729153
 10
43.2192248541
 20
12.8331862762
 10
43.2167748101
 20
12.8311121331
 10
43.2143160523
 20
12.8290486557
  0
LINE
  5
287
100
AcDbEntity
  8
6_SURFACES-PATINS-SPEC
100
AcDbLine
 62
7
  6
CONTINUOUS
 10
43.2398765188
 20
12.8519862678
 11
43.2424557396
 21
12.8547535032
  0
LINE
  5
288
100
AcDbEntity
  8
6_SURFACES-PATINS-SPEC
100
AcDbLine
 62
7
  6
CONTINUOUS
 10
42.9158689251
 20
12.6369629534
 11
42.916332767
 21
12.6374526156
  0
LINE
  5
289
100
AcDbEntity
  8
6_SURFACES-PATINS-SPEC
100
AcDbLine
 62
7
  6
CONTINUOUS
 10
72.6525848782
 20
13.8105018056
 11
72.6743671884
 21
13.8332770783
  0
LINE
  5
28A
100
AcDbEntity
  8
6_SURFACES-PATINS-SPEC
100
AcDbLine
 62
7
  6
CONTINUOUS
 10
43.2349815077
 20
12.8470472758
 11
43.2398765188
 21
12.8519862678
  0
LINE
  5
28B
100
AcDbEntity
  8
6_SURFACES-PATINS-SPEC
100
AcDbLine
 62
7
  6
CONTINUOUS
 10
42.916332767
 20
12.6374526156
 11
42.9174592992
 21
12.6385802111
  0
LINE
  5
28C
100
AcDbEntity
  8
DEFAULT_2
100
AcDbLine
 62
8
  6
CONTINUOUS
 10
73.2084774772
 20
13.4708514292
 11
73.5732736646
 21
13.8356476166
  0
LINE
  5
28D
100
AcDbEntity
  8
0
100
AcDbLine
 62
7
  6
CONTINUOUS
 10
73.2968658248
 20
13.3824630816
 11
73.6616620123
 21
13.747259269
  0
LINE
  5
28E
100
AcDbEntity
  8
6_SURFACES-PATINS-SPEC
100
AcDbLine
 62
7
  6
CONTINUOUS
 10
42.9174592992
 20
12.6385802111
 11
42.9191927713
 21
12.6402379549
  0
LINE
  5
28F
100
AcDbEntity
  8
6_SURFACES-PATINS-SPEC
100
AcDbLine
 62
7
  6
CONTINUOUS
 10
43.2295417167
 20
12.8418858153
 11
43.2349815077
 21
12.8470472758
  0
LWPOLYLINE
  5
290
100
AcDbEntity
  8
6_SURFACES-PATINS-SPEC
100
AcDbPolyline
 62
7
  6
CONTINUOUS
 90
27
 70
0
 10
43.1889707435
 20
12.8308735719
 10
43.1848158865
 20
12.8270064392
 10
43.1805734373
 20
12.8232344824
 10
43.1751489731
 20
12.8185721903
 10
43.1696607426
 20
12.8139856676
 10
43.1602848668
 20
12.8063612553
 10
43.1508051386
 20
12.7988651769
 10
43.1412452924
 20
12.7914707633
 10
43.1295977461
 20
12.782626578
 10
43.1178755865
 20
12.7738824346
 10
43.1060867692
 20
12.7652285499
 10
43.09316733
 20
12.7558875665
 10
43.0801808915
 20
12.7466397275
 10
43.0671302169
 20
12.7374825384
 10
43.0540364585
 20
12.7284282333
 10
43.0408783391
 20
12.7194679407
 10
43.0276527897
 20
12.7106077777
 10
43.0155052435
 20
12.7026054806
 10
43.0032919393
 20
12.6947036553
 10
42.9910059851
 20
12.6869140587
 10
42.9808524573
 20
12.6806124165
 10
42.9706271639
 20
12.6744290023
 10
42.9603120091
 20
12.6683983869
 10
42.9541989398
 20
12.6649427213
 10
42.9480346241
 20
12.6615785205
 10
42.9431283645
 20
12.6590144104
 10
42.9381619364
 20
12.6565707574
  0
LINE
  5
291
100
AcDbEntity
  8
6_SURFACES-PATINS-SPEC
100
AcDbLine
 62
7
  6
CONTINUOUS
 10
42.9191927713
 20
12.6402379549
 11
42.9215009474
 21
12.6423637628
  0
LINE
  5
292
100
AcDbEntity
  8
6_SURFACES-PATINS-SPEC
100
AcDbLine
 62
7
  6
CONTINUOUS
 10
43.2233455809
 20
12.8362806869
 11
43.2295417167
 21
12.8418858153
  0
LINE
  5
293
100
AcDbEntity
  8
6_SURFACES-PATINS-SPEC
100
AcDbLine
 62
7
  6
CONTINUOUS
 10
44.2615232392
 20
15.3501204121
 11
44.2940635394
 21
15.3793555701
  0
LINE
  5
294
100
AcDbEntity
  8
6_SURFACES-PATINS-SPEC
100
AcDbLine
 62
7
  6
CONTINUOUS
 10
42.9215009474
 20
12.6423637628
 11
42.9243691543
 21
12.6449234634
  0
LINE
  5
295
100
AcDbEntity
  8
6_SURFACES-PATINS-SPEC
100
AcDbLine
 62
7
  6
CONTINUOUS
 10
72.6743671884
 20
13.8332770783
 11
72.6957573443
 21
13.852162306
  0
LINE
  5
296
100
AcDbEntity
  8
6_SURFACES-PATINS-SPEC
100
AcDbLine
 62
7
  6
CONTINUOUS
 10
43.2162318367
 20
12.8300895447
 11
43.2233455809
 21
12.8362806869
  0
LINE
  5
297
100
AcDbEntity
  8
6_SURFACES-PATINS-SPEC
100
AcDbLine
 62
7
  6
CONTINUOUS
 10
42.9243691543
 20
12.6449234634
 11
42.9277934904
 21
12.6478985723
  0
LINE
  5
298
100
AcDbEntity
  8
6_SURFACES-PATINS-SPEC
100
AcDbLine
 62
7
  6
CONTINUOUS
 10
42.9277934904
 20
12.6478985723
 11
42.93177813
 21
12.6512810516
  0
LINE
  5
299
100
AcDbEntity
  8
6_SURFACES-PATINS-SPEC
100
AcDbLine
 62
7
  6
CONTINUOUS
 10
43.2080611544
 20
12.8232043343
 11
43.2162318367
 21
12.8300895447
  0
LINE
  5
29A
100
AcDbEntity
  8
6_SURFACES-PATINS-SPEC
100
AcDbLine
 62
7
  6
CONTINUOUS
 10
42.93177813
 20
12.6512810516
 11
42.9363297295
 21
12.6550668201
  0
LWPOLYLINE
  5
29B
100
AcDbEntity
  8
6_SURFACES-PATINS-SPEC
100
AcDbPolyline
 62
7
  6
CONTINUOUS
 90
20
 70
0
 10
43.2143160523
 20
12.8290486557
 10
43.205378514
 20
12.8216754583
 10
43.1963553846
 20
12.814406473
 10
43.1872638157
 20
12.8072228107
 10
43.1707723935
 20
12.7944614882
 10
43.1541443553
 20
12.7818793092
 10
43.1349443758
 20
12.7676347947
 10
43.1156138398
 20
12.7535670921
 10
43.0961629965
 20
12.7396648901
 10
43.0766020949
 20
12.7259168772
 10
43.0569274631
 20
12.7123091672
 10
43.0371436622
 20
12.6988616792
 10
43.0172414404
 20
12.6855916029
 10
42.997211546
 20
12.6725161278
 10
42.9854985194
 20
12.6650089778
 10
42.9737320645
 20
12.6575857328
 10
42.9619050717
 20
12.6502586532
 10
42.9519973239
 20
12.6442383517
 10
42.9420303455
 20
12.6383172542
 10
42.9319918754
 20
12.6325192813
  0
LINE
  5
29C
100
AcDbEntity
  8
6_SURFACES-PATINS-SPEC
100
AcDbLine
 62
7
  6
CONTINUOUS
 10
43.1987298028
 20
12.8155556095
 11
43.2080611544
 21
12.8232043343
  0
LINE
  5
29D
100
AcDbEntity
  8
6_SURFACES-PATINS-SPEC
100
AcDbLine
 62
7
  6
CONTINUOUS
 10
42.9363297295
 20
12.6550668201
 11
42.9414472501
 21
12.6592468817
  0
LINE
  5
29E
100
AcDbEntity
  8
6_SURFACES-PATINS-SPEC
100
AcDbLine
 62
7
  6
CONTINUOUS
 10
42.9414472501
 20
12.6592468817
 11
42.94712241
 21
12.6638075401
  0
LINE
  5
29F
100
AcDbEntity
  8
6_SURFACES-PATINS-SPEC
100
AcDbLine
 62
7
  6
CONTINUOUS
 10
43.1881851134
 20
12.8071193265
 11
43.1987298028
 21
12.8155556095
  0
LINE
  5
2A0
100
AcDbEntity
  8
6_SURFACES-PATINS-SPEC
100
AcDbLine
 62
7
  6
CONTINUOUS
 10
42.94712241
 20
12.6638075401
 11
42.9533439711
 21
12.6687340537
  0
LWPOLYLINE
  5
2A1
100
AcDbEntity
  8
6_SURFACES-PATINS-SPEC
100
AcDbPolyline
 62
7
  6
CONTINUOUS
 90
16
 70
0
 10
42.9342917649
 20
12.6578165562
 10
42.9475142242
 20
12.6682304886
 10
42.9608474726
 20
12.6785031861
 10
42.9742731298
 20
12.688656215
 10
42.9877728151
 20
12.6987111416
 10
43.0091667999
 20
12.7143989208
 10
43.0306931514
 20
12.7299027174
 10
43.0523459987
 20
12.7452286768
 10
43.0689061619
 20
12.7567756958
 10
43.0855377729
 20
12.7682198751
 10
43.1022424191
 20
12.7795578114
 10
43.1190216876
 20
12.7907861017
 10
43.1337865901
 20
12.8005273659
 10
43.1486219368
 20
12.8101605048
 10
43.1635396754
 20
12.8196641664
 10
43.1785517537
 20
12.8290169987
  0
LINE
  5
2A2
100
AcDbEntity
  8
6_SURFACES-PATINS-SPEC
100
AcDbLine
 62
7
  6
CONTINUOUS
 10
43.1764156281
 20
12.7979043102
 11
43.1881851134
 21
12.8071193265
  0
LINE
  5
2A3
100
AcDbEntity
  8
6_SURFACES-PATINS-SPEC
100
AcDbLine
 62
7
  6
CONTINUOUS
 10
42.9533439711
 20
12.6687340537
 11
42.9600958789
 21
12.6740088318
  0
LINE
  5
2A4
100
AcDbEntity
  8
6_SURFACES-PATINS-SPEC
100
AcDbLine
 62
7
  6
CONTINUOUS
 10
42.9600958789
 20
12.6740088318
 11
42.9673593533
 21
12.6796131565
  0
LINE
  5
2A5
100
AcDbEntity
  8
6_SURFACES-PATINS-SPEC
100
AcDbLine
 62
7
  6
CONTINUOUS
 10
43.1634328095
 20
12.7879366335
 11
43.1764156281
 21
12.7979043102
  0
LINE
  5
2A6
100
AcDbEntity
  8
6_SURFACES-PATINS-SPEC
100
AcDbLine
 62
7
  6
CONTINUOUS
 10
42.9673593533
 20
12.6796131565
 11
42.9751279572
 21
12.6855382843
  0
LINE
  5
2A7
100
AcDbEntity
  8
6_SURFACES-PATINS-SPEC
100
AcDbLine
 62
7
  6
CONTINUOUS
 10
72.6957573443
 20
13.852162306
 11
72.7157257705
 21
13.8672355821
  0
LINE
  5
2A8
100
AcDbEntity
  8
6_SURFACES-PATINS-SPEC
100
AcDbLine
 62
7
  6
CONTINUOUS
 10
42.9751279572
 20
12.6855382843
 11
42.9834063376
 21
12.6917840995
  0
LINE
  5
2A9
100
AcDbEntity
  8
6_SURFACES-PATINS-SPEC
100
AcDbLine
 62
7
  6
CONTINUOUS
 10
43.1492455302
 20
12.7772399751
 11
43.1634328095
 21
12.7879366335
  0
LINE
  5
2AA
100
AcDbEntity
  8
6_SURFACES-PATINS-SPEC
100
AcDbLine
 62
7
  6
CONTINUOUS
 10
42.9834063376
 20
12.6917840995
 11
42.9921985424
 21
12.6983496262
  0
LINE
  5
2AB
100
AcDbEntity
  8
6_SURFACES-PATINS-SPEC
100
AcDbLine
 62
7
  6
CONTINUOUS
 10
43.1338860728
 20
12.7658557404
 11
43.1492455302
 21
12.7772399751
  0
LINE
  5
2AC
100
AcDbEntity
  8
6_SURFACES-PATINS-SPEC
100
AcDbLine
 62
7
  6
CONTINUOUS
 10
42.9921985424
 20
12.6983496262
 11
43.001507544
 21
12.70523285
  0
LINE
  5
2AD
100
AcDbEntity
  8
6_SURFACES-PATINS-SPEC
100
AcDbLine
 62
7
  6
CONTINUOUS
 10
43.001507544
 20
12.70523285
 11
43.0113330002
 21
12.7124283481
  0
LINE
  5
2AE
100
AcDbEntity
  8
6_SURFACES-PATINS-SPEC
100
AcDbLine
 62
7
  6
CONTINUOUS
 10
43.1174167636
 20
12.7538478748
 11
43.1338860728
 21
12.7658557404
  0
LINE
  5
2AF
100
AcDbEntity
  8
6_SURFACES-PATINS-SPEC
100
AcDbLine
 62
7
  6
CONTINUOUS
 10
43.0113330002
 20
12.7124283481
 11
43.0216712565
 21
12.7199280152
  0
LINE
  5
2B0
100
AcDbEntity
  8
6_SURFACES-PATINS-SPEC
100
AcDbLine
 62
7
  6
CONTINUOUS
 10
43.0216712565
 20
12.7199280152
 11
43.0325144065
 21
12.7277193384
  0
LINE
  5
2B1
100
AcDbEntity
  8
6_SURFACES-PATINS-SPEC
100
AcDbLine
 62
7
  6
CONTINUOUS
 10
43.0999329993
 20
12.7413044514
 11
43.1174167636
 21
12.7538478748
  0
LINE
  5
2B2
100
AcDbEntity
  8
6_SURFACES-PATINS-SPEC
100
AcDbLine
 62
7
  6
CONTINUOUS
 10
43.0325144065
 20
12.7277193384
 11
43.0438485128
 21
12.7357849576
  0
LINE
  5
2B3
100
AcDbEntity
  8
6_SURFACES-PATINS-SPEC
100
AcDbLine
 62
7
  6
CONTINUOUS
 10
44.2936692842
 20
15.3790404763
 11
44.3292873381
 21
15.4042907989
  0
LINE
  5
2B4
100
AcDbEntity
  8
6_SURFACES-PATINS-SPEC
100
AcDbLine
 62
7
  6
CONTINUOUS
 10
43.0815808176
 20
12.7283496669
 11
43.0999329993
 21
12.7413044514
  0
LINE
  5
2B5
100
AcDbEntity
  8
6_SURFACES-PATINS-SPEC
100
AcDbLine
 62
7
  6
CONTINUOUS
 10
43.0438485128
 20
12.7357849576
 11
43.0556109712
 21
12.7440730555
  0
LINE
  5
2B6
100
AcDbEntity
  8
6_SURFACES-PATINS-SPEC
100
AcDbLine
 62
7
  6
CONTINUOUS
 10
72.1773901635
 20
12.8393656096
 11
72.162687302
 21
12.8290169987
  0
LWPOLYLINE
  5
2B7
100
AcDbEntity
  8
6_SURFACES-PATINS-SPEC
100
AcDbPolyline
 62
7
  6
CONTINUOUS
 90
6
 70
0
 10
72.162687302
 20
12.8290169987
 10
72.0983761304
 20
12.783749575
 10
72.0340436087
 20
12.7385123941
 10
71.9909791391
 20
12.7082845551
 10
71.9478738801
 20
12.6781150012
 10
71.9047067017
 20
12.6480342512
  0
LINE
  5
2B8
100
AcDbEntity
  8
6_SURFACES-PATINS-SPEC
100
AcDbLine
 62
7
  6
CONTINUOUS
 10
72.1897453347
 20
12.8480560918
 11
72.1773901635
 21
12.8393656096
  0
LINE
  5
2B9
100
AcDbEntity
  8
6_SURFACES-PATINS-SPEC
100
AcDbLine
 62
7
  6
CONTINUOUS
 10
72.0000765936
 20
12.7125914704
 11
72.2014125639
 21
12.8541522965
  0
LINE
  5
2BA
100
AcDbEntity
  8
6_SURFACES-PATINS-SPEC
100
AcDbLine
 62
7
  6
CONTINUOUS
 10
72.1995601355
 20
12.8549522325
 11
72.1897453347
 21
12.8480560918
  0
LINE
  5
2BB
100
AcDbEntity
  8
6_SURFACES-PATINS-SPEC
100
AcDbLine
 62
7
  6
CONTINUOUS
 10
72.2124292621
 20
12.8639712156
 11
72.1995601355
 21
12.8549522325
  0
LINE
  5
2BC
100
AcDbEntity
  8
6_SURFACES-PATINS-SPEC
100
AcDbLine
 62
7
  6
CONTINUOUS
 10
71.9373539676
 20
12.6687321221
 11
72.0000765936
 21
12.7125914704
  0
LINE
  5
2BD
100
AcDbEntity
  8
6_SURFACES-PATINS-SPEC
100
AcDbLine
 62
7
  6
CONTINUOUS
 10
43.0556109712
 20
12.7440730555
 11
43.0676601055
 21
12.752477776
  0
LINE
  5
2BE
100
AcDbEntity
  8
6_SURFACES-PATINS-SPEC
100
AcDbLine
 62
7
  6
CONTINUOUS
 10
43.0627173786
 20
12.715253647
 11
43.0815808176
 21
12.7283496669
  0
LINE
  5
2BF
100
AcDbEntity
  8
6_SURFACES-PATINS-SPEC
100
AcDbLine
 62
7
  6
CONTINUOUS
 10
71.9047067017
 20
12.6480342512
 11
71.8926037613
 21
12.6396320915
  0
LINE
  5
2C0
100
AcDbEntity
  8
6_SURFACES-PATINS-SPEC
100
AcDbLine
 62
7
  6
CONTINUOUS
 10
71.8800654256
 20
12.6289834573
 11
71.9373539676
 21
12.6687321221
  0
LINE
  5
2C1
100
AcDbEntity
  8
6_SURFACES-PATINS-SPEC
100
AcDbLine
 62
7
  6
CONTINUOUS
 10
71.8926037613
 20
12.6396320915
 11
71.8822871333
 21
12.632486362
  0
LINE
  5
2C2
100
AcDbEntity
  8
6_SURFACES-PATINS-SPEC
100
AcDbLine
 62
7
  6
CONTINUOUS
 10
43.0676601055
 20
12.752477776
 11
43.079838065
 21
12.7608848282
  0
LINE
  5
2C3
100
AcDbEntity
  8
6_SURFACES-PATINS-SPEC
100
AcDbLine
 62
7
  6
CONTINUOUS
 10
71.866331509
 20
12.6195281645
 11
71.8800654256
 21
12.6289834573
  0
LINE
  5
2C4
100
AcDbEntity
  8
6_SURFACES-PATINS-SPEC
100
AcDbLine
 62
7
  6
CONTINUOUS
 10
71.8610265406
 20
12.6178226752
 11
71.8537927195
 21
12.6128512031
  0
LINE
  5
2C5
100
AcDbEntity
  8
6_SURFACES-PATINS-SPEC
100
AcDbLine
 62
7
  6
CONTINUOUS
 10
43.079838065
 20
12.7608848282
 11
43.0919824895
 21
12.7691800329
  0
LINE
  5
2C6
100
AcDbEntity
  8
6_SURFACES-PATINS-SPEC
100
AcDbLine
 62
7
  6
CONTINUOUS
 10
43.0438431533
 20
12.7023764547
 11
43.0627173786
 21
12.715253647
  0
LINE
  5
2C7
100
AcDbEntity
  8
6_SURFACES-PATINS-SPEC
100
AcDbLine
 62
7
  6
CONTINUOUS
 10
43.0919824895
 20
12.7691800329
 11
43.103931815
 21
12.7772529858
  0
LINE
  5
2C8
100
AcDbEntity
  8
6_SURFACES-PATINS-SPEC
100
AcDbLine
 62
7
  6
CONTINUOUS
 10
43.025465744
 20
12.6900644116
 11
43.0438431533
 21
12.7023764547
  0
LINE
  5
2C9
100
AcDbEntity
  8
6_SURFACES-PATINS-SPEC
100
AcDbLine
 62
7
  6
CONTINUOUS
 10
43.103931815
 20
12.7772529858
 11
43.1155308805
 21
12.7850008529
  0
LWPOLYLINE
  5
2CA
100
AcDbEntity
  8
6_SURFACES-PATINS-SPEC
100
AcDbPolyline
 62
7
  6
CONTINUOUS
 90
27
 70
0
 10
72.914808761
 20
13.9338698697
 10
72.9132201975
 20
13.9328089213
 10
72.9115857578
 20
13.9318178132
 10
72.9099147519
 20
13.9308864845
 10
72.9082164897
 20
13.9300048744
 10
72.9059860635
 20
13.9289215353
 10
72.9037294796
 20
13.9278972241
 10
72.9014507616
 20
13.9269242731
 10
72.8991539333
 20
13.9259950148
 10
72.8962789141
 20
13.9248907872
 10
72.8933849843
 20
13.9238365665
 10
72.890474999
 20
13.9228266966
 10
72.8875518132
 20
13.9218555212
 10
72.8828433881
 20
13.9203670248
 10
72.8781125551
 20
13.918952275
 10
72.8733635005
 20
13.91760009
 10
72.8673677733
 20
13.9159728837
 10
72.861352274
 20
13.9144197453
 10
72.8553194498
 20
13.9129333989
 10
72.8492717478
 20
13.9115065687
 10
72.8432116154
 20
13.9101319787
 10
72.8371414997
 20
13.908802353
 10
72.827843876
 20
13.9068425267
 10
72.8185303866
 20
13.9049634072
 10
72.8092027893
 20
13.9031575626
 10
72.7998628421
 20
13.9014175615
 10
72.7905123029
 20
13.8997359721
  0
LINE
  5
2CB
100
AcDbEntity
  8
6_SURFACES-PATINS-SPEC
100
AcDbLine
 62
7
  6
CONTINUOUS
 10
43.1155308805
 20
12.7850008529
 11
43.126635545
 21
12.7923316473
  0
LINE
  5
2CC
100
AcDbEntity
  8
6_SURFACES-PATINS-SPEC
100
AcDbLine
 62
7
  6
CONTINUOUS
 10
43.0080548549
 20
12.6786189776
 11
43.025465744
 21
12.6900644116
  0
LINE
  5
2CD
100
AcDbEntity
  8
6_SURFACES-PATINS-SPEC
100
AcDbLine
 62
7
  6
CONTINUOUS
 10
72.7157257705
 20
13.8672355821
 11
72.7334479882
 21
13.8788124585
  0
LINE
  5
2CE
100
AcDbEntity
  8
6_SURFACES-PATINS-SPEC
100
AcDbLine
 62
7
  6
CONTINUOUS
 10
43.126635545
 20
12.7923316473
 11
43.1371302457
 21
12.799175197
  0
LINE
  5
2CF
100
AcDbEntity
  8
6_SURFACES-PATINS-SPEC
100
AcDbLine
 62
7
  6
CONTINUOUS
 10
42.9919901216
 20
12.6682651722
 11
43.0080548549
 21
12.6786189776
  0
LINE
  5
2D0
100
AcDbEntity
  8
6_SURFACES-PATINS-SPEC
100
AcDbLine
 62
7
  6
CONTINUOUS
 10
43.1371302457
 20
12.799175197
 11
43.1469676097
 21
12.8055081586
  0
LINE
  5
2D1
100
AcDbEntity
  8
6_SURFACES-PATINS-SPEC
100
AcDbLine
 62
7
  6
CONTINUOUS
 10
43.1469676097
 20
12.8055081586
 11
43.1561256569
 21
12.8113241946
  0
LINE
  5
2D2
100
AcDbEntity
  8
6_SURFACES-PATINS-SPEC
100
AcDbLine
 62
7
  6
CONTINUOUS
 10
42.9773583735
 20
12.6590298692
 11
42.9919901216
 21
12.6682651722
  0
LINE
  5
2D3
100
AcDbEntity
  8
6_SURFACES-PATINS-SPEC
100
AcDbLine
 62
7
  6
CONTINUOUS
 10
43.1561256569
 20
12.8113241946
 11
43.1645900419
 21
12.8166225052
  0
LINE
  5
2D4
100
AcDbEntity
  8
6_SURFACES-PATINS-SPEC
100
AcDbLine
 62
7
  6
CONTINUOUS
 10
42.9640648272
 20
12.6508264341
 11
42.9773583735
 21
12.6590298692
  0
LINE
  5
2D5
100
AcDbEntity
  8
6_SURFACES-PATINS-SPEC
100
AcDbLine
 62
7
  6
CONTINUOUS
 10
43.1645900419
 20
12.8166225052
 11
43.1723597091
 21
12.821410927
  0
LINE
  5
2D6
100
AcDbEntity
  8
6_SURFACES-PATINS-SPEC
100
AcDbLine
 62
7
  6
CONTINUOUS
 10
43.1723597091
 20
12.821410927
 11
43.1794578843
 21
12.8257124447
  0
LINE
  5
2D7
100
AcDbEntity
  8
6_SURFACES-PATINS-SPEC
100
AcDbLine
 62
7
  6
CONTINUOUS
 10
42.9519968175
 20
12.6435634904
 11
42.9640648272
 21
12.6508264341
  0
LINE
  5
2D8
100
AcDbEntity
  8
6_SURFACES-PATINS-SPEC
100
AcDbLine
 62
7
  6
CONTINUOUS
 10
43.1794578843
 20
12.8257124447
 11
43.1859134306
 21
12.8295528292
  0
LINE
  5
2D9
100
AcDbEntity
  8
6_SURFACES-PATINS-SPEC
100
AcDbLine
 62
7
  6
CONTINUOUS
 10
42.9410534949
 20
12.6371626746
 11
42.9519968175
 21
12.6435634904
  0
LINE
  5
2DA
100
AcDbEntity
  8
6_SURFACES-PATINS-SPEC
100
AcDbLine
 62
7
  6
CONTINUOUS
 10
43.1859134306
 20
12.8295528292
 11
43.1917504232
 21
12.8329545707
  0
LINE
  5
2DB
100
AcDbEntity
  8
6_SURFACES-PATINS-SPEC
100
AcDbLine
 62
7
  6
CONTINUOUS
 10
43.1956735983
 20
12.8393656096
 11
43.2107103668
 21
12.8480560918
  0
LINE
  5
2DC
100
AcDbEntity
  8
6_SURFACES-PATINS-SPEC
100
AcDbLine
 62
7
  6
CONTINUOUS
 10
72.7334479882
 20
13.8788124585
 11
72.7487142293
 21
13.8875403395
  0
LINE
  5
2DD
100
AcDbEntity
  8
6_SURFACES-PATINS-SPEC
100
AcDbLine
 62
7
  6
CONTINUOUS
 10
43.1917504232
 20
12.8329545707
 11
43.1969872757
 21
12.8359364913
  0
LINE
  5
2DE
100
AcDbEntity
  8
6_SURFACES-PATINS-SPEC
100
AcDbLine
 62
7
  6
CONTINUOUS
 10
42.9312046264
 20
12.6315908428
 11
42.9410534949
 21
12.6371626746
  0
LWPOLYLINE
  5
2DF
100
AcDbEntity
  8
6_SURFACES-PATINS-SPEC
100
AcDbPolyline
 62
7
  6
CONTINUOUS
 90
27
 70
0
 10
43.2107103668
 20
12.8480560918
 10
43.2132309576
 20
12.8494638661
 10
43.2157591497
 20
12.8508583099
 10
43.218295876
 20
12.852237072
 10
43.2208420692
 20
12.8535978013
 10
43.2233986623
 20
12.8549381466
 10
43.2254156249
 20
12.8559752692
 10
43.2274410489
 20
12.8569957426
 10
43.2294763985
 20
12.8579969549
 10
43.231523138
 20
12.8589762941
 10
43.2335827315
 20
12.8599311484
 10
43.2346387424
 20
12.8604074817
 10
43.2356992334
 20
12.8608739033
 10
43.2367649596
 20
12.861327551
 10
43.2378366763
 20
12.8617655624
 10
43.2389151386
 20
12.8621850751
 10
43.2400011017
 20
12.8625832268
 10
43.2410953207
 20
12.8629571551
 10
43.2417660371
 20
12.8631712375
 10
43.2424411421
 20
12.8633716486
 10
43.2431216838
 20
12.8635547572
 10
43.2438087105
 20
12.8637169325
 10
43.2442054707
 20
12.8637984995
 10
43.2446043471
 20
12.8638683592
 10
43.2450049844
 20
12.8639228637
 10
43.2454070273
 20
12.8639583651
 10
43.2458101203
 20
12.8639712156
  0
LINE
  5
2E0
100
AcDbEntity
  8
6_SURFACES-PATINS-SPEC
100
AcDbLine
 62
7
  6
CONTINUOUS
 10
43.1969872757
 20
12.8359364913
 11
43.2016248926
 21
12.8385077788
  0
LINE
  5
2E1
100
AcDbEntity
  8
6_SURFACES-PATINS-SPEC
100
AcDbLine
 62
7
  6
CONTINUOUS
 10
42.9224011282
 20
12.6268051651
 11
42.9312046264
 21
12.6315908428
  0
LWPOLYLINE
  5
2E2
100
AcDbEntity
  8
6_SURFACES-PATINS-SPEC
100
AcDbPolyline
 62
7
  6
CONTINUOUS
 90
16
 70
0
 10
42.9215363854
 20
12.6267016326
 10
42.9196657657
 20
12.6256909274
 10
42.9177906117
 20
12.6246887152
 10
42.9159104402
 20
12.6236959366
 10
42.9140247675
 20
12.6227135323
 10
42.9121331103
 20
12.6217424428
 10
42.9102349851
 20
12.6207836087
 10
42.9083299084
 20
12.6198379706
 10
42.9070852599
 20
12.6192298983
 10
42.905836942
 20
12.6186292882
 10
42.9045844385
 20
12.6180376077
 10
42.903327233
 20
12.6174563237
 10
42.9020648093
 20
12.6168869035
 10
42.900796651
 20
12.6163308144
 10
42.8995222418
 20
12.6157895233
 10
42.8982410655
 20
12.6152644976
  0
LINE
  5
2E3
100
AcDbEntity
  8
6_SURFACES-PATINS-SPEC
100
AcDbLine
 62
7
  6
CONTINUOUS
 10
43.2016248926
 20
12.8385077788
 11
43.2056448203
 21
12.8406684562
  0
LINE
  5
2E4
100
AcDbEntity
  8
6_SURFACES-PATINS-SPEC
100
AcDbLine
 62
7
  6
CONTINUOUS
 10
43.2056448203
 20
12.8406684562
 11
43.2090237902
 21
12.8424190406
  0
LINE
  5
2E5
100
AcDbEntity
  8
6_SURFACES-PATINS-SPEC
100
AcDbLine
 62
7
  6
CONTINUOUS
 10
42.9145422396
 20
12.6227377269
 11
42.9224011282
 21
12.6268051651
  0
LINE
  5
2E6
100
AcDbEntity
  8
6_SURFACES-PATINS-SPEC
100
AcDbLine
 62
7
  6
CONTINUOUS
 10
72.7487142293
 20
13.8875403395
 11
72.7617809457
 21
13.8941315292
  0
LINE
  5
2E7
100
AcDbEntity
  8
6_SURFACES-PATINS-SPEC
100
AcDbLine
 62
7
  6
CONTINUOUS
 10
43.2090237902
 20
12.8424190406
 11
43.2117289294
 21
12.8437596776
  0
LINE
  5
2E8
100
AcDbEntity
  8
6_SURFACES-PATINS-SPEC
100
AcDbLine
 62
7
  6
CONTINUOUS
 10
42.9074677997
 20
12.6192986744
 11
42.9145422396
 21
12.6227377269
  0
LINE
  5
2E9
100
AcDbEntity
  8
6_SURFACES-PATINS-SPEC
100
AcDbLine
 62
7
  6
CONTINUOUS
 10
72.7617809457
 20
13.8941315292
 11
72.7727080338
 21
13.899015008
  0
LINE
  5
2EA
100
AcDbEntity
  8
6_SURFACES-PATINS-SPEC
100
AcDbLine
 62
7
  6
CONTINUOUS
 10
72.7727080338
 20
13.899015008
 11
72.7811225494
 21
13.9023560682
  0
LINE
  5
2EB
100
AcDbEntity
  8
6_SURFACES-PATINS-SPEC
100
AcDbLine
 62
7
  6
CONTINUOUS
 10
71.8040876337
 20
12.594865837
 11
71.853792721
 21
12.6128512031
  0
LINE
  5
2EC
100
AcDbEntity
  8
6_SURFACES-PATINS-SPEC
100
AcDbLine
 62
7
  6
CONTINUOUS
 10
72.7811225494
 20
13.9023560682
 11
72.7866169355
 21
13.904303201
  0
LINE
  5
2ED
100
AcDbEntity
  8
6_SURFACES-PATINS-SPEC
100
AcDbLine
 62
7
  6
CONTINUOUS
 10
72.7866169355
 20
13.904303201
 11
72.7886135594
 21
13.9049472559
  0
LINE
  5
2EE
100
AcDbEntity
  8
6_SURFACES-PATINS-SPEC
100
AcDbLine
 62
7
  6
CONTINUOUS
 10
71.7536336956
 20
12.579775417
 11
71.8040876337
 21
12.594865837
  0
LWPOLYLINE
  5
2EF
100
AcDbEntity
  8
0
100
AcDbPolyline
 62
7
  6
CONTINUOUS
 90
17
 70
0
 10
25.6564519499
 20
24.2892017217
 10
27.2587432365
 20
24.5224552298
 10
28.8632352243
 20
24.7404777585
 10
30.4697342011
 20
24.9434522627
 10
32.0780464546
 20
25.1315616971
 10
33.7106902469
 20
25.3073197937
 10
35.3448578307
 20
25.4681124511
 10
36.9804074573
 20
25.6140731376
 10
38.6171973779
 20
25.7453353215
 10
40.2674341406
 20
25.8628475531
 10
41.9186562863
 20
25.9656550454
 10
43.5707340348
 20
26.0538384236
 10
45.2235376059
 20
26.1274783127
 10
46.8847591203
 20
26.1868927478
 10
48.5464322815
 20
26.2317387423
 10
50.2084070398
 20
26.2620479173
 10
51.8705333454
 20
26.2778518941
  0
LWPOLYLINE
  5
2F0
100
AcDbEntity
  8
0
100
AcDbPolyline
 62
7
  6
CONTINUOUS
 90
13
 70
0
 10
26.4833295623
 20
24.5047795966
 10
28.0090207865
 20
24.7089636162
 10
29.536417315
 20
24.9002002084
 10
31.0653696691
 20
25.0786425161
 10
32.5983004661
 20
25.2447011153
 10
34.1325341191
 20
25.3981711017
 10
35.6679624207
 20
25.5391473981
 10
37.2060428052
 20
25.667842467
 10
38.7451118243
 20
25.7841665529
 10
40.285069459
 20
25.8881726895
 10
41.8266906607
 20
25.9799562655
 10
43.3689858623
 20
26.0594756825
 10
44.9118395683
 20
26.1267456692
  0
LWPOLYLINE
  5
2F1
100
AcDbEntity
  8
0
100
AcDbPolyline
 62
7
  6
CONTINUOUS
 90
49
 70
0
 10
25.6565025523
 20
24.2891970753
 10
25.6398155415
 20
24.2870448261
 10
25.6230683117
 20
24.2853419189
 10
25.6062752625
 20
24.2840894399
 10
25.5894507931
 20
24.2832884755
 10
25.572609303
 20
24.2829401118
 10
25.5557651916
 20
24.2830454351
 10
25.5389348412
 20
24.2836050222
 10
25.5221278415
 20
24.2846179686
 10
25.5053557681
 20
24.2860829927
 10
25.4886301971
 20
24.2879988133
 10
25.4719627042
 20
24.2903641488
 10
25.4553648655
 20
24.2931777178
 10
25.438850789
 20
24.2964374139
 10
25.422429899
 20
24.3001408238
 10
25.4061141764
 20
24.3042848426
 10
25.389915602
 20
24.3088663658
 10
25.3738461566
 20
24.3138822887
 10
25.3579178212
 20
24.3193295065
 10
25.3421450627
 20
24.3252035762
 10
25.3265364741
 20
24.331500674
 10
25.3111031856
 20
24.3382157811
 10
25.2958563276
 20
24.3453438786
 10
25.2808070305
 20
24.3528799478
 10
25.2659664245
 20
24.3608189699
 10
25.2513478361
 20
24.369154266
 10
25.2369592176
 20
24.3778806752
 10
25.2228107885
 20
24.3869915053
 10
25.2089127682
 20
24.3964800641
 10
25.1952753762
 20
24.4063396593
 10
25.1819088321
 20
24.4165635988
 10
25.1688249674
 20
24.4271433964
 10
25.156031155
 20
24.438072292
 10
25.1435364581
 20
24.4493418311
 10
25.13134994
 20
24.4609435594
 10
25.119480664
 20
24.4728690223
 10
25.1079376935
 20
24.4851097656
 10
25.096730997
 20
24.4976558464
 10
25.0858668979
 20
24.510499579
 10
25.0753526976
 20
24.5236318557
 10
25.0651956974
 20
24.5370435689
 10
25.0554031988
 20
24.5507256112
 10
25.0459825033
 20
24.5646688749
 10
25.036941154
 20
24.5788631081
 10
25.0282856662
 20
24.5932966441
 10
25.0200228248
 20
24.6079566907
 10
25.0121594148
 20
24.6228304554
 10
25.0047022212
 20
24.6379051458
 10
24.997658029
 20
24.6531679697
  0
LWPOLYLINE
  5
2F2
100
AcDbEntity
  8
0
100
AcDbPolyline
 62
7
  6
CONTINUOUS
 90
49
 70
0
 10
25.6297396997
 20
24.3462455422
 10
25.6130749744
 20
24.3441309802
 10
25.5963511458
 20
24.3424644551
 10
25.579582547
 20
24.3412470193
 10
25.5627835112
 20
24.3404797252
 10
25.5459683713
 20
24.3401636252
 10
25.5291514603
 20
24.3402997717
 10
25.512349045
 20
24.3408887091
 10
25.4955707064
 20
24.3419295206
 10
25.4788279631
 20
24.3434209107
 10
25.4621323335
 20
24.3453615843
 10
25.445495336
 20
24.347750246
 10
25.4289284889
 20
24.3505856007
 10
25.4124457788
 20
24.3538655393
 10
25.3960566326
 20
24.3575876375
 10
25.3797729694
 20
24.3617487876
 10
25.3636067079
 20
24.3663458815
 10
25.3475697673
 20
24.3713758115
 10
25.3316740663
 20
24.3768354696
 10
25.3159339421
 20
24.3827204346
 10
25.3003579973
 20
24.389026872
 10
25.2849573025
 20
24.395749773
 10
25.2697429287
 20
24.4028841293
 10
25.2547259466
 20
24.4104249322
 10
25.2399174268
 20
24.4183671732
 10
25.2253305741
 20
24.4267042196
 10
25.210973349
 20
24.4354309003
 10
25.1968559154
 20
24.4445405451
 10
25.1829884371
 20
24.4540264841
 10
25.1693810779
 20
24.463882047
 10
25.1560440015
 20
24.4741005638
 10
25.1429889359
 20
24.4846736111
 10
25.1302232544
 20
24.4955944253
 10
25.1177559709
 20
24.5068545862
 10
25.1055960991
 20
24.5184456739
 10
25.0937526528
 20
24.5303592682
 10
25.0822346458
 20
24.5425869491
 10
25.0710519678
 20
24.5551188439
 10
25.060210934
 20
24.5679472736
 10
25.0497188065
 20
24.5810631713
 10
25.0395828475
 20
24.5944574701
 10
25.029810319
 20
24.6081211032
 10
25.0204084831
 20
24.6220450037
 10
25.0113848322
 20
24.6362189833
 10
25.0027458597
 20
24.6506314141
 10
24.9944983164
 20
24.6652695644
 10
24.986648953
 20
24.6801207029
 10
24.9792045203
 20
24.6951720979
 10
24.9721717688
 20
24.7104110181
  0
LINE
  5
2F3
100
AcDbEntity
  8
0
100
AcDbLine
 62
7
  6
CONTINUOUS
 10
52.8548160857
 20
26.8365805234
 11
52.8863306316
 21
26.8365810532
  0
LINE
  5
2F4
100
AcDbEntity
  8
0
100
AcDbLine
 62
7
  6
CONTINUOUS
 10
17.0102541725
 20
31.8976281245
 11
83.0102541725
 21
31.8976281245
  0
LINE
  5
2F5
100
AcDbEntity
  8
0
100
AcDbLine
 62
7
  6
CONTINUOUS
 10
55.0102541725
 20
35.3976281245
 11
45.0102541725
 21
35.3976281245
  0
LINE
  5
2F6
100
AcDbEntity
  8
0
100
AcDbLine
 62
7
  6
CONTINUOUS
 10
52.9046018986
 20
25.9445580684
 11
52.8734152761
 21
25.9445615681
  0
LINE
  5
2F7
100
AcDbEntity
  8
0
100
AcDbLine
 62
7
  6
CONTINUOUS
 10
52.8515039293
 20
26.2791501535
 11
52.882842488
 21
26.2790837677
  0
LWPOLYLINE
  5
2F8
100
AcDbEntity
  8
0
100
AcDbPolyline
 62
7
  6
CONTINUOUS
 90
21
 70
0
 10
52.8828424894
 20
26.2790837712
 10
53.8536500581
 20
26.2737911445
 10
54.8244094694
 20
26.2623666813
 10
55.7952750575
 20
26.2450116383
 10
56.7660190481
 20
26.2219372907
 10
57.7367385777
 20
26.1933498416
 10
58.7073557412
 20
26.1594584111
 10
59.6778409625
 20
26.1202527717
 10
60.6481464169
 20
26.0750029797
 10
61.6182170931
 20
26.0233590853
 10
62.5879069225
 20
25.9650173746
 10
63.5571764462
 20
25.8995993107
 10
64.5258814352
 20
25.8265285324
 10
65.4938552563
 20
25.7449291591
 10
65.9774826595
 20
25.7005165009
 10
66.4608442234
 20
25.6533145846
 10
66.9438387919
 20
25.6029371024
 10
67.4263759119
 20
25.5487202766
 10
67.9082712803
 20
25.4895102016
 10
68.1488665078
 20
25.4574021056
 10
68.3891216873
 20
25.4228776552
  0
LWPOLYLINE
  5
2F9
100
AcDbEntity
  8
0
100
AcDbPolyline
 62
7
  6
CONTINUOUS
 90
47
 70
0
 10
47.6856140429
 20
15.5307386084
 10
47.6931738274
 20
15.5300096887
 10
47.7007157812
 20
15.5290467042
 10
47.7082322234
 20
15.527852333
 10
47.7157154731
 20
15.5264292532
 10
47.7231578491
 20
15.5247801428
 10
47.7305516705
 20
15.5229076798
 10
47.7378892563
 20
15.5208145422
 10
47.7451629255
 20
15.5185034083
 10
47.752364997
 20
15.5159769559
 10
47.75948779
 20
15.5132378631
 10
47.7664807147
 20
15.5103076365
 10
47.7733814154
 20
15.5071726754
 10
47.7801835585
 20
15.5038356258
 10
47.7868808103
 20
15.5002991339
 10
47.7934668372
 20
15.4965658456
 10
47.7999353056
 20
15.4926384069
 10
47.8062798817
 20
15.4885194639
 10
47.8124942319
 20
15.4842116627
 10
47.8185720226
 20
15.4797176493
 10
47.82450692
 20
15.4750400697
 10
47.8302925907
 20
15.4701815699
 10
47.8359227008
 20
15.465144796
 10
47.8414287735
 20
15.4598962185
 10
47.8467673035
 20
15.4544757636
 10
47.8519348955
 20
15.4488896268
 10
47.8569281544
 20
15.4431440033
 10
47.861743685
 20
15.4372450884
 10
47.8663780921
 20
15.4311990776
 10
47.8708279806
 20
15.4250121662
 10
47.8750899553
 20
15.4186905494
 10
47.8791606209
 20
15.4122404227
 10
47.8830365824
 20
15.4056679813
 10
47.8867144445
 20
15.3989794206
 10
47.890190812
 20
15.392180936
 10
47.8934955869
 20
15.3852059721
 10
47.8965879323
 20
15.3781329544
 10
47.8994646336
 20
15.3709697471
 10
47.902122476
 20
15.3637242147
 10
47.9045582446
 20
15.3564042214
 10
47.9067687248
 20
15.3490176317
 10
47.9087507019
 20
15.3415723098
 10
47.9105009609
 20
15.3340761201
 10
47.9120162872
 20
15.3265369269
 10
47.9132934661
 20
15.3189625946
 10
47.9143292827
 20
15.3113609875
 10
47.9151205224
 20
15.30373997
  0
LINE
  5
2FA
100
AcDbEntity
  8
6_SURFACES-PATINS-SPEC
100
AcDbLine
 62
7
  6
CONTINUOUS
 10
50.1097271877
 20
14.0265166298
 11
50.1117274613
 21
14.0262640017
  0
LINE
  5
2FB
100
AcDbEntity
  8
6_SURFACES-PATINS-SPEC
100
AcDbLine
 62
7
  6
CONTINUOUS
 10
50.1117274613
 20
14.0262640017
 11
50.1154976673
 21
14.0257276134
  0
LINE
  5
2FC
100
AcDbEntity
  8
DEFAULT_1
100
AcDbLine
 62
7
  6
CENTER
 10
75.9193516496
 20
30.8180989887
 11
81.8537124293
 21
29.8781885779
  0
LINE
  5
2FD
100
AcDbEntity
  8
6_SURFACES-PATINS-SPEC
100
AcDbLine
 62
7
  6
CONTINUOUS
 10
50.1154976673
 20
14.0257276134
 11
50.1212974048
 21
14.024786563
  0
LINE
  5
2FE
100
AcDbEntity
  8
6_SURFACES-PATINS-SPEC
100
AcDbLine
 62
7
  6
CONTINUOUS
 10
50.1212017888
 20
14.0248030984
 11
50.1290042784
 21
14.0233494252
  0
LINE
  5
2FF
100
AcDbEntity
  8
6_SURFACES-PATINS-SPEC
100
AcDbLine
 62
7
  6
CONTINUOUS
 10
31.0981116744
 20
15.6933866078
 11
31.1395209513
 21
15.6856091808
  0
LINE
  5
300
100
AcDbEntity
  8
6_SURFACES-PATINS-SPEC
100
AcDbLine
 62
7
  6
CONTINUOUS
 10
50.128878981
 20
14.0233743939
 11
50.1388306845
 21
14.0212323601
  0
LINE
  5
301
100
AcDbEntity
  8
6_SURFACES-PATINS-SPEC
100
AcDbLine
 62
7
  6
CONTINUOUS
 10
51.2668746454
 20
12.5797754179
 11
51.3471618365
 21
12.5619438153
  0
LINE
  5
302
100
AcDbEntity
  8
6_SURFACES-PATINS-SPEC
100
AcDbLine
 62
7
  6
CONTINUOUS
 10
50.1386701106
 20
14.021269445
 11
50.1511624548
 21
14.0181408969
  0
LINE
  5
303
100
AcDbEntity
  8
6_SURFACES-PATINS-SPEC
100
AcDbLine
 62
7
  6
CONTINUOUS
 10
50.1509519535
 20
14.018197687
 11
50.1661682486
 21
14.0137319503
  0
LINE
  5
304
100
AcDbEntity
  8
6_SURFACES-PATINS-SPEC
100
AcDbLine
 62
7
  6
CONTINUOUS
 10
51.2164207113
 20
12.594865837
 11
51.2668746454
 21
12.5797754179
  0
LINE
  5
305
100
AcDbEntity
  8
6_SURFACES-PATINS-SPEC
100
AcDbLine
 62
7
  6
CONTINUOUS
 10
31.1393588579
 20
15.6856491297
 11
31.1797224423
 21
15.673262979
  0
LINE
  5
306
100
AcDbEntity
  8
6_SURFACES-PATINS-SPEC
100
AcDbLine
 62
7
  6
CONTINUOUS
 10
32.7907086265
 20
12.6053864906
 11
32.8694298507
 21
12.5802777562
  0
LINE
  5
307
100
AcDbEntity
  8
6_SURFACES-PATINS-SPEC
100
AcDbLine
 62
7
  6
CONTINUOUS
 10
50.165897644
 20
14.0138177886
 11
50.1835076792
 21
14.007738017
  0
LINE
  5
308
100
AcDbEntity
  8
6_SURFACES-PATINS-SPEC
100
AcDbLine
 62
7
  6
CONTINUOUS
 10
51.2164207113
 20
12.594865837
 11
51.166715624
 21
12.6128512031
  0
LINE
  5
309
100
AcDbEntity
  8
6_SURFACES-PATINS-SPEC
100
AcDbLine
 62
7
  6
CONTINUOUS
 10
32.7650601845
 20
12.6152627681
 11
32.7907086265
 21
12.6053864906
  0
LINE
  5
30A
100
AcDbEntity
  8
6_SURFACES-PATINS-SPEC
100
AcDbLine
 62
7
  6
CONTINUOUS
 10
50.183175989
 20
14.0078619145
 11
50.2025715466
 21
13.9999912913
  0
LINE
  5
30B
100
AcDbEntity
  8
6_SURFACES-PATINS-SPEC
100
AcDbLine
 62
7
  6
CONTINUOUS
 10
32.7604979154
 20
12.6171815799
 11
32.7650681255
 21
12.6152595916
  0
LWPOLYLINE
  5
30C
100
AcDbEntity
  8
6_SURFACES-PATINS-SPEC
100
AcDbPolyline
 62
7
  6
CONTINUOUS
 90
33
 70
0
 10
32.7650601305
 20
12.6152627931
 10
32.7610801581
 20
12.6169524674
 10
32.7571553887
 20
12.618770427
 10
32.7532718096
 20
12.6206775598
 10
32.7453201442
 20
12.6247889677
 10
32.7374574479
 20
12.6290636858
 10
32.7277015606
 20
12.634578646
 10
32.7180235992
 20
12.6402308509
 10
32.7067081043
 20
12.6470150895
 10
32.6954623918
 20
12.653913862
 10
32.6828700467
 20
12.6617935287
 10
32.6703419855
 20
12.6697751838
 10
32.6567941654
 20
12.6785471337
 10
32.6433073925
 20
12.6874126536
 10
32.6242064287
 20
12.7001783102
 10
32.6052129075
 20
12.7131038234
 10
32.5863209104
 20
12.7261777208
 10
32.5675469033
 20
12.7393769446
 10
32.5488741584
 20
12.7527185937
 10
32.5303085406
 20
12.7662084795
 10
32.5173538497
 20
12.7757634541
 10
32.5044618099
 20
12.7854027901
 10
32.4926678587
 20
12.7943503733
 10
32.4809435172
 20
12.8033888095
 10
32.4706065128
 20
12.811497922
 10
32.460348039
 20
12.8197066432
 10
32.4517227612
 20
12.8267646006
 10
32.4431945938
 20
12.8339382167
 10
32.4364958097
 20
12.8397594516
 10
32.4299159434
 20
12.8457182147
 10
32.4268128035
 20
12.8486473367
 10
32.4237794146
 20
12.8516467571
 10
32.4208491698
 20
12.8547447101
  0
LINE
  5
30D
100
AcDbEntity
  8
6_SURFACES-PATINS-SPEC
100
AcDbLine
 62
7
  6
CONTINUOUS
 10
31.1794865544
 20
15.6733500839
 11
31.2182909897
 21
15.6564919574
  0
LINE
  5
30E
100
AcDbEntity
  8
6_SURFACES-PATINS-SPEC
100
AcDbLine
 62
7
  6
CONTINUOUS
 10
32.7535029376
 20
12.6204019644
 11
32.7604979154
 21
12.6171815799
  0
LINE
  5
30F
100
AcDbEntity
  8
6_SURFACES-PATINS-SPEC
100
AcDbLine
 62
7
  6
CONTINUOUS
 10
50.2021885679
 20
14.0001592674
 11
50.2227288006
 21
13.9904011717
  0
LINE
  5
310
100
AcDbEntity
  8
6_SURFACES-PATINS-SPEC
100
AcDbLine
 62
7
  6
CONTINUOUS
 10
32.7457890496
 20
12.6242460998
 11
32.7535029376
 21
12.6204019644
  0
LINE
  5
311
100
AcDbEntity
  8
6_SURFACES-PATINS-SPEC
100
AcDbLine
 62
7
  6
CONTINUOUS
 10
32.7371233988
 20
12.6288299826
 11
32.7457890496
 21
12.6242460998
  0
LINE
  5
312
100
AcDbEntity
  8
0
100
AcDbLine
 62
7
  6
CONTINUOUS
 10
29.0869847965
 20
16.1811610574
 11
29.1899371442
 21
16.125165645
  0
LINE
  5
313
100
AcDbEntity
  8
6_SURFACES-PATINS-SPEC
100
AcDbLine
 62
7
  6
CONTINUOUS
 10
50.2223112554
 20
13.9906151437
 11
50.2435825216
 21
13.9788380319
  0
LINE
  5
314
100
AcDbEntity
  8
6_SURFACES-PATINS-SPEC
100
AcDbLine
 62
7
  6
CONTINUOUS
 10
32.7273469724
 20
12.6342501758
 11
32.7371233988
 21
12.6288299826
  0
LINE
  5
315
100
AcDbEntity
  8
6_SURFACES-PATINS-SPEC
100
AcDbLine
 62
7
  6
CONTINUOUS
 10
31.2179906394
 20
15.6566429529
 11
31.2547399569
 21
15.6355070615
  0
LINE
  5
316
100
AcDbEntity
  8
6_SURFACES-PATINS-SPEC
100
AcDbLine
 62
7
  6
CONTINUOUS
 10
32.7163682005
 20
12.6405747978
 11
32.7273469724
 21
12.6342501758
  0
LINE
  5
317
100
AcDbEntity
  8
6_SURFACES-PATINS-SPEC
100
AcDbLine
 62
7
  6
CONTINUOUS
 10
32.7041502295
 20
12.6478434031
 11
32.7163682005
 21
12.6405747978
  0
LINE
  5
318
100
AcDbEntity
  8
6_SURFACES-PATINS-SPEC
100
AcDbLine
 62
7
  6
CONTINUOUS
 10
32.6906106646
 20
12.6561248513
 11
32.7041502295
 21
12.6478434031
  0
LINE
  5
319
100
AcDbEntity
  8
0
100
AcDbLine
 62
7
  6
CONTINUOUS
 10
28.9461074282
 20
16.2679491186
 11
29.0869847965
 21
16.1811610574
  0
LINE
  5
31A
100
AcDbEntity
  8
6_SURFACES-PATINS-SPEC
100
AcDbLine
 62
7
  6
CONTINUOUS
 10
32.6756145284
 20
12.6655257473
 11
32.6906106646
 21
12.6561248513
  0
LINE
  5
31B
100
AcDbEntity
  8
6_SURFACES-PATINS-SPEC
100
AcDbLine
 62
7
  6
CONTINUOUS
 10
32.6590404791
 20
12.6761521779
 11
32.6756145284
 21
12.6655257473
  0
LINE
  5
31C
100
AcDbEntity
  8
6_SURFACES-PATINS-SPEC
100
AcDbLine
 62
7
  6
CONTINUOUS
 10
50.2431438062
 20
13.9790996138
 11
50.2647400585
 21
13.9652134425
  0
LINE
  5
31D
100
AcDbEntity
  8
6_SURFACES-PATINS-SPEC
100
AcDbLine
 62
7
  6
CONTINUOUS
 10
32.6409172614
 20
12.6880197127
 11
32.6590404791
 21
12.6761521779
  0
LINE
  5
31E
100
AcDbEntity
  8
6_SURFACES-PATINS-SPEC
100
AcDbLine
 62
7
  6
CONTINUOUS
 10
32.6216459302
 20
12.7008958518
 11
32.6409172614
 21
12.6880197127
  0
LINE
  5
31F
100
AcDbEntity
  8
6_SURFACES-PATINS-SPEC
100
AcDbLine
 62
7
  6
CONTINUOUS
 10
32.6017645342
 20
12.7144384459
 11
32.6216459302
 21
12.7008958518
  0
LINE
  5
320
100
AcDbEntity
  8
6_SURFACES-PATINS-SPEC
100
AcDbLine
 62
7
  6
CONTINUOUS
 10
51.1594818044
 20
12.6178226752
 11
51.1667156255
 21
12.6128512031
  0
LINE
  5
321
100
AcDbEntity
  8
6_SURFACES-PATINS-SPEC
100
AcDbLine
 62
7
  6
CONTINUOUS
 10
51.1299032026
 20
12.6362613197
 11
51.1541761695
 21
12.6195286237
  0
LINE
  5
322
100
AcDbEntity
  8
6_SURFACES-PATINS-SPEC
100
AcDbLine
 62
7
  6
CONTINUOUS
 10
51.1279045836
 20
12.6396320915
 11
51.1382212117
 21
12.632486362
  0
LINE
  5
323
100
AcDbEntity
  8
6_SURFACES-PATINS-SPEC
100
AcDbLine
 62
7
  6
CONTINUOUS
 10
51.1009782666
 20
12.6563227581
 11
51.1299032026
 21
12.6362613197
  0
LINE
  5
324
100
AcDbEntity
  8
6_SURFACES-PATINS-SPEC
100
AcDbLine
 62
7
  6
CONTINUOUS
 10
32.5818634004
 20
12.728246568
 11
32.6017645342
 21
12.7144384459
  0
LINE
  5
325
100
AcDbEntity
  8
6_SURFACES-PATINS-SPEC
100
AcDbLine
 62
7
  6
CONTINUOUS
 10
51.1158016432
 20
12.6480342512
 11
51.1279045836
 21
12.6396320915
  0
LINE
  5
326
100
AcDbEntity
  8
6_SURFACES-PATINS-SPEC
100
AcDbLine
 62
7
  6
CONTINUOUS
 10
51.0635304972
 20
12.6824251488
 11
51.1009782666
 21
12.6563227581
  0
LINE
  5
327
100
AcDbEntity
  8
6_SURFACES-PATINS-SPEC
100
AcDbLine
 62
7
  6
CONTINUOUS
 10
50.9977449636
 20
12.7285125814
 11
51.0635304972
 21
12.6824251488
  0
LINE
  5
328
100
AcDbEntity
  8
6_SURFACES-PATINS-SPEC
100
AcDbLine
 62
7
  6
CONTINUOUS
 10
50.8080790828
 20
12.8639712156
 11
50.8209482095
 21
12.8549522325
  0
LINE
  5
329
100
AcDbEntity
  8
6_SURFACES-PATINS-SPEC
100
AcDbLine
 62
7
  6
CONTINUOUS
 10
50.8209482095
 20
12.8549522325
 11
50.8307630103
 21
12.8480560918
  0
LINE
  5
32A
100
AcDbEntity
  8
6_SURFACES-PATINS-SPEC
100
AcDbLine
 62
7
  6
CONTINUOUS
 10
50.819096235
 20
12.8541519795
 11
50.8718972157
 21
12.8170391626
  0
LINE
  5
32B
100
AcDbEntity
  8
6_SURFACES-PATINS-SPEC
100
AcDbLine
 62
7
  6
CONTINUOUS
 10
50.8896216021
 20
12.804560398
 11
50.9977449636
 21
12.7285125814
  0
LINE
  5
32C
100
AcDbEntity
  8
6_SURFACES-PATINS-SPEC
100
AcDbLine
 62
7
  6
CONTINUOUS
 10
50.8307630103
 20
12.8480560918
 11
50.8431181815
 21
12.8393656096
  0
LINE
  5
32D
100
AcDbEntity
  8
6_SURFACES-PATINS-SPEC
100
AcDbLine
 62
7
  6
CONTINUOUS
 10
50.8431181815
 20
12.8393656096
 11
50.857821043
 21
12.8290169987
  0
LWPOLYLINE
  5
32E
100
AcDbEntity
  8
6_SURFACES-PATINS-SPEC
100
AcDbPolyline
 62
7
  6
CONTINUOUS
 90
6
 70
0
 10
50.857821043
 20
12.8290169987
 10
50.9221322146
 20
12.783749575
 10
50.9864647363
 20
12.7385123941
 10
51.0295292059
 20
12.7082845551
 10
51.0726344649
 20
12.6781150012
 10
51.1158016432
 20
12.6480342512
  0
LINE
  5
32F
100
AcDbEntity
  8
6_SURFACES-PATINS-SPEC
100
AcDbLine
 62
7
  6
CONTINUOUS
 10
50.8718972157
 20
12.8170391626
 11
50.8896216021
 21
12.804560398
  0
LINE
  5
330
100
AcDbEntity
  8
0
100
AcDbLine
 62
7
  6
CONTINUOUS
 10
28.8140853008
 20
16.3610785613
 11
28.9461074282
 21
16.2679491186
  0
LINE
  5
331
100
AcDbEntity
  8
6_SURFACES-PATINS-SPEC
100
AcDbLine
 62
7
  6
CONTINUOUS
 10
32.5625253747
 20
12.7419015019
 11
32.5818634004
 21
12.728246568
  0
LINE
  5
332
100
AcDbEntity
  8
6_SURFACES-PATINS-SPEC
100
AcDbLine
 62
7
  6
CONTINUOUS
 10
32.5441511948
 20
12.755099436
 11
32.5625253747
 21
12.7419015019
  0
LINE
  5
333
100
AcDbEntity
  8
6_SURFACES-PATINS-SPEC
100
AcDbLine
 62
7
  6
CONTINUOUS
 10
32.5269097886
 20
12.7676967382
 11
32.5441511948
 21
12.755099436
  0
LINE
  5
334
100
AcDbEntity
  8
6_SURFACES-PATINS-SPEC
100
AcDbLine
 62
7
  6
CONTINUOUS
 10
31.2543873487
 20
15.6357370381
 11
31.2886096723
 21
15.6105727634
  0
LINE
  5
335
100
AcDbEntity
  8
6_SURFACES-PATINS-SPEC
100
AcDbLine
 62
7
  6
CONTINUOUS
 10
32.5109136892
 20
12.7795898126
 11
32.5269097886
 21
12.7676967382
  0
LINE
  5
336
100
AcDbEntity
  8
6_SURFACES-PATINS-SPEC
100
AcDbLine
 62
7
  6
CONTINUOUS
 10
50.2642886529
 20
13.965525681
 11
50.285834003
 21
13.9494706967
  0
LINE
  5
337
100
AcDbEntity
  8
6_SURFACES-PATINS-SPEC
100
AcDbLine
 62
7
  6
CONTINUOUS
 10
32.4962342202
 20
12.7907049593
 11
32.5109136892
 21
12.7795898126
  0
LINE
  5
338
100
AcDbEntity
  8
6_SURFACES-PATINS-SPEC
100
AcDbLine
 62
7
  6
CONTINUOUS
 10
32.4829056711
 20
12.8009961465
 11
32.4962342202
 21
12.7907049593
  0
LINE
  5
339
100
AcDbEntity
  8
6_SURFACES-PATINS-SPEC
100
AcDbLine
 62
7
  6
CONTINUOUS
 10
32.4709415951
 20
12.8104329608
 11
32.4829056711
 21
12.8009961465
  0
LINE
  5
33A
100
AcDbEntity
  8
0
100
AcDbLine
 62
7
  6
CONTINUOUS
 10
28.6899127648
 20
16.4605270773
 11
28.8140853008
 21
16.3610785613
  0
LINE
  5
33B
100
AcDbEntity
  8
6_SURFACES-PATINS-SPEC
100
AcDbLine
 62
7
  6
CONTINUOUS
 10
32.4603479653
 20
12.81898972
 11
32.4709415951
 21
12.8104329608
  0
LINE
  5
33C
100
AcDbEntity
  8
6_SURFACES-PATINS-SPEC
100
AcDbLine
 62
7
  6
CONTINUOUS
 10
32.4510908466
 20
12.8266715463
 11
32.4603479653
 21
12.81898972
  0
LINE
  5
33D
100
AcDbEntity
  8
6_SURFACES-PATINS-SPEC
100
AcDbLine
 62
7
  6
CONTINUOUS
 10
32.4430766684
 20
12.8335338446
 11
32.4510908466
 21
12.8266715463
  0
LINE
  5
33E
100
AcDbEntity
  8
6_SURFACES-PATINS-SPEC
100
AcDbLine
 62
7
  6
CONTINUOUS
 10
50.2853759214
 20
13.949837812
 11
50.3065891338
 21
13.9315181805
  0
LINE
  5
33F
100
AcDbEntity
  8
6_SURFACES-PATINS-SPEC
100
AcDbLine
 62
7
  6
CONTINUOUS
 10
32.4361543092
 20
12.8396868757
 11
32.4430766684
 21
12.8335338446
  0
LINE
  5
340
100
AcDbEntity
  8
0
100
AcDbLine
 62
7
  6
CONTINUOUS
 10
28.5732043432
 20
16.5661796772
 11
28.6899127648
 21
16.4605270773
  0
LINE
  5
341
100
AcDbEntity
  8
6_SURFACES-PATINS-SPEC
100
AcDbLine
 62
7
  6
CONTINUOUS
 10
31.2882196031
 20
15.6108947223
 11
31.3194739035
 21
15.5820029993
  0
LINE
  5
342
100
AcDbEntity
  8
6_SURFACES-PATINS-SPEC
100
AcDbLine
 62
7
  6
CONTINUOUS
 10
32.4301480919
 20
12.8452769174
 11
32.4361543092
 21
12.8396868757
  0
LINE
  5
343
100
AcDbEntity
  8
6_SURFACES-PATINS-SPEC
100
AcDbLine
 62
7
  6
CONTINUOUS
 10
32.4248293178
 20
12.8505280699
 11
32.4301480919
 21
12.8452769174
  0
LINE
  5
344
100
AcDbEntity
  8
DEFAULT_2
100
AcDbLine
 62
8
  6
CONTINUOUS
 10
69.9566989205
 20
13.8261833765
 11
70.3120308678
 21
13.4708514292
  0
LINE
  5
345
100
AcDbEntity
  8
6_SURFACES-PATINS-SPEC
100
AcDbLine
 62
7
  6
CONTINUOUS
 10
50.3061303883
 20
13.9319446895
 11
50.3267242888
 21
13.9112772206
  0
LINE
  5
346
100
AcDbEntity
  8
0
100
AcDbLine
 62
7
  6
CONTINUOUS
 10
28.4644072279
 20
16.6771464495
 11
28.5732043432
 21
16.5661796772
  0
LINE
  5
347
100
AcDbEntity
  8
6_SURFACES-PATINS-SPEC
100
AcDbLine
 62
7
  6
CONTINUOUS
 10
32.4208368174
 20
12.8547583446
 11
32.4248293178
 21
12.8505280699
  0
LINE
  5
348
100
AcDbEntity
  8
0
100
AcDbLine
 62
7
  6
CONTINUOUS
 10
28.3636212095
 20
16.7927918848
 11
28.4644072279
 21
16.6771464495
  0
LINE
  5
349
100
AcDbEntity
  8
6_SURFACES-PATINS-SPEC
100
AcDbLine
 62
7
  6
CONTINUOUS
 10
32.3910726806
 20
12.8891684743
 11
32.4208490968
 21
12.8547447914
  0
LINE
  5
34A
100
AcDbEntity
  8
6_SURFACES-PATINS-SPEC
100
AcDbLine
 62
7
  6
CONTINUOUS
 10
31.319063377
 20
15.5824274992
 11
31.3469446989
 21
15.5501570679
  0
LINE
  5
34B
100
AcDbEntity
  8
6_SURFACES-PATINS-SPEC
100
AcDbLine
 62
7
  6
CONTINUOUS
 10
50.3262713585
 20
13.9117678195
 11
50.3459369956
 21
13.8886960374
  0
LINE
  5
34C
100
AcDbEntity
  8
0
100
AcDbLine
 62
7
  6
CONTINUOUS
 10
28.2709310844
 20
16.9125547728
 11
28.3636212095
 21
16.7927918848
  0
LINE
  5
34D
100
AcDbEntity
  8
6_SURFACES-PATINS-SPEC
100
AcDbLine
 62
7
  6
CONTINUOUS
 10
32.3414941402
 20
12.9551556108
 11
32.3910726806
 21
12.8891684743
  0
LINE
  5
34E
100
AcDbEntity
  8
6_SURFACES-PATINS-SPEC
100
AcDbLine
 62
7
  6
CONTINUOUS
 10
50.3454970037
 20
13.8892556432
 11
50.3639046165
 21
13.8637545069
  0
LINE
  5
34F
100
AcDbEntity
  8
0
100
AcDbLine
 62
7
  6
CONTINUOUS
 10
28.1863590548
 20
17.0358561376
 11
28.2709310844
 21
16.9125547728
  0
LINE
  5
350
100
AcDbEntity
  8
6_SURFACES-PATINS-SPEC
100
AcDbLine
 62
7
  6
CONTINUOUS
 10
31.3465325143
 20
15.5506919426
 11
31.3706767296
 21
15.5154353811
  0
LINE
  5
351
100
AcDbEntity
  8
6_SURFACES-PATINS-SPEC
100
AcDbLine
 62
7
  6
CONTINUOUS
 10
32.297937864
 20
13.0252035281
 11
32.3414941402
 21
12.9551556108
  0
LINE
  5
352
100
AcDbEntity
  8
0
100
AcDbLine
 62
7
  6
CONTINUOUS
 10
28.1099904657
 20
17.161900031
 11
28.1863590548
 21
17.0358561376
  0
LINE
  5
353
100
AcDbEntity
  8
6_SURFACES-PATINS-SPEC
100
AcDbLine
 62
7
  6
CONTINUOUS
 10
50.3634856662
 20
13.864388103
 11
50.3802943818
 21
13.8364542682
  0
LINE
  5
354
100
AcDbEntity
  8
0
100
AcDbLine
 62
7
  6
CONTINUOUS
 10
28.0420738142
 20
17.2895072728
 11
28.1099904657
 21
17.161900031
  0
LINE
  5
355
100
AcDbEntity
  8
6_SURFACES-PATINS-SPEC
100
AcDbLine
 62
7
  6
CONTINUOUS
 10
31.3702830789
 20
15.5160854838
 11
31.3903716059
 21
15.4782744524
  0
LINE
  5
356
100
AcDbEntity
  8
6_SURFACES-PATINS-SPEC
100
AcDbLine
 62
7
  6
CONTINUOUS
 10
32.2606824054
 20
13.0987229605
 11
32.297937864
 21
13.0252035281
  0
LINE
  5
357
100
AcDbEntity
  8
6_SURFACES-PATINS-SPEC
100
AcDbLine
 62
7
  6
CONTINUOUS
 10
50.3799060016
 20
13.837166494
 11
50.3945934953
 21
13.8071626783
  0
LINE
  5
358
100
AcDbEntity
  8
0
100
AcDbLine
 62
7
  6
CONTINUOUS
 10
27.9827352938
 20
17.417385511
 11
28.0420738142
 21
17.2895072728
  0
LINE
  5
359
100
AcDbEntity
  8
0
100
AcDbLine
 62
7
  6
CONTINUOUS
 10
27.6895634217
 20
18.6070494659
 11
21.7722165585
 21
31.8976281245
  0
LINE
  5
35A
100
AcDbEntity
  8
DEFAULT_2
100
AcDbLine
 62
8
  6
CONTINUOUS
 10
21.161063398
 20
33.5776247644
 11
23.5078292014
 21
28.3067024703
  0
LWPOLYLINE
  5
35B
100
AcDbEntity
  8
DEFAULT_2
100
AcDbPolyline
 62
8
  6
CONTINUOUS
 90
19
 70
0
 10
23.6095133622
 20
28.0783161059
 10
23.616186168
 20
28.0632473367
 10
23.6228808365
 20
28.0479683885
 10
23.6295908193
 20
28.0324965618
 10
23.6363095684
 20
28.0168491575
 10
23.6430305355
 20
28.001043476
 10
23.6497471725
 20
27.9850968182
 10
23.6564529312
 20
27.9690264847
 10
23.6631412635
 20
27.9528497762
 10
23.6698056211
 20
27.9365839933
 10
23.676439456
 20
27.9202464366
 10
23.6830362198
 20
27.903854407
 10
23.6895893646
 20
27.8874252049
 10
23.6960923419
 20
27.8709761312
 10
23.7025386038
 20
27.8545244864
 10
23.7089216021
 20
27.8380875713
 10
23.7152347884
 20
27.8216826866
 10
23.7214716148
 20
27.8053271328
 10
23.727625533
 20
27.7890382106
  0
LINE
  5
35C
100
AcDbEntity
  8
0
100
AcDbLine
 62
7
  6
CONTINUOUS
 10
23.4203048365
 20
28.1959165046
 11
23.448739094
 21
28.1316777697
  0
LWPOLYLINE
  5
35D
100
AcDbEntity
  8
0
100
AcDbPolyline
 62
7
  6
CONTINUOUS
 90
14
 70
0
 10
27.6895634217
 20
18.6070494659
 10
27.6922874697
 20
18.6008715293
 10
27.6949674989
 20
18.5946742971
 10
27.6976040379
 20
18.5884582094
 10
27.7001976153
 20
18.5822237068
 10
27.7035949045
 20
18.5738702513
 10
27.7069172398
 20
18.5654859745
 10
27.7101653372
 20
18.5570721095
 10
27.7133399125
 20
18.5486298889
 10
27.7164416817
 20
18.5401605457
 10
27.7194713608
 20
18.5316653127
 10
27.7224296657
 20
18.5231454228
 10
27.7253173123
 20
18.5146021089
 10
27.7281350165
 20
18.5060366037
  0
LINE
  5
35E
100
AcDbEntity
  8
0
100
AcDbLine
 62
7
  6
CONTINUOUS
 10
23.448739094
 20
28.1316777697
 11
23.4669517855
 21
28.0901889239
  0
LINE
  5
35F
100
AcDbEntity
  8
0
100
AcDbLine
 62
7
  6
CONTINUOUS
 10
23.4669517855
 20
28.0901889239
 11
23.4874367687
 21
28.0430713614
  0
LINE
  5
360
100
AcDbEntity
  8
0
100
AcDbLine
 62
7
  6
CONTINUOUS
 10
23.4874367687
 20
28.0430713614
 11
23.5099171705
 21
27.9906817374
  0
LINE
  5
361
100
AcDbEntity
  8
0
100
AcDbLine
 62
7
  6
CONTINUOUS
 10
23.5099171705
 20
27.9906817374
 11
23.5342892631
 21
27.932927502
  0
LINE
  5
362
100
AcDbEntity
  8
0
100
AcDbLine
 62
7
  6
CONTINUOUS
 10
23.5342892631
 20
27.932927502
 11
23.5605193259
 21
27.8694968547
  0
LINE
  5
363
100
AcDbEntity
  8
6_SURFACES-PATINS-SPEC
100
AcDbLine
 62
7
  6
CONTINUOUS
 10
31.3900176394
 20
15.4790414555
 11
31.4020975066
 21
15.4497579392
  0
LINE
  5
364
100
AcDbEntity
  8
6_SURFACES-PATINS-SPEC
100
AcDbLine
 62
7
  6
CONTINUOUS
 10
32.2338435375
 20
13.1644842401
 11
32.2606824054
 21
13.0987229605
  0
LINE
  5
365
100
AcDbEntity
  8
0
100
AcDbLine
 62
7
  6
CONTINUOUS
 10
23.5605193259
 20
27.8694968547
 11
23.5783797564
 21
27.8254587265
  0
LINE
  5
366
100
AcDbEntity
  8
0
100
AcDbLine
 62
7
  6
CONTINUOUS
 10
27.9318710199
 20
17.5441558912
 11
27.9827352938
 21
17.417385511
  0
LINE
  5
367
100
AcDbEntity
  8
6_SURFACES-PATINS-SPEC
100
AcDbLine
 62
7
  6
CONTINUOUS
 10
50.3944051563
 20
13.8076331904
 11
50.4032248645
 21
13.7855996267
  0
LINE
  5
368
100
AcDbEntity
  8
0
100
AcDbLine
 62
7
  6
CONTINUOUS
 10
23.5783797564
 20
27.8254587265
 11
23.5865743155
 21
27.8049043698
  0
LINE
  5
369
100
AcDbEntity
  8
0
100
AcDbLine
 62
7
  6
CONTINUOUS
 10
23.5865743155
 20
27.8049043698
 11
23.5946075701
 21
27.7844942299
  0
LINE
  5
36A
100
AcDbEntity
  8
0
100
AcDbLine
 62
7
  6
CONTINUOUS
 10
23.5946075701
 20
27.7844942299
 11
23.6024135375
 21
27.7644169763
  0
LINE
  5
36B
100
AcDbEntity
  8
0
100
AcDbLine
 62
7
  6
CONTINUOUS
 10
23.6024135375
 20
27.7644169763
 11
23.6148464586
 21
27.7319424523
  0
LINE
  5
36C
100
AcDbEntity
  8
0
100
AcDbLine
 62
7
  6
CONTINUOUS
 10
23.6148464586
 20
27.7319424523
 11
23.6242920181
 21
27.7068613766
  0
LINE
  5
36D
100
AcDbEntity
  8
0
100
AcDbLine
 62
7
  6
CONTINUOUS
 10
23.6242920181
 20
27.7068613766
 11
23.6333237889
 21
27.682545546
  0
LWPOLYLINE
  5
36E
100
AcDbEntity
  8
DEFAULT_2
100
AcDbPolyline
 62
8
  6
CONTINUOUS
 90
17
 70
0
 10
23.727625533
 20
27.7890382106
 10
23.753336914
 20
27.719465055
 10
23.7783162017
 20
27.6496033587
 10
23.8026396867
 20
27.5794839428
 10
23.8263836594
 20
27.5091376288
 10
23.8496244103
 20
27.4385952378
 10
23.8724382298
 20
27.3678875911
 10
23.8949014084
 20
27.2970455099
 10
23.9170902367
 20
27.2260998157
 10
23.9390810049
 20
27.1550813295
 10
23.9609500037
 20
27.0840208726
 10
23.9827735234
 20
27.0129492664
 10
24.0046278546
 20
26.9418973321
 10
24.0265892877
 20
26.8708958909
 10
24.0487341132
 20
26.7999757642
 10
24.0711386216
 20
26.7291677731
 10
24.0938791033
 20
26.658502739
  0
LINE
  5
36F
100
AcDbEntity
  8
0
100
AcDbLine
 62
7
  6
CONTINUOUS
 10
23.6333237889
 20
27.682545546
 11
23.6419754822
 21
27.6589445201
  0
LINE
  5
370
100
AcDbEntity
  8
6_SURFACES-PATINS-SPEC
100
AcDbLine
 62
7
  6
CONTINUOUS
 10
31.9830911828
 20
13.8531457509
 11
32.2338435374
 21
13.1644842401
  0
LINE
  5
371
100
AcDbEntity
  8
6_SURFACES-PATINS-SPEC
100
AcDbLine
 62
7
  6
CONTINUOUS
 10
50.4032249561
 20
13.7855992742
 11
50.6292923405
 21
13.1644842401
  0
LINE
  5
372
100
AcDbEntity
  8
6_SURFACES-PATINS-SPEC
100
AcDbLine
 62
7
  6
CONTINUOUS
 10
31.4020975266
 20
15.4497579461
 11
31.9830911828
 21
13.8531457509
  0
LINE
  5
373
100
AcDbEntity
  8
0
100
AcDbLine
 62
7
  6
CONTINUOUS
 10
23.6419754822
 20
27.6589445201
 11
23.6502634183
 21
27.636050903
  0
LINE
  5
374
100
AcDbEntity
  8
6_SURFACES-PATINS-SPEC
100
AcDbLine
 62
7
  6
CONTINUOUS
 10
32.2399466224
 20
13.1644842401
 11
31.4140567509
 21
15.4495297198
  0
LINE
  5
375
100
AcDbEntity
  8
0
100
AcDbLine
 62
7
  6
CONTINUOUS
 10
23.6502634183
 20
27.636050903
 11
23.6581879006
 21
27.6138997
  0
LINE
  5
376
100
AcDbEntity
  8
0
100
AcDbLine
 62
7
  6
CONTINUOUS
 10
23.6581879006
 20
27.6138997
 11
23.6675727264
 21
27.5873359756
  0
LINE
  5
377
100
AcDbEntity
  8
0
100
AcDbLine
 62
7
  6
CONTINUOUS
 10
23.6675727264
 20
27.5873359756
 11
23.6763101409
 21
27.5622849441
  0
LINE
  5
378
100
AcDbEntity
  8
0
100
AcDbLine
 62
7
  6
CONTINUOUS
 10
23.6763101409
 20
27.5622849441
 11
23.6836945783
 21
27.5408760851
  0
LINE
  5
379
100
AcDbEntity
  8
0
100
AcDbLine
 62
7
  6
CONTINUOUS
 10
27.8891499079
 20
17.6686452842
 11
27.9318710199
 21
17.5441558912
  0
LINE
  5
37A
100
AcDbEntity
  8
0
100
AcDbLine
 62
7
  6
CONTINUOUS
 10
23.6821367192
 20
27.5454099278
 11
23.6884074285
 21
27.5271006741
  0
LINE
  5
37B
100
AcDbEntity
  8
0
100
AcDbLine
 62
7
  6
CONTINUOUS
 10
23.7223602019
 20
27.4255947079
 11
23.7320744377
 21
27.3958570872
  0
LINE
  5
37C
100
AcDbEntity
  8
0
100
AcDbLine
 62
7
  6
CONTINUOUS
 10
23.9749970387
 20
26.6198756147
 11
26.884627099
 21
17.6649550791
  0
LINE
  5
37D
100
AcDbEntity
  8
DEFAULT_2
100
AcDbLine
 62
8
  6
CONTINUOUS
 10
24.0938791033
 20
26.658502739
 11
27.0035091635
 21
17.7035822034
  0
LINE
  5
37E
100
AcDbEntity
  8
0
100
AcDbLine
 62
7
  6
CONTINUOUS
 10
23.7320744377
 20
27.3958570872
 11
23.7433333731
 21
27.361031432
  0
LINE
  5
37F
100
AcDbEntity
  8
0
100
AcDbLine
 62
7
  6
CONTINUOUS
 10
23.7433333731
 20
27.361031432
 11
23.7546437473
 21
27.3257096364
  0
LWPOLYLINE
  5
380
100
AcDbEntity
  8
0
100
AcDbPolyline
 62
7
  6
CONTINUOUS
 90
21
 70
0
 10
27.7281350165
 20
18.5060366037
 10
27.731947308
 20
18.4940592809
 10
27.7356242016
 20
18.4820368434
 10
27.7391631072
 20
18.4699710624
 10
27.7425614348
 20
18.4578637087
 10
27.7458165945
 20
18.4457165534
 10
27.7489259962
 20
18.4335313675
 10
27.7518870499
 20
18.4213099222
 10
27.7546971657
 20
18.4090539883
 10
27.7573537536
 20
18.3967653369
 10
27.7596113841
 20
18.3856755033
 10
27.7617372639
 20
18.3745607872
 10
27.7637261744
 20
18.3634213877
 10
27.7655728968
 20
18.3522575041
 10
27.7672722126
 20
18.3410693356
 10
27.7685703112
 20
18.3317371238
 10
27.7697573952
 20
18.3223896473
 10
27.7708282256
 20
18.3130283336
 10
27.7717775633
 20
18.3036546104
 10
27.7726001696
 20
18.2942699054
 10
27.7732908053
 20
18.2848756461
  0
LINE
  5
381
100
AcDbEntity
  8
0
100
AcDbLine
 62
7
  6
CONTINUOUS
 10
23.7546437473
 20
27.3257096364
 11
23.7667239028
 21
27.2876611662
  0
LINE
  5
382
100
AcDbEntity
  8
0
100
AcDbLine
 62
7
  6
CONTINUOUS
 10
23.7667239028
 20
27.2876611662
 11
23.7796296575
 21
27.2466970009
  0
LINE
  5
383
100
AcDbEntity
  8
0
100
AcDbLine
 62
7
  6
CONTINUOUS
 10
23.7796296575
 20
27.2466970009
 11
23.7841639054
 21
27.2322369562
  0
LWPOLYLINE
  5
384
100
AcDbEntity
  8
0
100
AcDbPolyline
 62
7
  6
CONTINUOUS
 90
10
 70
0
 10
23.78404374
 20
27.2321993077
 10
23.8051076315
 20
27.1646207522
 10
23.8260578608
 20
27.0968664069
 10
23.8469595483
 20
27.0289626022
 10
23.8678778145
 20
26.9609356682
 10
23.8888777797
 20
26.892811935
 10
23.9100245644
 20
26.8246177329
 10
23.9313832888
 20
26.756379392
 10
23.9530190735
 20
26.6881232425
 10
23.9749970387
 20
26.6198756147
  0
LINE
  5
385
100
AcDbEntity
  8
0
100
AcDbLine
 62
7
  6
CONTINUOUS
 10
27.8540948061
 20
17.7898937199
 11
27.8891499079
 21
17.6686452842
  0
LINE
  5
386
100
AcDbEntity
  8
0
100
AcDbLine
 62
7
  6
CONTINUOUS
 10
27.826169213
 20
17.9068406598
 11
27.8540948061
 21
17.7898937199
  0
LWPOLYLINE
  5
387
100
AcDbEntity
  8
0
100
AcDbPolyline
 62
7
  6
CONTINUOUS
 90
28
 70
0
 10
25.6297453329
 20
24.3462463311
 10
25.6295568578
 20
24.3471996508
 10
25.6298554555
 20
24.3482209456
 10
25.6306438297
 20
24.3493099666
 10
25.6319246832
 20
24.3504664649
 10
25.6338881697
 20
24.3518145819
 10
25.6359711258
 20
24.3529805335
 10
25.6389572918
 20
24.3544371302
 10
25.6420015534
 20
24.3557596183
 10
25.6500189808
 20
24.3587996255
 10
25.660022709
 20
24.3620956487
 10
25.6720077774
 20
24.3656421193
 10
25.6859622447
 20
24.3694324528
 10
25.7018690016
 20
24.3734593185
 10
25.719704687
 20
24.3777144872
 10
25.7403500493
 20
24.3823910365
 10
25.7610389174
 20
24.3868727715
 10
25.7956793961
 20
24.3940434438
 10
25.8303861205
 20
24.4008890056
 10
25.8651427538
 20
24.4074791346
 10
25.9298519671
 20
24.4192359749
 10
25.9946533344
 20
24.4304701149
 10
26.0696284659
 20
24.4429408377
 10
26.1446787328
 20
24.4549526016
 10
26.2270791559
 20
24.4676864485
 10
26.3095419816
 20
24.4800095572
 10
26.3964088587
 20
24.4925839154
 10
26.4833295623
 20
24.5047795966
  0
LINE
  5
388
100
AcDbEntity
  8
0
100
AcDbLine
 62
7
  6
CONTINUOUS
 10
27.8065127142
 20
18.0079651533
 11
27.826169213
 21
17.9068406598
  0
LINE
  5
389
100
AcDbEntity
  8
6_SURFACES-PATINS-SPEC
100
AcDbLine
 62
7
  6
CONTINUOUS
 10
50.0570434441
 20
14.0636335276
 11
50.0570687308
 21
14.0634964559
  0
LINE
  5
38A
100
AcDbEntity
  8
6_SURFACES-PATINS-SPEC
100
AcDbLine
 62
7
  6
CONTINUOUS
 10
50.0565896167
 20
14.0322537849
 11
50.0565646033
 21
14.0323899351
  0
LWPOLYLINE
  5
38B
100
AcDbEntity
  8
6_SURFACES-PATINS-SPEC
100
AcDbPolyline
 62
7
  6
CONTINUOUS
 90
32
 70
0
 10
72.9198037299
 20
13.9738971318
 10
72.9196173582
 20
13.9751048428
 10
72.9191928325
 20
13.9762579348
 10
72.9176079524
 20
13.9785224474
 10
72.9151162244
 20
13.9806926611
 10
72.9117773481
 20
13.9827732035
 10
72.9073593614
 20
13.9849023329
 10
72.9027828181
 20
13.986683276
 10
72.8969347847
 20
13.9886078102
 10
72.8910136599
 20
13.9902817901
 10
72.8767862544
 20
13.9935954109
 10
72.8603517096
 20
13.9966498015
 10
72.8418999126
 20
13.9994678082
 10
72.8215582544
 20
14.0020713486
 10
72.7985487039
 20
14.0045688814
 10
72.7755022812
 20
14.0067094981
 10
72.7489186827
 20
14.008846422
 10
72.7223141125
 20
14.0106994574
 10
72.6919374045
 20
14.0125361039
 10
72.6615466406
 20
14.0141259721
 10
72.5924456663
 20
14.0170200917
 10
72.5126268425
 20
14.0194051919
 10
72.4183647147
 20
14.0212357777
 10
72.336310463
 20
14.0221647764
 10
72.2542512619
 20
14.0225774009
 10
72.1721905877
 20
14.0225486348
 10
72.0649047645
 20
14.0219517426
 10
71.9576239255
 20
14.0207869898
 10
71.8503496312
 20
14.0191128391
 10
71.7328973441
 20
14.0167552804
 10
71.6154568138
 20
14.013877777
 10
71.4980300795
 20
14.0105010324
  0
LINE
  5
38C
100
AcDbEntity
  8
0
100
AcDbLine
 62
7
  6
CONTINUOUS
 10
47.9139572815
 20
15.3113285079
 11
47.9151511994
 21
15.3033883256
  0
ARC
  5
38D
100
AcDbEntity
  8
0
100
AcDbCircle
 62
7
  6
CONTINUOUS
 10
45.0102541725
 20
-159.7694154662
 40
195.1670435907
100
AcDbArc
 50
90.0
 51
98.1513519274
  0
ARC
  5
38E
100
AcDbEntity
  8
0
100
AcDbCircle
 62
7
  6
CONTINUOUS
 10
9.5216377672
 20
22.774736591
 40
14.9427306074
100
AcDbArc
 50
17.3557112641
 51
18.1340637046
  0
ARC
  5
38F
100
AcDbEntity
  8
0
100
AcDbCircle
 62
7
  6
CONTINUOUS
 10
14.1490823049
 20
24.2848917543
 40
10.0751056316
100
AcDbArc
 50
18.163098729
 51
18.7717789519
  0
ARC
  5
390
100
AcDbEntity
  8
0
100
AcDbCircle
 62
7
  6
CONTINUOUS
 10
15.2888165894
 20
24.6704262796
 40
8.8719316306
100
AcDbArc
 50
18.7830074161
 51
18.907990807
  0
ARC
  5
391
100
AcDbEntity
  8
0
100
AcDbCircle
 62
7
  6
CONTINUOUS
 10
29.3811504543
 20
18.4761246893
 40
2.625
100
AcDbArc
 50
198.0
 51
269.0
  0
ARC
  5
392
100
AcDbEntity
  8
0
100
AcDbCircle
 62
7
  6
CONTINUOUS
 10
30.3925444668
 20
18.4584707411
 40
2.625
100
AcDbArc
 50
183.7918210966
 51
269.0000003748
  0
ARC
  5
393
100
AcDbEntity
  8
DEFAULT_2
100
AcDbCircle
 62
8
  6
CONTINUOUS
 10
29.3811504543
 20
18.4761246893
 40
2.5
100
AcDbArc
 50
198.0
 51
269.0
  0
ARC
  5
394
100
AcDbEntity
  8
6_SURFACES-PATINS-SPEC
100
AcDbCircle
 62
7
  6
CONTINUOUS
 10
43.8126147608
 20
11.799294
 40
1.2092829905
100
AcDbArc
 50
120.6752233919
 51
121.6231310266
  0
ARC
  5
395
100
AcDbEntity
  8
0
100
AcDbCircle
 62
7
  6
CONTINUOUS
 10
26.7034761877
 20
18.1678841889
 40
1.0794601306
100
AcDbArc
 50
18.2616585172
 51
24.0063498774
  0
ARC
  5
396
100
AcDbEntity
  8
6_SURFACES-PATINS-SPEC
100
AcDbCircle
 62
7
  6
CONTINUOUS
 10
43.5982450453
 20
11.824538069
 40
1.0654515455
100
AcDbArc
 50
128.5477100313
 51
129.0876589882
  0
ARC
  5
397
100
AcDbEntity
  8
6_SURFACES-PATINS-SPEC
100
AcDbCircle
 62
7
  6
CONTINUOUS
 10
42.5396409456
 20
13.4838702296
 40
0.9396540271
100
AcDbArc
 50
318.722252212
 51
340.1293748881
  0
ARC
  5
398
100
AcDbEntity
  8
6_SURFACES-PATINS-SPEC
100
AcDbCircle
 62
7
  6
CONTINUOUS
 10
42.5482925432
 20
13.4736436611
 40
0.9260156531
100
AcDbArc
 50
270.0355231299
 51
291.6327718998
  0
ARC
  5
399
100
AcDbEntity
  8
6_SURFACES-PATINS-SPEC
100
AcDbCircle
 62
7
  6
CONTINUOUS
 10
43.4927089244
 20
11.9544312701
 40
0.8980893151
100
AcDbArc
 50
129.0866078403
 51
129.4382575064
  0
ARC
  5
39A
100
AcDbEntity
  8
6_SURFACES-PATINS-SPEC
100
AcDbCircle
 62
7
  6
CONTINUOUS
 10
43.3441318362
 20
12.1340679018
 40
0.6649714742
100
AcDbArc
 50
129.3836306889
 51
130.5111545043
  0
ARC
  5
39B
100
AcDbEntity
  8
6_SURFACES-PATINS-SPEC
100
AcDbCircle
 62
7
  6
CONTINUOUS
 10
42.6162950435
 20
13.1875861291
 40
0.6385637754
100
AcDbArc
 50
298.5556627715
 51
299.6292542444
  0
ARC
  5
39C
100
AcDbEntity
  8
DEFAULT_2
100
AcDbCircle
 62
8
  6
CONTINUOUS
 10
20.7042906692
 20
33.3742564429
 40
0.5
100
AcDbArc
 50
24.0
 51
97.1726225132
  0
ARC
  5
39D
100
AcDbEntity
  8
0
100
AcDbCircle
 62
7
  6
CONTINUOUS
 10
17.3732600992
 20
33.1783765417
 40
0.25
100
AcDbArc
 50
98.1513519274
 51
175.0
  0
ARC
  5
39E
100
AcDbEntity
  8
6_SURFACES-PATINS-SPEC
100
AcDbCircle
 62
7
  6
CONTINUOUS
 10
43.0850609484
 20
12.939405242
 40
0.1502543475
100
AcDbArc
 50
313.7536700374
 51
314.4066089705
  0
ARC
  5
39F
100
AcDbEntity
  8
6_SURFACES-PATINS-SPEC
100
AcDbCircle
 62
7
  6
CONTINUOUS
 10
42.8663987478
 20
12.6708601973
 40
0.0625536759
100
AcDbArc
 50
332.5458089942
 51
333.6483487225
  0
ARC
  5
3A0
100
AcDbEntity
  8
6_SURFACES-PATINS-SPEC
100
AcDbCircle
 62
7
  6
CONTINUOUS
 10
42.8666745823
 20
12.6706613241
 40
0.0622172371
100
AcDbArc
 50
291.6948898239
 51
332.591214405
  0
ARC
  5
3A1
100
AcDbEntity
  8
6_SURFACES-PATINS-SPEC
100
AcDbCircle
 62
7
  6
CONTINUOUS
 10
43.1992212624
 20
12.9048676808
 40
0.0619922209
100
AcDbArc
 50
284.263532654
 51
318.722812973
  0
ARC
  5
3A2
100
AcDbEntity
  8
6_SURFACES-PATINS-SPEC
100
AcDbCircle
 62
7
  6
CONTINUOUS
 10
43.1993164608
 20
12.904620249
 40
0.0617289695
100
AcDbArc
 50
283.3181576679
 51
284.2344796949
  0
ARC
  5
3A3
100
AcDbEntity
  8
0
100
AcDbCircle
 62
7
  6
CONTINUOUS
 10
52.6422010447
 20
-169.560425268
 40
195.8398002398
100
AcDbArc
 50
90.2257663092
 51
92.2622173108
  0
ARC
  5
3A4
100
AcDbEntity
  8
0
100
AcDbCircle
 62
7
  6
CONTINUOUS
 10
55.0102541725
 20
-159.7694154662
 40
195.1670435907
100
AcDbArc
 50
81.8486480726
 51
90.0
  0
ARC
  5
3A5
100
AcDbEntity
  8
0
100
AcDbCircle
 62
7
  6
CONTINUOUS
 10
52.5541765767
 20
-120.0140138186
 40
146.2934661077
100
AcDbArc
 50
89.883551782
 51
90.2677538103
  0
ARC
  5
3A6
100
AcDbEntity
  8
0
100
AcDbCircle
 62
7
  6
CONTINUOUS
 10
52.2002363759
 20
-83.5923067513
 40
110.2106639077
100
AcDbArc
 50
80.7343086563
 51
81.5532382475
  0
ARC
  5
3A7
100
AcDbEntity
  8
6_SURFACES-PATINS-SPEC
100
AcDbCircle
 62
7
  6
CONTINUOUS
 10
56.1639691736
 20
19.8964755276
 40
8.8331014471
100
AcDbArc
 50
235.3217397908
 51
235.4892666216
  0
ARC
  5
3A8
100
AcDbEntity
  8
6_SURFACES-PATINS-SPEC
100
AcDbCircle
 62
7
  6
CONTINUOUS
 10
50.2462125693
 20
16.0649094821
 40
2.0436849047
100
AcDbArc
 50
266.1481474203
 51
266.3728318245
  0
ARC
  5
3A9
100
AcDbEntity
  8
6_SURFACES-PATINS-SPEC
100
AcDbCircle
 62
7
  6
CONTINUOUS
 10
50.221502022
 20
15.6959906034
 40
1.6739394109
100
AcDbArc
 50
265.9290006347
 51
266.1437630817
  0
ARC
  5
3AA
100
AcDbEntity
  8
6_SURFACES-PATINS-SPEC
100
AcDbCircle
 62
7
  6
CONTINUOUS
 10
51.5105199155
 20
13.4867683592
 40
0.9391402723
100
AcDbArc
 50
251.7503557862
 51
269.9837873522
  0
ARC
  5
3AB
100
AcDbEntity
  8
6_SURFACES-PATINS-SPEC
100
AcDbCircle
 62
7
  6
CONTINUOUS
 10
51.5109136257
 20
13.485554547
 40
0.9382655448
100
AcDbArc
 50
200.0106962431
 51
221.4893827188
  0
ARC
  5
3AC
100
AcDbEntity
  8
0
100
AcDbCircle
 62
7
  6
CONTINUOUS
 10
48.5896597
 20
14.7647927935
 40
0.625
100
AcDbArc
 50
184.9999905128
 51
269.0124437234
  0
ARC
  5
3AD
100
AcDbEntity
  8
DEFAULT_2
100
AcDbCircle
 62
8
  6
CONTINUOUS
 10
48.5896597
 20
14.7647927935
 40
0.5
100
AcDbArc
 50
184.9999952472
 51
269.0124437572
  0
ARC
  5
3AE
100
AcDbEntity
  8
6_SURFACES-PATINS-SPEC
100
AcDbCircle
 62
7
  6
CONTINUOUS
 10
50.0508321322
 20
13.6568004303
 40
0.3754974973
100
AcDbArc
 50
80.9443352832
 51
89.1214522389
  0
ARC
  5
3AF
100
AcDbEntity
  8
6_SURFACES-PATINS-SPEC
100
AcDbCircle
 62
7
  6
CONTINUOUS
 10
50.0506443231
 20
13.6571577757
 40
0.375262429
100
AcDbArc
 50
34.378378588
 51
39.8792891785
  0
ARC
  5
3B0
100
AcDbEntity
  8
6_SURFACES-PATINS-SPEC
100
AcDbCircle
 62
7
  6
CONTINUOUS
 10
50.0506030473
 20
13.6572337871
 40
0.375259823
100
AcDbArc
 50
20.0031002476
 51
25.8378929421
  0
ARC
  5
3B1
100
AcDbEntity
  8
6_SURFACES-PATINS-SPEC
100
AcDbCircle
 62
7
  6
CONTINUOUS
 10
50.0507354886
 20
13.6570837448
 40
0.3752548794
100
AcDbArc
 50
55.0036207927
 51
60.5078950237
  0
ARC
  5
3B2
100
AcDbEntity
  8
6_SURFACES-PATINS-SPEC
100
AcDbCircle
 62
7
  6
CONTINUOUS
 10
50.0507176732
 20
13.6571194396
 40
0.3752362179
100
AcDbArc
 50
48.4415409177
 51
53.6569289375
  0
ARC
  5
3B3
100
AcDbEntity
  8
6_SURFACES-PATINS-SPEC
100
AcDbCircle
 62
7
  6
CONTINUOUS
 10
50.0507059011
 20
13.6571573064
 40
0.3752160616
100
AcDbArc
 50
41.487686758
 51
47.3575011918
  0
ARC
  5
3B4
100
AcDbEntity
  8
6_SURFACES-PATINS-SPEC
100
AcDbCircle
 62
7
  6
CONTINUOUS
 10
50.0507439808
 20
13.6572630281
 40
0.3751209563
100
AcDbArc
 50
27.5993795408
 51
33.6850411527
  0
ARC
  5
3B5
100
AcDbEntity
  8
6_SURFACES-PATINS-SPEC
100
AcDbCircle
 62
7
  6
CONTINUOUS
 10
50.0508741503
 20
13.6572928284
 40
0.3750046248
100
AcDbArc
 50
60.5106087994
 51
80.9388340254
  0
ARC
  5
3B6
100
AcDbEntity
  8
DEFAULT_2
100
AcDbCircle
 62
8
  6
CONTINUOUS
 10
47.6661094294
 20
15.2815216
 40
0.375
100
AcDbArc
 50
4.9999999621
 51
89.0000000026
  0
ARC
  5
3B7
100
AcDbEntity
  8
6_SURFACES-PATINS-SPEC
100
AcDbCircle
 62
7
  6
CONTINUOUS
 10
50.0510810586
 20
13.6575993224
 40
0.3746343315
100
AcDbArc
 50
53.6582003299
 51
55.0016923113
  0
ARC
  5
3B8
100
AcDbEntity
  8
6_SURFACES-PATINS-SPEC
100
AcDbCircle
 62
7
  6
CONTINUOUS
 10
50.0511663467
 20
13.6575274277
 40
0.3746228631
100
AcDbArc
 50
33.6872204379
 51
34.3768002115
  0
ARC
  5
3B9
100
AcDbEntity
  8
6_SURFACES-PATINS-SPEC
100
AcDbCircle
 62
7
  6
CONTINUOUS
 10
50.0511206387
 20
13.6575871783
 40
0.374618898
100
AcDbArc
 50
47.3596231855
 51
48.4402011907
  0
ARC
  5
3BA
100
AcDbEntity
  8
6_SURFACES-PATINS-SPEC
100
AcDbCircle
 62
7
  6
CONTINUOUS
 10
50.051194154
 20
13.6575159193
 40
0.3746048481
100
AcDbArc
 50
25.8384576781
 51
27.5970003746
  0
ARC
  5
3BB
100
AcDbEntity
  8
6_SURFACES-PATINS-SPEC
100
AcDbCircle
 62
7
  6
CONTINUOUS
 10
50.0511595043
 20
13.6575747923
 40
0.3745997011
100
AcDbArc
 50
39.8808649974
 51
41.4858139716
  0
ARC
  5
3BC
100
AcDbEntity
  8
0
100
AcDbCircle
 62
7
  6
CONTINUOUS
 10
47.6619592951
 20
15.2797029286
 40
0.2544424394
100
AcDbArc
 50
14.7922683949
 51
29.777152498
  0
ARC
  5
3BD
100
AcDbEntity
  8
6_SURFACES-PATINS-SPEC
100
AcDbCircle
 62
7
  6
CONTINUOUS
 10
51.1896320414
 20
12.6709983298
 40
0.0624999965
100
AcDbArc
 50
235.4383767944
 51
248.4900588993
  0
ARC
  5
3BE
100
AcDbEntity
  8
6_SURFACES-PATINS-SPEC
100
AcDbCircle
 62
7
  6
CONTINUOUS
 10
50.8548817565
 20
12.9053930042
 40
0.0624999805
100
AcDbArc
 50
221.5098145507
 51
235.0704613112
  0
ARC
  5
3BF
100
AcDbEntity
  8
6_SURFACES-PATINS-SPEC
100
AcDbCircle
 62
7
  6
CONTINUOUS
 10
66.8565391661
 20
19.8964755353
 40
8.8331014564
100
AcDbArc
 50
304.5107333784
 51
304.6782602091
  0
ARC
  5
3C0
100
AcDbEntity
  8
0
100
AcDbCircle
 62
7
  6
CONTINUOUS
 10
73.870964279
 20
16.2506965558
 40
2.4375
100
AcDbArc
 50
276.3571666213
 51
350.9999926241
  0
ARC
  5
3C1
100
AcDbEntity
  8
DEFAULT_2
100
AcDbCircle
 62
8
  6
CONTINUOUS
 10
73.870964279
 20
16.2506965558
 40
2.3125
100
AcDbArc
 50
276.3571666235
 51
350.9999926267
  0
ARC
  5
3C2
100
AcDbEntity
  8
6_SURFACES-PATINS-SPEC
100
AcDbCircle
 62
7
  6
CONTINUOUS
 10
72.4619819566
 20
15.758587238
 40
1.8876599846
100
AcDbArc
 50
279.2259073927
 51
280.0228586185
  0
ARC
  5
3C3
100
AcDbEntity
  8
6_SURFACES-PATINS-SPEC
100
AcDbCircle
 62
7
  6
CONTINUOUS
 10
71.5097025387
 20
13.4887268317
 40
0.9411192911
100
AcDbArc
 50
276.2271379303
 51
279.3828567328
  0
ARC
  5
3C4
100
AcDbEntity
  8
6_SURFACES-PATINS-SPEC
100
AcDbCircle
 62
7
  6
CONTINUOUS
 10
71.5097446937
 20
13.4884736495
 40
0.9408626236
100
AcDbArc
 50
279.3828375786
 51
281.1583785578
  0
ARC
  5
3C5
100
AcDbEntity
  8
6_SURFACES-PATINS-SPEC
100
AcDbCircle
 62
7
  6
CONTINUOUS
 10
71.5098717427
 20
13.4872331198
 40
0.939616039
100
AcDbArc
 50
274.6933324092
 51
276.2267609455
  0
ARC
  5
3C6
100
AcDbEntity
  8
6_SURFACES-PATINS-SPEC
100
AcDbCircle
 62
7
  6
CONTINUOUS
 10
71.5101123347
 20
13.4866487981
 40
0.9390011227
100
AcDbArc
 50
281.1579183158
 51
284.1148393606
  0
ARC
  5
3C7
100
AcDbEntity
  8
6_SURFACES-PATINS-SPEC
100
AcDbCircle
 62
7
  6
CONTINUOUS
 10
71.5095947193
 20
13.485554547
 40
0.9382655448
100
AcDbArc
 50
318.5106172812
 51
339.9893037569
  0
ARC
  5
3C8
100
AcDbEntity
  8
6_SURFACES-PATINS-SPEC
100
AcDbCircle
 62
7
  6
CONTINUOUS
 10
71.5101723687
 20
13.4831333612
 40
0.9355054299
100
AcDbArc
 50
270.1493151167
 51
274.6955271248
  0
ARC
  5
3C9
100
AcDbEntity
  8
6_SURFACES-PATINS-SPEC
100
AcDbCircle
 62
7
  6
CONTINUOUS
 10
71.5110916291
 20
13.4827323017
 40
0.9349640529
100
AcDbArc
 50
284.1151686065
 51
286.4743827879
  0
ARC
  5
3CA
100
AcDbEntity
  8
6_SURFACES-PATINS-SPEC
100
AcDbCircle
 62
7
  6
CONTINUOUS
 10
71.5121110124
 20
13.4792295194
 40
0.9313159884
100
AcDbArc
 50
286.4753553173
 51
288.2708707935
  0
ARC
  5
3CB
100
AcDbEntity
  8
0
100
AcDbCircle
 62
7
  6
CONTINUOUS
 10
73.0317007819
 20
13.6476281245
 40
0.375
100
AcDbArc
 50
270.0
 51
315.0
  0
ARC
  5
3CC
100
AcDbEntity
  8
DEFAULT_2
100
AcDbCircle
 62
8
  6
CONTINUOUS
 10
73.0317007819
 20
13.6476281245
 40
0.25
100
AcDbArc
 50
270.0
 51
315.0
  0
ARC
  5
3CD
100
AcDbEntity
  8
DEFAULT_2
100
AcDbCircle
 62
8
  6
CONTINUOUS
 10
70.4888075631
 20
13.6476281245
 40
0.25
100
AcDbArc
 50
225.0
 51
270.0
  0
ARC
  5
3CE
100
AcDbEntity
  8
DEFAULT_2
100
AcDbCircle
 62
8
  6
CONTINUOUS
 10
73.7500503556
 20
13.6588709224
 40
0.2499999997
100
AcDbArc
 50
96.3571664193
 51
134.9999994694
  0
ARC
  5
3CF
100
AcDbEntity
  8
DEFAULT_2
100
AcDbCircle
 62
8
  6
CONTINUOUS
 10
69.7799222359
 20
13.6494066811
 40
0.2499999993
100
AcDbArc
 50
45.0000017703
 51
89.0124438443
  0
ARC
  5
3D0
100
AcDbEntity
  8
0
100
AcDbCircle
 62
7
  6
CONTINUOUS
 10
73.7500503556
 20
13.6588709224
 40
0.1249999997
100
AcDbArc
 50
96.3571664342
 51
134.9999994743
  0
ARC
  5
3D1
100
AcDbEntity
  8
6_SURFACES-PATINS-SPEC
100
AcDbCircle
 62
7
  6
CONTINUOUS
 10
71.8308763036
 20
12.6709983298
 40
0.0624999965
100
AcDbArc
 50
291.5099411007
 51
304.5609651972
  0
ARC
  5
3D2
100
AcDbEntity
  8
6_SURFACES-PATINS-SPEC
100
AcDbCircle
 62
7
  6
CONTINUOUS
 10
72.1656265885
 20
12.9053930042
 40
0.0624999805
100
AcDbArc
 50
304.9301083902
 51
318.4901854493
  0
ARC
  5
3D3
100
AcDbEntity
  8
DEFAULT_2
100
AcDbCircle
 62
8
  6
CONTINUOUS
 10
79.4283869268
 20
33.360107531
 40
0.5
100
AcDbArc
 50
82.7941011554
 51
171.0000000299
  0
ARC
  5
3D4
100
AcDbEntity
  8
0
100
AcDbCircle
 62
7
  6
CONTINUOUS
 10
82.6472482457
 20
33.1783765417
 40
0.25
100
AcDbArc
 50
4.999999996
 51
81.8486480575
  0
ENDSEC
  0
SECTION
  2
OBJECTS
  0
DICTIONARY
  5
3D5
100
AcDbDictionary
  3
ACAD_GROUP
350
3D6
  3
ACAD_MLINESTYLE
350
3D7
  0
DICTIONARY
  5
3D6
102
{ACAD_REACTORS
330
3D5
102
}
100
AcDbDictionary
  0
DICTIONARY
  5
3D7
102
{ACAD_REACTORS
330
3D5
102
}
100
AcDbDictionary
  3
STANDARD
350
3D8
  0
MLINESTYLE
  5
3D8
102
{ACAD_REACTORS
330
3D7
102
}
100
AcDbMlineStyle
  2
STANDARD
 70
0
  3

 62
256
 51
90.0
 52
90.0
 71
2
 49
0.5
 62
256
  6
BYLAYER
 49
-0.5
 62
256
  6
BYLAYER
  0
ENDSEC
  0
EOF
