  0
SECTION
  2
HEADER
  9
$ACADVER
  1
AC1014
  9
$ACADMAINTVER
 70
     9
  9
$DWGCODEPAGE
  3
ANSI_1252
  9
$INSBASE
 10
1.750123633866564
 20
-74.45246710883231
 30
0.0
  9
$EXTMIN
 10
-8.983723095439881
 20
-76.75842516766959
 30
-0.0015258207003612
  9
$EXTMAX
 10
26.98420524194342
 20
-53.09096585104497
 30
0.0000000349246008
  9
$LIMMIN
 10
0.0
 20
0.0
  9
$LIMMAX
 10
100.5024158491978
 20
51.69854817198938
  9
$ORTHOMODE
 70
     1
  9
$REGENMODE
 70
     1
  9
$FILLMODE
 70
     1
  9
$QTEXTMODE
 70
     0
  9
$MIRRTEXT
 70
     1
  9
$DRAGMODE
 70
     2
  9
$LTSCALE
 40
2.0
  9
$OSMODE
 70
    55
  9
$ATTMODE
 70
     1
  9
$TEXTSIZE
 40
0.06
  9
$TRACEWID
 40
1.0
  9
$TEXTSTYLE
  7
CARTOUCHE
  9
$CLAYER
  8
0
  9
$CELTYPE
  6
BYLAYER
  9
$CECOLOR
 62
   256
  9
$CELTSCALE
 40
1.0
  9
$DELOBJ
 70
     1
  9
$DISPSILH
 70
     0
  9
$DIMSCALE
 40
16.0
  9
$DIMASZ
 40
0.1
  9
$DIMEXO
 40
0.0625
  9
$DIMDLI
 40
0.25
  9
$DIMRND
 40
0.0
  9
$DIMDLE
 40
0.0
  9
$DIMEXE
 40
0.1
  9
$DIMTP
 40
0.0
  9
$DIMTM
 40
0.0
  9
$DIMTXT
 40
0.1
  9
$DIMCEN
 40
0.09
  9
$DIMTSZ
 40
0.0
  9
$DIMTOL
 70
     0
  9
$DIMLIM
 70
     0
  9
$DIMTIH
 70
     1
  9
$DIMTOH
 70
     1
  9
$DIMSE1
 70
     0
  9
$DIMSE2
 70
     0
  9
$DIMTAD
 70
     0
  9
$DIMZIN
 70
     4
  9
$DIMBLK
  1

  9
$DIMASO
 70
     1
  9
$DIMSHO
 70
     1
  9
$DIMPOST
  1
\X
  9
$DIMAPOST
  1
cm
  9
$DIMALT
 70
     1
  9
$DIMALTD
 70
     1
  9
$DIMALTF
 40
2.54
  9
$DIMLFAC
 40
1.0
  9
$DIMTOFL
 70
     0
  9
$DIMTVP
 40
0.0
  9
$DIMTIX
 70
     0
  9
$DIMSOXD
 70
     0
  9
$DIMSAH
 70
     0
  9
$DIMBLK1
  1

  9
$DIMBLK2
  1

  9
$DIMSTYLE
  2
STANDARD
  9
$DIMCLRD
 70
     0
  9
$DIMCLRE
 70
     0
  9
$DIMCLRT
 70
     0
  9
$DIMTFAC
 40
1.0
  9
$DIMGAP
 40
0.08
  9
$DIMJUST
 70
     0
  9
$DIMSD1
 70
     0
  9
$DIMSD2
 70
     0
  9
$DIMTOLJ
 70
     1
  9
$DIMTZIN
 70
     4
  9
$DIMALTZ
 70
     4
  9
$DIMALTTZ
 70
     4
  9
$DIMFIT
 70
     1
  9
$DIMUPT
 70
     0
  9
$DIMUNIT
 70
     5
  9
$DIMDEC
 70
     3
  9
$DIMTDEC
 70
     3
  9
$DIMALTU
 70
     2
  9
$DIMALTTD
 70
     1
  9
$DIMTXSTY
  7
ROMANS
  9
$DIMAUNIT
 70
     0
  9
$LUNITS
 70
     2
  9
$LUPREC
 70
     2
  9
$SKETCHINC
 40
1.0
  9
$FILLETRAD
 40
1.0
  9
$AUNITS
 70
     0
  9
$AUPREC
 70
     0
  9
$MENU
  1
.
  9
$ELEVATION
 40
0.0
  9
$PELEVATION
 40
0.0
  9
$THICKNESS
 40
0.0
  9
$LIMCHECK
 70
     0
  9
$BLIPMODE
 70
     0
  9
$CHAMFERA
 40
10.0
  9
$CHAMFERB
 40
10.0
  9
$CHAMFERC
 40
20.0
  9
$CHAMFERD
 40
0.0
  9
$SKPOLY
 70
     0
  9
$TDCREATE
 40
2452062.343093518
  9
$TDUPDATE
 40
2453689.558430359
  9
$TDINDWG
 40
1.6022171528
  9
$TDUSRTIMER
 40
1.6022171528
  9
$USRTIMER
 70
     1
  9
$ANGBASE
 50
0.0
  9
$ANGDIR
 70
     0
  9
$PDMODE
 70
    33
  9
$PDSIZE
 40
0.25
  9
$PLINEWID
 40
0.0
  9
$COORDS
 70
     1
  9
$SPLFRAME
 70
     0
  9
$SPLINETYPE
 70
     6
  9
$SPLINESEGS
 70
     8
  9
$ATTDIA
 70
     0
  9
$ATTREQ
 70
     1
  9
$HANDLING
 70
 22529
  9
$HANDSEED
  5
160
  9
$SURFTAB1
 70
     6
  9
$SURFTAB2
 70
     6
  9
$SURFTYPE
 70
     6
  9
$SURFU
 70
     6
  9
$SURFV
 70
     6
  9
$UCSNAME
  2

  9
$UCSORG
 10
0.0
 20
0.0
 30
0.0
  9
$UCSXDIR
 10
1.0
 20
0.0
 30
0.0
  9
$UCSYDIR
 10
0.0
 20
1.0
 30
0.0
  9
$PUCSNAME
  2

  9
$PUCSORG
 10
0.0
 20
0.0
 30
0.0
  9
$PUCSXDIR
 10
1.0
 20
0.0
 30
0.0
  9
$PUCSYDIR
 10
0.0
 20
1.0
 30
0.0
  9
$USERI1
 70
     0
  9
$USERI2
 70
     0
  9
$USERI3
 70
     0
  9
$USERI4
 70
     0
  9
$USERI5
 70
     0
  9
$USERR1
 40
0.0
  9
$USERR2
 40
0.0
  9
$USERR3
 40
0.0
  9
$USERR4
 40
0.0
  9
$USERR5
 40
0.0
  9
$WORLDVIEW
 70
     1
  9
$SHADEDGE
 70
     3
  9
$SHADEDIF
 70
    70
  9
$TILEMODE
 70
     1
  9
$MAXACTVP
 70
    48
  9
$PINSBASE
 10
0.0
 20
0.0
 30
0.0
  9
$PLIMCHECK
 70
     0
  9
$PEXTMIN
 10
0.0
 20
0.0
 30
0.0
  9
$PEXTMAX
 10
0.0
 20
0.0
 30
0.0
  9
$PLIMMIN
 10
0.0
 20
0.0
  9
$PLIMMAX
 10
12.0
 20
9.0
  9
$UNITMODE
 70
     0
  9
$VISRETAIN
 70
     1
  9
$PLINEGEN
 70
     0
  9
$PSLTSCALE
 70
     1
  9
$TREEDEPTH
 70
  3020
  9
$PICKSTYLE
 70
     1
  9
$CMLSTYLE
  2
STANDARD
  9
$CMLJUST
 70
     0
  9
$CMLSCALE
 40
20.0
  9
$PROXYGRAPHICS
 70
     1
  9
$MEASUREMENT
 70
     0
  0
ENDSEC
  0
SECTION
  2
CLASSES
  0
CLASS
  1
ACDBDICTIONARYWDFLT
  2
AcDbDictionaryWithDefault
  3
AutoCAD 2000
 90
        0
280
     0
281
     0
  0
CLASS
  1
ACDBPLACEHOLDER
  2
AcDbPlaceHolder
  3
AutoCAD 2000
 90
        0
280
     0
281
     0
  0
CLASS
  1
LAYOUT
  2
AcDbLayout
  3
AutoCAD 2000
 90
        0
280
     0
281
     0
  0
CLASS
  1
DICTIONARYVAR
  2
AcDbDictionaryVar
  3
AutoCAD 2000
 90
        0
280
     0
281
     0
  0
CLASS
  1
IMAGEDEF
  2
AcDbRasterImageDef
  3
ISM
 90
        0
280
     0
281
     0
  0
CLASS
  1
LONG_TRANSACTION
  2
AcDbLongTransaction
  3
AutoCAD 2000
 90
        0
280
     0
281
     0
  0
CLASS
  1
LWPOLYLINE
  2
AcDbPolyline
  3
AutoCAD 2000
 90
        0
280
     0
281
     1
  0
CLASS
  1
HATCH
  2
AcDbHatch
  3
AutoCAD 2000
 90
        0
280
     0
281
     1
  0
CLASS
  1
XRECORD
  2
AcDbXrecord
  3
AutoCAD 2000
 90
        0
280
     0
281
     0
  0
CLASS
  1
LONG_TRANSACTION
  2
AcDbLongTransaction
  3
AutoCAD 2000
 90
        0
280
     0
281
     0
  0
CLASS
  1
LWPOLYLINE
  2
AcDbPolyline
  3
AutoCAD 2000
 90
        0
280
     0
281
     1
  0
CLASS
  1
HATCH
  2
AcDbHatch
  3
AutoCAD 2000
 90
        0
280
     0
281
     1
  0
CLASS
  1
XRECORD
  2
AcDbXrecord
  3
AutoCAD 2000
 90
        0
280
     0
281
     0
  0
ENDSEC
  0
SECTION
  2
TABLES
  0
TABLE
  2
VPORT
  5
1D
330
0
100
AcDbSymbolTable
 70
     4
  0
VPORT
  5
13C
330
1D
100
AcDbSymbolTableRecord
100
AcDbViewportTableRecord
  2
*ACTIVE
 70
     0
 10
0.0
 20
0.0
 11
1.0
 21
1.0
 12
9.000241012155489
 22
-64.92469552481054
 13
0.0
 23
0.0
 14
10.0
 24
10.0
 15
10.0
 25
10.0
 16
0.0
 26
0.0
 36
1.0
 17
0.0
 27
0.0
 37
0.0
 40
28.96121484150526
 41
1.786792452830188
 42
50.0
 43
0.0
 44
0.0
 50
0.0
 51
0.0
 71
     0
 72
   100
 73
     1
 74
     3
 75
     0
 76
     0
 77
     0
 78
     2
  0
ENDTAB
  0
TABLE
  2
LTYPE
  5
18
330
0
100
AcDbSymbolTable
 70
     3
  0
LTYPE
  5
19
330
18
100
AcDbSymbolTableRecord
100
AcDbLinetypeTableRecord
  2
BYBLOCK
 70
     0
  3

 72
    65
 73
     0
 40
0.0
  0
LTYPE
  5
1A
330
18
100
AcDbSymbolTableRecord
100
AcDbLinetypeTableRecord
  2
BYLAYER
 70
     0
  3

 72
    65
 73
     0
 40
0.0
  0
LTYPE
  5
8
330
18
100
AcDbSymbolTableRecord
100
AcDbLinetypeTableRecord
  2
CONTINUOUS
 70
     0
  3
Solid line
 72
    65
 73
     0
 40
0.0
  0
LTYPE
  5
33
330
18
100
AcDbSymbolTableRecord
100
AcDbLinetypeTableRecord
  2
CENTER
 70
     0
  3
Center ____ _ ____ _ ____ _ ____ _ ____ _ ____
 72
    65
 73
     4
 40
50.8
 49
31.75
 74
     0
 49
-6.349999999999999
 74
     0
 49
6.349999999999999
 74
     0
 49
-6.349999999999999
 74
     0
  0
LTYPE
  5
5C
330
18
100
AcDbSymbolTableRecord
100
AcDbLinetypeTableRecord
  2
HIDDEN
 70
     0
  3
Hidden __ __ __ __ __ __ __ __ __ __ __ __ __ _
 72
    65
 73
     2
 40
0.375
 49
0.25
 74
     0
 49
-0.125
 74
     0
  0
ENDTAB
  0
TABLE
  2
LAYER
  5
10
102
{ACAD_XDICTIONARY
360
11
102
}
330
0
100
AcDbSymbolTable
 70
     2
  0
LAYER
  5
4
330
10
100
AcDbSymbolTableRecord
100
AcDbLayerTableRecord
  2
0
 70
     0
 62
     7
  6
CONTINUOUS
  0
LAYER
  5
32
330
10
100
AcDbSymbolTableRecord
100
AcDbLayerTableRecord
  2
CENTER
 70
     0
 62
     1
  6
CENTER
  0
ENDTAB
  0
TABLE
  2
STYLE
  5
15
330
0
100
AcDbSymbolTable
 70
     3
  0
STYLE
  5
16
330
15
100
AcDbSymbolTableRecord
100
AcDbTextStyleTableRecord
  2
STANDARD
 70
     0
 40
0.0
 41
1.0
 50
0.0
 71
     0
 42
0.125
  3
txt
  4

  0
STYLE
  5
2B
330
15
100
AcDbSymbolTableRecord
100
AcDbTextStyleTableRecord
  2
CARTOUCHE
 70
     0
 40
0.0
 41
1.0
 50
0.0
 71
     0
 42
0.06
  3
romans.shx
  4

  0
STYLE
  5
23
330
15
100
AcDbSymbolTableRecord
100
AcDbTextStyleTableRecord
  2
ROMANS
 70
     0
 40
0.0
 41
1.0
 50
0.0
 71
     0
 42
1.0
  3
romans.shx
  4

  0
ENDTAB
  0
TABLE
  2
VIEW
  5
1B
330
0
100
AcDbSymbolTable
 70
     0
  0
ENDTAB
  0
TABLE
  2
UCS
  5
1C
330
0
100
AcDbSymbolTable
 70
     0
  0
ENDTAB
  0
TABLE
  2
APPID
  5
1F
330
0
100
AcDbSymbolTable
 70
     1
  0
APPID
  5
20
330
1F
100
AcDbSymbolTableRecord
100
AcDbRegAppTableRecord
  2
ACAD
 70
     0
  0
ENDTAB
  0
TABLE
  2
DIMSTYLE
  5
21
330
0
100
AcDbSymbolTable
 70
     1
  0
DIMSTYLE
105
22
330
21
100
AcDbSymbolTableRecord
100
AcDbDimStyleTableRecord
  2
STANDARD
 70
     0
  3
\X
  4
cm
  5

  6

  7

 40
16.0
 41
0.1
 42
0.0625
 43
0.25
 44
0.1
 45
0.0
 46
0.0
 47
0.0
 48
0.0
140
0.1
141
0.09
142
0.0
143
2.54
144
1.0
145
0.0
146
1.0
147
0.08
 71
     0
 72
     0
 73
     1
 74
     1
 75
     0
 76
     0
 77
     0
 78
     4
170
     1
171
     1
172
     0
173
     0
174
     0
175
     0
176
     0
177
     0
178
     0
270
     5
271
     3
272
     3
273
     2
274
     1
340
23
275
     0
280
     0
281
     0
282
     0
283
     1
284
     4
285
     4
286
     4
287
     1
288
     0
  0
ENDTAB
  0
TABLE
  2
BLOCK_RECORD
  5
1
330
0
100
AcDbSymbolTable
 70
     0
  0
BLOCK_RECORD
  5
2
102
{ACAD_XDICTIONARY
360
74
102
}
330
1
100
AcDbSymbolTableRecord
100
AcDbBlockTableRecord
  2
*MODEL_SPACE
  0
BLOCK_RECORD
  5
69
102
{ACAD_XDICTIONARY
360
76
102
}
330
1
100
AcDbSymbolTableRecord
100
AcDbBlockTableRecord
  2
*PAPER_SPACE
  0
ENDTAB
  0
ENDSEC
  0
SECTION
  2
BLOCKS
  0
BLOCK
  5
3
330
2
100
AcDbEntity
  8
0
100
AcDbBlockBegin
  2
*MODEL_SPACE
 70
     0
 10
0.0
 20
0.0
 30
0.0
  3
*MODEL_SPACE
  1

  0
ENDBLK
  5
9
330
2
100
AcDbEntity
  8
0
100
AcDbBlockEnd
  0
BLOCK
  5
6B
330
69
100
AcDbEntity
 67
     1
  8
0
100
AcDbBlockBegin
  2
*PAPER_SPACE
 70
     0
 10
0.0
 20
0.0
 30
0.0
  3
*PAPER_SPACE
  1

  0
ENDBLK
  5
6C
330
69
100
AcDbEntity
 67
     1
  8
0
100
AcDbBlockEnd
  0
ENDSEC
  0
SECTION
  2
ENTITIES
  0
LINE
  5
2D
330
2
100
AcDbEntity
  8
0
 48
0.1
100
AcDbLine
 10
22.16345996217405
 20
-70.73060278747866
 30
0.0
 11
23.56574013151096
 21
-54.7024671088323
 31
0.0
  0
LINE
  5
2E
330
2
100
AcDbEntity
  8
0
 48
0.1
100
AcDbLine
 10
-4.158220711517444
 20
-70.7876614133886
 30
0.0
 11
-5.56549286377789
 21
-54.7024671088323
 31
0.0
  0
LINE
  5
2F
330
2
100
AcDbEntity
  8
0
 48
0.1
100
AcDbLine
 10
3.240442728942284
 20
-73.52619418514563
 30
0.0
 11
2.940320849768568
 21
-74.16506276185311
 31
0.0
  0
LINE
  5
30
330
2
100
AcDbEntity
  8
0
 48
0.1
100
AcDbLine
 10
-0.0492881238413503
 20
-73.52619418514563
 30
0.0
 11
4.097219829558184
 21
-73.52619418514563
 31
0.0
  0
LINE
  5
31
330
2
100
AcDbEntity
  8
CENTER
 48
0.05
100
AcDbLine
 10
1.750123633866564
 20
-71.15143637023894
 30
0.0
 11
1.750123633866564
 21
-76.75450539064559
 31
0.0
  0
ARC
  5
34
330
2
100
AcDbEntity
  8
0
 48
0.1
100
AcDbCircle
 10
-0.6303891348783122
 20
-69.88562512002049
 30
0.0
 40
3.641327382656688
100
AcDbArc
 50
194.3427428421628
 51
271.1693401244952
  0
LINE
  5
35
330
2
100
AcDbEntity
  8
0
 48
0.1
100
AcDbLine
 10
0.3314637610866242
 20
-73.8797475757389
 30
0.0
 11
0.0614253878165556
 21
-73.60970920246884
 31
0.0
  0
LINE
  5
36
330
2
100
AcDbEntity
  8
0
 48
0.1
100
AcDbLine
 10
0.3314637610866242
 20
-73.8797475757389
 30
0.0
 11
0.0614253878165556
 21
-73.60970920246884
 31
0.0
  0
ARC
  5
37
330
2
100
AcDbEntity
  8
0
 48
0.1
100
AcDbCircle
 10
-0.2921280027767201
 20
-73.96326259306213
 30
0.0
 40
0.5
100
AcDbArc
 50
45.00000000000112
 51
60.94298210333627
  0
LINE
  5
38
330
2
100
AcDbEntity
  8
0
 48
0.1
100
AcDbLine
 10
0.4392694502955124
 20
-73.52619418514563
 30
0.0
 11
-0.556079043105342
 21
-73.52619418514563
 31
0.0
  0
ARC
  5
39
330
2
100
AcDbEntity
  8
0
 48
0.1
100
AcDbCircle
 10
2.487769097681933
 20
-73.95246710883231
 30
0.0
 40
0.5
100
AcDbArc
 50
270.0000000000008
 51
334.8372269395658
  0
LINE
  5
3A
330
2
100
AcDbEntity
  8
0
 48
0.1
100
AcDbLine
 10
0.7957568531596735
 20
-73.52619418514563
 30
0.0
 11
1.095878732333403
 21
-74.16506276185311
 31
0.0
  0
ARC
  5
3B
330
2
100
AcDbEntity
  8
0
 48
0.1
100
AcDbCircle
 10
0.5082404563832635
 20
-73.70297088044226
 30
0.0
 40
0.25
100
AcDbArc
 50
225.0000000000005
 51
270.0
  0
LINE
  5
3C
330
2
100
AcDbEntity
  8
0
 48
0.1
100
AcDbLine
 10
0.5082404563832626
 20
-73.95297088044227
 30
0.0
 11
0.9694396508340616
 21
-73.95297088044227
 31
0.0
  0
ARC
  5
3D
330
2
100
AcDbEntity
  8
0
 48
0.1
100
AcDbCircle
 10
0.5082404563832635
 20
-73.70297088044226
 30
0.0
 40
0.25
100
AcDbArc
 50
225.0000000000005
 51
270.0
  0
ARC
  5
3E
330
2
100
AcDbEntity
  8
0
 48
0.1
100
AcDbCircle
 10
1.548430484420038
 20
-73.95246710883231
 30
0.0
 40
0.5
100
AcDbArc
 50
205.1627730604341
 51
269.9999999999992
  0
LINE
  5
3F
330
2
100
AcDbEntity
  8
0
 48
0.1
100
AcDbLine
 10
1.548430484420009
 20
-74.45246710883231
 30
0.0
 11
2.487769097681962
 21
-74.45246710883231
 31
0.0
  0
LINE
  5
40
330
2
100
AcDbEntity
  8
0
 48
0.1
100
AcDbLine
 10
2.487769097681962
 20
-74.45246710883231
 30
0.0
 11
1.548430484420009
 21
-74.45246710883231
 31
0.0
  0
LINE
  5
41
330
2
100
AcDbEntity
  8
0
 48
0.1
100
AcDbLine
 10
1.548430484420009
 20
-74.45246710883231
 30
0.0
 11
2.487769097681962
 21
-74.45246710883231
 31
0.0
  0
ARC
  5
42
330
2
100
AcDbEntity
  8
0
 48
0.1
100
AcDbCircle
 10
19.69927499836918
 20
-70.99265980009225
 30
0.0
 40
2.478080187100886
100
AcDbArc
 50
272.0618805304055
 51
6.070379741807905
  0
LINE
  5
43
330
2
100
AcDbEntity
  8
0
 48
0.1
100
AcDbLine
 10
19.7884334420356
 20
-73.46913555923568
 30
0.0
 11
4.097219829558184
 21
-73.52619418514563
 31
0.0
  0
ARC
  5
44
330
2
100
AcDbEntity
  8
0
 48
0.1
100
AcDbCircle
 10
9.144011901372437
 20
-73.95246710883231
 30
0.0
 40
0.5
100
AcDbArc
 50
205.1627730604341
 51
269.9999999999992
  0
LINE
  5
45
330
2
100
AcDbEntity
  8
0
 48
0.1
100
AcDbLine
 10
3.227910370493347
 20
-73.8797475757389
 30
0.0
 11
3.497948743763416
 21
-73.60970920246884
 31
0.0
  0
ARC
  5
46
330
2
100
AcDbEntity
  8
0
 48
0.1
100
AcDbCircle
 10
3.051133675196709
 20
-73.70297088044226
 30
0.0
 40
0.25
100
AcDbArc
 50
270.0
 51
314.9999999999995
  0
ARC
  5
47
330
2
100
AcDbEntity
  8
0
 48
0.1
100
AcDbCircle
 10
3.051133675196709
 20
-73.70297088044226
 30
0.0
 40
0.25
100
AcDbArc
 50
270.0
 51
314.9999999999995
  0
ARC
  5
48
330
2
100
AcDbEntity
  8
0
 48
0.1
100
AcDbCircle
 10
3.851502134356678
 20
-73.96326259306213
 30
0.0
 40
0.5
100
AcDbArc
 50
119.057017896663
 51
134.9999999999988
  0
LINE
  5
49
330
2
100
AcDbEntity
  8
0
 48
0.1
100
AcDbLine
 10
8.38401536051262
 20
-73.5106059286478
 30
0.0
 11
8.691460149285802
 21
-74.16506276185311
 31
0.0
  0
LINE
  5
4A
330
2
100
AcDbEntity
  8
0
 48
0.1
100
AcDbLine
 10
10.84755539265877
 20
-73.50164765348953
 30
0.0
 11
10.53590226672098
 21
-74.16506276185311
 31
0.0
  0
ARC
  5
4B
330
2
100
AcDbEntity
  8
0
 48
0.1
100
AcDbCircle
 10
10.08335051463434
 20
-73.95246710883231
 30
0.0
 40
0.5
100
AcDbArc
 50
270.0000000000008
 51
334.8372269395658
  0
LINE
  5
4C
330
2
100
AcDbEntity
  8
0
 48
0.1
100
AcDbLine
 10
9.144011901372408
 20
-74.45246710883231
 30
0.0
 11
10.08335051463437
 21
-74.45246710883231
 31
0.0
  0
LINE
  5
4D
330
2
100
AcDbEntity
  8
0
 48
0.1
100
AcDbLine
 10
9.144011901372408
 20
-74.45246710883231
 30
0.0
 11
10.08335051463437
 21
-74.45246710883231
 31
0.0
  0
LINE
  5
4E
330
2
100
AcDbEntity
  8
0
 48
0.1
100
AcDbLine
 10
10.08335051463437
 20
-74.45246710883231
 30
0.0
 11
9.144011901372408
 21
-74.45246710883231
 31
0.0
  0
ARC
  5
4F
330
2
100
AcDbEntity
  8
0
 48
0.1
100
AcDbCircle
 10
17.19037435744988
 20
-73.95246710883231
 30
0.0
 40
0.5
100
AcDbArc
 50
270.0000000000008
 51
334.8372269395658
  0
LINE
  5
50
330
2
100
AcDbEntity
  8
0
 48
0.1
100
AcDbLine
 10
15.47891934826533
 20
-73.48480642820749
 30
0.0
 11
15.79848399210135
 21
-74.16506276185311
 31
0.0
  0
ARC
  5
51
330
2
100
AcDbEntity
  8
0
 48
0.1
100
AcDbCircle
 10
16.25103574418798
 20
-73.95246710883231
 30
0.0
 40
0.5
100
AcDbArc
 50
205.1627730604341
 51
269.9999999999992
  0
LINE
  5
52
330
2
100
AcDbEntity
  8
0
 48
0.1
100
AcDbLine
 10
17.19037435744991
 20
-74.45246710883231
 30
0.0
 11
16.25103574418796
 21
-74.45246710883231
 31
0.0
  0
LINE
  5
53
330
2
100
AcDbEntity
  8
0
 48
0.1
100
AcDbLine
 10
16.25103574418796
 20
-74.45246710883231
 30
0.0
 11
17.19037435744991
 21
-74.45246710883231
 31
0.0
  0
LINE
  5
54
330
2
100
AcDbEntity
  8
0
 48
0.1
100
AcDbLine
 10
17.19037435744991
 20
-74.45246710883231
 30
0.0
 11
16.25103574418796
 21
-74.45246710883231
 31
0.0
  0
LINE
  5
55
330
2
100
AcDbEntity
  8
0
 48
0.1
100
AcDbLine
 10
17.96674056882706
 20
-73.47575985833339
 30
0.0
 11
17.64292610953651
 21
-74.16506276185311
 31
0.0
  0
LINE
  5
56
330
2
100
AcDbEntity
  8
0
 48
0.1
100
AcDbLine
 10
-8.874876366133435
 20
-54.7024671088323
 30
0.0
 11
9.613681208003399
 21
-54.7024671088323
 31
0.0
  0
LINE
  5
57
330
2
100
AcDbEntity
  8
0
 48
0.1
100
AcDbLine
 10
-8.374876366133435
 20
-53.20246710883229
 30
0.0
 11
9.613681208003391
 21
-53.20246710883229
 31
0.0
  0
LINE
  5
58
330
2
100
AcDbEntity
  8
CENTER
 48
0.05
100
AcDbLine
 10
-8.77189010087892
 20
-57.11246710883229
 30
0.0
 11
-1.937400268481904
 21
-57.11246710883229
 31
0.0
  0
ARC
  5
59
330
2
100
AcDbEntity
  8
0
 48
0.1
100
AcDbCircle
 10
-8.374876366133431
 20
-53.70246710883229
 30
0.0
 40
0.5
100
AcDbArc
 50
89.99999999999998
 51
180.0
  0
LINE
  5
5A
330
2
100
AcDbEntity
  8
0
 48
0.1
100
AcDbLine
 10
-8.874876366133435
 20
-54.7024671088323
 30
0.0
 11
-8.874876366133435
 21
-53.70246710883229
 31
0.0
  0
LINE
  5
5B
330
2
100
AcDbEntity
  8
0
  6
HIDDEN
 48
0.1
100
AcDbLine
 10
-5.696725859066773
 20
-53.20246710883229
 30
0.0
 11
-5.56549286377789
 21
-54.7024671088323
 31
0.0
  0
LINE
  5
5D
330
2
100
AcDbEntity
  8
0
 48
0.1
100
AcDbLine
 10
26.37512363386656
 20
-53.2024671088323
 30
0.0
 11
9.613681208003391
 21
-53.20246710883229
 31
0.0
  0
LINE
  5
5E
330
2
100
AcDbEntity
  8
0
 48
0.1
100
AcDbLine
 10
26.87512363386656
 20
-54.7024671088323
 30
0.0
 11
9.613681208003384
 21
-54.7024671088323
 31
0.0
  0
LINE
  5
5F
330
2
100
AcDbEntity
  8
0
  6
HIDDEN
 48
0.1
100
AcDbLine
 10
23.69697312679986
 20
-53.2024671088323
 30
0.0
 11
23.56574013151097
 21
-54.7024671088323
 31
0.0
  0
LINE
  5
60
330
2
100
AcDbEntity
  8
0
 48
0.1
100
AcDbLine
 10
26.87512363386656
 20
-54.7024671088323
 30
0.0
 11
26.87512363386656
 21
-53.7024671088323
 31
0.0
  0
ARC
  5
61
330
2
100
AcDbEntity
  8
0
 48
0.1
100
AcDbCircle
 10
26.37512363386656
 20
-53.7024671088323
 30
0.0
 40
0.5
100
AcDbArc
 50
0.0
 51
89.99999999999998
  0
ENDSEC
  0
SECTION
  2
OBJECTS
  0
DICTIONARY
  5
7
330
0
100
AcDbDictionary
  3
ACAD_GROUP
350
28
  3
ACAD_LAYOUT
350
B
  3
ACAD_MLINESTYLE
350
29
  3
ACAD_PLOTSETTINGS
350
2A
  3
ACAD_PLOTSTYLENAME
350
6
  3
ACDBHEADERROUNDTRIPXREC
350
13D
  3
ACDBVARIABLEDICTIONARY
350
62
  0
DICTIONARY
  5
11
330
10
100
AcDbDictionary
280
     1
  3
ACAD_LAYERFILTERS
360
12
  0
DICTIONARY
  5
74
330
2
100
AcDbDictionary
280
     1
  3
ACAD_LAYOUTSELFREF
360
15E
  0
DICTIONARY
  5
76
330
69
100
AcDbDictionary
280
     1
  3
ACAD_LAYOUTSELFREF
360
15F
  0
DICTIONARY
  5
28
102
{ACAD_REACTORS
330
7
102
}
330
7
100
AcDbDictionary
  0
DICTIONARY
  5
B
102
{ACAD_REACTORS
330
7
102
}
330
7
100
AcDbDictionary
  0
DICTIONARY
  5
29
102
{ACAD_REACTORS
330
7
102
}
330
7
100
AcDbDictionary
  3
STANDARD
350
2C
  0
DICTIONARY
  5
2A
102
{ACAD_REACTORS
330
7
102
}
330
7
100
AcDbDictionary
  0
ACDBDICTIONARYWDFLT
  5
6
102
{ACAD_REACTORS
330
7
102
}
330
7
100
AcDbDictionary
281
     1
  3
Normal
350
5
100
AcDbDictionaryWithDefault
340
5
  0
DICTIONARY
  5
13D
102
{ACAD_REACTORS
330
7
102
}
330
7
100
AcDbDictionary
  3
CEPSNTYPE
350
147
  3
DIMSTYLEDATA
350
14B
  3
FINGERPRINTGUID
350
148
  3
HYPERLINKBASE
350
140
  3
INSUNITS
350
146
  3
LAYOUTDICT
350
142
  3
LWETCUNION
350
145
  3
PLOTSETDICT
350
143
  3
PLOTSTYLNAMDICT
350
144
  3
PSVPSCALE
350
14A
  3
PUCSBASE
350
14E
  3
PUCSORGBACK
350
154
  3
PUCSORGBOTTOM
350
150
  3
PUCSORGFRONT
350
153
  3
PUCSORGLEFT
350
151
  3
PUCSORGRIGHT
350
152
  3
PUCSORGTOP
350
14F
  3
PUCSORTHOREF
350
14C
  3
PUCSORTHOVIEW
350
14D
  3
STYLESHEET
350
141
  3
TSTACKALIGN
350
13E
  3
TSTACKSIZE
350
13F
  3
UCSBASE
350
157
  3
UCSORGBACK
350
15D
  3
UCSORGBOTTOM
350
159
  3
UCSORGFRONT
350
15C
  3
UCSORGLEFT
350
15A
  3
UCSORGRIGHT
350
15B
  3
UCSORGTOP
350
158
  3
UCSORTHOREF
350
155
  3
UCSORTHOVIEW
350
156
  3
VERSIONGUID
350
149
  0
DICTIONARY
  5
62
102
{ACAD_REACTORS
330
7
102
}
330
7
100
AcDbDictionary
  3
DIMASSOC
350
64
  3
HIDETEXT
350
63
  0
DICTIONARY
  5
12
102
{ACAD_REACTORS
330
11
102
}
330
11
100
AcDbDictionary
280
     1
  3
DIM-1_12
360
13
  3
DIM-1_16
360
14
  0
XRECORD
  5
15E
102
{ACAD_REACTORS
330
74
102
}
330
74
100
AcDbXrecord
340
2
  0
XRECORD
  5
15F
102
{ACAD_REACTORS
330
76
102
}
330
76
100
AcDbXrecord
340
69
  0
MLINESTYLE
  5
2C
102
{ACAD_REACTORS
330
29
102
}
330
29
100
AcDbMlineStyle
  2
STANDARD
 70
     0
  3

 62
   256
 51
90.0
 52
90.0
 71
     2
 49
0.5
 62
   256
  6
BYLAYER
 49
-0.5
 62
   256
  6
BYLAYER
  0
ACDBPLACEHOLDER
  5
5
102
{ACAD_REACTORS
330
6
102
}
330
6
100
AcDbPlaceHolder
280
     0
  0
XRECORD
  5
147
102
{ACAD_REACTORS
330
13D
102
}
330
13D
100
AcDbXrecord
 90
        0
  0
XRECORD
  5
14B
102
{ACAD_REACTORS
330
13D
102
}
330
13D
100
AcDbXrecord
1000
DSTYLE
1002
{
1070
    79
 70
     1
1070
   276
 70
     1
1070
   277
 70
     5
1070
   289
 70
     1
1002
}
  0
XRECORD
  5
148
102
{ACAD_REACTORS
330
13D
102
}
330
13D
100
AcDbXrecord
  1
{6A4AC8E0-4F58-11D5-8420-0003476D26AB}
  0
XRECORD
  5
140
102
{ACAD_REACTORS
330
13D
102
}
330
13D
100
AcDbXrecord
  1

  0
XRECORD
  5
146
102
{ACAD_REACTORS
330
13D
102
}
330
13D
100
AcDbXrecord
 90
        1
  0
XRECORD
  5
142
102
{ACAD_REACTORS
330
13D
102
}
330
13D
100
AcDbXrecord
340
B
  0
XRECORD
  5
145
102
{ACAD_REACTORS
330
13D
102
}
330
13D
100
AcDbXrecord
 90
    10781
  0
XRECORD
  5
143
102
{ACAD_REACTORS
330
13D
102
}
330
13D
100
AcDbXrecord
340
2A
  0
XRECORD
  5
144
102
{ACAD_REACTORS
330
13D
102
}
330
13D
100
AcDbXrecord
340
6
  0
XRECORD
  5
14A
102
{ACAD_REACTORS
330
13D
102
}
330
13D
100
AcDbXrecord
 40
0.0
  0
XRECORD
  5
14E
102
{ACAD_REACTORS
330
13D
102
}
330
13D
100
AcDbXrecord
340
0
  0
XRECORD
  5
154
102
{ACAD_REACTORS
330
13D
102
}
330
13D
100
AcDbXrecord
 10
0.0
 20
0.0
 30
0.0
  0
XRECORD
  5
150
102
{ACAD_REACTORS
330
13D
102
}
330
13D
100
AcDbXrecord
 10
0.0
 20
0.0
 30
0.0
  0
XRECORD
  5
153
102
{ACAD_REACTORS
330
13D
102
}
330
13D
100
AcDbXrecord
 10
0.0
 20
0.0
 30
0.0
  0
XRECORD
  5
151
102
{ACAD_REACTORS
330
13D
102
}
330
13D
100
AcDbXrecord
 10
0.0
 20
0.0
 30
0.0
  0
XRECORD
  5
152
102
{ACAD_REACTORS
330
13D
102
}
330
13D
100
AcDbXrecord
 10
0.0
 20
0.0
 30
0.0
  0
XRECORD
  5
14F
102
{ACAD_REACTORS
330
13D
102
}
330
13D
100
AcDbXrecord
 10
0.0
 20
0.0
 30
0.0
  0
XRECORD
  5
14C
102
{ACAD_REACTORS
330
13D
102
}
330
13D
100
AcDbXrecord
340
0
  0
XRECORD
  5
14D
102
{ACAD_REACTORS
330
13D
102
}
330
13D
100
AcDbXrecord
 70
     0
  0
XRECORD
  5
141
102
{ACAD_REACTORS
330
13D
102
}
330
13D
100
AcDbXrecord
  1

  0
XRECORD
  5
13E
102
{ACAD_REACTORS
330
13D
102
}
330
13D
100
AcDbXrecord
 90
        1
  0
XRECORD
  5
13F
102
{ACAD_REACTORS
330
13D
102
}
330
13D
100
AcDbXrecord
 90
       70
  0
XRECORD
  5
157
102
{ACAD_REACTORS
330
13D
102
}
330
13D
100
AcDbXrecord
340
0
  0
XRECORD
  5
15D
102
{ACAD_REACTORS
330
13D
102
}
330
13D
100
AcDbXrecord
 10
0.0
 20
0.0
 30
0.0
  0
XRECORD
  5
159
102
{ACAD_REACTORS
330
13D
102
}
330
13D
100
AcDbXrecord
 10
0.0
 20
0.0
 30
0.0
  0
XRECORD
  5
15C
102
{ACAD_REACTORS
330
13D
102
}
330
13D
100
AcDbXrecord
 10
0.0
 20
0.0
 30
0.0
  0
XRECORD
  5
15A
102
{ACAD_REACTORS
330
13D
102
}
330
13D
100
AcDbXrecord
 10
0.0
 20
0.0
 30
0.0
  0
XRECORD
  5
15B
102
{ACAD_REACTORS
330
13D
102
}
330
13D
100
AcDbXrecord
 10
0.0
 20
0.0
 30
0.0
  0
XRECORD
  5
158
102
{ACAD_REACTORS
330
13D
102
}
330
13D
100
AcDbXrecord
 10
0.0
 20
0.0
 30
0.0
  0
XRECORD
  5
155
102
{ACAD_REACTORS
330
13D
102
}
330
13D
100
AcDbXrecord
340
0
  0
XRECORD
  5
156
102
{ACAD_REACTORS
330
13D
102
}
330
13D
100
AcDbXrecord
 70
     1
  0
XRECORD
  5
149
102
{ACAD_REACTORS
330
13D
102
}
330
13D
100
AcDbXrecord
  1
{254FC0B0-273A-45F0-BEC3-4DA6623B07E0}
  0
DICTIONARYVAR
  5
64
102
{ACAD_REACTORS
330
62
102
}
330
62
100
DictionaryVariables
280
     0
  1
1
  0
DICTIONARYVAR
  5
63
102
{ACAD_REACTORS
330
62
102
}
330
62
100
DictionaryVariables
280
     0
  1
1
  0
XRECORD
  5
13
102
{ACAD_REACTORS
330
12
102
}
330
12
100
AcDbXrecord
  1
DIM-1_12
  1
DIM-1_12
  1
*
  1
*
 70
     0
  1
*
  1
*
  0
XRECORD
  5
14
102
{ACAD_REACTORS
330
12
102
}
330
12
100
AcDbXrecord
  1
dim-1_16
  1
*
  1
*
  1
*
 70
     0
  1
*
  1
*
  0
ENDSEC
  0
EOF
