  0
SECTION
  2
HEADER
  9
$ACADVER
  1
AC1015
  9
$DWGCODEPAGE
  3
ANSI_1252
  9
$EXTMAX
 10
17.0
 20
11.0
 30
0.0
  9
$EXTMIN
 10
0.0
 20
0.0
 30
0.0
  9
$LIMMIN
 10
0.0
 20
0.0
  9
$LIMMAX
 10
17.0
 20
11.0
  9
$VIEWCTR
 10
8.5
 20
5.5
  9
$VIEWSIZE
 40
11.0
  9
$CLAYER
  8
0
  9
$LTSCALE
 40
0.935
  9
$CELTYPE
  6
BYLAYER
  9
$DIMSCALE
 40
1.0
  9
$DIMASZ
 40
0.1875
  9
$DIMEXO
 40
0.10625
  9
$DIMDLI
 40
0.646
  9
$DIMEXE
 40
0.306
  9
$DIMCEN
 40
0.153
  9
$DIMLFAC
 40
1.0
  9
$DIMBLK
  1
_FILLED
  9
$DIMTXT
 40
0.125
  9
$DIMTOL
 70
0
  9
$DIMLIM
 70
0
  9
$DIMTFAC
 40
1.0
  9
$PDMODE
 70
3
  9
$PDSIZE
 40
0.03125
  9
$HANDSEED
  5
557
  9
$TILEMODE
 70
1
  9
$MEASUREMENT
 70
0
  9
$INSUNITS
 70
1
  0
ENDSEC
  0
SECTION
  2
CLASSES
  0
CLASS
  1
ACDBDICTIONARYWDFLT
  2
AcDbDictionaryWithDefault
  3
AutoCAD 2000
 90
0
280
0
281
0
  0
CLASS
  1
ACDBPLACEHOLDER
  2
AcDbPlaceHolder
  3
AutoCAD 2000
 90
0
280
0
281
0
  0
CLASS
  1
LAYOUT
  2
AcDbLayout
  3
AutoCAD 2000
 90
0
280
0
281
0
  0
ENDSEC
  0
SECTION
  2
TABLES
  0
TABLE
  2
VPORT
  5
8
100
AcDbSymbolTable
 70
2
  0
VPORT
  5
1F4
100
AcDbSymbolTableRecord
100
AcDbViewportTableRecord
  2
*ACTIVE
 70
0
 10
0.0
 20
0.0
 11
1.0
 21
1.0
 12
8.5
 22
5.5
 13
0.0
 23
0.0
 14
1.0
 24
1.0
 15
0.0
 25
0.0
 16
0.0
 26
0.0
 36
1.0
 17
0.0
 27
0.0
 37
0.0
 40
11.0
 41
1.5454545455
 42
50.0
 43
0.0
 44
0.0
 50
0.0
 51
0.0
 71
0
 72
100
 73
1
 74
1
 75
0
 76
0
 77
0
 78
0
  0
ENDTAB
  0
TABLE
  2
LTYPE
  5
5
100
AcDbSymbolTable
 70
6
  0
LTYPE
  5
14
100
AcDbSymbolTableRecord
100
AcDbLinetypeTableRecord
  2
BYBLOCK
 70
0
  3

 72
65
 73
0
 40
0.0
  0
LTYPE
  5
15
100
AcDbSymbolTableRecord
100
AcDbLinetypeTableRecord
  2
BYLAYER
 70
0
  3

 72
65
 73
0
 40
0.0
  0
LTYPE
  5
16
100
AcDbSymbolTableRecord
100
AcDbLinetypeTableRecord
  2
CONTINUOUS
 70
64
  3
Solid line
 72
65
 73
0
 40
0.0
  0
LTYPE
  5
1F5
100
AcDbSymbolTableRecord
100
AcDbLinetypeTableRecord
  2
CENTER
 70
64
  3
____ _ ____ _ ____ _ ____ _ ____ _ ____ _ ____
 72
65
 73
4
 40
0.6
 49
0.375
 74
0
 49
-0.075
 74
0
 49
0.075
 74
0
 49
-0.075
 74
0
  0
LTYPE
  5
1F6
100
AcDbSymbolTableRecord
100
AcDbLinetypeTableRecord
  2
HIDDEN
 70
64
  3
- - - - - - - - - - - - - - - - - - - -
 72
65
 73
2
 40
0.2
 49
0.1
 74
0
 49
-0.1
 74
0
  0
LTYPE
  5
1F7
100
AcDbSymbolTableRecord
100
AcDbLinetypeTableRecord
  2
PHANTOM
 70
64
  3
_____ _ _ _____ _ _ _____ _ _ _____
 72
65
 73
6
 40
0.8
 49
0.45
 74
0
 49
-0.05
 74
0
 49
0.1
 74
0
 49
-0.05
 74
0
 49
0.1
 74
0
 49
-0.05
 74
0
  0
LTYPE
  5
1F8
100
AcDbSymbolTableRecord
100
AcDbLinetypeTableRecord
  2
DOT
 70
64
  3
. . . . . . . . . . . . . . . . . . . .
 72
65
 73
2
 40
0.2
 49
0.1
 74
0
 49
-0.1
 74
0
  0
LTYPE
  5
1F9
100
AcDbSymbolTableRecord
100
AcDbLinetypeTableRecord
  2
DASHED
 70
64
  3
- - - - - - - - - - - - - - - - - - - -
 72
65
 73
2
 40
0.2
 49
0.1
 74
0
 49
-0.1
 74
0
  0
ENDTAB
  0
TABLE
  2
LAYER
  5
2
100
AcDbSymbolTable
 70
36
  0
LAYER
  5
10
100
AcDbSymbolTableRecord
100
AcDbLayerTableRecord
  2
0
 70
0
 62
7
  6
CONTINUOUS
370
-3
390
F
  0
LAYER
  5
1FA
100
AcDbSymbolTableRecord
100
AcDbLayerTableRecord
  2
DEFAULT_1
 70
0
 62
7
  6
CENTER
370
-3
390
F
  0
LAYER
  5
1FB
100
AcDbSymbolTableRecord
100
AcDbLayerTableRecord
  2
DEFAULT_2
 70
0
 62
8
  6
HIDDEN
370
-3
390
F
  0
LAYER
  5
1FC
100
AcDbSymbolTableRecord
100
AcDbLayerTableRecord
  2
DEFAULT_3
 70
0
 62
7
  6
PHANTOM
370
-3
390
F
  0
LAYER
  5
1FD
100
AcDbSymbolTableRecord
100
AcDbLayerTableRecord
  2
1_CURVES
 70
0
 62
7
  6
CONTINUOUS
370
-3
390
F
  0
LAYER
  5
1FE
100
AcDbSymbolTableRecord
100
AcDbLayerTableRecord
  2
1_CURVES-DEGAGEMENT-COIL
 70
0
 62
7
  6
CONTINUOUS
370
-3
390
F
  0
LAYER
  5
1FF
100
AcDbSymbolTableRecord
100
AcDbLayerTableRecord
  2
1_CURVES-JETS
 70
0
 62
7
  6
CONTINUOUS
370
-3
390
F
  0
LAYER
  5
200
100
AcDbSymbolTableRecord
100
AcDbLayerTableRecord
  2
1_CURVES-TRAJECTOIRE-COIL
 70
0
 62
7
  6
CONTINUOUS
370
-3
390
F
  0
LAYER
  5
201
100
AcDbSymbolTableRecord
100
AcDbLayerTableRecord
  2
1_CURVES_CONTROLES
 70
0
 62
7
  6
CONTINUOUS
370
-3
390
F
  0
LAYER
  5
202
100
AcDbSymbolTableRecord
100
AcDbLayerTableRecord
  2
1_CURVES_IMPORT
 70
0
 62
7
  6
CONTINUOUS
370
-3
390
F
  0
LAYER
  5
203
100
AcDbSymbolTableRecord
100
AcDbLayerTableRecord
  2
1_CURVES_JETS
 70
0
 62
7
  6
CONTINUOUS
370
-3
390
F
  0
LAYER
  5
204
100
AcDbSymbolTableRecord
100
AcDbLayerTableRecord
  2
2_PLANES
 70
0
 62
7
  6
CONTINUOUS
370
-3
390
F
  0
LAYER
  5
205
100
AcDbSymbolTableRecord
100
AcDbLayerTableRecord
  2
2_PLANES-JETS
 70
0
 62
7
  6
CONTINUOUS
370
-3
390
F
  0
LAYER
  5
206
100
AcDbSymbolTableRecord
100
AcDbLayerTableRecord
  2
3_POINTS
 70
0
 62
7
  6
CONTINUOUS
370
-3
390
F
  0
LAYER
  5
207
100
AcDbSymbolTableRecord
100
AcDbLayerTableRecord
  2
3_POINTS-JETS
 70
0
 62
7
  6
CONTINUOUS
370
-3
390
F
  0
LAYER
  5
208
100
AcDbSymbolTableRecord
100
AcDbLayerTableRecord
  2
4_CSYS
 70
0
 62
7
  6
CONTINUOUS
370
-3
390
F
  0
LAYER
  5
209
100
AcDbSymbolTableRecord
100
AcDbLayerTableRecord
  2
5_AXIS
 70
0
 62
7
  6
CONTINUOUS
370
-3
390
F
  0
LAYER
  5
20A
100
AcDbSymbolTableRecord
100
AcDbLayerTableRecord
  2
6_SURFACES
 70
0
 62
7
  6
CONTINUOUS
370
-3
390
F
  0
LAYER
  5
20B
100
AcDbSymbolTableRecord
100
AcDbLayerTableRecord
  2
6_SURFACES-OFFSET-FIBRE-ACRYLIQ
 70
0
 62
7
  6
CONTINUOUS
370
-3
390
F
  0
LAYER
  5
20C
100
AcDbSymbolTableRecord
100
AcDbLayerTableRecord
  2
6_SURFACES-POUR-CADRES
 70
0
 62
7
  6
CONTINUOUS
370
-3
390
F
  0
LAYER
  5
20D
100
AcDbSymbolTableRecord
100
AcDbLayerTableRecord
  2
6_SURFACES-TOOLING
 70
0
 62
7
  6
CONTINUOUS
370
-3
390
F
  0
LAYER
  5
20E
100
AcDbSymbolTableRecord
100
AcDbLayerTableRecord
  2
6_SURFACES_AIRE
 70
0
 62
7
  6
CONTINUOUS
370
-3
390
F
  0
LAYER
  5
20F
100
AcDbSymbolTableRecord
100
AcDbLayerTableRecord
  2
6_SURFACES_OFFSET_CONDUIT
 70
0
 62
7
  6
CONTINUOUS
370
-3
390
F
  0
LAYER
  5
210
100
AcDbSymbolTableRecord
100
AcDbLayerTableRecord
  2
6_SURFACES_OFFSET_CONDUIT-PREPA
 70
0
 62
7
  6
CONTINUOUS
370
-3
390
F
  0
LAYER
  5
211
100
AcDbSymbolTableRecord
100
AcDbLayerTableRecord
  2
6_SURFACES_OFFSET_FIBRE
 70
0
 62
7
  6
CONTINUOUS
370
-3
390
F
  0
LAYER
  5
212
100
AcDbSymbolTableRecord
100
AcDbLayerTableRecord
  2
6_SURFACES_TOOLING
 70
0
 62
7
  6
CONTINUOUS
370
-3
390
F
  0
LAYER
  5
213
100
AcDbSymbolTableRecord
100
AcDbLayerTableRecord
  2
7_NOTES
 70
0
 62
7
  6
CONTINUOUS
370
-3
390
F
  0
LAYER
  5
214
100
AcDbSymbolTableRecord
100
AcDbLayerTableRecord
  2
8_ZONE-ROBINETERIE
 70
0
 62
7
  6
CONTINUOUS
370
-3
390
F
  0
LAYER
  5
215
100
AcDbSymbolTableRecord
100
AcDbLayerTableRecord
  2
XSEC_DATUMS
 70
0
 62
7
  6
CONTINUOUS
370
-3
390
F
  0
ENDTAB
  0
TABLE
  2
STYLE
  5
3
100
AcDbSymbolTable
 70
1
  0
STYLE
  5
11
100
AcDbSymbolTableRecord
100
AcDbTextStyleTableRecord
  2
STANDARD
 70
0
 40
0.0
 41
0.8
 50
0.0
 71
0
 42
0.2
  3
txt
  4

  0
STYLE
  5
216
100
AcDbSymbolTableRecord
100
AcDbTextStyleTableRecord
  2
TEXTSTYLE_1
 70
0
 40
0.0
 41
0.8
 50
0.0
 71
0
 42
0.2
  3
gdt
  4

  0
ENDTAB
  0
TABLE
  2
VIEW
  5
6
100
AcDbSymbolTable
 70
0
  0
ENDTAB
  0
TABLE
  2
UCS
  5
7
100
AcDbSymbolTable
 70
0
  0
ENDTAB
  0
TABLE
  2
APPID
  5
9
100
AcDbSymbolTable
 70
1
  0
APPID
  5
217
100
AcDbSymbolTableRecord
100
AcDbRegAppTableRecord
  2
ACAD
 70
0
  0
ENDTAB
  0
TABLE
  2
BLOCK_RECORD
  5
1
100
AcDbSymbolTable
 70
0
  0
BLOCK_RECORD
  5
218
100
AcDbSymbolTableRecord
100
AcDbBlockTableRecord
  2
*Model_Space
  0
BLOCK_RECORD
  5
219
100
AcDbSymbolTableRecord
100
AcDbBlockTableRecord
  2
*Paper_Space
  0
ENDTAB
  0
TABLE
  2
DIMSTYLE
  5
A
100
AcDbSymbolTable
 70
1
100
AcDbDimStyleTable
 71
0
  0
DIMSTYLE
105
21A
100
AcDbSymbolTableRecord
100
AcDbDimStyleTableRecord
  2
STANDARD
 70
0
  3

  4

 40
1.0
 41
0.1875
 42
0.0625
 43
0.38
 44
0.18
 45
0.0
 46
0.0
 47
0.00001
 48
0.00001
140
0.125
141
0.09
142
0.0
143
25.4
144
1.0
145
0.0
146
1.0
147
0.09
 71
0.0
 72
0.0
 73
1
 74
1
 75
0
 76
0
 77
0
 78
4
170
0
171
2
172
0
173
0
174
0
175
0
176
0
177
0
178
0
270
2
271
5
272
5
273
2
274
2
275
0
280
0
281
0
282
0
283
1
284
4
285
0
286
0
287
3
288
0
340
11
  0
ENDTAB
  0
ENDSEC
  0
SECTION
  2
BLOCKS
  0
BLOCK
  5
20
100
AcDbEntity
  8
0
100
AcDbBlockBegin
  2
*Model_Space
 70
0
 10
0.0
 20
0.0
 30
0.0
  3
*Model_Space
  1

  0
ENDBLK
  5
21
100
AcDbEntity
  8
0
100
AcDbBlockEnd
  0
BLOCK
  5
1C
100
AcDbEntity
  8
0
100
AcDbBlockBegin
  2
*Paper_Space
 70
0
 10
0.0
 20
0.0
 30
0.0
  3
*Paper_Space
  1

  0
ENDBLK
  5
1D
100
AcDbEntity
  8
0
100
AcDbBlockEnd
  0
ENDSEC
  0
SECTION
  2
ENTITIES
  0
LINE
  5
21B
100
AcDbEntity
  8
0
100
AcDbLine
 62
7
  6
CONTINUOUS
 10
139.1992044636
 20
16.9405080735
 11
139.2188609347
 21
16.945943115
  0
LINE
  5
21C
100
AcDbEntity
  8
0
100
AcDbLine
 62
7
  6
CONTINUOUS
 10
139.2375744731
 20
32.0221559155
 11
139.2852373126
 21
32.0353311899
  0
LINE
  5
21D
100
AcDbEntity
  8
0
100
AcDbLine
 62
7
  6
CONTINUOUS
 10
139.2849998354
 20
32.0178633183
 11
139.2373940725
 21
32.0047132069
  0
LINE
  5
21E
100
AcDbEntity
  8
0
100
AcDbLine
 62
7
  6
CONTINUOUS
 10
146.9967794636
 20
17.7930014242
 11
147.0743222011
 21
17.8139880866
  0
LINE
  5
21F
100
AcDbEntity
  8
0
100
AcDbLine
 62
7
  6
CONTINUOUS
 10
140.9026268167
 20
17.5469371928
 11
140.9053547489
 21
17.5476753674
  0
LINE
  5
220
100
AcDbEntity
  8
0
100
AcDbLine
 62
7
  6
CONTINUOUS
 10
139.1788685575
 20
16.9353953761
 11
139.1992044636
 21
16.9405080735
  0
LINE
  5
221
100
AcDbEntity
  8
0
100
AcDbLine
 62
7
  6
CONTINUOUS
 10
134.3990790448
 20
17.4544983905
 11
134.4247294283
 21
17.4609146515
  0
LINE
  5
222
100
AcDbEntity
  8
0
100
AcDbLine
 62
7
  6
CONTINUOUS
 10
140.9053547489
 20
17.5476753674
 11
140.9077771215
 21
17.5482731708
  0
LINE
  5
223
100
AcDbEntity
  8
0
100
AcDbLine
 62
7
  6
CONTINUOUS
 10
146.9184399299
 20
17.7746202738
 11
146.9967794636
 21
17.7930014242
  0
LINE
  5
224
100
AcDbEntity
  8
0
100
AcDbLine
 62
7
  6
CONTINUOUS
 10
140.9077771215
 20
17.5482731708
 11
140.9099033426
 21
17.5487532313
  0
LINE
  5
225
100
AcDbEntity
  8
0
100
AcDbLine
 62
7
  6
CONTINUOUS
 10
146.4448050497
 20
17.6213828389
 11
146.4358049574
 21
17.6193538709
  0
LINE
  5
226
100
AcDbEntity
  8
0
100
AcDbLine
 62
7
  6
CONTINUOUS
 10
139.1529976332
 20
16.9296266293
 11
139.1788685575
 21
16.9353953761
  0
LINE
  5
227
100
AcDbEntity
  8
0
100
AcDbLine
 62
7
  6
CONTINUOUS
 10
146.446326019
 20
17.5901715984
 11
146.4365130154
 21
17.5879994254
  0
LINE
  5
228
100
AcDbEntity
  8
0
100
AcDbLine
 62
7
  6
CONTINUOUS
 10
140.9099033426
 20
17.5487532313
 11
140.9117588763
 21
17.5491378736
  0
LINE
  5
229
100
AcDbEntity
  8
0
100
AcDbLine
 62
9
  6
CONTINUOUS
 10
131.8070598551
 20
17.6618665519
 11
131.798605844
 21
17.6601296817
  0
LINE
  5
22A
100
AcDbEntity
  8
0
100
AcDbLine
 62
7
  6
CONTINUOUS
 10
146.83933222
 20
17.7588685643
 11
146.9184399299
 21
17.7746202738
  0
LINE
  5
22B
100
AcDbEntity
  8
0
100
AcDbLine
 62
7
  6
CONTINUOUS
 10
134.4247294283
 20
17.4609146515
 11
134.4484412217
 21
17.4654897484
  0
LINE
  5
22C
100
AcDbEntity
  8
0
100
AcDbLine
 62
7
  6
CONTINUOUS
 10
139.1281538351
 20
16.9248477646
 11
139.1529976332
 21
16.9296266293
  0
LINE
  5
22D
100
AcDbEntity
  8
0
100
AcDbLine
 62
7
  6
CONTINUOUS
 10
140.9117588763
 20
17.5491378736
 11
140.9121371019
 21
17.5492101175
  0
LINE
  5
22E
100
AcDbEntity
  8
0
100
AcDbLine
 62
7
  6
CONTINUOUS
 10
139.1108941653
 20
16.9219596746
 11
139.1281538351
 21
16.9248477646
  0
LINE
  5
22F
100
AcDbEntity
  8
0
100
AcDbLine
 62
7
  6
CONTINUOUS
 10
146.7594565271
 20
17.7457711228
 11
146.83933222
 21
17.7588685643
  0
LINE
  5
230
100
AcDbEntity
  8
0
100
AcDbLine
 62
7
  6
CONTINUOUS
 10
139.0967755877
 20
16.9198573916
 11
139.1108941653
 21
16.9219596746
  0
LINE
  5
231
100
AcDbEntity
  8
0
100
AcDbLine
 62
7
  6
CONTINUOUS
 10
138.6040355328
 20
34.2709971963
 11
138.6513909573
 21
34.2838798027
  0
LINE
  5
232
100
AcDbEntity
  8
0
100
AcDbLine
 62
7
  6
CONTINUOUS
 10
139.0836467268
 20
16.9181107744
 11
139.0967755877
 21
16.9198573916
  0
LINE
  5
233
100
AcDbEntity
  8
0
100
AcDbLine
 62
7
  6
CONTINUOUS
 10
146.6788882785
 20
17.7353702376
 11
146.7594565271
 21
17.7457711228
  0
LINE
  5
234
100
AcDbEntity
  8
0
100
AcDbLine
 62
9
  6
CONTINUOUS
 10
131.8216188462
 20
17.6638634803
 11
131.8070598551
 21
17.6618665519
  0
LINE
  5
235
100
AcDbEntity
  8
0
100
AcDbLine
 62
7
  6
CONTINUOUS
 10
139.1893623471
 20
32.010955173
 11
139.2375744731
 21
32.0221559155
  0
LINE
  5
236
100
AcDbEntity
  8
0
100
AcDbLine
 62
7
  6
CONTINUOUS
 10
139.2373940725
 20
32.0047132069
 11
139.1892326762
 21
31.9935310838
  0
LINE
  5
237
100
AcDbEntity
  8
0
100
AcDbLine
 62
7
  6
CONTINUOUS
 10
139.0710092896
 20
16.916617696
 11
139.0836467268
 21
16.9181107744
  0
LINE
  5
238
100
AcDbEntity
  8
0
100
AcDbLine
 62
7
  6
CONTINUOUS
 10
146.4358049574
 20
17.6193538709
 11
146.4146595138
 21
17.6168846114
  0
LINE
  5
239
100
AcDbEntity
  8
0
100
AcDbLine
 62
7
  6
CONTINUOUS
 10
146.4365130154
 20
17.5879994254
 11
146.4114849921
 21
17.5852489243
  0
LINE
  5
23A
100
AcDbEntity
  8
0
100
AcDbLine
 62
7
  6
CONTINUOUS
 10
139.0572691357
 20
16.9152021797
 11
139.0710092896
 21
16.916617696
  0
LINE
  5
23B
100
AcDbEntity
  8
0
100
AcDbLine
 62
7
  6
CONTINUOUS
 10
138.6513909573
 20
34.2838798027
 11
138.6992122903
 21
34.2948101636
  0
LINE
  5
23C
100
AcDbEntity
  8
0
100
AcDbLine
 62
9
  6
CONTINUOUS
 10
131.8424118669
 20
17.6660934002
 11
131.8216188462
 21
17.6638634803
  0
LINE
  5
23D
100
AcDbEntity
  8
0
100
AcDbLine
 62
7
  6
CONTINUOUS
 10
134.6380446706
 20
17.4681893439
 11
134.6452275311
 21
17.4689243553
  0
LINE
  5
23E
100
AcDbEntity
  8
0
100
AcDbLine
 62
7
  6
CONTINUOUS
 10
146.597670961
 20
17.7277044722
 11
146.6788882785
 21
17.7353702376
  0
LINE
  5
23F
100
AcDbEntity
  8
0
100
AcDbLine
 62
7
  6
CONTINUOUS
 10
124.3097938675
 20
36.6533800552
 11
124.331971468
 21
36.6593677851
  0
LINE
  5
240
100
AcDbEntity
  8
0
100
AcDbLine
 62
9
  6
CONTINUOUS
 10
131.8611788642
 20
17.6680142101
 11
131.8424118669
 21
17.6660934002
  0
LINE
  5
241
100
AcDbEntity
  8
0
100
AcDbLine
 62
7
  6
CONTINUOUS
 10
134.6383867077
 20
17.4994032557
 11
134.6460943411
 21
17.5001616093
  0
LINE
  5
242
100
AcDbEntity
  8
0
100
AcDbLine
 62
7
  6
CONTINUOUS
 10
139.0435442068
 20
16.9140025093
 11
139.0572691357
 21
16.9152021797
  0
LINE
  5
243
100
AcDbEntity
  8
0
100
AcDbLine
 62
9
  6
CONTINUOUS
 10
131.884319021
 20
17.6702109154
 11
131.8611788642
 21
17.6680142101
  0
LINE
  5
244
100
AcDbEntity
  8
0
100
AcDbLine
 62
7
  6
CONTINUOUS
 10
146.4146595138
 20
17.6168846114
 11
146.3782148198
 21
17.613956704
  0
LINE
  5
245
100
AcDbEntity
  8
0
100
AcDbLine
 62
7
  6
CONTINUOUS
 10
139.1892326762
 20
31.9935310838
 11
139.1405840101
 21
31.9843397965
  0
LINE
  5
246
100
AcDbEntity
  8
0
100
AcDbLine
 62
7
  6
CONTINUOUS
 10
139.1406701721
 20
32.0017509721
 11
139.1893623471
 21
32.010955173
  0
LINE
  5
247
100
AcDbEntity
  8
0
100
AcDbLine
 62
9
  6
CONTINUOUS
 10
131.9122644795
 20
17.6726387638
 11
131.884319021
 21
17.6702109154
  0
LINE
  5
248
100
AcDbEntity
  8
0
100
AcDbLine
 62
7
  6
CONTINUOUS
 10
146.4114849921
 20
17.5852489243
 11
146.3675753281
 21
17.5819010189
  0
LINE
  5
249
100
AcDbEntity
  8
0
100
AcDbLine
 62
9
  6
CONTINUOUS
 10
131.9455861834
 20
17.6753488205
 11
131.9122644795
 21
17.6726387638
  0
LINE
  5
24A
100
AcDbEntity
  8
0
100
AcDbLine
 62
7
  6
CONTINUOUS
 10
139.0303437345
 20
16.9130483701
 11
139.0435442068
 21
16.9140025093
  0
LINE
  5
24B
100
AcDbEntity
  8
0
100
AcDbLine
 62
9
  6
CONTINUOUS
 10
132.0307769114
 20
17.6816988336
 11
131.9455861834
 21
17.6753488205
  0
LINE
  5
24C
100
AcDbEntity
  8
0
100
AcDbLine
 62
9
  6
CONTINUOUS
 10
132.0840206694
 20
17.6854063794
 11
132.0307769114
 21
17.6816988336
  0
LINE
  5
24D
100
AcDbEntity
  8
0
100
AcDbLine
 62
7
  6
CONTINUOUS
 10
146.3782148198
 20
17.613956704
 11
146.3274252719
 21
17.6106513256
  0
LINE
  5
24E
100
AcDbEntity
  8
0
100
AcDbLine
 62
7
  6
CONTINUOUS
 10
146.3675753281
 20
17.5819010189
 11
146.305390379
 21
17.5780532662
  0
LINE
  5
24F
100
AcDbEntity
  8
0
100
AcDbLine
 62
9
  6
CONTINUOUS
 10
132.1373424684
 20
17.6889072918
 11
132.0840206694
 21
17.6854063794
  0
LINE
  5
250
100
AcDbEntity
  8
0
100
AcDbLine
 62
7
  6
CONTINUOUS
 10
146.5255830899
 20
17.7232490489
 11
146.597670961
 21
17.7277044722
  0
LINE
  5
251
100
AcDbEntity
  8
0
100
AcDbLine
 62
7
  6
CONTINUOUS
 10
139.0178386872
 20
16.9123218382
 11
139.0303437345
 21
16.9130483701
  0
LINE
  5
252
100
AcDbEntity
  8
0
100
AcDbLine
 62
7
  6
CONTINUOUS
 10
138.6992122903
 20
34.2948101636
 11
138.7474493067
 21
34.3037790803
  0
LINE
  5
253
100
AcDbEntity
  8
0
100
AcDbLine
 62
7
  6
CONTINUOUS
 10
146.3274252719
 20
17.6106513256
 11
146.2637214285
 21
17.6070393922
  0
LINE
  5
254
100
AcDbEntity
  8
0
100
AcDbLine
 62
7
  6
CONTINUOUS
 10
146.305390379
 20
17.5780532662
 11
146.2265433067
 21
17.5738015891
  0
LINE
  5
255
100
AcDbEntity
  8
0
100
AcDbLine
 62
7
  6
CONTINUOUS
 10
146.2637214285
 20
17.6070393922
 11
146.1872741678
 21
17.6031247056
  0
LINE
  5
256
100
AcDbEntity
  8
0
100
AcDbLine
 62
7
  6
CONTINUOUS
 10
146.2265433067
 20
17.5738015891
 11
146.1247015606
 21
17.5688559717
  0
LINE
  5
257
100
AcDbEntity
  8
0
100
AcDbLine
 62
7
  6
CONTINUOUS
 10
137.2675117899
 20
17.5501914022
 11
137.3813150468
 21
17.5560159405
  0
LINE
  5
258
100
AcDbEntity
  8
0
100
AcDbLine
 62
7
  6
CONTINUOUS
 10
146.1872741678
 20
17.6031247056
 11
146.0987784908
 21
17.5989309778
  0
LINE
  5
259
100
AcDbEntity
  8
0
100
AcDbLine
 62
7
  6
CONTINUOUS
 10
146.3161829607
 20
17.7136348258
 11
146.5255673488
 21
17.7232482015
  0
LINE
  5
25A
100
AcDbEntity
  8
0
100
AcDbLine
 62
7
  6
CONTINUOUS
 10
139.0063971967
 20
16.9118034407
 11
139.0178386872
 21
16.9123218382
  0
LINE
  5
25B
100
AcDbEntity
  8
0
100
AcDbLine
 62
7
  6
CONTINUOUS
 10
146.2281072713
 20
17.7096706356
 11
146.3161829607
 21
17.7136348258
  0
LINE
  5
25C
100
AcDbEntity
  8
0
100
AcDbLine
 62
7
  6
CONTINUOUS
 10
146.1247015606
 20
17.5688559717
 11
145.9632600124
 21
17.5616754704
  0
LINE
  5
25D
100
AcDbEntity
  8
0
100
AcDbLine
 62
7
  6
CONTINUOUS
 10
137.2312648654
 20
17.5485212645
 11
137.2675117899
 21
17.5501914022
  0
LINE
  5
25E
100
AcDbEntity
  8
0
100
AcDbLine
 62
7
  6
CONTINUOUS
 10
146.1407515527
 20
17.7057851145
 11
146.2281072713
 21
17.7096706356
  0
LINE
  5
25F
100
AcDbEntity
  8
0
100
AcDbLine
 62
7
  6
CONTINUOUS
 10
146.0987784908
 20
17.5989309778
 11
145.9617970335
 21
17.5928915097
  0
LINE
  5
260
100
AcDbEntity
  8
0
100
AcDbLine
 62
7
  6
CONTINUOUS
 10
146.0541163217
 20
17.701976942
 11
146.1407515527
 21
17.7057851145
  0
LINE
  5
261
100
AcDbEntity
  8
0
100
AcDbLine
 62
7
  6
CONTINUOUS
 10
145.9682023692
 20
17.6982448211
 11
146.0541163217
 21
17.701976942
  0
LINE
  5
262
100
AcDbEntity
  8
0
100
AcDbLine
 62
7
  6
CONTINUOUS
 10
145.9042406201
 20
17.6954948605
 11
145.9682023692
 21
17.6982448211
  0
LINE
  5
263
100
AcDbEntity
  8
0
100
AcDbLine
 62
7
  6
CONTINUOUS
 10
137.3813150468
 20
17.5560159405
 11
137.5086994369
 21
17.5614580897
  0
LINE
  5
264
100
AcDbEntity
  8
0
100
AcDbLine
 62
7
  6
CONTINUOUS
 10
145.8195900797
 20
17.6918927115
 11
145.9042406201
 21
17.6954948605
  0
LINE
  5
265
100
AcDbEntity
  8
0
100
AcDbLine
 62
7
  6
CONTINUOUS
 10
145.7565760482
 20
17.689238742
 11
145.8195900797
 21
17.6918927115
  0
LINE
  5
266
100
AcDbEntity
  8
0
100
AcDbLine
 62
7
  6
CONTINUOUS
 10
145.6731890845
 20
17.6857626084
 11
145.7565760482
 21
17.689238742
  0
LINE
  5
267
100
AcDbEntity
  8
0
100
AcDbLine
 62
7
  6
CONTINUOUS
 10
145.9632600124
 20
17.5616754704
 11
145.7493107443
 21
17.5528212758
  0
LINE
  5
268
100
AcDbEntity
  8
0
100
AcDbLine
 62
7
  6
CONTINUOUS
 10
145.9617970335
 20
17.5928915097
 11
145.7687561262
 21
17.58487797
  0
LINE
  5
269
100
AcDbEntity
  8
0
100
AcDbLine
 62
7
  6
CONTINUOUS
 10
145.6111225246
 20
17.6832016793
 11
145.6731890845
 21
17.6857626084
  0
LINE
  5
26A
100
AcDbEntity
  8
0
100
AcDbLine
 62
7
  6
CONTINUOUS
 10
145.5494617688
 20
17.6806797305
 11
145.6111225246
 21
17.6832016793
  0
LINE
  5
26B
100
AcDbEntity
  8
0
100
AcDbLine
 62
7
  6
CONTINUOUS
 10
145.4882065783
 20
17.6781962302
 11
145.5494617688
 21
17.6806797305
  0
LINE
  5
26C
100
AcDbEntity
  8
0
100
AcDbLine
 62
7
  6
CONTINUOUS
 10
137.5086994369
 20
17.5614580897
 11
137.6803685472
 21
17.568403338
  0
LINE
  5
26D
100
AcDbEntity
  8
0
100
AcDbLine
 62
7
  6
CONTINUOUS
 10
145.4273570945
 20
17.6757506673
 11
145.4882065783
 21
17.6781962302
  0
LINE
  5
26E
100
AcDbEntity
  8
0
100
AcDbLine
 62
7
  6
CONTINUOUS
 10
145.366916596
 20
17.6733426605
 11
145.4273570945
 21
17.6757506673
  0
LINE
  5
26F
100
AcDbEntity
  8
0
100
AcDbLine
 62
7
  6
CONTINUOUS
 10
145.3068861458
 20
17.6709717421
 11
145.366916596
 21
17.6733426605
  0
LINE
  5
270
100
AcDbEntity
  8
0
100
AcDbLine
 62
7
  6
CONTINUOUS
 10
145.7687561262
 20
17.58487797
 11
145.5058278838
 21
17.5745519288
  0
LINE
  5
271
100
AcDbEntity
  8
0
100
AcDbLine
 62
7
  6
CONTINUOUS
 10
145.2472656707
 20
17.6686374045
 11
145.3068861458
 21
17.6709717421
  0
LINE
  5
272
100
AcDbEntity
  8
0
100
AcDbLine
 62
7
  6
CONTINUOUS
 10
145.7493107443
 20
17.5528212758
 11
145.43566736
 21
17.5405937189
  0
LINE
  5
273
100
AcDbEntity
  8
0
100
AcDbLine
 62
7
  6
CONTINUOUS
 10
145.188055168
 20
17.6663391484
 11
145.2472656707
 21
17.6686374045
  0
LINE
  5
274
100
AcDbEntity
  8
0
100
AcDbLine
 62
7
  6
CONTINUOUS
 10
145.1292546392
 20
17.6640764806
 11
145.188055168
 21
17.6663391484
  0
LINE
  5
275
100
AcDbEntity
  8
0
100
AcDbLine
 62
7
  6
CONTINUOUS
 10
145.090282052
 20
17.6625875655
 11
145.1292546392
 21
17.6640764806
  0
LINE
  5
276
100
AcDbEntity
  8
0
100
AcDbLine
 62
7
  6
CONTINUOUS
 10
145.0321648188
 20
17.6603831305
 11
145.090282052
 21
17.6625875655
  0
LINE
  5
277
100
AcDbEntity
  8
0
100
AcDbLine
 62
7
  6
CONTINUOUS
 10
137.6803685472
 20
17.568403338
 11
137.8101455132
 21
17.5733168406
  0
LINE
  5
278
100
AcDbEntity
  8
0
100
AcDbLine
 62
7
  6
CONTINUOUS
 10
145.5058278838
 20
17.5745519288
 11
145.2190951672
 21
17.5637025663
  0
LINE
  5
279
100
AcDbEntity
  8
0
100
AcDbLine
 62
7
  6
CONTINUOUS
 10
145.43566736
 20
17.5405937189
 11
145.0951713064
 21
17.5278224202
  0
LINE
  5
27A
100
AcDbEntity
  8
0
100
AcDbLine
 62
7
  6
CONTINUOUS
 10
144.9936477582
 20
17.6589325922
 11
145.0321648188
 21
17.6603831305
  0
LINE
  5
27B
100
AcDbEntity
  8
0
100
AcDbLine
 62
7
  6
CONTINUOUS
 10
144.9362137958
 20
17.6567850611
 11
144.9936477582
 21
17.6589325922
  0
LINE
  5
27C
100
AcDbEntity
  8
0
100
AcDbLine
 62
7
  6
CONTINUOUS
 10
144.8791897592
 20
17.6546710448
 11
144.9362137958
 21
17.6567850611
  0
LINE
  5
27D
100
AcDbEntity
  8
0
100
AcDbLine
 62
7
  6
CONTINUOUS
 10
145.2190951672
 20
17.5637025663
 11
144.7451232044
 21
17.5462515093
  0
LINE
  5
27E
100
AcDbEntity
  8
0
100
AcDbLine
 62
7
  6
CONTINUOUS
 10
144.8414014455
 20
17.6532800902
 11
144.8791897592
 21
17.6546710448
  0
LINE
  5
27F
100
AcDbEntity
  8
0
100
AcDbLine
 62
7
  6
CONTINUOUS
 10
145.0951713064
 20
17.5278224202
 11
144.5564815818
 21
17.5081473857
  0
LINE
  5
280
100
AcDbEntity
  8
0
100
AcDbLine
 62
7
  6
CONTINUOUS
 10
144.7850604864
 20
17.6512209019
 11
144.8414014455
 21
17.6532800902
  0
LINE
  5
281
100
AcDbEntity
  8
0
100
AcDbLine
 62
7
  6
CONTINUOUS
 10
144.7451232044
 20
17.5462515093
 11
144.2386902409
 21
17.5280769514
  0
LINE
  5
282
100
AcDbEntity
  8
0
100
AcDbLine
 62
7
  6
CONTINUOUS
 10
144.5564815818
 20
17.5081473857
 11
144.2113274308
 21
17.4958452516
  0
LINE
  5
283
100
AcDbEntity
  8
0
100
AcDbLine
 62
7
  6
CONTINUOUS
 10
138.9955441147
 20
16.9114331105
 11
139.0063971967
 21
16.9118034407
  0
LINE
  5
284
100
AcDbEntity
  8
0
100
AcDbLine
 62
7
  6
CONTINUOUS
 10
124.2883213193
 20
36.6461557381
 11
124.3097938675
 21
36.6533800552
  0
LINE
  5
285
100
AcDbEntity
  8
0
100
AcDbLine
 62
7
  6
CONTINUOUS
 10
124.331971468
 20
36.6593677851
 11
124.3547831399
 21
36.6640398578
  0
LINE
  5
286
100
AcDbEntity
  8
0
100
AcDbLine
 62
7
  6
CONTINUOUS
 10
139.1405840101
 20
31.9843397965
 11
139.091519115
 21
31.9771614373
  0
LINE
  5
287
100
AcDbEntity
  8
0
100
AcDbLine
 62
7
  6
CONTINUOUS
 10
139.091569945
 20
31.9945644942
 11
139.1406701721
 21
32.0017509721
  0
LINE
  5
288
100
AcDbEntity
  8
0
100
AcDbLine
 62
7
  6
CONTINUOUS
 10
144.7477274801
 20
17.649866075
 11
144.7850604864
 21
17.6512209019
  0
LINE
  5
289
100
AcDbEntity
  8
0
100
AcDbLine
 62
7
  6
CONTINUOUS
 10
144.7105765387
 20
17.6485254637
 11
144.7477274801
 21
17.649866075
  0
LINE
  5
28A
100
AcDbEntity
  8
0
100
AcDbLine
 62
7
  6
CONTINUOUS
 10
144.6551914024
 20
17.6465409107
 11
144.7105765387
 21
17.6485254637
  0
LINE
  5
28B
100
AcDbEntity
  8
0
100
AcDbLine
 62
7
  6
CONTINUOUS
 10
144.6184954194
 20
17.6452352588
 11
144.6551914024
 21
17.6465409107
  0
LINE
  5
28C
100
AcDbEntity
  8
0
100
AcDbLine
 62
7
  6
CONTINUOUS
 10
137.8101455132
 20
17.5733168406
 11
137.9460393044
 21
17.5780432366
  0
LINE
  5
28D
100
AcDbEntity
  8
0
100
AcDbLine
 62
7
  6
CONTINUOUS
 10
144.2386902409
 20
17.5280769514
 11
143.937649306
 21
17.5176674678
  0
LINE
  5
28E
100
AcDbEntity
  8
0
100
AcDbLine
 62
7
  6
CONTINUOUS
 10
144.2113274308
 20
17.4958452516
 11
143.9071993468
 21
17.4853756439
  0
LINE
  5
28F
100
AcDbEntity
  8
0
100
AcDbLine
 62
7
  6
CONTINUOUS
 10
143.7738405051
 20
17.6171702915
 11
144.6184954194
 21
17.6452352588
  0
LINE
  5
290
100
AcDbEntity
  8
0
100
AcDbLine
 62
7
  6
CONTINUOUS
 10
143.937649306
 20
17.5176674678
 11
143.6830896736
 21
17.5093578405
  0
LINE
  5
291
100
AcDbEntity
  8
0
100
AcDbLine
 62
7
  6
CONTINUOUS
 10
143.9071993468
 20
17.4853756439
 11
143.6609511407
 21
17.4774008933
  0
LINE
  5
292
100
AcDbEntity
  8
0
100
AcDbLine
 62
7
  6
CONTINUOUS
 10
137.7648330834
 20
32.9983490623
 11
137.7596541613
 21
33.0472425151
  0
LINE
  5
293
100
AcDbEntity
  8
0
100
AcDbLine
 62
7
  6
CONTINUOUS
 10
137.7596486307
 20
33.064707976
 11
137.7648236197
 21
33.0158234943
  0
LINE
  5
294
100
AcDbEntity
  8
0
100
AcDbLine
 62
7
  6
CONTINUOUS
 10
140.1214539957
 20
33.2903633139
 11
140.1264848582
 21
33.2421374632
  0
LINE
  5
295
100
AcDbEntity
  8
0
100
AcDbLine
 62
7
  6
CONTINUOUS
 10
153.8411099667
 20
36.3258836904
 11
153.9430028785
 21
35.1612423796
  0
LINE
  5
296
100
AcDbEntity
  8
0
100
AcDbLine
 62
7
  6
CONTINUOUS
 10
137.7596541613
 20
33.0472425151
 11
137.7565416887
 21
33.0963158492
  0
LINE
  5
297
100
AcDbEntity
  8
0
100
AcDbLine
 62
7
  6
CONTINUOUS
 10
137.7565399737
 20
33.1137565627
 11
137.7596486307
 21
33.064707976
  0
LINE
  5
298
100
AcDbEntity
  8
0
100
AcDbLine
 62
7
  6
CONTINUOUS
 10
140.1264848582
 20
33.2421374632
 11
140.1294994547
 21
33.1938235842
  0
LINE
  5
299
100
AcDbEntity
  8
0
100
AcDbLine
 62
9
  6
CONTINUOUS
 10
146.4448050497
 20
17.6213828389
 11
146.446326019
 21
17.5901715984
  0
LINE
  5
29A
100
AcDbEntity
  8
0
100
AcDbLine
 62
9
  6
CONTINUOUS
 10
143.2399114158
 20
17.5001616093
 11
143.2407782258
 21
17.4689243553
  0
LINE
  5
29B
100
AcDbEntity
  8
0
100
AcDbLine
 62
7
  6
CONTINUOUS
 10
137.7558699552
 20
33.1455025639
 11
137.7565399737
 21
33.1137565627
  0
LINE
  5
29C
100
AcDbEntity
  8
0
100
AcDbLine
 62
7
  6
CONTINUOUS
 10
137.7565416887
 20
33.0963158492
 11
137.7555028787
 21
33.1454948165
  0
LINE
  5
29D
100
AcDbEntity
  8
0
100
AcDbLine
 62
7
  6
CONTINUOUS
 10
140.1294994547
 20
33.1938235842
 11
140.1305028787
 21
33.1454948165
  0
LINE
  5
29E
100
AcDbEntity
  8
DEFAULT_1
100
AcDbLine
 62
7
  6
CENTER
 10
138.9430028785
 20
63.5013914321
 11
138.9430028785
 21
63.3815278634
  0
LINE
  5
29F
100
AcDbEntity
  8
DEFAULT_1
100
AcDbLine
 62
7
  6
CENTER
 10
138.9430028785
 20
15.6512423796
 11
138.9430028785
 21
17.5586812354
  0
LINE
  5
2A0
100
AcDbEntity
  8
0
100
AcDbLine
 62
9
  6
CONTINUOUS
 10
138.9430028785
 20
17.5586812354
 11
138.9430028809
 21
19.7036815521
  0
LINE
  5
2A1
100
AcDbEntity
  8
DEFAULT_1
100
AcDbLine
 62
7
  6
CENTER
 10
138.9430028809
 20
19.7036815521
 11
138.9430028784
 21
31.985299048
  0
LINE
  5
2A2
100
AcDbEntity
  8
0
100
AcDbLine
 62
9
  6
CONTINUOUS
 10
138.9430028784
 20
31.985299048
 11
138.9430028785
 21
35.1612423796
  0
LINE
  5
2A3
100
AcDbEntity
  8
DEFAULT_1
100
AcDbLine
 62
7
  6
CENTER
 10
138.9430028785
 20
35.1612423796
 11
138.9430028785
 21
37.7606671498
  0
LINE
  5
2A4
100
AcDbEntity
  8
0
100
AcDbLine
 62
9
  6
CONTINUOUS
 10
138.9430051316
 20
36.6538268616
 11
138.9430050912
 21
36.6542893197
  0
LINE
  5
2A5
100
AcDbEntity
  8
0
100
AcDbLine
 62
7
  6
CONTINUOUS
 10
137.7555028787
 20
33.1454948165
 11
137.7565057978
 21
33.1938114316
  0
LINE
  5
2A6
100
AcDbEntity
  8
0
100
AcDbLine
 62
7
  6
CONTINUOUS
 10
140.1294639768
 20
33.1137137883
 11
140.1301354828
 21
33.1455025774
  0
LINE
  5
2A7
100
AcDbEntity
  8
0
100
AcDbLine
 62
7
  6
CONTINUOUS
 10
140.1305028787
 20
33.1454948165
 11
140.129465783
 21
33.0963564343
  0
LINE
  5
2A8
100
AcDbEntity
  8
0
100
AcDbLine
 62
9
  6
CONTINUOUS
 10
134.6460943411
 20
17.5001616093
 11
134.6452275311
 21
17.4689243553
  0
LINE
  5
2A9
100
AcDbEntity
  8
0
100
AcDbLine
 62
9
  6
CONTINUOUS
 10
131.4412007073
 20
17.6213828389
 11
131.4396797379
 21
17.5901715984
  0
LINE
  5
2AA
100
AcDbEntity
  8
0
100
AcDbLine
 62
7
  6
CONTINUOUS
 10
137.7565057978
 20
33.1938114316
 11
137.7595191208
 21
33.2421161124
  0
LINE
  5
2AB
100
AcDbEntity
  8
0
100
AcDbLine
 62
7
  6
CONTINUOUS
 10
140.1263511925
 20
33.0646378447
 11
140.1294639768
 21
33.1137137883
  0
LINE
  5
2AC
100
AcDbEntity
  8
0
100
AcDbLine
 62
7
  6
CONTINUOUS
 10
140.129465783
 20
33.0963564343
 11
140.126357086
 21
33.047307399
  0
LINE
  5
2AD
100
AcDbEntity
  8
0
100
AcDbLine
 62
7
  6
CONTINUOUS
 10
124.0448957902
 20
36.3258836904
 11
123.9430028785
 21
35.1612423796
  0
LINE
  5
2AE
100
AcDbEntity
  8
0
100
AcDbLine
 62
7
  6
CONTINUOUS
 10
137.7595191208
 20
33.2421161124
 11
137.7645483553
 21
33.2903361526
  0
LINE
  5
2AF
100
AcDbEntity
  8
0
100
AcDbLine
 62
7
  6
CONTINUOUS
 10
140.1211716644
 20
33.0157412004
 11
140.1263511925
 21
33.0646378447
  0
LINE
  5
2B0
100
AcDbEntity
  8
0
100
AcDbLine
 62
7
  6
CONTINUOUS
 10
140.126357086
 20
33.047307399
 11
140.1211819401
 21
32.9984218728
  0
LINE
  5
2B1
100
AcDbEntity
  8
0
100
AcDbLine
 62
7
  6
CONTINUOUS
 10
124.0450101093
 20
36.3271903637
 11
124.0478364662
 21
36.3508267409
  0
LINE
  5
2B2
100
AcDbEntity
  8
0
100
AcDbLine
 62
7
  6
CONTINUOUS
 10
148.7744561949
 20
19.8227397303
 11
148.8186454167
 21
20.1826335278
  0
LINE
  5
2B3
100
AcDbEntity
  8
0
100
AcDbLine
 62
7
  6
CONTINUOUS
 10
148.7725302454
 20
19.8061793021
 11
150.6579081348
 21
35.1612423796
  0
LINE
  5
2B4
100
AcDbEntity
  8
0
100
AcDbLine
 62
7
  6
CONTINUOUS
 10
148.7635973036
 20
19.7407274153
 11
148.7725852483
 21
19.8063628217
  0
LINE
  5
2B5
100
AcDbEntity
  8
0
100
AcDbLine
 62
7
  6
CONTINUOUS
 10
137.7645483553
 20
33.2903361526
 11
137.7715906456
 21
33.338359435
  0
LINE
  5
2B6
100
AcDbEntity
  8
0
100
AcDbLine
 62
7
  6
CONTINUOUS
 10
140.1139419288
 20
32.9671432921
 11
140.1211716644
 21
33.0157412004
  0
LINE
  5
2B7
100
AcDbEntity
  8
0
100
AcDbLine
 62
7
  6
CONTINUOUS
 10
140.1211819401
 20
32.9984218728
 11
140.1139548614
 21
32.9498191918
  0
LINE
  5
2B8
100
AcDbEntity
  8
0
100
AcDbLine
 62
7
  6
CONTINUOUS
 10
148.749863641
 20
19.6594507989
 11
148.7635973036
 21
19.7407274153
  0
LINE
  5
2B9
100
AcDbEntity
  8
0
100
AcDbLine
 62
7
  6
CONTINUOUS
 10
124.0478364662
 20
36.3508267409
 11
124.0521445167
 21
36.3741797234
  0
LINE
  5
2BA
100
AcDbEntity
  8
0
100
AcDbLine
 62
7
  6
CONTINUOUS
 10
137.7715906456
 20
33.338359435
 11
137.7806350118
 21
33.3860753414
  0
LINE
  5
2BB
100
AcDbEntity
  8
0
100
AcDbLine
 62
7
  6
CONTINUOUS
 10
140.1046868449
 20
32.9189572808
 11
140.1139419288
 21
32.9671432921
  0
LINE
  5
2BC
100
AcDbEntity
  8
0
100
AcDbLine
 62
7
  6
CONTINUOUS
 10
140.1139548614
 20
32.9498191918
 11
140.104698695
 21
32.9016126976
  0
LINE
  5
2BD
100
AcDbEntity
  8
0
100
AcDbLine
 62
7
  6
CONTINUOUS
 10
148.7333162478
 20
19.57869285
 11
148.749863641
 21
19.6594507989
  0
LINE
  5
2BE
100
AcDbEntity
  8
0
100
AcDbLine
 62
7
  6
CONTINUOUS
 10
137.7806350118
 20
33.3860753414
 11
137.7916709593
 21
33.4334081968
  0
LINE
  5
2BF
100
AcDbEntity
  8
0
100
AcDbLine
 62
7
  6
CONTINUOUS
 10
140.0934327253
 20
32.8712675526
 11
140.1046868449
 21
32.9189572808
  0
LINE
  5
2C0
100
AcDbEntity
  8
0
100
AcDbLine
 62
7
  6
CONTINUOUS
 10
140.104698695
 20
32.9016126976
 11
140.0934377262
 21
32.8538870045
  0
LINE
  5
2C1
100
AcDbEntity
  8
0
100
AcDbLine
 62
7
  6
CONTINUOUS
 10
134.6595499929
 20
17.5164577622
 11
134.6605620511
 21
17.5206818457
  0
LINE
  5
2C2
100
AcDbEntity
  8
0
100
AcDbLine
 62
7
  6
CONTINUOUS
 10
148.7139748023
 20
19.4985527729
 11
148.7333162478
 21
19.57869285
  0
LINE
  5
2C3
100
AcDbEntity
  8
0
100
AcDbLine
 62
7
  6
CONTINUOUS
 10
124.0521445167
 20
36.3741797234
 11
124.0580536859
 21
36.397674408
  0
LINE
  5
2C4
100
AcDbEntity
  8
0
100
AcDbLine
 62
7
  6
CONTINUOUS
 10
137.7916709593
 20
33.4334081968
 11
137.8046863669
 21
33.4802850196
  0
LINE
  5
2C5
100
AcDbEntity
  8
0
100
AcDbLine
 62
7
  6
CONTINUOUS
 10
148.6918626034
 20
19.4191290065
 11
148.7139748023
 21
19.4985527729
  0
LINE
  5
2C6
100
AcDbEntity
  8
0
100
AcDbLine
 62
7
  6
CONTINUOUS
 10
140.0802092317
 20
32.82415567
 11
140.0934327253
 21
32.8712675526
  0
LINE
  5
2C7
100
AcDbEntity
  8
0
100
AcDbLine
 62
7
  6
CONTINUOUS
 10
140.0934377262
 20
32.8538870045
 11
140.0801994785
 21
32.8067236828
  0
LINE
  5
2C8
100
AcDbEntity
  8
0
100
AcDbLine
 62
7
  6
CONTINUOUS
 10
148.6670065386
 20
19.3405190804
 11
148.6918626034
 21
19.4191290065
  0
LINE
  5
2C9
100
AcDbEntity
  8
0
100
AcDbLine
 62
7
  6
CONTINUOUS
 10
124.0580536859
 20
36.397674408
 11
124.065291222
 21
36.4202441226
  0
LINE
  5
2CA
100
AcDbEntity
  8
0
100
AcDbLine
 62
7
  6
CONTINUOUS
 10
137.8046863669
 20
33.4802850196
 11
137.8196521303
 21
33.5265897603
  0
LINE
  5
2CB
100
AcDbEntity
  8
0
100
AcDbLine
 62
7
  6
CONTINUOUS
 10
140.0650600799
 20
32.777732091
 11
140.0802092317
 21
32.82415567
  0
LINE
  5
2CC
100
AcDbEntity
  8
0
100
AcDbLine
 62
7
  6
CONTINUOUS
 10
140.0801994785
 20
32.8067236828
 11
140.0650260668
 21
32.7602350466
  0
LINE
  5
2CD
100
AcDbEntity
  8
0
100
AcDbLine
 62
7
  6
CONTINUOUS
 10
134.6497418311
 20
17.5053328394
 11
134.6509044587
 21
17.5086684017
  0
LINE
  5
2CE
100
AcDbEntity
  8
0
100
AcDbLine
 62
7
  6
CONTINUOUS
 10
148.6394370488
 20
19.2628194841
 11
148.6670065386
 21
19.3405190804
  0
LINE
  5
2CF
100
AcDbEntity
  8
0
100
AcDbLine
 62
7
  6
CONTINUOUS
 10
146.089874435
 20
17.6586794591
 11
146.0695286172
 21
17.602779784
  0
LINE
  5
2D0
100
AcDbEntity
  8
0
100
AcDbLine
 62
7
  6
CONTINUOUS
 10
145.9853693615
 20
17.2801852419
 11
145.8533301048
 21
16.9174103658
  0
LINE
  5
2D1
100
AcDbEntity
  8
0
100
AcDbLine
 62
7
  6
CONTINUOUS
 10
137.8196521303
 20
33.5265897603
 11
137.8365265737
 21
33.5722004303
  0
LINE
  5
2D2
100
AcDbEntity
  8
0
100
AcDbLine
 62
7
  6
CONTINUOUS
 10
140.0480432242
 20
32.7321183229
 11
140.0650600799
 21
32.777732091
  0
LINE
  5
2D3
100
AcDbEntity
  8
0
100
AcDbLine
 62
7
  6
CONTINUOUS
 10
140.0650260668
 20
32.7602350466
 11
140.0479729765
 21
32.7145417172
  0
LINE
  5
2D4
100
AcDbEntity
  8
0
100
AcDbLine
 62
7
  6
CONTINUOUS
 10
146.4956079555
 20
17.7218563622
 11
146.4500276963
 21
17.6000497972
  0
LINE
  5
2D5
100
AcDbEntity
  8
0
100
AcDbLine
 62
7
  6
CONTINUOUS
 10
146.4500276963
 20
17.6000497972
 11
146.446326019
 21
17.5901715984
  0
LINE
  5
2D6
100
AcDbEntity
  8
0
100
AcDbLine
 62
7
  6
CONTINUOUS
 10
146.4824721266
 20
17.7212481135
 11
146.4448050497
 21
17.6213828389
  0
LINE
  5
2D7
100
AcDbEntity
  8
0
100
AcDbLine
 62
7
  6
CONTINUOUS
 10
124.065291222
 20
36.4202441226
 11
124.0731481962
 21
36.4404511577
  0
LINE
  5
2D8
100
AcDbEntity
  8
0
100
AcDbLine
 62
7
  6
CONTINUOUS
 10
148.6091880827
 20
19.1861255242
 11
148.6394370488
 21
19.2628194841
  0
LINE
  5
2D9
100
AcDbEntity
  8
0
100
AcDbLine
 62
7
  6
CONTINUOUS
 10
145.9853648817
 20
17.2801807182
 11
145.9972067105
 21
17.3095810568
  0
LINE
  5
2DA
100
AcDbEntity
  8
0
100
AcDbLine
 62
7
  6
CONTINUOUS
 10
137.8365265737
 20
33.5722004303
 11
137.8552910143
 21
33.6170744967
  0
LINE
  5
2DB
100
AcDbEntity
  8
0
100
AcDbLine
 62
7
  6
CONTINUOUS
 10
140.0291879138
 20
32.6873427826
 11
140.0480432242
 21
32.7321183229
  0
LINE
  5
2DC
100
AcDbEntity
  8
0
100
AcDbLine
 62
7
  6
CONTINUOUS
 10
140.0479729765
 20
32.7145417172
 11
140.0290710124
 21
32.6696810249
  0
LINE
  5
2DD
100
AcDbEntity
  8
0
100
AcDbLine
 62
7
  6
CONTINUOUS
 10
134.6521327337
 20
17.4786092414
 11
134.6535169939
 21
17.4818332118
  0
LINE
  5
2DE
100
AcDbEntity
  8
0
100
AcDbLine
 62
7
  6
CONTINUOUS
 10
148.5762970555
 20
19.1105312047
 11
148.6091880827
 21
19.1861255242
  0
LINE
  5
2DF
100
AcDbEntity
  8
0
100
AcDbLine
 62
9
  6
CONTINUOUS
 10
146.04359261
 20
17.6660938945
 11
146.0596468013
 21
17.7022189638
  0
LINE
  5
2E0
100
AcDbEntity
  8
0
100
AcDbLine
 62
9
  6
CONTINUOUS
 10
146.0898745718
 20
17.6586798358
 11
146.1104987223
 21
17.7044505299
  0
LINE
  5
2E1
100
AcDbEntity
  8
0
100
AcDbLine
 62
7
  6
CONTINUOUS
 10
124.0731481962
 20
36.4404511577
 11
124.081943935
 21
36.459731227
  0
LINE
  5
2E2
100
AcDbEntity
  8
0
100
AcDbLine
 62
7
  6
CONTINUOUS
 10
137.8552910143
 20
33.6170744967
 11
137.8759272378
 21
33.6611644048
  0
LINE
  5
2E3
100
AcDbEntity
  8
0
100
AcDbLine
 62
7
  6
CONTINUOUS
 10
140.0085241719
 20
32.6434449289
 11
140.0291879138
 21
32.6873427826
  0
LINE
  5
2E4
100
AcDbEntity
  8
0
100
AcDbLine
 62
7
  6
CONTINUOUS
 10
140.0290710124
 20
32.6696810249
 11
140.0083517191
 21
32.6256980836
  0
LINE
  5
2E5
100
AcDbEntity
  8
0
100
AcDbLine
 62
7
  6
CONTINUOUS
 10
148.5408047892
 20
19.0361290796
 11
148.5762970555
 21
19.1105312047
  0
LINE
  5
2E6
100
AcDbEntity
  8
0
100
AcDbLine
 62
7
  6
CONTINUOUS
 10
145.9972067105
 20
17.3095810568
 11
146.0165331971
 21
17.3483031352
  0
LINE
  5
2E7
100
AcDbEntity
  8
0
100
AcDbLine
 62
7
  6
CONTINUOUS
 10
148.5279470772
 20
19.0110467697
 11
148.5362784949
 21
19.0274309537
  0
LINE
  5
2E8
100
AcDbEntity
  8
0
100
AcDbLine
 62
7
  6
CONTINUOUS
 10
137.8759272378
 20
33.6611644048
 11
137.8983877274
 21
33.7043651441
  0
LINE
  5
2E9
100
AcDbEntity
  8
0
100
AcDbLine
 62
7
  6
CONTINUOUS
 10
148.5027554625
 20
18.9630101411
 11
148.5408047892
 21
19.0361290796
  0
LINE
  5
2EA
100
AcDbEntity
  8
0
100
AcDbLine
 62
7
  6
CONTINUOUS
 10
139.9861029593
 20
32.6005072347
 11
140.0085241719
 21
32.6434449289
  0
LINE
  5
2EB
100
AcDbEntity
  8
0
100
AcDbLine
 62
7
  6
CONTINUOUS
 10
140.0083517191
 20
32.6256980836
 11
139.985869479
 21
32.5826825884
  0
LINE
  5
2EC
100
AcDbEntity
  8
0
100
AcDbLine
 62
7
  6
CONTINUOUS
 10
124.081943935
 20
36.459731227
 11
124.0921710291
 21
36.4791150482
  0
LINE
  5
2ED
100
AcDbEntity
  8
0
100
AcDbLine
 62
7
  6
CONTINUOUS
 10
134.65961501
 20
17.4886521655
 11
134.6615331454
 21
17.4921199152
  0
LINE
  5
2EE
100
AcDbEntity
  8
0
100
AcDbLine
 62
7
  6
CONTINUOUS
 10
148.4621969921
 20
18.8912644443
 11
148.5027554625
 21
18.9630101411
  0
LINE
  5
2EF
100
AcDbEntity
  8
0
100
AcDbLine
 62
7
  6
CONTINUOUS
 10
137.8983877274
 20
33.7043651441
 11
137.9226154533
 21
33.7465729454
  0
LINE
  5
2F0
100
AcDbEntity
  8
0
100
AcDbLine
 62
7
  6
CONTINUOUS
 10
139.9619830435
 20
32.5586140419
 11
139.9861029593
 21
32.6005072347
  0
LINE
  5
2F1
100
AcDbEntity
  8
0
100
AcDbLine
 62
7
  6
CONTINUOUS
 10
139.985869479
 20
32.5826825884
 11
139.9616886933
 21
32.5407273035
  0
LINE
  5
2F2
100
AcDbEntity
  8
0
100
AcDbLine
 62
7
  6
CONTINUOUS
 10
124.0921710291
 20
36.4791150482
 11
124.103676195
 21
36.498120879
  0
LINE
  5
2F3
100
AcDbEntity
  8
0
100
AcDbLine
 62
7
  6
CONTINUOUS
 10
148.4191787089
 20
18.8209771519
 11
148.4621969921
 21
18.8912644443
  0
LINE
  5
2F4
100
AcDbEntity
  8
0
100
AcDbLine
 62
7
  6
CONTINUOUS
 10
146.0165331971
 20
17.3483031352
 11
146.0391555902
 21
17.3847924157
  0
LINE
  5
2F5
100
AcDbEntity
  8
0
100
AcDbLine
 62
7
  6
CONTINUOUS
 10
134.6479564764
 20
17.5024958956
 11
134.6497418311
 21
17.5053328394
  0
LINE
  5
2F6
100
AcDbEntity
  8
0
100
AcDbLine
 62
7
  6
CONTINUOUS
 10
137.9226154533
 20
33.7465729454
 11
137.9485875417
 21
33.7877528059
  0
LINE
  5
2F7
100
AcDbEntity
  8
0
100
AcDbLine
 62
7
  6
CONTINUOUS
 10
139.9361880127
 20
32.5177844068
 11
139.9619830435
 21
32.5586140419
  0
LINE
  5
2F8
100
AcDbEntity
  8
0
100
AcDbLine
 62
7
  6
CONTINUOUS
 10
139.9616886933
 20
32.5407273035
 11
139.935834064
 21
32.4998500353
  0
LINE
  5
2F9
100
AcDbEntity
  8
0
100
AcDbLine
 62
9
  6
CONTINUOUS
 10
146.0773293751
 20
17.6078470271
 11
146.1179335785
 21
17.6706770586
  0
LINE
  5
2FA
100
AcDbEntity
  8
0
100
AcDbLine
 62
7
  6
CONTINUOUS
 10
148.3737550187
 20
18.752234947
 11
148.4191787089
 21
18.8209771519
  0
LINE
  5
2FB
100
AcDbEntity
  8
0
100
AcDbLine
 62
7
  6
CONTINUOUS
 10
134.6634957229
 20
17.5248462561
 11
134.6662756511
 21
17.5290197705
  0
LINE
  5
2FC
100
AcDbEntity
  8
0
100
AcDbLine
 62
7
  6
CONTINUOUS
 10
134.648180867
 20
17.4731256812
 11
134.6499194376
 21
17.475717304
  0
LINE
  5
2FD
100
AcDbEntity
  8
0
100
AcDbLine
 62
7
  6
CONTINUOUS
 10
134.6466265078
 20
17.4708545635
 11
134.648180867
 21
17.4731256812
  0
LINE
  5
2FE
100
AcDbEntity
  8
0
100
AcDbLine
 62
7
  6
CONTINUOUS
 10
134.6662756511
 20
17.5290197705
 11
134.7144868819
 21
17.59937855
  0
LINE
  5
2FF
100
AcDbEntity
  8
0
100
AcDbLine
 62
7
  6
CONTINUOUS
 10
134.6735291663
 20
17.5095827127
 11
134.7348063205
 21
17.5988088184
  0
LINE
  5
300
100
AcDbEntity
  8
0
100
AcDbLine
 62
7
  6
CONTINUOUS
 10
134.6615331454
 20
17.4921199152
 11
134.6735291663
 21
17.5095827127
  0
LINE
  5
301
100
AcDbEntity
  8
0
100
AcDbLine
 62
7
  6
CONTINUOUS
 10
137.9485875417
 20
33.7877528059
 11
137.9762863087
 21
33.8278711082
  0
LINE
  5
302
100
AcDbEntity
  8
0
100
AcDbLine
 62
7
  6
CONTINUOUS
 10
124.103676195
 20
36.498120879
 11
124.1166565003
 21
36.5169149485
  0
LINE
  5
303
100
AcDbEntity
  8
0
100
AcDbLine
 62
7
  6
CONTINUOUS
 10
139.9087343621
 20
32.4780367001
 11
139.9361880127
 21
32.5177844068
  0
LINE
  5
304
100
AcDbEntity
  8
0
100
AcDbLine
 62
7
  6
CONTINUOUS
 10
139.935834064
 20
32.4998500353
 11
139.9083255354
 21
32.4600713879
  0
LINE
  5
305
100
AcDbEntity
  8
0
100
AcDbLine
 62
7
  6
CONTINUOUS
 10
134.2686302809
 20
17.5074531412
 11
134.3405842958
 21
17.6102141242
  0
LINE
  5
306
100
AcDbEntity
  8
0
100
AcDbLine
 62
7
  6
CONTINUOUS
 10
133.7365564214
 20
16.6930902069
 11
134.1420506474
 21
17.2721959776
  0
LINE
  5
307
100
AcDbEntity
  8
0
100
AcDbLine
 62
7
  6
CONTINUOUS
 10
134.6605620511
 20
17.5206818457
 11
134.6634957229
 21
17.5248462561
  0
LINE
  5
308
100
AcDbEntity
  8
0
100
AcDbLine
 62
7
  6
CONTINUOUS
 10
148.3259762474
 20
18.6851124662
 11
148.3737550187
 21
18.752234947
  0
LINE
  5
309
100
AcDbEntity
  8
0
100
AcDbLine
 62
7
  6
CONTINUOUS
 10
134.6452275311
 20
17.4689243553
 11
134.6466265078
 21
17.4708545635
  0
LINE
  5
30A
100
AcDbEntity
  8
0
100
AcDbLine
 62
7
  6
CONTINUOUS
 10
139.8796876516
 20
32.4394614659
 11
139.9087343621
 21
32.4780367001
  0
LINE
  5
30B
100
AcDbEntity
  8
0
100
AcDbLine
 62
7
  6
CONTINUOUS
 10
137.9762863087
 20
33.8278711082
 11
138.0056401329
 21
33.8668191654
  0
LINE
  5
30C
100
AcDbEntity
  8
0
100
AcDbLine
 62
7
  6
CONTINUOUS
 10
139.9083255354
 20
32.4600713879
 11
139.8792283751
 21
32.421478376
  0
LINE
  5
30D
100
AcDbEntity
  8
0
100
AcDbLine
 62
7
  6
CONTINUOUS
 10
146.0391555902
 20
17.3847924157
 11
146.0646575188
 21
17.4186150225
  0
LINE
  5
30E
100
AcDbEntity
  8
0
100
AcDbLine
 62
7
  6
CONTINUOUS
 10
134.1420481635
 20
17.2721975051
 11
134.1621305025
 21
17.2988102654
  0
LINE
  5
30F
100
AcDbEntity
  8
0
100
AcDbLine
 62
7
  6
CONTINUOUS
 10
134.6499194376
 20
17.475717304
 11
134.6521327337
 21
17.4786092414
  0
LINE
  5
310
100
AcDbEntity
  8
0
100
AcDbLine
 62
7
  6
CONTINUOUS
 10
148.2758968104
 20
18.6196860154
 11
148.3259762474
 21
18.6851124662
  0
LINE
  5
311
100
AcDbEntity
  8
0
100
AcDbLine
 62
7
  6
CONTINUOUS
 10
124.1166565003
 20
36.5169149485
 11
124.1304386632
 21
36.5345023173
  0
LINE
  5
312
100
AcDbEntity
  8
0
100
AcDbLine
 62
7
  6
CONTINUOUS
 10
134.6460943411
 20
17.5001616093
 11
134.6479564764
 21
17.5024958956
  0
LINE
  5
313
100
AcDbEntity
  8
0
100
AcDbLine
 62
7
  6
CONTINUOUS
 10
139.8491209476
 20
32.4021452031
 11
139.8796876516
 21
32.4394614659
  0
LINE
  5
314
100
AcDbEntity
  8
0
100
AcDbLine
 62
7
  6
CONTINUOUS
 10
139.8792283751
 20
32.421478376
 11
139.8486155233
 21
32.3841549697
  0
LINE
  5
315
100
AcDbEntity
  8
0
100
AcDbLine
 62
7
  6
CONTINUOUS
 10
138.0056401329
 20
33.8668191654
 11
138.0365676262
 21
33.9044941378
  0
LINE
  5
316
100
AcDbEntity
  8
0
100
AcDbLine
 62
7
  6
CONTINUOUS
 10
148.2235716025
 20
18.5560283311
 11
148.2758968104
 21
18.6196860154
  0
LINE
  5
317
100
AcDbEntity
  8
0
100
AcDbLine
 62
7
  6
CONTINUOUS
 10
134.6567467722
 20
17.4852248223
 11
134.65961501
 21
17.4886521655
  0
LINE
  5
318
100
AcDbEntity
  8
0
100
AcDbLine
 62
7
  6
CONTINUOUS
 10
134.1621305025
 20
17.2988102654
 11
134.1848332258
 21
17.3247567091
  0
LINE
  5
319
100
AcDbEntity
  8
0
100
AcDbLine
 62
7
  6
CONTINUOUS
 10
124.1304386632
 20
36.5345023173
 11
124.1436939256
 21
36.5495773949
  0
LINE
  5
31A
100
AcDbEntity
  8
0
100
AcDbLine
 62
7
  6
CONTINUOUS
 10
148.1690572166
 20
18.4942105765
 11
148.2235716025
 21
18.5560283311
  0
LINE
  5
31B
100
AcDbEntity
  8
0
100
AcDbLine
 62
9
  6
CONTINUOUS
 10
146.1179335785
 20
17.6706770586
 11
146.1492784053
 21
17.7061626991
  0
LINE
  5
31C
100
AcDbEntity
  8
0
100
AcDbLine
 62
7
  6
CONTINUOUS
 10
139.8170501307
 20
32.3661001651
 11
139.8491209476
 21
32.4021452031
  0
LINE
  5
31D
100
AcDbEntity
  8
0
100
AcDbLine
 62
7
  6
CONTINUOUS
 10
139.8486155233
 20
32.3841549697
 11
139.8165040791
 21
32.3481129627
  0
LINE
  5
31E
100
AcDbEntity
  8
0
100
AcDbLine
 62
7
  6
CONTINUOUS
 10
138.0365676262
 20
33.9044941378
 11
138.0690438702
 21
33.94087063
  0
LINE
  5
31F
100
AcDbEntity
  8
0
100
AcDbLine
 62
7
  6
CONTINUOUS
 10
146.0646575188
 20
17.4186150225
 11
146.0925471766
 21
17.449426081
  0
LINE
  5
320
100
AcDbEntity
  8
0
100
AcDbLine
 62
7
  6
CONTINUOUS
 10
148.1124145975
 20
18.4343051028
 11
148.1690572166
 21
18.4942105765
  0
LINE
  5
321
100
AcDbEntity
  8
0
100
AcDbLine
 62
7
  6
CONTINUOUS
 10
134.6535169939
 20
17.4818332118
 11
134.6567467722
 21
17.4852248223
  0
LINE
  5
322
100
AcDbEntity
  8
0
100
AcDbLine
 62
7
  6
CONTINUOUS
 10
139.7834852123
 20
32.3313421835
 11
139.8170501307
 21
32.3661001651
  0
LINE
  5
323
100
AcDbEntity
  8
0
100
AcDbLine
 62
7
  6
CONTINUOUS
 10
139.8165040791
 20
32.3481129627
 11
139.7829045774
 21
32.3133669723
  0
LINE
  5
324
100
AcDbEntity
  8
0
100
AcDbLine
 62
7
  6
CONTINUOUS
 10
138.0690438702
 20
33.94087063
 11
138.1030475246
 21
33.9759205451
  0
LINE
  5
325
100
AcDbEntity
  8
0
100
AcDbLine
 62
7
  6
CONTINUOUS
 10
124.1436939256
 20
36.5495773949
 11
124.157490129
 21
36.5636824596
  0
LINE
  5
326
100
AcDbEntity
  8
0
100
AcDbLine
 62
7
  6
CONTINUOUS
 10
140.4796145308
 20
17.1460773367
 11
140.8488206607
 21
17.5152834666
  0
LINE
  5
327
100
AcDbEntity
  8
0
100
AcDbLine
 62
7
  6
CONTINUOUS
 10
134.1848332258
 20
17.3247567091
 11
134.2090889421
 21
17.3486948179
  0
LINE
  5
328
100
AcDbEntity
  8
0
100
AcDbLine
 62
7
  6
CONTINUOUS
 10
148.0536951838
 20
18.3763713661
 11
148.1124145975
 21
18.4343051028
  0
LINE
  5
329
100
AcDbEntity
  8
0
100
AcDbLine
 62
7
  6
CONTINUOUS
 10
140.8488223679
 20
17.5152852379
 11
140.8521589119
 21
17.5185000811
  0
LINE
  5
32A
100
AcDbEntity
  8
0
100
AcDbLine
 62
7
  6
CONTINUOUS
 10
139.7485032253
 20
32.2979578353
 11
139.7834852123
 21
32.3313421835
  0
LINE
  5
32B
100
AcDbEntity
  8
0
100
AcDbLine
 62
7
  6
CONTINUOUS
 10
139.7829045774
 20
32.3133669723
 11
139.7478953367
 21
32.2800031024
  0
LINE
  5
32C
100
AcDbEntity
  8
0
100
AcDbLine
 62
7
  6
CONTINUOUS
 10
134.6509044587
 20
17.5086684017
 11
134.6548138013
 21
17.512391026
  0
LINE
  5
32D
100
AcDbEntity
  8
0
100
AcDbLine
 62
7
  6
CONTINUOUS
 10
138.1030475246
 20
33.9759205451
 11
138.1384886696
 21
34.0095472756
  0
LINE
  5
32E
100
AcDbEntity
  8
0
100
AcDbLine
 62
7
  6
CONTINUOUS
 10
146.0925471766
 20
17.449426081
 11
146.122263237
 21
17.4769682167
  0
LINE
  5
32F
100
AcDbEntity
  8
0
100
AcDbLine
 62
7
  6
CONTINUOUS
 10
147.9929965869
 20
18.3205091388
 11
148.0536951838
 21
18.3763713661
  0
LINE
  5
330
100
AcDbEntity
  8
0
100
AcDbLine
 62
7
  6
CONTINUOUS
 10
124.157490129
 20
36.5636824596
 11
124.172942388
 21
36.5778541505
  0
LINE
  5
331
100
AcDbEntity
  8
0
100
AcDbLine
 62
7
  6
CONTINUOUS
 10
140.8521589119
 20
17.5185000811
 11
140.8570112567
 21
17.5227758232
  0
LINE
  5
332
100
AcDbEntity
  8
0
100
AcDbLine
 62
7
  6
CONTINUOUS
 10
139.7121873385
 20
32.2660271612
 11
139.7485032253
 21
32.2979578353
  0
LINE
  5
333
100
AcDbEntity
  8
0
100
AcDbLine
 62
7
  6
CONTINUOUS
 10
139.7478953367
 20
32.2800031024
 11
139.711560456
 21
32.2481005065
  0
LINE
  5
334
100
AcDbEntity
  8
0
100
AcDbLine
 62
7
  6
CONTINUOUS
 10
138.1384886696
 20
34.0095472756
 11
138.1752688345
 21
34.0416620245
  0
LINE
  5
335
100
AcDbEntity
  8
0
100
AcDbLine
 62
7
  6
CONTINUOUS
 10
134.6548138013
 20
17.512391026
 11
134.6595499929
 21
17.5164577622
  0
LINE
  5
336
100
AcDbEntity
  8
0
100
AcDbLine
 62
7
  6
CONTINUOUS
 10
147.9304009993
 20
18.2667937311
 11
147.9929965869
 21
18.3205091388
  0
LINE
  5
337
100
AcDbEntity
  8
0
100
AcDbLine
 62
7
  6
CONTINUOUS
 10
134.2090889421
 20
17.3486948179
 11
134.2346358265
 21
17.3705017576
  0
LINE
  5
338
100
AcDbEntity
  8
0
100
AcDbLine
 62
7
  6
CONTINUOUS
 10
124.172942388
 20
36.5778541505
 11
124.1897896405
 21
36.5916240133
  0
LINE
  5
339
100
AcDbEntity
  8
0
100
AcDbLine
 62
7
  6
CONTINUOUS
 10
139.6745514567
 20
32.2355651779
 11
139.7121873385
 21
32.2660271612
  0
LINE
  5
33A
100
AcDbEntity
  8
0
100
AcDbLine
 62
7
  6
CONTINUOUS
 10
139.711560456
 20
32.2481005065
 11
139.6739151358
 21
32.2176736628
  0
LINE
  5
33B
100
AcDbEntity
  8
0
100
AcDbLine
 62
7
  6
CONTINUOUS
 10
138.1752688345
 20
34.0416620245
 11
138.2133602841
 21
34.0722450185
  0
LINE
  5
33C
100
AcDbEntity
  8
0
100
AcDbLine
 62
7
  6
CONTINUOUS
 10
147.8660348085
 20
18.2153280931
 11
147.9304009993
 21
18.2667937311
  0
LINE
  5
33D
100
AcDbEntity
  8
0
100
AcDbLine
 62
7
  6
CONTINUOUS
 10
140.8570112567
 20
17.5227758232
 11
140.8618293398
 21
17.5266061698
  0
LINE
  5
33E
100
AcDbEntity
  8
0
100
AcDbLine
 62
7
  6
CONTINUOUS
 10
146.122263237
 20
17.4769682167
 11
146.153234029
 21
17.5011133995
  0
LINE
  5
33F
100
AcDbEntity
  8
0
100
AcDbLine
 62
7
  6
CONTINUOUS
 10
147.8000209393
 20
18.1661975892
 11
147.8660348085
 21
18.2153280931
  0
LINE
  5
340
100
AcDbEntity
  8
0
100
AcDbLine
 62
7
  6
CONTINUOUS
 10
139.635604361
 20
32.206591376
 11
139.6745514567
 21
32.2355651779
  0
LINE
  5
341
100
AcDbEntity
  8
0
100
AcDbLine
 62
7
  6
CONTINUOUS
 10
139.6739151358
 20
32.2176736628
 11
139.6349691395
 21
32.1887411652
  0
LINE
  5
342
100
AcDbEntity
  8
0
100
AcDbLine
 62
7
  6
CONTINUOUS
 10
134.2346358265
 20
17.3705017576
 11
134.2612092549
 21
17.3901008224
  0
LINE
  5
343
100
AcDbEntity
  8
0
100
AcDbLine
 62
7
  6
CONTINUOUS
 10
138.2133602841
 20
34.0722450185
 11
138.2527382874
 21
34.1012728747
  0
LINE
  5
344
100
AcDbEntity
  8
0
100
AcDbLine
 62
7
  6
CONTINUOUS
 10
124.1897896405
 20
36.5916240133
 11
124.2083867068
 21
36.6050588346
  0
LINE
  5
345
100
AcDbEntity
  8
0
100
AcDbLine
 62
7
  6
CONTINUOUS
 10
140.8618293398
 20
17.5266061698
 11
140.8665799966
 21
17.5300228077
  0
LINE
  5
346
100
AcDbEntity
  8
0
100
AcDbLine
 62
7
  6
CONTINUOUS
 10
147.7324896175
 20
18.1194799481
 11
147.8000209393
 21
18.1661975892
  0
LINE
  5
347
100
AcDbEntity
  8
0
100
AcDbLine
 62
7
  6
CONTINUOUS
 10
139.5954360631
 20
32.1791865011
 11
139.635604361
 21
32.206591376
  0
LINE
  5
348
100
AcDbEntity
  8
0
100
AcDbLine
 62
7
  6
CONTINUOUS
 10
139.6349691395
 20
32.1887411652
 11
139.594814183
 21
32.1613831882
  0
LINE
  5
349
100
AcDbEntity
  8
0
100
AcDbLine
 62
7
  6
CONTINUOUS
 10
138.2527382874
 20
34.1012728747
 11
138.2932978583
 21
34.1286647325
  0
LINE
  5
34A
100
AcDbEntity
  8
0
100
AcDbLine
 62
7
  6
CONTINUOUS
 10
146.153234029
 20
17.5011133995
 11
146.1847481478
 21
17.5217561976
  0
LINE
  5
34B
100
AcDbEntity
  8
0
100
AcDbLine
 62
7
  6
CONTINUOUS
 10
140.8665799966
 20
17.5300228077
 11
140.8712422837
 21
17.5330616671
  0
LINE
  5
34C
100
AcDbEntity
  8
0
100
AcDbLine
 62
7
  6
CONTINUOUS
 10
147.663584587
 20
18.075248733
 11
147.7324896175
 21
18.1194799481
  0
LINE
  5
34D
100
AcDbEntity
  8
0
100
AcDbLine
 62
7
  6
CONTINUOUS
 10
134.2612092549
 20
17.3901008224
 11
134.2885503457
 21
17.4074583622
  0
LINE
  5
34E
100
AcDbEntity
  8
0
100
AcDbLine
 62
7
  6
CONTINUOUS
 10
124.2083867068
 20
36.6050588346
 11
124.2279762907
 21
36.6174528321
  0
LINE
  5
34F
100
AcDbEntity
  8
0
100
AcDbLine
 62
7
  6
CONTINUOUS
 10
139.5541398107
 20
32.1534220969
 11
139.5954360631
 21
32.1791865011
  0
LINE
  5
350
100
AcDbEntity
  8
0
100
AcDbLine
 62
7
  6
CONTINUOUS
 10
139.594814183
 20
32.1613831882
 11
139.553546064
 21
32.1356709936
  0
LINE
  5
351
100
AcDbEntity
  8
0
100
AcDbLine
 62
7
  6
CONTINUOUS
 10
138.2932978583
 20
34.1286647325
 11
138.3349279041
 21
34.1543495021
  0
LINE
  5
352
100
AcDbEntity
  8
0
100
AcDbLine
 62
7
  6
CONTINUOUS
 10
139.4196746153
 20
17.032177507
 11
139.4264096846
 21
17.0362423796
  0
LINE
  5
353
100
AcDbEntity
  8
0
100
AcDbLine
 62
7
  6
CONTINUOUS
 10
147.5934188803
 20
18.0335461999
 11
147.663584587
 21
18.075248733
  0
LINE
  5
354
100
AcDbEntity
  8
0
100
AcDbLine
 62
7
  6
CONTINUOUS
 10
140.8712422837
 20
17.5330616671
 11
140.8758025774
 21
17.5357579781
  0
LINE
  5
355
100
AcDbEntity
  8
0
100
AcDbLine
 62
9
  6
CONTINUOUS
 10
131.798605844
 20
17.6601296817
 11
131.7961313956
 21
17.6586792577
  0
LINE
  5
356
100
AcDbEntity
  8
0
100
AcDbLine
 62
7
  6
CONTINUOUS
 10
139.511737577
 20
32.1293207534
 11
139.5541398107
 21
32.1534220969
  0
LINE
  5
357
100
AcDbEntity
  8
0
100
AcDbLine
 62
7
  6
CONTINUOUS
 10
139.553546064
 20
32.1356709936
 11
139.5111850994
 21
32.1116242753
  0
LINE
  5
358
100
AcDbEntity
  8
0
100
AcDbLine
 62
7
  6
CONTINUOUS
 10
139.3947808189
 20
17.0181318942
 11
139.4196746153
 21
17.032177507
  0
LINE
  5
359
100
AcDbEntity
  8
0
100
AcDbLine
 62
7
  6
CONTINUOUS
 10
138.3349279041
 20
34.1543495021
 11
138.3775957495
 21
34.1783108918
  0
LINE
  5
35A
100
AcDbEntity
  8
0
100
AcDbLine
 62
7
  6
CONTINUOUS
 10
124.2279762907
 20
36.6174528321
 11
124.2475121181
 21
36.6282129862
  0
LINE
  5
35B
100
AcDbEntity
  8
0
100
AcDbLine
 62
7
  6
CONTINUOUS
 10
147.5221432926
 20
17.9944274795
 11
147.5934188803
 21
18.0335461999
  0
LINE
  5
35C
100
AcDbEntity
  8
0
100
AcDbLine
 62
7
  6
CONTINUOUS
 10
146.1847481478
 20
17.5217561976
 11
146.2162187294
 21
17.5389961133
  0
LINE
  5
35D
100
AcDbEntity
  8
0
100
AcDbLine
 62
7
  6
CONTINUOUS
 10
134.2885503457
 20
17.4074583622
 11
134.3163340803
 21
17.4225397051
  0
LINE
  5
35E
100
AcDbEntity
  8
0
100
AcDbLine
 62
7
  6
CONTINUOUS
 10
140.8758025774
 20
17.5357579781
 11
140.8802369467
 21
17.538136852
  0
LINE
  5
35F
100
AcDbEntity
  8
0
100
AcDbLine
 62
7
  6
CONTINUOUS
 10
139.3671206629
 20
17.0037391223
 11
139.3947808189
 21
17.0181318942
  0
LINE
  5
360
100
AcDbEntity
  8
0
100
AcDbLine
 62
7
  6
CONTINUOUS
 10
139.4682476438
 20
32.1069090205
 11
139.511737577
 21
32.1293207534
  0
LINE
  5
361
100
AcDbEntity
  8
0
100
AcDbLine
 62
7
  6
CONTINUOUS
 10
139.5111850994
 20
32.1116242753
 11
139.4677500197
 21
32.0892681962
  0
LINE
  5
362
100
AcDbEntity
  8
0
100
AcDbLine
 62
7
  6
CONTINUOUS
 10
138.3775957495
 20
34.1783108918
 11
138.4212698227
 21
34.2005284027
  0
LINE
  5
363
100
AcDbEntity
  8
0
100
AcDbLine
 62
7
  6
CONTINUOUS
 10
147.4498026669
 20
17.9578834083
 11
147.5221432926
 21
17.9944274795
  0
LINE
  5
364
100
AcDbEntity
  8
0
100
AcDbLine
 62
7
  6
CONTINUOUS
 10
140.8802369467
 20
17.538136852
 11
140.8845403225
 21
17.5402305717
  0
LINE
  5
365
100
AcDbEntity
  8
0
100
AcDbLine
 62
7
  6
CONTINUOUS
 10
124.2475121181
 20
36.6282129862
 11
124.2675285954
 21
36.6377379761
  0
LINE
  5
366
100
AcDbEntity
  8
0
100
AcDbLine
 62
7
  6
CONTINUOUS
 10
139.3359442944
 20
16.9889655718
 11
139.3671206629
 21
17.0037391223
  0
LINE
  5
367
100
AcDbEntity
  8
0
100
AcDbLine
 62
7
  6
CONTINUOUS
 10
139.4237739917
 20
32.0862571233
 11
139.4682476438
 21
32.1069090205
  0
LINE
  5
368
100
AcDbEntity
  8
0
100
AcDbLine
 62
7
  6
CONTINUOUS
 10
139.4677500197
 20
32.0892681962
 11
139.4233396747
 21
32.0686690908
  0
LINE
  5
369
100
AcDbEntity
  8
0
100
AcDbLine
 62
7
  6
CONTINUOUS
 10
147.3764695258
 20
17.9239224987
 11
147.4498026669
 21
17.9578834083
  0
LINE
  5
36A
100
AcDbEntity
  8
0
100
AcDbLine
 62
7
  6
CONTINUOUS
 10
134.3163340803
 20
17.4225397051
 11
134.3443025992
 21
17.435388753
  0
LINE
  5
36B
100
AcDbEntity
  8
0
100
AcDbLine
 62
7
  6
CONTINUOUS
 10
138.4212698227
 20
34.2005284027
 11
138.4658369814
 21
34.2209416052
  0
LINE
  5
36C
100
AcDbEntity
  8
0
100
AcDbLine
 62
7
  6
CONTINUOUS
 10
146.2162187294
 20
17.5389961133
 11
146.246598682
 21
17.552813983
  0
LINE
  5
36D
100
AcDbEntity
  8
0
100
AcDbLine
 62
7
  6
CONTINUOUS
 10
140.8845403225
 20
17.5402305717
 11
140.8886623136
 21
17.5420480709
  0
LINE
  5
36E
100
AcDbEntity
  8
0
100
AcDbLine
 62
7
  6
CONTINUOUS
 10
139.3059305561
 20
16.9761188796
 11
139.3359442944
 21
16.9889655718
  0
LINE
  5
36F
100
AcDbEntity
  8
0
100
AcDbLine
 62
7
  6
CONTINUOUS
 10
147.3021994916
 20
17.8925467478
 11
147.3764695258
 21
17.9239224987
  0
LINE
  5
370
100
AcDbEntity
  8
0
100
AcDbLine
 62
7
  6
CONTINUOUS
 10
139.3784195369
 20
32.0674240966
 11
139.4237739917
 21
32.0862571233
  0
LINE
  5
371
100
AcDbEntity
  8
0
100
AcDbLine
 62
7
  6
CONTINUOUS
 10
139.4233396747
 20
32.0686690908
 11
139.378052416
 21
32.0498834
  0
LINE
  5
372
100
AcDbEntity
  8
0
100
AcDbLine
 62
7
  6
CONTINUOUS
 10
138.4658369814
 20
34.2209416052
 11
138.5111808184
 21
34.2395003634
  0
LINE
  5
373
100
AcDbEntity
  8
0
100
AcDbLine
 62
7
  6
CONTINUOUS
 10
124.2675285954
 20
36.6377379761
 11
124.2883213193
 21
36.6461557381
  0
LINE
  5
374
100
AcDbEntity
  8
0
100
AcDbLine
 62
7
  6
CONTINUOUS
 10
140.8886623136
 20
17.5420480709
 11
140.8925640169
 21
17.5436065352
  0
LINE
  5
375
100
AcDbEntity
  8
0
100
AcDbLine
 62
7
  6
CONTINUOUS
 10
139.283834427
 20
16.9674861837
 11
139.3059305561
 21
16.9761188796
  0
LINE
  5
376
100
AcDbEntity
  8
0
100
AcDbLine
 62
7
  6
CONTINUOUS
 10
134.3443025992
 20
17.435388753
 11
134.3719780903
 21
17.4459979038
  0
LINE
  5
377
100
AcDbEntity
  8
0
100
AcDbLine
 62
7
  6
CONTINUOUS
 10
147.227055522
 20
17.863763506
 11
147.3021994916
 21
17.8925467478
  0
LINE
  5
378
100
AcDbEntity
  8
0
100
AcDbLine
 62
7
  6
CONTINUOUS
 10
146.246598682
 20
17.552813983
 11
146.2751050413
 21
17.5634836888
  0
LINE
  5
379
100
AcDbEntity
  8
0
100
AcDbLine
 62
7
  6
CONTINUOUS
 10
139.3322279298
 20
32.050438945
 11
139.3784195369
 21
32.0674240966
  0
LINE
  5
37A
100
AcDbEntity
  8
0
100
AcDbLine
 62
7
  6
CONTINUOUS
 10
139.378052416
 20
32.0498834
 11
139.3319282978
 21
32.0329387592
  0
LINE
  5
37B
100
AcDbEntity
  8
0
100
AcDbLine
 62
7
  6
CONTINUOUS
 10
138.5111808184
 20
34.2395003634
 11
138.5572607988
 21
34.256191247
  0
LINE
  5
37C
100
AcDbEntity
  8
0
100
AcDbLine
 62
7
  6
CONTINUOUS
 10
140.8925640169
 20
17.5436065352
 11
140.8962130768
 21
17.5449268013
  0
LINE
  5
37D
100
AcDbEntity
  8
0
100
AcDbLine
 62
7
  6
CONTINUOUS
 10
139.2638652284
 20
16.9602657791
 11
139.283834427
 21
16.9674861837
  0
LINE
  5
37E
100
AcDbEntity
  8
0
100
AcDbLine
 62
7
  6
CONTINUOUS
 10
147.1510762262
 20
17.8375734126
 11
147.227055522
 21
17.863763506
  0
LINE
  5
37F
100
AcDbEntity
  8
0
100
AcDbLine
 62
7
  6
CONTINUOUS
 10
139.2412446509
 20
16.952734827
 11
139.2638652284
 21
16.9602657791
  0
LINE
  5
380
100
AcDbEntity
  8
0
100
AcDbLine
 62
7
  6
CONTINUOUS
 10
140.8962130768
 20
17.5449268013
 11
140.8995707532
 21
17.5460278251
  0
LINE
  5
381
100
AcDbEntity
  8
0
100
AcDbLine
 62
7
  6
CONTINUOUS
 10
139.2852373126
 20
32.0353311899
 11
139.3322279298
 21
32.050438945
  0
LINE
  5
382
100
AcDbEntity
  8
0
100
AcDbLine
 62
7
  6
CONTINUOUS
 10
139.3319282978
 20
32.0329387592
 11
139.2849998354
 21
32.0178633183
  0
LINE
  5
383
100
AcDbEntity
  8
0
100
AcDbLine
 62
7
  6
CONTINUOUS
 10
138.5572607988
 20
34.256191247
 11
138.6040355328
 21
34.2709971963
  0
LINE
  5
384
100
AcDbEntity
  8
0
100
AcDbLine
 62
7
  6
CONTINUOUS
 10
134.3719780903
 20
17.4459979038
 11
134.3990790448
 21
17.4544983905
  0
LINE
  5
385
100
AcDbEntity
  8
0
100
AcDbLine
 62
7
  6
CONTINUOUS
 10
147.0743222011
 20
17.8139880866
 11
147.1510762262
 21
17.8375734126
  0
LINE
  5
386
100
AcDbEntity
  8
0
100
AcDbLine
 62
7
  6
CONTINUOUS
 10
139.2188609347
 20
16.945943115
 11
139.2412446509
 21
16.952734827
  0
LINE
  5
387
100
AcDbEntity
  8
0
100
AcDbLine
 62
7
  6
CONTINUOUS
 10
140.8995707532
 20
17.5460278251
 11
140.9026268167
 21
17.5469371928
  0
LINE
  5
388
100
AcDbEntity
  8
0
100
AcDbLine
 62
7
  6
CONTINUOUS
 10
138.7474493067
 20
34.3037790803
 11
138.796048843
 21
34.3107751108
  0
LINE
  5
389
100
AcDbEntity
  8
0
100
AcDbLine
 62
7
  6
CONTINUOUS
 10
124.3547831399
 20
36.6640398578
 11
124.378117906
 21
36.6673173227
  0
LINE
  5
38A
100
AcDbEntity
  8
0
100
AcDbLine
 62
7
  6
CONTINUOUS
 10
139.0421841524
 20
31.9894193822
 11
139.091569945
 21
31.9945644942
  0
LINE
  5
38B
100
AcDbEntity
  8
0
100
AcDbLine
 62
7
  6
CONTINUOUS
 10
139.091519115
 20
31.9771614373
 11
139.0421598474
 21
31.9720206973
  0
LINE
  5
38C
100
AcDbEntity
  8
0
100
AcDbLine
 62
7
  6
CONTINUOUS
 10
138.796048843
 20
34.3107751108
 11
138.844903971
 21
34.3157808724
  0
LINE
  5
38D
100
AcDbEntity
  8
0
100
AcDbLine
 62
7
  6
CONTINUOUS
 10
124.378117906
 20
36.6673173227
 11
124.4020712043
 21
36.6691432593
  0
LINE
  5
38E
100
AcDbEntity
  8
0
100
AcDbLine
 62
7
  6
CONTINUOUS
 10
139.0421598474
 20
31.9720206973
 11
138.9926298019
 21
31.9689326859
  0
LINE
  5
38F
100
AcDbEntity
  8
0
100
AcDbLine
 62
7
  6
CONTINUOUS
 10
138.9926371655
 20
31.9863296341
 11
139.0421841524
 21
31.9894193822
  0
LINE
  5
390
100
AcDbEntity
  8
0
100
AcDbLine
 62
7
  6
CONTINUOUS
 10
138.844903971
 20
34.3157808724
 11
138.8939147963
 21
34.3187867687
  0
LINE
  5
391
100
AcDbEntity
  8
0
100
AcDbLine
 62
7
  6
CONTINUOUS
 10
137.1956358629
 20
17.5473595823
 11
137.2312648654
 21
17.5485212645
  0
LINE
  5
392
100
AcDbEntity
  8
0
100
AcDbLine
 62
7
  6
CONTINUOUS
 10
137.9460393044
 20
17.5780432366
 11
138.0393638682
 21
17.580988398
  0
LINE
  5
393
100
AcDbEntity
  8
0
100
AcDbLine
 62
7
  6
CONTINUOUS
 10
143.6609511407
 20
17.4774008933
 11
143.5608447579
 21
17.4743902044
  0
LINE
  5
394
100
AcDbEntity
  8
0
100
AcDbLine
 62
7
  6
CONTINUOUS
 10
143.6830896736
 20
17.5093578405
 11
143.4961953724
 21
17.5038216034
  0
LINE
  5
395
100
AcDbEntity
  8
0
100
AcDbLine
 62
7
  6
CONTINUOUS
 10
142.8596507101
 20
17.5908446234
 11
143.7738405051
 21
17.6171702915
  0
LINE
  5
396
100
AcDbEntity
  8
0
100
AcDbLine
 62
7
  6
CONTINUOUS
 10
138.0393638682
 20
17.580988398
 11
138.1352523978
 21
17.5837466239
  0
LINE
  5
397
100
AcDbEntity
  8
0
100
AcDbLine
 62
7
  6
CONTINUOUS
 10
143.5608447579
 20
17.4743902044
 11
143.4037278057
 21
17.4701781172
  0
LINE
  5
398
100
AcDbEntity
  8
0
100
AcDbLine
 62
7
  6
CONTINUOUS
 10
143.4961953724
 20
17.5038216034
 11
143.4190023184
 21
17.5018058284
  0
LINE
  5
399
100
AcDbEntity
  8
0
100
AcDbLine
 62
7
  6
CONTINUOUS
 10
138.1352523978
 20
17.5837466239
 11
138.2338807911
 21
17.586290171
  0
LINE
  5
39A
100
AcDbEntity
  8
0
100
AcDbLine
 62
7
  6
CONTINUOUS
 10
138.9846470563
 20
16.9111667449
 11
138.9955441147
 21
16.9114331105
  0
LINE
  5
39B
100
AcDbEntity
  8
0
100
AcDbLine
 62
7
  6
CONTINUOUS
 10
141.9956620125
 20
17.5696429504
 11
142.8596507101
 21
17.5908446234
  0
LINE
  5
39C
100
AcDbEntity
  8
0
100
AcDbLine
 62
7
  6
CONTINUOUS
 10
143.4190023184
 20
17.5018058284
 11
143.3552163043
 21
17.5003606207
  0
LINE
  5
39D
100
AcDbEntity
  8
0
100
AcDbLine
 62
7
  6
CONTINUOUS
 10
138.2338807911
 20
17.586290171
 11
138.3351128726
 21
17.5885812034
  0
LINE
  5
39E
100
AcDbEntity
  8
0
100
AcDbLine
 62
7
  6
CONTINUOUS
 10
143.4037278057
 20
17.4701781172
 11
143.345655436
 21
17.4689159699
  0
LINE
  5
39F
100
AcDbEntity
  8
0
100
AcDbLine
 62
7
  6
CONTINUOUS
 10
138.9926298019
 20
31.9689326859
 11
138.9430028788
 21
31.9679024104
  0
LINE
  5
3A0
100
AcDbEntity
  8
0
100
AcDbLine
 62
7
  6
CONTINUOUS
 10
138.9430028788
 20
31.985299048
 11
138.9926371655
 21
31.9863296341
  0
LINE
  5
3A1
100
AcDbEntity
  8
0
100
AcDbLine
 62
7
  6
CONTINUOUS
 10
138.8939147963
 20
34.3187867687
 11
138.9430028786
 21
34.3197890736
  0
LINE
  5
3A2
100
AcDbEntity
  8
0
100
AcDbLine
 62
7
  6
CONTINUOUS
 10
141.2952471359
 20
17.5555090173
 11
141.9956620125
 21
17.5696429504
  0
LINE
  5
3A3
100
AcDbEntity
  8
0
100
AcDbLine
 62
7
  6
CONTINUOUS
 10
138.3351128726
 20
17.5885812034
 11
138.4390160231
 21
17.5905871745
  0
LINE
  5
3A4
100
AcDbEntity
  8
0
100
AcDbLine
 62
7
  6
CONTINUOUS
 10
143.3552163043
 20
17.5003606207
 11
143.3053039915
 21
17.4994884272
  0
LINE
  5
3A5
100
AcDbEntity
  8
0
100
AcDbLine
 62
7
  6
CONTINUOUS
 10
138.9732725174
 20
16.9109805675
 11
138.9846470563
 21
16.9111667449
  0
LINE
  5
3A6
100
AcDbEntity
  8
0
100
AcDbLine
 62
7
  6
CONTINUOUS
 10
143.345655436
 20
17.4689159699
 11
143.300274282
 21
17.4681713354
  0
LINE
  5
3A7
100
AcDbEntity
  8
0
100
AcDbLine
 62
7
  6
CONTINUOUS
 10
140.7829981193
 20
17.5472824555
 11
141.2952471359
 21
17.5555090173
  0
LINE
  5
3A8
100
AcDbEntity
  8
0
100
AcDbLine
 62
7
  6
CONTINUOUS
 10
138.4390160231
 20
17.5905871745
 11
138.5458612307
 21
17.592276905
  0
LINE
  5
3A9
100
AcDbEntity
  8
0
100
AcDbLine
 62
7
  6
CONTINUOUS
 10
124.4020712043
 20
36.6691432593
 11
124.4247102618
 21
36.6694569011
  0
LINE
  5
3AA
100
AcDbEntity
  8
0
100
AcDbLine
 62
7
  6
CONTINUOUS
 10
134.6183191417
 20
17.4679337149
 11
134.6380446706
 21
17.4681893439
  0
LINE
  5
3AB
100
AcDbEntity
  8
0
100
AcDbLine
 62
7
  6
CONTINUOUS
 10
137.1616651818
 20
17.5469185706
 11
137.1956358629
 21
17.5473595823
  0
LINE
  5
3AC
100
AcDbEntity
  8
0
100
AcDbLine
 62
7
  6
CONTINUOUS
 10
138.5458612307
 20
17.592276905
 11
138.6557253193
 21
17.5936102941
  0
LINE
  5
3AD
100
AcDbEntity
  8
0
100
AcDbLine
 62
7
  6
CONTINUOUS
 10
140.7545771657
 20
17.546979408
 11
140.7829981193
 21
17.5472824555
  0
LINE
  5
3AE
100
AcDbEntity
  8
0
100
AcDbLine
 62
7
  6
CONTINUOUS
 10
134.6167511874
 20
17.4991724069
 11
134.6383867077
 21
17.4994032557
  0
LINE
  5
3AF
100
AcDbEntity
  8
0
100
AcDbLine
 62
7
  6
CONTINUOUS
 10
138.9605253816
 20
16.9108568631
 11
138.9732725174
 21
16.9109805675
  0
LINE
  5
3B0
100
AcDbEntity
  8
0
100
AcDbLine
 62
7
  6
CONTINUOUS
 10
143.3053039915
 20
17.4994884272
 11
143.2692545695
 21
17.4991724069
  0
LINE
  5
3B1
100
AcDbEntity
  8
0
100
AcDbLine
 62
7
  6
CONTINUOUS
 10
138.6557253193
 20
17.5936102941
 11
138.7685157602
 21
17.5945428821
  0
LINE
  5
3B2
100
AcDbEntity
  8
0
100
AcDbLine
 62
7
  6
CONTINUOUS
 10
143.300274282
 20
17.4681713354
 11
143.2676866152
 21
17.4679337149
  0
LINE
  5
3B3
100
AcDbEntity
  8
0
100
AcDbLine
 62
7
  6
CONTINUOUS
 10
153.4613169713
 20
36.6694573574
 11
153.0002624621
 21
36.667204988
  0
LINE
  5
3B4
100
AcDbEntity
  8
0
100
AcDbLine
 62
7
  6
CONTINUOUS
 10
138.7685157602
 20
17.5945428821
 11
138.8841726243
 21
17.5950300283
  0
LINE
  5
3B5
100
AcDbEntity
  8
0
100
AcDbLine
 62
7
  6
CONTINUOUS
 10
138.9466254237
 20
16.9108013998
 11
138.9605253816
 21
16.9108568631
  0
LINE
  5
3B6
100
AcDbEntity
  8
0
100
AcDbLine
 62
7
  6
CONTINUOUS
 10
140.7233775668
 20
17.5469239826
 11
140.7545771657
 21
17.546979408
  0
LINE
  5
3B7
100
AcDbEntity
  8
0
100
AcDbLine
 62
7
  6
CONTINUOUS
 10
153.0002624621
 20
36.667204988
 11
151.4970497574
 21
36.6652805837
  0
LINE
  5
3B8
100
AcDbEntity
  8
0
100
AcDbLine
 62
7
  6
CONTINUOUS
 10
151.4970497574
 20
36.6652805837
 11
143.8025589309
 21
36.6574916228
  0
LINE
  5
3B9
100
AcDbEntity
  8
0
100
AcDbLine
 62
7
  6
CONTINUOUS
 10
143.8025589309
 20
36.6574916228
 11
141.7706665706
 21
36.6560111059
  0
LINE
  5
3BA
100
AcDbEntity
  8
0
100
AcDbLine
 62
7
  6
CONTINUOUS
 10
141.7706665706
 20
36.6560111059
 11
140.3670982015
 21
36.6553874329
  0
LINE
  5
3BB
100
AcDbEntity
  8
0
100
AcDbLine
 62
7
  6
CONTINUOUS
 10
140.3670982015
 20
36.6553874329
 11
138.9428810507
 21
36.6551680628
  0
LINE
  5
3BC
100
AcDbEntity
  8
0
100
AcDbLine
 62
7
  6
CONTINUOUS
 10
137.671556269
 20
17.0362423796
 11
140.2144494879
 21
17.0362423796
  0
LINE
  5
3BD
100
AcDbEntity
  8
0
100
AcDbLine
 62
7
  6
CONTINUOUS
 10
138.8841726243
 20
17.5950300283
 11
139.0018185687
 21
17.5950300595
  0
LINE
  5
3BE
100
AcDbEntity
  8
0
100
AcDbLine
 62
7
  6
CONTINUOUS
 10
123.9430028785
 20
35.1612423796
 11
153.9430028785
 21
35.1612423796
  0
LINE
  5
3BF
100
AcDbEntity
  8
0
100
AcDbLine
 62
7
  6
CONTINUOUS
 10
138.9428810507
 20
36.6551680628
 11
137.5186878375
 21
36.6553875001
  0
LINE
  5
3C0
100
AcDbEntity
  8
0
100
AcDbLine
 62
7
  6
CONTINUOUS
 10
137.5186878375
 20
36.6553875001
 11
136.1151429925
 21
36.6560112187
  0
LINE
  5
3C1
100
AcDbEntity
  8
0
100
AcDbLine
 62
7
  6
CONTINUOUS
 10
136.1151429925
 20
36.6560112187
 11
133.4261466699
 21
36.6580783571
  0
LINE
  5
3C2
100
AcDbEntity
  8
0
100
AcDbLine
 62
7
  6
CONTINUOUS
 10
133.4261466699
 20
36.6580783571
 11
125.3766392841
 21
36.6665723011
  0
LINE
  5
3C3
100
AcDbEntity
  8
0
100
AcDbLine
 62
7
  6
CONTINUOUS
 10
125.3766392841
 20
36.6665723011
 11
124.8857352407
 21
36.6672049983
  0
LINE
  5
3C4
100
AcDbEntity
  8
0
100
AcDbLine
 62
7
  6
CONTINUOUS
 10
138.9315579241
 20
16.9108233285
 11
138.9466254237
 21
16.9108013998
  0
LINE
  5
3C5
100
AcDbEntity
  8
0
100
AcDbLine
 62
7
  6
CONTINUOUS
 10
153.4750603507
 20
36.6694291714
 11
153.46129622
 21
36.6694569122
  0
LINE
  5
3C6
100
AcDbEntity
  8
0
100
AcDbLine
 62
7
  6
CONTINUOUS
 10
137.1303578984
 20
17.5469870597
 11
137.1616651818
 21
17.5469185706
  0
LINE
  5
3C7
100
AcDbEntity
  8
0
100
AcDbLine
 62
7
  6
CONTINUOUS
 10
139.0018185687
 20
17.5950300595
 11
139.1174324043
 21
17.5945432436
  0
LINE
  5
3C8
100
AcDbEntity
  8
0
100
AcDbLine
 62
7
  6
CONTINUOUS
 10
124.8857352407
 20
36.6672049983
 11
124.4246887856
 21
36.6694573574
  0
LINE
  5
3C9
100
AcDbEntity
  8
0
100
AcDbLine
 62
7
  6
CONTINUOUS
 10
138.9170050085
 20
16.9109302929
 11
138.9315579241
 21
16.9108233285
  0
LINE
  5
3CA
100
AcDbEntity
  8
0
100
AcDbLine
 62
7
  6
CONTINUOUS
 10
134.5857314749
 20
17.4681713354
 11
134.6183191417
 21
17.4679337149
  0
LINE
  5
3CB
100
AcDbEntity
  8
0
100
AcDbLine
 62
7
  6
CONTINUOUS
 10
139.1174324043
 20
17.5945432436
 11
139.2301694043
 21
17.5936114312
  0
LINE
  5
3CC
100
AcDbEntity
  8
0
100
AcDbLine
 62
7
  6
CONTINUOUS
 10
134.5807017654
 20
17.4994884272
 11
134.6167511874
 21
17.4991724069
  0
LINE
  5
3CD
100
AcDbEntity
  8
0
100
AcDbLine
 62
7
  6
CONTINUOUS
 10
143.2692545695
 20
17.4991724069
 11
143.2476190492
 21
17.4994032557
  0
LINE
  5
3CE
100
AcDbEntity
  8
0
100
AcDbLine
 62
9
  6
CONTINUOUS
 10
153.4616038237
 20
36.669343087
 11
153.4813327632
 21
36.6691247208
  0
LINE
  5
3CF
100
AcDbEntity
  8
0
100
AcDbLine
 62
7
  6
CONTINUOUS
 10
139.2301694043
 20
17.5936114312
 11
139.3399816162
 21
17.5922791879
  0
LINE
  5
3D0
100
AcDbEntity
  8
0
100
AcDbLine
 62
7
  6
CONTINUOUS
 10
153.4840488717
 20
36.6678365857
 11
153.4602445234
 21
36.6681293738
  0
LINE
  5
3D1
100
AcDbEntity
  8
0
100
AcDbLine
 62
7
  6
CONTINUOUS
 10
143.2676866152
 20
17.4679337149
 11
143.2479610863
 21
17.4681893439
  0
LINE
  5
3D2
100
AcDbEntity
  8
0
100
AcDbLine
 62
7
  6
CONTINUOUS
 10
137.0547780737
 20
17.54800408
 11
137.1303578984
 21
17.5469870597
  0
LINE
  5
3D3
100
AcDbEntity
  8
0
100
AcDbLine
 62
7
  6
CONTINUOUS
 10
140.6895588
 20
17.5473779696
 11
140.7233775668
 21
17.5469239826
  0
LINE
  5
3D4
100
AcDbEntity
  8
0
100
AcDbLine
 62
7
  6
CONTINUOUS
 10
138.90418131
 20
16.9111126894
 11
138.9170050085
 21
16.9109302929
  0
LINE
  5
3D5
100
AcDbEntity
  8
0
100
AcDbLine
 62
7
  6
CONTINUOUS
 10
139.3399816162
 20
17.5922791879
 11
139.4467787687
 21
17.5905908865
  0
LINE
  5
3D6
100
AcDbEntity
  8
0
100
AcDbLine
 62
7
  6
CONTINUOUS
 10
134.5403503209
 20
17.4689159699
 11
134.5857314749
 21
17.4681713354
  0
LINE
  5
3D7
100
AcDbEntity
  8
0
100
AcDbLine
 62
7
  6
CONTINUOUS
 10
134.5307894526
 20
17.5003606207
 11
134.5807017654
 21
17.4994884272
  0
LINE
  5
3D8
100
AcDbEntity
  8
0
100
AcDbLine
 62
7
  6
CONTINUOUS
 10
139.4467787687
 20
17.5905908865
 11
139.5506367893
 21
17.5885865811
  0
LINE
  5
3D9
100
AcDbEntity
  8
0
100
AcDbLine
 62
7
  6
CONTINUOUS
 10
138.9430028786
 20
34.3197890736
 11
138.9920909583
 21
34.3187867686
  0
LINE
  5
3DA
100
AcDbEntity
  8
0
100
AcDbLine
 62
7
  6
CONTINUOUS
 10
138.9430028788
 20
31.9679024104
 11
138.8933669771
 21
31.968933057
  0
LINE
  5
3DB
100
AcDbEntity
  8
0
100
AcDbLine
 62
7
  6
CONTINUOUS
 10
138.8933752708
 20
31.986329358
 11
138.9430028788
 21
31.985299048
  0
LINE
  5
3DC
100
AcDbEntity
  8
0
100
AcDbLine
 62
7
  6
CONTINUOUS
 10
134.4822779512
 20
17.4701781172
 11
134.5403503209
 21
17.4689159699
  0
LINE
  5
3DD
100
AcDbEntity
  8
0
100
AcDbLine
 62
7
  6
CONTINUOUS
 10
134.4670034385
 20
17.5018058284
 11
134.5307894526
 21
17.5003606207
  0
LINE
  5
3DE
100
AcDbEntity
  8
0
100
AcDbLine
 62
7
  6
CONTINUOUS
 10
139.5506367893
 20
17.5885865811
 11
139.6518277549
 21
17.5862973759
  0
LINE
  5
3DF
100
AcDbEntity
  8
0
100
AcDbLine
 62
7
  6
CONTINUOUS
 10
138.8918517435
 20
16.9113936061
 11
138.90418131
 21
16.9111126894
  0
LINE
  5
3E0
100
AcDbEntity
  8
0
100
AcDbLine
 62
7
  6
CONTINUOUS
 10
139.6518277549
 20
17.5862973759
 11
139.7504185732
 21
17.5837557667
  0
LINE
  5
3E1
100
AcDbEntity
  8
0
100
AcDbLine
 62
7
  6
CONTINUOUS
 10
134.325160999
 20
17.4743902044
 11
134.4822779512
 21
17.4701781172
  0
LINE
  5
3E2
100
AcDbEntity
  8
0
100
AcDbLine
 62
7
  6
CONTINUOUS
 10
132.3457282295
 20
17.6803059827
 11
137.0547780737
 21
17.54800408
  0
LINE
  5
3E3
100
AcDbEntity
  8
0
100
AcDbLine
 62
7
  6
CONTINUOUS
 10
134.1960312801
 20
17.5095700157
 11
134.4670034385
 21
17.5018058284
  0
LINE
  5
3E4
100
AcDbEntity
  8
0
100
AcDbLine
 62
7
  6
CONTINUOUS
 10
139.7504185732
 20
17.5837557667
 11
139.8462714371
 21
17.5809995838
  0
LINE
  5
3E5
100
AcDbEntity
  8
0
100
AcDbLine
 62
7
  6
CONTINUOUS
 10
133.9788064101
 20
17.4853756439
 11
134.325160999
 21
17.4743902044
  0
LINE
  5
3E6
100
AcDbEntity
  8
0
100
AcDbLine
 62
7
  6
CONTINUOUS
 10
139.8462714371
 20
17.5809995838
 11
139.9853642737
 21
17.5765198168
  0
LINE
  5
3E7
100
AcDbEntity
  8
0
100
AcDbLine
 62
7
  6
CONTINUOUS
 10
133.9483564509
 20
17.5176674678
 11
134.1960312801
 21
17.5095700157
  0
LINE
  5
3E8
100
AcDbEntity
  8
0
100
AcDbLine
 62
7
  6
CONTINUOUS
 10
140.6540922539
 20
17.5485468215
 11
140.6895588
 21
17.5473779696
  0
LINE
  5
3E9
100
AcDbEntity
  8
0
100
AcDbLine
 62
7
  6
CONTINUOUS
 10
138.8793048333
 20
16.9118154608
 11
138.8918517435
 21
16.9113936061
  0
LINE
  5
3EA
100
AcDbEntity
  8
0
100
AcDbLine
 62
7
  6
CONTINUOUS
 10
133.6746783261
 20
17.4958452516
 11
133.9788064101
 21
17.4853756439
  0
LINE
  5
3EB
100
AcDbEntity
  8
0
100
AcDbLine
 62
7
  6
CONTINUOUS
 10
133.647315516
 20
17.5280769514
 11
133.9483564509
 21
17.5176674678
  0
LINE
  5
3EC
100
AcDbEntity
  8
0
100
AcDbLine
 62
7
  6
CONTINUOUS
 10
133.1497582738
 20
17.5146571803
 11
133.6746783261
 21
17.4958452516
  0
LINE
  5
3ED
100
AcDbEntity
  8
0
100
AcDbLine
 62
7
  6
CONTINUOUS
 10
139.9853642737
 20
17.5765198168
 11
140.1194058332
 21
17.5717045918
  0
LINE
  5
3EE
100
AcDbEntity
  8
0
100
AcDbLine
 62
7
  6
CONTINUOUS
 10
132.3801778731
 20
17.5745519288
 11
133.647315516
 21
17.5280769514
  0
LINE
  5
3EF
100
AcDbEntity
  8
0
100
AcDbLine
 62
7
  6
CONTINUOUS
 10
132.4503383969
 20
17.5405937189
 11
133.1497582738
 21
17.5146571803
  0
LINE
  5
3F0
100
AcDbEntity
  8
0
100
AcDbLine
 62
7
  6
CONTINUOUS
 10
140.1194058332
 20
17.5717045918
 11
140.2473222068
 21
17.5667576052
  0
LINE
  5
3F1
100
AcDbEntity
  8
0
100
AcDbLine
 62
7
  6
CONTINUOUS
 10
132.1366950126
 20
17.5528212758
 11
132.4503383969
 21
17.5405937189
  0
LINE
  5
3F2
100
AcDbEntity
  8
0
100
AcDbLine
 62
7
  6
CONTINUOUS
 10
132.1172496307
 20
17.58487797
 11
132.3801778731
 21
17.5745519288
  0
LINE
  5
3F3
100
AcDbEntity
  8
0
100
AcDbLine
 62
7
  6
CONTINUOUS
 10
140.2473222068
 20
17.5667576052
 11
140.4631479365
 21
17.5578668529
  0
LINE
  5
3F4
100
AcDbEntity
  8
0
100
AcDbLine
 62
7
  6
CONTINUOUS
 10
131.8683850656
 20
17.564013851
 11
132.1366950126
 21
17.5528212758
  0
LINE
  5
3F5
100
AcDbEntity
  8
0
100
AcDbLine
 62
7
  6
CONTINUOUS
 10
131.8870798049
 20
17.5944773678
 11
132.1172496307
 21
17.58487797
  0
LINE
  5
3F6
100
AcDbEntity
  8
0
100
AcDbLine
 62
7
  6
CONTINUOUS
 10
131.642635024
 20
17.7103542664
 11
132.3457282295
 21
17.6803059827
  0
LINE
  5
3F7
100
AcDbEntity
  8
0
100
AcDbLine
 62
7
  6
CONTINUOUS
 10
131.7872272661
 20
17.5989309778
 11
131.8870798049
 21
17.5944773678
  0
LINE
  5
3F8
100
AcDbEntity
  8
0
100
AcDbLine
 62
7
  6
CONTINUOUS
 10
131.7553444597
 20
17.5691254668
 11
131.8683850656
 21
17.564013851
  0
LINE
  5
3F9
100
AcDbEntity
  8
0
100
AcDbLine
 62
7
  6
CONTINUOUS
 10
131.3604386115
 20
17.723248192
 11
131.642635024
 21
17.7103542664
  0
LINE
  5
3FA
100
AcDbEntity
  8
0
100
AcDbLine
 62
7
  6
CONTINUOUS
 10
140.6179110721
 20
17.5502216841
 11
140.6540922539
 21
17.5485468215
  0
LINE
  5
3FB
100
AcDbEntity
  8
0
100
AcDbLine
 62
7
  6
CONTINUOUS
 10
138.8659424699
 20
16.9124386732
 11
138.8793048333
 21
16.9118154608
  0
LINE
  5
3FC
100
AcDbEntity
  8
0
100
AcDbLine
 62
7
  6
CONTINUOUS
 10
140.4631479365
 20
17.5578668529
 11
140.5430204816
 21
17.5541411489
  0
LINE
  5
3FD
100
AcDbEntity
  8
0
100
AcDbLine
 62
7
  6
CONTINUOUS
 10
131.6987315891
 20
17.6031247056
 11
131.7872272661
 21
17.5989309778
  0
LINE
  5
3FE
100
AcDbEntity
  8
0
100
AcDbLine
 62
7
  6
CONTINUOUS
 10
131.6594624502
 20
17.5738015891
 11
131.7553444597
 21
17.5691254668
  0
LINE
  5
3FF
100
AcDbEntity
  8
0
100
AcDbLine
 62
7
  6
CONTINUOUS
 10
153.4976699021
 20
36.6682851068
 11
153.4750603507
 21
36.6694291714
  0
LINE
  5
400
100
AcDbEntity
  8
0
100
AcDbLine
 62
7
  6
CONTINUOUS
 10
131.6222843284
 20
17.6070393922
 11
131.6987315891
 21
17.6031247056
  0
LINE
  5
401
100
AcDbEntity
  8
0
100
AcDbLine
 62
7
  6
CONTINUOUS
 10
140.5430204816
 20
17.5541411489
 11
140.6179110721
 21
17.5502216841
  0
LINE
  5
402
100
AcDbEntity
  8
0
100
AcDbLine
 62
7
  6
CONTINUOUS
 10
131.5806153779
 20
17.5780532662
 11
131.6594624502
 21
17.5738015891
  0
LINE
  5
403
100
AcDbEntity
  8
0
100
AcDbLine
 62
7
  6
CONTINUOUS
 10
131.558580485
 20
17.6106513256
 11
131.6222843284
 21
17.6070393922
  0
LINE
  5
404
100
AcDbEntity
  8
0
100
AcDbLine
 62
7
  6
CONTINUOUS
 10
138.9920909583
 20
34.3187867686
 11
139.041103168
 21
34.3157807593
  0
LINE
  5
405
100
AcDbEntity
  8
0
100
AcDbLine
 62
7
  6
CONTINUOUS
 10
138.8515726449
 20
16.9133232073
 11
138.8659424699
 21
16.9124386732
  0
LINE
  5
406
100
AcDbEntity
  8
0
100
AcDbLine
 62
7
  6
CONTINUOUS
 10
131.5184304288
 20
17.5819010189
 11
131.5806153779
 21
17.5780532662
  0
LINE
  5
407
100
AcDbEntity
  8
0
100
AcDbLine
 62
7
  6
CONTINUOUS
 10
131.2883455544
 20
17.7277036564
 11
131.3604227678
 21
17.7232490533
  0
LINE
  5
408
100
AcDbEntity
  8
0
100
AcDbLine
 62
7
  6
CONTINUOUS
 10
138.8933669771
 20
31.968933057
 11
138.8438164924
 21
31.9720231455
  0
LINE
  5
409
100
AcDbEntity
  8
0
100
AcDbLine
 62
7
  6
CONTINUOUS
 10
138.8438430282
 20
31.9894175993
 11
138.8933752708
 21
31.986329358
  0
LINE
  5
40A
100
AcDbEntity
  8
0
100
AcDbLine
 62
9
  6
CONTINUOUS
 10
153.4813327632
 20
36.6691247208
 11
153.5011191574
 21
36.6678642198
  0
LINE
  5
40B
100
AcDbEntity
  8
0
100
AcDbLine
 62
7
  6
CONTINUOUS
 10
131.5077909371
 20
17.613956704
 11
131.558580485
 21
17.6106513256
  0
LINE
  5
40C
100
AcDbEntity
  8
0
100
AcDbLine
 62
9
  6
CONTINUOUS
 10
145.7486619663
 20
17.6889073786
 11
145.8019850875
 21
17.6854063794
  0
LINE
  5
40D
100
AcDbEntity
  8
0
100
AcDbLine
 62
9
  6
CONTINUOUS
 10
145.8019850875
 20
17.6854063794
 11
145.9011454525
 21
17.6783584771
  0
LINE
  5
40E
100
AcDbEntity
  8
0
100
AcDbLine
 62
7
  6
CONTINUOUS
 10
131.4745207648
 20
17.5852489243
 11
131.5184304288
 21
17.5819010189
  0
LINE
  5
40F
100
AcDbEntity
  8
0
100
AcDbLine
 62
7
  6
CONTINUOUS
 10
153.50800217
 20
36.666010649
 11
153.4840488717
 21
36.6678365857
  0
LINE
  5
410
100
AcDbEntity
  8
0
100
AcDbLine
 62
9
  6
CONTINUOUS
 10
145.9011454525
 20
17.6783584771
 11
145.9404195736
 21
17.6753488205
  0
LINE
  5
411
100
AcDbEntity
  8
0
100
AcDbLine
 62
7
  6
CONTINUOUS
 10
138.8362046447
 20
16.9145229925
 11
138.8515726449
 21
16.9133232073
  0
LINE
  5
412
100
AcDbEntity
  8
0
100
AcDbLine
 62
7
  6
CONTINUOUS
 10
131.4713462431
 20
17.6168846114
 11
131.5077909371
 21
17.613956704
  0
LINE
  5
413
100
AcDbEntity
  8
0
100
AcDbLine
 62
9
  6
CONTINUOUS
 10
145.9404195736
 20
17.6753488205
 11
145.9737412774
 21
17.6726387638
  0
LINE
  5
414
100
AcDbEntity
  8
0
100
AcDbLine
 62
9
  6
CONTINUOUS
 10
145.9737412774
 20
17.6726387638
 11
146.0016867359
 21
17.6702109154
  0
LINE
  5
415
100
AcDbEntity
  8
0
100
AcDbLine
 62
7
  6
CONTINUOUS
 10
131.2071395401
 20
17.7353677901
 11
131.2883455544
 21
17.7277036564
  0
LINE
  5
416
100
AcDbEntity
  8
0
100
AcDbLine
 62
9
  6
CONTINUOUS
 10
146.0016867359
 20
17.6702109154
 11
146.0248268927
 21
17.6680142101
  0
LINE
  5
417
100
AcDbEntity
  8
0
100
AcDbLine
 62
7
  6
CONTINUOUS
 10
138.8192108224
 20
16.916160588
 11
138.8362046447
 21
16.9145229925
  0
LINE
  5
418
100
AcDbEntity
  8
0
100
AcDbLine
 62
7
  6
CONTINUOUS
 10
143.2476190492
 20
17.4994032557
 11
143.2399114158
 21
17.5001616093
  0
LINE
  5
419
100
AcDbEntity
  8
0
100
AcDbLine
 62
7
  6
CONTINUOUS
 10
143.2479610863
 20
17.4681893439
 11
143.2407782258
 21
17.4689243553
  0
LINE
  5
41A
100
AcDbEntity
  8
0
100
AcDbLine
 62
9
  6
CONTINUOUS
 10
146.0248268927
 20
17.6680142101
 11
146.04359389
 21
17.6660934002
  0
LINE
  5
41B
100
AcDbEntity
  8
0
100
AcDbLine
 62
7
  6
CONTINUOUS
 10
139.041103168
 20
34.3157807593
 11
139.0899622629
 21
34.3107744525
  0
LINE
  5
41C
100
AcDbEntity
  8
0
100
AcDbLine
 62
7
  6
CONTINUOUS
 10
138.8438164924
 20
31.9720231455
 11
138.7944240695
 21
31.9771692724
  0
LINE
  5
41D
100
AcDbEntity
  8
0
100
AcDbLine
 62
7
  6
CONTINUOUS
 10
138.7944789041
 20
31.9945590991
 11
138.8438430282
 21
31.9894175993
  0
LINE
  5
41E
100
AcDbEntity
  8
0
100
AcDbLine
 62
9
  6
CONTINUOUS
 10
146.04359389
 20
17.6660934002
 11
146.0643869107
 21
17.6638634803
  0
LINE
  5
41F
100
AcDbEntity
  8
0
100
AcDbLine
 62
7
  6
CONTINUOUS
 10
131.4494927415
 20
17.5879994254
 11
131.4745207648
 21
17.5852489243
  0
LINE
  5
420
100
AcDbEntity
  8
0
100
AcDbLine
 62
7
  6
CONTINUOUS
 10
153.5198024825
 20
36.665830743
 11
153.4976699021
 21
36.6682851068
  0
LINE
  5
421
100
AcDbEntity
  8
0
100
AcDbLine
 62
7
  6
CONTINUOUS
 10
138.8028473887
 20
16.9180496533
 11
138.8192108224
 21
16.916160588
  0
LINE
  5
422
100
AcDbEntity
  8
0
100
AcDbLine
 62
7
  6
CONTINUOUS
 10
131.4502007995
 20
17.6193538709
 11
131.4713462431
 21
17.6168846114
  0
LINE
  5
423
100
AcDbEntity
  8
0
100
AcDbLine
 62
9
  6
CONTINUOUS
 10
153.5011191574
 20
36.6678642198
 11
153.5208922546
 21
36.6655507222
  0
LINE
  5
424
100
AcDbEntity
  8
0
100
AcDbLine
 62
7
  6
CONTINUOUS
 10
131.1265735203
 20
17.7457675848
 11
131.2071395401
 21
17.7353677901
  0
LINE
  5
425
100
AcDbEntity
  8
0
100
AcDbLine
 62
7
  6
CONTINUOUS
 10
138.7911252008
 20
16.919592944
 11
138.8028473887
 21
16.9180496533
  0
LINE
  5
426
100
AcDbEntity
  8
0
100
AcDbLine
 62
9
  6
CONTINUOUS
 10
146.0643869107
 20
17.6638634803
 11
146.0789459018
 21
17.6618665519
  0
LINE
  5
427
100
AcDbEntity
  8
0
100
AcDbLine
 62
7
  6
CONTINUOUS
 10
153.5313369361
 20
36.6627331842
 11
153.50800217
 21
36.666010649
  0
LINE
  5
428
100
AcDbEntity
  8
0
100
AcDbLine
 62
7
  6
CONTINUOUS
 10
139.0899622629
 20
34.3107744525
 11
139.1385646769
 21
34.3037777239
  0
LINE
  5
429
100
AcDbEntity
  8
0
100
AcDbLine
 62
7
  6
CONTINUOUS
 10
138.7782080221
 20
16.9214786445
 11
138.7911252008
 21
16.919592944
  0
LINE
  5
42A
100
AcDbEntity
  8
0
100
AcDbLine
 62
7
  6
CONTINUOUS
 10
138.7944240695
 20
31.9771692724
 11
138.7453179818
 21
31.984357188
  0
LINE
  5
42B
100
AcDbEntity
  8
0
100
AcDbLine
 62
7
  6
CONTINUOUS
 10
138.7454100449
 20
32.0017384925
 11
138.7944789041
 21
31.9945590991
  0
LINE
  5
42C
100
AcDbEntity
  8
0
100
AcDbLine
 62
7
  6
CONTINUOUS
 10
131.0466922461
 20
17.7588651916
 11
131.1265735203
 21
17.7457675848
  0
LINE
  5
42D
100
AcDbEntity
  8
0
100
AcDbLine
 62
7
  6
CONTINUOUS
 10
138.7578141826
 20
16.9248544724
 11
138.7782080221
 21
16.9214786445
  0
LINE
  5
42E
100
AcDbEntity
  8
0
100
AcDbLine
 62
7
  6
CONTINUOUS
 10
153.5416688999
 20
36.6620834723
 11
153.5198024825
 21
36.665830743
  0
LINE
  5
42F
100
AcDbEntity
  8
0
100
AcDbLine
 62
7
  6
CONTINUOUS
 10
143.4306795039
 20
17.4665785932
 11
143.4518510416
 21
17.4628871584
  0
LINE
  5
430
100
AcDbEntity
  8
0
100
AcDbLine
 62
7
  6
CONTINUOUS
 10
139.1385646769
 20
34.3037777239
 11
139.1867985922
 21
34.2948091015
  0
LINE
  5
431
100
AcDbEntity
  8
0
100
AcDbLine
 62
7
  6
CONTINUOUS
 10
138.6967632237
 20
32.0109299471
 11
138.7454100449
 21
32.0017384925
  0
LINE
  5
432
100
AcDbEntity
  8
0
100
AcDbLine
 62
7
  6
CONTINUOUS
 10
138.7453179818
 20
31.984357188
 11
138.6966258934
 21
31.9935620725
  0
LINE
  5
433
100
AcDbEntity
  8
0
100
AcDbLine
 62
7
  6
CONTINUOUS
 10
138.7354016658
 20
16.9291339832
 11
138.7578141826
 21
16.9248544724
  0
LINE
  5
434
100
AcDbEntity
  8
0
100
AcDbLine
 62
7
  6
CONTINUOUS
 10
136.9738593697
 20
17.5492102561
 11
136.9749436651
 21
17.5489972071
  0
LINE
  5
435
100
AcDbEntity
  8
0
100
AcDbLine
 62
7
  6
CONTINUOUS
 10
130.9675718342
 20
17.7746189965
 11
131.0466922461
 21
17.7588651916
  0
LINE
  5
436
100
AcDbEntity
  8
0
100
AcDbLine
 62
7
  6
CONTINUOUS
 10
153.554148608
 20
36.6580611115
 11
153.5313369361
 21
36.6627331842
  0
LINE
  5
437
100
AcDbEntity
  8
0
100
AcDbLine
 62
9
  6
CONTINUOUS
 10
146.0789459018
 20
17.6618665519
 11
146.0873999129
 21
17.6601296817
  0
LINE
  5
438
100
AcDbEntity
  8
0
100
AcDbLine
 62
7
  6
CONTINUOUS
 10
136.9749436651
 20
17.5489972071
 11
136.9770693827
 21
17.5485400954
  0
LINE
  5
439
100
AcDbEntity
  8
0
100
AcDbLine
 62
7
  6
CONTINUOUS
 10
138.714644274
 20
16.9336372663
 11
138.7354016658
 21
16.9291339832
  0
LINE
  5
43A
100
AcDbEntity
  8
0
100
AcDbLine
 62
7
  6
CONTINUOUS
 10
131.4396797379
 20
17.5901715984
 11
131.4494927415
 21
17.5879994254
  0
LINE
  5
43B
100
AcDbEntity
  8
0
100
AcDbLine
 62
7
  6
CONTINUOUS
 10
131.4412007073
 20
17.6213828389
 11
131.4502007995
 21
17.6193538709
  0
LINE
  5
43C
100
AcDbEntity
  8
0
100
AcDbLine
 62
7
  6
CONTINUOUS
 10
143.4518510416
 20
17.4628871584
 11
143.4753518319
 21
17.4575856321
  0
LINE
  5
43D
100
AcDbEntity
  8
0
100
AcDbLine
 62
9
  6
CONTINUOUS
 10
153.5405827497
 20
36.6621796896
 11
153.5601198705
 21
36.6577521177
  0
LINE
  5
43E
100
AcDbEntity
  8
0
100
AcDbLine
 62
7
  6
CONTINUOUS
 10
139.1867985922
 20
34.2948091015
 11
139.23461606
 21
34.2838794875
  0
LINE
  5
43F
100
AcDbEntity
  8
0
100
AcDbLine
 62
7
  6
CONTINUOUS
 10
138.6486038928
 20
32.0221120408
 11
138.6967632237
 21
32.0109299471
  0
LINE
  5
440
100
AcDbEntity
  8
0
100
AcDbLine
 62
7
  6
CONTINUOUS
 10
138.6966258934
 20
31.9935620725
 11
138.6484143577
 21
32.0047633654
  0
LINE
  5
441
100
AcDbEntity
  8
0
100
AcDbLine
 62
7
  6
CONTINUOUS
 10
153.5635868327
 20
36.65696723
 11
153.5416688999
 21
36.6620834723
  0
LINE
  5
442
100
AcDbEntity
  8
0
100
AcDbLine
 62
7
  6
CONTINUOUS
 10
130.889214133
 20
17.7930045238
 11
130.9675718342
 21
17.7746189965
  0
LINE
  5
443
100
AcDbEntity
  8
0
100
AcDbLine
 62
7
  6
CONTINUOUS
 10
136.9770693827
 20
17.5485400954
 11
136.9794763013
 21
17.5479720325
  0
LINE
  5
444
100
AcDbEntity
  8
0
100
AcDbLine
 62
7
  6
CONTINUOUS
 10
138.6944836538
 20
16.9385161624
 11
138.714644274
 21
16.9336372663
  0
LINE
  5
445
100
AcDbEntity
  8
0
100
AcDbLine
 62
7
  6
CONTINUOUS
 10
131.565588811
 20
17.576201946
 11
131.5841139087
 21
17.5716148205
  0
LINE
  5
446
100
AcDbEntity
  8
0
100
AcDbLine
 62
7
  6
CONTINUOUS
 10
136.9794763013
 20
17.5479720325
 11
136.9821785317
 21
17.5472705261
  0
LINE
  5
447
100
AcDbEntity
  8
0
100
AcDbLine
 62
7
  6
CONTINUOUS
 10
138.6766090516
 20
16.9432651417
 11
138.6944836538
 21
16.9385161624
  0
LINE
  5
448
100
AcDbEntity
  8
0
100
AcDbLine
 62
7
  6
CONTINUOUS
 10
153.5763262085
 20
36.6520733816
 11
153.554148608
 21
36.6580611115
  0
LINE
  5
449
100
AcDbEntity
  8
0
100
AcDbLine
 62
7
  6
CONTINUOUS
 10
130.811648826
 20
17.8139981536
 11
130.889214133
 21
17.7930045238
  0
LINE
  5
44A
100
AcDbEntity
  8
0
100
AcDbLine
 62
7
  6
CONTINUOUS
 10
139.23461606
 20
34.2838794875
 11
139.2819715199
 21
34.2709968155
  0
LINE
  5
44B
100
AcDbEntity
  8
0
100
AcDbLine
 62
7
  6
CONTINUOUS
 10
138.6009951999
 20
32.0352634499
 11
138.6486038928
 21
32.0221120408
  0
LINE
  5
44C
100
AcDbEntity
  8
0
100
AcDbLine
 62
7
  6
CONTINUOUS
 10
138.6484143577
 20
32.0047633654
 11
138.600747586
 21
32.0179404941
  0
LINE
  5
44D
100
AcDbEntity
  8
0
100
AcDbLine
 62
7
  6
CONTINUOUS
 10
143.4753518319
 20
17.4575856321
 11
143.5001379634
 21
17.4505807855
  0
LINE
  5
44E
100
AcDbEntity
  8
0
100
AcDbLine
 62
9
  6
CONTINUOUS
 10
153.5601198705
 20
36.6577521177
 11
153.5794341451
 21
36.6522752304
  0
LINE
  5
44F
100
AcDbEntity
  8
0
100
AcDbLine
 62
7
  6
CONTINUOUS
 10
136.9821785317
 20
17.5472705261
 11
136.9851460891
 21
17.5464220439
  0
LINE
  5
450
100
AcDbEntity
  8
0
100
AcDbLine
 62
7
  6
CONTINUOUS
 10
138.656421091
 20
16.9491160121
 11
138.6766090516
 21
16.9432651417
  0
LINE
  5
451
100
AcDbEntity
  8
0
100
AcDbLine
 62
7
  6
CONTINUOUS
 10
131.5841139087
 20
17.5716148205
 11
131.6057964262
 21
17.5651717402
  0
LINE
  5
452
100
AcDbEntity
  8
0
100
AcDbLine
 62
7
  6
CONTINUOUS
 10
153.585005903
 20
36.6505956785
 11
153.5635868327
 21
36.65696723
  0
LINE
  5
453
100
AcDbEntity
  8
0
100
AcDbLine
 62
7
  6
CONTINUOUS
 10
130.7348702707
 20
17.8375927692
 11
130.811648826
 21
17.8139981536
  0
LINE
  5
454
100
AcDbEntity
  8
0
100
AcDbLine
 62
7
  6
CONTINUOUS
 10
136.9851460891
 20
17.5464220439
 11
136.9883622253
 21
17.545409042
  0
LINE
  5
455
100
AcDbEntity
  8
0
100
AcDbLine
 62
7
  6
CONTINUOUS
 10
139.2819715199
 20
34.2709968155
 11
139.3287464566
 21
34.2561907388
  0
LINE
  5
456
100
AcDbEntity
  8
0
100
AcDbLine
 62
7
  6
CONTINUOUS
 10
138.5540632072
 20
32.0503406794
 11
138.6009951999
 21
32.0352634499
  0
LINE
  5
457
100
AcDbEntity
  8
0
100
AcDbLine
 62
7
  6
CONTINUOUS
 10
138.600747586
 20
32.0179404941
 11
138.5537529853
 21
32.0330504874
  0
LINE
  5
458
100
AcDbEntity
  8
0
100
AcDbLine
 62
7
  6
CONTINUOUS
 10
138.6268650738
 20
16.9586365666
 11
138.656421091
 21
16.9491160121
  0
LINE
  5
459
100
AcDbEntity
  8
0
100
AcDbLine
 62
7
  6
CONTINUOUS
 10
153.5977987567
 20
36.6448490645
 11
153.5763262085
 21
36.6520733816
  0
LINE
  5
45A
100
AcDbEntity
  8
0
100
AcDbLine
 62
9
  6
CONTINUOUS
 10
153.5794341451
 20
36.6522752304
 11
153.5984561859
 21
36.6457618233
  0
LINE
  5
45B
100
AcDbEntity
  8
0
100
AcDbLine
 62
7
  6
CONTINUOUS
 10
130.6588668763
 20
17.8637938873
 11
130.7348702707
 21
17.8375927692
  0
LINE
  5
45C
100
AcDbEntity
  8
0
100
AcDbLine
 62
7
  6
CONTINUOUS
 10
143.5001379634
 20
17.4505807855
 11
143.5259585072
 21
17.4416707132
  0
LINE
  5
45D
100
AcDbEntity
  8
0
100
AcDbLine
 62
7
  6
CONTINUOUS
 10
136.9883622253
 20
17.545409042
 11
136.9917951808
 21
17.5442184443
  0
LINE
  5
45E
100
AcDbEntity
  8
0
100
AcDbLine
 62
7
  6
CONTINUOUS
 10
131.6057964262
 20
17.5651717402
 11
131.6299275601
 21
17.5566001501
  0
LINE
  5
45F
100
AcDbEntity
  8
0
100
AcDbLine
 62
7
  6
CONTINUOUS
 10
138.5975766416
 20
16.9692249956
 11
138.6268650738
 21
16.9586365666
  0
LINE
  5
460
100
AcDbEntity
  8
0
100
AcDbLine
 62
7
  6
CONTINUOUS
 10
139.3287464566
 20
34.2561907388
 11
139.374823883
 21
34.2395007703
  0
LINE
  5
461
100
AcDbEntity
  8
0
100
AcDbLine
 62
7
  6
CONTINUOUS
 10
153.6053582824
 20
36.6432170939
 11
153.585005903
 21
36.6505956785
  0
LINE
  5
462
100
AcDbEntity
  8
0
100
AcDbLine
 62
7
  6
CONTINUOUS
 10
138.5079382537
 20
32.0672864076
 11
138.5540632072
 21
32.0503406794
  0
LINE
  5
463
100
AcDbEntity
  8
0
100
AcDbLine
 62
7
  6
CONTINUOUS
 10
138.5537529853
 20
32.0330504874
 11
138.5075609219
 21
32.050036886
  0
LINE
  5
464
100
AcDbEntity
  8
0
100
AcDbLine
 62
7
  6
CONTINUOUS
 10
136.9917951808
 20
17.5442184443
 11
136.995414947
 21
17.5428376549
  0
LINE
  5
465
100
AcDbEntity
  8
0
100
AcDbLine
 62
7
  6
CONTINUOUS
 10
130.5837000751
 20
17.8925895803
 11
130.6588668763
 21
17.8637938873
  0
LINE
  5
466
100
AcDbEntity
  8
0
100
AcDbLine
 62
7
  6
CONTINUOUS
 10
138.5769970123
 20
16.977376264
 11
138.5975766416
 21
16.9692249956
  0
LINE
  5
467
100
AcDbEntity
  8
0
100
AcDbLine
 62
9
  6
CONTINUOUS
 10
153.5984561859
 20
36.6457618233
 11
153.617118118
 21
36.638230939
  0
LINE
  5
468
100
AcDbEntity
  8
0
100
AcDbLine
 62
7
  6
CONTINUOUS
 10
153.6185914807
 20
36.6364313024
 11
153.5977987567
 21
36.6448490645
  0
LINE
  5
469
100
AcDbEntity
  8
0
100
AcDbLine
 62
7
  6
CONTINUOUS
 10
139.374823883
 20
34.2395007703
 11
139.4201651011
 21
34.220943198
  0
LINE
  5
46A
100
AcDbEntity
  8
0
100
AcDbLine
 62
7
  6
CONTINUOUS
 10
143.5259585072
 20
17.4416707132
 11
143.5523492399
 21
17.4307595467
  0
LINE
  5
46B
100
AcDbEntity
  8
0
100
AcDbLine
 62
7
  6
CONTINUOUS
 10
138.4626504096
 20
32.0860731859
 11
138.5079382537
 21
32.0672864076
  0
LINE
  5
46C
100
AcDbEntity
  8
0
100
AcDbLine
 62
7
  6
CONTINUOUS
 10
138.5075609219
 20
32.050036886
 11
138.4622065943
 21
32.0688709751
  0
LINE
  5
46D
100
AcDbEntity
  8
0
100
AcDbLine
 62
7
  6
CONTINUOUS
 10
136.995414947
 20
17.5428376549
 11
136.9991962932
 21
17.5412532799
  0
LINE
  5
46E
100
AcDbEntity
  8
0
100
AcDbLine
 62
7
  6
CONTINUOUS
 10
131.6299275601
 20
17.5566001501
 11
131.6557496622
 21
17.5457079635
  0
LINE
  5
46F
100
AcDbEntity
  8
0
100
AcDbLine
 62
7
  6
CONTINUOUS
 10
130.5094096885
 20
17.9239786125
 11
130.5837000751
 21
17.8925895803
  0
LINE
  5
470
100
AcDbEntity
  8
0
100
AcDbLine
 62
7
  6
CONTINUOUS
 10
138.5603380529
 20
16.9844184403
 11
138.5769970123
 21
16.977376264
  0
LINE
  5
471
100
AcDbEntity
  8
0
100
AcDbLine
 62
7
  6
CONTINUOUS
 10
153.6251614851
 20
36.6347178586
 11
153.6053582824
 21
36.6432170939
  0
LINE
  5
472
100
AcDbEntity
  8
0
100
AcDbLine
 62
7
  6
CONTINUOUS
 10
138.5465795391
 20
16.9905419407
 11
138.5603380529
 21
16.9844184403
  0
LINE
  5
473
100
AcDbEntity
  8
0
100
AcDbLine
 62
7
  6
CONTINUOUS
 10
139.4201651011
 20
34.220943198
 11
139.4647317973
 21
34.2005304016
  0
LINE
  5
474
100
AcDbEntity
  8
0
100
AcDbLine
 62
7
  6
CONTINUOUS
 10
136.9991962932
 20
17.5412532799
 11
137.0031030759
 21
17.5394579842
  0
LINE
  5
475
100
AcDbEntity
  8
0
100
AcDbLine
 62
7
  6
CONTINUOUS
 10
130.4360595902
 20
17.9579529869
 11
130.5094096885
 21
17.9239786125
  0
LINE
  5
476
100
AcDbEntity
  8
0
100
AcDbLine
 62
7
  6
CONTINUOUS
 10
138.4182378407
 20
32.1066742724
 11
138.4626504096
 21
32.0860731859
  0
LINE
  5
477
100
AcDbEntity
  8
0
100
AcDbLine
 62
7
  6
CONTINUOUS
 10
138.4622065943
 20
32.0688709751
 11
138.417731439
 21
32.0895247563
  0
LINE
  5
478
100
AcDbEntity
  8
0
100
AcDbLine
 62
7
  6
CONTINUOUS
 10
138.5332032414
 20
16.9967684671
 11
138.5465795391
 21
16.9905419407
  0
LINE
  5
479
100
AcDbEntity
  8
0
100
AcDbLine
 62
9
  6
CONTINUOUS
 10
153.617118118
 20
36.638230939
 11
153.6353515672
 21
36.6297079421
  0
LINE
  5
47A
100
AcDbEntity
  8
0
100
AcDbLine
 62
7
  6
CONTINUOUS
 10
153.6386079579
 20
36.6269063126
 11
153.6185914807
 21
36.6364313024
  0
LINE
  5
47B
100
AcDbEntity
  8
0
100
AcDbLine
 62
7
  6
CONTINUOUS
 10
138.5172987869
 20
17.0045312003
 11
138.5332032414
 21
16.9967684671
  0
LINE
  5
47C
100
AcDbEntity
  8
0
100
AcDbLine
 62
7
  6
CONTINUOUS
 10
143.5523492399
 20
17.4307595467
 11
143.5789271156
 21
17.417783936
  0
LINE
  5
47D
100
AcDbEntity
  8
0
100
AcDbLine
 62
7
  6
CONTINUOUS
 10
131.6557496622
 20
17.5457079635
 11
131.6824853797
 21
17.5324169207
  0
LINE
  5
47E
100
AcDbEntity
  8
0
100
AcDbLine
 62
7
  6
CONTINUOUS
 10
153.644899119
 20
36.6248508686
 11
153.6251614851
 21
36.6347178586
  0
LINE
  5
47F
100
AcDbEntity
  8
0
100
AcDbLine
 62
7
  6
CONTINUOUS
 10
137.0031030759
 20
17.5394579842
 11
137.0071349373
 21
17.5374285478
  0
LINE
  5
480
100
AcDbEntity
  8
0
100
AcDbLine
 62
7
  6
CONTINUOUS
 10
130.3637063736
 20
17.9945098704
 11
130.4360595902
 21
17.9579529869
  0
LINE
  5
481
100
AcDbEntity
  8
0
100
AcDbLine
 62
7
  6
CONTINUOUS
 10
139.4647317973
 20
34.2005304016
 11
139.5084055878
 21
34.1783132558
  0
LINE
  5
482
100
AcDbEntity
  8
0
100
AcDbLine
 62
7
  6
CONTINUOUS
 10
138.3748008885
 20
32.129032411
 11
138.4182378407
 21
32.1066742724
  0
LINE
  5
483
100
AcDbEntity
  8
0
100
AcDbLine
 62
7
  6
CONTINUOUS
 10
138.4994411626
 20
17.0137263114
 11
138.5172987869
 21
17.0045312003
  0
LINE
  5
484
100
AcDbEntity
  8
0
100
AcDbLine
 62
7
  6
CONTINUOUS
 10
138.417731439
 20
32.0895247563
 11
138.3742402145
 21
32.111938457
  0
LINE
  5
485
100
AcDbEntity
  8
0
100
AcDbLine
 62
9
  6
CONTINUOUS
 10
153.6353515672
 20
36.6297079421
 11
153.6530996599
 21
36.6202195534
  0
LINE
  5
486
100
AcDbEntity
  8
0
100
AcDbLine
 62
7
  6
CONTINUOUS
 10
138.4794638184
 20
17.0246351891
 11
138.4994411626
 21
17.0137263114
  0
LINE
  5
487
100
AcDbEntity
  8
0
100
AcDbLine
 62
7
  6
CONTINUOUS
 10
130.2924231444
 20
18.0336399465
 11
130.3637063736
 21
17.9945098704
  0
LINE
  5
488
100
AcDbEntity
  8
0
100
AcDbLine
 62
7
  6
CONTINUOUS
 10
137.0071349373
 20
17.5374285478
 11
137.0112687448
 21
17.5351512832
  0
LINE
  5
489
100
AcDbEntity
  8
0
100
AcDbLine
 62
7
  6
CONTINUOUS
 10
153.6581437853
 20
36.6161461585
 11
153.6386079579
 21
36.6269063126
  0
LINE
  5
48A
100
AcDbEntity
  8
0
100
AcDbLine
 62
7
  6
CONTINUOUS
 10
139.5084055878
 20
34.1783132558
 11
139.5510717856
 21
34.1543530755
  0
LINE
  5
48B
100
AcDbEntity
  8
0
100
AcDbLine
 62
7
  6
CONTINUOUS
 10
138.3324401511
 20
32.1530801881
 11
138.3748008885
 21
32.129032411
  0
LINE
  5
48C
100
AcDbEntity
  8
0
100
AcDbLine
 62
7
  6
CONTINUOUS
 10
138.3742402145
 20
32.111938457
 11
138.3318383655
 21
32.1360409632
  0
LINE
  5
48D
100
AcDbEntity
  8
0
100
AcDbLine
 62
7
  6
CONTINUOUS
 10
143.5789271156
 20
17.417783936
 11
143.6052399165
 21
17.4027839932
  0
LINE
  5
48E
100
AcDbEntity
  8
0
100
AcDbLine
 62
7
  6
CONTINUOUS
 10
153.6639319896
 20
36.613895554
 11
153.644899119
 21
36.6248508686
  0
LINE
  5
48F
100
AcDbEntity
  8
0
100
AcDbLine
 62
7
  6
CONTINUOUS
 10
131.6824853797
 20
17.5324169207
 11
131.7095992711
 21
17.516641137
  0
LINE
  5
490
100
AcDbEntity
  8
0
100
AcDbLine
 62
7
  6
CONTINUOUS
 10
138.459542668
 20
17.0362423796
 11
138.4794638184
 21
17.0246351891
  0
LINE
  5
491
100
AcDbEntity
  8
0
100
AcDbLine
 62
9
  6
CONTINUOUS
 10
146.0873999129
 20
17.6601296817
 11
146.0898743613
 21
17.6586792577
  0
LINE
  5
492
100
AcDbEntity
  8
0
100
AcDbLine
 62
7
  6
CONTINUOUS
 10
130.2222559557
 20
18.0753510505
 11
130.2924231444
 21
18.0336399465
  0
LINE
  5
493
100
AcDbEntity
  8
0
100
AcDbLine
 62
7
  6
CONTINUOUS
 10
137.0112687448
 20
17.5351512832
 11
137.0155256022
 21
17.5325850324
  0
LINE
  5
494
100
AcDbEntity
  8
0
100
AcDbLine
 62
9
  6
CONTINUOUS
 10
153.6530996599
 20
36.6202195534
 11
153.6703027373
 21
36.6097988524
  0
LINE
  5
495
100
AcDbEntity
  8
0
100
AcDbLine
 62
7
  6
CONTINUOUS
 10
139.5510717856
 20
34.1543530755
 11
139.5927001585
 21
34.128669731
  0
LINE
  5
496
100
AcDbEntity
  8
0
100
AcDbLine
 62
7
  6
CONTINUOUS
 10
138.2911727082
 20
32.1787931808
 11
138.3324401511
 21
32.1530801881
  0
LINE
  5
497
100
AcDbEntity
  8
0
100
AcDbLine
 62
7
  6
CONTINUOUS
 10
138.3318383655
 20
32.1360409632
 11
138.2905427052
 21
32.1618064196
  0
LINE
  5
498
100
AcDbEntity
  8
0
100
AcDbLine
 62
7
  6
CONTINUOUS
 10
153.6777333693
 20
36.6037521609
 11
153.6581437853
 21
36.6161461585
  0
LINE
  5
499
100
AcDbEntity
  8
0
100
AcDbLine
 62
7
  6
CONTINUOUS
 10
130.1533541564
 20
18.1195881989
 11
130.2222559557
 21
18.0753510505
  0
LINE
  5
49A
100
AcDbEntity
  8
0
100
AcDbLine
 62
7
  6
CONTINUOUS
 10
153.6816822707
 20
36.602269545
 11
153.6639319896
 21
36.613895554
  0
LINE
  5
49B
100
AcDbEntity
  8
0
100
AcDbLine
 62
7
  6
CONTINUOUS
 10
137.0155256022
 20
17.5325850324
 11
137.0199071224
 21
17.5296918318
  0
LINE
  5
49C
100
AcDbEntity
  8
0
100
AcDbLine
 62
7
  6
CONTINUOUS
 10
143.6052399165
 20
17.4027839932
 11
143.6310734779
 21
17.3857286949
  0
LINE
  5
49D
100
AcDbEntity
  8
0
100
AcDbLine
 62
7
  6
CONTINUOUS
 10
139.5927001585
 20
34.128669731
 11
139.6332589957
 21
34.1012788558
  0
LINE
  5
49E
100
AcDbEntity
  8
0
100
AcDbLine
 62
7
  6
CONTINUOUS
 10
131.7095992711
 20
17.516641137
 11
131.7364550209
 21
17.4984556387
  0
LINE
  5
49F
100
AcDbEntity
  8
0
100
AcDbLine
 62
7
  6
CONTINUOUS
 10
138.2510176623
 20
32.2061524851
 11
138.2911727082
 21
32.1787931808
  0
LINE
  5
4A0
100
AcDbEntity
  8
0
100
AcDbLine
 62
9
  6
CONTINUOUS
 10
153.6703027373
 20
36.6097988524
 11
153.6869168329
 21
36.5984745016
  0
LINE
  5
4A1
100
AcDbEntity
  8
0
100
AcDbLine
 62
7
  6
CONTINUOUS
 10
138.2905427052
 20
32.1618064196
 11
138.2503740198
 21
32.189213055
  0
LINE
  5
4A2
100
AcDbEntity
  8
0
100
AcDbLine
 62
7
  6
CONTINUOUS
 10
130.0858302466
 20
18.1663088494
 11
130.1533541564
 21
18.1195881989
  0
LINE
  5
4A3
100
AcDbEntity
  8
0
100
AcDbLine
 62
7
  6
CONTINUOUS
 10
153.6963304355
 20
36.5903173397
 11
153.6777333693
 21
36.6037521609
  0
LINE
  5
4A4
100
AcDbEntity
  8
0
100
AcDbLine
 62
7
  6
CONTINUOUS
 10
137.0199071224
 20
17.5296918318
 11
137.0244190417
 21
17.5264224103
  0
LINE
  5
4A5
100
AcDbEntity
  8
0
100
AcDbLine
 62
7
  6
CONTINUOUS
 10
139.6332589957
 20
34.1012788558
 11
139.6726364594
 21
34.0722519546
  0
LINE
  5
4A6
100
AcDbEntity
  8
0
100
AcDbLine
 62
7
  6
CONTINUOUS
 10
153.6987288221
 20
36.5896720804
 11
153.6816822707
 21
36.602269545
  0
LINE
  5
4A7
100
AcDbEntity
  8
0
100
AcDbLine
 62
7
  6
CONTINUOUS
 10
138.2120716541
 20
32.2350863316
 11
138.2510176623
 21
32.2061524851
  0
LINE
  5
4A8
100
AcDbEntity
  8
0
100
AcDbLine
 62
7
  6
CONTINUOUS
 10
138.2503740198
 20
32.189213055
 11
138.211426569
 21
32.2181887335
  0
LINE
  5
4A9
100
AcDbEntity
  8
0
100
AcDbLine
 62
7
  6
CONTINUOUS
 10
130.0198264928
 20
18.2154399232
 11
130.0858302466
 21
18.1663088494
  0
LINE
  5
4AA
100
AcDbEntity
  8
0
100
AcDbLine
 62
7
  6
CONTINUOUS
 10
143.6310734779
 20
17.3857286949
 11
143.6561576893
 21
17.3666515196
  0
LINE
  5
4AB
100
AcDbEntity
  8
0
100
AcDbLine
 62
9
  6
CONTINUOUS
 10
153.6869168329
 20
36.5984745016
 11
153.7028986555
 21
36.5862768662
  0
LINE
  5
4AC
100
AcDbEntity
  8
0
100
AcDbLine
 62
7
  6
CONTINUOUS
 10
131.7364550209
 20
17.4984556387
 11
131.7626932995
 21
17.4778567971
  0
LINE
  5
4AD
100
AcDbEntity
  8
0
100
AcDbLine
 62
7
  6
CONTINUOUS
 10
137.0244190417
 20
17.5264224103
 11
137.0290583478
 21
17.522722401
  0
LINE
  5
4AE
100
AcDbEntity
  8
0
100
AcDbLine
 62
7
  6
CONTINUOUS
 10
129.955471964
 20
18.2669041738
 11
130.0198264928
 21
18.2154399232
  0
LINE
  5
4AF
100
AcDbEntity
  8
0
100
AcDbLine
 62
7
  6
CONTINUOUS
 10
139.6726364594
 20
34.0722519546
 11
139.7107271272
 21
34.0416702273
  0
LINE
  5
4B0
100
AcDbEntity
  8
0
100
AcDbLine
 62
7
  6
CONTINUOUS
 10
138.1744268457
 20
32.2655141638
 11
138.2120716541
 21
32.2350863316
  0
LINE
  5
4B1
100
AcDbEntity
  8
0
100
AcDbLine
 62
7
  6
CONTINUOUS
 10
138.211426569
 20
32.2181887335
 11
138.1737909871
 21
32.2486521971
  0
LINE
  5
4B2
100
AcDbEntity
  8
0
100
AcDbLine
 62
7
  6
CONTINUOUS
 10
153.713177688
 20
36.5765474769
 11
153.6963304355
 21
36.5903173397
  0
LINE
  5
4B3
100
AcDbEntity
  8
0
100
AcDbLine
 62
7
  6
CONTINUOUS
 10
153.7155723982
 20
36.5756594012
 11
153.6987288221
 21
36.5896720804
  0
LINE
  5
4B4
100
AcDbEntity
  8
0
100
AcDbLine
 62
9
  6
CONTINUOUS
 10
153.7028986555
 20
36.5862768662
 11
153.718202037
 21
36.5732416519
  0
LINE
  5
4B5
100
AcDbEntity
  8
0
100
AcDbLine
 62
7
  6
CONTINUOUS
 10
129.8928885384
 20
18.320616842
 11
129.955471964
 21
18.2669041738
  0
LINE
  5
4B6
100
AcDbEntity
  8
0
100
AcDbLine
 62
7
  6
CONTINUOUS
 10
143.2311919556
 20
17.512391026
 11
143.226455764
 21
17.5164577622
  0
LINE
  5
4B7
100
AcDbEntity
  8
0
100
AcDbLine
 62
7
  6
CONTINUOUS
 10
139.7107271272
 20
34.0416702273
 11
139.7475065011
 21
34.0095569119
  0
LINE
  5
4B8
100
AcDbEntity
  8
0
100
AcDbLine
 62
7
  6
CONTINUOUS
 10
143.6561576893
 20
17.3666515196
 11
143.6802339765
 21
17.3456214933
  0
LINE
  5
4B9
100
AcDbEntity
  8
0
100
AcDbLine
 62
7
  6
CONTINUOUS
 10
138.1380927614
 20
32.2974175066
 11
138.1744268457
 21
32.2655141638
  0
LINE
  5
4BA
100
AcDbEntity
  8
0
100
AcDbLine
 62
7
  6
CONTINUOUS
 10
138.1737909871
 20
32.2486521971
 11
138.1374757437
 21
32.2805841245
  0
LINE
  5
4BB
100
AcDbEntity
  8
0
100
AcDbLine
 62
7
  6
CONTINUOUS
 10
137.0290583478
 20
17.522722401
 11
137.0338054535
 21
17.5185384861
  0
LINE
  5
4BC
100
AcDbEntity
  8
0
100
AcDbLine
 62
7
  6
CONTINUOUS
 10
131.7626932995
 20
17.4778567971
 11
131.7878775909
 21
17.4549729491
  0
LINE
  5
4BD
100
AcDbEntity
  8
0
100
AcDbLine
 62
7
  6
CONTINUOUS
 10
153.728629947
 20
36.562375786
 11
153.713177688
 21
36.5765474769
  0
LINE
  5
4BE
100
AcDbEntity
  8
0
100
AcDbLine
 62
7
  6
CONTINUOUS
 10
129.8322014289
 20
18.3764759281
 11
129.8928885384
 21
18.320616842
  0
LINE
  5
4BF
100
AcDbEntity
  8
0
100
AcDbLine
 62
7
  6
CONTINUOUS
 10
153.7315353559
 20
36.5607201663
 11
153.7155723982
 21
36.5756594012
  0
LINE
  5
4C0
100
AcDbEntity
  8
0
100
AcDbLine
 62
7
  6
CONTINUOUS
 10
139.7475065011
 20
34.0095569119
 11
139.7829468597
 21
33.9759317922
  0
LINE
  5
4C1
100
AcDbEntity
  8
0
100
AcDbLine
 62
9
  6
CONTINUOUS
 10
153.718202037
 20
36.5732416519
 11
153.732789347
 21
36.5594004477
  0
LINE
  5
4C2
100
AcDbEntity
  8
0
100
AcDbLine
 62
7
  6
CONTINUOUS
 10
143.2351012982
 20
17.5086684017
 11
143.2311919556
 21
17.512391026
  0
LINE
  5
4C3
100
AcDbEntity
  8
0
100
AcDbLine
 62
7
  6
CONTINUOUS
 10
138.1030845846
 20
32.3307818396
 11
138.1380927614
 21
32.2974175066
  0
LINE
  5
4C4
100
AcDbEntity
  8
0
100
AcDbLine
 62
7
  6
CONTINUOUS
 10
138.1374757437
 20
32.2805841245
 11
138.1024947117
 21
32.313969471
  0
LINE
  5
4C5
100
AcDbEntity
  8
0
100
AcDbLine
 62
7
  6
CONTINUOUS
 10
137.0338054535
 20
17.5185384861
 11
137.0371834093
 21
17.5152852148
  0
LINE
  5
4C6
100
AcDbEntity
  8
0
100
AcDbLine
 62
7
  6
CONTINUOUS
 10
129.7734926447
 20
18.4344063603
 11
129.8322014289
 21
18.3764759281
  0
LINE
  5
4C7
100
AcDbEntity
  8
0
100
AcDbLine
 62
7
  6
CONTINUOUS
 10
137.4063912261
 20
17.1460773367
 11
137.0371851267
 21
17.5152834361
  0
LINE
  5
4C8
100
AcDbEntity
  8
0
100
AcDbLine
 62
7
  6
CONTINUOUS
 10
143.6802339765
 20
17.3456214933
 11
143.7030580377
 21
17.322743573
  0
LINE
  5
4C9
100
AcDbEntity
  8
0
100
AcDbLine
 62
7
  6
CONTINUOUS
 10
153.7424261505
 20
36.5482707213
 11
153.728629947
 21
36.562375786
  0
LINE
  5
4CA
100
AcDbEntity
  8
0
100
AcDbLine
 62
7
  6
CONTINUOUS
 10
139.7829468597
 20
33.9759317922
 11
139.8169499208
 21
33.9408834871
  0
LINE
  5
4CB
100
AcDbEntity
  8
0
100
AcDbLine
 62
7
  6
CONTINUOUS
 10
138.0694862118
 20
32.36552816
 11
138.1030845846
 21
32.3307818396
  0
LINE
  5
4CC
100
AcDbEntity
  8
0
100
AcDbLine
 62
7
  6
CONTINUOUS
 10
138.1024947117
 20
32.313969471
 11
138.0689308687
 21
32.348728337
  0
LINE
  5
4CD
100
AcDbEntity
  8
0
100
AcDbLine
 62
7
  6
CONTINUOUS
 10
153.7460737843
 20
36.545462209
 11
153.7315353559
 21
36.5607201663
  0
LINE
  5
4CE
100
AcDbEntity
  8
0
100
AcDbLine
 62
7
  6
CONTINUOUS
 10
143.2324889626
 20
17.4818330624
 11
143.229259115
 21
17.4852246348
  0
LINE
  5
4CF
100
AcDbEntity
  8
0
100
AcDbLine
 62
7
  6
CONTINUOUS
 10
131.7878775909
 20
17.4549729491
 11
131.8117200774
 21
17.4298824311
  0
LINE
  5
4D0
100
AcDbEntity
  8
0
100
AcDbLine
 62
7
  6
CONTINUOUS
 10
129.7168591689
 20
18.4943091455
 11
129.7734926447
 21
18.4344063603
  0
LINE
  5
4D1
100
AcDbEntity
  8
0
100
AcDbLine
 62
7
  6
CONTINUOUS
 10
139.8169499208
 20
33.9408834871
 11
139.8494260671
 21
33.9045082275
  0
LINE
  5
4D2
100
AcDbEntity
  8
0
100
AcDbLine
 62
7
  6
CONTINUOUS
 10
138.0373756215
 20
32.4015707379
 11
138.0694862118
 21
32.36552816
  0
LINE
  5
4D3
100
AcDbEntity
  8
0
100
AcDbLine
 62
7
  6
CONTINUOUS
 10
138.0689308687
 20
32.348728337
 11
138.036860936
 21
32.384774486
  0
LINE
  5
4D4
100
AcDbEntity
  8
0
100
AcDbLine
 62
9
  6
CONTINUOUS
 10
131.7680721784
 20
17.6706770586
 11
131.7367275139
 21
17.7061625154
  0
LINE
  5
4D5
100
AcDbEntity
  8
0
100
AcDbLine
 62
7
  6
CONTINUOUS
 10
129.6623529507
 20
18.556124484
 11
129.7168591689
 21
18.4943091455
  0
LINE
  5
4D6
100
AcDbEntity
  8
0
100
AcDbLine
 62
7
  6
CONTINUOUS
 10
153.7556814128
 20
36.5331956436
 11
153.7424261505
 21
36.5482707213
  0
LINE
  5
4D7
100
AcDbEntity
  8
0
100
AcDbLine
 62
7
  6
CONTINUOUS
 10
143.7030580377
 20
17.322743573
 11
143.7244017949
 21
17.2981606478
  0
LINE
  5
4D8
100
AcDbEntity
  8
0
100
AcDbLine
 62
7
  6
CONTINUOUS
 10
153.7597399688
 20
36.529401781
 11
153.7460737843
 21
36.545462209
  0
LINE
  5
4D9
100
AcDbEntity
  8
0
100
AcDbLine
 62
7
  6
CONTINUOUS
 10
143.229259115
 20
17.4852246348
 11
143.2263908719
 21
17.4886519453
  0
LINE
  5
4DA
100
AcDbEntity
  8
0
100
AcDbLine
 62
7
  6
CONTINUOUS
 10
129.6100351219
 20
18.6197799487
 11
129.6623529507
 21
18.556124484
  0
LINE
  5
4DB
100
AcDbEntity
  8
0
100
AcDbLine
 62
7
  6
CONTINUOUS
 10
139.8494260671
 20
33.9045082275
 11
139.8803534913
 21
33.8668345869
  0
LINE
  5
4DC
100
AcDbEntity
  8
0
100
AcDbLine
 62
7
  6
CONTINUOUS
 10
138.0067638679
 20
32.4388943738
 11
138.0373756215
 21
32.4015707379
  0
LINE
  5
4DD
100
AcDbEntity
  8
0
100
AcDbLine
 62
7
  6
CONTINUOUS
 10
138.036860936
 20
32.384774486
 11
138.0062953732
 21
32.4220915867
  0
LINE
  5
4DE
100
AcDbEntity
  8
0
100
AcDbLine
 62
7
  6
CONTINUOUS
 10
131.8117200774
 20
17.4298824311
 11
131.8339242323
 21
17.4027300596
  0
LINE
  5
4DF
100
AcDbEntity
  8
0
100
AcDbLine
 62
9
  6
CONTINUOUS
 10
153.7460737843
 20
36.545462209
 11
153.7466127618
 21
36.5447979651
  0
LINE
  5
4E0
100
AcDbEntity
  8
0
100
AcDbLine
 62
7
  6
CONTINUOUS
 10
143.2399114158
 20
17.5001616093
 11
143.2380492805
 21
17.5024958956
  0
LINE
  5
4E1
100
AcDbEntity
  8
0
100
AcDbLine
 62
7
  6
CONTINUOUS
 10
153.7694635757
 20
36.5156082749
 11
153.7556814128
 21
36.5331956436
  0
LINE
  5
4E2
100
AcDbEntity
  8
0
100
AcDbLine
 62
7
  6
CONTINUOUS
 10
129.5599625087
 20
18.6852041934
 11
129.6100351219
 21
18.6197799487
  0
LINE
  5
4E3
100
AcDbEntity
  8
0
100
AcDbLine
 62
7
  6
CONTINUOUS
 10
143.2360863488
 20
17.4757172286
 11
143.2338731025
 21
17.4786091306
  0
LINE
  5
4E4
100
AcDbEntity
  8
0
100
AcDbLine
 62
7
  6
CONTINUOUS
 10
153.7729019197
 20
36.5120096197
 11
153.7597399688
 21
36.529401781
  0
LINE
  5
4E5
100
AcDbEntity
  8
0
100
AcDbLine
 62
7
  6
CONTINUOUS
 10
137.9776686592
 20
32.4774863495
 11
138.0067638679
 21
32.4388943738
  0
LINE
  5
4E6
100
AcDbEntity
  8
0
100
AcDbLine
 62
7
  6
CONTINUOUS
 10
139.8803534913
 20
33.8668345869
 11
139.9097067648
 21
33.8278886859
  0
LINE
  5
4E7
100
AcDbEntity
  8
0
100
AcDbLine
 62
7
  6
CONTINUOUS
 10
143.7244017949
 20
17.2981606478
 11
143.7439575966
 21
17.2721975005
  0
LINE
  5
4E8
100
AcDbEntity
  8
0
100
AcDbLine
 62
7
  6
CONTINUOUS
 10
138.0062953732
 20
32.4220915867
 11
137.9772505964
 21
32.4606665772
  0
LINE
  5
4E9
100
AcDbEntity
  8
0
100
AcDbLine
 62
7
  6
CONTINUOUS
 10
143.2407782258
 20
17.4689243553
 11
143.2393792647
 21
17.4708545445
  0
LINE
  5
4EA
100
AcDbEntity
  8
0
100
AcDbLine
 62
7
  6
CONTINUOUS
 10
129.5121902059
 20
18.7523242715
 11
129.5599625087
 21
18.6852041934
  0
LINE
  5
4EB
100
AcDbEntity
  8
0
100
AcDbLine
 62
7
  6
CONTINUOUS
 10
143.2254437058
 20
17.5206818457
 11
143.222510034
 21
17.5248462561
  0
LINE
  5
4EC
100
AcDbEntity
  8
0
100
AcDbLine
 62
7
  6
CONTINUOUS
 10
144.1494493355
 20
16.6930902069
 11
143.7439551095
 21
17.2721959776
  0
LINE
  5
4ED
100
AcDbEntity
  8
0
100
AcDbLine
 62
7
  6
CONTINUOUS
 10
131.8339242323
 20
17.4027300596
 11
131.8542070773
 21
17.3737241969
  0
LINE
  5
4EE
100
AcDbEntity
  8
0
100
AcDbLine
 62
7
  6
CONTINUOUS
 10
137.9501619667
 20
32.517263823
 11
137.9776686592
 21
32.4774863495
  0
LINE
  5
4EF
100
AcDbEntity
  8
0
100
AcDbLine
 62
7
  6
CONTINUOUS
 10
137.9772505964
 20
32.4606665772
 11
137.9497987953
 21
32.5004139941
  0
LINE
  5
4F0
100
AcDbEntity
  8
0
100
AcDbLine
 62
7
  6
CONTINUOUS
 10
153.782443881
 20
36.4968142053
 11
153.7694635757
 21
36.5156082749
  0
LINE
  5
4F1
100
AcDbEntity
  8
0
100
AcDbLine
 62
7
  6
CONTINUOUS
 10
139.9097067648
 20
33.8278886859
 11
139.9374052262
 21
33.7877724821
  0
LINE
  5
4F2
100
AcDbEntity
  8
0
100
AcDbLine
 62
7
  6
CONTINUOUS
 10
143.2244727844
 20
17.4921196637
 11
143.1511995392
 21
17.5988086687
  0
LINE
  5
4F3
100
AcDbEntity
  8
0
100
AcDbLine
 62
7
  6
CONTINUOUS
 10
143.2197301058
 20
17.5290197705
 11
143.2110194865
 21
17.5417174044
  0
LINE
  5
4F4
100
AcDbEntity
  8
0
100
AcDbLine
 62
7
  6
CONTINUOUS
 10
143.2110194865
 20
17.5417174044
 11
143.1715188935
 21
17.5993785231
  0
LINE
  5
4F5
100
AcDbEntity
  8
0
100
AcDbLine
 62
7
  6
CONTINUOUS
 10
143.2393792647
 20
17.4708545445
 11
143.2378249214
 21
17.473125637
  0
LINE
  5
4F6
100
AcDbEntity
  8
0
100
AcDbLine
 62
9
  6
CONTINUOUS
 10
153.7718183453
 20
36.513470121
 11
153.7831268322
 21
36.4968348808
  0
LINE
  5
4F7
100
AcDbEntity
  8
0
100
AcDbLine
 62
7
  6
CONTINUOUS
 10
143.2378249214
 20
17.473125637
 11
143.2360863488
 21
17.4757172286
  0
LINE
  5
4F8
100
AcDbEntity
  8
0
100
AcDbLine
 62
7
  6
CONTINUOUS
 10
153.7851157261
 20
36.4937457626
 11
153.7729019197
 21
36.5120096197
  0
LINE
  5
4F9
100
AcDbEntity
  8
0
100
AcDbLine
 62
7
  6
CONTINUOUS
 10
143.222510034
 20
17.5248462561
 11
143.2197301058
 21
17.5290197705
  0
LINE
  5
4FA
100
AcDbEntity
  8
0
100
AcDbLine
 62
7
  6
CONTINUOUS
 10
129.4667727454
 20
18.8210637207
 11
129.5121902059
 21
18.7523242715
  0
LINE
  5
4FB
100
AcDbEntity
  8
0
100
AcDbLine
 62
9
  6
CONTINUOUS
 10
131.8086763818
 20
17.6078470271
 11
131.7680721784
 21
17.6706770586
  0
LINE
  5
4FC
100
AcDbEntity
  8
0
100
AcDbLine
 62
7
  6
CONTINUOUS
 10
137.9243082013
 20
32.5581411895
 11
137.9501619667
 21
32.517263823
  0
LINE
  5
4FD
100
AcDbEntity
  8
0
100
AcDbLine
 62
7
  6
CONTINUOUS
 10
137.9497987953
 20
32.5004139941
 11
137.9240046758
 21
32.5412447188
  0
LINE
  5
4FE
100
AcDbEntity
  8
0
100
AcDbLine
 62
7
  6
CONTINUOUS
 10
139.9374052262
 20
33.7877724821
 11
139.963377954
 21
33.7465934599
  0
LINE
  5
4FF
100
AcDbEntity
  8
0
100
AcDbLine
 62
7
  6
CONTINUOUS
 10
143.2380492805
 20
17.5024958956
 11
143.2362639258
 21
17.5053328394
  0
LINE
  5
500
100
AcDbEntity
  8
0
100
AcDbLine
 62
7
  6
CONTINUOUS
 10
129.4237606152
 20
18.8913476135
 11
129.4667727454
 21
18.8210637207
  0
LINE
  5
501
100
AcDbEntity
  8
0
100
AcDbLine
 62
7
  6
CONTINUOUS
 10
153.7939490469
 20
36.4778083746
 11
153.782443881
 21
36.4968142053
  0
LINE
  5
502
100
AcDbEntity
  8
0
100
AcDbLine
 62
9
  6
CONTINUOUS
 10
153.7831268322
 20
36.4968348808
 11
153.7935225862
 21
36.4796240586
  0
LINE
  5
503
100
AcDbEntity
  8
0
100
AcDbLine
 62
7
  6
CONTINUOUS
 10
131.8542070773
 20
17.3737241969
 11
131.8723280974
 21
17.3431108783
  0
LINE
  5
504
100
AcDbEntity
  8
0
100
AcDbLine
 62
7
  6
CONTINUOUS
 10
153.7961610697
 20
36.4749398898
 11
153.7851157261
 21
36.4937457626
  0
LINE
  5
505
100
AcDbEntity
  8
0
100
AcDbLine
 62
7
  6
CONTINUOUS
 10
137.900128247
 20
32.6000965491
 11
137.9243082013
 21
32.5581411895
  0
LINE
  5
506
100
AcDbEntity
  8
0
100
AcDbLine
 62
7
  6
CONTINUOUS
 10
137.9240046758
 20
32.5412447188
 11
137.8998858211
 21
32.5831388375
  0
LINE
  5
507
100
AcDbEntity
  8
0
100
AcDbLine
 62
7
  6
CONTINUOUS
 10
139.963377954
 20
33.7465934599
 11
139.9876063166
 21
33.7043865705
  0
LINE
  5
508
100
AcDbEntity
  8
0
100
AcDbLine
 62
7
  6
CONTINUOUS
 10
129.3832081233
 20
18.9630893523
 11
129.4237606152
 21
18.8913476135
  0
LINE
  5
509
100
AcDbEntity
  8
0
100
AcDbLine
 62
7
  6
CONTINUOUS
 10
143.2263908719
 20
17.4886519453
 11
143.2244727844
 21
17.4921196637
  0
LINE
  5
50A
100
AcDbEntity
  8
0
100
AcDbLine
 62
9
  6
CONTINUOUS
 10
153.7935225862
 20
36.4796240586
 11
153.80298384
 21
36.4618738304
  0
LINE
  5
50B
100
AcDbEntity
  8
0
100
AcDbLine
 62
7
  6
CONTINUOUS
 10
153.8041761411
 20
36.4584245534
 11
153.7939490469
 21
36.4778083746
  0
LINE
  5
50C
100
AcDbEntity
  8
0
100
AcDbLine
 62
7
  6
CONTINUOUS
 10
137.8776474802
 20
32.6431107432
 11
137.900128247
 21
32.6000965491
  0
LINE
  5
50D
100
AcDbEntity
  8
0
100
AcDbLine
 62
7
  6
CONTINUOUS
 10
137.8998858211
 20
32.5831388375
 11
137.8774665864
 21
32.6260757016
  0
LINE
  5
50E
100
AcDbEntity
  8
0
100
AcDbLine
 62
7
  6
CONTINUOUS
 10
129.3451645814
 20
19.0362037375
 11
129.3832081233
 21
18.9630893523
  0
LINE
  5
50F
100
AcDbEntity
  8
0
100
AcDbLine
 62
7
  6
CONTINUOUS
 10
139.9876063166
 20
33.7043865705
 11
140.0100666868
 21
33.661188371
  0
LINE
  5
510
100
AcDbEntity
  8
0
100
AcDbLine
 62
7
  6
CONTINUOUS
 10
153.8060835363
 20
36.4555466898
 11
153.7961610697
 21
36.4749398898
  0
LINE
  5
511
100
AcDbEntity
  8
0
100
AcDbLine
 62
7
  6
CONTINUOUS
 10
129.3496650632
 20
19.0275544386
 11
129.3574100404
 21
19.0123111282
  0
LINE
  5
512
100
AcDbEntity
  8
0
100
AcDbLine
 62
7
  6
CONTINUOUS
 10
131.8723280974
 20
17.3431108783
 11
131.8880915525
 21
17.3111713581
  0
LINE
  5
513
100
AcDbEntity
  8
0
100
AcDbLine
 62
7
  6
CONTINUOUS
 10
129.3096778239
 20
19.110600801
 11
129.3451645814
 21
19.0362037375
  0
LINE
  5
514
100
AcDbEntity
  8
0
100
AcDbLine
 62
7
  6
CONTINUOUS
 10
137.8569295719
 20
32.6870921873
 11
137.8776474802
 21
32.6431107432
  0
LINE
  5
515
100
AcDbEntity
  8
0
100
AcDbLine
 62
7
  6
CONTINUOUS
 10
137.8774665864
 20
32.6260757016
 11
137.8568049949
 21
32.6699720466
  0
LINE
  5
516
100
AcDbEntity
  8
0
100
AcDbLine
 62
7
  6
CONTINUOUS
 10
140.0100666868
 20
33.661188371
 11
140.0307029125
 21
33.6171012093
  0
LINE
  5
517
100
AcDbEntity
  8
0
100
AcDbLine
 62
9
  6
CONTINUOUS
 10
153.80298384
 20
36.4618738304
 11
153.8114749807
 21
36.4436513057
  0
LINE
  5
518
100
AcDbEntity
  8
0
100
AcDbLine
 62
7
  6
CONTINUOUS
 10
153.8129718799
 20
36.439144484
 11
153.8041761411
 21
36.4584245534
  0
LINE
  5
519
100
AcDbEntity
  8
0
100
AcDbLine
 62
9
  6
CONTINUOUS
 10
131.7961311851
 20
17.6586798358
 11
131.7755069915
 21
17.7044506257
  0
LINE
  5
51A
100
AcDbEntity
  8
0
100
AcDbLine
 62
9
  6
CONTINUOUS
 10
131.8424131469
 20
17.6660938945
 11
131.8263588981
 21
17.7022190932
  0
LINE
  5
51B
100
AcDbEntity
  8
0
100
AcDbLine
 62
7
  6
CONTINUOUS
 10
153.8148653193
 20
36.4356047337
 11
153.8060835363
 21
36.4555466898
  0
LINE
  5
51C
100
AcDbEntity
  8
0
100
AcDbLine
 62
7
  6
CONTINUOUS
 10
129.2767919719
 20
19.1861896141
 11
129.3096778239
 21
19.110600801
  0
LINE
  5
51D
100
AcDbEntity
  8
0
100
AcDbLine
 62
7
  6
CONTINUOUS
 10
143.2338731025
 20
17.4786091306
 11
143.2324889626
 21
17.4818330624
  0
LINE
  5
51E
100
AcDbEntity
  8
0
100
AcDbLine
 62
7
  6
CONTINUOUS
 10
137.8380283606
 20
32.7319525134
 11
137.8569295719
 21
32.6870921873
  0
LINE
  5
51F
100
AcDbEntity
  8
0
100
AcDbLine
 62
7
  6
CONTINUOUS
 10
137.8568049949
 20
32.6699720466
 11
137.8379514982
 21
32.7147464599
  0
LINE
  5
520
100
AcDbEntity
  8
0
100
AcDbLine
 62
7
  6
CONTINUOUS
 10
140.0307029125
 20
33.6171012093
 11
140.0494680549
 21
33.5722286845
  0
LINE
  5
521
100
AcDbEntity
  8
0
100
AcDbLine
 62
7
  6
CONTINUOUS
 10
131.8880915525
 20
17.3111713581
 11
131.9006408509
 21
17.2801807851
  0
LINE
  5
522
100
AcDbEntity
  8
0
100
AcDbLine
 62
9
  6
CONTINUOUS
 10
153.8114749807
 20
36.4436513057
 11
153.818980363
 21
36.4249902853
  0
LINE
  5
523
100
AcDbEntity
  8
0
100
AcDbLine
 62
7
  6
CONTINUOUS
 10
129.2465477977
 20
19.2628776913
 11
129.2767919719
 21
19.1861896141
  0
LINE
  5
524
100
AcDbEntity
  8
0
100
AcDbLine
 62
7
  6
CONTINUOUS
 10
153.8208288541
 20
36.418937449
 11
153.8129718799
 21
36.439144484
  0
LINE
  5
525
100
AcDbEntity
  8
0
100
AcDbLine
 62
7
  6
CONTINUOUS
 10
131.4035336414
 20
17.7212480843
 11
131.4412007073
 21
17.6213828389
  0
LINE
  5
526
100
AcDbEntity
  8
0
100
AcDbLine
 62
7
  6
CONTINUOUS
 10
131.3903976853
 20
17.7218566723
 11
131.4396797379
 21
17.5901715984
  0
LINE
  5
527
100
AcDbEntity
  8
0
100
AcDbLine
 62
7
  6
CONTINUOUS
 10
137.8379514982
 20
32.7147464599
 11
137.8209366332
 21
32.7603582069
  0
LINE
  5
528
100
AcDbEntity
  8
0
100
AcDbLine
 62
7
  6
CONTINUOUS
 10
137.8209760888
 20
32.7776451048
 11
137.8380283606
 21
32.7319525134
  0
LINE
  5
529
100
AcDbEntity
  8
0
100
AcDbLine
 62
7
  6
CONTINUOUS
 10
153.8225004326
 20
36.4151086112
 11
153.8148653193
 21
36.4356047337
  0
LINE
  5
52A
100
AcDbEntity
  8
0
100
AcDbLine
 62
7
  6
CONTINUOUS
 10
140.0494680549
 20
33.5722286845
 11
140.0663433191
 21
33.5266195142
  0
LINE
  5
52B
100
AcDbEntity
  8
0
100
AcDbLine
 62
7
  6
CONTINUOUS
 10
131.9006128461
 20
17.2802499432
 11
132.0326756521
 21
16.9174103658
  0
LINE
  5
52C
100
AcDbEntity
  8
0
100
AcDbLine
 62
7
  6
CONTINUOUS
 10
131.7961313219
 20
17.6586794591
 11
131.8164771397
 21
17.602779784
  0
LINE
  5
52D
100
AcDbEntity
  8
0
100
AcDbLine
 62
7
  6
CONTINUOUS
 10
129.2189826745
 20
19.3405711012
 11
129.2465477977
 21
19.2628776913
  0
LINE
  5
52E
100
AcDbEntity
  8
0
100
AcDbLine
 62
7
  6
CONTINUOUS
 10
143.2362639258
 20
17.5053328394
 11
143.2351012982
 21
17.5086684017
  0
LINE
  5
52F
100
AcDbEntity
  8
0
100
AcDbLine
 62
9
  6
CONTINUOUS
 10
153.818980363
 20
36.4249902853
 11
153.82547036
 21
36.4059644309
  0
LINE
  5
530
100
AcDbEntity
  8
0
100
AcDbLine
 62
7
  6
CONTINUOUS
 10
137.8209366332
 20
32.7603582069
 11
137.8057900754
 21
32.8067770904
  0
LINE
  5
531
100
AcDbEntity
  8
0
100
AcDbLine
 62
7
  6
CONTINUOUS
 10
137.8058040912
 20
32.824130734
 11
137.8209760888
 21
32.7776451048
  0
LINE
  5
532
100
AcDbEntity
  8
0
100
AcDbLine
 62
7
  6
CONTINUOUS
 10
140.0663433191
 20
33.5266195142
 11
140.0813095519
 21
33.4803177824
  0
LINE
  5
533
100
AcDbEntity
  8
0
100
AcDbLine
 62
7
  6
CONTINUOUS
 10
153.8280663901
 20
36.3963677343
 11
153.8208288541
 21
36.418937449
  0
LINE
  5
534
100
AcDbEntity
  8
0
100
AcDbLine
 62
7
  6
CONTINUOUS
 10
129.1941305179
 20
19.419174614
 11
129.2189826745
 21
19.3405711012
  0
LINE
  5
535
100
AcDbEntity
  8
0
100
AcDbLine
 62
7
  6
CONTINUOUS
 10
153.8289775729
 20
36.3940209164
 11
153.8225004326
 21
36.4151086112
  0
LINE
  5
536
100
AcDbEntity
  8
0
100
AcDbLine
 62
9
  6
CONTINUOUS
 10
153.82547036
 20
36.4059644309
 11
153.8309335661
 21
36.3866075287
  0
LINE
  5
537
100
AcDbEntity
  8
0
100
AcDbLine
 62
7
  6
CONTINUOUS
 10
137.8057900754
 20
32.8067770904
 11
137.7925688182
 21
32.8538839567
  0
LINE
  5
538
100
AcDbEntity
  8
0
100
AcDbLine
 62
7
  6
CONTINUOUS
 10
137.7925669805
 20
32.8712909879
 11
137.8058040912
 21
32.824130734
  0
LINE
  5
539
100
AcDbEntity
  8
0
100
AcDbLine
 62
7
  6
CONTINUOUS
 10
129.172021744
 20
19.4985918197
 11
129.1941305179
 21
19.419174614
  0
LINE
  5
53A
100
AcDbEntity
  8
0
100
AcDbLine
 62
7
  6
CONTINUOUS
 10
140.0813095519
 20
33.4803177824
 11
140.0943258825
 21
33.4334431195
  0
LINE
  5
53B
100
AcDbEntity
  8
0
100
AcDbLine
 62
7
  6
CONTINUOUS
 10
153.8339755593
 20
36.3728730498
 11
153.8280663901
 21
36.3963677343
  0
LINE
  5
53C
100
AcDbEntity
  8
0
100
AcDbLine
 62
7
  6
CONTINUOUS
 10
153.8342523347
 20
36.3723592049
 11
153.8289775729
 21
36.3940209164
  0
LINE
  5
53D
100
AcDbEntity
  8
0
100
AcDbLine
 62
7
  6
CONTINUOUS
 10
129.1526832242
 20
19.5787252706
 11
129.172021744
 21
19.4985918197
  0
LINE
  5
53E
100
AcDbEntity
  8
0
100
AcDbLine
 62
7
  6
CONTINUOUS
 10
143.226455764
 20
17.5164577622
 11
143.2254437058
 21
17.5206818457
  0
LINE
  5
53F
100
AcDbEntity
  8
0
100
AcDbLine
 62
7
  6
CONTINUOUS
 10
137.7925688182
 20
32.8538839567
 11
137.7813160201
 21
32.901570823
  0
LINE
  5
540
100
AcDbEntity
  8
0
100
AcDbLine
 62
7
  6
CONTINUOUS
 10
137.7813063911
 20
32.9190158126
 11
137.7925669805
 21
32.8712909879
  0
LINE
  5
541
100
AcDbEntity
  8
0
100
AcDbLine
 62
7
  6
CONTINUOUS
 10
140.0943258825
 20
33.4334431195
 11
140.1053636056
 21
33.3861091374
  0
LINE
  5
542
100
AcDbEntity
  8
0
100
AcDbLine
 62
9
  6
CONTINUOUS
 10
153.8309335661
 20
36.3866075287
 11
153.8353484578
 21
36.3669953065
  0
LINE
  5
543
100
AcDbEntity
  8
0
100
AcDbLine
 62
7
  6
CONTINUOUS
 10
129.136138251
 20
19.6594766113
 11
129.1526832242
 21
19.5787252706
  0
LINE
  5
544
100
AcDbEntity
  8
0
100
AcDbLine
 62
7
  6
CONTINUOUS
 10
137.7813160201
 20
32.901570823
 11
137.7720619308
 21
32.9497544039
  0
LINE
  5
545
100
AcDbEntity
  8
0
100
AcDbLine
 62
7
  6
CONTINUOUS
 10
137.7720504313
 20
32.9672219492
 11
137.7813063911
 21
32.9190158126
  0
LINE
  5
546
100
AcDbEntity
  8
0
100
AcDbLine
 62
7
  6
CONTINUOUS
 10
140.1053636056
 20
33.3861091374
 11
140.1144099343
 21
33.3383902481
  0
LINE
  5
547
100
AcDbEntity
  8
0
100
AcDbLine
 62
7
  6
CONTINUOUS
 10
153.8382836098
 20
36.3495200672
 11
153.8339755593
 21
36.3728730498
  0
LINE
  5
548
100
AcDbEntity
  8
0
100
AcDbLine
 62
9
  6
CONTINUOUS
 10
153.8353484578
 20
36.3669953065
 11
153.8386993003
 21
36.347217394
  0
LINE
  5
549
100
AcDbEntity
  8
0
100
AcDbLine
 62
7
  6
CONTINUOUS
 10
129.1224065045
 20
19.7407467217
 11
129.136138251
 21
19.6594766113
  0
LINE
  5
54A
100
AcDbEntity
  8
0
100
AcDbLine
 62
7
  6
CONTINUOUS
 10
137.7720619308
 20
32.9497544039
 11
137.7648330834
 21
32.9983490623
  0
LINE
  5
54B
100
AcDbEntity
  8
0
100
AcDbLine
 62
7
  6
CONTINUOUS
 10
137.7648236197
 20
33.0158234943
 11
137.7720504313
 21
32.9672219492
  0
LINE
  5
54C
100
AcDbEntity
  8
0
100
AcDbLine
 62
7
  6
CONTINUOUS
 10
140.1144099343
 20
33.3383902481
 11
140.1214539957
 21
33.2903633139
  0
LINE
  5
54D
100
AcDbEntity
  8
0
100
AcDbLine
 62
7
  6
CONTINUOUS
 10
129.1134213982
 20
19.8063635414
 11
129.1224065045
 21
19.7407467217
  0
LINE
  5
54E
100
AcDbEntity
  8
0
100
AcDbLine
 62
7
  6
CONTINUOUS
 10
127.2280976221
 20
35.1612423796
 11
129.1134756217
 21
19.8061784047
  0
LINE
  5
54F
100
AcDbEntity
  8
0
100
AcDbLine
 62
7
  6
CONTINUOUS
 10
153.8411099667
 20
36.3258836901
 11
153.8382789912
 21
36.3500997777
  0
LINE
  5
550
100
AcDbEntity
  8
0
100
AcDbLine
 62
9
  6
CONTINUOUS
 10
153.8386993003
 20
36.347217394
 11
153.8409956476
 21
36.3271903637
  0
ARC
  5
551
100
AcDbEntity
  8
0
100
AcDbCircle
 62
7
  6
CONTINUOUS
 10
144.9430028785
 20
17.2487423796
 40
0.96875
100
AcDbArc
 50
215.0
 51
340.0
  0
ARC
  5
552
100
AcDbEntity
  8
0
100
AcDbCircle
 62
7
  6
CONTINUOUS
 10
132.9430028785
 20
17.2487423796
 40
0.96875
100
AcDbArc
 50
200.0
 51
325.0
  0
ARC
  5
553
100
AcDbEntity
  8
0
100
AcDbCircle
 62
7
  6
CONTINUOUS
 10
137.671556269
 20
17.4112423796
 40
0.375
100
AcDbArc
 50
225.0
 51
270.0
  0
ARC
  5
554
100
AcDbEntity
  8
0
100
AcDbCircle
 62
7
  6
CONTINUOUS
 10
140.2144494879
 20
17.4112423796
 40
0.375
100
AcDbArc
 50
270.0
 51
315.0
  0
ENDSEC
  0
SECTION
  2
OBJECTS
  0
DICTIONARY
  5
C
100
AcDbDictionary
280
0
281
1
  3
ACAD_GROUP
350
D
  3
ACAD_MLINESTYLE
350
17
  3
ACAD_LAYOUT
350
1A
  3
ACAD_PLOTSETTINGS
350
19
  3
ACAD_PLOTSTYLENAME
350
E
  0
DICTIONARY
  5
D
102
{ACAD_REACTORS
330
C
102
}
100
AcDbDictionary
280
0
281
1
  0
ACDBDICTIONARYWDFLT
  5
E
102
{ACAD_REACTORS
330
C
102
}
100
AcDbDictionary
281
1
  3
Normal
350
F
100
AcDbDictionaryWithDefault
340
F
  0
DICTIONARY
  5
17
102
{ACAD_REACTORS
330
C
102
}
100
AcDbDictionary
280
0
281
1
  3
Standard
350
18
  0
DICTIONARY
  5
19
102
{ACAD_REACTORS
330
C
102
}
100
AcDbDictionary
281
1
  0
DICTIONARY
  5
1A
102
{ACAD_REACTORS
330
C
102
}
100
AcDbDictionary
281
1
  3
Model
350
555
  3
Layout1
350
556
  0
ACDBPLACEHOLDER
  5
F
102
{ACAD_REACTORS
330
E
102
}
  0
MLINESTYLE
  5
18
102
{ACAD_REACTORS
330
17
102
}
100
AcDbMlineStyle
  2
STANDARD
 70
0
  3

 62
256
 51
90.0
 52
90.0
 71
2
 49
0.5
 62
256
  6
BYLAYER
 49
-0.5
 62
256
  6
BYLAYER
  0
LAYOUT
  5
555
102
{ACAD_REACTORS
330
1A
102
}
100
AcDbPlotSettings
  1

  2
none_device
  4
ANSI_B_(17.00_x_11.00_Inches)
  6

 40
0.0
 41
0.0
 42
0.0
 43
0.0
 44
431.8
 45
279.4
 46
0.0
 47
0.0
 48
0.0
 49
0.0
140
0.0
141
0.0
142
1.0
143
1.0
 70
1024
 72
0
 73
0
 74
0
  7

 75
0
147
1.0
148
0.0
149
0.0
100
AcDbLayout
  1
Model
 70
0
 71
0
 10
0.0
 20
0.0
 11
17.0
 21
11.0
 12
0.0
 22
0.0
 32
0.0
 14
0.0
 24
0.0
 34
0.0
 15
0.0
 25
0.0
 35
0.0
146
0.0
 13
0.0
 23
0.0
 33
0.0
 16
1.0
 26
0.0
 36
0.0
 17
0.0
 27
1.0
 37
0.0
 76
0
330
218
345
0
346
0
  0
LAYOUT
  5
556
102
{ACAD_REACTORS
330
1A
102
}
100
AcDbPlotSettings
  1

  2
none_device
  4
ANSI_B_(17.00_x_11.00_Inches)
  6

 40
0.0
 41
0.0
 42
0.0
 43
0.0
 44
431.8
 45
279.4
 46
0.0
 47
0.0
 48
0.0
 49
0.0
140
0.0
141
0.0
142
1.0
143
1.0
 70
0
 72
0
 73
0
 74
0
  7

 75
0
147
1.0
148
0.0
149
0.0
100
AcDbLayout
  1
Layout1
 70
0
 71
1
 10
0.0
 20
0.0
 11
17.0
 21
11.0
 12
0.0
 22
0.0
 32
0.0
 14
0.0
 24
0.0
 34
0.0
 15
0.0
 25
0.0
 35
0.0
146
0.0
 13
0.0
 23
0.0
 33
0.0
 16
1.0
 26
0.0
 36
0.0
 17
0.0
 27
1.0
 37
0.0
 76
0
330
219
345
0
346
0
  0
ENDSEC
  0
EOF
