  0
SECTION
  2
HEADER
  9
$ACADVER
  1
AC1015
  9
$DWGCODEPAGE
  3
ANSI_1252
  9
$EXTMAX
 10
17.0
 20
11.0
 30
0.0
  9
$EXTMIN
 10
0.0
 20
0.0
 30
0.0
  9
$LIMMIN
 10
0.0
 20
0.0
  9
$LIMMAX
 10
17.0
 20
11.0
  9
$VIEWCTR
 10
8.5
 20
5.5
  9
$VIEWSIZE
 40
11.0
  9
$CLAYER
  8
0
  9
$LTSCALE
 40
0.935
  9
$CELTYPE
  6
BYLAYER
  9
$DIMSCALE
 40
1.0
  9
$DIMASZ
 40
0.1875
  9
$DIMEXO
 40
0.10625
  9
$DIMDLI
 40
0.646
  9
$DIMEXE
 40
0.306
  9
$DIMCEN
 40
0.153
  9
$DIMLFAC
 40
1.0
  9
$DIMBLK
  1
_FILLED
  9
$DIMTXT
 40
0.125
  9
$DIMTOL
 70
0
  9
$DIMLIM
 70
0
  9
$DIMTFAC
 40
1.0
  9
$PDMODE
 70
3
  9
$PDSIZE
 40
0.03125
  9
$HANDSEED
  5
551
  9
$TILEMODE
 70
1
  9
$MEASUREMENT
 70
0
  9
$INSUNITS
 70
1
  0
ENDSEC
  0
SECTION
  2
CLASSES
  0
CLASS
  1
ACDBDICTIONARYWDFLT
  2
AcDbDictionaryWithDefault
  3
AutoCAD 2000
 90
0
280
0
281
0
  0
CLASS
  1
ACDBPLACEHOLDER
  2
AcDbPlaceHolder
  3
AutoCAD 2000
 90
0
280
0
281
0
  0
CLASS
  1
LAYOUT
  2
AcDbLayout
  3
AutoCAD 2000
 90
0
280
0
281
0
  0
ENDSEC
  0
SECTION
  2
TABLES
  0
TABLE
  2
VPORT
  5
8
100
AcDbSymbolTable
 70
2
  0
VPORT
  5
1F4
100
AcDbSymbolTableRecord
100
AcDbViewportTableRecord
  2
*ACTIVE
 70
0
 10
0.0
 20
0.0
 11
1.0
 21
1.0
 12
8.5
 22
5.5
 13
0.0
 23
0.0
 14
1.0
 24
1.0
 15
0.0
 25
0.0
 16
0.0
 26
0.0
 36
1.0
 17
0.0
 27
0.0
 37
0.0
 40
11.0
 41
1.5454545455
 42
50.0
 43
0.0
 44
0.0
 50
0.0
 51
0.0
 71
0
 72
100
 73
1
 74
1
 75
0
 76
0
 77
0
 78
0
  0
ENDTAB
  0
TABLE
  2
LTYPE
  5
5
100
AcDbSymbolTable
 70
6
  0
LTYPE
  5
14
100
AcDbSymbolTableRecord
100
AcDbLinetypeTableRecord
  2
BYBLOCK
 70
0
  3

 72
65
 73
0
 40
0.0
  0
LTYPE
  5
15
100
AcDbSymbolTableRecord
100
AcDbLinetypeTableRecord
  2
BYLAYER
 70
0
  3

 72
65
 73
0
 40
0.0
  0
LTYPE
  5
16
100
AcDbSymbolTableRecord
100
AcDbLinetypeTableRecord
  2
CONTINUOUS
 70
64
  3
Solid line
 72
65
 73
0
 40
0.0
  0
LTYPE
  5
1F5
100
AcDbSymbolTableRecord
100
AcDbLinetypeTableRecord
  2
CENTER
 70
64
  3
____ _ ____ _ ____ _ ____ _ ____ _ ____ _ ____
 72
65
 73
4
 40
0.6
 49
0.375
 74
0
 49
-0.075
 74
0
 49
0.075
 74
0
 49
-0.075
 74
0
  0
LTYPE
  5
1F6
100
AcDbSymbolTableRecord
100
AcDbLinetypeTableRecord
  2
HIDDEN
 70
64
  3
- - - - - - - - - - - - - - - - - - - -
 72
65
 73
2
 40
0.2
 49
0.1
 74
0
 49
-0.1
 74
0
  0
LTYPE
  5
1F7
100
AcDbSymbolTableRecord
100
AcDbLinetypeTableRecord
  2
PHANTOM
 70
64
  3
_____ _ _ _____ _ _ _____ _ _ _____
 72
65
 73
6
 40
0.8
 49
0.45
 74
0
 49
-0.05
 74
0
 49
0.1
 74
0
 49
-0.05
 74
0
 49
0.1
 74
0
 49
-0.05
 74
0
  0
LTYPE
  5
1F8
100
AcDbSymbolTableRecord
100
AcDbLinetypeTableRecord
  2
DOT
 70
64
  3
. . . . . . . . . . . . . . . . . . . .
 72
65
 73
2
 40
0.2
 49
0.1
 74
0
 49
-0.1
 74
0
  0
LTYPE
  5
1F9
100
AcDbSymbolTableRecord
100
AcDbLinetypeTableRecord
  2
DASHED
 70
64
  3
- - - - - - - - - - - - - - - - - - - -
 72
65
 73
2
 40
0.2
 49
0.1
 74
0
 49
-0.1
 74
0
  0
ENDTAB
  0
TABLE
  2
LAYER
  5
2
100
AcDbSymbolTable
 70
36
  0
LAYER
  5
10
100
AcDbSymbolTableRecord
100
AcDbLayerTableRecord
  2
0
 70
0
 62
7
  6
CONTINUOUS
370
-3
390
F
  0
LAYER
  5
1FA
100
AcDbSymbolTableRecord
100
AcDbLayerTableRecord
  2
DEFAULT_1
 70
0
 62
7
  6
CENTER
370
-3
390
F
  0
LAYER
  5
1FB
100
AcDbSymbolTableRecord
100
AcDbLayerTableRecord
  2
DEFAULT_2
 70
0
 62
8
  6
HIDDEN
370
-3
390
F
  0
LAYER
  5
1FC
100
AcDbSymbolTableRecord
100
AcDbLayerTableRecord
  2
DEFAULT_3
 70
0
 62
7
  6
PHANTOM
370
-3
390
F
  0
LAYER
  5
1FD
100
AcDbSymbolTableRecord
100
AcDbLayerTableRecord
  2
1_CURVES
 70
0
 62
7
  6
CONTINUOUS
370
-3
390
F
  0
LAYER
  5
1FE
100
AcDbSymbolTableRecord
100
AcDbLayerTableRecord
  2
1_CURVES-DEGAGEMENT-COIL
 70
0
 62
7
  6
CONTINUOUS
370
-3
390
F
  0
LAYER
  5
1FF
100
AcDbSymbolTableRecord
100
AcDbLayerTableRecord
  2
1_CURVES-JETS
 70
0
 62
7
  6
CONTINUOUS
370
-3
390
F
  0
LAYER
  5
200
100
AcDbSymbolTableRecord
100
AcDbLayerTableRecord
  2
1_CURVES-TRAJECTOIRE-COIL
 70
0
 62
7
  6
CONTINUOUS
370
-3
390
F
  0
LAYER
  5
201
100
AcDbSymbolTableRecord
100
AcDbLayerTableRecord
  2
1_CURVES_CONTROLES
 70
0
 62
7
  6
CONTINUOUS
370
-3
390
F
  0
LAYER
  5
202
100
AcDbSymbolTableRecord
100
AcDbLayerTableRecord
  2
1_CURVES_IMPORT
 70
0
 62
7
  6
CONTINUOUS
370
-3
390
F
  0
LAYER
  5
203
100
AcDbSymbolTableRecord
100
AcDbLayerTableRecord
  2
1_CURVES_JETS
 70
0
 62
7
  6
CONTINUOUS
370
-3
390
F
  0
LAYER
  5
204
100
AcDbSymbolTableRecord
100
AcDbLayerTableRecord
  2
2_PLANES
 70
0
 62
7
  6
CONTINUOUS
370
-3
390
F
  0
LAYER
  5
205
100
AcDbSymbolTableRecord
100
AcDbLayerTableRecord
  2
2_PLANES-JETS
 70
0
 62
7
  6
CONTINUOUS
370
-3
390
F
  0
LAYER
  5
206
100
AcDbSymbolTableRecord
100
AcDbLayerTableRecord
  2
3_POINTS
 70
0
 62
7
  6
CONTINUOUS
370
-3
390
F
  0
LAYER
  5
207
100
AcDbSymbolTableRecord
100
AcDbLayerTableRecord
  2
3_POINTS-JETS
 70
0
 62
7
  6
CONTINUOUS
370
-3
390
F
  0
LAYER
  5
208
100
AcDbSymbolTableRecord
100
AcDbLayerTableRecord
  2
4_CSYS
 70
0
 62
7
  6
CONTINUOUS
370
-3
390
F
  0
LAYER
  5
209
100
AcDbSymbolTableRecord
100
AcDbLayerTableRecord
  2
5_AXIS
 70
0
 62
7
  6
CONTINUOUS
370
-3
390
F
  0
LAYER
  5
20A
100
AcDbSymbolTableRecord
100
AcDbLayerTableRecord
  2
6_SURFACES
 70
0
 62
7
  6
CONTINUOUS
370
-3
390
F
  0
LAYER
  5
20B
100
AcDbSymbolTableRecord
100
AcDbLayerTableRecord
  2
6_SURFACES-OFFSET-FIBRE-ACRYLIQ
 70
0
 62
7
  6
CONTINUOUS
370
-3
390
F
  0
LAYER
  5
20C
100
AcDbSymbolTableRecord
100
AcDbLayerTableRecord
  2
6_SURFACES-POUR-CADRES
 70
0
 62
7
  6
CONTINUOUS
370
-3
390
F
  0
LAYER
  5
20D
100
AcDbSymbolTableRecord
100
AcDbLayerTableRecord
  2
6_SURFACES-TOOLING
 70
0
 62
7
  6
CONTINUOUS
370
-3
390
F
  0
LAYER
  5
20E
100
AcDbSymbolTableRecord
100
AcDbLayerTableRecord
  2
6_SURFACES_AIRE
 70
0
 62
7
  6
CONTINUOUS
370
-3
390
F
  0
LAYER
  5
20F
100
AcDbSymbolTableRecord
100
AcDbLayerTableRecord
  2
6_SURFACES_OFFSET_CONDUIT
 70
0
 62
7
  6
CONTINUOUS
370
-3
390
F
  0
LAYER
  5
210
100
AcDbSymbolTableRecord
100
AcDbLayerTableRecord
  2
6_SURFACES_OFFSET_CONDUIT-PREPA
 70
0
 62
7
  6
CONTINUOUS
370
-3
390
F
  0
LAYER
  5
211
100
AcDbSymbolTableRecord
100
AcDbLayerTableRecord
  2
6_SURFACES_OFFSET_FIBRE
 70
0
 62
7
  6
CONTINUOUS
370
-3
390
F
  0
LAYER
  5
212
100
AcDbSymbolTableRecord
100
AcDbLayerTableRecord
  2
6_SURFACES_TOOLING
 70
0
 62
7
  6
CONTINUOUS
370
-3
390
F
  0
LAYER
  5
213
100
AcDbSymbolTableRecord
100
AcDbLayerTableRecord
  2
7_NOTES
 70
0
 62
7
  6
CONTINUOUS
370
-3
390
F
  0
LAYER
  5
214
100
AcDbSymbolTableRecord
100
AcDbLayerTableRecord
  2
8_ZONE-ROBINETERIE
 70
0
 62
7
  6
CONTINUOUS
370
-3
390
F
  0
LAYER
  5
215
100
AcDbSymbolTableRecord
100
AcDbLayerTableRecord
  2
XSEC_DATUMS
 70
0
 62
7
  6
CONTINUOUS
370
-3
390
F
  0
ENDTAB
  0
TABLE
  2
STYLE
  5
3
100
AcDbSymbolTable
 70
1
  0
STYLE
  5
11
100
AcDbSymbolTableRecord
100
AcDbTextStyleTableRecord
  2
STANDARD
 70
0
 40
0.0
 41
0.8
 50
0.0
 71
0
 42
0.2
  3
txt
  4

  0
STYLE
  5
216
100
AcDbSymbolTableRecord
100
AcDbTextStyleTableRecord
  2
TEXTSTYLE_1
 70
0
 40
0.0
 41
0.8
 50
0.0
 71
0
 42
0.2
  3
gdt
  4

  0
ENDTAB
  0
TABLE
  2
VIEW
  5
6
100
AcDbSymbolTable
 70
0
  0
ENDTAB
  0
TABLE
  2
UCS
  5
7
100
AcDbSymbolTable
 70
0
  0
ENDTAB
  0
TABLE
  2
APPID
  5
9
100
AcDbSymbolTable
 70
1
  0
APPID
  5
217
100
AcDbSymbolTableRecord
100
AcDbRegAppTableRecord
  2
ACAD
 70
0
  0
ENDTAB
  0
TABLE
  2
BLOCK_RECORD
  5
1
100
AcDbSymbolTable
 70
0
  0
BLOCK_RECORD
  5
218
100
AcDbSymbolTableRecord
100
AcDbBlockTableRecord
  2
*Model_Space
  0
BLOCK_RECORD
  5
219
100
AcDbSymbolTableRecord
100
AcDbBlockTableRecord
  2
*Paper_Space
  0
ENDTAB
  0
TABLE
  2
DIMSTYLE
  5
A
100
AcDbSymbolTable
 70
1
100
AcDbDimStyleTable
 71
0
  0
DIMSTYLE
105
21A
100
AcDbSymbolTableRecord
100
AcDbDimStyleTableRecord
  2
STANDARD
 70
0
  3

  4

 40
1.0
 41
0.1875
 42
0.0625
 43
0.38
 44
0.18
 45
0.0
 46
0.0
 47
0.00001
 48
0.00001
140
0.125
141
0.09
142
0.0
143
25.4
144
1.0
145
0.0
146
1.0
147
0.09
 71
0.0
 72
0.0
 73
1
 74
1
 75
0
 76
0
 77
0
 78
4
170
0
171
2
172
0
173
0
174
0
175
0
176
0
177
0
178
0
270
2
271
5
272
5
273
2
274
2
275
0
280
0
281
0
282
0
283
1
284
4
285
0
286
0
287
3
288
0
340
11
  0
ENDTAB
  0
ENDSEC
  0
SECTION
  2
BLOCKS
  0
BLOCK
  5
20
100
AcDbEntity
  8
0
100
AcDbBlockBegin
  2
*Model_Space
 70
0
 10
0.0
 20
0.0
 30
0.0
  3
*Model_Space
  1

  0
ENDBLK
  5
21
100
AcDbEntity
  8
0
100
AcDbBlockEnd
  0
BLOCK
  5
1C
100
AcDbEntity
  8
0
100
AcDbBlockBegin
  2
*Paper_Space
 70
0
 10
0.0
 20
0.0
 30
0.0
  3
*Paper_Space
  1

  0
ENDBLK
  5
1D
100
AcDbEntity
  8
0
100
AcDbBlockEnd
  0
ENDSEC
  0
SECTION
  2
ENTITIES
  0
LINE
  5
21B
100
AcDbEntity
  8
0
100
AcDbLine
 62
7
  6
CONTINUOUS
 10
138.7210766294
 20
16.9405080394
 11
138.7407331006
 21
16.9459430809
  0
LINE
  5
21C
100
AcDbEntity
  8
0
100
AcDbLine
 62
7
  6
CONTINUOUS
 10
138.7594466389
 20
32.0221558814
 11
138.8071094785
 21
32.0353311558
  0
LINE
  5
21D
100
AcDbEntity
  8
0
100
AcDbLine
 62
7
  6
CONTINUOUS
 10
138.8068720013
 20
32.0178632842
 11
138.7592662383
 21
32.0047131728
  0
LINE
  5
21E
100
AcDbEntity
  8
0
100
AcDbLine
 62
7
  6
CONTINUOUS
 10
146.5186516295
 20
17.79300139
 11
146.5961943669
 21
17.8139880524
  0
LINE
  5
21F
100
AcDbEntity
  8
0
100
AcDbLine
 62
7
  6
CONTINUOUS
 10
140.4244989825
 20
17.5469371587
 11
140.4272269148
 21
17.5476753333
  0
LINE
  5
220
100
AcDbEntity
  8
0
100
AcDbLine
 62
7
  6
CONTINUOUS
 10
138.7007407234
 20
16.935395342
 11
138.7210766294
 21
16.9405080394
  0
LINE
  5
221
100
AcDbEntity
  8
0
100
AcDbLine
 62
7
  6
CONTINUOUS
 10
133.9209512106
 20
17.4544983564
 11
133.9466015942
 21
17.4609146173
  0
LINE
  5
222
100
AcDbEntity
  8
0
100
AcDbLine
 62
7
  6
CONTINUOUS
 10
140.4272269148
 20
17.5476753333
 11
140.4296492874
 21
17.5482731367
  0
LINE
  5
223
100
AcDbEntity
  8
0
100
AcDbLine
 62
7
  6
CONTINUOUS
 10
146.4403120958
 20
17.7746202397
 11
146.5186516295
 21
17.79300139
  0
LINE
  5
224
100
AcDbEntity
  8
0
100
AcDbLine
 62
7
  6
CONTINUOUS
 10
140.4296492874
 20
17.5482731367
 11
140.4317755085
 21
17.5487531972
  0
LINE
  5
225
100
AcDbEntity
  8
0
100
AcDbLine
 62
7
  6
CONTINUOUS
 10
145.9666772155
 20
17.6213828048
 11
145.9576771233
 21
17.6193538367
  0
LINE
  5
226
100
AcDbEntity
  8
0
100
AcDbLine
 62
7
  6
CONTINUOUS
 10
138.6748697991
 20
16.9296265952
 11
138.7007407234
 21
16.935395342
  0
LINE
  5
227
100
AcDbEntity
  8
0
100
AcDbLine
 62
7
  6
CONTINUOUS
 10
145.9681981849
 20
17.5901715643
 11
145.9583851812
 21
17.5879993912
  0
LINE
  5
228
100
AcDbEntity
  8
0
100
AcDbLine
 62
7
  6
CONTINUOUS
 10
140.4317755085
 20
17.5487531972
 11
140.4336310422
 21
17.5491378395
  0
LINE
  5
229
100
AcDbEntity
  8
0
100
AcDbLine
 62
9
  6
CONTINUOUS
 10
131.3289320209
 20
17.6618665177
 11
131.3204780099
 21
17.6601296476
  0
LINE
  5
22A
100
AcDbEntity
  8
0
100
AcDbLine
 62
7
  6
CONTINUOUS
 10
146.3612043858
 20
17.7588685302
 11
146.4403120958
 21
17.7746202397
  0
LINE
  5
22B
100
AcDbEntity
  8
0
100
AcDbLine
 62
7
  6
CONTINUOUS
 10
133.9466015942
 20
17.4609146173
 11
133.9703133875
 21
17.4654897143
  0
LINE
  5
22C
100
AcDbEntity
  8
0
100
AcDbLine
 62
7
  6
CONTINUOUS
 10
138.650026001
 20
16.9248477304
 11
138.6748697991
 21
16.9296265952
  0
LINE
  5
22D
100
AcDbEntity
  8
0
100
AcDbLine
 62
7
  6
CONTINUOUS
 10
140.4336310422
 20
17.5491378395
 11
140.4340092678
 21
17.5492100834
  0
LINE
  5
22E
100
AcDbEntity
  8
0
100
AcDbLine
 62
7
  6
CONTINUOUS
 10
138.6327663311
 20
16.9219596404
 11
138.650026001
 21
16.9248477304
  0
LINE
  5
22F
100
AcDbEntity
  8
0
100
AcDbLine
 62
7
  6
CONTINUOUS
 10
146.281328693
 20
17.7457710886
 11
146.3612043858
 21
17.7588685302
  0
LINE
  5
230
100
AcDbEntity
  8
0
100
AcDbLine
 62
7
  6
CONTINUOUS
 10
138.6186477536
 20
16.9198573575
 11
138.6327663311
 21
16.9219596404
  0
LINE
  5
231
100
AcDbEntity
  8
0
100
AcDbLine
 62
7
  6
CONTINUOUS
 10
138.1259076987
 20
34.2709971622
 11
138.1732631232
 21
34.2838797686
  0
LINE
  5
232
100
AcDbEntity
  8
0
100
AcDbLine
 62
7
  6
CONTINUOUS
 10
138.6055188927
 20
16.9181107402
 11
138.6186477536
 21
16.9198573575
  0
LINE
  5
233
100
AcDbEntity
  8
0
100
AcDbLine
 62
7
  6
CONTINUOUS
 10
146.2007604444
 20
17.7353702035
 11
146.281328693
 21
17.7457710886
  0
LINE
  5
234
100
AcDbEntity
  8
0
100
AcDbLine
 62
9
  6
CONTINUOUS
 10
131.3434910121
 20
17.6638634462
 11
131.3289320209
 21
17.6618665177
  0
LINE
  5
235
100
AcDbEntity
  8
0
100
AcDbLine
 62
7
  6
CONTINUOUS
 10
138.711234513
 20
32.0109551389
 11
138.7594466389
 21
32.0221558814
  0
LINE
  5
236
100
AcDbEntity
  8
0
100
AcDbLine
 62
7
  6
CONTINUOUS
 10
138.7592662383
 20
32.0047131728
 11
138.7111048421
 21
31.9935310497
  0
LINE
  5
237
100
AcDbEntity
  8
0
100
AcDbLine
 62
7
  6
CONTINUOUS
 10
138.5928814555
 20
16.9166176619
 11
138.6055188927
 21
16.9181107402
  0
LINE
  5
238
100
AcDbEntity
  8
0
100
AcDbLine
 62
7
  6
CONTINUOUS
 10
145.9576771233
 20
17.6193538367
 11
145.9365316797
 21
17.6168845772
  0
LINE
  5
239
100
AcDbEntity
  8
0
100
AcDbLine
 62
7
  6
CONTINUOUS
 10
145.9583851812
 20
17.5879993912
 11
145.933357158
 21
17.5852488902
  0
LINE
  5
23A
100
AcDbEntity
  8
0
100
AcDbLine
 62
7
  6
CONTINUOUS
 10
138.5791413015
 20
16.9152021456
 11
138.5928814555
 21
16.9166176619
  0
LINE
  5
23B
100
AcDbEntity
  8
0
100
AcDbLine
 62
7
  6
CONTINUOUS
 10
138.1732631232
 20
34.2838797686
 11
138.2210844562
 21
34.2948101295
  0
LINE
  5
23C
100
AcDbEntity
  8
0
100
AcDbLine
 62
9
  6
CONTINUOUS
 10
131.3642840328
 20
17.666093366
 11
131.3434910121
 21
17.6638634462
  0
LINE
  5
23D
100
AcDbEntity
  8
0
100
AcDbLine
 62
7
  6
CONTINUOUS
 10
134.1599168365
 20
17.4681893097
 11
134.167099697
 21
17.4689243212
  0
LINE
  5
23E
100
AcDbEntity
  8
0
100
AcDbLine
 62
7
  6
CONTINUOUS
 10
146.1195431268
 20
17.7277044381
 11
146.2007604444
 21
17.7353702035
  0
LINE
  5
23F
100
AcDbEntity
  8
0
100
AcDbLine
 62
9
  6
CONTINUOUS
 10
131.3830510301
 20
17.6680141759
 11
131.3642840328
 21
17.666093366
  0
LINE
  5
240
100
AcDbEntity
  8
0
100
AcDbLine
 62
7
  6
CONTINUOUS
 10
134.1602588736
 20
17.4994032216
 11
134.167966507
 21
17.5001615752
  0
LINE
  5
241
100
AcDbEntity
  8
0
100
AcDbLine
 62
7
  6
CONTINUOUS
 10
138.5654163727
 20
16.9140024752
 11
138.5791413015
 21
16.9152021456
  0
LINE
  5
242
100
AcDbEntity
  8
0
100
AcDbLine
 62
7
  6
CONTINUOUS
 10
122.8318892814
 20
36.6543989908
 11
122.8536657671
 21
36.6602823731
  0
LINE
  5
243
100
AcDbEntity
  8
0
100
AcDbLine
 62
9
  6
CONTINUOUS
 10
131.4061911869
 20
17.6702108813
 11
131.3830510301
 21
17.6680141759
  0
LINE
  5
244
100
AcDbEntity
  8
0
100
AcDbLine
 62
7
  6
CONTINUOUS
 10
145.9365316797
 20
17.6168845772
 11
145.9000869857
 21
17.6139566698
  0
LINE
  5
245
100
AcDbEntity
  8
0
100
AcDbLine
 62
9
  6
CONTINUOUS
 10
131.4341366454
 20
17.6726387297
 11
131.4061911869
 21
17.6702108813
  0
LINE
  5
246
100
AcDbEntity
  8
0
100
AcDbLine
 62
7
  6
CONTINUOUS
 10
145.933357158
 20
17.5852488902
 11
145.8894474939
 21
17.5819009847
  0
LINE
  5
247
100
AcDbEntity
  8
0
100
AcDbLine
 62
7
  6
CONTINUOUS
 10
138.7111048421
 20
31.9935310497
 11
138.662456176
 21
31.9843397624
  0
LINE
  5
248
100
AcDbEntity
  8
0
100
AcDbLine
 62
7
  6
CONTINUOUS
 10
138.6625423379
 20
32.001750938
 11
138.711234513
 21
32.0109551389
  0
LINE
  5
249
100
AcDbEntity
  8
0
100
AcDbLine
 62
9
  6
CONTINUOUS
 10
131.4674583492
 20
17.6753487864
 11
131.4341366454
 21
17.6726387297
  0
LINE
  5
24A
100
AcDbEntity
  8
0
100
AcDbLine
 62
7
  6
CONTINUOUS
 10
138.5522159004
 20
16.9130483359
 11
138.5654163727
 21
16.9140024752
  0
LINE
  5
24B
100
AcDbEntity
  8
0
100
AcDbLine
 62
9
  6
CONTINUOUS
 10
131.5526490773
 20
17.6816987995
 11
131.4674583492
 21
17.6753487864
  0
LINE
  5
24C
100
AcDbEntity
  8
0
100
AcDbLine
 62
9
  6
CONTINUOUS
 10
131.6058928353
 20
17.6854063453
 11
131.5526490773
 21
17.6816987995
  0
LINE
  5
24D
100
AcDbEntity
  8
0
100
AcDbLine
 62
7
  6
CONTINUOUS
 10
145.9000869857
 20
17.6139566698
 11
145.8492974378
 21
17.6106512915
  0
LINE
  5
24E
100
AcDbEntity
  8
0
100
AcDbLine
 62
7
  6
CONTINUOUS
 10
145.8894474939
 20
17.5819009847
 11
145.8272625449
 21
17.5780532321
  0
LINE
  5
24F
100
AcDbEntity
  8
0
100
AcDbLine
 62
9
  6
CONTINUOUS
 10
131.6592146343
 20
17.6889072577
 11
131.6058928353
 21
17.6854063453
  0
LINE
  5
250
100
AcDbEntity
  8
0
100
AcDbLine
 62
7
  6
CONTINUOUS
 10
146.0474552558
 20
17.7232490148
 11
146.1195431268
 21
17.7277044381
  0
LINE
  5
251
100
AcDbEntity
  8
0
100
AcDbLine
 62
7
  6
CONTINUOUS
 10
138.539710853
 20
16.9123218041
 11
138.5522159004
 21
16.9130483359
  0
LINE
  5
252
100
AcDbEntity
  8
0
100
AcDbLine
 62
7
  6
CONTINUOUS
 10
138.2210844562
 20
34.2948101295
 11
138.2693214725
 21
34.3037790462
  0
LINE
  5
253
100
AcDbEntity
  8
0
100
AcDbLine
 62
7
  6
CONTINUOUS
 10
145.8492974378
 20
17.6106512915
 11
145.7855935944
 21
17.607039358
  0
LINE
  5
254
100
AcDbEntity
  8
0
100
AcDbLine
 62
7
  6
CONTINUOUS
 10
145.8272625449
 20
17.5780532321
 11
145.7484154726
 21
17.573801555
  0
LINE
  5
255
100
AcDbEntity
  8
0
100
AcDbLine
 62
7
  6
CONTINUOUS
 10
145.7855935944
 20
17.607039358
 11
145.7091463337
 21
17.6031246715
  0
LINE
  5
256
100
AcDbEntity
  8
0
100
AcDbLine
 62
7
  6
CONTINUOUS
 10
145.7484154726
 20
17.573801555
 11
145.6465737265
 21
17.5688559376
  0
LINE
  5
257
100
AcDbEntity
  8
0
100
AcDbLine
 62
7
  6
CONTINUOUS
 10
136.7893839558
 20
17.5501913681
 11
136.9031872127
 21
17.5560159063
  0
LINE
  5
258
100
AcDbEntity
  8
0
100
AcDbLine
 62
7
  6
CONTINUOUS
 10
145.7091463337
 20
17.6031246715
 11
145.6206506567
 21
17.5989309436
  0
LINE
  5
259
100
AcDbEntity
  8
0
100
AcDbLine
 62
7
  6
CONTINUOUS
 10
145.8380551266
 20
17.7136347917
 11
146.0474395147
 21
17.7232481674
  0
LINE
  5
25A
100
AcDbEntity
  8
0
100
AcDbLine
 62
7
  6
CONTINUOUS
 10
138.5282693626
 20
16.9118034066
 11
138.539710853
 21
16.9123218041
  0
LINE
  5
25B
100
AcDbEntity
  8
0
100
AcDbLine
 62
7
  6
CONTINUOUS
 10
145.6465737265
 20
17.5688559376
 11
145.4851321783
 21
17.5616754362
  0
LINE
  5
25C
100
AcDbEntity
  8
0
100
AcDbLine
 62
7
  6
CONTINUOUS
 10
136.7531370313
 20
17.5485212304
 11
136.7893839558
 21
17.5501913681
  0
LINE
  5
25D
100
AcDbEntity
  8
0
100
AcDbLine
 62
7
  6
CONTINUOUS
 10
145.7499794372
 20
17.7096706015
 11
145.8380551266
 21
17.7136347917
  0
LINE
  5
25E
100
AcDbEntity
  8
0
100
AcDbLine
 62
7
  6
CONTINUOUS
 10
145.6626237186
 20
17.7057850804
 11
145.7499794372
 21
17.7096706015
  0
LINE
  5
25F
100
AcDbEntity
  8
0
100
AcDbLine
 62
7
  6
CONTINUOUS
 10
145.6206506567
 20
17.5989309436
 11
145.4836691994
 21
17.5928914756
  0
LINE
  5
260
100
AcDbEntity
  8
0
100
AcDbLine
 62
7
  6
CONTINUOUS
 10
145.5759884875
 20
17.7019769079
 11
145.6626237186
 21
17.7057850804
  0
LINE
  5
261
100
AcDbEntity
  8
0
100
AcDbLine
 62
7
  6
CONTINUOUS
 10
145.4900745351
 20
17.698244787
 11
145.5759884875
 21
17.7019769079
  0
LINE
  5
262
100
AcDbEntity
  8
0
100
AcDbLine
 62
7
  6
CONTINUOUS
 10
145.426112786
 20
17.6954948264
 11
145.4900745351
 21
17.698244787
  0
LINE
  5
263
100
AcDbEntity
  8
0
100
AcDbLine
 62
7
  6
CONTINUOUS
 10
136.9031872127
 20
17.5560159063
 11
137.0305716027
 21
17.5614580555
  0
LINE
  5
264
100
AcDbEntity
  8
0
100
AcDbLine
 62
7
  6
CONTINUOUS
 10
145.3414622456
 20
17.6918926774
 11
145.426112786
 21
17.6954948264
  0
LINE
  5
265
100
AcDbEntity
  8
0
100
AcDbLine
 62
7
  6
CONTINUOUS
 10
145.2784482141
 20
17.6892387079
 11
145.3414622456
 21
17.6918926774
  0
LINE
  5
266
100
AcDbEntity
  8
0
100
AcDbLine
 62
7
  6
CONTINUOUS
 10
145.1950612504
 20
17.6857625743
 11
145.2784482141
 21
17.6892387079
  0
LINE
  5
267
100
AcDbEntity
  8
0
100
AcDbLine
 62
7
  6
CONTINUOUS
 10
145.4851321783
 20
17.5616754362
 11
145.2711829101
 21
17.5528212417
  0
LINE
  5
268
100
AcDbEntity
  8
0
100
AcDbLine
 62
7
  6
CONTINUOUS
 10
145.4836691994
 20
17.5928914756
 11
145.2906282921
 21
17.5848779359
  0
LINE
  5
269
100
AcDbEntity
  8
0
100
AcDbLine
 62
7
  6
CONTINUOUS
 10
145.1329946905
 20
17.6832016452
 11
145.1950612504
 21
17.6857625743
  0
LINE
  5
26A
100
AcDbEntity
  8
0
100
AcDbLine
 62
7
  6
CONTINUOUS
 10
145.0713339347
 20
17.6806796964
 11
145.1329946905
 21
17.6832016452
  0
LINE
  5
26B
100
AcDbEntity
  8
0
100
AcDbLine
 62
7
  6
CONTINUOUS
 10
122.8111659453
 20
36.6474602327
 11
122.8318892814
 21
36.6543989908
  0
LINE
  5
26C
100
AcDbEntity
  8
0
100
AcDbLine
 62
7
  6
CONTINUOUS
 10
145.0100787442
 20
17.6781961961
 11
145.0713339347
 21
17.6806796964
  0
LINE
  5
26D
100
AcDbEntity
  8
0
100
AcDbLine
 62
7
  6
CONTINUOUS
 10
137.0305716027
 20
17.5614580555
 11
137.2022407131
 21
17.5684033039
  0
LINE
  5
26E
100
AcDbEntity
  8
0
100
AcDbLine
 62
7
  6
CONTINUOUS
 10
144.9492292604
 20
17.6757506332
 11
145.0100787442
 21
17.6781961961
  0
LINE
  5
26F
100
AcDbEntity
  8
0
100
AcDbLine
 62
7
  6
CONTINUOUS
 10
144.8887887618
 20
17.6733426263
 11
144.9492292604
 21
17.6757506332
  0
LINE
  5
270
100
AcDbEntity
  8
0
100
AcDbLine
 62
7
  6
CONTINUOUS
 10
144.8287583117
 20
17.670971708
 11
144.8887887618
 21
17.6733426263
  0
LINE
  5
271
100
AcDbEntity
  8
0
100
AcDbLine
 62
7
  6
CONTINUOUS
 10
145.2906282921
 20
17.5848779359
 11
145.0277000497
 21
17.5745518947
  0
LINE
  5
272
100
AcDbEntity
  8
0
100
AcDbLine
 62
7
  6
CONTINUOUS
 10
144.7691378366
 20
17.6686373704
 11
144.8287583117
 21
17.670971708
  0
LINE
  5
273
100
AcDbEntity
  8
0
100
AcDbLine
 62
7
  6
CONTINUOUS
 10
145.2711829101
 20
17.5528212417
 11
144.9575395259
 21
17.5405936848
  0
LINE
  5
274
100
AcDbEntity
  8
0
100
AcDbLine
 62
7
  6
CONTINUOUS
 10
144.7099273339
 20
17.6663391143
 11
144.7691378366
 21
17.6686373704
  0
LINE
  5
275
100
AcDbEntity
  8
0
100
AcDbLine
 62
7
  6
CONTINUOUS
 10
144.6511268051
 20
17.6640764464
 11
144.7099273339
 21
17.6663391143
  0
LINE
  5
276
100
AcDbEntity
  8
0
100
AcDbLine
 62
7
  6
CONTINUOUS
 10
144.6121542179
 20
17.6625875314
 11
144.6511268051
 21
17.6640764464
  0
LINE
  5
277
100
AcDbEntity
  8
0
100
AcDbLine
 62
7
  6
CONTINUOUS
 10
144.5540369847
 20
17.6603830964
 11
144.6121542179
 21
17.6625875314
  0
LINE
  5
278
100
AcDbEntity
  8
0
100
AcDbLine
 62
7
  6
CONTINUOUS
 10
137.2022407131
 20
17.5684033039
 11
137.3320176791
 21
17.5733168065
  0
LINE
  5
279
100
AcDbEntity
  8
0
100
AcDbLine
 62
7
  6
CONTINUOUS
 10
145.0277000497
 20
17.5745518947
 11
144.740967333
 21
17.5637025321
  0
LINE
  5
27A
100
AcDbEntity
  8
0
100
AcDbLine
 62
7
  6
CONTINUOUS
 10
144.9575395259
 20
17.5405936848
 11
144.6170434723
 21
17.5278223861
  0
LINE
  5
27B
100
AcDbEntity
  8
0
100
AcDbLine
 62
7
  6
CONTINUOUS
 10
144.515519924
 20
17.6589325581
 11
144.5540369847
 21
17.6603830964
  0
LINE
  5
27C
100
AcDbEntity
  8
0
100
AcDbLine
 62
7
  6
CONTINUOUS
 10
144.4580859617
 20
17.656785027
 11
144.515519924
 21
17.6589325581
  0
LINE
  5
27D
100
AcDbEntity
  8
0
100
AcDbLine
 62
7
  6
CONTINUOUS
 10
144.4010619251
 20
17.6546710106
 11
144.4580859617
 21
17.656785027
  0
LINE
  5
27E
100
AcDbEntity
  8
0
100
AcDbLine
 62
7
  6
CONTINUOUS
 10
144.740967333
 20
17.5637025321
 11
144.2669953703
 21
17.5462514752
  0
LINE
  5
27F
100
AcDbEntity
  8
0
100
AcDbLine
 62
7
  6
CONTINUOUS
 10
144.3632736114
 20
17.6532800561
 11
144.4010619251
 21
17.6546710106
  0
LINE
  5
280
100
AcDbEntity
  8
0
100
AcDbLine
 62
7
  6
CONTINUOUS
 10
144.6170434723
 20
17.5278223861
 11
144.0783537476
 21
17.5081473516
  0
LINE
  5
281
100
AcDbEntity
  8
0
100
AcDbLine
 62
7
  6
CONTINUOUS
 10
144.2669953703
 20
17.5462514752
 11
143.7605624068
 21
17.5280769172
  0
LINE
  5
282
100
AcDbEntity
  8
0
100
AcDbLine
 62
7
  6
CONTINUOUS
 10
144.0783537476
 20
17.5081473516
 11
143.7331995967
 21
17.4958452175
  0
LINE
  5
283
100
AcDbEntity
  8
0
100
AcDbLine
 62
7
  6
CONTINUOUS
 10
138.5174162806
 20
16.9114330764
 11
138.5282693626
 21
16.9118034066
  0
LINE
  5
284
100
AcDbEntity
  8
0
100
AcDbLine
 62
7
  6
CONTINUOUS
 10
122.8536657671
 20
36.6602823731
 11
122.8762721787
 21
36.6649358501
  0
LINE
  5
285
100
AcDbEntity
  8
0
100
AcDbLine
 62
7
  6
CONTINUOUS
 10
138.662456176
 20
31.9843397624
 11
138.6133912808
 21
31.9771614032
  0
LINE
  5
286
100
AcDbEntity
  8
0
100
AcDbLine
 62
7
  6
CONTINUOUS
 10
138.6134421109
 20
31.99456446
 11
138.6625423379
 21
32.001750938
  0
LINE
  5
287
100
AcDbEntity
  8
0
100
AcDbLine
 62
7
  6
CONTINUOUS
 10
137.3320176791
 20
17.5733168065
 11
137.4679114703
 21
17.5780432025
  0
LINE
  5
288
100
AcDbEntity
  8
0
100
AcDbLine
 62
7
  6
CONTINUOUS
 10
143.7605624068
 20
17.5280769172
 11
143.4595214719
 21
17.5176674337
  0
LINE
  5
289
100
AcDbEntity
  8
0
100
AcDbLine
 62
7
  6
CONTINUOUS
 10
143.7331995967
 20
17.4958452175
 11
143.4290715127
 21
17.4853756098
  0
LINE
  5
28A
100
AcDbEntity
  8
0
100
AcDbLine
 62
7
  6
CONTINUOUS
 10
143.5436962181
 20
17.6250214337
 11
144.3632736114
 21
17.6532800561
  0
LINE
  5
28B
100
AcDbEntity
  8
0
100
AcDbLine
 62
7
  6
CONTINUOUS
 10
143.4595214719
 20
17.5176674337
 11
143.2049618395
 21
17.5093578064
  0
LINE
  5
28C
100
AcDbEntity
  8
0
100
AcDbLine
 62
7
  6
CONTINUOUS
 10
143.4290715127
 20
17.4853756098
 11
143.1828233066
 21
17.4774008591
  0
LINE
  5
28D
100
AcDbEntity
  8
0
100
AcDbLine
 62
7
  6
CONTINUOUS
 10
137.2867052493
 20
32.9983490282
 11
137.2815263272
 21
33.047242481
  0
LINE
  5
28E
100
AcDbEntity
  8
0
100
AcDbLine
 62
7
  6
CONTINUOUS
 10
137.2815207966
 20
33.0647079419
 11
137.2866957856
 21
33.0158234602
  0
LINE
  5
28F
100
AcDbEntity
  8
0
100
AcDbLine
 62
7
  6
CONTINUOUS
 10
139.6433261616
 20
33.2903632798
 11
139.6483570241
 21
33.242137429
  0
LINE
  5
290
100
AcDbEntity
  8
0
100
AcDbLine
 62
7
  6
CONTINUOUS
 10
154.3628695482
 20
36.327170501
 11
154.4648750443
 21
35.1612423455
  0
LINE
  5
291
100
AcDbEntity
  8
0
100
AcDbLine
 62
7
  6
CONTINUOUS
 10
137.2815263272
 20
33.047242481
 11
137.2784138546
 21
33.0963158151
  0
LINE
  5
292
100
AcDbEntity
  8
0
100
AcDbLine
 62
7
  6
CONTINUOUS
 10
137.2784121396
 20
33.1137565285
 11
137.2815207966
 21
33.0647079419
  0
LINE
  5
293
100
AcDbEntity
  8
0
100
AcDbLine
 62
7
  6
CONTINUOUS
 10
139.6483570241
 20
33.242137429
 11
139.6513716206
 21
33.1938235501
  0
LINE
  5
294
100
AcDbEntity
  8
0
100
AcDbLine
 62
9
  6
CONTINUOUS
 10
145.9666772155
 20
17.6213828048
 11
145.9681981849
 21
17.5901715643
  0
LINE
  5
295
100
AcDbEntity
  8
0
100
AcDbLine
 62
9
  6
CONTINUOUS
 10
142.7617835817
 20
17.5001615752
 11
142.7626503917
 21
17.4689243212
  0
LINE
  5
296
100
AcDbEntity
  8
0
100
AcDbLine
 62
7
  6
CONTINUOUS
 10
137.277742121
 20
33.1455025298
 11
137.2784121396
 21
33.1137565285
  0
LINE
  5
297
100
AcDbEntity
  8
0
100
AcDbLine
 62
7
  6
CONTINUOUS
 10
137.2784138546
 20
33.0963158151
 11
137.2773750446
 21
33.1454947824
  0
LINE
  5
298
100
AcDbEntity
  8
0
100
AcDbLine
 62
7
  6
CONTINUOUS
 10
139.6513716206
 20
33.1938235501
 11
139.6523750446
 21
33.1454947824
  0
LINE
  5
299
100
AcDbEntity
  8
DEFAULT_1
100
AcDbLine
 62
7
  6
CENTER
 10
138.4648750443
 20
63.501391398
 11
138.4648750443
 21
63.3815278293
  0
LINE
  5
29A
100
AcDbEntity
  8
DEFAULT_1
100
AcDbLine
 62
7
  6
CENTER
 10
138.4648750443
 20
15.6512423455
 11
138.4648750443
 21
17.5586812012
  0
LINE
  5
29B
100
AcDbEntity
  8
0
100
AcDbLine
 62
9
  6
CONTINUOUS
 10
138.4648750443
 20
17.5586812012
 11
138.4648750467
 21
19.7036815179
  0
LINE
  5
29C
100
AcDbEntity
  8
DEFAULT_1
100
AcDbLine
 62
7
  6
CENTER
 10
138.4648750467
 20
19.7036815179
 11
138.4648750443
 21
31.9852990139
  0
LINE
  5
29D
100
AcDbEntity
  8
0
100
AcDbLine
 62
9
  6
CONTINUOUS
 10
138.4648750443
 20
31.9852990139
 11
138.4648750444
 21
35.1612423455
  0
LINE
  5
29E
100
AcDbEntity
  8
DEFAULT_1
100
AcDbLine
 62
7
  6
CENTER
 10
138.4648750444
 20
35.1612423455
 11
138.4648750443
 21
37.7606671157
  0
LINE
  5
29F
100
AcDbEntity
  8
0
100
AcDbLine
 62
9
  6
CONTINUOUS
 10
138.4648772975
 20
36.6538268368
 11
138.464877257
 21
36.6542892549
  0
LINE
  5
2A0
100
AcDbEntity
  8
0
100
AcDbLine
 62
7
  6
CONTINUOUS
 10
137.2773750446
 20
33.1454947824
 11
137.2783779637
 21
33.1938113975
  0
LINE
  5
2A1
100
AcDbEntity
  8
0
100
AcDbLine
 62
7
  6
CONTINUOUS
 10
139.6513361426
 20
33.1137137542
 11
139.6520076486
 21
33.1455025433
  0
LINE
  5
2A2
100
AcDbEntity
  8
0
100
AcDbLine
 62
7
  6
CONTINUOUS
 10
139.6523750446
 20
33.1454947824
 11
139.6513379489
 21
33.0963564001
  0
LINE
  5
2A3
100
AcDbEntity
  8
0
100
AcDbLine
 62
9
  6
CONTINUOUS
 10
134.167966507
 20
17.5001615752
 11
134.167099697
 21
17.4689243212
  0
LINE
  5
2A4
100
AcDbEntity
  8
0
100
AcDbLine
 62
9
  6
CONTINUOUS
 10
130.9630728731
 20
17.6213828048
 11
130.9615519038
 21
17.5901715643
  0
LINE
  5
2A5
100
AcDbEntity
  8
0
100
AcDbLine
 62
7
  6
CONTINUOUS
 10
137.2783779637
 20
33.1938113975
 11
137.2813912867
 21
33.2421160783
  0
LINE
  5
2A6
100
AcDbEntity
  8
0
100
AcDbLine
 62
7
  6
CONTINUOUS
 10
139.6482233584
 20
33.0646378106
 11
139.6513361426
 21
33.1137137542
  0
LINE
  5
2A7
100
AcDbEntity
  8
0
100
AcDbLine
 62
7
  6
CONTINUOUS
 10
139.6513379489
 20
33.0963564001
 11
139.6482292519
 21
33.0473073649
  0
LINE
  5
2A8
100
AcDbEntity
  8
0
100
AcDbLine
 62
7
  6
CONTINUOUS
 10
122.5668805404
 20
36.327170501
 11
122.4648750443
 21
35.1612423455
  0
LINE
  5
2A9
100
AcDbEntity
  8
0
100
AcDbLine
 62
7
  6
CONTINUOUS
 10
137.2813912867
 20
33.2421160783
 11
137.2864205212
 21
33.2903361185
  0
LINE
  5
2AA
100
AcDbEntity
  8
0
100
AcDbLine
 62
7
  6
CONTINUOUS
 10
139.6430438303
 20
33.0157411662
 11
139.6482233584
 21
33.0646378106
  0
LINE
  5
2AB
100
AcDbEntity
  8
0
100
AcDbLine
 62
7
  6
CONTINUOUS
 10
139.6482292519
 20
33.0473073649
 11
139.643054106
 21
32.9984218387
  0
LINE
  5
2AC
100
AcDbEntity
  8
0
100
AcDbLine
 62
7
  6
CONTINUOUS
 10
122.5669677727
 20
36.3281675703
 11
122.5698250411
 21
36.352007059
  0
LINE
  5
2AD
100
AcDbEntity
  8
0
100
AcDbLine
 62
7
  6
CONTINUOUS
 10
148.2963283608
 20
19.8227396962
 11
148.3405175826
 21
20.1826334937
  0
LINE
  5
2AE
100
AcDbEntity
  8
0
100
AcDbLine
 62
7
  6
CONTINUOUS
 10
148.2944024113
 20
19.806179268
 11
150.1797803007
 21
35.1612423455
  0
LINE
  5
2AF
100
AcDbEntity
  8
0
100
AcDbLine
 62
7
  6
CONTINUOUS
 10
148.2854694695
 20
19.7407273812
 11
148.2944574142
 21
19.8063627875
  0
LINE
  5
2B0
100
AcDbEntity
  8
0
100
AcDbLine
 62
7
  6
CONTINUOUS
 10
137.2864205212
 20
33.2903361185
 11
137.2934628115
 21
33.3383594008
  0
LINE
  5
2B1
100
AcDbEntity
  8
0
100
AcDbLine
 62
7
  6
CONTINUOUS
 10
139.6358140947
 20
32.967143258
 11
139.6430438303
 21
33.0157411662
  0
LINE
  5
2B2
100
AcDbEntity
  8
0
100
AcDbLine
 62
7
  6
CONTINUOUS
 10
139.643054106
 20
32.9984218387
 11
139.6358270272
 21
32.9498191577
  0
LINE
  5
2B3
100
AcDbEntity
  8
0
100
AcDbLine
 62
7
  6
CONTINUOUS
 10
148.2717358068
 20
19.6594507648
 11
148.2854694695
 21
19.7407273812
  0
LINE
  5
2B4
100
AcDbEntity
  8
0
100
AcDbLine
 62
7
  6
CONTINUOUS
 10
122.5698250411
 20
36.352007059
 11
122.5741866096
 21
36.3755442602
  0
LINE
  5
2B5
100
AcDbEntity
  8
0
100
AcDbLine
 62
7
  6
CONTINUOUS
 10
137.2934628115
 20
33.3383594008
 11
137.3025071777
 21
33.3860753073
  0
LINE
  5
2B6
100
AcDbEntity
  8
0
100
AcDbLine
 62
7
  6
CONTINUOUS
 10
139.6265590108
 20
32.9189572466
 11
139.6358140947
 21
32.967143258
  0
LINE
  5
2B7
100
AcDbEntity
  8
0
100
AcDbLine
 62
7
  6
CONTINUOUS
 10
139.6358270272
 20
32.9498191577
 11
139.6265708609
 21
32.9016126635
  0
LINE
  5
2B8
100
AcDbEntity
  8
0
100
AcDbLine
 62
7
  6
CONTINUOUS
 10
148.2551884137
 20
19.5786928159
 11
148.2717358068
 21
19.6594507648
  0
LINE
  5
2B9
100
AcDbEntity
  8
0
100
AcDbLine
 62
7
  6
CONTINUOUS
 10
137.3025071777
 20
33.3860753073
 11
137.3135431252
 21
33.4334081627
  0
LINE
  5
2BA
100
AcDbEntity
  8
0
100
AcDbLine
 62
7
  6
CONTINUOUS
 10
139.6153048912
 20
32.8712675185
 11
139.6265590108
 21
32.9189572466
  0
LINE
  5
2BB
100
AcDbEntity
  8
0
100
AcDbLine
 62
7
  6
CONTINUOUS
 10
139.6265708609
 20
32.9016126635
 11
139.6153098921
 21
32.8538869704
  0
LINE
  5
2BC
100
AcDbEntity
  8
0
100
AcDbLine
 62
7
  6
CONTINUOUS
 10
134.1814221588
 20
17.5164577281
 11
134.182434217
 21
17.5206818116
  0
LINE
  5
2BD
100
AcDbEntity
  8
0
100
AcDbLine
 62
7
  6
CONTINUOUS
 10
148.2358469682
 20
19.4985527388
 11
148.2551884137
 21
19.5786928159
  0
LINE
  5
2BE
100
AcDbEntity
  8
0
100
AcDbLine
 62
7
  6
CONTINUOUS
 10
122.5741866096
 20
36.3755442602
 11
122.5801720779
 21
36.3992116513
  0
LINE
  5
2BF
100
AcDbEntity
  8
0
100
AcDbLine
 62
7
  6
CONTINUOUS
 10
137.3135431252
 20
33.4334081627
 11
137.3265585328
 21
33.4802849855
  0
LINE
  5
2C0
100
AcDbEntity
  8
0
100
AcDbLine
 62
7
  6
CONTINUOUS
 10
148.2137347693
 20
19.4191289723
 11
148.2358469682
 21
19.4985527388
  0
LINE
  5
2C1
100
AcDbEntity
  8
0
100
AcDbLine
 62
7
  6
CONTINUOUS
 10
139.6020813976
 20
32.8241556358
 11
139.6153048912
 21
32.8712675185
  0
LINE
  5
2C2
100
AcDbEntity
  8
0
100
AcDbLine
 62
7
  6
CONTINUOUS
 10
139.6153098921
 20
32.8538869704
 11
139.6020716444
 21
32.8067236486
  0
LINE
  5
2C3
100
AcDbEntity
  8
0
100
AcDbLine
 62
7
  6
CONTINUOUS
 10
148.1888787045
 20
19.3405190463
 11
148.2137347693
 21
19.4191289723
  0
LINE
  5
2C4
100
AcDbEntity
  8
0
100
AcDbLine
 62
7
  6
CONTINUOUS
 10
122.5801720779
 20
36.3992116513
 11
122.5874996882
 21
36.4219238139
  0
LINE
  5
2C5
100
AcDbEntity
  8
0
100
AcDbLine
 62
7
  6
CONTINUOUS
 10
137.3265585328
 20
33.4802849855
 11
137.3415242962
 21
33.5265897262
  0
LINE
  5
2C6
100
AcDbEntity
  8
0
100
AcDbLine
 62
7
  6
CONTINUOUS
 10
139.5869322457
 20
32.7777320568
 11
139.6020813976
 21
32.8241556358
  0
LINE
  5
2C7
100
AcDbEntity
  8
0
100
AcDbLine
 62
7
  6
CONTINUOUS
 10
139.6020716444
 20
32.8067236486
 11
139.5868982327
 21
32.7602350124
  0
LINE
  5
2C8
100
AcDbEntity
  8
0
100
AcDbLine
 62
7
  6
CONTINUOUS
 10
134.171613997
 20
17.5053328052
 11
134.1727766246
 21
17.5086683676
  0
LINE
  5
2C9
100
AcDbEntity
  8
0
100
AcDbLine
 62
7
  6
CONTINUOUS
 10
148.1613092146
 20
19.26281945
 11
148.1888787045
 21
19.3405190463
  0
LINE
  5
2CA
100
AcDbEntity
  8
0
100
AcDbLine
 62
7
  6
CONTINUOUS
 10
145.6117466009
 20
17.658679425
 11
145.591400783
 21
17.6027797499
  0
LINE
  5
2CB
100
AcDbEntity
  8
0
100
AcDbLine
 62
7
  6
CONTINUOUS
 10
145.5072415274
 20
17.2801852078
 11
145.3752022707
 21
16.9174103317
  0
LINE
  5
2CC
100
AcDbEntity
  8
0
100
AcDbLine
 62
7
  6
CONTINUOUS
 10
137.3415242962
 20
33.5265897262
 11
137.3583987395
 21
33.5722003962
  0
LINE
  5
2CD
100
AcDbEntity
  8
0
100
AcDbLine
 62
7
  6
CONTINUOUS
 10
139.5699153901
 20
32.7321182887
 11
139.5869322457
 21
32.7777320568
  0
LINE
  5
2CE
100
AcDbEntity
  8
0
100
AcDbLine
 62
7
  6
CONTINUOUS
 10
139.5868982327
 20
32.7602350124
 11
139.5698451424
 21
32.7145416831
  0
LINE
  5
2CF
100
AcDbEntity
  8
0
100
AcDbLine
 62
7
  6
CONTINUOUS
 10
146.0174801214
 20
17.7218563281
 11
145.9718998622
 21
17.6000497631
  0
LINE
  5
2D0
100
AcDbEntity
  8
0
100
AcDbLine
 62
7
  6
CONTINUOUS
 10
145.9718998622
 20
17.6000497631
 11
145.9681981849
 21
17.5901715643
  0
LINE
  5
2D1
100
AcDbEntity
  8
0
100
AcDbLine
 62
7
  6
CONTINUOUS
 10
146.0043442924
 20
17.7212480794
 11
145.9666772155
 21
17.6213828048
  0
LINE
  5
2D2
100
AcDbEntity
  8
0
100
AcDbLine
 62
7
  6
CONTINUOUS
 10
122.5874996882
 20
36.4219238139
 11
122.5954346102
 21
36.4422040501
  0
LINE
  5
2D3
100
AcDbEntity
  8
0
100
AcDbLine
 62
7
  6
CONTINUOUS
 10
148.1310602486
 20
19.1861254901
 11
148.1613092146
 21
19.26281945
  0
LINE
  5
2D4
100
AcDbEntity
  8
0
100
AcDbLine
 62
7
  6
CONTINUOUS
 10
145.5072370475
 20
17.2801806841
 11
145.5190788764
 21
17.3095810227
  0
LINE
  5
2D5
100
AcDbEntity
  8
0
100
AcDbLine
 62
7
  6
CONTINUOUS
 10
137.3583987395
 20
33.5722003962
 11
137.3771631802
 21
33.6170744626
  0
LINE
  5
2D6
100
AcDbEntity
  8
0
100
AcDbLine
 62
7
  6
CONTINUOUS
 10
139.5510600797
 20
32.6873427484
 11
139.5699153901
 21
32.7321182887
  0
LINE
  5
2D7
100
AcDbEntity
  8
0
100
AcDbLine
 62
7
  6
CONTINUOUS
 10
139.5698451424
 20
32.7145416831
 11
139.5509431783
 21
32.6696809908
  0
LINE
  5
2D8
100
AcDbEntity
  8
0
100
AcDbLine
 62
7
  6
CONTINUOUS
 10
134.1740048996
 20
17.4786092072
 11
134.1753891598
 21
17.4818331777
  0
LINE
  5
2D9
100
AcDbEntity
  8
0
100
AcDbLine
 62
7
  6
CONTINUOUS
 10
148.0981692214
 20
19.1105311706
 11
148.1310602486
 21
19.1861254901
  0
LINE
  5
2DA
100
AcDbEntity
  8
0
100
AcDbLine
 62
9
  6
CONTINUOUS
 10
145.5654647758
 20
17.6660938604
 11
145.5815189672
 21
17.7022189296
  0
LINE
  5
2DB
100
AcDbEntity
  8
0
100
AcDbLine
 62
9
  6
CONTINUOUS
 10
145.6117467377
 20
17.6586798017
 11
145.6323708882
 21
17.7044504958
  0
LINE
  5
2DC
100
AcDbEntity
  8
0
100
AcDbLine
 62
7
  6
CONTINUOUS
 10
122.5954346102
 20
36.4422040501
 11
122.6043179616
 21
36.461554072
  0
LINE
  5
2DD
100
AcDbEntity
  8
0
100
AcDbLine
 62
7
  6
CONTINUOUS
 10
137.3771631802
 20
33.6170744626
 11
137.3977994037
 21
33.6611643707
  0
LINE
  5
2DE
100
AcDbEntity
  8
0
100
AcDbLine
 62
7
  6
CONTINUOUS
 10
139.5303963378
 20
32.6434448948
 11
139.5510600797
 21
32.6873427484
  0
LINE
  5
2DF
100
AcDbEntity
  8
0
100
AcDbLine
 62
7
  6
CONTINUOUS
 10
139.5509431783
 20
32.6696809908
 11
139.530223885
 21
32.6256980495
  0
LINE
  5
2E0
100
AcDbEntity
  8
0
100
AcDbLine
 62
7
  6
CONTINUOUS
 10
148.0626769551
 20
19.0361290455
 11
148.0981692214
 21
19.1105311706
  0
LINE
  5
2E1
100
AcDbEntity
  8
0
100
AcDbLine
 62
7
  6
CONTINUOUS
 10
145.5190788764
 20
17.3095810227
 11
145.538405363
 21
17.3483031011
  0
LINE
  5
2E2
100
AcDbEntity
  8
0
100
AcDbLine
 62
7
  6
CONTINUOUS
 10
148.0498192431
 20
19.0110467356
 11
148.0581506608
 21
19.0274309196
  0
LINE
  5
2E3
100
AcDbEntity
  8
0
100
AcDbLine
 62
7
  6
CONTINUOUS
 10
137.3977994037
 20
33.6611643707
 11
137.4202598932
 21
33.7043651099
  0
LINE
  5
2E4
100
AcDbEntity
  8
0
100
AcDbLine
 62
7
  6
CONTINUOUS
 10
148.0246276284
 20
18.963010107
 11
148.0626769551
 21
19.0361290455
  0
LINE
  5
2E5
100
AcDbEntity
  8
0
100
AcDbLine
 62
7
  6
CONTINUOUS
 10
139.5079751252
 20
32.6005072006
 11
139.5303963378
 21
32.6434448948
  0
LINE
  5
2E6
100
AcDbEntity
  8
0
100
AcDbLine
 62
7
  6
CONTINUOUS
 10
139.530223885
 20
32.6256980495
 11
139.5077416449
 21
32.5826825543
  0
LINE
  5
2E7
100
AcDbEntity
  8
0
100
AcDbLine
 62
7
  6
CONTINUOUS
 10
122.6043179616
 20
36.461554072
 11
122.6146916109
 21
36.4810840481
  0
LINE
  5
2E8
100
AcDbEntity
  8
0
100
AcDbLine
 62
7
  6
CONTINUOUS
 10
134.1814871759
 20
17.4886521314
 11
134.1834053112
 21
17.4921198811
  0
LINE
  5
2E9
100
AcDbEntity
  8
0
100
AcDbLine
 62
7
  6
CONTINUOUS
 10
147.984069158
 20
18.8912644102
 11
148.0246276284
 21
18.963010107
  0
LINE
  5
2EA
100
AcDbEntity
  8
0
100
AcDbLine
 62
7
  6
CONTINUOUS
 10
137.4202598932
 20
33.7043651099
 11
137.4444876192
 21
33.7465729113
  0
LINE
  5
2EB
100
AcDbEntity
  8
0
100
AcDbLine
 62
7
  6
CONTINUOUS
 10
139.4838552094
 20
32.5586140077
 11
139.5079751252
 21
32.6005072006
  0
LINE
  5
2EC
100
AcDbEntity
  8
0
100
AcDbLine
 62
7
  6
CONTINUOUS
 10
139.5077416449
 20
32.5826825543
 11
139.4835608592
 21
32.5407272694
  0
LINE
  5
2ED
100
AcDbEntity
  8
0
100
AcDbLine
 62
7
  6
CONTINUOUS
 10
122.6146916109
 20
36.4810840481
 11
122.6263613793
 21
36.5002188765
  0
LINE
  5
2EE
100
AcDbEntity
  8
0
100
AcDbLine
 62
7
  6
CONTINUOUS
 10
147.9410508748
 20
18.8209771177
 11
147.984069158
 21
18.8912644102
  0
LINE
  5
2EF
100
AcDbEntity
  8
0
100
AcDbLine
 62
7
  6
CONTINUOUS
 10
145.538405363
 20
17.3483031011
 11
145.5610277561
 21
17.3847923815
  0
LINE
  5
2F0
100
AcDbEntity
  8
0
100
AcDbLine
 62
7
  6
CONTINUOUS
 10
134.1698286423
 20
17.5024958615
 11
134.171613997
 21
17.5053328052
  0
LINE
  5
2F1
100
AcDbEntity
  8
0
100
AcDbLine
 62
7
  6
CONTINUOUS
 10
137.4444876192
 20
33.7465729113
 11
137.4704597076
 21
33.7877527717
  0
LINE
  5
2F2
100
AcDbEntity
  8
0
100
AcDbLine
 62
7
  6
CONTINUOUS
 10
139.4580601786
 20
32.5177843727
 11
139.4838552094
 21
32.5586140077
  0
LINE
  5
2F3
100
AcDbEntity
  8
0
100
AcDbLine
 62
7
  6
CONTINUOUS
 10
139.4835608592
 20
32.5407272694
 11
139.4577062299
 21
32.4998500011
  0
LINE
  5
2F4
100
AcDbEntity
  8
0
100
AcDbLine
 62
9
  6
CONTINUOUS
 10
145.599201541
 20
17.607846993
 11
145.6398057443
 21
17.6706770245
  0
LINE
  5
2F5
100
AcDbEntity
  8
0
100
AcDbLine
 62
7
  6
CONTINUOUS
 10
147.8956271846
 20
18.7522349129
 11
147.9410508748
 21
18.8209771177
  0
LINE
  5
2F6
100
AcDbEntity
  8
0
100
AcDbLine
 62
7
  6
CONTINUOUS
 10
134.1853678888
 20
17.524846222
 11
134.188147817
 21
17.5290197364
  0
LINE
  5
2F7
100
AcDbEntity
  8
0
100
AcDbLine
 62
7
  6
CONTINUOUS
 10
134.1700530329
 20
17.4731256471
 11
134.1717916035
 21
17.4757172699
  0
LINE
  5
2F8
100
AcDbEntity
  8
0
100
AcDbLine
 62
7
  6
CONTINUOUS
 10
134.1684986737
 20
17.4708545294
 11
134.1700530329
 21
17.4731256471
  0
LINE
  5
2F9
100
AcDbEntity
  8
0
100
AcDbLine
 62
7
  6
CONTINUOUS
 10
134.188147817
 20
17.5290197364
 11
134.2363590478
 21
17.5993785159
  0
LINE
  5
2FA
100
AcDbEntity
  8
0
100
AcDbLine
 62
7
  6
CONTINUOUS
 10
134.1954013322
 20
17.5095826786
 11
134.2566784863
 21
17.5988087843
  0
LINE
  5
2FB
100
AcDbEntity
  8
0
100
AcDbLine
 62
7
  6
CONTINUOUS
 10
134.1834053112
 20
17.4921198811
 11
134.1954013322
 21
17.5095826786
  0
LINE
  5
2FC
100
AcDbEntity
  8
0
100
AcDbLine
 62
7
  6
CONTINUOUS
 10
137.4704597076
 20
33.7877527717
 11
137.4981584746
 21
33.8278710741
  0
LINE
  5
2FD
100
AcDbEntity
  8
0
100
AcDbLine
 62
7
  6
CONTINUOUS
 10
139.430606528
 20
32.478036666
 11
139.4580601786
 21
32.5177843727
  0
LINE
  5
2FE
100
AcDbEntity
  8
0
100
AcDbLine
 62
7
  6
CONTINUOUS
 10
139.4577062299
 20
32.4998500011
 11
139.4301977013
 21
32.4600713537
  0
LINE
  5
2FF
100
AcDbEntity
  8
0
100
AcDbLine
 62
7
  6
CONTINUOUS
 10
122.6263613793
 20
36.5002188765
 11
122.639450221
 21
36.5190226885
  0
LINE
  5
300
100
AcDbEntity
  8
0
100
AcDbLine
 62
7
  6
CONTINUOUS
 10
133.7905024468
 20
17.5074531071
 11
133.8624564617
 21
17.6102140901
  0
LINE
  5
301
100
AcDbEntity
  8
0
100
AcDbLine
 62
7
  6
CONTINUOUS
 10
133.2584285872
 20
16.6930901728
 11
133.6639228133
 21
17.2721959435
  0
LINE
  5
302
100
AcDbEntity
  8
0
100
AcDbLine
 62
7
  6
CONTINUOUS
 10
134.182434217
 20
17.5206818116
 11
134.1853678888
 21
17.524846222
  0
LINE
  5
303
100
AcDbEntity
  8
0
100
AcDbLine
 62
7
  6
CONTINUOUS
 10
147.8478484133
 20
18.6851124321
 11
147.8956271846
 21
18.7522349129
  0
LINE
  5
304
100
AcDbEntity
  8
0
100
AcDbLine
 62
7
  6
CONTINUOUS
 10
134.167099697
 20
17.4689243212
 11
134.1684986737
 21
17.4708545294
  0
LINE
  5
305
100
AcDbEntity
  8
0
100
AcDbLine
 62
7
  6
CONTINUOUS
 10
139.4015598175
 20
32.4394614318
 11
139.430606528
 21
32.478036666
  0
LINE
  5
306
100
AcDbEntity
  8
0
100
AcDbLine
 62
7
  6
CONTINUOUS
 10
137.4981584746
 20
33.8278710741
 11
137.5275122987
 21
33.8668191313
  0
LINE
  5
307
100
AcDbEntity
  8
0
100
AcDbLine
 62
7
  6
CONTINUOUS
 10
139.4301977013
 20
32.4600713537
 11
139.401100541
 21
32.4214783419
  0
LINE
  5
308
100
AcDbEntity
  8
0
100
AcDbLine
 62
7
  6
CONTINUOUS
 10
145.5610277561
 20
17.3847923815
 11
145.5865296847
 21
17.4186149883
  0
LINE
  5
309
100
AcDbEntity
  8
0
100
AcDbLine
 62
7
  6
CONTINUOUS
 10
133.6639203293
 20
17.2721974709
 11
133.6840026684
 21
17.2988102312
  0
LINE
  5
30A
100
AcDbEntity
  8
0
100
AcDbLine
 62
7
  6
CONTINUOUS
 10
134.1717916035
 20
17.4757172699
 11
134.1740048996
 21
17.4786092072
  0
LINE
  5
30B
100
AcDbEntity
  8
0
100
AcDbLine
 62
7
  6
CONTINUOUS
 10
147.7977689763
 20
18.6196859812
 11
147.8478484133
 21
18.6851124321
  0
LINE
  5
30C
100
AcDbEntity
  8
0
100
AcDbLine
 62
7
  6
CONTINUOUS
 10
122.639450221
 20
36.5190226885
 11
122.6533545373
 21
36.5366253276
  0
LINE
  5
30D
100
AcDbEntity
  8
0
100
AcDbLine
 62
7
  6
CONTINUOUS
 10
134.167966507
 20
17.5001615752
 11
134.1698286423
 21
17.5024958615
  0
LINE
  5
30E
100
AcDbEntity
  8
0
100
AcDbLine
 62
7
  6
CONTINUOUS
 10
139.3709931135
 20
32.402145169
 11
139.4015598175
 21
32.4394614318
  0
LINE
  5
30F
100
AcDbEntity
  8
0
100
AcDbLine
 62
7
  6
CONTINUOUS
 10
139.401100541
 20
32.4214783419
 11
139.3704876892
 21
32.3841549356
  0
LINE
  5
310
100
AcDbEntity
  8
0
100
AcDbLine
 62
7
  6
CONTINUOUS
 10
137.5275122987
 20
33.8668191313
 11
137.5584397921
 21
33.9044941037
  0
LINE
  5
311
100
AcDbEntity
  8
0
100
AcDbLine
 62
7
  6
CONTINUOUS
 10
147.7454437684
 20
18.556028297
 11
147.7977689763
 21
18.6196859812
  0
LINE
  5
312
100
AcDbEntity
  8
0
100
AcDbLine
 62
7
  6
CONTINUOUS
 10
134.1786189381
 20
17.4852247881
 11
134.1814871759
 21
17.4886521314
  0
LINE
  5
313
100
AcDbEntity
  8
0
100
AcDbLine
 62
7
  6
CONTINUOUS
 10
133.6840026684
 20
17.2988102312
 11
133.7067053916
 21
17.324756675
  0
LINE
  5
314
100
AcDbEntity
  8
0
100
AcDbLine
 62
7
  6
CONTINUOUS
 10
147.6909293825
 20
18.4942105424
 11
147.7454437684
 21
18.556028297
  0
LINE
  5
315
100
AcDbEntity
  8
0
100
AcDbLine
 62
9
  6
CONTINUOUS
 10
145.6398057443
 20
17.6706770245
 11
145.6711505712
 21
17.706162665
  0
LINE
  5
316
100
AcDbEntity
  8
0
100
AcDbLine
 62
7
  6
CONTINUOUS
 10
122.6533545373
 20
36.5366253276
 11
122.6668435169
 21
36.5518331526
  0
LINE
  5
317
100
AcDbEntity
  8
0
100
AcDbLine
 62
7
  6
CONTINUOUS
 10
139.3389222966
 20
32.366100131
 11
139.3709931135
 21
32.402145169
  0
LINE
  5
318
100
AcDbEntity
  8
0
100
AcDbLine
 62
7
  6
CONTINUOUS
 10
139.3704876892
 20
32.3841549356
 11
139.338376245
 21
32.3481129286
  0
LINE
  5
319
100
AcDbEntity
  8
0
100
AcDbLine
 62
7
  6
CONTINUOUS
 10
137.5584397921
 20
33.9044941037
 11
137.590916036
 21
33.9408705959
  0
LINE
  5
31A
100
AcDbEntity
  8
0
100
AcDbLine
 62
7
  6
CONTINUOUS
 10
145.5865296847
 20
17.4186149883
 11
145.6144193425
 21
17.4494260469
  0
LINE
  5
31B
100
AcDbEntity
  8
0
100
AcDbLine
 62
7
  6
CONTINUOUS
 10
147.6342867634
 20
18.4343050687
 11
147.6909293825
 21
18.4942105424
  0
LINE
  5
31C
100
AcDbEntity
  8
0
100
AcDbLine
 62
7
  6
CONTINUOUS
 10
134.1753891598
 20
17.4818331777
 11
134.1786189381
 21
17.4852247881
  0
LINE
  5
31D
100
AcDbEntity
  8
0
100
AcDbLine
 62
7
  6
CONTINUOUS
 10
139.3053573782
 20
32.3313421494
 11
139.3389222966
 21
32.366100131
  0
LINE
  5
31E
100
AcDbEntity
  8
0
100
AcDbLine
 62
7
  6
CONTINUOUS
 10
139.338376245
 20
32.3481129286
 11
139.3047767433
 21
32.3133669381
  0
LINE
  5
31F
100
AcDbEntity
  8
0
100
AcDbLine
 62
7
  6
CONTINUOUS
 10
137.590916036
 20
33.9408705959
 11
137.6249196905
 21
33.9759205109
  0
LINE
  5
320
100
AcDbEntity
  8
0
100
AcDbLine
 62
7
  6
CONTINUOUS
 10
122.6668435169
 20
36.5518331526
 11
122.6809279273
 21
36.5660875008
  0
LINE
  5
321
100
AcDbEntity
  8
0
100
AcDbLine
 62
7
  6
CONTINUOUS
 10
140.0014866967
 20
17.1460773026
 11
140.3706928266
 21
17.5152834325
  0
LINE
  5
322
100
AcDbEntity
  8
0
100
AcDbLine
 62
7
  6
CONTINUOUS
 10
133.7067053916
 20
17.324756675
 11
133.730961108
 21
17.3486947838
  0
LINE
  5
323
100
AcDbEntity
  8
0
100
AcDbLine
 62
7
  6
CONTINUOUS
 10
147.5755673497
 20
18.376371332
 11
147.6342867634
 21
18.4343050687
  0
LINE
  5
324
100
AcDbEntity
  8
0
100
AcDbLine
 62
7
  6
CONTINUOUS
 10
140.3706945338
 20
17.5152852038
 11
140.3740310778
 21
17.518500047
  0
LINE
  5
325
100
AcDbEntity
  8
0
100
AcDbLine
 62
7
  6
CONTINUOUS
 10
139.2703753912
 20
32.2979578012
 11
139.3053573782
 21
32.3313421494
  0
LINE
  5
326
100
AcDbEntity
  8
0
100
AcDbLine
 62
7
  6
CONTINUOUS
 10
139.3047767433
 20
32.3133669381
 11
139.2697675026
 21
32.2800030683
  0
LINE
  5
327
100
AcDbEntity
  8
0
100
AcDbLine
 62
7
  6
CONTINUOUS
 10
134.1727766246
 20
17.5086683676
 11
134.1766859672
 21
17.5123909919
  0
LINE
  5
328
100
AcDbEntity
  8
0
100
AcDbLine
 62
7
  6
CONTINUOUS
 10
137.6249196905
 20
33.9759205109
 11
137.6603608355
 21
34.0095472415
  0
LINE
  5
329
100
AcDbEntity
  8
0
100
AcDbLine
 62
7
  6
CONTINUOUS
 10
145.6144193425
 20
17.4494260469
 11
145.6441354028
 21
17.4769681826
  0
LINE
  5
32A
100
AcDbEntity
  8
0
100
AcDbLine
 62
7
  6
CONTINUOUS
 10
147.5148687528
 20
18.3205091047
 11
147.5755673497
 21
18.376371332
  0
LINE
  5
32B
100
AcDbEntity
  8
0
100
AcDbLine
 62
7
  6
CONTINUOUS
 10
122.6809279273
 20
36.5660875008
 11
122.6966841721
 21
36.5803682706
  0
LINE
  5
32C
100
AcDbEntity
  8
0
100
AcDbLine
 62
7
  6
CONTINUOUS
 10
140.3740310778
 20
17.518500047
 11
140.3788834226
 21
17.5227757891
  0
LINE
  5
32D
100
AcDbEntity
  8
0
100
AcDbLine
 62
7
  6
CONTINUOUS
 10
139.2340595044
 20
32.2660271271
 11
139.2703753912
 21
32.2979578012
  0
LINE
  5
32E
100
AcDbEntity
  8
0
100
AcDbLine
 62
7
  6
CONTINUOUS
 10
139.2697675026
 20
32.2800030683
 11
139.2334326219
 21
32.2481004723
  0
LINE
  5
32F
100
AcDbEntity
  8
0
100
AcDbLine
 62
7
  6
CONTINUOUS
 10
137.6603608355
 20
34.0095472415
 11
137.6971410004
 21
34.0416619903
  0
LINE
  5
330
100
AcDbEntity
  8
0
100
AcDbLine
 62
7
  6
CONTINUOUS
 10
134.1766859672
 20
17.5123909919
 11
134.1814221588
 21
17.5164577281
  0
LINE
  5
331
100
AcDbEntity
  8
0
100
AcDbLine
 62
7
  6
CONTINUOUS
 10
147.4522731652
 20
18.266793697
 11
147.5148687528
 21
18.3205091047
  0
LINE
  5
332
100
AcDbEntity
  8
0
100
AcDbLine
 62
7
  6
CONTINUOUS
 10
133.730961108
 20
17.3486947838
 11
133.7565079924
 21
17.3705017235
  0
LINE
  5
333
100
AcDbEntity
  8
0
100
AcDbLine
 62
7
  6
CONTINUOUS
 10
139.1964236226
 20
32.2355651438
 11
139.2340595044
 21
32.2660271271
  0
LINE
  5
334
100
AcDbEntity
  8
0
100
AcDbLine
 62
7
  6
CONTINUOUS
 10
139.2334326219
 20
32.2481004723
 11
139.1957873016
 21
32.2176736287
  0
LINE
  5
335
100
AcDbEntity
  8
0
100
AcDbLine
 62
7
  6
CONTINUOUS
 10
122.6966841721
 20
36.5803682706
 11
122.7138400266
 21
36.5942010334
  0
LINE
  5
336
100
AcDbEntity
  8
0
100
AcDbLine
 62
7
  6
CONTINUOUS
 10
137.6971410004
 20
34.0416619903
 11
137.73523245
 21
34.0722449844
  0
LINE
  5
337
100
AcDbEntity
  8
0
100
AcDbLine
 62
7
  6
CONTINUOUS
 10
147.3879069744
 20
18.2153280589
 11
147.4522731652
 21
18.266793697
  0
LINE
  5
338
100
AcDbEntity
  8
0
100
AcDbLine
 62
7
  6
CONTINUOUS
 10
140.3788834226
 20
17.5227757891
 11
140.3837015057
 21
17.5266061357
  0
LINE
  5
339
100
AcDbEntity
  8
0
100
AcDbLine
 62
7
  6
CONTINUOUS
 10
145.6441354028
 20
17.4769681826
 11
145.6751061949
 21
17.5011133654
  0
LINE
  5
33A
100
AcDbEntity
  8
0
100
AcDbLine
 62
7
  6
CONTINUOUS
 10
147.3218931052
 20
18.1661975551
 11
147.3879069744
 21
18.2153280589
  0
LINE
  5
33B
100
AcDbEntity
  8
0
100
AcDbLine
 62
7
  6
CONTINUOUS
 10
139.1574765269
 20
32.2065913419
 11
139.1964236226
 21
32.2355651438
  0
LINE
  5
33C
100
AcDbEntity
  8
0
100
AcDbLine
 62
7
  6
CONTINUOUS
 10
139.1957873016
 20
32.2176736287
 11
139.1568413054
 21
32.1887411311
  0
LINE
  5
33D
100
AcDbEntity
  8
0
100
AcDbLine
 62
7
  6
CONTINUOUS
 10
133.7565079924
 20
17.3705017235
 11
133.7830814207
 21
17.3901007883
  0
LINE
  5
33E
100
AcDbEntity
  8
0
100
AcDbLine
 62
7
  6
CONTINUOUS
 10
137.73523245
 20
34.0722449844
 11
137.7746104532
 21
34.1012728406
  0
LINE
  5
33F
100
AcDbEntity
  8
0
100
AcDbLine
 62
7
  6
CONTINUOUS
 10
140.3837015057
 20
17.5266061357
 11
140.3884521624
 21
17.5300227735
  0
LINE
  5
340
100
AcDbEntity
  8
0
100
AcDbLine
 62
7
  6
CONTINUOUS
 10
122.7138400266
 20
36.5942010334
 11
122.7327910688
 21
36.6076781042
  0
LINE
  5
341
100
AcDbEntity
  8
0
100
AcDbLine
 62
7
  6
CONTINUOUS
 10
147.2543617834
 20
18.1194799139
 11
147.3218931052
 21
18.1661975551
  0
LINE
  5
342
100
AcDbEntity
  8
0
100
AcDbLine
 62
7
  6
CONTINUOUS
 10
139.117308229
 20
32.179186467
 11
139.1574765269
 21
32.2065913419
  0
LINE
  5
343
100
AcDbEntity
  8
0
100
AcDbLine
 62
7
  6
CONTINUOUS
 10
139.1568413054
 20
32.1887411311
 11
139.1166863489
 21
32.1613831541
  0
LINE
  5
344
100
AcDbEntity
  8
0
100
AcDbLine
 62
7
  6
CONTINUOUS
 10
137.7746104532
 20
34.1012728406
 11
137.8151700242
 21
34.1286646984
  0
LINE
  5
345
100
AcDbEntity
  8
0
100
AcDbLine
 62
7
  6
CONTINUOUS
 10
145.6751061949
 20
17.5011133654
 11
145.7066203137
 21
17.5217561634
  0
LINE
  5
346
100
AcDbEntity
  8
0
100
AcDbLine
 62
7
  6
CONTINUOUS
 10
140.3884521624
 20
17.5300227735
 11
140.3931144496
 21
17.533061633
  0
LINE
  5
347
100
AcDbEntity
  8
0
100
AcDbLine
 62
7
  6
CONTINUOUS
 10
147.1854567529
 20
18.0752486988
 11
147.2543617834
 21
18.1194799139
  0
LINE
  5
348
100
AcDbEntity
  8
0
100
AcDbLine
 62
7
  6
CONTINUOUS
 10
133.7830814207
 20
17.3901007883
 11
133.8104225116
 21
17.4074583281
  0
LINE
  5
349
100
AcDbEntity
  8
0
100
AcDbLine
 62
7
  6
CONTINUOUS
 10
139.0760119766
 20
32.1534220628
 11
139.117308229
 21
32.179186467
  0
LINE
  5
34A
100
AcDbEntity
  8
0
100
AcDbLine
 62
7
  6
CONTINUOUS
 10
139.1166863489
 20
32.1613831541
 11
139.0754182298
 21
32.1356709595
  0
LINE
  5
34B
100
AcDbEntity
  8
0
100
AcDbLine
 62
7
  6
CONTINUOUS
 10
122.7327910688
 20
36.6076781042
 11
122.7525570711
 21
36.6199639405
  0
LINE
  5
34C
100
AcDbEntity
  8
0
100
AcDbLine
 62
7
  6
CONTINUOUS
 10
137.8151700242
 20
34.1286646984
 11
137.85680007
 21
34.154349468
  0
LINE
  5
34D
100
AcDbEntity
  8
0
100
AcDbLine
 62
7
  6
CONTINUOUS
 10
138.9415467812
 20
17.0321774729
 11
138.9482818505
 21
17.0362423455
  0
LINE
  5
34E
100
AcDbEntity
  8
0
100
AcDbLine
 62
7
  6
CONTINUOUS
 10
147.1152910462
 20
18.0335461657
 11
147.1854567529
 21
18.0752486988
  0
LINE
  5
34F
100
AcDbEntity
  8
0
100
AcDbLine
 62
7
  6
CONTINUOUS
 10
140.3931144496
 20
17.533061633
 11
140.3976747433
 21
17.535757944
  0
LINE
  5
350
100
AcDbEntity
  8
0
100
AcDbLine
 62
9
  6
CONTINUOUS
 10
131.3204780099
 20
17.6601296476
 11
131.3180035615
 21
17.6586792236
  0
LINE
  5
351
100
AcDbEntity
  8
0
100
AcDbLine
 62
7
  6
CONTINUOUS
 10
139.0336097428
 20
32.1293207193
 11
139.0760119766
 21
32.1534220628
  0
LINE
  5
352
100
AcDbEntity
  8
0
100
AcDbLine
 62
7
  6
CONTINUOUS
 10
139.0754182298
 20
32.1356709595
 11
139.0330572653
 21
32.1116242412
  0
LINE
  5
353
100
AcDbEntity
  8
0
100
AcDbLine
 62
7
  6
CONTINUOUS
 10
138.9166529847
 20
17.01813186
 11
138.9415467812
 21
17.0321774729
  0
LINE
  5
354
100
AcDbEntity
  8
0
100
AcDbLine
 62
7
  6
CONTINUOUS
 10
137.85680007
 20
34.154349468
 11
137.8994679154
 21
34.1783108576
  0
LINE
  5
355
100
AcDbEntity
  8
0
100
AcDbLine
 62
7
  6
CONTINUOUS
 10
147.0440154584
 20
17.9944274454
 11
147.1152910462
 21
18.0335461657
  0
LINE
  5
356
100
AcDbEntity
  8
0
100
AcDbLine
 62
7
  6
CONTINUOUS
 10
145.7066203137
 20
17.5217561634
 11
145.7380908953
 21
17.5389960792
  0
LINE
  5
357
100
AcDbEntity
  8
0
100
AcDbLine
 62
7
  6
CONTINUOUS
 10
133.8104225116
 20
17.4074583281
 11
133.8382062462
 21
17.422539671
  0
LINE
  5
358
100
AcDbEntity
  8
0
100
AcDbLine
 62
7
  6
CONTINUOUS
 10
122.7525570711
 20
36.6199639405
 11
122.7717527212
 21
36.6303506915
  0
LINE
  5
359
100
AcDbEntity
  8
0
100
AcDbLine
 62
7
  6
CONTINUOUS
 10
140.3976747433
 20
17.535757944
 11
140.4021091126
 21
17.5381368179
  0
LINE
  5
35A
100
AcDbEntity
  8
0
100
AcDbLine
 62
7
  6
CONTINUOUS
 10
138.8889928288
 20
17.0037390882
 11
138.9166529847
 21
17.01813186
  0
LINE
  5
35B
100
AcDbEntity
  8
0
100
AcDbLine
 62
7
  6
CONTINUOUS
 10
138.9901198097
 20
32.1069089864
 11
139.0336097428
 21
32.1293207193
  0
LINE
  5
35C
100
AcDbEntity
  8
0
100
AcDbLine
 62
7
  6
CONTINUOUS
 10
139.0330572653
 20
32.1116242412
 11
138.9896221856
 21
32.089268162
  0
LINE
  5
35D
100
AcDbEntity
  8
0
100
AcDbLine
 62
7
  6
CONTINUOUS
 10
137.8994679154
 20
34.1783108576
 11
137.9431419886
 21
34.2005283685
  0
LINE
  5
35E
100
AcDbEntity
  8
0
100
AcDbLine
 62
7
  6
CONTINUOUS
 10
146.9716748328
 20
17.9578833741
 11
147.0440154584
 21
17.9944274454
  0
LINE
  5
35F
100
AcDbEntity
  8
0
100
AcDbLine
 62
7
  6
CONTINUOUS
 10
140.4021091126
 20
17.5381368179
 11
140.4064124883
 21
17.5402305376
  0
LINE
  5
360
100
AcDbEntity
  8
0
100
AcDbLine
 62
7
  6
CONTINUOUS
 10
138.8578164603
 20
16.9889655376
 11
138.8889928288
 21
17.0037390882
  0
LINE
  5
361
100
AcDbEntity
  8
0
100
AcDbLine
 62
7
  6
CONTINUOUS
 10
122.7717527212
 20
36.6303506915
 11
122.7911530613
 21
36.6394439147
  0
LINE
  5
362
100
AcDbEntity
  8
0
100
AcDbLine
 62
7
  6
CONTINUOUS
 10
138.9456461575
 20
32.0862570891
 11
138.9901198097
 21
32.1069089864
  0
LINE
  5
363
100
AcDbEntity
  8
0
100
AcDbLine
 62
7
  6
CONTINUOUS
 10
138.9896221856
 20
32.089268162
 11
138.9452118406
 21
32.0686690567
  0
LINE
  5
364
100
AcDbEntity
  8
0
100
AcDbLine
 62
7
  6
CONTINUOUS
 10
146.8983416916
 20
17.9239224646
 11
146.9716748328
 21
17.9578833741
  0
LINE
  5
365
100
AcDbEntity
  8
0
100
AcDbLine
 62
7
  6
CONTINUOUS
 10
133.8382062462
 20
17.422539671
 11
133.8661747651
 21
17.4353887189
  0
LINE
  5
366
100
AcDbEntity
  8
0
100
AcDbLine
 62
7
  6
CONTINUOUS
 10
137.9431419886
 20
34.2005283685
 11
137.9877091473
 21
34.2209415711
  0
LINE
  5
367
100
AcDbEntity
  8
0
100
AcDbLine
 62
7
  6
CONTINUOUS
 10
145.7380908953
 20
17.5389960792
 11
145.7684708479
 21
17.5528139489
  0
LINE
  5
368
100
AcDbEntity
  8
0
100
AcDbLine
 62
7
  6
CONTINUOUS
 10
140.4064124883
 20
17.5402305376
 11
140.4105344795
 21
17.5420480367
  0
LINE
  5
369
100
AcDbEntity
  8
0
100
AcDbLine
 62
7
  6
CONTINUOUS
 10
138.8278027219
 20
16.9761188455
 11
138.8578164603
 21
16.9889655376
  0
LINE
  5
36A
100
AcDbEntity
  8
0
100
AcDbLine
 62
7
  6
CONTINUOUS
 10
146.8240716575
 20
17.8925467137
 11
146.8983416916
 21
17.9239224646
  0
LINE
  5
36B
100
AcDbEntity
  8
0
100
AcDbLine
 62
7
  6
CONTINUOUS
 10
138.9002917027
 20
32.0674240625
 11
138.9456461575
 21
32.0862570891
  0
LINE
  5
36C
100
AcDbEntity
  8
0
100
AcDbLine
 62
7
  6
CONTINUOUS
 10
138.9452118406
 20
32.0686690567
 11
138.8999245819
 21
32.0498833659
  0
LINE
  5
36D
100
AcDbEntity
  8
0
100
AcDbLine
 62
7
  6
CONTINUOUS
 10
137.9877091473
 20
34.2209415711
 11
138.0330529843
 21
34.2395003292
  0
LINE
  5
36E
100
AcDbEntity
  8
0
100
AcDbLine
 62
7
  6
CONTINUOUS
 10
122.7911530613
 20
36.6394439147
 11
122.8111659453
 21
36.6474602327
  0
LINE
  5
36F
100
AcDbEntity
  8
0
100
AcDbLine
 62
7
  6
CONTINUOUS
 10
140.4105344795
 20
17.5420480367
 11
140.4144361828
 21
17.5436065011
  0
LINE
  5
370
100
AcDbEntity
  8
0
100
AcDbLine
 62
7
  6
CONTINUOUS
 10
138.8057065929
 20
16.9674861496
 11
138.8278027219
 21
16.9761188455
  0
LINE
  5
371
100
AcDbEntity
  8
0
100
AcDbLine
 62
7
  6
CONTINUOUS
 10
133.8661747651
 20
17.4353887189
 11
133.8938502562
 21
17.4459978696
  0
LINE
  5
372
100
AcDbEntity
  8
0
100
AcDbLine
 62
7
  6
CONTINUOUS
 10
146.7489276879
 20
17.8637634718
 11
146.8240716575
 21
17.8925467137
  0
LINE
  5
373
100
AcDbEntity
  8
0
100
AcDbLine
 62
7
  6
CONTINUOUS
 10
145.7684708479
 20
17.5528139489
 11
145.7969772072
 21
17.5634836547
  0
LINE
  5
374
100
AcDbEntity
  8
0
100
AcDbLine
 62
7
  6
CONTINUOUS
 10
138.8541000957
 20
32.0504389109
 11
138.9002917027
 21
32.0674240625
  0
LINE
  5
375
100
AcDbEntity
  8
0
100
AcDbLine
 62
7
  6
CONTINUOUS
 10
138.8999245819
 20
32.0498833659
 11
138.8538004636
 21
32.032938725
  0
LINE
  5
376
100
AcDbEntity
  8
0
100
AcDbLine
 62
7
  6
CONTINUOUS
 10
138.0330529843
 20
34.2395003292
 11
138.0791329647
 21
34.2561912128
  0
LINE
  5
377
100
AcDbEntity
  8
0
100
AcDbLine
 62
7
  6
CONTINUOUS
 10
140.4144361828
 20
17.5436065011
 11
140.4180852427
 21
17.5449267671
  0
LINE
  5
378
100
AcDbEntity
  8
0
100
AcDbLine
 62
7
  6
CONTINUOUS
 10
138.7857373943
 20
16.960265745
 11
138.8057065929
 21
16.9674861496
  0
LINE
  5
379
100
AcDbEntity
  8
0
100
AcDbLine
 62
7
  6
CONTINUOUS
 10
146.6729483921
 20
17.8375733784
 11
146.7489276879
 21
17.8637634718
  0
LINE
  5
37A
100
AcDbEntity
  8
0
100
AcDbLine
 62
7
  6
CONTINUOUS
 10
138.7631168168
 20
16.9527347929
 11
138.7857373943
 21
16.960265745
  0
LINE
  5
37B
100
AcDbEntity
  8
0
100
AcDbLine
 62
7
  6
CONTINUOUS
 10
140.4180852427
 20
17.5449267671
 11
140.421442919
 21
17.546027791
  0
LINE
  5
37C
100
AcDbEntity
  8
0
100
AcDbLine
 62
7
  6
CONTINUOUS
 10
138.8071094785
 20
32.0353311558
 11
138.8541000957
 21
32.0504389109
  0
LINE
  5
37D
100
AcDbEntity
  8
0
100
AcDbLine
 62
7
  6
CONTINUOUS
 10
138.8538004636
 20
32.032938725
 11
138.8068720013
 21
32.0178632842
  0
LINE
  5
37E
100
AcDbEntity
  8
0
100
AcDbLine
 62
7
  6
CONTINUOUS
 10
138.0791329647
 20
34.2561912128
 11
138.1259076987
 21
34.2709971622
  0
LINE
  5
37F
100
AcDbEntity
  8
0
100
AcDbLine
 62
7
  6
CONTINUOUS
 10
133.8938502562
 20
17.4459978696
 11
133.9209512106
 21
17.4544983564
  0
LINE
  5
380
100
AcDbEntity
  8
0
100
AcDbLine
 62
7
  6
CONTINUOUS
 10
146.5961943669
 20
17.8139880524
 11
146.6729483921
 21
17.8375733784
  0
LINE
  5
381
100
AcDbEntity
  8
0
100
AcDbLine
 62
7
  6
CONTINUOUS
 10
138.7407331006
 20
16.9459430809
 11
138.7631168168
 21
16.9527347929
  0
LINE
  5
382
100
AcDbEntity
  8
0
100
AcDbLine
 62
7
  6
CONTINUOUS
 10
140.421442919
 20
17.546027791
 11
140.4244989825
 21
17.5469371587
  0
LINE
  5
383
100
AcDbEntity
  8
0
100
AcDbLine
 62
7
  6
CONTINUOUS
 10
138.2693214725
 20
34.3037790462
 11
138.3179210088
 21
34.3107750766
  0
LINE
  5
384
100
AcDbEntity
  8
0
100
AcDbLine
 62
7
  6
CONTINUOUS
 10
122.8762721787
 20
36.6649358501
 11
122.8996134354
 21
36.6682440789
  0
LINE
  5
385
100
AcDbEntity
  8
0
100
AcDbLine
 62
7
  6
CONTINUOUS
 10
138.5640563183
 20
31.989419348
 11
138.6134421109
 21
31.99456446
  0
LINE
  5
386
100
AcDbEntity
  8
0
100
AcDbLine
 62
7
  6
CONTINUOUS
 10
138.6133912808
 20
31.9771614032
 11
138.5640320133
 21
31.9720206631
  0
LINE
  5
387
100
AcDbEntity
  8
0
100
AcDbLine
 62
7
  6
CONTINUOUS
 10
138.3179210088
 20
34.3107750766
 11
138.3667761369
 21
34.3157808382
  0
LINE
  5
388
100
AcDbEntity
  8
0
100
AcDbLine
 62
7
  6
CONTINUOUS
 10
122.8996134354
 20
36.6682440789
 11
122.9235453478
 21
36.6700988423
  0
LINE
  5
389
100
AcDbEntity
  8
0
100
AcDbLine
 62
7
  6
CONTINUOUS
 10
138.5640320133
 20
31.9720206631
 11
138.5145019678
 21
31.9689326518
  0
LINE
  5
38A
100
AcDbEntity
  8
0
100
AcDbLine
 62
7
  6
CONTINUOUS
 10
138.5145093314
 20
31.9863296
 11
138.5640563183
 21
31.989419348
  0
LINE
  5
38B
100
AcDbEntity
  8
0
100
AcDbLine
 62
7
  6
CONTINUOUS
 10
138.3667761369
 20
34.3157808382
 11
138.4157869622
 21
34.3187867346
  0
LINE
  5
38C
100
AcDbEntity
  8
0
100
AcDbLine
 62
7
  6
CONTINUOUS
 10
136.7175080288
 20
17.5473595481
 11
136.7531370313
 21
17.5485212304
  0
LINE
  5
38D
100
AcDbEntity
  8
0
100
AcDbLine
 62
7
  6
CONTINUOUS
 10
137.4679114703
 20
17.5780432025
 11
137.561236034
 21
17.5809883639
  0
LINE
  5
38E
100
AcDbEntity
  8
0
100
AcDbLine
 62
7
  6
CONTINUOUS
 10
143.1828233066
 20
17.4774008591
 11
143.0827169238
 21
17.4743901702
  0
LINE
  5
38F
100
AcDbEntity
  8
0
100
AcDbLine
 62
7
  6
CONTINUOUS
 10
142.6581459052
 20
17.5983913635
 11
143.5436962181
 21
17.6250214337
  0
LINE
  5
390
100
AcDbEntity
  8
0
100
AcDbLine
 62
7
  6
CONTINUOUS
 10
143.2049618395
 20
17.5093578064
 11
143.0180675383
 21
17.5038215692
  0
LINE
  5
391
100
AcDbEntity
  8
0
100
AcDbLine
 62
7
  6
CONTINUOUS
 10
137.561236034
 20
17.5809883639
 11
137.6571245637
 21
17.5837465898
  0
LINE
  5
392
100
AcDbEntity
  8
0
100
AcDbLine
 62
7
  6
CONTINUOUS
 10
143.0827169238
 20
17.4743901702
 11
142.9255999716
 21
17.470178083
  0
LINE
  5
393
100
AcDbEntity
  8
0
100
AcDbLine
 62
7
  6
CONTINUOUS
 10
143.0180675383
 20
17.5038215692
 11
142.9408744843
 21
17.5018057942
  0
LINE
  5
394
100
AcDbEntity
  8
0
100
AcDbLine
 62
7
  6
CONTINUOUS
 10
141.7419915932
 20
17.5747821507
 11
142.6581459052
 21
17.5983913635
  0
LINE
  5
395
100
AcDbEntity
  8
0
100
AcDbLine
 62
7
  6
CONTINUOUS
 10
137.6571245637
 20
17.5837465898
 11
137.755752957
 21
17.5862901369
  0
LINE
  5
396
100
AcDbEntity
  8
0
100
AcDbLine
 62
7
  6
CONTINUOUS
 10
138.5065192222
 20
16.9111667107
 11
138.5174162806
 21
16.9114330764
  0
LINE
  5
397
100
AcDbEntity
  8
0
100
AcDbLine
 62
7
  6
CONTINUOUS
 10
142.9408744843
 20
17.5018057942
 11
142.8770884702
 21
17.5003605866
  0
LINE
  5
398
100
AcDbEntity
  8
0
100
AcDbLine
 62
7
  6
CONTINUOUS
 10
137.755752957
 20
17.5862901369
 11
137.8569850384
 21
17.5885811693
  0
LINE
  5
399
100
AcDbEntity
  8
0
100
AcDbLine
 62
7
  6
CONTINUOUS
 10
142.9255999716
 20
17.470178083
 11
142.8675276019
 21
17.4689159358
  0
LINE
  5
39A
100
AcDbEntity
  8
0
100
AcDbLine
 62
7
  6
CONTINUOUS
 10
140.995905237
 20
17.5588173516
 11
141.7419915932
 21
17.5747821507
  0
LINE
  5
39B
100
AcDbEntity
  8
0
100
AcDbLine
 62
7
  6
CONTINUOUS
 10
138.5145019678
 20
31.9689326518
 11
138.4648750447
 21
31.9679023763
  0
LINE
  5
39C
100
AcDbEntity
  8
0
100
AcDbLine
 62
7
  6
CONTINUOUS
 10
138.4648750447
 20
31.9852990139
 11
138.5145093314
 21
31.9863296
  0
LINE
  5
39D
100
AcDbEntity
  8
0
100
AcDbLine
 62
7
  6
CONTINUOUS
 10
138.4157869622
 20
34.3187867346
 11
138.4648750445
 21
34.3197890395
  0
LINE
  5
39E
100
AcDbEntity
  8
0
100
AcDbLine
 62
7
  6
CONTINUOUS
 10
137.8569850384
 20
17.5885811693
 11
137.960888189
 21
17.5905871404
  0
LINE
  5
39F
100
AcDbEntity
  8
0
100
AcDbLine
 62
7
  6
CONTINUOUS
 10
142.8770884702
 20
17.5003605866
 11
142.8271761574
 21
17.499488393
  0
LINE
  5
3A0
100
AcDbEntity
  8
0
100
AcDbLine
 62
7
  6
CONTINUOUS
 10
140.3769312375
 20
17.5483603797
 11
140.995905237
 21
17.5588173516
  0
LINE
  5
3A1
100
AcDbEntity
  8
0
100
AcDbLine
 62
7
  6
CONTINUOUS
 10
138.4951446833
 20
16.9109805334
 11
138.5065192222
 21
16.9111667107
  0
LINE
  5
3A2
100
AcDbEntity
  8
0
100
AcDbLine
 62
7
  6
CONTINUOUS
 10
142.8675276019
 20
17.4689159358
 11
142.8221464479
 21
17.4681713012
  0
LINE
  5
3A3
100
AcDbEntity
  8
0
100
AcDbLine
 62
7
  6
CONTINUOUS
 10
137.960888189
 20
17.5905871404
 11
138.0677333966
 21
17.5922768709
  0
LINE
  5
3A4
100
AcDbEntity
  8
0
100
AcDbLine
 62
7
  6
CONTINUOUS
 10
140.3048702851
 20
17.5472824213
 11
140.3769312375
 21
17.5483603797
  0
LINE
  5
3A5
100
AcDbEntity
  8
0
100
AcDbLine
 62
7
  6
CONTINUOUS
 10
122.9235453478
 20
36.6700988423
 11
122.9464724298
 21
36.6704372513
  0
LINE
  5
3A6
100
AcDbEntity
  8
0
100
AcDbLine
 62
7
  6
CONTINUOUS
 10
134.1401913076
 20
17.4679336807
 11
134.1599168365
 21
17.4681893097
  0
LINE
  5
3A7
100
AcDbEntity
  8
0
100
AcDbLine
 62
7
  6
CONTINUOUS
 10
136.6835373477
 20
17.5469185365
 11
136.7175080288
 21
17.5473595481
  0
LINE
  5
3A8
100
AcDbEntity
  8
0
100
AcDbLine
 62
7
  6
CONTINUOUS
 10
138.0677333966
 20
17.5922768709
 11
138.1775974852
 21
17.59361026
  0
LINE
  5
3A9
100
AcDbEntity
  8
0
100
AcDbLine
 62
7
  6
CONTINUOUS
 10
140.2764493316
 20
17.5469793739
 11
140.3048702851
 21
17.5472824213
  0
LINE
  5
3AA
100
AcDbEntity
  8
0
100
AcDbLine
 62
7
  6
CONTINUOUS
 10
134.1386233533
 20
17.4991723728
 11
134.1602588736
 21
17.4994032216
  0
LINE
  5
3AB
100
AcDbEntity
  8
0
100
AcDbLine
 62
7
  6
CONTINUOUS
 10
138.4823975475
 20
16.9108568289
 11
138.4951446833
 21
16.9109805334
  0
LINE
  5
3AC
100
AcDbEntity
  8
0
100
AcDbLine
 62
7
  6
CONTINUOUS
 10
142.8271761574
 20
17.499488393
 11
142.7911267354
 21
17.4991723728
  0
LINE
  5
3AD
100
AcDbEntity
  8
0
100
AcDbLine
 62
7
  6
CONTINUOUS
 10
138.1775974852
 20
17.59361026
 11
138.290387926
 21
17.5945428479
  0
LINE
  5
3AE
100
AcDbEntity
  8
0
100
AcDbLine
 62
7
  6
CONTINUOUS
 10
142.8221464479
 20
17.4681713012
 11
142.7895587811
 21
17.4679336807
  0
LINE
  5
3AF
100
AcDbEntity
  8
0
100
AcDbLine
 62
7
  6
CONTINUOUS
 10
153.983297675
 20
36.6704376464
 11
153.4431201899
 21
36.6679692212
  0
LINE
  5
3B0
100
AcDbEntity
  8
0
100
AcDbLine
 62
7
  6
CONTINUOUS
 10
138.290387926
 20
17.5945428479
 11
138.4060447901
 21
17.5950299942
  0
LINE
  5
3B1
100
AcDbEntity
  8
0
100
AcDbLine
 62
7
  6
CONTINUOUS
 10
138.4684975896
 20
16.9108013657
 11
138.4823975475
 21
16.9108568289
  0
LINE
  5
3B2
100
AcDbEntity
  8
0
100
AcDbLine
 62
7
  6
CONTINUOUS
 10
140.2452497326
 20
17.5469239485
 11
140.2764493316
 21
17.5469793739
  0
LINE
  5
3B3
100
AcDbEntity
  8
0
100
AcDbLine
 62
7
  6
CONTINUOUS
 10
153.4431201899
 20
36.6679692212
 11
150.4366043364
 21
36.664326282
  0
LINE
  5
3B4
100
AcDbEntity
  8
0
100
AcDbLine
 62
7
  6
CONTINUOUS
 10
150.4366043364
 20
36.664326282
 11
142.5526173327
 21
36.65679999
  0
LINE
  5
3B5
100
AcDbEntity
  8
0
100
AcDbLine
 62
7
  6
CONTINUOUS
 10
142.5526173327
 20
36.65679999
 11
140.9470474846
 21
36.6557980361
  0
LINE
  5
3B6
100
AcDbEntity
  8
0
100
AcDbLine
 62
7
  6
CONTINUOUS
 10
140.9470474846
 20
36.6557980361
 11
139.2925157605
 21
36.6552395012
  0
LINE
  5
3B7
100
AcDbEntity
  8
0
100
AcDbLine
 62
7
  6
CONTINUOUS
 10
137.1934284349
 20
17.0362423455
 11
139.7363216537
 21
17.0362423455
  0
LINE
  5
3B8
100
AcDbEntity
  8
0
100
AcDbLine
 62
7
  6
CONTINUOUS
 10
138.4060447901
 20
17.5950299942
 11
138.5236907346
 21
17.5950300253
  0
LINE
  5
3B9
100
AcDbEntity
  8
0
100
AcDbLine
 62
7
  6
CONTINUOUS
 10
122.4648750443
 20
35.1612423455
 11
154.4648750443
 21
35.1612423455
  0
LINE
  5
3BA
100
AcDbEntity
  8
0
100
AcDbLine
 62
7
  6
CONTINUOUS
 10
139.2925157605
 20
36.6552395012
 11
137.6370816857
 21
36.6552395276
  0
LINE
  5
3BB
100
AcDbEntity
  8
0
100
AcDbLine
 62
7
  6
CONTINUOUS
 10
137.6370816857
 20
36.6552395276
 11
135.9825671344
 21
36.6557981031
  0
LINE
  5
3BC
100
AcDbEntity
  8
0
100
AcDbLine
 62
7
  6
CONTINUOUS
 10
135.9825671344
 20
36.6557981031
 11
134.3770139509
 21
36.6568000781
  0
LINE
  5
3BD
100
AcDbEntity
  8
0
100
AcDbLine
 62
7
  6
CONTINUOUS
 10
134.3770139509
 20
36.6568000781
 11
132.0640666183
 21
36.6587966215
  0
LINE
  5
3BE
100
AcDbEntity
  8
0
100
AcDbLine
 62
7
  6
CONTINUOUS
 10
132.0640666183
 20
36.6587966215
 11
126.493108772
 21
36.6643263202
  0
LINE
  5
3BF
100
AcDbEntity
  8
0
100
AcDbLine
 62
7
  6
CONTINUOUS
 10
126.493108772
 20
36.6643263202
 11
125.8627915821
 21
36.6650228174
  0
LINE
  5
3C0
100
AcDbEntity
  8
0
100
AcDbLine
 62
7
  6
CONTINUOUS
 10
125.8627915821
 20
36.6650228174
 11
123.4866240877
 21
36.6679692283
  0
LINE
  5
3C1
100
AcDbEntity
  8
0
100
AcDbLine
 62
7
  6
CONTINUOUS
 10
138.45343009
 20
16.9108232943
 11
138.4684975896
 21
16.9108013657
  0
LINE
  5
3C2
100
AcDbEntity
  8
0
100
AcDbLine
 62
7
  6
CONTINUOUS
 10
136.6522300643
 20
17.5469870255
 11
136.6835373477
 21
17.5469185365
  0
LINE
  5
3C3
100
AcDbEntity
  8
0
100
AcDbLine
 62
7
  6
CONTINUOUS
 10
138.5236907346
 20
17.5950300253
 11
138.6393045702
 21
17.5945432095
  0
LINE
  5
3C4
100
AcDbEntity
  8
0
100
AcDbLine
 62
7
  6
CONTINUOUS
 10
123.4866240877
 20
36.6679692283
 11
122.9464524137
 21
36.6704376464
  0
LINE
  5
3C5
100
AcDbEntity
  8
0
100
AcDbLine
 62
7
  6
CONTINUOUS
 10
154.0000115254
 20
36.6703285487
 11
153.9832784521
 21
36.670437263
  0
LINE
  5
3C6
100
AcDbEntity
  8
0
100
AcDbLine
 62
7
  6
CONTINUOUS
 10
138.4388771744
 20
16.9109302587
 11
138.45343009
 21
16.9108232943
  0
LINE
  5
3C7
100
AcDbEntity
  8
0
100
AcDbLine
 62
7
  6
CONTINUOUS
 10
134.1076036408
 20
17.4681713012
 11
134.1401913076
 21
17.4679336807
  0
LINE
  5
3C8
100
AcDbEntity
  8
0
100
AcDbLine
 62
7
  6
CONTINUOUS
 10
138.6393045702
 20
17.5945432095
 11
138.7520415702
 21
17.5936113971
  0
LINE
  5
3C9
100
AcDbEntity
  8
0
100
AcDbLine
 62
7
  6
CONTINUOUS
 10
134.1025739312
 20
17.499488393
 11
134.1386233533
 21
17.4991723728
  0
LINE
  5
3CA
100
AcDbEntity
  8
0
100
AcDbLine
 62
7
  6
CONTINUOUS
 10
142.7911267354
 20
17.4991723728
 11
142.7694912151
 21
17.4994032216
  0
LINE
  5
3CB
100
AcDbEntity
  8
0
100
AcDbLine
 62
7
  6
CONTINUOUS
 10
138.7520415702
 20
17.5936113971
 11
138.8618537821
 21
17.5922791538
  0
LINE
  5
3CC
100
AcDbEntity
  8
0
100
AcDbLine
 62
7
  6
CONTINUOUS
 10
142.7895587811
 20
17.4679336807
 11
142.7698332522
 21
17.4681893097
  0
LINE
  5
3CD
100
AcDbEntity
  8
0
100
AcDbLine
 62
7
  6
CONTINUOUS
 10
136.5766502396
 20
17.5480040458
 11
136.6522300643
 21
17.5469870255
  0
LINE
  5
3CE
100
AcDbEntity
  8
0
100
AcDbLine
 62
7
  6
CONTINUOUS
 10
140.2114309659
 20
17.5473779354
 11
140.2452497326
 21
17.5469239485
  0
LINE
  5
3CF
100
AcDbEntity
  8
0
100
AcDbLine
 62
7
  6
CONTINUOUS
 10
154.0062919731
 20
36.669101773
 11
153.982513575
 21
36.6694257477
  0
LINE
  5
3D0
100
AcDbEntity
  8
0
100
AcDbLine
 62
7
  6
CONTINUOUS
 10
138.4260534759
 20
16.9111126553
 11
138.4388771744
 21
16.9109302587
  0
LINE
  5
3D1
100
AcDbEntity
  8
0
100
AcDbLine
 62
7
  6
CONTINUOUS
 10
138.8618537821
 20
17.5922791538
 11
138.9686509346
 21
17.5905908524
  0
LINE
  5
3D2
100
AcDbEntity
  8
0
100
AcDbLine
 62
7
  6
CONTINUOUS
 10
134.0622224868
 20
17.4689159358
 11
134.1076036408
 21
17.4681713012
  0
LINE
  5
3D3
100
AcDbEntity
  8
0
100
AcDbLine
 62
7
  6
CONTINUOUS
 10
134.0526616185
 20
17.5003605866
 11
134.1025739312
 21
17.499488393
  0
LINE
  5
3D4
100
AcDbEntity
  8
0
100
AcDbLine
 62
7
  6
CONTINUOUS
 10
138.9686509346
 20
17.5905908524
 11
139.0725089552
 21
17.5885865469
  0
LINE
  5
3D5
100
AcDbEntity
  8
0
100
AcDbLine
 62
7
  6
CONTINUOUS
 10
138.4648750445
 20
34.3197890395
 11
138.5139631242
 21
34.3187867345
  0
LINE
  5
3D6
100
AcDbEntity
  8
0
100
AcDbLine
 62
7
  6
CONTINUOUS
 10
138.4648750447
 20
31.9679023763
 11
138.4152391429
 21
31.9689330229
  0
LINE
  5
3D7
100
AcDbEntity
  8
0
100
AcDbLine
 62
7
  6
CONTINUOUS
 10
138.4152474367
 20
31.9863293239
 11
138.4648750447
 21
31.9852990139
  0
LINE
  5
3D8
100
AcDbEntity
  8
0
100
AcDbLine
 62
7
  6
CONTINUOUS
 10
134.0041501171
 20
17.470178083
 11
134.0622224868
 21
17.4689159358
  0
LINE
  5
3D9
100
AcDbEntity
  8
0
100
AcDbLine
 62
7
  6
CONTINUOUS
 10
133.9888756044
 20
17.5018057942
 11
134.0526616185
 21
17.5003605866
  0
LINE
  5
3DA
100
AcDbEntity
  8
0
100
AcDbLine
 62
7
  6
CONTINUOUS
 10
139.0725089552
 20
17.5885865469
 11
139.1736999208
 21
17.5862973418
  0
LINE
  5
3DB
100
AcDbEntity
  8
0
100
AcDbLine
 62
7
  6
CONTINUOUS
 10
138.4137239094
 20
16.911393572
 11
138.4260534759
 21
16.9111126553
  0
LINE
  5
3DC
100
AcDbEntity
  8
0
100
AcDbLine
 62
7
  6
CONTINUOUS
 10
139.1736999208
 20
17.5862973418
 11
139.2722907391
 21
17.5837557325
  0
LINE
  5
3DD
100
AcDbEntity
  8
0
100
AcDbLine
 62
7
  6
CONTINUOUS
 10
133.8470331649
 20
17.4743901702
 11
134.0041501171
 21
17.470178083
  0
LINE
  5
3DE
100
AcDbEntity
  8
0
100
AcDbLine
 62
7
  6
CONTINUOUS
 10
132.0688617603
 20
17.6722381241
 11
136.5766502396
 21
17.5480040458
  0
LINE
  5
3DF
100
AcDbEntity
  8
0
100
AcDbLine
 62
7
  6
CONTINUOUS
 10
133.717903446
 20
17.5095699816
 11
133.9888756044
 21
17.5018057942
  0
LINE
  5
3E0
100
AcDbEntity
  8
0
100
AcDbLine
 62
7
  6
CONTINUOUS
 10
139.2722907391
 20
17.5837557325
 11
139.368143603
 21
17.5809995497
  0
LINE
  5
3E1
100
AcDbEntity
  8
0
100
AcDbLine
 62
7
  6
CONTINUOUS
 10
133.500678576
 20
17.4853756098
 11
133.8470331649
 21
17.4743901702
  0
LINE
  5
3E2
100
AcDbEntity
  8
0
100
AcDbLine
 62
7
  6
CONTINUOUS
 10
139.368143603
 20
17.5809995497
 11
139.5072364395
 21
17.5765197826
  0
LINE
  5
3E3
100
AcDbEntity
  8
0
100
AcDbLine
 62
7
  6
CONTINUOUS
 10
133.4702286168
 20
17.5176674337
 11
133.717903446
 21
17.5095699816
  0
LINE
  5
3E4
100
AcDbEntity
  8
0
100
AcDbLine
 62
7
  6
CONTINUOUS
 10
140.1759644197
 20
17.5485467874
 11
140.2114309659
 21
17.5473779354
  0
LINE
  5
3E5
100
AcDbEntity
  8
0
100
AcDbLine
 62
7
  6
CONTINUOUS
 10
138.4011769992
 20
16.9118154267
 11
138.4137239094
 21
16.911393572
  0
LINE
  5
3E6
100
AcDbEntity
  8
0
100
AcDbLine
 62
7
  6
CONTINUOUS
 10
133.1965504919
 20
17.4958452175
 11
133.500678576
 21
17.4853756098
  0
LINE
  5
3E7
100
AcDbEntity
  8
0
100
AcDbLine
 62
7
  6
CONTINUOUS
 10
133.1691876818
 20
17.5280769172
 11
133.4702286168
 21
17.5176674337
  0
LINE
  5
3E8
100
AcDbEntity
  8
0
100
AcDbLine
 62
7
  6
CONTINUOUS
 10
132.6716304396
 20
17.5146571461
 11
133.1965504919
 21
17.4958452175
  0
LINE
  5
3E9
100
AcDbEntity
  8
0
100
AcDbLine
 62
7
  6
CONTINUOUS
 10
139.5072364395
 20
17.5765197826
 11
139.6412779991
 21
17.5717045577
  0
LINE
  5
3EA
100
AcDbEntity
  8
0
100
AcDbLine
 62
7
  6
CONTINUOUS
 10
131.902050039
 20
17.5745518947
 11
133.1691876818
 21
17.5280769172
  0
LINE
  5
3EB
100
AcDbEntity
  8
0
100
AcDbLine
 62
7
  6
CONTINUOUS
 10
131.9722105628
 20
17.5405936848
 11
132.6716304396
 21
17.5146571461
  0
LINE
  5
3EC
100
AcDbEntity
  8
0
100
AcDbLine
 62
7
  6
CONTINUOUS
 10
139.6412779991
 20
17.5717045577
 11
139.7691943727
 21
17.566757571
  0
LINE
  5
3ED
100
AcDbEntity
  8
0
100
AcDbLine
 62
7
  6
CONTINUOUS
 10
131.6585671785
 20
17.5528212417
 11
131.9722105628
 21
17.5405936848
  0
LINE
  5
3EE
100
AcDbEntity
  8
0
100
AcDbLine
 62
7
  6
CONTINUOUS
 10
131.6391217966
 20
17.5848779359
 11
131.902050039
 21
17.5745518947
  0
LINE
  5
3EF
100
AcDbEntity
  8
0
100
AcDbLine
 62
7
  6
CONTINUOUS
 10
139.7691943727
 20
17.566757571
 11
139.9850201024
 21
17.5578668187
  0
LINE
  5
3F0
100
AcDbEntity
  8
0
100
AcDbLine
 62
7
  6
CONTINUOUS
 10
131.3902572315
 20
17.5640138169
 11
131.6585671785
 21
17.5528212417
  0
LINE
  5
3F1
100
AcDbEntity
  8
0
100
AcDbLine
 62
7
  6
CONTINUOUS
 10
131.4089519708
 20
17.5944773337
 11
131.6391217966
 21
17.5848779359
  0
LINE
  5
3F2
100
AcDbEntity
  8
0
100
AcDbLine
 62
7
  6
CONTINUOUS
 10
131.309088749
 20
17.7039349444
 11
132.0688617603
 21
17.6722381241
  0
LINE
  5
3F3
100
AcDbEntity
  8
0
100
AcDbLine
 62
7
  6
CONTINUOUS
 10
131.309099432
 20
17.5989309436
 11
131.4089519708
 21
17.5944773337
  0
LINE
  5
3F4
100
AcDbEntity
  8
0
100
AcDbLine
 62
7
  6
CONTINUOUS
 10
131.2772166256
 20
17.5691254326
 11
131.3902572315
 21
17.5640138169
  0
LINE
  5
3F5
100
AcDbEntity
  8
0
100
AcDbLine
 62
7
  6
CONTINUOUS
 10
130.8823107774
 20
17.7232481579
 11
131.309088749
 21
17.7039349444
  0
LINE
  5
3F6
100
AcDbEntity
  8
0
100
AcDbLine
 62
7
  6
CONTINUOUS
 10
140.1397832379
 20
17.5502216499
 11
140.1759644197
 21
17.5485467874
  0
LINE
  5
3F7
100
AcDbEntity
  8
0
100
AcDbLine
 62
7
  6
CONTINUOUS
 10
138.3878146358
 20
16.9124386391
 11
138.4011769992
 21
16.9118154267
  0
LINE
  5
3F8
100
AcDbEntity
  8
0
100
AcDbLine
 62
7
  6
CONTINUOUS
 10
139.9850201024
 20
17.5578668187
 11
140.0648926475
 21
17.5541411148
  0
LINE
  5
3F9
100
AcDbEntity
  8
0
100
AcDbLine
 62
7
  6
CONTINUOUS
 10
131.2206037549
 20
17.6031246715
 11
131.309099432
 21
17.5989309436
  0
LINE
  5
3FA
100
AcDbEntity
  8
0
100
AcDbLine
 62
7
  6
CONTINUOUS
 10
131.1813346161
 20
17.573801555
 11
131.2772166256
 21
17.5691254326
  0
LINE
  5
3FB
100
AcDbEntity
  8
0
100
AcDbLine
 62
7
  6
CONTINUOUS
 10
131.1441564943
 20
17.607039358
 11
131.2206037549
 21
17.6031246715
  0
LINE
  5
3FC
100
AcDbEntity
  8
0
100
AcDbLine
 62
7
  6
CONTINUOUS
 10
140.0648926475
 20
17.5541411148
 11
140.1397832379
 21
17.5502216499
  0
LINE
  5
3FD
100
AcDbEntity
  8
0
100
AcDbLine
 62
7
  6
CONTINUOUS
 10
131.1024875438
 20
17.5780532321
 11
131.1813346161
 21
17.573801555
  0
LINE
  5
3FE
100
AcDbEntity
  8
0
100
AcDbLine
 62
7
  6
CONTINUOUS
 10
131.0804526509
 20
17.6106512915
 11
131.1441564943
 21
17.607039358
  0
LINE
  5
3FF
100
AcDbEntity
  8
0
100
AcDbLine
 62
7
  6
CONTINUOUS
 10
138.5139631242
 20
34.3187867345
 11
138.5629753339
 21
34.3157807251
  0
LINE
  5
400
100
AcDbEntity
  8
0
100
AcDbLine
 62
7
  6
CONTINUOUS
 10
138.3734448107
 20
16.9133231732
 11
138.3878146358
 21
16.9124386391
  0
LINE
  5
401
100
AcDbEntity
  8
0
100
AcDbLine
 62
7
  6
CONTINUOUS
 10
154.0243906957
 20
36.6688302123
 11
154.0000115254
 21
36.6703285487
  0
LINE
  5
402
100
AcDbEntity
  8
0
100
AcDbLine
 62
7
  6
CONTINUOUS
 10
131.0403025947
 20
17.5819009847
 11
131.1024875438
 21
17.5780532321
  0
LINE
  5
403
100
AcDbEntity
  8
0
100
AcDbLine
 62
7
  6
CONTINUOUS
 10
130.8102177203
 20
17.7277036223
 11
130.8822949337
 21
17.7232490192
  0
LINE
  5
404
100
AcDbEntity
  8
0
100
AcDbLine
 62
7
  6
CONTINUOUS
 10
138.4152391429
 20
31.9689330229
 11
138.3656886583
 21
31.9720231114
  0
LINE
  5
405
100
AcDbEntity
  8
0
100
AcDbLine
 62
7
  6
CONTINUOUS
 10
138.3657151941
 20
31.9894175651
 11
138.4152474367
 21
31.9863293239
  0
LINE
  5
406
100
AcDbEntity
  8
0
100
AcDbLine
 62
9
  6
CONTINUOUS
 10
154.0000115254
 20
36.6703285487
 11
154.0029818373
 21
36.6701403226
  0
LINE
  5
407
100
AcDbEntity
  8
0
100
AcDbLine
 62
7
  6
CONTINUOUS
 10
131.029663103
 20
17.6139566698
 11
131.0804526509
 21
17.6106512915
  0
LINE
  5
408
100
AcDbEntity
  8
0
100
AcDbLine
 62
9
  6
CONTINUOUS
 10
145.2705341322
 20
17.6889073445
 11
145.3238572534
 21
17.6854063453
  0
LINE
  5
409
100
AcDbEntity
  8
0
100
AcDbLine
 62
9
  6
CONTINUOUS
 10
145.3238572534
 20
17.6854063453
 11
145.4230176184
 21
17.678358443
  0
LINE
  5
40A
100
AcDbEntity
  8
0
100
AcDbLine
 62
7
  6
CONTINUOUS
 10
130.9963929307
 20
17.5852488902
 11
131.0403025947
 21
17.5819009847
  0
LINE
  5
40B
100
AcDbEntity
  8
0
100
AcDbLine
 62
9
  6
CONTINUOUS
 10
145.4230176184
 20
17.678358443
 11
145.4622917394
 21
17.6753487864
  0
LINE
  5
40C
100
AcDbEntity
  8
0
100
AcDbLine
 62
7
  6
CONTINUOUS
 10
154.0302238855
 20
36.6672470096
 11
154.0062919731
 21
36.669101773
  0
LINE
  5
40D
100
AcDbEntity
  8
0
100
AcDbLine
 62
7
  6
CONTINUOUS
 10
138.3580768106
 20
16.9145229584
 11
138.3734448107
 21
16.9133231732
  0
LINE
  5
40E
100
AcDbEntity
  8
0
100
AcDbLine
 62
7
  6
CONTINUOUS
 10
130.993218409
 20
17.6168845772
 11
131.029663103
 21
17.6139566698
  0
LINE
  5
40F
100
AcDbEntity
  8
0
100
AcDbLine
 62
9
  6
CONTINUOUS
 10
145.4622917394
 20
17.6753487864
 11
145.4956134433
 21
17.6726387297
  0
LINE
  5
410
100
AcDbEntity
  8
0
100
AcDbLine
 62
9
  6
CONTINUOUS
 10
145.4956134433
 20
17.6726387297
 11
145.5235589018
 21
17.6702108813
  0
LINE
  5
411
100
AcDbEntity
  8
0
100
AcDbLine
 62
7
  6
CONTINUOUS
 10
130.729011706
 20
17.735367756
 11
130.8102177203
 21
17.7277036223
  0
LINE
  5
412
100
AcDbEntity
  8
0
100
AcDbLine
 62
9
  6
CONTINUOUS
 10
145.5235589018
 20
17.6702108813
 11
145.5466990586
 21
17.6680141759
  0
LINE
  5
413
100
AcDbEntity
  8
0
100
AcDbLine
 62
7
  6
CONTINUOUS
 10
138.3410829883
 20
16.9161605539
 11
138.3580768106
 21
16.9145229584
  0
LINE
  5
414
100
AcDbEntity
  8
0
100
AcDbLine
 62
7
  6
CONTINUOUS
 10
142.7694912151
 20
17.4994032216
 11
142.7617835817
 21
17.5001615752
  0
LINE
  5
415
100
AcDbEntity
  8
0
100
AcDbLine
 62
7
  6
CONTINUOUS
 10
142.7698332522
 20
17.4681893097
 11
142.7626503917
 21
17.4689243212
  0
LINE
  5
416
100
AcDbEntity
  8
0
100
AcDbLine
 62
9
  6
CONTINUOUS
 10
145.5466990586
 20
17.6680141759
 11
145.5654660559
 21
17.666093366
  0
LINE
  5
417
100
AcDbEntity
  8
0
100
AcDbLine
 62
7
  6
CONTINUOUS
 10
138.5629753339
 20
34.3157807251
 11
138.6118344288
 21
34.3107744183
  0
LINE
  5
418
100
AcDbEntity
  8
0
100
AcDbLine
 62
7
  6
CONTINUOUS
 10
138.3656886583
 20
31.9720231114
 11
138.3162962353
 21
31.9771692382
  0
LINE
  5
419
100
AcDbEntity
  8
0
100
AcDbLine
 62
7
  6
CONTINUOUS
 10
138.31635107
 20
31.994559065
 11
138.3657151941
 21
31.9894175651
  0
LINE
  5
41A
100
AcDbEntity
  8
0
100
AcDbLine
 62
9
  6
CONTINUOUS
 10
145.5654660559
 20
17.666093366
 11
145.5862590766
 21
17.6638634462
  0
LINE
  5
41B
100
AcDbEntity
  8
0
100
AcDbLine
 62
7
  6
CONTINUOUS
 10
130.9713649074
 20
17.5879993912
 11
130.9963929307
 21
17.5852488902
  0
LINE
  5
41C
100
AcDbEntity
  8
0
100
AcDbLine
 62
7
  6
CONTINUOUS
 10
138.3247195545
 20
16.9180496192
 11
138.3410829883
 21
16.9161605539
  0
LINE
  5
41D
100
AcDbEntity
  8
0
100
AcDbLine
 62
9
  6
CONTINUOUS
 10
154.0225430418
 20
36.6689104561
 11
154.0421687547
 21
36.6666378338
  0
LINE
  5
41E
100
AcDbEntity
  8
0
100
AcDbLine
 62
7
  6
CONTINUOUS
 10
130.9720729654
 20
17.6193538367
 11
130.993218409
 21
17.6168845772
  0
LINE
  5
41F
100
AcDbEntity
  8
0
100
AcDbLine
 62
7
  6
CONTINUOUS
 10
154.0481627983
 20
36.6658211559
 11
154.0243906957
 21
36.6688302123
  0
LINE
  5
420
100
AcDbEntity
  8
0
100
AcDbLine
 62
7
  6
CONTINUOUS
 10
130.6484456861
 20
17.7457675506
 11
130.729011706
 21
17.735367756
  0
LINE
  5
421
100
AcDbEntity
  8
0
100
AcDbLine
 62
7
  6
CONTINUOUS
 10
138.3129973667
 20
16.9195929099
 11
138.3247195545
 21
16.9180496192
  0
LINE
  5
422
100
AcDbEntity
  8
0
100
AcDbLine
 62
9
  6
CONTINUOUS
 10
145.5862590766
 20
17.6638634462
 11
145.6008180677
 21
17.6618665177
  0
LINE
  5
423
100
AcDbEntity
  8
0
100
AcDbLine
 62
7
  6
CONTINUOUS
 10
154.0535651422
 20
36.6639387808
 11
154.0302238855
 21
36.6672470096
  0
LINE
  5
424
100
AcDbEntity
  8
0
100
AcDbLine
 62
7
  6
CONTINUOUS
 10
138.6118344288
 20
34.3107744183
 11
138.6604368428
 21
34.3037776898
  0
LINE
  5
425
100
AcDbEntity
  8
0
100
AcDbLine
 62
7
  6
CONTINUOUS
 10
138.300080188
 20
16.9214786104
 11
138.3129973667
 21
16.9195929099
  0
LINE
  5
426
100
AcDbEntity
  8
0
100
AcDbLine
 62
7
  6
CONTINUOUS
 10
138.3162962353
 20
31.9771692382
 11
138.2671901477
 21
31.9843571539
  0
LINE
  5
427
100
AcDbEntity
  8
0
100
AcDbLine
 62
7
  6
CONTINUOUS
 10
138.2672822108
 20
32.0017384584
 11
138.31635107
 21
31.994559065
  0
LINE
  5
428
100
AcDbEntity
  8
0
100
AcDbLine
 62
7
  6
CONTINUOUS
 10
130.568564412
 20
17.7588651575
 11
130.6484456861
 21
17.7457675506
  0
LINE
  5
429
100
AcDbEntity
  8
0
100
AcDbLine
 62
7
  6
CONTINUOUS
 10
138.2796863485
 20
16.9248544382
 11
138.300080188
 21
16.9214786104
  0
LINE
  5
42A
100
AcDbEntity
  8
0
100
AcDbLine
 62
9
  6
CONTINUOUS
 10
154.0421687547
 20
36.6666378338
 11
154.0617741995
 21
36.6633100476
  0
LINE
  5
42B
100
AcDbEntity
  8
0
100
AcDbLine
 62
7
  6
CONTINUOUS
 10
142.9525516698
 20
17.4665785591
 11
142.9737232075
 21
17.4628871243
  0
LINE
  5
42C
100
AcDbEntity
  8
0
100
AcDbLine
 62
7
  6
CONTINUOUS
 10
138.6604368428
 20
34.3037776898
 11
138.7086707581
 21
34.2948090674
  0
LINE
  5
42D
100
AcDbEntity
  8
0
100
AcDbLine
 62
7
  6
CONTINUOUS
 10
138.2186353896
 20
32.010929913
 11
138.2672822108
 21
32.0017384584
  0
LINE
  5
42E
100
AcDbEntity
  8
0
100
AcDbLine
 62
7
  6
CONTINUOUS
 10
138.2671901477
 20
31.9843571539
 11
138.2184980593
 21
31.9935620383
  0
LINE
  5
42F
100
AcDbEntity
  8
0
100
AcDbLine
 62
7
  6
CONTINUOUS
 10
138.2572738317
 20
16.929133949
 11
138.2796863485
 21
16.9248544382
  0
LINE
  5
430
100
AcDbEntity
  8
0
100
AcDbLine
 62
7
  6
CONTINUOUS
 10
154.0716119566
 20
36.6613185595
 11
154.0481627983
 21
36.6658211559
  0
LINE
  5
431
100
AcDbEntity
  8
0
100
AcDbLine
 62
7
  6
CONTINUOUS
 10
136.4957315356
 20
17.5492102219
 11
136.496815831
 21
17.5489971729
  0
LINE
  5
432
100
AcDbEntity
  8
0
100
AcDbLine
 62
7
  6
CONTINUOUS
 10
130.4894440001
 20
17.7746189624
 11
130.568564412
 21
17.7588651575
  0
LINE
  5
433
100
AcDbEntity
  8
0
100
AcDbLine
 62
9
  6
CONTINUOUS
 10
145.6008180677
 20
17.6618665177
 11
145.6092720788
 21
17.6601296476
  0
LINE
  5
434
100
AcDbEntity
  8
0
100
AcDbLine
 62
7
  6
CONTINUOUS
 10
154.0761715539
 20
36.6592853038
 11
154.0535651422
 21
36.6639387808
  0
LINE
  5
435
100
AcDbEntity
  8
0
100
AcDbLine
 62
7
  6
CONTINUOUS
 10
136.496815831
 20
17.5489971729
 11
136.4989415485
 21
17.5485400612
  0
LINE
  5
436
100
AcDbEntity
  8
0
100
AcDbLine
 62
7
  6
CONTINUOUS
 10
138.2365164399
 20
16.9336372322
 11
138.2572738317
 21
16.929133949
  0
LINE
  5
437
100
AcDbEntity
  8
0
100
AcDbLine
 62
7
  6
CONTINUOUS
 10
130.9615519038
 20
17.5901715643
 11
130.9713649074
 21
17.5879993912
  0
LINE
  5
438
100
AcDbEntity
  8
0
100
AcDbLine
 62
9
  6
CONTINUOUS
 10
154.0617741995
 20
36.6633100476
 11
154.0812775234
 21
36.6589220545
  0
LINE
  5
439
100
AcDbEntity
  8
0
100
AcDbLine
 62
7
  6
CONTINUOUS
 10
130.9630728731
 20
17.6213828048
 11
130.9720729654
 21
17.6193538367
  0
LINE
  5
43A
100
AcDbEntity
  8
0
100
AcDbLine
 62
7
  6
CONTINUOUS
 10
142.9737232075
 20
17.4628871243
 11
142.9972239978
 21
17.4575855979
  0
LINE
  5
43B
100
AcDbEntity
  8
0
100
AcDbLine
 62
7
  6
CONTINUOUS
 10
138.7086707581
 20
34.2948090674
 11
138.7564882258
 21
34.2838794534
  0
LINE
  5
43C
100
AcDbEntity
  8
0
100
AcDbLine
 62
7
  6
CONTINUOUS
 10
138.1704760586
 20
32.0221120067
 11
138.2186353896
 21
32.010929913
  0
LINE
  5
43D
100
AcDbEntity
  8
0
100
AcDbLine
 62
7
  6
CONTINUOUS
 10
138.2184980593
 20
31.9935620383
 11
138.1702865236
 21
32.0047633313
  0
LINE
  5
43E
100
AcDbEntity
  8
0
100
AcDbLine
 62
7
  6
CONTINUOUS
 10
130.4110862989
 20
17.7930044897
 11
130.4894440001
 21
17.7746189624
  0
LINE
  5
43F
100
AcDbEntity
  8
0
100
AcDbLine
 62
7
  6
CONTINUOUS
 10
136.4989415485
 20
17.5485400612
 11
136.5013484672
 21
17.5479719984
  0
LINE
  5
440
100
AcDbEntity
  8
0
100
AcDbLine
 62
7
  6
CONTINUOUS
 10
138.2163558197
 20
16.9385161283
 11
138.2365164399
 21
16.9336372322
  0
LINE
  5
441
100
AcDbEntity
  8
0
100
AcDbLine
 62
7
  6
CONTINUOUS
 10
131.0874609769
 20
17.5762019118
 11
131.1059860746
 21
17.5716147863
  0
LINE
  5
442
100
AcDbEntity
  8
0
100
AcDbLine
 62
7
  6
CONTINUOUS
 10
136.5013484672
 20
17.5479719984
 11
136.5040506976
 21
17.547270492
  0
LINE
  5
443
100
AcDbEntity
  8
0
100
AcDbLine
 62
7
  6
CONTINUOUS
 10
154.0951674049
 20
36.6552033362
 11
154.0716119566
 21
36.6613185595
  0
LINE
  5
444
100
AcDbEntity
  8
0
100
AcDbLine
 62
7
  6
CONTINUOUS
 10
138.1984812174
 20
16.9432651076
 11
138.2163558197
 21
16.9385161283
  0
LINE
  5
445
100
AcDbEntity
  8
0
100
AcDbLine
 62
7
  6
CONTINUOUS
 10
154.0979480395
 20
36.6534019215
 11
154.0761715539
 21
36.6592853038
  0
LINE
  5
446
100
AcDbEntity
  8
0
100
AcDbLine
 62
7
  6
CONTINUOUS
 10
130.3335209919
 20
17.8139981194
 11
130.4110862989
 21
17.7930044897
  0
LINE
  5
447
100
AcDbEntity
  8
0
100
AcDbLine
 62
7
  6
CONTINUOUS
 10
138.7564882258
 20
34.2838794534
 11
138.8038436858
 21
34.2709967814
  0
LINE
  5
448
100
AcDbEntity
  8
0
100
AcDbLine
 62
7
  6
CONTINUOUS
 10
138.1228673658
 20
32.0352634157
 11
138.1704760586
 21
32.0221120067
  0
LINE
  5
449
100
AcDbEntity
  8
0
100
AcDbLine
 62
7
  6
CONTINUOUS
 10
138.1702865236
 20
32.0047633313
 11
138.1226197519
 21
32.01794046
  0
LINE
  5
44A
100
AcDbEntity
  8
0
100
AcDbLine
 62
9
  6
CONTINUOUS
 10
154.0812775234
 20
36.6589220545
 11
154.1005972133
 21
36.6534769548
  0
LINE
  5
44B
100
AcDbEntity
  8
0
100
AcDbLine
 62
7
  6
CONTINUOUS
 10
142.9972239978
 20
17.4575855979
 11
143.0220101293
 21
17.4505807514
  0
LINE
  5
44C
100
AcDbEntity
  8
0
100
AcDbLine
 62
7
  6
CONTINUOUS
 10
136.5040506976
 20
17.547270492
 11
136.507018255
 21
17.5464220098
  0
LINE
  5
44D
100
AcDbEntity
  8
0
100
AcDbLine
 62
7
  6
CONTINUOUS
 10
138.1782932568
 20
16.949115978
 11
138.1984812174
 21
16.9432651076
  0
LINE
  5
44E
100
AcDbEntity
  8
0
100
AcDbLine
 62
7
  6
CONTINUOUS
 10
131.1059860746
 20
17.5716147863
 11
131.1276685921
 21
17.5651717061
  0
LINE
  5
44F
100
AcDbEntity
  8
0
100
AcDbLine
 62
7
  6
CONTINUOUS
 10
130.2567424365
 20
17.837592735
 11
130.3335209919
 21
17.8139981194
  0
LINE
  5
450
100
AcDbEntity
  8
0
100
AcDbLine
 62
7
  6
CONTINUOUS
 10
136.507018255
 20
17.5464220098
 11
136.5102343912
 21
17.5454090078
  0
LINE
  5
451
100
AcDbEntity
  8
0
100
AcDbLine
 62
7
  6
CONTINUOUS
 10
138.8038436858
 20
34.2709967814
 11
138.8506186225
 21
34.2561907047
  0
LINE
  5
452
100
AcDbEntity
  8
0
100
AcDbLine
 62
7
  6
CONTINUOUS
 10
138.0759353731
 20
32.0503406453
 11
138.1228673658
 21
32.0352634157
  0
LINE
  5
453
100
AcDbEntity
  8
0
100
AcDbLine
 62
7
  6
CONTINUOUS
 10
138.1226197519
 20
32.01794046
 11
138.0756251511
 21
32.0330504533
  0
LINE
  5
454
100
AcDbEntity
  8
0
100
AcDbLine
 62
7
  6
CONTINUOUS
 10
138.1487372397
 20
16.9586365325
 11
138.1782932568
 21
16.949115978
  0
LINE
  5
455
100
AcDbEntity
  8
0
100
AcDbLine
 62
7
  6
CONTINUOUS
 10
154.1180849821
 20
36.6476433064
 11
154.0951674049
 21
36.6552033362
  0
LINE
  5
456
100
AcDbEntity
  8
0
100
AcDbLine
 62
7
  6
CONTINUOUS
 10
154.1186713756
 20
36.6464631634
 11
154.0979480395
 21
36.6534019215
  0
LINE
  5
457
100
AcDbEntity
  8
0
100
AcDbLine
 62
9
  6
CONTINUOUS
 10
154.1005972133
 20
36.6534769548
 11
154.1196523507
 21
36.6469858534
  0
LINE
  5
458
100
AcDbEntity
  8
0
100
AcDbLine
 62
7
  6
CONTINUOUS
 10
130.1807390422
 20
17.8637938532
 11
130.2567424365
 21
17.837592735
  0
LINE
  5
459
100
AcDbEntity
  8
0
100
AcDbLine
 62
7
  6
CONTINUOUS
 10
143.0220101293
 20
17.4505807514
 11
143.047830673
 21
17.4416706791
  0
LINE
  5
45A
100
AcDbEntity
  8
0
100
AcDbLine
 62
7
  6
CONTINUOUS
 10
136.5102343912
 20
17.5454090078
 11
136.5136673467
 21
17.5442184102
  0
LINE
  5
45B
100
AcDbEntity
  8
0
100
AcDbLine
 62
7
  6
CONTINUOUS
 10
131.1276685921
 20
17.5651717061
 11
131.151799726
 21
17.5566001159
  0
LINE
  5
45C
100
AcDbEntity
  8
0
100
AcDbLine
 62
7
  6
CONTINUOUS
 10
138.1194488075
 20
16.9692249614
 11
138.1487372397
 21
16.9586365325
  0
LINE
  5
45D
100
AcDbEntity
  8
0
100
AcDbLine
 62
7
  6
CONTINUOUS
 10
138.8506186225
 20
34.2561907047
 11
138.8966960489
 21
34.2395007362
  0
LINE
  5
45E
100
AcDbEntity
  8
0
100
AcDbLine
 62
7
  6
CONTINUOUS
 10
138.0298104196
 20
32.0672863734
 11
138.0759353731
 21
32.0503406453
  0
LINE
  5
45F
100
AcDbEntity
  8
0
100
AcDbLine
 62
7
  6
CONTINUOUS
 10
138.0756251511
 20
32.0330504533
 11
138.0294330878
 21
32.0500368519
  0
LINE
  5
460
100
AcDbEntity
  8
0
100
AcDbLine
 62
7
  6
CONTINUOUS
 10
136.5136673467
 20
17.5442184102
 11
136.5172871128
 21
17.5428376208
  0
LINE
  5
461
100
AcDbEntity
  8
0
100
AcDbLine
 62
7
  6
CONTINUOUS
 10
130.105572241
 20
17.8925895461
 11
130.1807390422
 21
17.8637938532
  0
LINE
  5
462
100
AcDbEntity
  8
0
100
AcDbLine
 62
7
  6
CONTINUOUS
 10
138.0988691782
 20
16.9773762299
 11
138.1194488075
 21
16.9692249614
  0
LINE
  5
463
100
AcDbEntity
  8
0
100
AcDbLine
 62
7
  6
CONTINUOUS
 10
154.1386842596
 20
36.6384468453
 11
154.1186713756
 21
36.6464631634
  0
LINE
  5
464
100
AcDbEntity
  8
0
100
AcDbLine
 62
7
  6
CONTINUOUS
 10
154.1395853314
 20
36.6390129869
 11
154.1180849821
 21
36.6476433064
  0
LINE
  5
465
100
AcDbEntity
  8
0
100
AcDbLine
 62
7
  6
CONTINUOUS
 10
138.8966960489
 20
34.2395007362
 11
138.942037267
 21
34.2209431639
  0
LINE
  5
466
100
AcDbEntity
  8
0
100
AcDbLine
 62
7
  6
CONTINUOUS
 10
143.047830673
 20
17.4416706791
 11
143.0742214058
 21
17.4307595126
  0
LINE
  5
467
100
AcDbEntity
  8
0
100
AcDbLine
 62
7
  6
CONTINUOUS
 10
137.9845225755
 20
32.0860731518
 11
138.0298104196
 21
32.0672863734
  0
LINE
  5
468
100
AcDbEntity
  8
0
100
AcDbLine
 62
7
  6
CONTINUOUS
 10
138.0294330878
 20
32.0500368519
 11
137.9840787602
 21
32.068870941
  0
LINE
  5
469
100
AcDbEntity
  8
0
100
AcDbLine
 62
7
  6
CONTINUOUS
 10
136.5172871128
 20
17.5428376208
 11
136.5210684591
 21
17.5412532457
  0
LINE
  5
46A
100
AcDbEntity
  8
0
100
AcDbLine
 62
7
  6
CONTINUOUS
 10
131.151799726
 20
17.5566001159
 11
131.1776218281
 21
17.5457079294
  0
LINE
  5
46B
100
AcDbEntity
  8
0
100
AcDbLine
 62
7
  6
CONTINUOUS
 10
130.0312818544
 20
17.9239785784
 11
130.105572241
 21
17.8925895461
  0
LINE
  5
46C
100
AcDbEntity
  8
0
100
AcDbLine
 62
7
  6
CONTINUOUS
 10
138.0822102188
 20
16.9844184062
 11
138.0988691782
 21
16.9773762299
  0
LINE
  5
46D
100
AcDbEntity
  8
0
100
AcDbLine
 62
7
  6
CONTINUOUS
 10
138.0684517049
 20
16.9905419066
 11
138.0822102188
 21
16.9844184062
  0
LINE
  5
46E
100
AcDbEntity
  8
0
100
AcDbLine
 62
7
  6
CONTINUOUS
 10
138.942037267
 20
34.2209431639
 11
138.9866039632
 21
34.2005303675
  0
LINE
  5
46F
100
AcDbEntity
  8
0
100
AcDbLine
 62
7
  6
CONTINUOUS
 10
136.5210684591
 20
17.5412532457
 11
136.5249752418
 21
17.5394579501
  0
LINE
  5
470
100
AcDbEntity
  8
0
100
AcDbLine
 62
7
  6
CONTINUOUS
 10
129.9579317561
 20
17.9579529527
 11
130.0312818544
 21
17.9239785784
  0
LINE
  5
471
100
AcDbEntity
  8
0
100
AcDbLine
 62
7
  6
CONTINUOUS
 10
137.9401100066
 20
32.1066742383
 11
137.9845225755
 21
32.0860731518
  0
LINE
  5
472
100
AcDbEntity
  8
0
100
AcDbLine
 62
7
  6
CONTINUOUS
 10
137.9840787602
 20
32.068870941
 11
137.9396036048
 21
32.0895247221
  0
LINE
  5
473
100
AcDbEntity
  8
0
100
AcDbLine
 62
7
  6
CONTINUOUS
 10
138.0550754072
 20
16.996768433
 11
138.0684517049
 21
16.9905419066
  0
LINE
  5
474
100
AcDbEntity
  8
0
100
AcDbLine
 62
9
  6
CONTINUOUS
 10
154.1383630091
 20
36.6394681569
 11
154.1566481945
 21
36.6309528336
  0
LINE
  5
475
100
AcDbEntity
  8
0
100
AcDbLine
 62
7
  6
CONTINUOUS
 10
154.1580845998
 20
36.6293536221
 11
154.1386842596
 21
36.6384468453
  0
LINE
  5
476
100
AcDbEntity
  8
0
100
AcDbLine
 62
7
  6
CONTINUOUS
 10
154.1604400924
 20
36.6291082324
 11
154.1395853314
 21
36.6390129869
  0
LINE
  5
477
100
AcDbEntity
  8
0
100
AcDbLine
 62
7
  6
CONTINUOUS
 10
138.0391709528
 20
17.0045311661
 11
138.0550754072
 21
16.996768433
  0
LINE
  5
478
100
AcDbEntity
  8
0
100
AcDbLine
 62
7
  6
CONTINUOUS
 10
143.0742214058
 20
17.4307595126
 11
143.1007992814
 21
17.4177839019
  0
LINE
  5
479
100
AcDbEntity
  8
0
100
AcDbLine
 62
7
  6
CONTINUOUS
 10
131.1776218281
 20
17.5457079294
 11
131.2043575456
 21
17.5324168866
  0
LINE
  5
47A
100
AcDbEntity
  8
0
100
AcDbLine
 62
7
  6
CONTINUOUS
 10
136.5249752418
 20
17.5394579501
 11
136.5290071032
 21
17.5374285136
  0
LINE
  5
47B
100
AcDbEntity
  8
0
100
AcDbLine
 62
7
  6
CONTINUOUS
 10
129.8855785395
 20
17.9945098363
 11
129.9579317561
 21
17.9579529527
  0
LINE
  5
47C
100
AcDbEntity
  8
0
100
AcDbLine
 62
7
  6
CONTINUOUS
 10
138.9866039632
 20
34.2005303675
 11
139.0302777537
 21
34.1783132217
  0
LINE
  5
47D
100
AcDbEntity
  8
0
100
AcDbLine
 62
7
  6
CONTINUOUS
 10
137.8966730544
 20
32.1290323769
 11
137.9401100066
 21
32.1066742383
  0
LINE
  5
47E
100
AcDbEntity
  8
0
100
AcDbLine
 62
7
  6
CONTINUOUS
 10
138.0213133285
 20
17.0137262772
 11
138.0391709528
 21
17.0045311661
  0
LINE
  5
47F
100
AcDbEntity
  8
0
100
AcDbLine
 62
7
  6
CONTINUOUS
 10
137.9396036048
 20
32.0895247221
 11
137.8961123804
 21
32.1119384229
  0
LINE
  5
480
100
AcDbEntity
  8
0
100
AcDbLine
 62
9
  6
CONTINUOUS
 10
154.1566481945
 20
36.6309528336
 11
154.1744466744
 21
36.6214680821
  0
LINE
  5
481
100
AcDbEntity
  8
0
100
AcDbLine
 62
7
  6
CONTINUOUS
 10
154.1772802498
 20
36.6189668711
 11
154.1580845998
 21
36.6293536221
  0
LINE
  5
482
100
AcDbEntity
  8
0
100
AcDbLine
 62
7
  6
CONTINUOUS
 10
138.0013359842
 20
17.0246351549
 11
138.0213133285
 21
17.0137262772
  0
LINE
  5
483
100
AcDbEntity
  8
0
100
AcDbLine
 62
7
  6
CONTINUOUS
 10
129.8142953103
 20
18.0336399124
 11
129.8855785395
 21
17.9945098363
  0
LINE
  5
484
100
AcDbEntity
  8
0
100
AcDbLine
 62
7
  6
CONTINUOUS
 10
136.5290071032
 20
17.5374285136
 11
136.5331409107
 21
17.5351512491
  0
LINE
  5
485
100
AcDbEntity
  8
0
100
AcDbLine
 62
7
  6
CONTINUOUS
 10
154.1813409065
 20
36.6175252312
 11
154.1604400924
 21
36.6291082324
  0
LINE
  5
486
100
AcDbEntity
  8
0
100
AcDbLine
 62
7
  6
CONTINUOUS
 10
139.0302777537
 20
34.1783132217
 11
139.0729439515
 21
34.1543530414
  0
LINE
  5
487
100
AcDbEntity
  8
0
100
AcDbLine
 62
7
  6
CONTINUOUS
 10
137.854312317
 20
32.153080154
 11
137.8966730544
 21
32.1290323769
  0
LINE
  5
488
100
AcDbEntity
  8
0
100
AcDbLine
 62
7
  6
CONTINUOUS
 10
137.8961123804
 20
32.1119384229
 11
137.8537105314
 21
32.1360409291
  0
LINE
  5
489
100
AcDbEntity
  8
0
100
AcDbLine
 62
7
  6
CONTINUOUS
 10
143.1007992814
 20
17.4177839019
 11
143.1271120824
 21
17.402783959
  0
LINE
  5
48A
100
AcDbEntity
  8
0
100
AcDbLine
 62
7
  6
CONTINUOUS
 10
131.2043575456
 20
17.5324168866
 11
131.231471437
 21
17.5166411029
  0
LINE
  5
48B
100
AcDbEntity
  8
0
100
AcDbLine
 62
7
  6
CONTINUOUS
 10
137.9814148338
 20
17.0362423455
 11
138.0013359842
 21
17.0246351549
  0
LINE
  5
48C
100
AcDbEntity
  8
0
100
AcDbLine
 62
9
  6
CONTINUOUS
 10
145.6092720788
 20
17.6601296476
 11
145.6117465272
 21
17.6586792236
  0
LINE
  5
48D
100
AcDbEntity
  8
0
100
AcDbLine
 62
7
  6
CONTINUOUS
 10
129.7441281216
 20
18.0753510164
 11
129.8142953103
 21
18.0336399124
  0
LINE
  5
48E
100
AcDbEntity
  8
0
100
AcDbLine
 62
7
  6
CONTINUOUS
 10
136.5331409107
 20
17.5351512491
 11
136.5373977681
 21
17.5325849983
  0
LINE
  5
48F
100
AcDbEntity
  8
0
100
AcDbLine
 62
9
  6
CONTINUOUS
 10
154.1744466744
 20
36.6214680821
 11
154.1916899354
 21
36.6110526953
  0
LINE
  5
490
100
AcDbEntity
  8
0
100
AcDbLine
 62
7
  6
CONTINUOUS
 10
139.0729439515
 20
34.1543530414
 11
139.1145723244
 21
34.1286696969
  0
LINE
  5
491
100
AcDbEntity
  8
0
100
AcDbLine
 62
7
  6
CONTINUOUS
 10
154.1970462522
 20
36.6066810348
 11
154.1772802498
 21
36.6189668711
  0
LINE
  5
492
100
AcDbEntity
  8
0
100
AcDbLine
 62
7
  6
CONTINUOUS
 10
137.8130448741
 20
32.1787931467
 11
137.854312317
 21
32.153080154
  0
LINE
  5
493
100
AcDbEntity
  8
0
100
AcDbLine
 62
7
  6
CONTINUOUS
 10
137.8537105314
 20
32.1360409291
 11
137.8124148711
 21
32.1618063855
  0
LINE
  5
494
100
AcDbEntity
  8
0
100
AcDbLine
 62
7
  6
CONTINUOUS
 10
154.2014318331
 20
36.6046549905
 11
154.1813409065
 21
36.6175252312
  0
LINE
  5
495
100
AcDbEntity
  8
0
100
AcDbLine
 62
7
  6
CONTINUOUS
 10
129.6752263223
 20
18.1195881647
 11
129.7441281216
 21
18.0753510164
  0
LINE
  5
496
100
AcDbEntity
  8
0
100
AcDbLine
 62
7
  6
CONTINUOUS
 10
136.5373977681
 20
17.5325849983
 11
136.5417792883
 21
17.5296917977
  0
LINE
  5
497
100
AcDbEntity
  8
0
100
AcDbLine
 62
7
  6
CONTINUOUS
 10
143.1271120824
 20
17.402783959
 11
143.1529456438
 21
17.3857286608
  0
LINE
  5
498
100
AcDbEntity
  8
0
100
AcDbLine
 62
7
  6
CONTINUOUS
 10
139.1145723244
 20
34.1286696969
 11
139.1551311616
 21
34.1012788217
  0
LINE
  5
499
100
AcDbEntity
  8
0
100
AcDbLine
 62
7
  6
CONTINUOUS
 10
131.231471437
 20
17.5166411029
 11
131.2583271867
 21
17.4984556045
  0
LINE
  5
49A
100
AcDbEntity
  8
0
100
AcDbLine
 62
9
  6
CONTINUOUS
 10
154.1916899354
 20
36.6110526953
 11
154.2083397552
 21
36.5997330409
  0
LINE
  5
49B
100
AcDbEntity
  8
0
100
AcDbLine
 62
7
  6
CONTINUOUS
 10
137.7728898282
 20
32.206152451
 11
137.8130448741
 21
32.1787931467
  0
LINE
  5
49C
100
AcDbEntity
  8
0
100
AcDbLine
 62
7
  6
CONTINUOUS
 10
137.8124148711
 20
32.1618063855
 11
137.7722461857
 21
32.1892130208
  0
LINE
  5
49D
100
AcDbEntity
  8
0
100
AcDbLine
 62
7
  6
CONTINUOUS
 10
129.6077024124
 20
18.1663088153
 11
129.6752263223
 21
18.1195881647
  0
LINE
  5
49E
100
AcDbEntity
  8
0
100
AcDbLine
 62
7
  6
CONTINUOUS
 10
154.2159972943
 20
36.593203964
 11
154.1970462522
 21
36.6066810348
  0
LINE
  5
49F
100
AcDbEntity
  8
0
100
AcDbLine
 62
7
  6
CONTINUOUS
 10
136.5417792883
 20
17.5296917977
 11
136.5462912076
 21
17.5264223762
  0
LINE
  5
4A0
100
AcDbEntity
  8
0
100
AcDbLine
 62
7
  6
CONTINUOUS
 10
154.2200683669
 20
36.5909991291
 11
154.2014318331
 21
36.6046549905
  0
LINE
  5
4A1
100
AcDbEntity
  8
0
100
AcDbLine
 62
7
  6
CONTINUOUS
 10
139.1551311616
 20
34.1012788217
 11
139.1945086253
 21
34.0722519205
  0
LINE
  5
4A2
100
AcDbEntity
  8
0
100
AcDbLine
 62
7
  6
CONTINUOUS
 10
137.73394382
 20
32.2350862975
 11
137.7728898282
 21
32.206152451
  0
LINE
  5
4A3
100
AcDbEntity
  8
0
100
AcDbLine
 62
7
  6
CONTINUOUS
 10
137.7722461857
 20
32.1892130208
 11
137.7332987348
 21
32.2181886994
  0
LINE
  5
4A4
100
AcDbEntity
  8
0
100
AcDbLine
 62
7
  6
CONTINUOUS
 10
129.5416986586
 20
18.215439889
 11
129.6077024124
 21
18.1663088153
  0
LINE
  5
4A5
100
AcDbEntity
  8
0
100
AcDbLine
 62
7
  6
CONTINUOUS
 10
143.1529456438
 20
17.3857286608
 11
143.1780298551
 21
17.3666514854
  0
LINE
  5
4A6
100
AcDbEntity
  8
0
100
AcDbLine
 62
9
  6
CONTINUOUS
 10
154.2083397552
 20
36.5997330409
 11
154.2243541597
 21
36.5875391142
  0
LINE
  5
4A7
100
AcDbEntity
  8
0
100
AcDbLine
 62
7
  6
CONTINUOUS
 10
131.2583271867
 20
17.4984556045
 11
131.2845654654
 21
17.4778567629
  0
LINE
  5
4A8
100
AcDbEntity
  8
0
100
AcDbLine
 62
7
  6
CONTINUOUS
 10
136.5462912076
 20
17.5264223762
 11
136.5509305136
 21
17.5227223669
  0
LINE
  5
4A9
100
AcDbEntity
  8
0
100
AcDbLine
 62
7
  6
CONTINUOUS
 10
129.4773441299
 20
18.2669041396
 11
129.5416986586
 21
18.215439889
  0
LINE
  5
4AA
100
AcDbEntity
  8
0
100
AcDbLine
 62
7
  6
CONTINUOUS
 10
139.1945086253
 20
34.0722519205
 11
139.2325992931
 21
34.0416701931
  0
LINE
  5
4AB
100
AcDbEntity
  8
0
100
AcDbLine
 62
7
  6
CONTINUOUS
 10
154.2331531488
 20
36.5793712012
 11
154.2159972943
 21
36.593203964
  0
LINE
  5
4AC
100
AcDbEntity
  8
0
100
AcDbLine
 62
7
  6
CONTINUOUS
 10
137.6962990116
 20
32.2655141297
 11
137.73394382
 21
32.2350862975
  0
LINE
  5
4AD
100
AcDbEntity
  8
0
100
AcDbLine
 62
7
  6
CONTINUOUS
 10
137.7332987348
 20
32.2181886994
 11
137.695663153
 21
32.2486521629
  0
LINE
  5
4AE
100
AcDbEntity
  8
0
100
AcDbLine
 62
7
  6
CONTINUOUS
 10
154.2377205952
 20
36.5763171033
 11
154.2200683669
 21
36.5909991291
  0
LINE
  5
4AF
100
AcDbEntity
  8
0
100
AcDbLine
 62
9
  6
CONTINUOUS
 10
154.2243541597
 20
36.5875391142
 11
154.2396892607
 21
36.5745051128
  0
LINE
  5
4B0
100
AcDbEntity
  8
0
100
AcDbLine
 62
7
  6
CONTINUOUS
 10
129.4147607043
 20
18.3206168078
 11
129.4773441299
 21
18.2669041396
  0
LINE
  5
4B1
100
AcDbEntity
  8
0
100
AcDbLine
 62
7
  6
CONTINUOUS
 10
142.7530641215
 20
17.5123909919
 11
142.7483279299
 21
17.5164577281
  0
LINE
  5
4B2
100
AcDbEntity
  8
0
100
AcDbLine
 62
7
  6
CONTINUOUS
 10
139.2325992931
 20
34.0416701931
 11
139.269378667
 21
34.0095568777
  0
LINE
  5
4B3
100
AcDbEntity
  8
0
100
AcDbLine
 62
7
  6
CONTINUOUS
 10
143.1780298551
 20
17.3666514854
 11
143.2021061423
 21
17.3456214592
  0
LINE
  5
4B4
100
AcDbEntity
  8
0
100
AcDbLine
 62
7
  6
CONTINUOUS
 10
137.6599649273
 20
32.2974174725
 11
137.6962990116
 21
32.2655141297
  0
LINE
  5
4B5
100
AcDbEntity
  8
0
100
AcDbLine
 62
7
  6
CONTINUOUS
 10
137.695663153
 20
32.2486521629
 11
137.6593479096
 21
32.2805840904
  0
LINE
  5
4B6
100
AcDbEntity
  8
0
100
AcDbLine
 62
7
  6
CONTINUOUS
 10
136.5509305136
 20
17.5227223669
 11
136.5556776194
 21
17.5185384519
  0
LINE
  5
4B7
100
AcDbEntity
  8
0
100
AcDbLine
 62
7
  6
CONTINUOUS
 10
154.2489093936
 20
36.5650904315
 11
154.2331531488
 21
36.5793712012
  0
LINE
  5
4B8
100
AcDbEntity
  8
0
100
AcDbLine
 62
7
  6
CONTINUOUS
 10
131.2845654654
 20
17.4778567629
 11
131.3097497568
 21
17.4549729149
  0
LINE
  5
4B9
100
AcDbEntity
  8
0
100
AcDbLine
 62
7
  6
CONTINUOUS
 10
129.3540735948
 20
18.3764758939
 11
129.4147607043
 21
18.3206168078
  0
LINE
  5
4BA
100
AcDbEntity
  8
0
100
AcDbLine
 62
7
  6
CONTINUOUS
 10
154.2546271493
 20
36.5603961663
 11
154.2377205952
 21
36.5763171033
  0
LINE
  5
4BB
100
AcDbEntity
  8
0
100
AcDbLine
 62
7
  6
CONTINUOUS
 10
139.269378667
 20
34.0095568777
 11
139.3048190256
 21
33.9759317581
  0
LINE
  5
4BC
100
AcDbEntity
  8
0
100
AcDbLine
 62
7
  6
CONTINUOUS
 10
142.756973464
 20
17.5086683676
 11
142.7530641215
 21
17.5123909919
  0
LINE
  5
4BD
100
AcDbEntity
  8
0
100
AcDbLine
 62
7
  6
CONTINUOUS
 10
137.6249567505
 20
32.3307818055
 11
137.6599649273
 21
32.2974174725
  0
LINE
  5
4BE
100
AcDbEntity
  8
0
100
AcDbLine
 62
7
  6
CONTINUOUS
 10
137.6593479096
 20
32.2805840904
 11
137.6243668776
 21
32.3139694369
  0
LINE
  5
4BF
100
AcDbEntity
  8
0
100
AcDbLine
 62
7
  6
CONTINUOUS
 10
136.5556776194
 20
17.5185384519
 11
136.5590555752
 21
17.5152851807
  0
LINE
  5
4C0
100
AcDbEntity
  8
0
100
AcDbLine
 62
7
  6
CONTINUOUS
 10
129.2953648106
 20
18.4344063262
 11
129.3540735948
 21
18.3764758939
  0
LINE
  5
4C1
100
AcDbEntity
  8
0
100
AcDbLine
 62
7
  6
CONTINUOUS
 10
136.928263392
 20
17.1460773026
 11
136.5590572926
 21
17.5152834019
  0
LINE
  5
4C2
100
AcDbEntity
  8
0
100
AcDbLine
 62
7
  6
CONTINUOUS
 10
143.2021061423
 20
17.3456214592
 11
143.2249302036
 21
17.3227435389
  0
LINE
  5
4C3
100
AcDbEntity
  8
0
100
AcDbLine
 62
7
  6
CONTINUOUS
 10
154.262993804
 20
36.5508360833
 11
154.2489093936
 21
36.5650904315
  0
LINE
  5
4C4
100
AcDbEntity
  8
0
100
AcDbLine
 62
7
  6
CONTINUOUS
 10
139.3048190256
 20
33.9759317581
 11
139.3388220867
 21
33.940883453
  0
LINE
  5
4C5
100
AcDbEntity
  8
0
100
AcDbLine
 62
7
  6
CONTINUOUS
 10
137.5913583777
 20
32.3655281259
 11
137.6249567505
 21
32.3307818055
  0
LINE
  5
4C6
100
AcDbEntity
  8
0
100
AcDbLine
 62
7
  6
CONTINUOUS
 10
137.6243668776
 20
32.3139694369
 11
137.5908030346
 21
32.3487283028
  0
LINE
  5
4C7
100
AcDbEntity
  8
0
100
AcDbLine
 62
7
  6
CONTINUOUS
 10
142.7543611285
 20
17.4818330283
 11
142.7511312809
 21
17.4852246007
  0
LINE
  5
4C8
100
AcDbEntity
  8
0
100
AcDbLine
 62
7
  6
CONTINUOUS
 10
131.3097497568
 20
17.4549729149
 11
131.3335922433
 21
17.429882397
  0
LINE
  5
4C9
100
AcDbEntity
  8
0
100
AcDbLine
 62
9
  6
CONTINUOUS
 10
154.2543094809
 20
36.5606604388
 11
154.268165764
 21
36.5460504323
  0
LINE
  5
4CA
100
AcDbEntity
  8
0
100
AcDbLine
 62
7
  6
CONTINUOUS
 10
129.2387313348
 20
18.4943091114
 11
129.2953648106
 21
18.4344063262
  0
LINE
  5
4CB
100
AcDbEntity
  8
0
100
AcDbLine
 62
7
  6
CONTINUOUS
 10
154.2705866586
 20
36.5433788711
 11
154.2546271493
 21
36.5603961663
  0
LINE
  5
4CC
100
AcDbEntity
  8
0
100
AcDbLine
 62
7
  6
CONTINUOUS
 10
139.3388220867
 20
33.940883453
 11
139.371298233
 21
33.9045081934
  0
LINE
  5
4CD
100
AcDbEntity
  8
0
100
AcDbLine
 62
7
  6
CONTINUOUS
 10
137.5592477874
 20
32.4015707038
 11
137.5913583777
 21
32.3655281259
  0
LINE
  5
4CE
100
AcDbEntity
  8
0
100
AcDbLine
 62
7
  6
CONTINUOUS
 10
137.5908030346
 20
32.3487283028
 11
137.5587331019
 21
32.3847744519
  0
LINE
  5
4CF
100
AcDbEntity
  8
0
100
AcDbLine
 62
7
  6
CONTINUOUS
 10
154.2764827836
 20
36.5356282583
 11
154.262993804
 21
36.5508360833
  0
LINE
  5
4D0
100
AcDbEntity
  8
0
100
AcDbLine
 62
9
  6
CONTINUOUS
 10
131.2899443443
 20
17.6706770245
 11
131.2585996798
 21
17.7061624813
  0
LINE
  5
4D1
100
AcDbEntity
  8
0
100
AcDbLine
 62
7
  6
CONTINUOUS
 10
129.1842251166
 20
18.5561244498
 11
129.2387313348
 21
18.4943091114
  0
LINE
  5
4D2
100
AcDbEntity
  8
0
100
AcDbLine
 62
7
  6
CONTINUOUS
 10
143.2249302036
 20
17.3227435389
 11
143.2462739608
 21
17.2981606136
  0
LINE
  5
4D3
100
AcDbEntity
  8
0
100
AcDbLine
 62
9
  6
CONTINUOUS
 10
154.268165764
 20
36.5460504323
 11
154.2812228241
 21
36.530711198
  0
LINE
  5
4D4
100
AcDbEntity
  8
0
100
AcDbLine
 62
7
  6
CONTINUOUS
 10
142.7511312809
 20
17.4852246007
 11
142.7482630378
 21
17.4886519111
  0
LINE
  5
4D5
100
AcDbEntity
  8
0
100
AcDbLine
 62
7
  6
CONTINUOUS
 10
154.2855505503
 20
36.525281612
 11
154.2705866586
 21
36.5433788711
  0
LINE
  5
4D6
100
AcDbEntity
  8
0
100
AcDbLine
 62
7
  6
CONTINUOUS
 10
129.1319072878
 20
18.6197799146
 11
129.1842251166
 21
18.5561244498
  0
LINE
  5
4D7
100
AcDbEntity
  8
0
100
AcDbLine
 62
7
  6
CONTINUOUS
 10
139.371298233
 20
33.9045081934
 11
139.4022256572
 21
33.8668345528
  0
LINE
  5
4D8
100
AcDbEntity
  8
0
100
AcDbLine
 62
7
  6
CONTINUOUS
 10
137.5286360338
 20
32.4388943397
 11
137.5592477874
 21
32.4015707038
  0
LINE
  5
4D9
100
AcDbEntity
  8
0
100
AcDbLine
 62
7
  6
CONTINUOUS
 10
137.5587331019
 20
32.3847744519
 11
137.5281675391
 21
32.4220915525
  0
LINE
  5
4DA
100
AcDbEntity
  8
0
100
AcDbLine
 62
7
  6
CONTINUOUS
 10
131.3335922433
 20
17.429882397
 11
131.3557963981
 21
17.4027300255
  0
LINE
  5
4DB
100
AcDbEntity
  8
0
100
AcDbLine
 62
7
  6
CONTINUOUS
 10
142.7617835817
 20
17.5001615752
 11
142.7599214464
 21
17.5024958615
  0
LINE
  5
4DC
100
AcDbEntity
  8
0
100
AcDbLine
 62
7
  6
CONTINUOUS
 10
154.2903870999
 20
36.5180256191
 11
154.2764827836
 21
36.5356282583
  0
LINE
  5
4DD
100
AcDbEntity
  8
0
100
AcDbLine
 62
7
  6
CONTINUOUS
 10
129.0818346746
 20
18.6852041593
 11
129.1319072878
 21
18.6197799146
  0
LINE
  5
4DE
100
AcDbEntity
  8
0
100
AcDbLine
 62
7
  6
CONTINUOUS
 10
142.7579585147
 20
17.4757171945
 11
142.7557452683
 21
17.4786090965
  0
LINE
  5
4DF
100
AcDbEntity
  8
0
100
AcDbLine
 62
9
  6
CONTINUOUS
 10
154.2812228241
 20
36.530711198
 11
154.2934350055
 21
36.5146957282
  0
LINE
  5
4E0
100
AcDbEntity
  8
0
100
AcDbLine
 62
7
  6
CONTINUOUS
 10
137.4995408251
 20
32.4774863154
 11
137.5286360338
 21
32.4388943397
  0
LINE
  5
4E1
100
AcDbEntity
  8
0
100
AcDbLine
 62
7
  6
CONTINUOUS
 10
139.4022256572
 20
33.8668345528
 11
139.4315789307
 21
33.8278886517
  0
LINE
  5
4E2
100
AcDbEntity
  8
0
100
AcDbLine
 62
7
  6
CONTINUOUS
 10
143.2462739608
 20
17.2981606136
 11
143.2658297625
 21
17.2721974664
  0
LINE
  5
4E3
100
AcDbEntity
  8
0
100
AcDbLine
 62
7
  6
CONTINUOUS
 10
137.5281675391
 20
32.4220915525
 11
137.4991227623
 21
32.460666543
  0
LINE
  5
4E4
100
AcDbEntity
  8
0
100
AcDbLine
 62
7
  6
CONTINUOUS
 10
154.2993512444
 20
36.5062849659
 11
154.2855505503
 21
36.525281612
  0
LINE
  5
4E5
100
AcDbEntity
  8
0
100
AcDbLine
 62
7
  6
CONTINUOUS
 10
142.7626503917
 20
17.4689243212
 11
142.7612514306
 21
17.4708545103
  0
LINE
  5
4E6
100
AcDbEntity
  8
0
100
AcDbLine
 62
7
  6
CONTINUOUS
 10
129.0340623718
 20
18.7523242374
 11
129.0818346746
 21
18.6852041593
  0
LINE
  5
4E7
100
AcDbEntity
  8
0
100
AcDbLine
 62
7
  6
CONTINUOUS
 10
142.7473158717
 20
17.5206818116
 11
142.7443821999
 21
17.524846222
  0
LINE
  5
4E8
100
AcDbEntity
  8
0
100
AcDbLine
 62
7
  6
CONTINUOUS
 10
143.6713215014
 20
16.6930901728
 11
143.2658272754
 21
17.2721959435
  0
LINE
  5
4E9
100
AcDbEntity
  8
0
100
AcDbLine
 62
7
  6
CONTINUOUS
 10
131.3557963981
 20
17.4027300255
 11
131.3760792431
 21
17.3737241628
  0
LINE
  5
4EA
100
AcDbEntity
  8
0
100
AcDbLine
 62
7
  6
CONTINUOUS
 10
154.3034759416
 20
36.4992218072
 11
154.2903870999
 21
36.5180256191
  0
LINE
  5
4EB
100
AcDbEntity
  8
0
100
AcDbLine
 62
7
  6
CONTINUOUS
 10
137.4720341326
 20
32.5172637889
 11
137.4995408251
 21
32.4774863154
  0
LINE
  5
4EC
100
AcDbEntity
  8
0
100
AcDbLine
 62
7
  6
CONTINUOUS
 10
137.4991227623
 20
32.460666543
 11
137.4716709612
 21
32.5004139599
  0
LINE
  5
4ED
100
AcDbEntity
  8
0
100
AcDbLine
 62
7
  6
CONTINUOUS
 10
139.4315789307
 20
33.8278886517
 11
139.4592773921
 21
33.787772448
  0
LINE
  5
4EE
100
AcDbEntity
  8
0
100
AcDbLine
 62
7
  6
CONTINUOUS
 10
142.7463449503
 20
17.4921196296
 11
142.6730717051
 21
17.5988086346
  0
LINE
  5
4EF
100
AcDbEntity
  8
0
100
AcDbLine
 62
7
  6
CONTINUOUS
 10
142.7416022717
 20
17.5290197364
 11
142.7328916524
 21
17.5417173703
  0
LINE
  5
4F0
100
AcDbEntity
  8
0
100
AcDbLine
 62
7
  6
CONTINUOUS
 10
142.7328916524
 20
17.5417173703
 11
142.6933910593
 21
17.599378489
  0
LINE
  5
4F1
100
AcDbEntity
  8
0
100
AcDbLine
 62
7
  6
CONTINUOUS
 10
142.7612514306
 20
17.4708545103
 11
142.7596970873
 21
17.4731256029
  0
LINE
  5
4F2
100
AcDbEntity
  8
0
100
AcDbLine
 62
9
  6
CONTINUOUS
 10
154.2934350055
 20
36.5146957282
 11
154.3047724352
 21
36.498042937
  0
LINE
  5
4F3
100
AcDbEntity
  8
0
100
AcDbLine
 62
7
  6
CONTINUOUS
 10
142.7596970873
 20
17.4731256029
 11
142.7579585147
 21
17.4757171945
  0
LINE
  5
4F4
100
AcDbEntity
  8
0
100
AcDbLine
 62
7
  6
CONTINUOUS
 10
142.7443821999
 20
17.524846222
 11
142.7416022717
 21
17.5290197364
  0
LINE
  5
4F5
100
AcDbEntity
  8
0
100
AcDbLine
 62
7
  6
CONTINUOUS
 10
128.9886449113
 20
18.8210636866
 11
129.0340623718
 21
18.7523242374
  0
LINE
  5
4F6
100
AcDbEntity
  8
0
100
AcDbLine
 62
9
  6
CONTINUOUS
 10
131.3305485477
 20
17.607846993
 11
131.2899443443
 21
17.6706770245
  0
LINE
  5
4F7
100
AcDbEntity
  8
0
100
AcDbLine
 62
7
  6
CONTINUOUS
 10
154.3118536913
 20
36.4866008837
 11
154.2993512444
 21
36.5062849659
  0
LINE
  5
4F8
100
AcDbEntity
  8
0
100
AcDbLine
 62
7
  6
CONTINUOUS
 10
137.4461803672
 20
32.5581411554
 11
137.4720341326
 21
32.5172637889
  0
LINE
  5
4F9
100
AcDbEntity
  8
0
100
AcDbLine
 62
7
  6
CONTINUOUS
 10
137.4716709612
 20
32.5004139599
 11
137.4458768416
 21
32.5412446847
  0
LINE
  5
4FA
100
AcDbEntity
  8
0
100
AcDbLine
 62
7
  6
CONTINUOUS
 10
139.4592773921
 20
33.787772448
 11
139.4852501199
 21
33.7465934257
  0
LINE
  5
4FB
100
AcDbEntity
  8
0
100
AcDbLine
 62
7
  6
CONTINUOUS
 10
142.7599214464
 20
17.5024958615
 11
142.7581360917
 21
17.5053328052
  0
LINE
  5
4FC
100
AcDbEntity
  8
0
100
AcDbLine
 62
7
  6
CONTINUOUS
 10
128.9456327811
 20
18.8913475793
 11
128.9886449113
 21
18.8210636866
  0
LINE
  5
4FD
100
AcDbEntity
  8
0
100
AcDbLine
 62
7
  6
CONTINUOUS
 10
154.3151457101
 20
36.4800869788
 11
154.3034759416
 21
36.4992218072
  0
LINE
  5
4FE
100
AcDbEntity
  8
0
100
AcDbLine
 62
9
  6
CONTINUOUS
 10
154.3047724352
 20
36.498042937
 11
154.315194776
 21
36.4808123371
  0
LINE
  5
4FF
100
AcDbEntity
  8
0
100
AcDbLine
 62
7
  6
CONTINUOUS
 10
131.3760792431
 20
17.3737241628
 11
131.3942002633
 21
17.3431108442
  0
LINE
  5
500
100
AcDbEntity
  8
0
100
AcDbLine
 62
7
  6
CONTINUOUS
 10
137.4220004129
 20
32.6000965149
 11
137.4461803672
 21
32.5581411554
  0
LINE
  5
501
100
AcDbEntity
  8
0
100
AcDbLine
 62
7
  6
CONTINUOUS
 10
137.4458768416
 20
32.5412446847
 11
137.421757987
 21
32.5831388034
  0
LINE
  5
502
100
AcDbEntity
  8
0
100
AcDbLine
 62
7
  6
CONTINUOUS
 10
139.4852501199
 20
33.7465934257
 11
139.5094784825
 21
33.7043865364
  0
LINE
  5
503
100
AcDbEntity
  8
0
100
AcDbLine
 62
7
  6
CONTINUOUS
 10
128.9050802892
 20
18.9630893182
 11
128.9456327811
 21
18.8913475793
  0
LINE
  5
504
100
AcDbEntity
  8
0
100
AcDbLine
 62
7
  6
CONTINUOUS
 10
142.7482630378
 20
17.4886519111
 11
142.7463449503
 21
17.4921196296
  0
LINE
  5
505
100
AcDbEntity
  8
0
100
AcDbLine
 62
7
  6
CONTINUOUS
 10
154.3231115703
 20
36.4661718251
 11
154.3118536913
 21
36.4866008837
  0
LINE
  5
506
100
AcDbEntity
  8
0
100
AcDbLine
 62
9
  6
CONTINUOUS
 10
154.315194776
 20
36.4808123371
 11
154.3246799395
 21
36.463040695
  0
LINE
  5
507
100
AcDbEntity
  8
0
100
AcDbLine
 62
7
  6
CONTINUOUS
 10
154.3255193593
 20
36.4605570026
 11
154.3151457101
 21
36.4800869788
  0
LINE
  5
508
100
AcDbEntity
  8
0
100
AcDbLine
 62
7
  6
CONTINUOUS
 10
137.3995196461
 20
32.643110709
 11
137.4220004129
 21
32.6000965149
  0
LINE
  5
509
100
AcDbEntity
  8
0
100
AcDbLine
 62
7
  6
CONTINUOUS
 10
137.421757987
 20
32.5831388034
 11
137.3993387523
 21
32.6260756675
  0
LINE
  5
50A
100
AcDbEntity
  8
0
100
AcDbLine
 62
7
  6
CONTINUOUS
 10
128.8670367473
 20
19.0362037034
 11
128.9050802892
 21
18.9630893182
  0
LINE
  5
50B
100
AcDbEntity
  8
0
100
AcDbLine
 62
7
  6
CONTINUOUS
 10
139.5094784825
 20
33.7043865364
 11
139.5319388526
 21
33.6611883369
  0
LINE
  5
50C
100
AcDbEntity
  8
0
100
AcDbLine
 62
7
  6
CONTINUOUS
 10
128.8715372291
 20
19.0275544045
 11
128.8792822063
 21
19.012311094
  0
LINE
  5
50D
100
AcDbEntity
  8
0
100
AcDbLine
 62
7
  6
CONTINUOUS
 10
131.3942002633
 20
17.3431108442
 11
131.4099637184
 21
17.3111713239
  0
LINE
  5
50E
100
AcDbEntity
  8
0
100
AcDbLine
 62
7
  6
CONTINUOUS
 10
128.8315499897
 20
19.1106007669
 11
128.8670367473
 21
19.0362037034
  0
LINE
  5
50F
100
AcDbEntity
  8
0
100
AcDbLine
 62
7
  6
CONTINUOUS
 10
154.3331369293
 20
36.4449458297
 11
154.3231115703
 21
36.4661718251
  0
LINE
  5
510
100
AcDbEntity
  8
0
100
AcDbLine
 62
7
  6
CONTINUOUS
 10
137.3788017378
 20
32.6870921531
 11
137.3995196461
 21
32.643110709
  0
LINE
  5
511
100
AcDbEntity
  8
0
100
AcDbLine
 62
7
  6
CONTINUOUS
 10
137.3993387523
 20
32.6260756675
 11
137.3786771608
 21
32.6699720125
  0
LINE
  5
512
100
AcDbEntity
  8
0
100
AcDbLine
 62
7
  6
CONTINUOUS
 10
139.5319388526
 20
33.6611883369
 11
139.5525750783
 21
33.6171011752
  0
LINE
  5
513
100
AcDbEntity
  8
0
100
AcDbLine
 62
9
  6
CONTINUOUS
 10
154.3246799395
 20
36.463040695
 11
154.3331923664
 21
36.4447950862
  0
LINE
  5
514
100
AcDbEntity
  8
0
100
AcDbLine
 62
7
  6
CONTINUOUS
 10
154.3344027107
 20
36.4412069807
 11
154.3255193593
 21
36.4605570026
  0
LINE
  5
515
100
AcDbEntity
  8
0
100
AcDbLine
 62
9
  6
CONTINUOUS
 10
131.318003351
 20
17.6586798017
 11
131.2973791573
 21
17.7044505916
  0
LINE
  5
516
100
AcDbEntity
  8
0
100
AcDbLine
 62
9
  6
CONTINUOUS
 10
131.3642853128
 20
17.6660938604
 11
131.348231064
 21
17.702219059
  0
LINE
  5
517
100
AcDbEntity
  8
0
100
AcDbLine
 62
7
  6
CONTINUOUS
 10
128.7986641378
 20
19.18618958
 11
128.8315499897
 21
19.1106007669
  0
LINE
  5
518
100
AcDbEntity
  8
0
100
AcDbLine
 62
7
  6
CONTINUOUS
 10
142.7557452683
 20
17.4786090965
 11
142.7543611285
 21
17.4818330283
  0
LINE
  5
519
100
AcDbEntity
  8
0
100
AcDbLine
 62
7
  6
CONTINUOUS
 10
137.3599005264
 20
32.7319524793
 11
137.3788017378
 21
32.6870921531
  0
LINE
  5
51A
100
AcDbEntity
  8
0
100
AcDbLine
 62
7
  6
CONTINUOUS
 10
137.3786771608
 20
32.6699720125
 11
137.3598236641
 21
32.7147464258
  0
LINE
  5
51B
100
AcDbEntity
  8
0
100
AcDbLine
 62
7
  6
CONTINUOUS
 10
139.5525750783
 20
33.6171011752
 11
139.5713402207
 21
33.5722286503
  0
LINE
  5
51C
100
AcDbEntity
  8
0
100
AcDbLine
 62
7
  6
CONTINUOUS
 10
131.4099637184
 20
17.3111713239
 11
131.4225130168
 21
17.280180751
  0
LINE
  5
51D
100
AcDbEntity
  8
0
100
AcDbLine
 62
7
  6
CONTINUOUS
 10
154.341863965
 20
36.4229976571
 11
154.3331369293
 21
36.4449458297
  0
LINE
  5
51E
100
AcDbEntity
  8
0
100
AcDbLine
 62
7
  6
CONTINUOUS
 10
128.7684199635
 20
19.2628776571
 11
128.7986641378
 21
19.18618958
  0
LINE
  5
51F
100
AcDbEntity
  8
0
100
AcDbLine
 62
7
  6
CONTINUOUS
 10
154.3423376327
 20
36.4209267446
 11
154.3344027107
 21
36.4412069807
  0
LINE
  5
520
100
AcDbEntity
  8
0
100
AcDbLine
 62
7
  6
CONTINUOUS
 10
130.9254058073
 20
17.7212480501
 11
130.9630728731
 21
17.6213828048
  0
LINE
  5
521
100
AcDbEntity
  8
0
100
AcDbLine
 62
7
  6
CONTINUOUS
 10
130.9122698512
 20
17.7218566382
 11
130.9615519038
 21
17.5901715643
  0
LINE
  5
522
100
AcDbEntity
  8
0
100
AcDbLine
 62
7
  6
CONTINUOUS
 10
137.3598236641
 20
32.7147464258
 11
137.3428087991
 21
32.7603581728
  0
LINE
  5
523
100
AcDbEntity
  8
0
100
AcDbLine
 62
7
  6
CONTINUOUS
 10
137.3428482547
 20
32.7776450707
 11
137.3599005264
 21
32.7319524793
  0
LINE
  5
524
100
AcDbEntity
  8
0
100
AcDbLine
 62
7
  6
CONTINUOUS
 10
139.5713402207
 20
33.5722286503
 11
139.588215485
 21
33.52661948
  0
LINE
  5
525
100
AcDbEntity
  8
0
100
AcDbLine
 62
7
  6
CONTINUOUS
 10
131.4224850119
 20
17.2802499091
 11
131.5545478179
 21
16.9174103317
  0
LINE
  5
526
100
AcDbEntity
  8
0
100
AcDbLine
 62
7
  6
CONTINUOUS
 10
131.3180034878
 20
17.658679425
 11
131.3383493056
 21
17.6027797499
  0
LINE
  5
527
100
AcDbEntity
  8
0
100
AcDbLine
 62
7
  6
CONTINUOUS
 10
128.7408548404
 20
19.3405710671
 11
128.7684199635
 21
19.2628776571
  0
LINE
  5
528
100
AcDbEntity
  8
0
100
AcDbLine
 62
7
  6
CONTINUOUS
 10
142.7581360917
 20
17.5053328052
 11
142.756973464
 21
17.5086683676
  0
LINE
  5
529
100
AcDbEntity
  8
0
100
AcDbLine
 62
9
  6
CONTINUOUS
 10
154.340716358
 20
36.4261094374
 11
154.3472222156
 21
36.4070575847
  0
LINE
  5
52A
100
AcDbEntity
  8
0
100
AcDbLine
 62
7
  6
CONTINUOUS
 10
137.3428087991
 20
32.7603581728
 11
137.3276622413
 21
32.8067770562
  0
LINE
  5
52B
100
AcDbEntity
  8
0
100
AcDbLine
 62
7
  6
CONTINUOUS
 10
137.3276762571
 20
32.8241306998
 11
137.3428482547
 21
32.7776450707
  0
LINE
  5
52C
100
AcDbEntity
  8
0
100
AcDbLine
 62
7
  6
CONTINUOUS
 10
154.3492562831
 20
36.400322962
 11
154.341863965
 21
36.4229976571
  0
LINE
  5
52D
100
AcDbEntity
  8
0
100
AcDbLine
 62
7
  6
CONTINUOUS
 10
139.588215485
 20
33.52661948
 11
139.6031817178
 21
33.4803177483
  0
LINE
  5
52E
100
AcDbEntity
  8
0
100
AcDbLine
 62
7
  6
CONTINUOUS
 10
154.3496652431
 20
36.3982145819
 11
154.3423376327
 21
36.4209267446
  0
LINE
  5
52F
100
AcDbEntity
  8
0
100
AcDbLine
 62
7
  6
CONTINUOUS
 10
128.7160026838
 20
19.4191745798
 11
128.7408548404
 21
19.3405710671
  0
LINE
  5
530
100
AcDbEntity
  8
0
100
AcDbLine
 62
9
  6
CONTINUOUS
 10
154.3472222156
 20
36.4070575847
 11
154.3526985115
 21
36.3876732974
  0
LINE
  5
531
100
AcDbEntity
  8
0
100
AcDbLine
 62
7
  6
CONTINUOUS
 10
137.3276622413
 20
32.8067770562
 11
137.3144409841
 21
32.8538839226
  0
LINE
  5
532
100
AcDbEntity
  8
0
100
AcDbLine
 62
7
  6
CONTINUOUS
 10
137.3144391464
 20
32.8712909537
 11
137.3276762571
 21
32.8241306998
  0
LINE
  5
533
100
AcDbEntity
  8
0
100
AcDbLine
 62
7
  6
CONTINUOUS
 10
128.6938939099
 20
19.4985917856
 11
128.7160026838
 21
19.4191745798
  0
LINE
  5
534
100
AcDbEntity
  8
0
100
AcDbLine
 62
7
  6
CONTINUOUS
 10
139.6031817178
 20
33.4803177483
 11
139.6161980484
 21
33.4334430853
  0
LINE
  5
535
100
AcDbEntity
  8
0
100
AcDbLine
 62
7
  6
CONTINUOUS
 10
154.3552494382
 20
36.3769680323
 11
154.3492562831
 21
36.400322962
  0
LINE
  5
536
100
AcDbEntity
  8
0
100
AcDbLine
 62
7
  6
CONTINUOUS
 10
154.3556507113
 20
36.3745471908
 11
154.3496652431
 21
36.3982145819
  0
LINE
  5
537
100
AcDbEntity
  8
0
100
AcDbLine
 62
7
  6
CONTINUOUS
 10
128.6745553901
 20
19.5787252364
 11
128.6938939099
 21
19.4985917856
  0
LINE
  5
538
100
AcDbEntity
  8
0
100
AcDbLine
 62
7
  6
CONTINUOUS
 10
142.7483279299
 20
17.5164577281
 11
142.7473158717
 21
17.5206818116
  0
LINE
  5
539
100
AcDbEntity
  8
0
100
AcDbLine
 62
7
  6
CONTINUOUS
 10
137.3144409841
 20
32.8538839226
 11
137.303188186
 21
32.9015707889
  0
LINE
  5
53A
100
AcDbEntity
  8
0
100
AcDbLine
 62
7
  6
CONTINUOUS
 10
137.303178557
 20
32.9190157785
 11
137.3144391464
 21
32.8712909537
  0
LINE
  5
53B
100
AcDbEntity
  8
0
100
AcDbLine
 62
7
  6
CONTINUOUS
 10
139.6161980484
 20
33.4334430853
 11
139.6272357715
 21
33.3861091033
  0
LINE
  5
53C
100
AcDbEntity
  8
0
100
AcDbLine
 62
9
  6
CONTINUOUS
 10
154.3526985115
 20
36.3876732974
 11
154.3571236006
 21
36.3680326291
  0
LINE
  5
53D
100
AcDbEntity
  8
0
100
AcDbLine
 62
7
  6
CONTINUOUS
 10
128.6580104169
 20
19.6594765771
 11
128.6745553901
 21
19.5787252364
  0
LINE
  5
53E
100
AcDbEntity
  8
0
100
AcDbLine
 62
7
  6
CONTINUOUS
 10
137.303188186
 20
32.9015707889
 11
137.2939340967
 21
32.9497543698
  0
LINE
  5
53F
100
AcDbEntity
  8
0
100
AcDbLine
 62
7
  6
CONTINUOUS
 10
137.2939225972
 20
32.9672219151
 11
137.303178557
 21
32.9190157785
  0
LINE
  5
540
100
AcDbEntity
  8
0
100
AcDbLine
 62
7
  6
CONTINUOUS
 10
139.6272357715
 20
33.3861091033
 11
139.6362821002
 21
33.338390214
  0
LINE
  5
541
100
AcDbEntity
  8
0
100
AcDbLine
 62
7
  6
CONTINUOUS
 10
154.3600122799
 20
36.3510099897
 11
154.3552494382
 21
36.3769680323
  0
LINE
  5
542
100
AcDbEntity
  8
0
100
AcDbLine
 62
9
  6
CONTINUOUS
 10
154.3571236006
 20
36.3680326291
 11
154.3604817407
 21
36.3482249338
  0
LINE
  5
543
100
AcDbEntity
  8
0
100
AcDbLine
 62
7
  6
CONTINUOUS
 10
128.6442786704
 20
19.7407466876
 11
128.6580104169
 21
19.6594765771
  0
LINE
  5
544
100
AcDbEntity
  8
0
100
AcDbLine
 62
7
  6
CONTINUOUS
 10
137.2939340967
 20
32.9497543698
 11
137.2867052493
 21
32.9983490282
  0
LINE
  5
545
100
AcDbEntity
  8
0
100
AcDbLine
 62
7
  6
CONTINUOUS
 10
137.2866957856
 20
33.0158234602
 11
137.2939225972
 21
32.9672219151
  0
LINE
  5
546
100
AcDbEntity
  8
0
100
AcDbLine
 62
7
  6
CONTINUOUS
 10
139.6362821002
 20
33.338390214
 11
139.6433261616
 21
33.2903632798
  0
LINE
  5
547
100
AcDbEntity
  8
0
100
AcDbLine
 62
7
  6
CONTINUOUS
 10
128.635293564
 20
19.8063635073
 11
128.6442786704
 21
19.7407466876
  0
LINE
  5
548
100
AcDbEntity
  8
0
100
AcDbLine
 62
7
  6
CONTINUOUS
 10
126.749969788
 20
35.1612423455
 11
128.6353477875
 21
19.8061783705
  0
LINE
  5
549
100
AcDbEntity
  8
0
100
AcDbLine
 62
7
  6
CONTINUOUS
 10
154.3628695482
 20
36.327170501
 11
154.3597814536
 21
36.3529409214
  0
LINE
  5
54A
100
AcDbEntity
  8
0
100
AcDbLine
 62
9
  6
CONTINUOUS
 10
154.3604817407
 20
36.3482249338
 11
154.362782316
 21
36.3281675703
  0
ARC
  5
54B
100
AcDbEntity
  8
0
100
AcDbCircle
 62
7
  6
CONTINUOUS
 10
144.4648750443
 20
17.2487423455
 40
0.96875
100
AcDbArc
 50
215.0
 51
340.0
  0
ARC
  5
54C
100
AcDbEntity
  8
0
100
AcDbCircle
 62
7
  6
CONTINUOUS
 10
132.4648750443
 20
17.2487423455
 40
0.96875
100
AcDbArc
 50
200.0
 51
325.0
  0
ARC
  5
54D
100
AcDbEntity
  8
0
100
AcDbCircle
 62
7
  6
CONTINUOUS
 10
137.1934284349
 20
17.4112423455
 40
0.375
100
AcDbArc
 50
225.0
 51
270.0
  0
ARC
  5
54E
100
AcDbEntity
  8
0
100
AcDbCircle
 62
7
  6
CONTINUOUS
 10
139.7363216537
 20
17.4112423455
 40
0.375
100
AcDbArc
 50
270.0
 51
315.0
  0
ENDSEC
  0
SECTION
  2
OBJECTS
  0
DICTIONARY
  5
C
100
AcDbDictionary
280
0
281
1
  3
ACAD_GROUP
350
D
  3
ACAD_MLINESTYLE
350
17
  3
ACAD_LAYOUT
350
1A
  3
ACAD_PLOTSETTINGS
350
19
  3
ACAD_PLOTSTYLENAME
350
E
  0
DICTIONARY
  5
D
102
{ACAD_REACTORS
330
C
102
}
100
AcDbDictionary
280
0
281
1
  0
ACDBDICTIONARYWDFLT
  5
E
102
{ACAD_REACTORS
330
C
102
}
100
AcDbDictionary
281
1
  3
Normal
350
F
100
AcDbDictionaryWithDefault
340
F
  0
DICTIONARY
  5
17
102
{ACAD_REACTORS
330
C
102
}
100
AcDbDictionary
280
0
281
1
  3
Standard
350
18
  0
DICTIONARY
  5
19
102
{ACAD_REACTORS
330
C
102
}
100
AcDbDictionary
281
1
  0
DICTIONARY
  5
1A
102
{ACAD_REACTORS
330
C
102
}
100
AcDbDictionary
281
1
  3
Model
350
54F
  3
Layout1
350
550
  0
ACDBPLACEHOLDER
  5
F
102
{ACAD_REACTORS
330
E
102
}
  0
MLINESTYLE
  5
18
102
{ACAD_REACTORS
330
17
102
}
100
AcDbMlineStyle
  2
STANDARD
 70
0
  3

 62
256
 51
90.0
 52
90.0
 71
2
 49
0.5
 62
256
  6
BYLAYER
 49
-0.5
 62
256
  6
BYLAYER
  0
LAYOUT
  5
54F
102
{ACAD_REACTORS
330
1A
102
}
100
AcDbPlotSettings
  1

  2
none_device
  4
ANSI_B_(17.00_x_11.00_Inches)
  6

 40
0.0
 41
0.0
 42
0.0
 43
0.0
 44
431.8
 45
279.4
 46
0.0
 47
0.0
 48
0.0
 49
0.0
140
0.0
141
0.0
142
1.0
143
1.0
 70
1024
 72
0
 73
0
 74
0
  7

 75
0
147
1.0
148
0.0
149
0.0
100
AcDbLayout
  1
Model
 70
0
 71
0
 10
0.0
 20
0.0
 11
17.0
 21
11.0
 12
0.0
 22
0.0
 32
0.0
 14
0.0
 24
0.0
 34
0.0
 15
0.0
 25
0.0
 35
0.0
146
0.0
 13
0.0
 23
0.0
 33
0.0
 16
1.0
 26
0.0
 36
0.0
 17
0.0
 27
1.0
 37
0.0
 76
0
330
218
345
0
346
0
  0
LAYOUT
  5
550
102
{ACAD_REACTORS
330
1A
102
}
100
AcDbPlotSettings
  1

  2
none_device
  4
ANSI_B_(17.00_x_11.00_Inches)
  6

 40
0.0
 41
0.0
 42
0.0
 43
0.0
 44
431.8
 45
279.4
 46
0.0
 47
0.0
 48
0.0
 49
0.0
140
0.0
141
0.0
142
1.0
143
1.0
 70
0
 72
0
 73
0
 74
0
  7

 75
0
147
1.0
148
0.0
149
0.0
100
AcDbLayout
  1
Layout1
 70
0
 71
1
 10
0.0
 20
0.0
 11
17.0
 21
11.0
 12
0.0
 22
0.0
 32
0.0
 14
0.0
 24
0.0
 34
0.0
 15
0.0
 25
0.0
 35
0.0
146
0.0
 13
0.0
 23
0.0
 33
0.0
 16
1.0
 26
0.0
 36
0.0
 17
0.0
 27
1.0
 37
0.0
 76
0
330
219
345
0
346
0
  0
ENDSEC
  0
EOF
