  0
SECTION
  2
HEADER
  9
$ACADVER
  1
AC1015
  9
$ACADMAINTVER
 70
    20
  9
$DWGCODEPAGE
  3
ANSI_1252
  9
$INSBASE
 10
0.0
 20
0.0
 30
0.0
  9
$EXTMIN
 10
-148.8760867488172
 20
-10.20143186754544
 30
0.0
  9
$EXTMAX
 10
127.4748335679
 20
124.8772845611875
 30
0.0
  9
$LIMMIN
 10
0.0
 20
0.0
  9
$LIMMAX
 10
181.3333333333
 20
117.3333333333
  9
$ORTHOMODE
 70
     1
  9
$REGENMODE
 70
     1
  9
$FILLMODE
 70
     1
  9
$QTEXTMODE
 70
     0
  9
$MIRRTEXT
 70
     0
  9
$LTSCALE
 40
9.973333333300001
  9
$ATTMODE
 70
     1
  9
$TEXTSIZE
 40
0.2
  9
$TRACEWID
 40
0.05
  9
$TEXTSTYLE
  7
STANDARD
  9
$CLAYER
  8
0
  9
$CELTYPE
  6
BYLAYER
  9
$CECOLOR
 62
   256
  9
$CELTSCALE
 40
1.0
  9
$DISPSILH
 70
     0
  9
$DIMSCALE
 40
1.0
  9
$DIMASZ
 40
2.0
  9
$DIMEXO
 40
0.0625
  9
$DIMDLI
 40
6.890666666699999
  9
$DIMRND
 40
0.0
  9
$DIMDLE
 40
0.0
  9
$DIMEXE
 40
0.125
  9
$DIMTP
 40
0.00001
  9
$DIMTM
 40
0.00001
  9
$DIMTXT
 40
1.333333333299999
  9
$DIMCEN
 40
1.631999999999999
  9
$DIMTSZ
 40
0.0
  9
$DIMTOL
 70
     1
  9
$DIMLIM
 70
     0
  9
$DIMTIH
 70
     1
  9
$DIMTOH
 70
     1
  9
$DIMSE1
 70
     0
  9
$DIMSE2
 70
     0
  9
$DIMTAD
 70
     0
  9
$DIMZIN
 70
     0
  9
$DIMBLK
  1
_FILLED
  9
$DIMASO
 70
     1
  9
$DIMSHO
 70
     1
  9
$DIMPOST
  1

  9
$DIMAPOST
  1

  9
$DIMALT
 70
     0
  9
$DIMALTD
 70
     2
  9
$DIMALTF
 40
25.4
  9
$DIMLFAC
 40
1.0
  9
$DIMTOFL
 70
     0
  9
$DIMTVP
 40
0.0
  9
$DIMTIX
 70
     0
  9
$DIMSOXD
 70
     0
  9
$DIMSAH
 70
     0
  9
$DIMBLK1
  1

  9
$DIMBLK2
  1

  9
$DIMSTYLE
  2
STANDARD
  9
$DIMCLRD
 70
     0
  9
$DIMCLRE
 70
     0
  9
$DIMCLRT
 70
     0
  9
$DIMTFAC
 40
1.0
  9
$DIMGAP
 40
0.09
  9
$DIMJUST
 70
     0
  9
$DIMSD1
 70
     0
  9
$DIMSD2
 70
     0
  9
$DIMTOLJ
 70
     1
  9
$DIMTZIN
 70
     0
  9
$DIMALTZ
 70
     0
  9
$DIMALTTZ
 70
     0
  9
$DIMUPT
 70
     0
  9
$DIMDEC
 70
     4
  9
$DIMTDEC
 70
     4
  9
$DIMALTU
 70
     2
  9
$DIMALTTD
 70
     2
  9
$DIMTXSTY
  7
STANDARD
  9
$DIMAUNIT
 70
     0
  9
$DIMADEC
 70
     0
  9
$DIMALTRND
 40
0.0
  9
$DIMAZIN
 70
     0
  9
$DIMDSEP
 70
    46
  9
$DIMATFIT
 70
     3
  9
$DIMFRAC
 70
     0
  9
$DIMLDRBLK
  1

  9
$DIMLUNIT
 70
     2
  9
$DIMLWD
 70
    -2
  9
$DIMLWE
 70
    -2
  9
$DIMTMOVE
 70
     0
  9
$LUNITS
 70
     2
  9
$LUPREC
 70
     4
  9
$SKETCHINC
 40
0.1
  9
$FILLETRAD
 40
0.0
  9
$AUNITS
 70
     0
  9
$AUPREC
 70
     0
  9
$MENU
  1
.
  9
$ELEVATION
 40
0.0
  9
$PELEVATION
 40
0.0
  9
$THICKNESS
 40
0.0
  9
$LIMCHECK
 70
     0
  9
$CHAMFERA
 40
0.0
  9
$CHAMFERB
 40
0.0
  9
$CHAMFERC
 40
0.0
  9
$CHAMFERD
 40
0.0
  9
$SKPOLY
 70
     0
  9
$TDCREATE
 40
2456090.309306274
  9
$TDUCREATE
 40
2456090.475972940
  9
$TDUPDATE
 40
2456090.323615740
  9
$TDUUPDATE
 40
2456090.490282408
  9
$TDINDWG
 40
0.0048930671
  9
$TDUSRTIMER
 40
0.0048930671
  9
$USRTIMER
 70
     1
  9
$ANGBASE
 50
0.0
  9
$ANGDIR
 70
     0
  9
$PDMODE
 70
     3
  9
$PDSIZE
 40
0.03125
  9
$PLINEWID
 40
0.0
  9
$SPLFRAME
 70
     0
  9
$SPLINETYPE
 70
     6
  9
$SPLINESEGS
 70
     8
  9
$HANDSEED
  5
32E7
  9
$SURFTAB1
 70
     6
  9
$SURFTAB2
 70
     6
  9
$SURFTYPE
 70
     6
  9
$SURFU
 70
     6
  9
$SURFV
 70
     6
  9
$UCSBASE
  2

  9
$UCSNAME
  2

  9
$UCSORG
 10
0.0
 20
0.0
 30
0.0
  9
$UCSXDIR
 10
1.0
 20
0.0
 30
0.0
  9
$UCSYDIR
 10
0.0
 20
1.0
 30
0.0
  9
$UCSORTHOREF
  2

  9
$UCSORTHOVIEW
 70
     0
  9
$UCSORGTOP
 10
0.0
 20
0.0
 30
0.0
  9
$UCSORGBOTTOM
 10
0.0
 20
0.0
 30
0.0
  9
$UCSORGLEFT
 10
0.0
 20
0.0
 30
0.0
  9
$UCSORGRIGHT
 10
0.0
 20
0.0
 30
0.0
  9
$UCSORGFRONT
 10
0.0
 20
0.0
 30
0.0
  9
$UCSORGBACK
 10
0.0
 20
0.0
 30
0.0
  9
$PUCSBASE
  2

  9
$PUCSNAME
  2

  9
$PUCSORG
 10
0.0
 20
0.0
 30
0.0
  9
$PUCSXDIR
 10
1.0
 20
0.0
 30
0.0
  9
$PUCSYDIR
 10
0.0
 20
1.0
 30
0.0
  9
$PUCSORTHOREF
  2

  9
$PUCSORTHOVIEW
 70
     0
  9
$PUCSORGTOP
 10
0.0
 20
0.0
 30
0.0
  9
$PUCSORGBOTTOM
 10
0.0
 20
0.0
 30
0.0
  9
$PUCSORGLEFT
 10
0.0
 20
0.0
 30
0.0
  9
$PUCSORGRIGHT
 10
0.0
 20
0.0
 30
0.0
  9
$PUCSORGFRONT
 10
0.0
 20
0.0
 30
0.0
  9
$PUCSORGBACK
 10
0.0
 20
0.0
 30
0.0
  9
$USERI1
 70
     0
  9
$USERI2
 70
     0
  9
$USERI3
 70
     0
  9
$USERI4
 70
     0
  9
$USERI5
 70
     0
  9
$USERR1
 40
0.0
  9
$USERR2
 40
0.0
  9
$USERR3
 40
0.0
  9
$USERR4
 40
0.0
  9
$USERR5
 40
0.0
  9
$WORLDVIEW
 70
     1
  9
$SHADEDGE
 70
     3
  9
$SHADEDIF
 70
    70
  9
$TILEMODE
 70
     1
  9
$MAXACTVP
 70
    64
  9
$PINSBASE
 10
0.0
 20
0.0
 30
0.0
  9
$PLIMCHECK
 70
     0
  9
$PEXTMIN
 10
1.000000000000000E+20
 20
1.000000000000000E+20
 30
1.000000000000000E+20
  9
$PEXTMAX
 10
-1.000000000000000E+20
 20
-1.000000000000000E+20
 30
-1.000000000000000E+20
  9
$PLIMMIN
 10
0.0
 20
0.0
  9
$PLIMMAX
 10
12.0
 20
9.0
  9
$UNITMODE
 70
     0
  9
$VISRETAIN
 70
     1
  9
$PLINEGEN
 70
     0
  9
$PSLTSCALE
 70
     1
  9
$TREEDEPTH
 70
  3020
  9
$CMLSTYLE
  2
Standard
  9
$CMLJUST
 70
     0
  9
$CMLSCALE
 40
1.0
  9
$PROXYGRAPHICS
 70
     1
  9
$MEASUREMENT
 70
     0
  9
$CELWEIGHT
370
    -1
  9
$ENDCAPS
280
     0
  9
$JOINSTYLE
280
     0
  9
$LWDISPLAY
290
     0
  9
$INSUNITS
 70
     1
  9
$HYPERLINKBASE
  1

  9
$STYLESHEET
  1

  9
$XEDIT
290
     1
  9
$CEPSNTYPE
380
     0
  9
$PSTYLEMODE
290
     1
  9
$FINGERPRINTGUID
  2
{6DA70B51-C1B6-4CD3-A26A-BE467E4E35BE}
  9
$VERSIONGUID
  2
{275256AD-1916-4123-8859-A6231386BCA9}
  9
$EXTNAMES
290
     1
  9
$PSVPSCALE
 40
0.0
  9
$OLESTARTUP
290
     0
  0
ENDSEC
  0
SECTION
  2
CLASSES
  0
CLASS
  1
ACDBDICTIONARYWDFLT
  2
AcDbDictionaryWithDefault
  3
ObjectDBX Classes
 90
        0
280
     0
281
     0
  0
CLASS
  1
ACDBPLACEHOLDER
  2
AcDbPlaceHolder
  3
ObjectDBX Classes
 90
        0
280
     0
281
     0
  0
CLASS
  1
LAYOUT
  2
AcDbLayout
  3
ObjectDBX Classes
 90
        0
280
     0
281
     0
  0
CLASS
  1
MATERIAL
  2
AcDbMaterial
  3
ObjectDBX Classes
 90
     1153
280
     0
281
     0
  0
CLASS
  1
VISUALSTYLE
  2
AcDbVisualStyle
  3
ObjectDBX Classes
 90
     4095
280
     0
281
     0
  0
CLASS
  1
TABLESTYLE
  2
AcDbTableStyle
  3
ObjectDBX Classes
 90
     4095
280
     0
281
     0
  0
CLASS
  1
SCALE
  2
AcDbScale
  3
ObjectDBX Classes
 90
     1153
280
     0
281
     0
  0
CLASS
  1
MLEADERSTYLE
  2
AcDbMLeaderStyle
  3
ACDB_MLEADERSTYLE_CLASS
 90
     4095
280
     0
281
     0
  0
CLASS
  1
CELLSTYLEMAP
  2
AcDbCellStyleMap
  3
ObjectDBX Classes
 90
     1152
280
     0
281
     0
  0
CLASS
  1
DICTIONARYVAR
  2
AcDbDictionaryVar
  3
ObjectDBX Classes
 90
        0
280
     0
281
     0
  0
ENDSEC
  0
SECTION
  2
TABLES
  0
TABLE
  2
VPORT
  5
8
102
{ACAD_XDICTIONARY
360
1F8B
102
}
330
0
100
AcDbSymbolTable
 70
     1
  0
VPORT
  5
1F4
330
8
100
AcDbSymbolTableRecord
100
AcDbViewportTableRecord
  2
*ACTIVE
 70
     0
 10
0.0
 20
0.0
 11
1.0
 21
1.0
 12
52.17438910473493
 22
84.42114987719989
 13
0.0
 23
0.0
 14
1.0
 24
1.0
 15
0.0
 25
0.0
 16
0.0
 26
0.0
 36
1.0
 17
0.0
 27
0.0
 37
0.0
 40
244.9096384032414
 41
2.280385078219013
 42
50.0
 43
0.0
 44
0.0
 50
0.0
 51
0.0
 71
     0
 72
   100
 73
     1
 74
     1
 75
     0
 76
     0
 77
     0
 78
     0
281
     0
 65
     1
110
0.0
120
0.0
130
0.0
111
1.0
121
0.0
131
0.0
112
0.0
122
1.0
132
0.0
 79
     0
146
0.0
  0
ENDTAB
  0
TABLE
  2
LTYPE
  5
5
330
0
100
AcDbSymbolTable
 70
     6
  0
LTYPE
  5
14
330
5
100
AcDbSymbolTableRecord
100
AcDbLinetypeTableRecord
  2
BYBLOCK
 70
     0
  3

 72
    65
 73
     0
 40
0.0
  0
LTYPE
  5
15
330
5
100
AcDbSymbolTableRecord
100
AcDbLinetypeTableRecord
  2
BYLAYER
 70
     0
  3

 72
    65
 73
     0
 40
0.0
  0
LTYPE
  5
16
330
5
100
AcDbSymbolTableRecord
100
AcDbLinetypeTableRecord
  2
CONTINUOUS
 70
     0
  3
Solid line
 72
    65
 73
     0
 40
0.0
  0
LTYPE
  5
1F5
330
5
100
AcDbSymbolTableRecord
100
AcDbLinetypeTableRecord
  2
CENTER
 70
     0
  3
____ _ ____ _ ____ _ ____ _ ____ _ ____ _ ____
 72
    65
 73
     4
 40
0.6
 49
0.375
 74
     0
 49
-0.075
 74
     0
 49
0.075
 74
     0
 49
-0.075
 74
     0
  0
LTYPE
  5
1F6
330
5
100
AcDbSymbolTableRecord
100
AcDbLinetypeTableRecord
  2
HIDDEN
 70
     0
  3
- - - - - - - - - - - - - - - - - - - -
 72
    65
 73
     2
 40
0.2
 49
0.1
 74
     0
 49
-0.1
 74
     0
  0
LTYPE
  5
1F7
330
5
100
AcDbSymbolTableRecord
100
AcDbLinetypeTableRecord
  2
PHANTOM
 70
     0
  3
_____ _ _ _____ _ _ _____ _ _ _____
 72
    65
 73
     6
 40
0.8
 49
0.45
 74
     0
 49
-0.05
 74
     0
 49
0.1
 74
     0
 49
-0.05
 74
     0
 49
0.1
 74
     0
 49
-0.05
 74
     0
  0
LTYPE
  5
1F8
330
5
100
AcDbSymbolTableRecord
100
AcDbLinetypeTableRecord
  2
DOT
 70
     0
  3
. . . . . . . . . . . . . . . . . . . .
 72
    65
 73
     2
 40
0.2
 49
0.1
 74
     0
 49
-0.1
 74
     0
  0
LTYPE
  5
1F9
330
5
100
AcDbSymbolTableRecord
100
AcDbLinetypeTableRecord
  2
DASHED
 70
     0
  3
- - - - - - - - - - - - - - - - - - - -
 72
    65
 73
     2
 40
0.2
 49
0.1
 74
     0
 49
-0.1
 74
     0
  0
ENDTAB
  0
TABLE
  2
LAYER
  5
2
330
0
100
AcDbSymbolTable
 70
    16
  0
LAYER
  5
10
102
{ACAD_XDICTIONARY
360
32B2
102
}
330
2
100
AcDbSymbolTableRecord
100
AcDbLayerTableRecord
  2
0
 70
     0
 62
     7
  6
CONTINUOUS
370
    -3
390
F
  0
LAYER
  5
1FA
102
{ACAD_XDICTIONARY
360
32B4
102
}
330
2
100
AcDbSymbolTableRecord
100
AcDbLayerTableRecord
  2
DEFAULT_1
 70
     0
 62
     7
  6
CENTER
370
    -3
390
F
  0
LAYER
  5
1FB
102
{ACAD_XDICTIONARY
360
32B6
102
}
330
2
100
AcDbSymbolTableRecord
100
AcDbLayerTableRecord
  2
DEFAULT_2
 70
     0
 62
     7
  6
HIDDEN
370
    -3
390
F
  0
LAYER
  5
1FC
102
{ACAD_XDICTIONARY
360
32B8
102
}
330
2
100
AcDbSymbolTableRecord
100
AcDbLayerTableRecord
  2
DEFAULT_3
 70
     0
 62
     7
  6
PHANTOM
370
    -3
390
F
  0
LAYER
  5
1FD
102
{ACAD_XDICTIONARY
360
32BA
102
}
330
2
100
AcDbSymbolTableRecord
100
AcDbLayerTableRecord
  2
1_CURVES
 70
     0
 62
     7
  6
CONTINUOUS
370
    -3
390
F
  0
LAYER
  5
1FE
102
{ACAD_XDICTIONARY
360
32BC
102
}
330
2
100
AcDbSymbolTableRecord
100
AcDbLayerTableRecord
  2
1_CURVES_SPEC
 70
     0
 62
     7
  6
CONTINUOUS
370
    -3
390
F
  0
LAYER
  5
1FF
102
{ACAD_XDICTIONARY
360
32BE
102
}
330
2
100
AcDbSymbolTableRecord
100
AcDbLayerTableRecord
  2
1_CURVES_ZONE-ROBINETERIE
 70
     0
 62
     7
  6
CONTINUOUS
370
    -3
390
F
  0
LAYER
  5
200
102
{ACAD_XDICTIONARY
360
32C0
102
}
330
2
100
AcDbSymbolTableRecord
100
AcDbLayerTableRecord
  2
2_PLANES
 70
     0
 62
     7
  6
CONTINUOUS
370
    -3
390
F
  0
LAYER
  5
201
102
{ACAD_XDICTIONARY
360
32C2
102
}
330
2
100
AcDbSymbolTableRecord
100
AcDbLayerTableRecord
  2
3_POINTS
 70
     0
 62
     7
  6
CONTINUOUS
370
    -3
390
F
  0
LAYER
  5
202
102
{ACAD_XDICTIONARY
360
32C4
102
}
330
2
100
AcDbSymbolTableRecord
100
AcDbLayerTableRecord
  2
4_CSYS
 70
     0
 62
     7
  6
CONTINUOUS
370
    -3
390
F
  0
LAYER
  5
203
102
{ACAD_XDICTIONARY
360
32C6
102
}
330
2
100
AcDbSymbolTableRecord
100
AcDbLayerTableRecord
  2
5_AXIS
 70
     0
 62
     7
  6
CONTINUOUS
370
    -3
390
F
  0
LAYER
  5
204
102
{ACAD_XDICTIONARY
360
32C8
102
}
330
2
100
AcDbSymbolTableRecord
100
AcDbLayerTableRecord
  2
6_SURFACES
 70
     0
 62
     7
  6
CONTINUOUS
370
    -3
390
F
  0
LAYER
  5
205
102
{ACAD_XDICTIONARY
360
32CA
102
}
330
2
100
AcDbSymbolTableRecord
100
AcDbLayerTableRecord
  2
6_SURFACES_OFFSET-FIBRE
 70
     0
 62
     7
  6
CONTINUOUS
370
    -3
390
F
  0
LAYER
  5
206
102
{ACAD_XDICTIONARY
360
32CC
102
}
330
2
100
AcDbSymbolTableRecord
100
AcDbLayerTableRecord
  2
6_SURFACES_TOOLING
 70
     0
 62
     7
  6
CONTINUOUS
370
    -3
390
F
  0
LAYER
  5
207
102
{ACAD_XDICTIONARY
360
32CE
102
}
330
2
100
AcDbSymbolTableRecord
100
AcDbLayerTableRecord
  2
7_NOTES
 70
     0
 62
     7
  6
CONTINUOUS
370
    -3
390
F
  0
LAYER
  5
208
102
{ACAD_XDICTIONARY
360
32D0
102
}
330
2
100
AcDbSymbolTableRecord
100
AcDbLayerTableRecord
  2
XSEC_DATUMS
 70
     0
 62
     7
  6
CONTINUOUS
370
    -3
390
F
  0
ENDTAB
  0
TABLE
  2
STYLE
  5
3
330
0
100
AcDbSymbolTable
 70
     8
  0
STYLE
  5
11
330
3
100
AcDbSymbolTableRecord
100
AcDbTextStyleTableRecord
  2
STANDARD
 70
     0
 40
0.0
 41
0.8
 50
0.0
 71
     0
 42
0.2
  3
txt
  4

  0
STYLE
  5
209
330
3
100
AcDbSymbolTableRecord
100
AcDbTextStyleTableRecord
  2
TEXTSTYLE_1
 70
     0
 40
0.0
 41
0.8
 50
0.0
 71
     0
 42
0.2
  3
gdt
  4

  0
STYLE
  5
20A
330
3
100
AcDbSymbolTableRecord
100
AcDbTextStyleTableRecord
  2
TEXTSTYLE_2
 70
     0
 40
0.0
 41
1.0
 50
0.0
 71
     0
 42
0.2
  3
trium.ttf
  4

  0
STYLE
  5
20B
330
3
100
AcDbSymbolTableRecord
100
AcDbTextStyleTableRecord
  2
TEXTSTYLE_3
 70
     0
 40
0.0
 41
1.0
 50
0.0
 71
     0
 42
0.2
  3
trium.ttf
  4

  0
STYLE
  5
20C
330
3
100
AcDbSymbolTableRecord
100
AcDbTextStyleTableRecord
  2
TEXTSTYLE_4
 70
     0
 40
0.0
 41
1.0
 50
0.0
 71
     0
 42
0.2
  3
txt_____.ttf
  4

1001
ACAD
1000
txt
1071
        2
  0
STYLE
  5
20D
330
3
100
AcDbSymbolTableRecord
100
AcDbTextStyleTableRecord
  2
TEXTSTYLE_5
 70
     0
 40
0.0
 41
1.0
 50
0.0
 71
     0
 42
0.2
  3
txt_____.ttf
  4

1001
ACAD
1000
txt
1071
        2
  0
STYLE
  5
20E
330
3
100
AcDbSymbolTableRecord
100
AcDbTextStyleTableRecord
  2
TEXTSTYLE_6
 70
     0
 40
0.0
 41
1.0
 50
0.0
 71
     0
 42
0.2
  3
trium.ttf
  4

  0
STYLE
  5
20F
330
3
100
AcDbSymbolTableRecord
100
AcDbTextStyleTableRecord
  2
TEXTSTYLE_7
 70
     0
 40
0.0
 41
0.8
 50
0.0
 71
     0
 42
0.2
  3
txt_____.ttf
  4

1001
ACAD
1000
txt
1071
        2
  0
ENDTAB
  0
TABLE
  2
VIEW
  5
6
330
0
100
AcDbSymbolTable
 70
     0
  0
ENDTAB
  0
TABLE
  2
UCS
  5
7
330
0
100
AcDbSymbolTable
 70
     0
  0
ENDTAB
  0
TABLE
  2
APPID
  5
9
330
0
100
AcDbSymbolTable
 70
     2
  0
APPID
  5
210
330
9
100
AcDbSymbolTableRecord
100
AcDbRegAppTableRecord
  2
ACAD
 70
     0
  0
APPID
  5
1FBB
330
9
100
AcDbSymbolTableRecord
100
AcDbRegAppTableRecord
  2
ACAD_MLEADERVER
 70
     0
  0
ENDTAB
  0
TABLE
  2
DIMSTYLE
  5
A
330
0
100
AcDbSymbolTable
 70
     9
100
AcDbDimStyleTable
 71
     0
  0
DIMSTYLE
105
235
330
A
100
AcDbSymbolTableRecord
100
AcDbDimStyleTableRecord
  2
STANDARD
 70
     0
 41
2.0
 44
0.125
 47
0.00001
 48
0.00001
 71
     1
 78
     4
140
1.333333333299999
271
     5
272
     5
284
     4
340
11
341
213
342
213
343
213
344
213
  0
DIMSTYLE
105
236
330
A
100
AcDbSymbolTableRecord
100
AcDbDimStyleTableRecord
  2
DIMSTYLE_1
 70
     0
 41
2.0
 44
0.125
 47
0.00001
 48
0.00001
 78
     4
140
1.333333333299999
147
0.0625
271
     3
272
     3
284
     4
340
11
341
213
342
213
343
213
344
213
  0
DIMSTYLE
105
237
330
A
100
AcDbSymbolTableRecord
100
AcDbDimStyleTableRecord
  2
DIMSTYLE_2
 70
     0
 41
2.0
 44
0.125
 47
0.001
 48
0.001
 78
     4
140
1.333333333299999
147
0.0625
271
     3
272
     3
284
     4
340
11
341
213
342
213
343
213
344
213
  0
DIMSTYLE
105
238
330
A
100
AcDbSymbolTableRecord
100
AcDbDimStyleTableRecord
  2
DIMSTYLE_3
 70
     0
 41
2.0
 44
0.125
 47
0.001
 48
0.001
 78
     4
140
1.333333333299999
147
0.0625
271
     2
272
     2
284
     4
340
11
341
213
342
213
343
213
344
213
  0
DIMSTYLE
105
239
330
A
100
AcDbSymbolTableRecord
100
AcDbDimStyleTableRecord
  2
DIMSTYLE_4
 70
     0
 41
2.0
 44
0.125
 47
0.00001
 48
0.00001
 78
     4
140
1.333333333299999
147
0.0625
271
     2
272
     2
284
     4
340
11
341
213
342
213
343
213
344
213
  0
DIMSTYLE
105
23A
330
A
100
AcDbSymbolTableRecord
100
AcDbDimStyleTableRecord
  2
DIMSTYLE_5
 70
     0
 41
2.0
 44
0.125
 47
0.00001
 48
0.00001
 78
     4
140
1.333333333299999
147
0.0625
271
     6
272
     6
284
     4
340
11
341
213
342
213
343
213
344
213
  0
DIMSTYLE
105
23B
330
A
100
AcDbSymbolTableRecord
100
AcDbDimStyleTableRecord
  2
DIMSTYLE_6
 70
     0
 41
2.0
 44
0.125
 47
0.00001
 48
0.00001
 78
     4
140
1.333333333299999
147
0.0625
284
     4
340
11
341
213
342
213
343
213
344
213
  0
DIMSTYLE
105
23C
330
A
100
AcDbSymbolTableRecord
100
AcDbDimStyleTableRecord
  2
DIMSTYLE_7
 70
     0
 41
2.0
 44
0.125
 47
1.0
 48
1.0
 78
     4
140
1.333333333299999
271
     0
272
     0
284
     4
340
11
341
213
342
213
343
213
344
213
  0
DIMSTYLE
105
23D
330
A
100
AcDbSymbolTableRecord
100
AcDbDimStyleTableRecord
  2
DIMSTYLE_8
 70
     0
 41
2.0
 44
0.125
 47
0.00001
 48
0.00001
 78
     4
140
1.333333333299999
147
0.0625
271
     1
272
     1
284
     4
340
11
341
213
342
213
343
213
344
213
  0
ENDTAB
  0
TABLE
  2
BLOCK_RECORD
  5
1
330
0
100
AcDbSymbolTable
 70
    34
  0
BLOCK_RECORD
  5
211
330
1
100
AcDbSymbolTableRecord
100
AcDbBlockTableRecord
  2
*Model_Space
340
1F2D
  0
BLOCK_RECORD
  5
212
330
1
100
AcDbSymbolTableRecord
100
AcDbBlockTableRecord
  2
*Paper_Space
340
1F2E
  0
BLOCK_RECORD
  5
213
330
1
100
AcDbSymbolTableRecord
100
AcDbBlockTableRecord
  2
_FILLED
340
0
102
{BLKREFS
331
33A
331
33B
331
343
331
344
331
34C
331
34D
331
355
331
356
331
35F
331
360
331
369
331
36A
331
372
331
373
331
37B
331
37C
331
384
331
385
331
38D
331
38E
331
396
331
397
331
39F
331
3A0
331
3A8
331
3A9
331
3B1
331
3B2
331
3BB
331
3BC
331
3C4
331
3C5
331
3CE
331
3CF
331
3D7
331
3D8
331
3EE
331
3EF
331
3F7
331
3F8
331
401
331
402
102
}
  0
BLOCK_RECORD
  5
22B
330
1
100
AcDbSymbolTableRecord
100
AcDbBlockTableRecord
  2
SYMBOL_14_BL9
340
0
  0
BLOCK_RECORD
  5
22C
330
1
100
AcDbSymbolTableRecord
100
AcDbBlockTableRecord
  2
SYMBOL_12_BL8
340
0
  0
BLOCK_RECORD
  5
22D
330
1
100
AcDbSymbolTableRecord
100
AcDbBlockTableRecord
  2
SYMBOL_10_BL7
340
0
  0
BLOCK_RECORD
  5
22E
330
1
100
AcDbSymbolTableRecord
100
AcDbBlockTableRecord
  2
SYMBOL_9_BL6
340
0
  0
BLOCK_RECORD
  5
22F
330
1
100
AcDbSymbolTableRecord
100
AcDbBlockTableRecord
  2
SYMBOL_15_BL5
340
0
  0
BLOCK_RECORD
  5
230
330
1
100
AcDbSymbolTableRecord
100
AcDbBlockTableRecord
  2
SYMBOL_8_BL4
340
0
  0
BLOCK_RECORD
  5
231
330
1
100
AcDbSymbolTableRecord
100
AcDbBlockTableRecord
  2
SYMBOL_7_BL3
340
0
  0
BLOCK_RECORD
  5
232
330
1
100
AcDbSymbolTableRecord
100
AcDbBlockTableRecord
  2
SYMBOL_6_BL2
340
0
  0
BLOCK_RECORD
  5
233
330
1
100
AcDbSymbolTableRecord
100
AcDbBlockTableRecord
  2
SYMBOL_18_BL1
340
0
  0
BLOCK_RECORD
  5
234
330
1
100
AcDbSymbolTableRecord
100
AcDbBlockTableRecord
  2
SYMBOL_3_BL0
340
0
  0
ENDTAB
  0
ENDSEC
  0
SECTION
  2
BLOCKS
  0
BLOCK
  5
20
330
211
100
AcDbEntity
  8
0
100
AcDbBlockBegin
  2
*Model_Space
 70
     0
 10
0.0
 20
0.0
 30
0.0
  3
*Model_Space
  1

  0
ENDBLK
  5
21
330
211
100
AcDbEntity
  8
0
100
AcDbBlockEnd
  0
BLOCK
  5
1C
330
212
100
AcDbEntity
 67
     1
  8
0
100
AcDbBlockBegin
  2
*Paper_Space
 70
     0
 10
0.0
 20
0.0
 30
0.0
  3
*Paper_Space
  1

  0
ENDBLK
  5
1D
330
212
100
AcDbEntity
 67
     1
  8
0
100
AcDbBlockEnd
  0
BLOCK
  5
331
330
213
100
AcDbEntity
  8
0
100
AcDbBlockBegin
  2
_FILLED
 70
     0
 10
0.0
 20
0.0
 30
0.0
  3
_FILLED
  1

  0
SOLID
  5
332
330
213
100
AcDbEntity
  8
0
  6
ByBlock
 62
     0
100
AcDbTrace
 10
0.0
 20
0.0
 30
0.0
 11
-1.0
 21
0.1666666667
 31
0.0
 12
-1.0
 22
-0.1666666667
 32
0.0
 13
-1.0
 23
-0.1666666667
 33
0.0
  0
ENDBLK
  5
333
330
213
100
AcDbEntity
  8
0
  6
ByBlock
 62
     0
100
AcDbBlockEnd
  0
BLOCK
  5
23E
330
22B
100
AcDbEntity
  8
0
  6
Continuous
 62
     7
100
AcDbBlockBegin
  2
SYMBOL_14_BL9
 70
     0
 10
169.3347058447
 20
86.35975699339999
 30
0.0
  3
SYMBOL_14_BL9
  1

  0
TEXT
  5
23F
330
22B
100
AcDbEntity
  8
0
  6
Continuous
 62
     7
100
AcDbText
 10
168.7717426627
 20
85.69309006739999
 30
0.0
 40
1.333333852099999
  1
T
  7
TEXTSTYLE_2
100
AcDbText
  0
ELLIPSE
  5
240
330
22B
100
AcDbEntity
  8
0
  6
Continuous
 62
     7
100
AcDbEllipse
 10
169.3347058447
 20
86.35975699339999
 30
0.0
 11
-1.942887567899999
 21
0.0
 31
0.0
210
0.0
220
0.0
230
1.0
 40
0.6606458385
 41
0.0
 42
6.283185307179586
  0
ENDBLK
  5
241
330
22B
100
AcDbEntity
  8
0
  6
ByBlock
 62
     0
100
AcDbBlockEnd
  0
BLOCK
  5
242
330
22C
100
AcDbEntity
  8
0
  6
Continuous
 62
     7
100
AcDbBlockBegin
  2
SYMBOL_12_BL8
 70
     0
 10
167.7152194173
 20
74.36863287
 30
0.0
  3
SYMBOL_12_BL8
  1

  0
TEXT
  5
243
330
22C
100
AcDbEntity
  8
0
  6
Continuous
 62
     7
100
AcDbText
 10
167.9592364481
 20
73.4579489132
 30
0.0
 40
1.333333852099999
  1
C
 50
60.0
  7
TEXTSTYLE_2
100
AcDbText
  0
ELLIPSE
  5
244
330
22C
100
AcDbEntity
  8
0
  6
Continuous
 62
     7
100
AcDbEllipse
 10
167.7152194173
 20
74.36863287
 30
0.0
 11
-0.9714437840000002
 21
-1.682589990499999
 31
0.0
210
0.0
220
0.0
230
1.0
 40
0.6606458385
 41
0.0
 42
6.283185307179586
  0
ENDBLK
  5
245
330
22C
100
AcDbEntity
  8
0
  6
ByBlock
 62
     0
100
AcDbBlockEnd
  0
BLOCK
  5
246
330
22D
100
AcDbEntity
  8
0
  6
Continuous
 62
     7
100
AcDbBlockBegin
  2
SYMBOL_10_BL7
 70
     0
 10
129.1356091794
 20
78.37100808069999
 30
0.0
  3
SYMBOL_10_BL7
  1

  0
TEXT
  5
247
330
22D
100
AcDbEntity
  8
0
  6
Continuous
 62
     7
100
AcDbText
 10
128.5861339794
 20
77.69813574069999
 30
0.0
 40
1.333333852099999
  1
L
  7
TEXTSTYLE_2
100
AcDbText
  0
TEXT
  5
248
330
22D
100
AcDbEntity
  8
0
  6
Continuous
 62
     7
100
AcDbText
 10
124.9015477011
 20
77.71054656869999
 30
0.0
 40
1.333333852099999
  1
7
  7
TEXTSTYLE_2
100
AcDbText
  0
TEXT
  5
249
330
22D
100
AcDbEntity
  8
0
  6
Continuous
 62
     7
100
AcDbText
 10
132.3474480378
 20
77.71054656869999
 30
0.0
 40
1.333333852099999
  1
8
  7
TEXTSTYLE_2
100
AcDbText
  0
ELLIPSE
  5
24A
330
22D
100
AcDbEntity
  8
0
  6
Continuous
 62
     7
100
AcDbEllipse
 10
129.1145292467
 20
78.3648026667
 30
0.0
 11
-1.942887567899999
 21
0.0
 31
0.0
210
0.0
220
0.0
230
1.0
 40
0.6606458385
 41
0.0
 42
6.283185307179586
  0
ENDBLK
  5
24B
330
22D
100
AcDbEntity
  8
0
  6
ByBlock
 62
     0
100
AcDbBlockEnd
  0
BLOCK
  5
24C
330
22E
100
AcDbEntity
  8
0
  6
Continuous
 62
     7
100
AcDbBlockBegin
  2
SYMBOL_9_BL6
 70
     0
 10
150.67063841
 20
93.8107328699
 30
0.0
  3
SYMBOL_9_BL6
  1

  0
TEXT
  5
24D
330
22E
100
AcDbEntity
  8
0
  6
Continuous
 62
     7
100
AcDbText
 10
150.1211632099
 20
93.1378605299
 30
0.0
 40
1.333333852099999
  1
L
  7
TEXTSTYLE_2
100
AcDbText
  0
TEXT
  5
24E
330
22E
100
AcDbEntity
  8
0
  6
Continuous
 62
     7
100
AcDbText
 10
145.9254656217
 20
93.15027135790002
 30
0.0
 40
1.333333852099999
  1
12
  7
TEXTSTYLE_2
100
AcDbText
  0
TEXT
  5
24F
330
22E
100
AcDbEntity
  8
0
  6
Continuous
 62
     7
100
AcDbText
 10
153.3713659584
 20
93.15027135790002
 30
0.0
 40
1.333333852099999
  1
13
  7
TEXTSTYLE_2
100
AcDbText
  0
ELLIPSE
  5
250
330
22E
100
AcDbEntity
  8
0
  6
Continuous
 62
     7
100
AcDbEllipse
 10
150.6495584772
 20
93.8045274559
 30
0.0
 11
-1.942887567899999
 21
0.0
 31
0.0
210
0.0
220
0.0
230
1.0
 40
0.6606458385
 41
0.0
 42
6.283185307179586
  0
ENDBLK
  5
251
330
22E
100
AcDbEntity
  8
0
  6
ByBlock
 62
     0
100
AcDbBlockEnd
  0
BLOCK
  5
252
330
22F
100
AcDbEntity
  8
0
  6
Continuous
 62
     7
100
AcDbBlockBegin
  2
SYMBOL_15_BL5
 70
     0
 10
19.0743854699
 20
86.2950605147
 30
0.0
  3
SYMBOL_15_BL5
  1

  0
TEXT
  5
253
330
22F
100
AcDbEntity
  8
0
  6
Continuous
 62
     7
100
AcDbText
 10
18.5114222879
 20
85.62839358869998
 30
0.0
 40
1.333333852099999
  1
T
  7
TEXTSTYLE_2
100
AcDbText
  0
ELLIPSE
  5
254
330
22F
100
AcDbEntity
  8
0
  6
Continuous
 62
     7
100
AcDbEllipse
 10
19.0743854699
 20
86.2950605147
 30
0.0
 11
-1.942887567899999
 21
0.0
 31
0.0
210
0.0
220
0.0
230
1.0
 40
0.6606458385
 41
0.0
 42
6.283185307179586
  0
ENDBLK
  5
255
330
22F
100
AcDbEntity
  8
0
  6
ByBlock
 62
     0
100
AcDbBlockEnd
  0
BLOCK
  5
256
330
230
100
AcDbEntity
  8
0
  6
Continuous
 62
     7
100
AcDbBlockBegin
  2
SYMBOL_8_BL4
 70
     0
 10
37.5708202858
 20
78.4014605191
 30
0.0
  3
SYMBOL_8_BL4
  1

  0
TEXT
  5
257
330
230
100
AcDbEntity
  8
0
  6
Continuous
 62
     7
100
AcDbText
 10
37.0213450858
 20
77.7285881791
 30
0.0
 40
1.333333852099999
  1
L
  7
TEXTSTYLE_2
100
AcDbText
  0
TEXT
  5
258
330
230
100
AcDbEntity
  8
0
  6
Continuous
 62
     7
100
AcDbText
 10
32.8256474975
 20
77.7409990071
 30
0.0
 40
1.333333852099999
  1
13
  7
TEXTSTYLE_2
100
AcDbText
  0
TEXT
  5
259
330
230
100
AcDbEntity
  8
0
  6
Continuous
 62
     7
100
AcDbText
 10
40.2715478343
 20
77.7409990071
 30
0.0
 40
1.333333852099999
  1
12
  7
TEXTSTYLE_2
100
AcDbText
  0
ELLIPSE
  5
25A
330
230
100
AcDbEntity
  8
0
  6
Continuous
 62
     7
100
AcDbEllipse
 10
37.5497403531
 20
78.3952551051
 30
0.0
 11
-1.942887567899999
 21
0.0
 31
0.0
210
0.0
220
0.0
230
1.0
 40
0.6606458385
 41
0.0
 42
6.283185307179586
  0
ENDBLK
  5
25B
330
230
100
AcDbEntity
  8
0
  6
ByBlock
 62
     0
100
AcDbBlockEnd
  0
BLOCK
  5
25C
330
231
100
AcDbEntity
  8
0
  6
Continuous
 62
     7
100
AcDbBlockBegin
  2
SYMBOL_7_BL3
 70
     0
 10
61.24476066819999
 20
94.05023700940001
 30
0.0
  3
SYMBOL_7_BL3
  1

  0
TEXT
  5
25D
330
231
100
AcDbEntity
  8
0
  6
Continuous
 62
     7
100
AcDbText
 10
60.69528546819999
 20
93.3773646694
 30
0.0
 40
1.333333852099999
  1
L
  7
TEXTSTYLE_2
100
AcDbText
  0
TEXT
  5
25E
330
231
100
AcDbEntity
  8
0
  6
Continuous
 62
     7
100
AcDbText
 10
57.0106991899
 20
93.38977549739999
 30
0.0
 40
1.333333852099999
  1
8
  7
TEXTSTYLE_2
100
AcDbText
  0
TEXT
  5
25F
330
231
100
AcDbEntity
  8
0
  6
Continuous
 62
     7
100
AcDbText
 10
64.4565995266
 20
93.38977549739999
 30
0.0
 40
1.333333852099999
  1
7
  7
TEXTSTYLE_2
100
AcDbText
  0
ELLIPSE
  5
260
330
231
100
AcDbEntity
  8
0
  6
Continuous
 62
     7
100
AcDbEllipse
 10
61.2236807355
 20
94.04403159540001
 30
0.0
 11
-1.942887567899999
 21
0.0
 31
0.0
210
0.0
220
0.0
230
1.0
 40
0.6606458385
 41
0.0
 42
6.283185307179586
  0
ENDBLK
  5
261
330
231
100
AcDbEntity
  8
0
  6
ByBlock
 62
     0
100
AcDbBlockEnd
  0
BLOCK
  5
262
330
232
100
AcDbEntity
  8
0
  6
Continuous
 62
     7
100
AcDbBlockBegin
  2
SYMBOL_6_BL2
 70
     0
 10
21.0701617374
 20
96.552234411
 30
0.0
  3
SYMBOL_6_BL2
  1

  0
TEXT
  5
263
330
232
100
AcDbEntity
  8
0
  6
Continuous
 62
     7
100
AcDbText
 10
21.3141787682
 20
95.6415504541
 30
0.0
 40
1.333333852099999
  1
C
 50
60.0
  7
TEXTSTYLE_2
100
AcDbText
  0
ELLIPSE
  5
264
330
232
100
AcDbEntity
  8
0
  6
Continuous
 62
     7
100
AcDbEllipse
 10
21.0701617374
 20
96.552234411
 30
0.0
 11
-0.9714437840000002
 21
-1.682589990499999
 31
0.0
210
0.0
220
0.0
230
1.0
 40
0.6606458385
 41
0.0
 42
6.283185307179586
  0
ENDBLK
  5
265
330
232
100
AcDbEntity
  8
0
  6
ByBlock
 62
     0
100
AcDbBlockEnd
  0
BLOCK
  5
266
330
233
100
AcDbEntity
  8
0
  6
Continuous
 62
     7
100
AcDbBlockBegin
  2
SYMBOL_18_BL1
 70
     0
 10
160.6666666667
 20
55.33333333329999
 30
0.0
  3
SYMBOL_18_BL1
  1

  0
TEXT
  5
267
330
233
100
AcDbEntity
  8
0
  6
Continuous
 62
     7
100
AcDbText
 10
144.4188815905
 20
63.10676672439999
 30
0.0
 40
0.5
  1
Infomations Techniques/Technical Infomations
  7
TEXTSTYLE_2
100
AcDbText
  0
TEXT
  5
268
330
233
100
AcDbEntity
  8
0
  6
Continuous
 62
     7
100
AcDbText
 10
144.6666666667
 20
61.6666666667
 30
0.0
 40
0.6666666667
  1
NOMBRE DE JETS:     
  7
TEXTSTYLE_2
100
AcDbText
  0
TEXT
  5
269
330
233
100
AcDbEntity
  8
0
  6
Continuous
 62
     7
100
AcDbText
 10
154.5111111111
 20
61.6666666667
 30
0.0
 40
0.6666666667
  1
36
  7
TEXTSTYLE_2
100
AcDbText
  0
TEXT
  5
26A
330
233
100
AcDbEntity
  8
0
  6
Continuous
 62
     7
100
AcDbText
 10
144.6666666667
 20
60.6666666667
 30
0.0
 40
0.6666666667
  1
 
  7
TEXTSTYLE_2
100
AcDbText
  0
TEXT
  5
26B
330
233
100
AcDbEntity
  8
0
  6
Continuous
 62
     7
100
AcDbText
 10
144.6666666667
 20
59.66666666670001
 30
0.0
 40
0.6666666667
  1
NIVEAU D'EAU              GALLONS(US)        LITRES        GALLONS(UK)
  7
TEXTSTYLE_2
100
AcDbText
  0
TEXT
  5
26C
330
233
100
AcDbEntity
  8
0
  6
Continuous
 62
     7
100
AcDbText
 10
144.6666666667
 20
58.6666666667
 30
0.0
 40
0.6666666667
  1
PLEIN
  7
TEXTSTYLE_2
100
AcDbText
  0
TEXT
  5
26D
330
233
100
AcDbEntity
  8
0
  6
Continuous
 62
     7
100
AcDbText
 10
144.6666666667
 20
57.6666666667
 30
0.0
 40
0.6666666667
  1
HAUT T.PLEIN
  7
TEXTSTYLE_2
100
AcDbText
  0
TEXT
  5
26E
330
233
100
AcDbEntity
  8
0
  6
Continuous
 62
     7
100
AcDbText
 10
144.6666666667
 20
56.6666666667
 30
0.0
 40
0.6666666667
  1
MILIEU T.PLEIN
  7
TEXTSTYLE_2
100
AcDbText
  0
TEXT
  5
26F
330
233
100
AcDbEntity
  8
0
  6
Continuous
 62
     7
100
AcDbText
 10
144.6666666667
 20
55.6666666667
 30
0.0
 40
0.6666666667
  1
BAS T.PLEIN
  7
TEXTSTYLE_2
100
AcDbText
  0
TEXT
  5
270
330
233
100
AcDbEntity
  8
0
  6
Continuous
 62
     7
100
AcDbText
 10
144.6666666667
 20
54.66666666670001
 30
0.0
 40
0.6666666667
  1
3" EN BAS T.PLEIN
  7
TEXTSTYLE_2
100
AcDbText
  0
TEXT
  5
271
330
233
100
AcDbEntity
  8
0
  6
Continuous
 62
     7
100
AcDbText
 10
144.6666666667
 20
53.6666666667
 30
0.0
 40
0.6666666667
  1
 
  7
TEXTSTYLE_2
100
AcDbText
  0
TEXT
  5
272
330
233
100
AcDbEntity
  8
0
  6
Continuous
 62
     7
100
AcDbText
 10
144.4665051611
 20
53.1198797418
 30
0.0
 40
0.5
  1
Legende/Legend
  7
TEXTSTYLE_2
100
AcDbText
  0
TEXT
  5
273
330
233
100
AcDbEntity
  8
0
  6
Continuous
 62
     7
100
AcDbText
 10
150.9953401051
 20
51.6086147641
 30
0.0
 40
0.6666666667
  1
ZONE DE ROBINETTERIE
  7
TEXTSTYLE_2
100
AcDbText
  0
TEXT
  5
274
330
233
100
AcDbEntity
  8
0
  6
Continuous
 62
     7
100
AcDbText
 10
145.9156155382
 20
50.1133702497
 30
0.0
 40
0.6666666667
  1
L   :  SYSTEME LED       DC   :  DOUBLE DOSSIER CHAUFFANT
  7
TEXTSTYLE_2
100
AcDbText
  0
TEXT
  5
275
330
233
100
AcDbEntity
  8
0
  6
Continuous
 62
     7
100
AcDbText
 10
145.9156155382
 20
48.7800369164
 30
0.0
 40
0.6666666667
  1
C   :  CONTROLE
  7
TEXTSTYLE_2
100
AcDbText
  0
TEXT
  5
276
330
233
100
AcDbEntity
  8
0
  6
Continuous
 62
     7
100
AcDbText
 10
145.9156155382
 20
47.4467035831
 30
0.0
 40
0.6666666667
  1
T   :  MOTEUR
  7
TEXTSTYLE_2
100
AcDbText
  0
TEXT
  5
277
330
233
100
AcDbEntity
  8
0
  6
Continuous
 62
     7
100
AcDbText
 10
157.499363366
 20
58.6666666667
 30
0.0
 40
0.6666666667
  1
69
  7
TEXTSTYLE_2
100
AcDbText
  0
TEXT
  5
278
330
233
100
AcDbEntity
  8
0
  6
Continuous
 62
     7
100
AcDbText
 10
157.499363366
 20
57.6666666667
 30
0.0
 40
0.6666666667
  1
59
  7
TEXTSTYLE_2
100
AcDbText
  0
TEXT
  5
279
330
233
100
AcDbEntity
  8
0
  6
Continuous
 62
     7
100
AcDbText
 10
157.499363366
 20
56.6666666667
 30
0.0
 40
0.6666666667
  1
54
  7
TEXTSTYLE_2
100
AcDbText
  0
TEXT
  5
27A
330
233
100
AcDbEntity
  8
0
  6
Continuous
 62
     7
100
AcDbText
 10
157.499363366
 20
55.6666666667
 30
0.0
 40
0.6666666667
  1
48
  7
TEXTSTYLE_2
100
AcDbText
  0
TEXT
  5
27B
330
233
100
AcDbEntity
  8
0
  6
Continuous
 62
     7
100
AcDbText
 10
157.499363366
 20
54.66666666670001
 30
0.0
 40
0.6666666667
  1
35
  7
TEXTSTYLE_2
100
AcDbText
  0
TEXT
  5
27C
330
233
100
AcDbEntity
  8
0
  6
Continuous
 62
     7
100
AcDbText
 10
164.4195693097
 20
58.68374606879999
 30
0.0
 40
0.6666666667
  1
262
  7
TEXTSTYLE_2
100
AcDbText
  0
TEXT
  5
27D
330
233
100
AcDbEntity
  8
0
  6
Continuous
 62
     7
100
AcDbText
 10
164.4195693097
 20
57.6837460688
 30
0.0
 40
0.6666666667
  1
223
  7
TEXTSTYLE_2
100
AcDbText
  0
TEXT
  5
27E
330
233
100
AcDbEntity
  8
0
  6
Continuous
 62
     7
100
AcDbText
 10
164.4195693097
 20
56.6837460688
 30
0.0
 40
0.6666666667
  1
203
  7
TEXTSTYLE_2
100
AcDbText
  0
TEXT
  5
27F
330
233
100
AcDbEntity
  8
0
  6
Continuous
 62
     7
100
AcDbText
 10
164.4195693097
 20
55.68374606879999
 30
0.0
 40
0.6666666667
  1
183
  7
TEXTSTYLE_2
100
AcDbText
  0
TEXT
  5
280
330
233
100
AcDbEntity
  8
0
  6
Continuous
 62
     7
100
AcDbText
 10
164.4195693097
 20
54.6837460688
 30
0.0
 40
0.6666666667
  1
134
  7
TEXTSTYLE_2
100
AcDbText
  0
TEXT
  5
281
330
233
100
AcDbEntity
  8
0
  6
Continuous
 62
     7
100
AcDbText
 10
171.3642082472
 20
58.6666666667
 30
0.0
 40
0.6666666667
  1
58
  7
TEXTSTYLE_2
100
AcDbText
  0
TEXT
  5
282
330
233
100
AcDbEntity
  8
0
  6
Continuous
 62
     7
100
AcDbText
 10
171.3642082472
 20
57.6666666667
 30
0.0
 40
0.6666666667
  1
49
  7
TEXTSTYLE_2
100
AcDbText
  0
TEXT
  5
283
330
233
100
AcDbEntity
  8
0
  6
Continuous
 62
     7
100
AcDbText
 10
171.3642082472
 20
56.6666666667
 30
0.0
 40
0.6666666667
  1
45
  7
TEXTSTYLE_2
100
AcDbText
  0
TEXT
  5
284
330
233
100
AcDbEntity
  8
0
  6
Continuous
 62
     7
100
AcDbText
 10
171.3642082472
 20
55.6666666667
 30
0.0
 40
0.6666666667
  1
40
  7
TEXTSTYLE_2
100
AcDbText
  0
TEXT
  5
285
330
233
100
AcDbEntity
  8
0
  6
Continuous
 62
     7
100
AcDbText
 10
171.3642082472
 20
54.66666666670001
 30
0.0
 40
0.6666666667
  1
29
  7
TEXTSTYLE_2
100
AcDbText
  0
LINE
  5
286
330
233
100
AcDbEntity
  8
0
  6
Continuous
 62
     7
100
AcDbLine
 10
144.0
 20
64.0
 30
0.0
 11
144.0
 21
46.6666666667
 31
0.0
  0
LINE
  5
287
330
233
100
AcDbEntity
  8
0
  6
Continuous
 62
     7
100
AcDbLine
 10
144.0
 20
64.0
 30
0.0
 11
177.3333333333
 21
64.0
 31
0.0
  0
LINE
  5
288
330
233
100
AcDbEntity
  8
0
  6
Continuous
 62
     7
100
AcDbLine
 10
177.3333333333
 20
64.0
 30
0.0
 11
177.3333333333
 21
46.6666666667
 31
0.0
  0
LINE
  5
289
330
233
100
AcDbEntity
  8
0
  6
Continuous
 62
     7
100
AcDbLine
 10
144.0
 20
46.6666666667
 30
0.0
 11
177.3333333333
 21
46.6666666667
 31
0.0
  0
LINE
  5
28A
330
233
100
AcDbEntity
  8
0
  6
Continuous
 62
     7
100
AcDbLine
 10
145.3333333333
 20
54.0
 30
0.0
 11
176.0
 21
54.0
 31
0.0
  0
LINE
  5
28B
330
233
100
AcDbEntity
  8
0
  6
Continuous
 62
     7
100
AcDbLine
 10
145.3333333333
 20
61.0
 30
0.0
 11
176.0
 21
61.0
 31
0.0
  0
LINE
  5
28C
330
233
100
AcDbEntity
  8
0
  6
Continuous
 62
     7
100
AcDbLine
 10
144.8089065593
 20
52.3781645044
 30
0.0
 11
144.4398858169
 21
52.009143762
 31
0.0
  0
LINE
  5
28D
330
233
100
AcDbEntity
  8
0
  6
Continuous
 62
     7
100
AcDbLine
 10
145.4755732259
 20
52.3781645044
 30
0.0
 11
144.6775574355
 21
51.5801487139
 31
0.0
  0
LINE
  5
28E
330
233
100
AcDbEntity
  8
0
  6
Continuous
 62
     7
100
AcDbLine
 10
146.1422398926
 20
52.3781645044
 30
0.0
 11
145.3442241022
 21
51.5801487139
 31
0.0
  0
LINE
  5
28F
330
233
100
AcDbEntity
  8
0
  6
Continuous
 62
     7
100
AcDbLine
 10
146.8089065593
 20
52.3781645044
 30
0.0
 11
146.0108907688
 21
51.5801487139
 31
0.0
  0
LINE
  5
290
330
233
100
AcDbEntity
  8
0
  6
Continuous
 62
     7
100
AcDbLine
 10
147.4755732259
 20
52.3781645044
 30
0.0
 11
146.6775574355
 21
51.5801487139
 31
0.0
  0
LINE
  5
291
330
233
100
AcDbEntity
  8
0
  6
Continuous
 62
     7
100
AcDbLine
 10
148.1422398926
 20
52.3781645044
 30
0.0
 11
147.3442241022
 21
51.5801487139
 31
0.0
  0
LINE
  5
292
330
233
100
AcDbEntity
  8
0
  6
Continuous
 62
     7
100
AcDbLine
 10
148.8089065593
 20
52.3781645044
 30
0.0
 11
148.0108907688
 21
51.5801487139
 31
0.0
  0
LINE
  5
293
330
233
100
AcDbEntity
  8
0
  6
Continuous
 62
     7
100
AcDbLine
 10
149.4755732259
 20
52.3781645044
 30
0.0
 11
148.6775574355
 21
51.5801487139
 31
0.0
  0
LINE
  5
294
330
233
100
AcDbEntity
  8
0
  6
Continuous
 62
     7
100
AcDbLine
 10
150.1422398926
 20
52.3781645044
 30
0.0
 11
149.3442241022
 21
51.5801487139
 31
0.0
  0
LINE
  5
295
330
233
100
AcDbEntity
  8
0
  6
Continuous
 62
     7
100
AcDbLine
 10
150.5857273268
 20
52.1549852718
 30
0.0
 11
150.0108907688
 21
51.5801487139
 31
0.0
  0
ELLIPSE
  5
296
330
233
100
AcDbEntity
  8
0
  6
Continuous
 62
     7
100
AcDbEllipse
 10
146.1454024822
 20
50.43094770689999
 30
0.0
 11
1.0473539356
 21
0.0
 31
0.0
210
0.0
220
0.0
230
1.0
 40
0.4938647983
 41
0.0
 42
6.283185307179586
  0
ELLIPSE
  5
297
330
233
100
AcDbEntity
  8
0
  6
Continuous
 62
     7
100
AcDbEllipse
 10
146.1454024822
 20
49.0976143736
 30
0.0
 11
1.0473539356
 21
0.0
 31
0.0
210
0.0
220
0.0
230
1.0
 40
0.4938647983
 41
0.0
 42
6.283185307179586
  0
ELLIPSE
  5
298
330
233
100
AcDbEntity
  8
0
  6
Continuous
 62
     7
100
AcDbEllipse
 10
146.1454024822
 20
47.76428104029999
 30
0.0
 11
1.0473539356
 21
0.0
 31
0.0
210
0.0
220
0.0
230
1.0
 40
0.4938647983
 41
0.0
 42
6.283185307179586
  0
ELLIPSE
  5
299
330
233
100
AcDbEntity
  8
0
  6
Continuous
 62
     7
100
AcDbEllipse
 10
157.1640380633
 20
50.45046906399999
 30
0.0
 11
1.0473539356
 21
0.0
 31
0.0
210
0.0
220
0.0
230
1.0
 40
0.4938647983
 41
0.0
 42
6.283185307179586
  0
ENDBLK
  5
29A
330
233
100
AcDbEntity
  8
0
  6
ByBlock
 62
     0
100
AcDbBlockEnd
  0
BLOCK
  5
29B
330
234
100
AcDbEntity
  8
0
  6
Continuous
 62
     7
100
AcDbBlockBegin
  2
SYMBOL_3_BL0
 70
     0
 10
114.4882002152
 20
52.29659140239999
 30
0.0
  3
SYMBOL_3_BL0
  1

  0
TEXT
  5
29C
330
234
100
AcDbEntity
  8
0
  6
Continuous
 62
     7
100
AcDbText
 10
108.1741399134
 20
54.5416253882
 30
0.0
 40
1.1626666667
  1
INTERNAL USE 
 50
10.0
  7
TEXTSTYLE_3
100
AcDbText
  0
TEXT
  5
29D
330
234
100
AcDbEntity
  8
0
  6
Continuous
 62
     7
100
AcDbText
 10
107.4304557094
 20
52.54010421050001
 30
0.0
 40
1.1626666667
  1
DOCUMENT ONLY
 50
10.0
  7
TEXTSTYLE_3
100
AcDbText
  0
TEXT
  5
29E
330
234
100
AcDbEntity
  8
0
  6
Continuous
 62
     7
100
AcDbText
 10
113.2151832727
 20
52.29167616
 30
0.0
 40
1.1626666667
  1
 
 50
10.0
  7
TEXTSTYLE_5
100
AcDbText
  0
TEXT
  5
29F
330
234
100
AcDbEntity
  8
0
  6
Continuous
 62
     7
100
AcDbText
 10
104.7705353897
 20
48.1145817537
 30
0.0
 40
1.1626666667
  1
DOCUMENT POUR USAGE
 50
10.0
  7
TEXTSTYLE_3
100
AcDbText
  0
TEXT
  5
2A0
330
234
100
AcDbEntity
  8
0
  6
Continuous
 62
     7
100
AcDbText
 10
105.1996348357
 20
46.09783329329999
 30
0.0
 40
1.1626666667
  1
A L'INTERNE SEULEMENT
 50
10.0
  7
TEXTSTYLE_3
100
AcDbText
  0
LINE
  5
2A1
330
234
100
AcDbEntity
  8
0
  6
Continuous
 62
     7
100
AcDbLine
 10
128.3447519385
 20
47.95305778439999
 30
0.0
 11
128.3515108712
 21
47.95981671709999
 31
0.0
  0
LINE
  5
2A2
330
234
100
AcDbEntity
  8
0
  6
Continuous
 62
     7
100
AcDbLine
 10
127.6121823721
 20
47.8238860046
 30
0.0
 11
128.2610638172
 21
48.4727674497
 31
0.0
  0
LINE
  5
2A3
330
234
100
AcDbEntity
  8
0
  6
Continuous
 62
     7
100
AcDbLine
 10
126.8796128057
 20
47.69471422479999
 30
0.0
 11
128.1706167633
 21
48.9857181824
 31
0.0
  0
LINE
  5
2A4
330
234
100
AcDbEntity
  8
0
  6
Continuous
 62
     7
100
AcDbLine
 10
126.1470432393
 20
47.565542445
 30
0.0
 11
128.0801697093
 21
49.49866891510001
 31
0.0
  0
LINE
  5
2A5
330
234
100
AcDbEntity
  8
0
  6
Continuous
 62
     7
100
AcDbLine
 10
125.4144736729
 20
47.4363706652
 30
0.0
 11
127.9897226554
 21
50.0116196477
 31
0.0
  0
LINE
  5
2A6
330
234
100
AcDbEntity
  8
0
  6
Continuous
 62
     7
100
AcDbLine
 10
124.6819041064
 20
47.3071988854
 30
0.0
 11
126.2229079212
 21
48.8482027002
 31
0.0
  0
LINE
  5
2A7
330
234
100
AcDbEntity
  8
0
  6
Continuous
 62
     7
100
AcDbLine
 10
126.8202531139
 20
49.4455478929
 30
0.0
 11
127.8992756015
 21
50.5245703804
 31
0.0
  0
LINE
  5
2A8
330
234
100
AcDbEntity
  8
0
  6
Continuous
 62
     7
100
AcDbLine
 10
123.94933454
 20
47.1780271056
 30
0.0
 11
125.4903383548
 21
48.7190309204
 31
0.0
  0
LINE
  5
2A9
330
234
100
AcDbEntity
  8
0
  6
Continuous
 62
     7
100
AcDbLine
 10
126.72980606
 20
49.9584986256
 30
0.0
 11
127.8088285475
 21
51.03752111310001
 31
0.0
  0
LINE
  5
2AA
330
234
100
AcDbEntity
  8
0
  6
Continuous
 62
     7
100
AcDbLine
 10
123.2167649736
 20
47.04885532579999
 30
0.0
 11
124.7577687884
 21
48.5898591406
 31
0.0
  0
LINE
  5
2AB
330
234
100
AcDbEntity
  8
0
  6
Continuous
 62
     7
100
AcDbLine
 10
126.639359006
 20
50.4714493582
 30
0.0
 11
127.7183814936
 21
51.55047184569999
 31
0.0
  0
LINE
  5
2AC
330
234
100
AcDbEntity
  8
0
  6
Continuous
 62
     7
100
AcDbLine
 10
122.4841954072
 20
46.919683546
 30
0.0
 11
124.025199222
 21
48.4606873608
 31
0.0
  0
LINE
  5
2AD
330
234
100
AcDbEntity
  8
0
  6
Continuous
 62
     7
100
AcDbLine
 10
126.5489119521
 20
50.9844000909
 30
0.0
 11
127.6279344396
 21
52.0634225784
 31
0.0
  0
LINE
  5
2AE
330
234
100
AcDbEntity
  8
0
  6
Continuous
 62
     7
100
AcDbLine
 10
121.7516258408
 20
46.79051176619999
 30
0.0
 11
123.2926296555
 21
48.3315155809
 31
0.0
  0
LINE
  5
2AF
330
234
100
AcDbEntity
  8
0
  6
Continuous
 62
     7
100
AcDbLine
 10
126.4584648982
 20
51.49735082359999
 30
0.0
 11
127.5374873857
 21
52.5763733111
 31
0.0
  0
LINE
  5
2B0
330
234
100
AcDbEntity
  8
0
  6
Continuous
 62
     7
100
AcDbLine
 10
121.0190562743
 20
46.6613399864
 30
0.0
 11
122.5600600891
 21
48.2023438011
 31
0.0
  0
LINE
  5
2B1
330
234
100
AcDbEntity
  8
0
  6
Continuous
 62
     7
100
AcDbLine
 10
126.3680178442
 20
52.01030155619999
 30
0.0
 11
127.4470403317
 21
53.0893240438
 31
0.0
  0
LINE
  5
2B2
330
234
100
AcDbEntity
  8
0
  6
Continuous
 62
     7
100
AcDbLine
 10
120.2864867079
 20
46.53216820659999
 30
0.0
 11
121.8274905227
 21
48.07317202130001
 31
0.0
  0
LINE
  5
2B3
330
234
100
AcDbEntity
  8
0
  6
Continuous
 62
     7
100
AcDbLine
 10
126.2775707903
 20
52.52325228890001
 30
0.0
 11
127.3565932778
 21
53.6022747764
 31
0.0
  0
LINE
  5
2B4
330
234
100
AcDbEntity
  8
0
  6
Continuous
 62
     7
100
AcDbLine
 10
119.5539171415
 20
46.4029964268
 30
0.0
 11
121.0949209563
 21
47.94400024149999
 31
0.0
  0
LINE
  5
2B5
330
234
100
AcDbEntity
  8
0
  6
Continuous
 62
     7
100
AcDbLine
 10
126.1871237363
 20
53.03620302159999
 30
0.0
 11
127.2661462238
 21
54.1152255091
 31
0.0
  0
LINE
  5
2B6
330
234
100
AcDbEntity
  8
0
  6
Continuous
 62
     7
100
AcDbLine
 10
118.8213475751
 20
46.2738246469
 30
0.0
 11
120.3623513899
 21
47.8148284617
 31
0.0
  0
LINE
  5
2B7
330
234
100
AcDbEntity
  8
0
  6
Continuous
 62
     7
100
AcDbLine
 10
126.0966766824
 20
53.5491537542
 30
0.0
 11
127.1756991699
 21
54.62817624180001
 31
0.0
  0
LINE
  5
2B8
330
234
100
AcDbEntity
  8
0
  6
Continuous
 62
     7
100
AcDbLine
 10
118.0887780087
 20
46.14465286709999
 30
0.0
 11
119.6297818234
 21
47.68565668189999
 31
0.0
  0
LINE
  5
2B9
330
234
100
AcDbEntity
  8
0
  6
Continuous
 62
     7
100
AcDbLine
 10
125.7937970826
 20
53.849671941
 30
0.0
 11
127.085252116
 21
55.14112697439999
 31
0.0
  0
LINE
  5
2BA
330
234
100
AcDbEntity
  8
0
  6
Continuous
 62
     7
100
AcDbLine
 10
117.3562084423
 20
46.01548108729999
 30
0.0
 11
118.897212257
 21
47.5564849021
 31
0.0
  0
LINE
  5
2BB
330
234
100
AcDbEntity
  8
0
  6
Continuous
 62
     7
100
AcDbLine
 10
125.0612275161
 20
53.7205001612
 30
0.0
 11
126.994805062
 21
55.6540777071
 31
0.0
  0
LINE
  5
2BC
330
234
100
AcDbEntity
  8
0
  6
Continuous
 62
     7
100
AcDbLine
 10
116.6236388758
 20
45.88630930749999
 30
0.0
 11
118.1646426906
 21
47.42731312229999
 31
0.0
  0
LINE
  5
2BD
330
234
100
AcDbEntity
  8
0
  6
Continuous
 62
     7
100
AcDbLine
 10
124.3286579497
 20
53.5913283814
 30
0.0
 11
125.356000248
 21
54.6186706797
 31
0.0
  0
LINE
  5
2BE
330
234
100
AcDbEntity
  8
0
  6
Continuous
 62
     7
100
AcDbLine
 10
125.8253355206
 20
55.08800595229999
 30
0.0
 11
126.9043580081
 21
56.16702843979999
 31
0.0
  0
LINE
  5
2BF
330
234
100
AcDbEntity
  8
0
  6
Continuous
 62
     7
100
AcDbLine
 10
115.8910693094
 20
45.7571375277
 30
0.0
 11
117.4320731242
 21
47.2981413425
 31
0.0
  0
LINE
  5
2C0
330
234
100
AcDbEntity
  8
0
  6
Continuous
 62
     7
100
AcDbLine
 10
123.5960883833
 20
53.4621566016
 30
0.0
 11
124.623430472
 21
54.48949869029999
 31
0.0
  0
LINE
  5
2C1
330
234
100
AcDbEntity
  8
0
  6
Continuous
 62
     7
100
AcDbLine
 10
125.7348884666
 20
55.60095668489999
 30
0.0
 11
126.8139109541
 21
56.6799791724
 31
0.0
  0
LINE
  5
2C2
330
234
100
AcDbEntity
  8
0
  6
Continuous
 62
     7
100
AcDbLine
 10
115.158499743
 20
45.6279657479
 30
0.0
 11
116.6995035578
 21
47.16896956270001
 31
0.0
  0
LINE
  5
2C3
330
234
100
AcDbEntity
  8
0
  6
Continuous
 62
     7
100
AcDbLine
 10
122.8635188169
 20
53.3329848218
 30
0.0
 11
123.8908606959
 21
54.3603267008
 31
0.0
  0
LINE
  5
2C4
330
234
100
AcDbEntity
  8
0
  6
Continuous
 62
     7
100
AcDbLine
 10
125.6444414127
 20
56.11390741760001
 30
0.0
 11
126.7234639002
 21
57.1929299051
 31
0.0
  0
LINE
  5
2C5
330
234
100
AcDbEntity
  8
0
  6
Continuous
 62
     7
100
AcDbLine
 10
114.4259301766
 20
45.4987939681
 30
0.0
 11
115.9669339914
 21
47.0397977829
 31
0.0
  0
LINE
  5
2C6
330
234
100
AcDbEntity
  8
0
  6
Continuous
 62
     7
100
AcDbLine
 10
122.1309492505
 20
53.203813042
 30
0.0
 11
123.1582909199
 21
54.2311547114
 31
0.0
  0
LINE
  5
2C7
330
234
100
AcDbEntity
  8
0
  6
Continuous
 62
     7
100
AcDbLine
 10
125.5539943587
 20
56.62685815029999
 30
0.0
 11
126.6330168462
 21
57.70588063779999
 31
0.0
  0
LINE
  5
2C8
330
234
100
AcDbEntity
  8
0
  6
Continuous
 62
     7
100
AcDbLine
 10
113.6933606102
 20
45.3696221883
 30
0.0
 11
115.2343644249
 21
46.9106260031
 31
0.0
  0
LINE
  5
2C9
330
234
100
AcDbEntity
  8
0
  6
Continuous
 62
     7
100
AcDbLine
 10
121.398379684
 20
53.07464126220001
 30
0.0
 11
122.4257211439
 21
54.10198272199999
 31
0.0
  0
LINE
  5
2CA
330
234
100
AcDbEntity
  8
0
  6
Continuous
 62
     7
100
AcDbLine
 10
125.4635473048
 20
57.1398088829
 30
0.0
 11
126.5425697923
 21
58.2188313704
 31
0.0
  0
LINE
  5
2CB
330
234
100
AcDbEntity
  8
0
  6
Continuous
 62
     7
100
AcDbLine
 10
112.9607910437
 20
45.2404504085
 30
0.0
 11
114.5017948585
 21
46.7814542233
 31
0.0
  0
LINE
  5
2CC
330
234
100
AcDbEntity
  8
0
  6
Continuous
 62
     7
100
AcDbLine
 10
120.6658101176
 20
52.9454694824
 30
0.0
 11
121.6931513678
 21
53.9728107326
 31
0.0
  0
LINE
  5
2CD
330
234
100
AcDbEntity
  8
0
  6
Continuous
 62
     7
100
AcDbLine
 10
125.3731002508
 20
57.6527596156
 30
0.0
 11
126.4521227384
 21
58.7317821031
 31
0.0
  0
LINE
  5
2CE
330
234
100
AcDbEntity
  8
0
  6
Continuous
 62
     7
100
AcDbLine
 10
112.2282214773
 20
45.1112786287
 30
0.0
 11
113.7692252921
 21
46.6522824435
 31
0.0
  0
LINE
  5
2CF
330
234
100
AcDbEntity
  8
0
  6
Continuous
 62
     7
100
AcDbLine
 10
119.9332405512
 20
52.8162977026
 30
0.0
 11
120.9605815918
 21
53.84363874319999
 31
0.0
  0
LINE
  5
2D0
330
234
100
AcDbEntity
  8
0
  6
Continuous
 62
     7
100
AcDbLine
 10
125.2826531969
 20
58.16571034829999
 30
0.0
 11
126.3616756844
 21
59.2447328358
 31
0.0
  0
LINE
  5
2D1
330
234
100
AcDbEntity
  8
0
  6
Continuous
 62
     7
100
AcDbLine
 10
111.4956519109
 20
44.9821068489
 30
0.0
 11
113.0366557257
 21
46.52311066369999
 31
0.0
  0
LINE
  5
2D2
330
234
100
AcDbEntity
  8
0
  6
Continuous
 62
     7
100
AcDbLine
 10
119.2006709848
 20
52.68712592279999
 30
0.0
 11
120.2280118158
 21
53.7144667538
 31
0.0
  0
LINE
  5
2D3
330
234
100
AcDbEntity
  8
0
  6
Continuous
 62
     7
100
AcDbLine
 10
125.1922061429
 20
58.6786610809
 30
0.0
 11
126.2712286305
 21
59.7576835684
 31
0.0
  0
LINE
  5
2D4
330
234
100
AcDbEntity
  8
0
  6
Continuous
 62
     7
100
AcDbLine
 10
110.7630823445
 20
44.85293506909999
 30
0.0
 11
112.3040861593
 21
46.3939388839
 31
0.0
  0
LINE
  5
2D5
330
234
100
AcDbEntity
  8
0
  6
Continuous
 62
     7
100
AcDbLine
 10
118.4681014184
 20
52.557954143
 30
0.0
 11
119.4954420398
 21
53.5852947644
 31
0.0
  0
LINE
  5
2D6
330
234
100
AcDbEntity
  8
0
  6
Continuous
 62
     7
100
AcDbLine
 10
125.101759089
 20
59.19161181359999
 30
0.0
 11
126.1807815765
 21
60.2706343011
 31
0.0
  0
LINE
  5
2D7
330
234
100
AcDbEntity
  8
0
  6
Continuous
 62
     7
100
AcDbLine
 10
110.0305127781
 20
44.7237632893
 30
0.0
 11
111.5715165929
 21
46.26476710409999
 31
0.0
  0
LINE
  5
2D8
330
234
100
AcDbEntity
  8
0
  6
Continuous
 62
     7
100
AcDbLine
 10
117.735531852
 20
52.4287823632
 30
0.0
 11
118.7628722637
 21
53.45612277489999
 31
0.0
  0
LINE
  5
2D9
330
234
100
AcDbEntity
  8
0
  6
Continuous
 62
     7
100
AcDbLine
 10
124.9268829876
 20
59.6201334988
 30
0.0
 11
126.0903345226
 21
60.7835850338
 31
0.0
  0
LINE
  5
2DA
330
234
100
AcDbEntity
  8
0
  6
Continuous
 62
     7
100
AcDbLine
 10
109.2979432117
 20
44.59459150949999
 30
0.0
 11
110.8389470264
 21
46.1355953243
 31
0.0
  0
LINE
  5
2DB
330
234
100
AcDbEntity
  8
0
  6
Continuous
 62
     7
100
AcDbLine
 10
117.0029622855
 20
52.2996105834
 30
0.0
 11
118.0303024877
 21
53.3269507855
 31
0.0
  0
LINE
  5
2DC
330
234
100
AcDbEntity
  8
0
  6
Continuous
 62
     7
100
AcDbLine
 10
124.1943134212
 20
59.49096171899999
 30
0.0
 11
125.7353172359
 21
61.0319655338
 31
0.0
  0
LINE
  5
2DD
330
234
100
AcDbEntity
  8
0
  6
Continuous
 62
     7
100
AcDbLine
 10
108.5653736452
 20
44.4654197297
 30
0.0
 11
110.10637746
 21
46.00642354449999
 31
0.0
  0
LINE
  5
2DE
330
234
100
AcDbEntity
  8
0
  6
Continuous
 62
     7
100
AcDbLine
 10
116.2703927191
 20
52.1704388036
 30
0.0
 11
117.2977327117
 21
53.1977787961
 31
0.0
  0
LINE
  5
2DF
330
234
100
AcDbEntity
  8
0
  6
Continuous
 62
     7
100
AcDbLine
 10
123.4617438548
 20
59.3617899392
 30
0.0
 11
125.0027476695
 21
60.90279375399999
 31
0.0
  0
LINE
  5
2E0
330
234
100
AcDbEntity
  8
0
  6
Continuous
 62
     7
100
AcDbLine
 10
107.8328040788
 20
44.3362479499
 30
0.0
 11
109.3738078936
 21
45.8772517646
 31
0.0
  0
LINE
  5
2E1
330
234
100
AcDbEntity
  8
0
  6
Continuous
 62
     7
100
AcDbLine
 10
115.5378231527
 20
52.0412670238
 30
0.0
 11
116.5651629356
 21
53.0686068067
 31
0.0
  0
LINE
  5
2E2
330
234
100
AcDbEntity
  8
0
  6
Continuous
 62
     7
100
AcDbLine
 10
122.7291742883
 20
59.2326181594
 30
0.0
 11
124.2701781031
 21
60.7736219742
 31
0.0
  0
LINE
  5
2E3
330
234
100
AcDbEntity
  8
0
  6
Continuous
 62
     7
100
AcDbLine
 10
107.1002345124
 20
44.2070761701
 30
0.0
 11
108.6412383272
 21
45.74807998479999
 31
0.0
  0
LINE
  5
2E4
330
234
100
AcDbEntity
  8
0
  6
Continuous
 62
     7
100
AcDbLine
 10
114.8052535863
 20
51.9120952439
 30
0.0
 11
115.8325931596
 21
52.9394348173
 31
0.0
  0
LINE
  5
2E5
330
234
100
AcDbEntity
  8
0
  6
Continuous
 62
     7
100
AcDbLine
 10
121.9966047219
 20
59.1034463796
 30
0.0
 11
123.5376085367
 21
60.64445019439999
 31
0.0
  0
LINE
  5
2E6
330
234
100
AcDbEntity
  8
0
  6
Continuous
 62
     7
100
AcDbLine
 10
106.367664946
 20
44.0779043903
 30
0.0
 11
107.9086687608
 21
45.61890820499999
 31
0.0
  0
LINE
  5
2E7
330
234
100
AcDbEntity
  8
0
  6
Continuous
 62
     7
100
AcDbLine
 10
114.0726840199
 20
51.7829234641
 30
0.0
 11
115.1000233836
 21
52.8102628279
 31
0.0
  0
LINE
  5
2E8
330
234
100
AcDbEntity
  8
0
  6
Continuous
 62
     7
100
AcDbLine
 10
121.2640351555
 20
58.9742745998
 30
0.0
 11
122.8050389703
 21
60.51527841449999
 31
0.0
  0
LINE
  5
2E9
330
234
100
AcDbEntity
  8
0
  6
Continuous
 62
     7
100
AcDbLine
 10
105.6350953796
 20
43.9487326105
 30
0.0
 11
107.1760991943
 21
45.4897364252
 31
0.0
  0
LINE
  5
2EA
330
234
100
AcDbEntity
  8
0
  6
Continuous
 62
     7
100
AcDbLine
 10
113.3401144535
 20
51.6537516843
 30
0.0
 11
114.3674536076
 21
52.6810908384
 31
0.0
  0
LINE
  5
2EB
330
234
100
AcDbEntity
  8
0
  6
Continuous
 62
     7
100
AcDbLine
 10
120.5314655891
 20
58.84510282
 30
0.0
 11
122.0724694039
 21
60.3861066347
 31
0.0
  0
LINE
  5
2EC
330
234
100
AcDbEntity
  8
0
  6
Continuous
 62
     7
100
AcDbLine
 10
104.9025258131
 20
43.8195608306
 30
0.0
 11
106.4435296279
 21
45.36056464539999
 31
0.0
  0
LINE
  5
2ED
330
234
100
AcDbEntity
  8
0
  6
Continuous
 62
     7
100
AcDbLine
 10
112.607544887
 20
51.5245799045
 30
0.0
 11
113.6348838315
 21
52.551918849
 31
0.0
  0
LINE
  5
2EE
330
234
100
AcDbEntity
  8
0
  6
Continuous
 62
     7
100
AcDbLine
 10
119.7988960227
 20
58.7159310402
 30
0.0
 11
121.3398998374
 21
60.25693485489999
 31
0.0
  0
LINE
  5
2EF
330
234
100
AcDbEntity
  8
0
  6
Continuous
 62
     7
100
AcDbLine
 10
104.1699562467
 20
43.6903890508
 30
0.0
 11
105.7109600615
 21
45.23139286560001
 31
0.0
  0
LINE
  5
2F0
330
234
100
AcDbEntity
  8
0
  6
Continuous
 62
     7
100
AcDbLine
 10
111.8749753206
 20
51.3954081247
 30
0.0
 11
112.9023140555
 21
52.4227468596
 31
0.0
  0
LINE
  5
2F1
330
234
100
AcDbEntity
  8
0
  6
Continuous
 62
     7
100
AcDbLine
 10
119.0663264562
 20
58.5867592604
 30
0.0
 11
120.607330271
 21
60.1277630751
 31
0.0
  0
LINE
  5
2F2
330
234
100
AcDbEntity
  8
0
  6
Continuous
 62
     7
100
AcDbLine
 10
103.4373866803
 20
43.561217271
 30
0.0
 11
104.9783904951
 21
45.10222108579999
 31
0.0
  0
LINE
  5
2F3
330
234
100
AcDbEntity
  8
0
  6
Continuous
 62
     7
100
AcDbLine
 10
111.1424057542
 20
51.2662363449
 30
0.0
 11
112.1697442795
 21
52.2935748702
 31
0.0
  0
LINE
  5
2F4
330
234
100
AcDbEntity
  8
0
  6
Continuous
 62
     7
100
AcDbLine
 10
118.3337568898
 20
58.4575874805
 30
0.0
 11
119.8747607046
 21
59.99859129529999
 31
0.0
  0
LINE
  5
2F5
330
234
100
AcDbEntity
  8
0
  6
Continuous
 62
     7
100
AcDbLine
 10
102.8860659078
 20
43.6132942851
 30
0.0
 11
104.2458209287
 21
44.97304930600001
 31
0.0
  0
LINE
  5
2F6
330
234
100
AcDbEntity
  8
0
  6
Continuous
 62
     7
100
AcDbLine
 10
110.4098361878
 20
51.1370645651
 30
0.0
 11
111.4371745034
 21
52.1644028808
 31
0.0
  0
LINE
  5
2F7
330
234
100
AcDbEntity
  8
0
  6
Continuous
 62
     7
100
AcDbLine
 10
117.6011873234
 20
58.3284157007
 30
0.0
 11
119.1421911382
 21
59.8694195155
 31
0.0
  0
LINE
  5
2F8
330
234
100
AcDbEntity
  8
0
  6
Continuous
 62
     7
100
AcDbLine
 10
102.7956188538
 20
44.12624501779999
 30
0.0
 11
103.8746413414
 21
45.2052675053
 31
0.0
  0
LINE
  5
2F9
330
234
100
AcDbEntity
  8
0
  6
Continuous
 62
     7
100
AcDbLine
 10
109.6772666214
 20
51.00789278529999
 30
0.0
 11
110.7046047274
 21
52.0352308914
 31
0.0
  0
LINE
  5
2FA
330
234
100
AcDbEntity
  8
0
  6
Continuous
 62
     7
100
AcDbLine
 10
116.868617757
 20
58.1992439209
 30
0.0
 11
118.4096215718
 21
59.7402477357
 31
0.0
  0
LINE
  5
2FB
330
234
100
AcDbEntity
  8
0
  6
Continuous
 62
     7
100
AcDbLine
 10
102.7051717999
 20
44.6391957505
 30
0.0
 11
103.7841942874
 21
45.71821823799999
 31
0.0
  0
LINE
  5
2FC
330
234
100
AcDbEntity
  8
0
  6
Continuous
 62
     7
100
AcDbLine
 10
108.9446970549
 20
50.87872100550001
 30
0.0
 11
109.9720349514
 21
51.90605890189999
 31
0.0
  0
LINE
  5
2FD
330
234
100
AcDbEntity
  8
0
  6
Continuous
 62
     7
100
AcDbLine
 10
116.1360481906
 20
58.0700721411
 30
0.0
 11
117.6770520053
 21
59.6110759559
 31
0.0
  0
LINE
  5
2FE
330
234
100
AcDbEntity
  8
0
  6
Continuous
 62
     7
100
AcDbLine
 10
102.614724746
 20
45.1521464831
 30
0.0
 11
103.6937472335
 21
46.2311689707
 31
0.0
  0
LINE
  5
2FF
330
234
100
AcDbEntity
  8
0
  6
Continuous
 62
     7
100
AcDbLine
 10
108.2121274885
 20
50.74954922569999
 30
0.0
 11
109.2394651754
 21
51.7768869125
 31
0.0
  0
LINE
  5
300
330
234
100
AcDbEntity
  8
0
  6
Continuous
 62
     7
100
AcDbLine
 10
115.4034786242
 20
57.9409003613
 30
0.0
 11
116.9444824389
 21
59.4819041761
 31
0.0
  0
LINE
  5
301
330
234
100
AcDbEntity
  8
0
  6
Continuous
 62
     7
100
AcDbLine
 10
102.524277692
 20
45.6650972158
 30
0.0
 11
103.6033001795
 21
46.7441197033
 31
0.0
  0
LINE
  5
302
330
234
100
AcDbEntity
  8
0
  6
Continuous
 62
     7
100
AcDbLine
 10
107.4795579220999
 20
50.6203774459
 30
0.0
 11
108.5068953993
 21
51.6477149231
 31
0.0
  0
LINE
  5
303
330
234
100
AcDbEntity
  8
0
  6
Continuous
 62
     7
100
AcDbLine
 10
114.6709090577
 20
57.8117285815
 30
0.0
 11
116.2119128725
 21
59.35273239629999
 31
0.0
  0
LINE
  5
304
330
234
100
AcDbEntity
  8
0
  6
Continuous
 62
     7
100
AcDbLine
 10
102.4338306381
 20
46.1780479485
 30
0.0
 11
103.5128531256
 21
47.257070436
 31
0.0
  0
LINE
  5
305
330
234
100
AcDbEntity
  8
0
  6
Continuous
 62
     7
100
AcDbLine
 10
106.7469883557
 20
50.4912056661
 30
0.0
 11
107.7743256233
 21
51.5185429337
 31
0.0
  0
LINE
  5
306
330
234
100
AcDbEntity
  8
0
  6
Continuous
 62
     7
100
AcDbLine
 10
113.9383394913
 20
57.6825568017
 30
0.0
 11
115.4793433061
 21
59.22356061649999
 31
0.0
  0
LINE
  5
307
330
234
100
AcDbEntity
  8
0
  6
Continuous
 62
     7
100
AcDbLine
 10
102.3433835841
 20
46.69099868109999
 30
0.0
 11
103.4224060716
 21
47.7700211687
 31
0.0
  0
LINE
  5
308
330
234
100
AcDbEntity
  8
0
  6
Continuous
 62
     7
100
AcDbLine
 10
106.0144187893
 20
50.3620338863
 30
0.0
 11
107.0417558473
 21
51.38937094430001
 31
0.0
  0
LINE
  5
309
330
234
100
AcDbEntity
  8
0
  6
Continuous
 62
     7
100
AcDbLine
 10
113.2057699249
 20
57.55338502189999
 30
0.0
 11
114.7467737397
 21
59.0943888367
 31
0.0
  0
LINE
  5
30A
330
234
100
AcDbEntity
  8
0
  6
Continuous
 62
     7
100
AcDbLine
 10
102.2529365302
 20
47.2039494138
 30
0.0
 11
103.3319590177
 21
48.2829719013
 31
0.0
  0
LINE
  5
30B
330
234
100
AcDbEntity
  8
0
  6
Continuous
 62
     7
100
AcDbLine
 10
105.2818492229
 20
50.23286210649999
 30
0.0
 11
106.3091860712
 21
51.26019895489999
 31
0.0
  0
LINE
  5
30C
330
234
100
AcDbEntity
  8
0
  6
Continuous
 62
     7
100
AcDbLine
 10
112.4732003585
 20
57.4242132421
 30
0.0
 11
114.0142041733
 21
58.96521705689999
 31
0.0
  0
LINE
  5
30D
330
234
100
AcDbEntity
  8
0
  6
Continuous
 62
     7
100
AcDbLine
 10
102.1624894762
 20
47.71690014649999
 30
0.0
 11
103.2415119638
 21
48.79592263399999
 31
0.0
  0
LINE
  5
30E
330
234
100
AcDbEntity
  8
0
  6
Continuous
 62
     7
100
AcDbLine
 10
104.5492796564
 20
50.1036903267
 30
0.0
 11
105.5766162952
 21
51.1310269654
 31
0.0
  0
LINE
  5
30F
330
234
100
AcDbEntity
  8
0
  6
Continuous
 62
     7
100
AcDbLine
 10
111.7406307921
 20
57.2950414623
 30
0.0
 11
113.2816346068
 21
58.8360452771
 31
0.0
  0
LINE
  5
310
330
234
100
AcDbEntity
  8
0
  6
Continuous
 62
     7
100
AcDbLine
 10
102.0720424223
 20
48.2298508791
 30
0.0
 11
103.1510649098
 21
49.3088733667
 31
0.0
  0
LINE
  5
311
330
234
100
AcDbEntity
  8
0
  6
Continuous
 62
     7
100
AcDbLine
 10
103.81671009
 20
49.97451854689999
 30
0.0
 11
104.8440465192
 21
51.001854976
 31
0.0
  0
LINE
  5
312
330
234
100
AcDbEntity
  8
0
  6
Continuous
 62
     7
100
AcDbLine
 10
111.0080612256
 20
57.1658696825
 30
0.0
 11
112.5490650404
 21
58.70687349729999
 31
0.0
  0
LINE
  5
313
330
234
100
AcDbEntity
  8
0
  6
Continuous
 62
     7
100
AcDbLine
 10
101.9815953684
 20
48.7428016118
 30
0.0
 11
103.0606178559
 21
49.8218240993
 31
0.0
  0
LINE
  5
314
330
234
100
AcDbEntity
  8
0
  6
Continuous
 62
     7
100
AcDbLine
 10
103.0841405236
 20
49.8453467671
 30
0.0
 11
104.1114767432
 21
50.87268298659999
 31
0.0
  0
LINE
  5
315
330
234
100
AcDbEntity
  8
0
  6
Continuous
 62
     7
100
AcDbLine
 10
110.2754916592
 20
57.03669790270001
 30
0.0
 11
111.816495474
 21
58.5777017175
 31
0.0
  0
LINE
  5
316
330
234
100
AcDbEntity
  8
0
  6
Continuous
 62
     7
100
AcDbLine
 10
101.8911483144
 20
49.2557523445
 30
0.0
 11
103.3789069671
 21
50.74351099720001
 31
0.0
  0
LINE
  5
317
330
234
100
AcDbEntity
  8
0
  6
Continuous
 62
     7
100
AcDbLine
 10
109.5429220928
 20
56.9075261229
 30
0.0
 11
111.0839259076
 21
58.4485299377
 31
0.0
  0
LINE
  5
318
330
234
100
AcDbEntity
  8
0
  6
Continuous
 62
     7
100
AcDbLine
 10
101.8007012605
 20
49.7687030772
 30
0.0
 11
102.879723748
 21
50.84772556469999
 31
0.0
  0
LINE
  5
319
330
234
100
AcDbEntity
  8
0
  6
Continuous
 62
     7
100
AcDbLine
 10
108.8103525264
 20
56.77835434310001
 30
0.0
 11
110.3513563412
 21
58.3193581579
 31
0.0
  0
LINE
  5
31A
330
234
100
AcDbEntity
  8
0
  6
Continuous
 62
     7
100
AcDbLine
 10
101.7102542065
 20
50.28165380979999
 30
0.0
 11
102.789276694
 21
51.3606762973
 31
0.0
  0
LINE
  5
31B
330
234
100
AcDbEntity
  8
0
  6
Continuous
 62
     7
100
AcDbLine
 10
108.07778296
 20
56.6491825633
 30
0.0
 11
109.6187867748
 21
58.1901863781
 31
0.0
  0
LINE
  5
31C
330
234
100
AcDbEntity
  8
0
  6
Continuous
 62
     7
100
AcDbLine
 10
101.6198071526
 20
50.7946045425
 30
0.0
 11
102.6988296401
 21
51.87362703
 31
0.0
  0
LINE
  5
31D
330
234
100
AcDbEntity
  8
0
  6
Continuous
 62
     7
100
AcDbLine
 10
107.3452133936
 20
56.5200107835
 30
0.0
 11
108.8862172083
 21
58.06101459819999
 31
0.0
  0
LINE
  5
31E
330
234
100
AcDbEntity
  8
0
  6
Continuous
 62
     7
100
AcDbLine
 10
101.5293600986
 20
51.3075552752
 30
0.0
 11
102.6083825862
 21
52.38657776270001
 31
0.0
  0
LINE
  5
31F
330
234
100
AcDbEntity
  8
0
  6
Continuous
 62
     7
100
AcDbLine
 10
106.6126438271
 20
56.3908390037
 30
0.0
 11
108.1536476419
 21
57.9318428184
 31
0.0
  0
LINE
  5
320
330
234
100
AcDbEntity
  8
0
  6
Continuous
 62
     7
100
AcDbLine
 10
101.4389130447
 20
51.8205060078
 30
0.0
 11
102.5179355322
 21
52.89952849529999
 31
0.0
  0
LINE
  5
321
330
234
100
AcDbEntity
  8
0
  6
Continuous
 62
     7
100
AcDbLine
 10
105.8800742607
 20
56.2616672239
 30
0.0
 11
107.4210780755
 21
57.80267103859999
 31
0.0
  0
LINE
  5
322
330
234
100
AcDbEntity
  8
0
  6
Continuous
 62
     7
100
AcDbLine
 10
101.3484659907
 20
52.3334567405
 30
0.0
 11
102.4274884783
 21
53.412479228
 31
0.0
  0
LINE
  5
323
330
234
100
AcDbEntity
  8
0
  6
Continuous
 62
     7
100
AcDbLine
 10
105.1475046943
 20
56.1324954441
 30
0.0
 11
106.6885085091
 21
57.6734992588
 31
0.0
  0
LINE
  5
324
330
234
100
AcDbEntity
  8
0
  6
Continuous
 62
     7
100
AcDbLine
 10
101.2580189368
 20
52.8464074732
 30
0.0
 11
102.3370414243
 21
53.92542996069999
 31
0.0
  0
LINE
  5
325
330
234
100
AcDbEntity
  8
0
  6
Continuous
 62
     7
100
AcDbLine
 10
104.4149351279
 20
56.0033236642
 30
0.0
 11
105.9559389427
 21
57.544327479
 31
0.0
  0
LINE
  5
326
330
234
100
AcDbEntity
  8
0
  6
Continuous
 62
     7
100
AcDbLine
 10
101.1675718829
 20
53.3593582058
 30
0.0
 11
102.2465943704
 21
54.43838069339999
 31
0.0
  0
LINE
  5
327
330
234
100
AcDbEntity
  8
0
  6
Continuous
 62
     7
100
AcDbLine
 10
103.6823655615
 20
55.87415188439999
 30
0.0
 11
105.2233693762
 21
57.4151556992
 31
0.0
  0
LINE
  5
328
330
234
100
AcDbEntity
  8
0
  6
Continuous
 62
     7
100
AcDbLine
 10
101.0771248289
 20
53.8723089385
 30
0.0
 11
102.1561473164
 21
54.951331426
 31
0.0
  0
LINE
  5
329
330
234
100
AcDbEntity
  8
0
  6
Continuous
 62
     7
100
AcDbLine
 10
102.949795995
 20
55.74498010460001
 30
0.0
 11
104.4907998098
 21
57.2859839194
 31
0.0
  0
LINE
  5
32A
330
234
100
AcDbEntity
  8
0
  6
Continuous
 62
     7
100
AcDbLine
 10
100.986677775
 20
54.3852596712
 30
0.0
 11
102.0657002625
 21
55.4642821587
 31
0.0
  0
LINE
  5
32B
330
234
100
AcDbEntity
  8
0
  6
Continuous
 62
     7
100
AcDbLine
 10
102.2172264286
 20
55.61580832479999
 30
0.0
 11
103.7582302434
 21
57.15681213959999
 31
0.0
  0
LINE
  5
32C
330
234
100
AcDbEntity
  8
0
  6
Continuous
 62
     7
100
AcDbLine
 10
100.896230721
 20
54.8982104038
 30
0.0
 11
103.025660677
 21
57.02764035979999
 31
0.0
  0
LINE
  5
32D
330
234
100
AcDbEntity
  8
0
  6
Continuous
 62
     7
100
AcDbLine
 10
100.8057836671
 20
55.4111611365
 30
0.0
 11
102.2930911106
 21
56.89846858
 31
0.0
  0
LINE
  5
32E
330
234
100
AcDbEntity
  8
0
  6
Continuous
 62
     7
100
AcDbLine
 10
100.7153366131
 20
55.92411186919999
 30
0.0
 11
101.5605215442
 21
56.7692968002
 31
0.0
  0
LINE
  5
32F
330
234
100
AcDbEntity
  8
0
  6
Continuous
 62
     7
100
AcDbLine
 10
100.6248895592
 20
56.4370626018
 30
0.0
 11
100.8279519777
 21
56.6401250204
 31
0.0
  0
ENDBLK
  5
330
330
234
100
AcDbEntity
  8
0
  6
ByBlock
 62
     0
100
AcDbBlockEnd
  0
ENDSEC
  0
SECTION
  2
ENTITIES
  0
LWPOLYLINE
  5
1528
330
211
100
AcDbEntity
  8
0
  6
Continuous
 62
     7
100
AcDbPolyline
 90
      105
 70
     0
 43
0.0
 10
17.1406499113
 20
71.64354610450001
 10
17.1407938526
 20
71.6376573885
 10
17.1408699194
 20
71.6317840267
 10
17.1408784481
 20
71.6259264742
 10
17.1408196179
 20
71.6200871243
 10
17.1406936906
 20
71.61426796569999
 10
17.1405009585
 20
71.6084706194
 10
17.1402417394
 20
71.602696833
 10
17.1399163747
 20
71.5969481616
 10
17.1395252222
 20
71.59122615279999
 10
17.1390686829
 20
71.58553251890001
 10
17.1385471534
 20
71.5798686813
 10
17.1379611609
 20
71.57423699209999
 10
17.137311228
 20
71.5686393342
 10
17.1365980492
 20
71.5630784376
 10
17.1358223435
 20
71.5575567301
 10
17.13498496
 20
71.5520768595
 10
17.1340869076
 20
71.5466420244
 10
17.1331288538
 20
71.5412528259
 10
17.1321119556
 20
71.53591244640001
 10
17.1310358368
 20
71.53061623060001
 10
17.1299000211
 20
71.5253601989
 10
17.1287050142
 20
71.52014570529999
 10
17.1274501565
 20
71.5149693332
 10
17.1261382299
 20
71.5098414529
 10
17.1247723843
 20
71.50477219959999
 10
17.1233524425
 20
71.499758251
 10
17.1218789195
 20
71.49479932140001
 10
17.1203526956
 20
71.4898964087
 10
17.1187745561
 20
71.48505018609999
 10
17.1171452813
 20
71.48026125689999
 10
17.1154656427
 20
71.4755302233
 10
17.1137364277
 20
71.470857682
 10
17.1119583896
 20
71.4662441617
 10
17.1101323809
 20
71.4616903897
 10
17.1082592072
 20
71.45719698269999
 10
17.1063397717
 20
71.45276470899999
 10
17.1043749645
 20
71.4483943028
 10
17.1023656621
 20
71.44408637640001
 10
17.1003127527
 20
71.4398415738
 10
17.0982171107
 20
71.4356604302
 10
17.0960796166
 20
71.4315435021
 10
17.0939011496
 20
71.4274912705
 10
17.0916825996
 20
71.4235042454
 10
17.0894248172
 20
71.41958280060001
 10
17.0871286664
 20
71.41572734659999
 10
17.0847949852
 20
71.41193819600001
 10
17.0824246198
 20
71.4082156882
 10
17.0800183894
 20
71.4045600735
 10
17.077577124
 20
71.4009716322
 10
17.0751016087
 20
71.3974505405
 10
17.0725926427
 20
71.393997009
 10
17.0700509751
 20
71.39061115060001
 10
17.0674773686
 20
71.38729311119999
 10
17.06487253349999
 20
71.3840429496
 10
17.062237189
 20
71.3808607502
 10
17.0595720154
 20
71.3777465395
 10
17.0568776771
 20
71.3747003397
 10
17.0541548829
 20
71.3717222146
 10
17.051404318
 20
71.3688122108
 10
17.048626669
 20
71.3659703643
 10
17.0458226222
 20
71.363196719
 10
17.0429928157
 20
71.3604912615
 10
17.040137914
 20
71.35785401140001
 10
17.0372584721
 20
71.35528488680001
 10
17.034355132
 20
71.3527838885
 10
17.0314282357
 20
71.350350781
 10
17.0284781571
 20
71.3479853706
 10
17.025505356
 20
71.3456875726
 10
17.0225098801
 20
71.3434570127
 10
17.0194932691
 20
71.341294395
 10
17.0164565548
 20
71.3392000428
 10
17.0134013728
 20
71.3371745329
 10
17.0103292366
 20
71.3352183617
 10
17.0072416398
 20
71.3333318154
 10
17.0041400977
 20
71.3315152105
 10
17.0010261306
 20
71.3297686776
 10
16.9979013769
 20
71.32809242430001
 10
16.9947670472
 20
71.32648626329999
 10
16.9916247811
 20
71.32495023209999
 10
16.988474932
 20
71.32348365680001
 10
16.985318266
 20
71.32208608149999
 10
16.9821551018
 20
71.3207568684
 10
16.9789859615
 20
71.31949546770001
 10
16.9758108998
 20
71.3183012025
 10
16.9726302428
 20
71.3171734925
 10
16.9694435855
 20
71.31611160840001
 10
16.9662507463
 20
71.3151148937
 10
16.9630512533
 20
71.31418275979999
 10
16.9598446773
 20
71.3133146209
 10
16.956630592
 20
71.3125100612
 10
16.9534085377
 20
71.3117686416
 10
16.9501780916
 20
71.31109009460001
 10
16.9469388103
 20
71.310474132
 10
16.9436902256
 20
71.30992061899999
 10
16.9404318581
 20
71.3094294043
 10
16.9371632492
 20
71.30900049510001
 10
16.933883801
 20
71.30863387179999
 10
16.93059342339999
 20
71.30832970659999
 10
16.927291806
 20
71.30808813659999
 10
16.92397901
 20
71.3079094208
 10
16.9206549906
 20
71.3077937997
 10
16.9173197719
 20
71.3077415888
 10
16.913973085
 20
71.3077531555
 10
16.9106157923
 20
71.3078286985
  0
LINE
  5
1529
330
211
100
AcDbEntity
  8
0
  6
Continuous
 62
     7
100
AcDbLine
 10
16.9106157923
 20
70.7356930984
 30
0.0
 11
16.9106157923
 21
101.7356930984
 31
0.0
  0
LINE
  5
152A
330
211
100
AcDbEntity
  8
0
  6
Continuous
 62
     7
100
AcDbLine
 10
17.1406499113
 20
101.2356930984
 30
0.0
 11
17.1406499113
 21
71.64354610450001
 31
0.0
  0
LWPOLYLINE
  5
152B
330
211
100
AcDbEntity
  8
0
  6
Continuous
 62
     7
100
AcDbPolyline
 90
       77
 70
     0
 43
0.0
 10
20.6219314259
 20
86.23569456209999
 10
20.6263756456
 20
85.80653883869999
 10
20.6397048005
 20
85.3775533994
 10
20.6619121964
 20
84.9489669535
 10
20.6929921177
 20
84.520887799
 10
20.7330883578
 20
84.0920177583
 10
20.781750537
 20
83.6667759824
 10
20.8388732165
 20
83.2447638106
 10
20.9021651945
 20
82.83896096499999
 10
20.9679992354
 20
82.4640157928
 10
21.0359593448
 20
82.11367768749999
 10
21.1049175657
 20
81.78736670810001
 10
21.1742994666
 20
81.48260944409999
 10
21.243675679
 20
81.19722315529999
 10
21.312589646
 20
80.9298083796
 10
21.3807989365
 20
80.67862705859999
 10
21.4480013205
 20
80.4425795655
 10
21.514056968
 20
80.2203106608
 10
21.5787743834
 20
80.01091557609999
 10
21.6420847219
 20
79.8133059817
 10
21.7038690574
 20
79.6267378846
 10
21.764103556
 20
79.45032778789999
 10
21.8227181722
 20
79.28345858250001
 10
21.8797168705
 20
79.12540750939999
 10
21.9350651451
 20
78.97565295079999
 10
21.9887871299
 20
78.83359131649999
 10
22.0408706059
 20
78.69878393399999
 10
22.0913514791
 20
78.570724355
 10
22.1402314644
 20
78.4490443679
 10
22.1875493437
 20
78.3333256418
 10
22.2333234074
 20
78.2232384889
 10
22.277604303
 20
78.1184085962
 10
22.3204077269
 20
78.0185742389
 10
22.3617763959
 20
77.92343503859999
 10
22.4017366717
 20
77.8327509379
 10
22.4403336704
 20
77.74625883520001
 10
22.4775993953
 20
77.6637429339
 10
22.5135844122
 20
77.58496212459999
 10
22.5483150884
 20
77.5097425858
 10
22.5818306634
 20
77.43789442349999
 10
22.614172017
 20
77.3692355279
 10
22.6453916861
 20
77.3035695984
 10
22.675518762
 20
77.2407590158
 10
22.7046035583
 20
77.18062986159999
 10
22.7326541876
 20
77.1231024851
 10
22.7596931315
 20
77.06807281979999
 10
22.785741045
 20
77.01544566649999
 10
22.8108214402
 20
76.9651247566
 10
22.8349599122
 20
76.9170140989
 10
22.8581829615
 20
76.87102004
 10
22.880521708
 20
76.8270436601
 10
22.9020064281
 20
76.7849914028
 10
22.9226753228
 20
76.7447576941
 10
22.9425662167
 20
76.70624109960001
 10
22.9617189078
 20
76.6693394845
 10
22.9801743193
 20
76.6339514924
 10
22.9979740784
 20
76.5999771746
 10
23.0151610427
 20
76.5673167984
 10
23.0317788008
 20
76.5358717103
 10
23.0478719996
 20
76.5055434403
 10
23.0634863021
 20
76.47623365779999
 10
23.0786778862
 20
76.44782612810001
 10
23.09346464989999
 20
76.42027733369999
 10
23.1079414345
 20
76.39340197260001
 10
23.1219359962
 20
76.3675107765
 10
23.1353202993
 20
76.3428292958
 10
23.1480493725
 20
76.3194283727
 10
23.1599613188
 20
76.29759298919999
 10
23.1712780061
 20
76.27690600290001
 10
23.1821176551
 20
76.25714395189999
 10
23.1926394798
 20
76.23801120479999
 10
23.2030004719
 20
76.2192192512
 10
23.2133313301
 20
76.2005302256
 10
23.2238229893
 20
76.181600052
 10
23.2344651495
 20
76.1624492688
 10
23.2453189208
 20
76.142967595
 10
23.26759785070001
 20
76.1030887026
  0
LWPOLYLINE
  5
152C
330
211
100
AcDbEntity
  8
0
  6
Continuous
 62
     7
100
AcDbPolyline
 90
       76
 70
     0
 43
0.0
 10
20.6219314259
 20
86.23569456209999
 10
20.6263756683
 20
86.6648484557
 10
20.6397048005
 20
87.0938327974
 10
20.6619121851
 20
87.5224190606
 10
20.6929921177
 20
87.9504983978
 10
20.7330883578
 20
88.37936843840001
 10
20.781750537
 20
88.80461021429999
 10
20.8388732165
 20
89.2266223862
 10
20.9021651945
 20
89.63242523179999
 10
20.9679992354
 20
90.007370404
 10
21.0359593448
 20
90.3577085092
 10
21.1049175657
 20
90.6840194886
 10
21.1742994666
 20
90.98877675270001
 10
21.243675679
 20
91.27416304150001
 10
21.312589646
 20
91.5415778172
 10
21.3807989365
 20
91.79275913819999
 10
21.4480013205
 20
92.02880663129999
 10
21.514056968
 20
92.251075536
 10
21.5787743834
 20
92.46047062059998
 10
21.6420847219
 20
92.6580802151
 10
21.7038690574
 20
92.8446483121
 10
21.764103556
 20
93.02105840889998
 10
21.8227181722
 20
93.18792761430001
 10
21.8797168705
 20
93.34597868729998
 10
21.9350651451
 20
93.4957332459
 10
21.9887871299
 20
93.63779488030001
 10
22.0408706059
 20
93.7726022628
 10
22.0913514791
 20
93.9006618418
 10
22.1402314644
 20
94.02234182879999
 10
22.1875493437
 20
94.138060555
 10
22.2333234074
 20
94.24814770780001
 10
22.277604303
 20
94.3529776006
 10
22.3204077269
 20
94.4528119579
 10
22.3617763959
 20
94.54795115809998
 10
22.4017366717
 20
94.63863525889999
 10
22.4403336704
 20
94.7251273616
 10
22.4775993953
 20
94.80764326290001
 10
22.5135844122
 20
94.88642407219998
 10
22.5483150884
 20
94.96164361099999
 10
22.5818306634
 20
95.03349177329999
 10
22.614172017
 20
95.10215066879998
 10
22.6453916861
 20
95.1678165983
 10
22.675518762
 20
95.230627181
 10
22.7046035583
 20
95.29075633519999
 10
22.7326541876
 20
95.3482837117
 10
22.7596931315
 20
95.40331337700001
 10
22.785741045
 20
95.45594053030001
 10
22.8108214402
 20
95.5062614402
 10
22.8349599122
 20
95.55437209790001
 10
22.8581829615
 20
95.60036615680001
 10
22.880521708
 20
95.64434253669999
 10
22.9020064281
 20
95.68639479389998
 10
22.9226753228
 20
95.72662850270001
 10
22.9425662167
 20
95.76514509719999
 10
22.9617189078
 20
95.80204671229999
 10
22.9801743193
 20
95.83743470440001
 10
22.9979740784
 20
95.87140902219999
 10
23.0151610427
 20
95.9040693983
 10
23.0317788008
 20
95.9355144865
 10
23.0478719996
 20
95.9658427565
 10
23.0634863021
 20
95.99515253889999
 10
23.0786778862
 20
96.0235600686
 10
23.09346464989999
 20
96.051108863
 10
23.1079414345
 20
96.0779842242
 10
23.1219359962
 20
96.10387542030002
 10
23.1353202993
 20
96.12855690100001
 10
23.1480493725
 20
96.15195782409999
 10
23.1599613188
 20
96.17379320760001
 10
23.1712780061
 20
96.19448019389999
 10
23.1821176551
 20
96.21424224489999
 10
23.1926394798
 20
96.2333749919
 10
23.2030004719
 20
96.2521669456
 10
23.2133313301
 20
96.2708559712
 10
23.2238229893
 20
96.28978614479999
 10
23.2344651495
 20
96.308936928
 10
23.2453189208
 20
96.3284186017
  0
LWPOLYLINE
  5
152D
330
211
100
AcDbEntity
  8
0
  6
Continuous
 62
     7
100
AcDbPolyline
 90
       78
 70
     0
 43
0.0
 10
23.2453189208
 20
96.3284186017
 10
23.26759785070001
 20
96.36829749410001
 10
23.278991778
 20
96.3886349518
 10
23.290566775
 20
96.40923284760001
 10
23.3022286491
 20
96.42988948220001
 10
23.313988524
 20
96.4505856893
 10
23.3255917198
 20
96.4708324347
 10
23.33673591070001
 20
96.4900768799
 10
23.3476231371
 20
96.50865827570001
 10
23.358195205
 20
96.526479546
 10
23.3689189258
 20
96.5443433875
 10
23.3802352463
 20
96.56297777559998
 10
23.392140195
 20
96.582352441
 10
23.404762809
 20
96.60264752780001
 10
23.4181604817
 20
96.62391613149999
 10
23.4324206818
 20
96.6462519993
 10
23.4476211409
 20
96.66972609350001
 10
23.4638474716
 20
96.69441361270001
 10
23.4811824116
 20
96.72037773520001
 10
23.4997215284
 20
96.74769232530001
 10
23.5195369319
 20
96.77638797500001
 10
23.5407120963
 20
96.80650340940001
 10
23.5633242412
 20
96.838059084
 10
23.5874579665
 20
96.8710765488
 10
23.6131990982
 20
96.90556900780002
 10
23.6406365433
 20
96.94154401860002
 10
23.669871429
 20
96.9790153913
 10
23.7009673096
 20
97.0179393707
 10
23.7341509825
 20
97.0584623459
 10
23.7696067432
 20
97.10065388670001
 10
23.8075836904
 20
97.1446356733
 10
23.8483273849
 20
97.19049493889999
 10
23.8921084719
 20
97.2383157722
 10
23.9392398232
 20
97.2881917075
 10
23.9899253704
 20
97.34006556330001
 10
24.0443866488
 20
97.39387126780002
 10
24.1029491941
 20
97.449612444
 10
24.1658980015
 20
97.5072129659
 10
24.2336596951
 20
97.56668094690001
 10
24.3066594911
 20
97.62796349049999
 10
24.3852992207
 20
97.69092899270001
 10
24.4702459313
 20
97.75558520790001
 10
24.5612241706
 20
97.82118234309999
 10
24.6584141039
 20
97.88732239219999
 10
24.7609595794
 20
97.952939988
 10
24.8682683829
 20
98.01726624629999
 10
24.9793303256
 20
98.07941092650001
 10
25.0933631774
 20
98.1387594457
 10
25.2086307387
 20
98.1943740594
 10
25.3234663344
 20
98.2455915274
 10
25.4363664
 20
98.2920271567
 10
25.5451680494
 20
98.3332272179
 10
25.6498977832
 20
98.3696972349
 10
25.7498489347
 20
98.40166615379999
 10
25.8451593781
 20
98.429630981
 10
25.935768662
 20
98.45398192260001
 10
26.0217399359
 20
98.4751088908
 10
26.1030644547
 20
98.4933488957
 10
26.1800368928
 20
98.509070605
 10
26.2528972548
 20
98.52258623540002
 10
26.3219127234
 20
98.53417547200001
 10
26.3873764718
 20
98.5440866851
 10
26.4495312029
 20
98.55252906430001
 10
26.5086763405
 20
98.5596924632
 10
26.5649903187
 20
98.56572910620002
 10
26.6187733839
 20
98.57078404239999
 10
26.6699677824
 20
98.57495164959999
 10
26.7185669263
 20
98.5783267468
 10
26.7648249141
 20
98.58101587540001
 10
26.8090402964
 20
98.58311371420001
 10
26.8508707221
 20
98.5846770868
 10
26.8896510581
 20
98.58575614819999
 10
26.9270360226
 20
98.58644168209998
 10
26.9640285126
 20
98.58678744110001
 10
27.0021824825
 20
98.5869073633
 10
27.0434473402
 20
98.58690693900001
 10
27.0872281342
 20
98.5868674249
 10
27.1335322942
 20
98.58686457040001
  0
LWPOLYLINE
  5
152E
330
211
100
AcDbEntity
  8
0
  6
Continuous
 62
     7
100
AcDbPolyline
 90
       79
 70
     0
 43
0.0
 10
23.26759785070001
 20
76.1030887026
 10
23.278991778
 20
76.08275124489999
 10
23.290566775
 20
76.0621533492
 10
23.3022286491
 20
76.0414967146
 10
23.313988524
 20
76.0208005075
 10
23.3255917198
 20
76.0005537621
 10
23.33673591070001
 20
75.9813093168
 10
23.3476231371
 20
75.96272792100001
 10
23.358195205
 20
75.94490665079999
 10
23.3689189258
 20
75.9270428092
 10
23.3802352463
 20
75.90840842119999
 10
23.392140195
 20
75.8890337558
 10
23.404762809
 20
75.86873866899999
 10
23.4181604817
 20
75.8474700653
 10
23.4324206818
 20
75.8251341975
 10
23.4476211409
 20
75.80166010319999
 10
23.4638474716
 20
75.77697258409999
 10
23.4811824116
 20
75.75100846159999
 10
23.4997215284
 20
75.72369387149999
 10
23.5195369319
 20
75.6949982218
 10
23.5407120963
 20
75.6648827874
 10
23.5633242412
 20
75.6333271127
 10
23.5874579665
 20
75.60030964800001
 10
23.6131990982
 20
75.565817189
 10
23.6406365433
 20
75.52984217809999
 10
23.669871429
 20
75.4923708054
 10
23.7009673096
 20
75.45344682609999
 10
23.7341509825
 20
75.4129238508
 10
23.7696067432
 20
75.37073231009999
 10
23.8075836904
 20
75.32675052350001
 10
23.8483273849
 20
75.28089125779999
 10
23.8921084719
 20
75.2330704246
 10
23.9392398232
 20
75.1831944892
 10
23.9899253704
 20
75.13132063350001
 10
24.0443866488
 20
75.077514929
 10
24.1029491941
 20
75.0217737527
 10
24.1658980015
 20
74.9641732309
 10
24.2336596951
 20
74.9047052499
 10
24.3066594911
 20
74.8434227063
 10
24.3852992207
 20
74.7804572041
 10
24.4702459313
 20
74.7158009889
 10
24.5612241706
 20
74.65020385369999
 10
24.6584141039
 20
74.58406380460001
 10
24.7609595794
 20
74.5184462087
 10
24.8682683829
 20
74.4541199505
 10
24.9793303256
 20
74.3919752703
 10
25.0933631774
 20
74.332626751
 10
25.2086307387
 20
74.27701213739999
 10
25.3234663344
 20
74.2257946693
 10
25.4363664
 20
74.1793590401
 10
25.5451680494
 20
74.13815897890001
 10
25.6498977832
 20
74.1016889619
 10
25.7498489347
 20
74.069720043
 10
25.8451593781
 20
74.0417552158
 10
25.935768662
 20
74.0174042742
 10
26.0217399359
 20
73.99627730600001
 10
26.1030644547
 20
73.9780373011
 10
26.1800368928
 20
73.96231559170001
 10
26.2528972548
 20
73.9487999614
 10
26.3219127234
 20
73.9372107247
 10
26.3873764718
 20
73.92729951159999
 10
26.4495312029
 20
73.91885713249999
 10
26.5086763405
 20
73.9116937336
 10
26.5649903187
 20
73.9056570906
 10
26.6187733839
 20
73.90060215439999
 10
26.6699677824
 20
73.8964345472
 10
26.7185669263
 20
73.89305944989999
 10
26.7648249141
 20
73.8903703214
 10
26.8090402964
 20
73.8882724826
 10
26.8508707221
 20
73.8867091099
 10
26.8896510581
 20
73.88563004859999
 10
26.9270360226
 20
73.88494451470001
 10
26.9640285126
 20
73.88459875569999
 10
27.0021824825
 20
73.8844788335
 10
27.0434473402
 20
73.88447925779999
 10
27.0872281342
 20
73.8845187718
 10
27.1335322942
 20
73.8845216264
 10
27.1819928795
 20
73.88450226919999
 10
27.3394690023
 20
73.8845123471
  0
LWPOLYLINE
  5
152F
330
211
100
AcDbEntity
  8
0
  6
Continuous
 62
     7
100
AcDbPolyline
 90
      102
 70
     0
 43
0.0
 10
27.874683371
 20
86.2356930984
 10
27.8788027493
 20
86.6185186465
 10
27.8911471287
 20
87.00088995079999
 10
27.9117752399
 20
87.38367687200002
 10
27.94044904
 20
87.76336436540001
 10
27.9770866858
 20
88.1407035303
 10
28.0200851094
 20
88.50395965969999
 10
28.0666673125
 20
88.8400930473
 10
28.1161776025
 20
89.154399625
 10
28.1675045325
 20
89.447122479
 10
28.2200213209
 20
89.72052481410001
 10
28.27324728300001
 20
89.9765538561
 10
28.3266953666
 20
90.2164473908
 10
28.3800677831
 20
90.44173930440001
 10
28.4330418747
 20
90.65341808479999
 10
28.4854361902
 20
90.85268515370001
 10
28.5370486463
 20
91.0404000135
 10
28.5877875949
 20
91.21758135629999
 10
28.6375246567
 20
91.3849173686
 10
28.6862242641
 20
91.54324567859999
 10
28.7337882372
 20
91.6930744903
 10
28.7801927497
 20
91.8350391142
 10
28.8253770583
 20
91.9695727392
 10
28.8693230437
 20
92.0971594062
 10
28.9120227478
 20
92.21824571819999
 10
28.9535130428
 20
92.33334164110001
 10
28.9937591954
 20
92.44270973229999
 10
29.0327544877
 20
92.5466513964
 10
29.0705296006
 20
92.64553235340001
 10
29.1071533026
 20
92.739777768
 10
29.1425925487
 20
92.82952178069999
 10
29.1768252786
 20
92.914907469
 10
29.2099340881
 20
92.9963099212
 10
29.2420124598
 20
93.0741074634
 10
29.2730036235
 20
93.1483073849
 10
29.3029001803
 20
93.21902584049999
 10
29.3317065453
 20
93.28640936049998
 10
29.3594297884
 20
93.35058267389999
 10
29.3863714569
 20
93.41227951350001
 10
29.4127453248
 20
93.47204081870001
 10
29.437934704
 20
93.5285554318
 10
29.4615535782
 20
93.58103587629999
 10
29.4842328266
 20
93.6311643532
 10
29.5067630118
 20
93.68071912389998
 10
29.5307110841
 20
93.7327041752
 10
29.5571944831
 20
93.78902390459998
 10
29.5857872553
 20
93.8477247902
 10
29.6155209493
 20
93.90607203790001
 10
29.6468463646
 20
93.9649509006
 10
29.6804534959
 20
94.0254537919
 10
29.7169637314
 20
94.08835719409999
 10
29.7577154904
 20
94.15542099499999
 10
29.8027614852
 20
94.22608664329999
 10
29.8523046518
 20
94.2999823202
 10
29.9065602163
 20
94.3767517012
 10
29.9657731723
 20
94.45609149010001
 10
30.0304805845
 20
94.53803144430001
 10
30.1019433631
 20
94.6232836819
 10
30.1782803756
 20
94.70887451999999
 10
30.2577273571
 20
94.79256762030001
 10
30.3401072991
 20
94.87400548850001
 10
30.4243136627
 20
94.9521105454
 10
30.5105032741
 20
95.02712811040002
 10
30.5985287411
 20
95.09897691530001
 10
30.6883837943
 20
95.16766576070001
 10
30.7800442449
 20
95.23320807020001
 10
30.8732758203
 20
95.2954805447
 10
30.9678004889
 20
95.3543268968
 10
31.0637596615
 20
95.4098740156
 10
31.1621331145
 20
95.4626646692
 10
31.26029437150001
 20
95.51130712029999
 10
31.3557675938
 20
95.55490471049999
 10
31.4481803018
 20
95.59372841570001
 10
31.5362411066
 20
95.6277274099
 10
31.6203370861
 20
95.6575413504
 10
31.7004726883
 20
95.6835899536
 10
31.7766833768
 20
95.70626379990001
 10
31.8489953949
 20
95.72590959850002
 10
31.9175699012
 20
95.7428891962
 10
31.9825262012
 20
95.75750718950001
 10
32.0442519143
 20
95.77008074540001
 10
32.1031143442
 20
95.78087197889999
 10
32.15926008949999
 20
95.79010977420001
 10
32.2132055606
 20
95.79804347860001
 10
32.2646635885
 20
95.80468892489999
 10
32.3133733832
 20
95.81010008959998
 10
32.3586003073
 20
95.81448611129998
 10
32.3999709425
 20
95.8180391442
 10
32.4393736343
 20
95.8208198214
 10
32.4768691335
 20
95.82293802379998
 10
32.5104744398
 20
95.82439016950001
 10
32.5391108353
 20
95.82508961379998
 10
32.5640912275
 20
95.82538180929999
 10
32.587118671
 20
95.82549526420001
 10
32.6098151954
 20
95.82549524319999
 10
32.6333647114
 20
95.82546227219999
 10
32.657313793
 20
95.82537536169999
 10
32.68172679940001
 20
95.82523920319999
 10
32.7067899273
 20
95.82509335959999
 10
32.7327078802
 20
95.82497001549999
 10
32.7597310015
 20
95.8248618578
 10
32.8173551263
 20
95.82469568489999
  0
LWPOLYLINE
  5
1530
330
211
100
AcDbEntity
  8
0
  6
Continuous
 62
     7
100
AcDbPolyline
 90
      103
 70
     0
 43
0.0
 10
76.91061579229999
 20
71.3078286985
 10
76.90719087009999
 20
71.3077523111
 10
76.9037785532
 20
71.30774245149999
 10
76.90037999979999
 20
71.3077988603
 10
76.8969941853
 20
71.3079210747
 10
76.8936206333
 20
71.3081087076
 10
76.8902588278
 20
71.30836153449999
 10
76.8869082363
 20
71.30867931880001
 10
76.8835684245
 20
71.3090619748
 10
76.8802389041
 20
71.3095094082
 10
76.8769193185
 20
71.3100216598
 10
76.8736092722
 20
71.3105987606
 10
76.87030842529999
 20
71.3112408785
 10
76.8670164513
 20
71.31194816289999
 10
76.86373296479999
 20
71.31272092509999
 10
76.8604576587
 20
71.3135594419
 10
76.8571900444
 20
71.3144641992
 10
76.85392971609999
 20
71.31543564720001
 10
76.8506762203
 20
71.3164744298
 10
76.8474290354
 20
71.31758120479999
 10
76.84418808869999
 20
71.3187566486
 10
76.8409530537
 20
71.3200015208
 10
76.83772430409999
 20
71.3213164359
 10
76.8345019742
 20
71.32270209419999
 10
76.83128657729999
 20
71.3241591047
 10
76.8280783357
 20
71.3256882152
 10
76.8248783697
 20
71.32728976109999
 10
76.82168730249999
 20
71.3289643346
 10
76.81850691300001
 20
71.3307118323
 10
76.8153386091
 20
71.33253235179999
 10
76.81218410859999
 20
71.3344256301
 10
76.8090450346
 20
71.33639147220001
 10
76.8059230158
 20
71.3384294689
 10
76.8028196958
 20
71.34053921500001
 10
76.7997365632
 20
71.342720198
 10
76.79667540699999
 20
71.3449716897
 10
76.7936368678
 20
71.3472936488
 10
76.79062212799999
 20
71.34968563699999
 10
76.7876313364
 20
71.3521480059
 10
76.7846648935
 20
71.3546809343
 10
76.78172331399998
 20
71.35728454619999
 10
76.7788070408
 20
71.3599590383
 10
76.77591677409999
 20
71.3627043944
 10
76.77305314299999
 20
71.3655206694
 10
76.77021686399999
 20
71.3684078296
 10
76.7674086384
 20
71.37136586529999
 10
76.76462919489999
 20
71.3743947265
 10
76.7618792758
 20
71.3774943579
 10
76.75915959370001
 20
71.3806647248
 10
76.7564708855
 20
71.3839057778
 10
76.7538138789
 20
71.3872174679
 10
76.751189306
 20
71.39059975710001
 10
76.74859795319999
 20
71.3940525241
 10
76.74604059259999
 20
71.3975756813
 10
76.74351805419999
 20
71.4011690385
 10
76.7410311517
 20
71.4048324438
 10
76.7385807518
 20
71.4085656327
 10
76.73616770729999
 20
71.4123683771
 10
76.7337929101
 20
71.41624034189999
 10
76.73145724210001
 20
71.4201812225
 10
76.72916161180001
 20
71.4241906155
 10
76.7269069165
 20
71.4282681512
 10
76.7246940885
 20
71.4324133324
 10
76.7225240476
 20
71.4366256969
 10
76.7203977326
 20
71.4409046706
 10
76.71831607520001
 20
71.4452497033
 10
76.7162800095
 20
71.4496601556
 10
76.7142904609
 20
71.4541354171
 10
76.7123483729
 20
71.4586747427
 10
76.7104546906
 20
71.46327738550001
 10
76.70861030640001
 20
71.4679426271
 10
76.7068161501
 20
71.4726696578
 10
76.70507303229999
 20
71.4774578975
 10
76.70338180859999
 20
71.48230666679999
 10
76.70174328649999
 20
71.4872153632
 10
76.70015829090001
 20
71.4921833627
 10
76.6986276528
 20
71.49720996550001
 10
76.6971522625
 20
71.5022942853
 10
76.6957327888
 20
71.5074361681
 10
76.69436948149999
 20
71.51263726729999
 10
76.6930646129
 20
71.51789121749999
 10
76.6918198199
 20
71.5231933661
 10
76.6906363051
 20
71.5285398085
 10
76.68951605069999
 20
71.5339221893
 10
76.6884575002
 20
71.5393488931
 10
76.6874598154
 20
71.5448267415
 10
76.68652423410001
 20
71.5503524108
 10
76.6856513493
 20
71.5559260311
 10
76.68484230449999
 20
71.56154397669999
 10
76.6840980276
 20
71.5672034345
 10
76.6834192956
 20
71.57290190319999
 10
76.68280685860001
 20
71.5786366052
 10
76.6822613068
 20
71.584405402
 10
76.68178322850001
 20
71.59020567359999
 10
76.68137305100001
 20
71.59603597350001
 10
76.68103121119999
 20
71.6018945088
 10
76.68075810180001
 20
71.6077796228
 10
76.6805540958
 20
71.61368969059999
 10
76.6804195433
 20
71.61962275899999
 10
76.6803547622
 20
71.6255770135
 10
76.68036003420001
 20
71.63155035169999
 10
76.6804355518
 20
71.6375402064
 10
76.68058167329999
 20
71.64354610450001
  0
LINE
  5
1531
330
211
100
AcDbEntity
  8
0
  6
Continuous
 62
     7
100
AcDbLine
 10
76.91061579229999
 20
70.7356930984
 30
0.0
 11
16.9106157923
 21
70.7356930984
 31
0.0
  0
LWPOLYLINE
  5
1532
330
211
100
AcDbEntity
  8
0
  6
Continuous
 62
     7
100
AcDbPolyline
 90
       75
 70
     0
 43
0.0
 10
67.21102089819999
 20
73.8844706747
 10
67.2518877433
 20
73.8845240803
 10
67.2907019859
 20
73.8847747368
 10
67.32818122899999
 20
73.8853297901
 10
67.36604774369999
 20
73.8862385611
 10
67.4062871859
 20
73.88758804520001
 10
67.44858268749999
 20
73.88942103729999
 10
67.4930877795
 20
73.89180129479999
 10
67.53986179219999
 20
73.8948082983
 10
67.5890757084
 20
73.8985386213
 10
67.6407780808
 20
73.9030832271
 10
67.69497333220001
 20
73.9085345095
 10
67.751864615
 20
73.9150169264
 10
67.81154449839999
 20
73.922658225
 10
67.87433791259999
 20
73.9316333502
 10
67.9404961139
 20
73.9421335838
 10
68.01028947449999
 20
73.95438078319999
 10
68.08396163020001
 20
73.96862354319999
 10
68.16177317800001
 20
73.9851481756
 10
68.2440064915
 20
74.00428629789999
 10
68.3307433154
 20
74.0263634151
 10
68.4221249535
 20
74.0517574278
 10
68.51812560049999
 20
74.080838461
 10
68.6188003636
 20
74.1140387008
 10
68.7238878559
 20
74.151720665
 10
68.83368313850001
 20
74.194489636
 10
68.946404102
 20
74.2421309707
 10
69.06103489189999
 20
74.29460295670001
 10
69.1757033424
 20
74.35131754130001
 10
69.28871075039999
 20
74.4115339316
 10
69.39895241569999
 20
74.4746197922
 10
69.5051623736
 20
74.5396730783
 10
69.60662201959999
 20
74.60594780689999
 10
69.7024210056
 20
74.6724400887
 10
69.79230999729999
 20
74.73849376060001
 10
69.8756083671
 20
74.8030624041
 10
69.95300471829999
 20
74.8661238644
 10
70.02478887609999
 20
74.92741054310001
 10
70.0914315958
 20
74.9868593388
 10
70.15334925149999
 20
75.04442307720001
 10
70.2108847339
 20
75.10003983389999
 10
70.26441205090001
 20
75.153726105
 10
70.31415926529999
 20
75.20539411859999
 10
70.3603531856
 20
75.2549841902
 10
70.40330224819999
 20
75.3025577138
 10
70.44327101989999
 20
75.3481656013
 10
70.4805329869
 20
75.3919029366
 10
70.5153526859
 20
75.4338881384
 10
70.5479392548
 20
75.4742025186
 10
70.57853824919999
 20
75.5129993349
 10
70.60723829060001
 20
75.5502550397
 10
70.63417195779999
 20
75.5860148566
 10
70.6594206828
 20
75.6202682924
 10
70.6830710446
 20
75.6530211411
 10
70.70521430630001
 20
75.684295925
 10
70.72593384539999
 20
75.7141143038
 10
70.74531344829999
 20
75.7425084752
 10
70.7634274128
 20
75.7695057383
 10
70.7803702706
 20
75.79517226
 10
70.7962241817
 20
75.8195644169
 10
70.81107629769999
 20
75.8427537726
 10
70.8250052171
 20
75.8648070032
 10
70.8380998247
 20
75.8858148546
 10
70.85042138199999
 20
75.90583192310001
 10
70.86209005169999
 20
75.9250190066
 10
70.87309570249999
 20
75.94333117419999
 10
70.88387328399999
 20
75.96148180510001
 10
70.8948670326
 20
75.98023055109999
 10
70.90606409729999
 20
75.9995542571
 10
70.9177020081
 20
76.0198522824
 10
70.92948176749999
 20
76.0405765653
 10
70.94116438100001
 20
76.0612646658
 10
70.952757521
 20
76.08189127930001
 10
70.96416817169999
 20
76.102256739
 10
70.9864831404
 20
76.142197517
  0
LWPOLYLINE
  5
1533
330
211
100
AcDbEntity
  8
0
  6
Continuous
 62
     7
100
AcDbPolyline
 90
      134
 70
     0
 43
0.0
 10
27.4225639562
 20
74.5230474363
 10
27.3782691315
 20
74.52303651920001
 10
27.3351263193
 20
74.5231324494
 10
27.2931911757
 20
74.5233700224
 10
27.2524943861
 20
74.5239350864
 10
27.2132534931
 20
74.524835384
 10
27.1756438847
 20
74.5259649509
 10
27.1396365175
 20
74.5273470151
 10
27.1052393727
 20
74.5289008899
 10
27.0722912402
 20
74.53059694470001
 10
27.0407686202
 20
74.5324288743
 10
27.0103858913
 20
74.5344009126
 10
26.9809045978
 20
74.5365120733
 10
26.9521103395
 20
74.53877743550001
 10
26.9237866256
 20
74.54122684810001
 10
26.895680184
 20
74.543871198
 10
26.8675692939
 20
74.54673785069999
 10
26.8391458545
 20
74.54985697239999
 10
26.8101327536
 20
74.55326714209999
 10
26.7802555597
 20
74.55702072459999
 10
26.7492403993
 20
74.5611784814
 10
26.7168136505
 20
74.56581075879999
 10
26.6826888163
 20
74.57100212669999
 10
26.6466402389
 20
74.5768397674
 10
26.6083240633
 20
74.58344422679999
 10
26.5678281276
 20
74.59087466789999
 10
26.5250969834
 20
74.599219839
 10
26.4802299504
 20
74.60854356359999
 10
26.4333883055
 20
74.61889660149999
 10
26.3843452393
 20
74.6304196151
 10
26.3330504697
 20
74.6432265536
 10
26.2791685401
 20
74.65751986689999
 10
26.2224279288
 20
74.67351398889999
 10
26.1626408259
 20
74.69142688810001
 10
26.0995662854
 20
74.71152244869999
 10
26.0331723365
 20
74.73402775550001
 10
25.9635292941
 20
74.75915317150001
 10
25.8901760125
 20
74.78733492729999
 10
25.8128450235
 20
74.81900020250001
 10
25.731201386
 20
74.8546737872
 10
25.6446967765
 20
74.8950713001
 10
25.5539792023
 20
74.9404148215
 10
25.4590140679
 20
74.9912832829
 10
25.361474855
 20
75.0473283725
 10
25.2618425513
 20
75.10876575340001
 10
25.1634739549
 20
75.173827926
 10
25.0693070992
 20
75.24048197359999
 10
24.97998968320001
 20
75.3079226017
 10
24.8969327958
 20
75.3745820984
 10
24.8200636789
 20
75.43991289739999
 10
24.7500016754
 20
75.5027306799
 10
24.6857798226
 20
75.56324702409999
 10
24.626912755
 20
75.6213521679
 10
24.5727333084
 20
75.67721106399999
 10
24.5225527902
 20
75.731122298
 10
24.47617837
 20
75.78292820299999
 10
24.4333293132
 20
75.83260188149999
 10
24.3936778288
 20
75.88021571909999
 10
24.356941625
 20
75.925832912
 10
24.3228117436
 20
75.9695907242
 10
24.2909640725
 20
76.01168926609999
 10
24.2612590592
 20
76.0521204673
 10
24.2334881209
 20
76.09099069439999
 10
24.2075895747
 20
76.12822117569999
 10
24.1834776294
 20
76.16377847969999
 10
24.1610271996
 20
76.1977040436
 10
24.1401954242
 20
76.229939658
 10
24.1207303149
 20
76.26077412069999
 10
24.1024681759
 20
76.2903736712
 10
24.085178476
 20
76.3190063076
 10
24.06864676570001
 20
76.3469162937
 10
24.0526583464
 20
76.3743889152
 10
24.0370092035
 20
76.4017180654
 10
24.0214902372
 20
76.4291697619
 10
24.0058969783
 20
76.4570334684
 10
23.9900492603
 20
76.4855591278
 10
23.9737457497
 20
76.51502551660001
 10
23.9568086736
 20
76.54573652100001
 10
23.9390596245
 20
76.57800278579999
 10
23.9203476685
 20
76.6121295648
 10
23.9004767902
 20
76.64854352979999
 10
23.8795332364
 20
76.68712650329999
 10
23.8574737008
 20
76.72799664760001
 10
23.8344820173
 20
76.7708502615
 10
23.8107403207
 20
76.8153696593
 10
23.7861710286
 20
76.8617282472
 10
23.7608047121
 20
76.9098980538
 10
23.7345065839
 20
76.96016859140001
 10
23.7071795381
 20
77.01276801439999
 10
23.6787611478
 20
77.0678671184
 10
23.6491284466
 20
77.12576578300001
 10
23.6183931333
 20
77.1863107149
 10
23.5866615643
 20
77.24935600790001
 10
23.5538284767
 20
77.3151774559
 10
23.5198838637
 20
77.3838682155
 10
23.4846664729
 20
77.4558388181
 10
23.4479865696
 20
77.5315788296
 10
23.409959461
 20
77.61096332370001
 10
23.3706746394
 20
77.6939213718
 10
23.3300346252
 20
77.7807848911
 10
23.2880360538
 20
77.8717025469
 10
23.2445255237
 20
77.96716792479999
 10
23.1993303844
 20
78.0677519795
 10
23.1525724731
 20
78.17339654119999
 10
23.1044090746
 20
78.2839657294
 10
23.054594362
 20
78.4002723724
 10
23.002938497
 20
78.52306315279999
 10
22.9495434809
 20
78.65244071310001
 10
22.8945244179
 20
78.78849761020001
 10
22.8377296372
 20
78.9320302718
 10
22.7790883337
 20
79.08371502850001
 10
22.7186290667
 20
79.2440513427
 10
22.6564205311
 20
79.41350870339999
 10
22.5924421398
 20
79.5928949946
 10
22.5267684856
 20
79.78287376039999
 10
22.4594206701
 20
79.98439956680001
 10
22.3905195443
 20
80.19829729979999
 10
22.32015554
 20
80.4256795564
 10
22.2485558955
 20
80.667461585
 10
22.1758691361
 20
80.92513567340001
 10
22.1024472271
 20
81.1998588239
 10
22.0285303396
 20
81.4936279492
 10
21.9546220703
 20
81.8080061805
 10
21.8811866982
 20
82.1455358539
 10
21.808427873
 20
82.51144640959999
 10
21.7389945496
 20
82.899318064
 10
21.6743366854
 20
83.30778577290001
 10
21.6169986819
 20
83.7263902593
 10
21.5688465584
 20
84.1428827214
 10
21.5294026339
 20
84.5605520738
 10
21.4987411036
 20
84.9784999885
 10
21.4768243692
 20
85.3970136955
 10
21.4636577197
 20
85.8161696758
 10
21.4592640122
 20
86.23568528280001
  0
LWPOLYLINE
  5
1534
330
211
100
AcDbEntity
  8
0
  6
Continuous
 62
     7
100
AcDbPolyline
 90
        3
 70
     0
 43
0.0
 10
67.01931560689999
 20
73.88450125760001
 10
67.1199836486
 20
73.88451773309999
 10
67.21102089819999
 20
73.8844706747
  0
LINE
  5
1535
330
211
100
AcDbEntity
  8
0
  6
Continuous
 62
     7
100
AcDbLine
 10
27.9457230035
 20
73.88450881529999
 30
0.0
 11
66.2921504712
 21
73.8845087429
 31
0.0
  0
LWPOLYLINE
  5
1536
330
211
100
AcDbEntity
  8
0
  6
Continuous
 62
     7
100
AcDbPolyline
 90
        5
 70
     0
 43
0.0
 10
66.2921504712
 20
73.8845087429
 10
66.44921093179999
 20
73.88450745979999
 10
66.52319818699999
 20
73.88450743559999
 10
66.59439294640001
 20
73.88450848399999
 10
66.7920043232
 20
73.88451362229999
  0
LWPOLYLINE
  5
1537
330
211
100
AcDbEntity
  8
0
  6
Continuous
 62
     7
100
AcDbPolyline
 90
        9
 70
     0
 43
0.0
 10
27.3394690023
 20
73.8845123471
 10
27.3963959973
 20
73.88451354469999
 10
27.4558976232
 20
73.8845131721
 10
27.5179671769
 20
73.8845118532
 10
27.5827213268
 20
73.8845098418
 10
27.6500509699
 20
73.8845080251
 10
27.7197978267
 20
73.88450733399999
 10
27.79222196760001
 20
73.8845075708
 10
27.9457230035
 20
73.88450881529999
  0
LWPOLYLINE
  5
1538
330
211
100
AcDbEntity
  8
0
  6
Continuous
 62
     7
100
AcDbPolyline
 90
        7
 70
     0
 43
0.0
 10
66.2485523435
 20
74.52309763529999
 10
66.1025865804
 20
74.5230913371
 10
65.9510500106
 20
74.523090698
 10
65.7936382993
 20
74.52309353439999
 10
65.63006131129999
 20
74.52309387959999
 10
65.4601543791
 20
74.52309243720001
 10
65.28375491040001
 20
74.5230918092
  0
LINE
  5
1539
330
211
100
AcDbEntity
  8
0
  6
Continuous
 62
     7
100
AcDbLine
 10
65.28375491040001
 20
74.5230918092
 30
0.0
 11
28.6733930563
 21
74.5230934816
 31
0.0
  0
LWPOLYLINE
  5
153A
330
211
100
AcDbEntity
  8
0
  6
Continuous
 62
     7
100
AcDbPolyline
 90
       11
 70
     0
 43
0.0
 10
28.6733930563
 20
74.5230934816
 10
28.5767780296
 20
74.52309315079999
 10
28.4836275358
 20
74.523092374
 10
28.3940571303
 20
74.52309124060001
 10
28.3081083976
 20
74.5230909317
 10
28.2255555404
 20
74.5230915778
 10
28.1462605982
 20
74.52309350270001
 10
28.0700060225
 20
74.52309649
 10
27.9964541865
 20
74.5230968666
 10
27.9258192459
 20
74.5230939131
 10
27.8581997174
 20
74.5230874829
  0
LWPOLYLINE
  5
153B
330
211
100
AcDbEntity
  8
0
  6
Continuous
 62
     7
100
AcDbPolyline
 90
        3
 70
     0
 43
0.0
 10
66.7920043232
 20
73.88451362229999
 10
66.9103810032
 20
73.8845104281
 10
67.01931560689999
 20
73.88450125760001
  0
LWPOLYLINE
  5
153C
330
211
100
AcDbEntity
  8
0
  6
Continuous
 62
     7
100
AcDbPolyline
 90
        5
 70
     0
 43
0.0
 10
27.8581997174
 20
74.5230874829
 10
27.6181376446
 20
74.5230881425
 10
27.5655561522
 20
74.5231103859
 10
27.5158425611
 20
74.5231010785
 10
27.4225639562
 20
74.5230474363
  0
LWPOLYLINE
  5
153D
330
211
100
AcDbEntity
  8
0
  6
Continuous
 62
     7
100
AcDbPolyline
 90
       85
 70
     0
 43
0.0
 10
32.7076293708
 20
76.6462972236
 10
32.6865154818
 20
76.6461741466
 10
32.6660771263
 20
76.64605555999999
 10
32.6461524795
 20
76.64596412139999
 10
32.6261006282
 20
76.64590548779999
 10
32.6057327158
 20
76.64588143260001
 10
32.5845433394
 20
76.64592143109999
 10
32.5615255899
 20
76.64599080859999
 10
32.5344757151
 20
76.6463699207
 10
32.50036334
 20
76.64745580600001
 10
32.4611200466
 20
76.64923401260001
 10
32.4205571529
 20
76.65181111439999
 10
32.3778368614
 20
76.65523387350001
 10
32.3310431543
 20
76.659488602
 10
32.2807793086
 20
76.6648002781
 10
32.22753888360001
 20
76.6714091006
 10
32.1714923059
 20
76.67939866270001
 10
32.112916921
 20
76.6888234602
 10
32.0514252659
 20
76.6999282679
 10
31.9868869159
 20
76.71295011869999
 10
31.91905712780001
 20
76.7281458639
 10
31.8477132491
 20
76.74580883739999
 10
31.7726878751
 20
76.7662611282
 10
31.6939493104
 20
76.7898324497
 10
31.6110908164
 20
76.8169976248
 10
31.5236898319
 20
76.8483293748
 10
31.4319687293
 20
76.8842334183
 10
31.3349615158
 20
76.9256722418
 10
31.2360228013
 20
76.97174056359999
 10
31.1381077868
 20
77.0212374327
 10
31.040973973
 20
77.0743337172
 10
30.9452872085
 20
77.13069471850001
 10
30.85088934030001
 20
77.1904622143
 10
30.7577959288
 20
77.25368341380001
 10
30.6663109206
 20
77.3201794821
 10
30.5767497645
 20
77.38975202729999
 10
30.489040173
 20
77.46249051560001
 10
30.4031125515
 20
77.5384804735
 10
30.3192158207
 20
77.61754845839999
 10
30.2376162236
 20
77.699506689
 10
30.158295729
 20
77.784413651
 10
30.081119572
 20
77.8724294303
 10
30.0065058501
 20
77.9631457003
 10
29.934743863
 20
78.0562959808
 10
29.8660317381
 20
78.15162965189999
 10
29.8006027773
 20
78.2486797534
 10
29.7386735967
 20
78.3468281784
 10
29.6805324066
 20
78.44554007000001
 10
29.6254947549
 20
78.5464037858
 10
29.5737987727
 20
78.6486544592
 10
29.5272896436
 20
78.74595179319999
 10
29.4879112109
 20
78.83150180199999
 10
29.4515786098
 20
78.9125075467
 10
29.4125550907
 20
79.00012417890001
 10
29.3710264918
 20
79.0941573061
 10
29.3286455745
 20
79.1919608403
 10
29.2852164784
 20
79.2940957755
 10
29.2401148304
 20
79.40190839669999
 10
29.1933503712
 20
79.51570543169999
 10
29.1451421492
 20
79.6354385326
 10
29.0954449458
 20
79.7615696054
 10
29.0441985015
 20
79.89460322460001
 10
28.9913788941
 20
80.0350845156
 10
28.9370399662
 20
80.1834468232
 10
28.8811687123
 20
80.3403577117
 10
28.8238153921
 20
80.50640613049999
 10
28.765009411
 20
80.68235978329999
 10
28.7048659446
 20
80.8688760975
 10
28.6434501949
 20
81.06692290839999
 10
28.5809445941
 20
81.2773043762
 10
28.5174776979
 20
81.5012311097
 10
28.4533377078
 20
81.7396696926
 10
28.3887383556
 20
81.9942289791
 10
28.3241157445
 20
82.2661684098
 10
28.2598428583
 20
82.5575674797
 10
28.1964150434
 20
82.87091898449999
 10
28.1349884362
 20
83.2063151218
 10
28.0760062326
 20
83.569063861
 10
28.0228794947
 20
83.9458404616
 10
27.9777693162
 20
84.32439253410001
 10
27.9406267972
 20
84.7059641369
 10
27.9117989766
 20
85.0873578212
 10
27.891189295
 20
85.46951813419999
 10
27.8788130227
 20
85.8523915481
 10
27.8746833703
 20
86.2356930984
  0
LINE
  5
153E
330
211
100
AcDbEntity
  8
0
  6
Continuous
 62
     7
100
AcDbLine
 10
32.7528389091
 20
76.6464991043
 30
0.0
 11
32.7076293708
 21
76.6462972236
 31
0.0
  0
LWPOLYLINE
  5
153F
330
211
100
AcDbEntity
  8
0
  6
Continuous
 62
     7
100
AcDbPolyline
 90
       11
 70
     0
 43
0.0
 10
55.47231481699999
 20
76.70127847149998
 10
55.12628983789999
 20
76.700258382
 10
54.80193000749999
 20
76.6992878283
 10
54.4966634759
 20
76.6983610961
 10
54.2092268518
 20
76.6974969046
 10
53.9394577962
 20
76.6966774527
 10
53.68136789640001
 20
76.69587953709999
 10
53.432806921
 20
76.69511798239999
 10
53.1821663577
 20
76.6943438495
 10
52.9159849856
 20
76.6935340382
 10
52.6377398359
 20
76.69270517699999
  0
LWPOLYLINE
  5
1540
330
211
100
AcDbEntity
  8
0
  6
Continuous
 62
     7
100
AcDbPolyline
 90
        7
 70
     0
 43
0.0
 10
34.1435598354
 20
76.650651439
 10
34.0608777272
 20
76.6504056796
 10
33.9817457081
 20
76.65016998350001
 10
33.9061604098
 20
76.64994439059999
 10
33.8341015463
 20
76.6497288438
 10
33.7652526504
 20
76.6495224506
 10
33.699343298
 20
76.64932436329999
  0
LWPOLYLINE
  5
1541
330
211
100
AcDbEntity
  8
0
  6
Continuous
 62
     7
100
AcDbPolyline
 90
        5
 70
     0
 43
0.0
 10
33.4087000023
 20
76.64845072770001
 10
33.3090968012
 20
76.6481539895
 10
33.2624902997
 20
76.64801378189999
 10
33.2178047967
 20
76.647877941
 10
32.9834234049
 20
76.647141902
  0
LWPOLYLINE
  5
1542
330
211
100
AcDbEntity
  8
0
  6
Continuous
 62
     7
100
AcDbPolyline
 90
        3
 70
     0
 43
0.0
 10
33.5175315432
 20
76.64877683
 10
33.46192450260001
 20
76.64860993319999
 10
33.4087000023
 20
76.64845072770001
  0
LINE
  5
1543
330
211
100
AcDbEntity
  8
0
  6
Continuous
 62
     7
100
AcDbLine
 10
33.699343298
 20
76.64932436329999
 30
0.0
 11
33.5175315432
 21
76.64877683
 31
0.0
  0
LWPOLYLINE
  5
1544
330
211
100
AcDbEntity
  8
0
  6
Continuous
 62
     7
100
AcDbPolyline
 90
        4
 70
     0
 43
0.0
 10
52.6377398359
 20
76.69270517699999
 10
52.0419807771
 20
76.69095854850001
 10
51.7231068738
 20
76.6900441689
 10
51.3891312422
 20
76.68910010970001
  0
LWPOLYLINE
  5
1545
330
211
100
AcDbEntity
  8
0
  6
Continuous
 62
     7
100
AcDbPolyline
 90
        4
 70
     0
 43
0.0
 10
57.02502120590001
 20
76.7057278246
 10
56.6347109913
 20
76.7046323223
 10
56.2383748713
 20
76.7035034233
 10
55.47231481699999
 20
76.70127847149998
  0
LWPOLYLINE
  5
1546
330
211
100
AcDbEntity
  8
0
  6
Continuous
 62
     7
100
AcDbPolyline
 90
        9
 70
     0
 43
0.0
 10
36.0571297103
 20
76.65620361239999
 10
35.8723321855
 20
76.6556808852
 10
35.6979222553
 20
76.6551846635
 10
35.5348730003
 20
76.65471807670001
 10
35.3815516897
 20
76.65427736779999
 10
35.2368348993
 20
76.6538593831
 10
35.1001670691
 20
76.65346325369999
 10
34.9707649092
 20
76.6530866763
 10
34.1435598354
 20
76.650651439
  0
LWPOLYLINE
  5
1547
330
211
100
AcDbEntity
  8
0
  6
Continuous
 62
     7
100
AcDbPolyline
 90
        9
 70
     0
 43
0.0
 10
51.3891312422
 20
76.68910010970001
 10
50.6725665793
 20
76.6871267253
 10
50.2880753947
 20
76.68609639579999
 10
49.88473698439999
 20
76.6850366008
 10
49.4588092472
 20
76.6839409671
 10
49.0173952653
 20
76.68283078479999
 10
48.5580696227
 20
76.6817024943
 10
48.1056759428
 20
76.6806183209
 10
47.68742698649999
 20
76.6796393274
  0
LWPOLYLINE
  5
1548
330
211
100
AcDbEntity
  8
0
  6
Continuous
 62
     7
100
AcDbPolyline
 90
        5
 70
     0
 43
0.0
 10
58.7064233888
 20
76.71025372549999
 10
58.3992763647
 20
76.7094517389
 10
58.0783681196
 20
76.70860163180001
 10
57.74288088479999
 20
76.70769997419999
 10
57.02502120590001
 20
76.7057278246
  0
LWPOLYLINE
  5
1549
330
211
100
AcDbEntity
  8
0
  6
Continuous
 62
     7
100
AcDbPolyline
 90
        5
 70
     0
 43
0.0
 10
37.2989617488
 20
76.65961407320001
 10
37.15030747730001
 20
76.6592167656
 10
36.9922975618
 20
76.6587908353
 10
36.8243885824
 20
76.6583340965
 10
36.0571297103
 20
76.65620361239999
  0
LINE
  5
154A
330
211
100
AcDbEntity
  8
0
  6
Continuous
 62
     7
100
AcDbLine
 10
32.9834234049
 20
76.647141902
 30
0.0
 11
32.8867677606
 21
76.6468645808
 31
0.0
  0
LWPOLYLINE
  5
154B
330
211
100
AcDbEntity
  8
0
  6
Continuous
 62
     7
100
AcDbPolyline
 90
        4
 70
     0
 43
0.0
 10
32.8867677606
 20
76.6468645808
 10
32.8293086394
 20
76.6467204992
 10
32.8025540709
 20
76.6466544826
 10
32.7528389091
 20
76.6464991043
  0
LWPOLYLINE
  5
154C
330
211
100
AcDbEntity
  8
0
  6
Continuous
 62
     7
100
AcDbPolyline
 90
        5
 70
     0
 43
0.0
 10
60.0596335488
 20
76.71364519019999
 10
59.8113229745
 20
76.71304072779999
 10
59.5523656049
 20
76.7124016594
 10
59.2823071326
 20
76.71172586469999
 10
58.7064233888
 20
76.71025372549999
  0
LWPOLYLINE
  5
154D
330
211
100
AcDbEntity
  8
0
  6
Continuous
 62
     7
100
AcDbPolyline
 90
        4
 70
     0
 43
0.0
 10
38.1227607217
 20
76.66174356239999
 10
38.0253452129
 20
76.66149937739999
 10
37.9217285788
 20
76.66123691850001
 10
37.2989617488
 20
76.65961407320001
  0
LWPOLYLINE
  5
154E
330
211
100
AcDbEntity
  8
0
  6
Continuous
 62
     7
100
AcDbPolyline
 90
        3
 70
     0
 43
0.0
 10
47.68742698649999
 20
76.6796393274
 10
46.9253317331
 20
76.67791307749999
 10
46.2523169414
 20
76.6764496684
  0
LWPOLYLINE
  5
154F
330
211
100
AcDbEntity
  8
0
  6
Continuous
 62
     7
100
AcDbPolyline
 90
        3
 70
     0
 43
0.0
 10
38.5965116194
 20
76.66289328970001
 10
38.5287559406
 20
76.66273334749999
 10
38.1227607217
 20
76.66174356239999
  0
LWPOLYLINE
  5
1550
330
211
100
AcDbEntity
  8
0
  6
Continuous
 62
     7
100
AcDbPolyline
 90
        6
 70
     0
 43
0.0
 10
61.3527201902
 20
76.71665675639999
 10
61.1584674973
 20
76.71621924810001
 10
60.95621746199999
 20
76.71575805100001
 10
60.74565563770001
 20
76.7152718068
 10
60.52632076800001
 20
76.7147587525
 10
60.0596335488
 20
76.71364519019999
  0
LINE
  5
1551
330
211
100
AcDbEntity
  8
0
  6
Continuous
 62
     7
100
AcDbLine
 10
38.92784380230001
 20
76.663648237
 30
0.0
 11
38.5965116194
 21
76.66289328970001
 31
0.0
  0
LWPOLYLINE
  5
1552
330
211
100
AcDbEntity
  8
0
  6
Continuous
 62
     7
100
AcDbPolyline
 90
        7
 70
     0
 43
0.0
 10
62.515686527
 20
76.7191622496
 10
62.3685945369
 20
76.718856263
 10
62.2156159455
 20
76.71853465739999
 10
62.0564741612
 20
76.7181964494
 10
61.8909184579
 20
76.7178406919
 10
61.7186380745
 20
76.71746625129999
 10
61.3527201902
 20
76.71665675639999
  0
LINE
  5
1553
330
211
100
AcDbEntity
  8
0
  6
Continuous
 62
     7
100
AcDbLine
 10
46.2523169414
 20
76.6764496684
 30
0.0
 11
45.11327686869999
 21
76.67410146849999
 31
0.0
  0
LINE
  5
1554
330
211
100
AcDbEntity
  8
0
  6
Continuous
 62
     7
100
AcDbLine
 10
39.1942420128
 20
76.6642112917
 30
0.0
 11
38.92784380230001
 21
76.663648237
 31
0.0
  0
LINE
  5
1555
330
211
100
AcDbEntity
  8
0
  6
Continuous
 62
     7
100
AcDbLine
 10
65.5446278971
 20
76.7247473815
 30
0.0
 11
65.5161271184
 21
76.72469148170001
 31
0.0
  0
LWPOLYLINE
  5
1556
330
211
100
AcDbEntity
  8
0
  6
Continuous
 62
     7
100
AcDbPolyline
 90
       10
 70
     0
 43
0.0
 10
63.7110676668
 20
76.7215288231
 10
63.61131756109999
 20
76.7213396417
 10
63.50752147529999
 20
76.72114116749999
 10
63.3996221744
 20
76.7209330947
 10
63.2875632432
 20
76.72071512319999
 10
63.1710829942
 20
76.7204865248
 10
63.04994710149999
 20
76.72024661409999
 10
62.9240170959
 20
76.71999486029999
 10
62.7931625785
 20
76.7197307453
 10
62.515686527
 20
76.7191622496
  0
LINE
  5
1557
330
211
100
AcDbEntity
  8
0
  6
Continuous
 62
     7
100
AcDbLine
 10
45.11327686869999
 20
76.67410146849999
 30
0.0
 11
43.98414501739999
 21
76.671930347
 31
0.0
  0
LINE
  5
1558
330
211
100
AcDbEntity
  8
0
  6
Continuous
 62
     7
100
AcDbLine
 10
65.0296983785
 20
76.7238887507
 30
0.0
 11
64.9318481879
 21
76.72372079439999
 31
0.0
  0
LWPOLYLINE
  5
1559
330
211
100
AcDbEntity
  8
0
  6
Continuous
 62
     7
100
AcDbPolyline
 90
       16
 70
     0
 43
0.0
 10
64.9318481879
 20
76.72372079439999
 10
64.82570244689999
 20
76.72353898979999
 10
64.7693049991
 20
76.7234421868
 10
64.71081044649999
 20
76.72334132649999
 10
64.65046581
 20
76.7232366186
 10
64.5878872327
 20
76.7231273064
 10
64.52283200470001
 20
76.7230128997
 10
64.4551256707
 20
76.7228930301
 10
64.38444451329999
 20
76.7227670557
 10
64.3109951889
 20
76.7226352794
 10
64.2350120464
 20
76.7224980679
 10
64.1560883203
 20
76.7223546302
 10
64.07391708369999
 20
76.7222043393
 10
63.9884339442
 20
76.72204695090001
 10
63.89948626279999
 20
76.7218820464
 10
63.7110676668
 20
76.7215288231
  0
LINE
  5
155A
330
211
100
AcDbEntity
  8
0
  6
Continuous
 62
     7
100
AcDbLine
 10
43.98414501739999
 20
76.671930347
 30
0.0
 11
42.5162004761
 21
76.66933558709999
 31
0.0
  0
LINE
  5
155B
330
211
100
AcDbEntity
  8
0
  6
Continuous
 62
     7
100
AcDbLine
 10
39.4619448593
 20
76.6647115164
 30
0.0
 11
39.1942420128
 21
76.6642112917
 31
0.0
  0
LWPOLYLINE
  5
155C
330
211
100
AcDbEntity
  8
0
  6
Continuous
 62
     7
100
AcDbPolyline
 90
       11
 70
     0
 43
0.0
 10
65.5161271184
 20
76.72469148170001
 10
65.42418604689999
 20
76.7245264715
 10
65.3912423708
 20
76.72447288669999
 10
65.35701190420001
 20
76.72441899189999
 10
65.32142551220001
 20
76.7243642242
 10
65.28441232909999
 20
76.7243074725
 10
65.24587505380001
 20
76.72424765069999
 10
65.2057759069
 20
76.72418398239999
 10
65.16400078450001
 20
76.72411580569999
 10
65.1206784103
 20
76.7240435799
 10
65.0296983785
 20
76.7238887507
  0
LWPOLYLINE
  5
155D
330
211
100
AcDbEntity
  8
0
  6
Continuous
 62
     7
100
AcDbPolyline
 90
        3
 70
     0
 43
0.0
 10
39.7816796431
 20
76.6651655918
 10
39.7614776746
 20
76.6651381767
 10
39.7420296292
 20
76.6651113126
  0
LWPOLYLINE
  5
155E
330
211
100
AcDbEntity
  8
0
  6
Continuous
 62
     7
100
AcDbPolyline
 90
        4
 70
     0
 43
0.0
 10
39.9874840994
 20
76.6654502543
 10
39.9119836396
 20
76.6653454873
 10
39.88877363
 20
76.6653129698
 10
39.866336883
 20
76.6652823128
  0
LWPOLYLINE
  5
155F
330
211
100
AcDbEntity
  8
0
  6
Continuous
 62
     7
100
AcDbPolyline
 90
        3
 70
     0
 43
0.0
 10
42.5162004761
 20
76.66933558709999
 10
41.04656970999999
 20
76.66698923830001
 10
39.9874840994
 20
76.6654502543
  0
LINE
  5
1560
330
211
100
AcDbEntity
  8
0
  6
Continuous
 62
     7
100
AcDbLine
 10
65.62339439899999
 20
76.7248798436
 30
0.0
 11
65.5446278971
 21
76.7247473815
 31
0.0
  0
LINE
  5
1561
330
211
100
AcDbEntity
  8
0
  6
Continuous
 62
     7
100
AcDbLine
 10
39.5255675564
 20
76.66481349680001
 30
0.0
 11
39.4619448593
 21
76.6647115164
 31
0.0
  0
LINE
  5
1562
330
211
100
AcDbEntity
  8
0
  6
Continuous
 62
     7
100
AcDbLine
 10
39.7420296292
 20
76.6651113126
 30
0.0
 11
39.6903786402
 21
76.6650408504
 31
0.0
  0
LINE
  5
1563
330
211
100
AcDbEntity
  8
0
  6
Continuous
 62
     7
100
AcDbLine
 10
39.866336883
 20
76.6652823128
 30
0.0
 11
39.7816796431
 21
76.6651655918
 31
0.0
  0
LINE
  5
1564
330
211
100
AcDbEntity
  8
0
  6
Continuous
 62
     7
100
AcDbLine
 10
39.6903786402
 20
76.6650408504
 30
0.0
 11
39.5988654849
 21
76.66491729489999
 31
0.0
  0
LINE
  5
1565
330
211
100
AcDbEntity
  8
0
  6
Continuous
 62
     7
100
AcDbLine
 10
39.5740638867
 20
76.6648834361
 30
0.0
 11
39.5255675564
 21
76.66481349680001
 31
0.0
  0
LINE
  5
1566
330
211
100
AcDbEntity
  8
0
  6
Continuous
 62
     7
100
AcDbLine
 10
39.5988654849
 20
76.66491729489999
 30
0.0
 11
39.5740638867
 21
76.6648834361
 31
0.0
  0
LWPOLYLINE
  5
1567
330
211
100
AcDbEntity
  8
0
  6
Continuous
 62
     7
100
AcDbPolyline
 90
        3
 70
     0
 43
0.0
 10
65.7355905718
 20
76.7249510293
 10
65.69263586719999
 20
76.72491483569999
 10
65.62339439899999
 20
76.7248798436
  0
LWPOLYLINE
  5
1568
330
211
100
AcDbEntity
  8
0
  6
Continuous
 62
     7
100
AcDbPolyline
 90
       39
 70
     0
 43
0.0
 10
72.35913831560001
 20
85.0481930984
 10
72.3662156738
 20
85.0491952892
 10
72.3734000465
 20
85.0522026584
 10
72.3806963649
 20
85.0572226959
 10
72.3880860634
 20
85.06425374779999
 10
72.3955593278
 20
85.07330576310002
 10
72.40309101120001
 20
85.0843501771
 10
72.41065775910001
 20
85.0973729266
 10
72.41824085979999
 20
85.11233815350001
 10
72.4258165143
 20
85.12921057859999
 10
72.43337359689999
 20
85.14797156569999
 10
72.44089996560001
 20
85.1686071631
 10
72.4483720338
 20
85.1910653668
 10
72.4557659198
 20
85.2152966751
 10
72.46306839029999
 20
85.2412761349
 10
72.4702663085
 20
85.26898698670001
 10
72.4773336293
 20
85.29835199590001
 10
72.48424391479999
 20
85.32929608379999
 10
72.4909848488
 20
85.3617920143
 10
72.49754335819999
 20
85.39581818370001
 10
72.5038945814
 20
85.4312793703
 10
72.51001347569999
 20
85.46808164879999
 10
72.5158888814
 20
85.5061956868
 10
72.52150878790001
 20
85.54559671559999
 10
72.5268511956
 20
85.5861741965
 10
72.53189427779999
 20
85.6278192389
 10
72.53662857180001
 20
85.67049902209999
 10
72.54104361189999
 20
85.7141832047
 10
72.54512222569999
 20
85.7587532312
 10
72.5488476373
 20
85.80409258560001
 10
72.55221262069999
 20
85.85016292929999
 10
72.5552089823
 20
85.8969264347
 10
72.55782550710001
 20
85.944263844
 10
72.56005145679999
 20
85.99205790209998
 10
72.5618824923
 20
86.04026439790001
 10
72.56331349949999
 20
86.0888379504
 10
72.5643394528
 20
86.13766482549999
 10
72.5649554851
 20
86.18660369
 10
72.5651615701
 20
86.2356930984
  0
LWPOLYLINE
  5
1569
330
211
100
AcDbEntity
  8
0
  6
Continuous
 62
     7
100
AcDbPolyline
 90
       39
 70
     0
 43
0.0
 10
72.3576338589
 20
87.42314714809999
 10
72.3520654734
 20
87.4221578563
 10
72.34514122569999
 20
87.4190541367
 10
72.3383568234
 20
87.4138824163
 10
72.33173308640001
 20
87.40666462700001
 10
72.3252843982
 20
87.39741278549999
 10
72.31901748930001
 20
87.3861568244
 10
72.31293976729999
 20
87.37291384589999
 10
72.30706012350001
 20
87.3577334433
 10
72.3013891911
 20
87.34065844299999
 10
72.29592637029999
 20
87.32172446319999
 10
72.29067252890001
 20
87.3009606415
 10
72.2856315033
 20
87.27842746889999
 10
72.2808085109
 20
87.2541854956
 10
72.27619879399999
 20
87.228261156
 10
72.27179826949999
 20
87.20067752850001
 10
72.2676085887
 20
87.1715033449
 10
72.26363188989999
 20
87.14080757700001
 10
72.25986233350001
 20
87.1086097449
 10
72.25629424500001
 20
87.0749235185
 10
72.2529284293
 20
87.039833549
 10
72.24976612899999
 20
87.00342204389999
 10
72.246801438
 20
86.9657068254
 10
72.2440289334
 20
86.92669957129998
 10
72.2414484175
 20
86.88649899860001
 10
72.2390604302
 20
86.8451990764
 10
72.2368598604
 20
86.80282239969999
 10
72.234842434
 20
86.7593857564
 10
72.23300723699999
 20
86.7149985558
 10
72.2313544765
 20
86.6697620106
 10
72.2298804366
 20
86.62371426540001
 10
72.22858269229999
 20
86.57688422139999
 10
72.22746005819999
 20
86.5293987691
 10
72.2265132935
 20
86.48137493290001
 10
72.2257397867
 20
86.4328681475
 10
72.2251389762
 20
86.38393146979998
 10
72.2247095372
 20
86.33468715049998
 10
72.2244529638
 20
86.28529371719999
 10
72.2243665929
 20
86.2356930984
  0
LINE
  5
156A
330
211
100
AcDbEntity
  8
0
  6
Continuous
 62
     7
100
AcDbLine
 10
72.35913831560001
 20
87.4231930984
 30
0.0
 11
72.3576338589
 21
87.42314714809999
 31
0.0
  0
LINE
  5
156B
330
211
100
AcDbEntity
  8
DEFAULT_1
  6
CENTER
 62
     7
100
AcDbLine
 10
66.53561579229999
 20
86.2356930984
 30
0.0
 11
14.3333333359
 21
86.2356930984
 31
0.0
  0
LINE
  5
156C
330
211
100
AcDbEntity
  8
DEFAULT_1
  6
CENTER
 62
     7
100
AcDbLine
 10
66.53561579229999
 20
86.2356930984
 30
0.0
 11
79.0000000026
 21
86.2356930984
 31
0.0
  0
LINE
  5
156D
330
211
100
AcDbEntity
  8
0
  6
Continuous
 62
     7
100
AcDbLine
 10
72.3576340632
 20
85.04823956699999
 30
0.0
 11
72.35913831560001
 21
85.0481930984
 31
0.0
  0
LWPOLYLINE
  5
156E
330
211
100
AcDbEntity
  8
0
  6
Continuous
 62
     7
100
AcDbPolyline
 90
        3
 70
     0
 43
0.0
 10
39.5680271764
 20
95.80651079809999
 10
39.5896925782
 20
95.80651602659999
 10
39.6325824254
 20
95.80640715340001
  0
LWPOLYLINE
  5
156F
330
211
100
AcDbEntity
  8
0
  6
Continuous
 62
     7
100
AcDbPolyline
 90
        8
 70
     0
 43
0.0
 10
28.7739218171
 20
97.94829271780001
 10
28.6733930563
 20
97.94829271520001
 10
28.5767780296
 20
97.94829304590001
 10
28.4836275358
 20
97.94829382280001
 10
28.3940571303
 20
97.9482949562
 10
28.3081083976
 20
97.9482952651
 10
28.2255555404
 20
97.948294619
 10
28.1462605982
 20
97.94829269410001
  0
LINE
  5
1570
330
211
100
AcDbEntity
  8
0
  6
Continuous
 62
     7
100
AcDbLine
 10
65.4601543791
 20
97.94829375959999
 30
0.0
 11
28.7739218171
 21
97.94829271780001
 31
0.0
  0
LWPOLYLINE
  5
1571
330
211
100
AcDbEntity
  8
0
  6
Continuous
 62
     7
100
AcDbPolyline
 90
        3
 70
     0
 43
0.0
 10
28.1462605982
 20
97.94829269410001
 10
27.8581997174
 20
97.9482987139
 10
27.5655561522
 20
97.94827581079999
  0
LWPOLYLINE
  5
1572
330
211
100
AcDbEntity
  8
0
  6
Continuous
 62
     7
100
AcDbPolyline
 90
      136
 70
     0
 43
0.0
 10
27.5655561522
 20
97.94827581079999
 10
27.4683764394
 20
97.94830736370002
 10
27.4225639562
 20
97.94833876049999
 10
27.3782691315
 20
97.9483496775
 10
27.3351263193
 20
97.9482537474
 10
27.2931911757
 20
97.94801617430001
 10
27.2524943861
 20
97.94745111040001
 10
27.2132534931
 20
97.94655081270001
 10
27.1756438847
 20
97.94542124580001
 10
27.1396365175
 20
97.94403918170001
 10
27.1052393727
 20
97.94248530690001
 10
27.0722912402
 20
97.9407892521
 10
27.0407686202
 20
97.9389573225
 10
27.0103858913
 20
97.93698528420001
 10
26.9809045978
 20
97.93487412340001
 10
26.9521103395
 20
97.93260876120001
 10
26.9237866256
 20
97.9301593487
 10
26.895680184
 20
97.9275149987
 10
26.8675692939
 20
97.924648346
 10
26.8391458545
 20
97.92152922440001
 10
26.8101327536
 20
97.91811905459999
 10
26.7802555597
 20
97.91436547209999
 10
26.7492403993
 20
97.9102077153
 10
26.7168136505
 20
97.90557543799998
 10
26.6826888163
 20
97.90038407
 10
26.6466402389
 20
97.8945464294
 10
26.6083240633
 20
97.8879419699
 10
26.5678281276
 20
97.88051152889998
 10
26.5250969834
 20
97.87216635780001
 10
26.4802299504
 20
97.8628426332
 10
26.4333883055
 20
97.8524895952
 10
26.3843452393
 20
97.8409665817
 10
26.3330504697
 20
97.82815964320001
 10
26.2791685401
 20
97.81386632989999
 10
26.2224279288
 20
97.79787220790002
 10
26.1626408259
 20
97.77995930860001
 10
26.0995662854
 20
97.75986374809999
 10
26.0331723365
 20
97.73735844129999
 10
25.9635292941
 20
97.71223302530001
 10
25.8901760125
 20
97.6840512695
 10
25.8128450235
 20
97.65238599420001
 10
25.731201386
 20
97.61671240950001
 10
25.6446967765
 20
97.5763148967
 10
25.5539792023
 20
97.53097137520001
 10
25.4590140679
 20
97.4801029139
 10
25.361474855
 20
97.42405782430001
 10
25.2618425513
 20
97.36262044340001
 10
25.1634739549
 20
97.29755827079999
 10
25.0693070992
 20
97.2309042232
 10
24.97998968320001
 20
97.1634635951
 10
24.8969327958
 20
97.0968040984
 10
24.8200636789
 20
97.03147329930001
 10
24.7500016754
 20
96.96865551690001
 10
24.6857798226
 20
96.9081391727
 10
24.626912755
 20
96.85003402879999
 10
24.5727333084
 20
96.7941751328
 10
24.5225527902
 20
96.7402638987
 10
24.47617837
 20
96.68845799379999
 10
24.4333293132
 20
96.6387843152
 10
24.3936778288
 20
96.59117047770001
 10
24.356941625
 20
96.5455532848
 10
24.3228117436
 20
96.50179547260002
 10
24.2909640725
 20
96.45969693059999
 10
24.2612590592
 20
96.41926572950001
 10
24.2334881209
 20
96.38039550229999
 10
24.2075895747
 20
96.34316502110001
 10
24.1834776294
 20
96.30760771709999
 10
24.1610271996
 20
96.2736821532
 10
24.1401954242
 20
96.24144653870001
 10
24.1207303149
 20
96.21061207610001
 10
24.1024681759
 20
96.18101252549999
 10
24.085178476
 20
96.1523798892
 10
24.06864676570001
 20
96.12446990309999
 10
24.0526583464
 20
96.0969972816
 10
24.0370092035
 20
96.0696681313
 10
24.0214902372
 20
96.04221643489999
 10
24.0058969783
 20
96.01435272839999
 10
23.9900492603
 20
95.985827069
 10
23.9737457497
 20
95.9563606801
 10
23.9568086736
 20
95.92564967580001
 10
23.9390596245
 20
95.89338341100001
 10
23.9203476685
 20
95.85925663200001
 10
23.9004767902
 20
95.822842667
 10
23.8795332364
 20
95.7842596935
 10
23.8574737008
 20
95.74338954919999
 10
23.8344820173
 20
95.70053593530001
 10
23.8107403207
 20
95.65601653749999
 10
23.7861710286
 20
95.60965794959999
 10
23.7608047121
 20
95.561488143
 10
23.7345065839
 20
95.5112176053
 10
23.7071795381
 20
95.4586181824
 10
23.6787611478
 20
95.40351907829998
 10
23.6491284466
 20
95.34562041379999
 10
23.6183931333
 20
95.2850754818
 10
23.5866615643
 20
95.22203018879999
 10
23.5538284767
 20
95.1562087409
 10
23.5198838637
 20
95.08751798129999
 10
23.4846664729
 20
95.0155473787
 10
23.4479865696
 20
94.93980736719999
 10
23.409959461
 20
94.86042287309999
 10
23.3706746394
 20
94.777464825
 10
23.3300346252
 20
94.69060130569999
 10
23.2880360538
 20
94.59968364979999
 10
23.2445255237
 20
94.50421827200001
 10
23.1993303844
 20
94.40363421719998
 10
23.1525724731
 20
94.29798965549998
 10
23.1044090746
 20
94.1874204674
 10
23.054594362
 20
94.0711138244
 10
23.002938497
 20
93.94832304399999
 10
22.9495434809
 20
93.8189454837
 10
22.8945244179
 20
93.68288858659999
 10
22.8377296372
 20
93.53935592499999
 10
22.7790883337
 20
93.38767116819999
 10
22.7186290667
 20
93.22733485409999
 10
22.6564205311
 20
93.0578774934
 10
22.5924421398
 20
92.87849120209999
 10
22.5267684856
 20
92.68851243639998
 10
22.4594206701
 20
92.48698663
 10
22.3905195443
 20
92.27308889700001
 10
22.32015554
 20
92.04570664040002
 10
22.2485558955
 20
91.8039246118
 10
22.1758691361
 20
91.5462505234
 10
22.1024472271
 20
91.27152737290002
 10
22.0285303396
 20
90.97775824760001
 10
21.9546220703
 20
90.66338001629999
 10
21.8811866982
 20
90.32585034290001
 10
21.808427873
 20
89.95993978719999
 10
21.7389945496
 20
89.5720681328
 10
21.6743366854
 20
89.1636004239
 10
21.6169986819
 20
88.7449959375
 10
21.5688465584
 20
88.3285034754
 10
21.5294026339
 20
87.91083412290001
 10
21.4987411649
 20
87.4928871834
 10
21.4768243692
 20
87.07437250129999
 10
21.4636575969
 20
86.65521066030001
 10
21.4592640121
 20
86.23568528280001
  0
LWPOLYLINE
  5
1573
330
211
100
AcDbEntity
  8
0
  6
Continuous
 62
     7
100
AcDbPolyline
 90
       10
 70
     0
 43
0.0
 10
39.6325824254
 20
95.80640715340001
 10
39.6716848338
 20
95.806372035
 10
39.69063004650001
 20
95.8063447159
 10
39.7095993768
 20
95.8063188699
 10
39.7289589382
 20
95.80629269419999
 10
39.74909691820001
 20
95.8062657358
 10
39.7702475186
 20
95.8062362905
 10
39.792787527
 20
95.80620408040001
 10
39.8166715906
 20
95.8061724549
 10
39.8419911549
 20
95.80613722709999
  0
LWPOLYLINE
  5
1574
330
211
100
AcDbEntity
  8
0
  6
Continuous
 62
     7
100
AcDbPolyline
 90
        3
 70
     0
 43
0.0
 10
39.8419911549
 20
95.80613722709999
 10
39.8968966097
 20
95.80606213040001
 10
39.9264550953
 20
95.80602064729999
  0
LWPOLYLINE
  5
1575
330
211
100
AcDbEntity
  8
0
  6
Continuous
 62
     7
100
AcDbPolyline
 90
        3
 70
     0
 43
0.0
 10
39.9264550953
 20
95.80602064729999
 10
40.50115075759999
 20
95.80520518390001
 10
41.4082098171
 20
95.8038425256
  0
LWPOLYLINE
  5
1576
330
211
100
AcDbEntity
  8
0
  6
Continuous
 62
     7
100
AcDbPolyline
 90
      136
 70
     0
 43
0.0
 10
64.4508058035
 20
95.74850093349999
 10
64.58146038619999
 20
95.74827016
 10
64.7063441605
 20
95.74805230870001
 10
64.8257966473
 20
95.7478470376
 10
64.9401681367
 20
95.7476524468
 10
65.04970729740001
 20
95.7474631884
 10
65.1546691149
 20
95.7472801892
 10
65.2550458351
 20
95.74712391799998
 10
65.3512374037
 20
95.74699533689999
 10
65.44394486129999
 20
95.7468269123
 10
65.5329110623
 20
95.74660788340001
 10
65.615307962
 20
95.746515297
 10
65.690705279
 20
95.7466412658
 10
65.77337200809999
 20
95.74630904219999
 10
65.8754228799
 20
95.7445070786
 10
65.98860518729999
 20
95.73990121660001
 10
66.1037378952
 20
95.73112631429999
 10
66.21778738679999
 20
95.7183323667
 10
66.32986733910001
 20
95.70220550100001
 10
66.4411915292
 20
95.6825921681
 10
66.55257689449999
 20
95.6592033707
 10
66.66318033479999
 20
95.63219971209999
 10
66.7724953941
 20
95.6017474387
 10
66.88068614489999
 20
95.56783618930001
 10
66.98783636119999
 20
95.53043176530001
 10
67.09380972259999
 20
95.48956139229998
 10
67.1984502312
 20
95.44528830950001
 10
67.30163584679999
 20
95.39767012450001
 10
67.40324403709999
 20
95.34675447209998
 10
67.5032287228
 20
95.29256531100001
 10
67.60160744140001
 20
95.23509816489999
 10
67.6981758128
 20
95.17444206829999
 10
67.79268939149999
 20
95.1107238994
 10
67.8850614526
 20
95.04403198620002
 10
67.9752455625
 20
94.974423139
 10
68.06313473270001
 20
94.90195636280001
 10
68.14854007380001
 20
94.82678686259999
 10
68.2315226277
 20
94.74889963370001
 10
68.3121718486
 20
94.6681907427
 10
68.3902225944
 20
94.58487442819999
 10
68.4654720657
 20
94.4991804534
 10
68.53795520449999
 20
94.41112067430001
 10
68.6078307826
 20
94.3204608525
 10
68.6744346679
 20
94.2279559369
 10
68.737861958
 20
94.1335268985
 10
68.79625880199999
 20
94.0405879403
 10
68.84806829209999
 20
93.95266759540001
 10
68.894828641
 20
93.86747140309999
 10
68.9362157945
 20
93.7866773248
 10
68.9721618273
 20
93.71271560389999
 10
69.0021963075
 20
93.64795790290001
 10
69.02931464499999
 20
93.5877010977
 10
69.057543684
 20
93.5245587866
 10
69.08721845009999
 20
93.457708019
 10
69.1183463359
 20
93.38677742479999
 10
69.15068443279999
 20
93.31210652290002
 10
69.1839293715
 20
93.23434147669999
 10
69.21823311219999
 20
93.1530439938
 10
69.2538012988
 20
93.0675882527
 10
69.29065489430001
 20
92.97772569770001
 10
69.3287380447
 20
92.8833735243
 10
69.3680772709
 20
92.78425155589999
 10
69.4086906852
 20
92.680082195
 10
69.4506314316
 20
92.5704551943
 10
69.49390028839999
 20
92.4550531913
 10
69.5385686282
 20
92.33332069040001
 10
69.58462705609999
 20
92.20486724690001
 10
69.6321890878
 20
92.06888195659999
 10
69.68186767979999
 20
91.92296329280001
 10
69.73198093649999
 20
91.77143593709999
 10
69.78202940660001
 20
91.6153871943
 10
69.8296007271
 20
91.46231664389999
 10
69.87204140029999
 20
91.32149089610001
 10
69.91079469049999
 20
91.1890837548
 10
69.946267838
 20
91.0644264081
 10
69.9787283663
 20
90.94723126399999
 10
70.0084537124
 20
90.8370893922
 10
70.0356883938
 20
90.73363199559999
 10
70.0606693993
 20
90.63644362459999
 10
70.08358615039999
 20
90.54522404129999
 10
70.1046255958
 20
90.4596257833
 10
70.12394903399999
 20
90.37935040749999
 10
70.1417166678
 20
90.30405380679999
 10
70.15805231
 20
90.23349897000001
 10
70.1730762234
 20
90.16742771030001
 10
70.1869090972
 20
90.1055445429
 10
70.19967219649998
 20
90.0475086916
 10
70.2114373953
 20
89.99317901659999
 10
70.22227396419999
 20
89.94240376589999
 10
70.232279433
 20
89.89486274669999
 10
70.2415391734
 20
89.8502918934
 10
70.2501378062
 20
89.80837666280001
 10
70.2581726528
 20
89.76871348520001
 10
70.2656767682
 20
89.7313145759
 10
70.27265247939999
 20
89.69615735279999
 10
70.2791908995
 20
89.66283708479998
 10
70.2853511948
 20
89.6311755842
 10
70.291249955
 20
89.60051500549999
 10
70.2969757174
 20
89.57050067739999
 10
70.30271679960001
 20
89.5401141237
 10
70.3086832349
 20
89.50821496080001
 10
70.314869688
 20
89.47480755139999
 10
70.3213476383
 20
89.4394060707
 10
70.32806135140001
 20
89.4023181354
 10
70.33495361319999
 20
89.36375703100001
 10
70.34205444520001
 20
89.3234762302
 10
70.3493812194
 20
89.28133987309999
 10
70.3569350698
 20
89.237256195
 10
70.3647147308
 20
89.19113505790001
 10
70.37272786479999
 20
89.142829055
 10
70.3809756979
 20
89.092219705
 10
70.3894661795
 20
89.0391296311
 10
70.3982026316
 20
88.9833875373
 10
70.4071809639
 20
88.9248506052
 10
70.4163884148
 20
88.86341309509999
 10
70.4258342518
 20
88.79879472869999
 10
70.43551449689999
 20
88.73077159120001
 10
70.44542597189999
 20
88.6590689582
 10
70.4555543762
 20
88.58345321629998
 10
70.4658923879
 20
88.5035785698
 10
70.47641387919999
 20
88.41918362680001
 10
70.4871100096
 20
88.32978552120001
 10
70.49794821679999
 20
88.23499658739999
 10
70.50889963590001
 20
88.1342710032
 10
70.5199080543
 20
88.0271627123
 10
70.5309225335
 20
87.9129829578
 10
70.54185647609999
 20
87.7911380661
 10
70.5526124644
 20
87.66092173510001
 10
70.56304819270001
 20
87.52168531049999
 10
70.5730121454
 20
87.37271248929999
 10
70.5822902579
 20
87.21327270379999
 10
70.59065911319999
 20
87.04277852889999
 10
70.59780374749999
 20
86.8607219168
 10
70.6034347306
 20
86.66610965790001
 10
70.6071971168
 20
86.45762272190001
 10
70.60849403839999
 20
86.2356930984
  0
LWPOLYLINE
  5
1577
330
211
100
AcDbEntity
  8
0
  6
Continuous
 62
     7
100
AcDbPolyline
 90
        5
 70
     0
 43
0.0
 10
39.4480761213
 20
95.8066980933
 10
39.4913636571
 20
95.80662635939999
 10
39.5120262946
 20
95.8065746834
 10
39.5317743815
 20
95.8065636343
 10
39.5680271764
 20
95.80651079809999
  0
LINE
  5
1578
330
211
100
AcDbEntity
  8
0
  6
Continuous
 62
     7
100
AcDbLine
 10
41.4082098171
 20
95.8038425256
 30
0.0
 11
42.1221362541
 21
95.8027041423
 31
0.0
  0
LWPOLYLINE
  5
1579
330
211
100
AcDbEntity
  8
0
  6
Continuous
 62
     7
100
AcDbPolyline
 90
        7
 70
     0
 43
0.0
 10
63.3472866931
 20
95.7505546652
 10
63.52813143449999
 20
95.7502054817
 10
63.7004483046
 20
95.74987744209998
 10
63.8647949839
 20
95.7495687948
 10
64.02156646189999
 20
95.74927811729999
 10
64.17120596050001
 20
95.74900396249999
 10
64.4508058035
 20
95.74850093349999
  0
LINE
  5
157A
330
211
100
AcDbEntity
  8
0
  6
Continuous
 62
     7
100
AcDbLine
 10
39.3445309032
 20
95.8068833273
 30
0.0
 11
39.3847311531
 21
95.80681012079999
 31
0.0
  0
LINE
  5
157B
330
211
100
AcDbEntity
  8
0
  6
Continuous
 62
     7
100
AcDbLine
 10
39.3847311531
 20
95.80681012079999
 30
0.0
 11
39.4480761213
 21
95.8066980933
 31
0.0
  0
LINE
  5
157C
330
211
100
AcDbEntity
  8
0
  6
Continuous
 62
     7
100
AcDbLine
 10
42.1221362541
 20
95.8027041423
 30
0.0
 11
43.5529368377
 21
95.8002445131
 31
0.0
  0
LWPOLYLINE
  5
157D
330
211
100
AcDbEntity
  8
0
  6
Continuous
 62
     7
100
AcDbPolyline
 90
        5
 70
     0
 43
0.0
 10
62.2944824078
 20
95.75268529929999
 10
62.5272114297
 20
95.7522001104
 10
62.748140663
 20
95.751746906
 10
62.95794605020001
 20
95.751323273
 10
63.3472866931
 20
95.7505546652
  0
LWPOLYLINE
  5
157E
330
211
100
AcDbEntity
  8
0
  6
Continuous
 62
     7
100
AcDbPolyline
 90
        4
 70
     0
 43
0.0
 10
43.5529368377
 20
95.8002445131
 10
45.1984327175
 20
95.7971147127
 10
45.4456075724
 20
95.7966161601
 10
46.2543404158
 20
95.79493222329999
  0
LWPOLYLINE
  5
157F
330
211
100
AcDbEntity
  8
0
  6
Continuous
 62
     7
100
AcDbPolyline
 90
        4
 70
     0
 43
0.0
 10
61.2245612849
 20
95.7550174732
 10
61.5151570395
 20
95.75436771899999
 10
61.7895761331
 20
95.753765232
 10
62.2944824078
 20
95.75268529929999
  0
LINE
  5
1580
330
211
100
AcDbEntity
  8
0
  6
Continuous
 62
     7
100
AcDbLine
 10
38.9813741938
 20
95.80762107540001
 30
0.0
 11
39.3445309032
 21
95.8068833273
 31
0.0
  0
LINE
  5
1581
330
211
100
AcDbEntity
  8
0
  6
Continuous
 62
     7
100
AcDbLine
 10
46.5482717441
 20
95.7943000192
 30
0.0
 11
47.5129509354
 21
95.79214859870001
 31
0.0
  0
LINE
  5
1582
330
211
100
AcDbEntity
  8
0
  6
Continuous
 62
     7
100
AcDbLine
 10
46.2543404158
 20
95.79493222329999
 30
0.0
 11
46.5482717441
 21
95.7943000192
 31
0.0
  0
LWPOLYLINE
  5
1583
330
211
100
AcDbEntity
  8
0
  6
Continuous
 62
     7
100
AcDbPolyline
 90
        5
 70
     0
 43
0.0
 10
38.4605143907
 20
95.80881567229999
 10
38.5266066107
 20
95.8086580195
 10
38.5886865093
 20
95.808511298
 10
38.6469696126
 20
95.8083749386
 10
38.9813741938
 20
95.80762107540001
  0
LWPOLYLINE
  5
1584
330
211
100
AcDbEntity
  8
0
  6
Continuous
 62
     7
100
AcDbPolyline
 90
        7
 70
     0
 43
0.0
 10
47.5129509354
 20
95.79214859870001
 10
48.23326061279999
 20
95.79046475969999
 10
48.6247757463
 20
95.7895215111
 10
49.0228362786
 20
95.78854188299999
 10
49.4162094435
 20
95.78755349679999
 10
49.79550989839999
 20
95.78658110440001
 10
50.1448974463
 20
95.7856685157
  0
LWPOLYLINE
  5
1585
330
211
100
AcDbEntity
  8
0
  6
Continuous
 62
     7
100
AcDbPolyline
 90
        5
 70
     0
 43
0.0
 10
37.7673365487
 20
95.81054458629999
 10
37.8725410898
 20
95.81027468690001
 10
37.9717883487
 20
95.81002222459998
 10
38.0655322512
 20
95.8097857665
 10
38.4605143907
 20
95.80881567229999
  0
LWPOLYLINE
  5
1586
330
211
100
AcDbEntity
  8
0
  6
Continuous
 62
     7
100
AcDbPolyline
 90
        8
 70
     0
 43
0.0
 10
58.2906101065
 20
95.76222090079999
 10
58.6643313828
 20
95.76124167939999
 10
59.06066048069999
 20
95.7602220865
 10
59.46247819709999
 20
95.75920842030001
 10
59.85757086
 20
95.7582324216
 10
60.2376735993
 20
95.7573126964
 10
60.5877842153
 20
95.7564829926
 10
61.2245612849
 20
95.7550174732
  0
LWPOLYLINE
  5
1587
330
211
100
AcDbEntity
  8
0
  6
Continuous
 62
     7
100
AcDbPolyline
 90
        6
 70
     0
 43
0.0
 10
36.4782335426
 20
95.81400435669999
 10
36.66263223
 20
95.8134954916
 10
36.8316748694
 20
95.8130321317
 10
36.9903315668
 20
95.81260081519999
 10
37.1395558773
 20
95.81219830649999
 10
37.7673365487
 20
95.81054458629999
  0
LINE
  5
1588
330
211
100
AcDbEntity
  8
0
  6
Continuous
 62
     7
100
AcDbLine
 10
32.8173551263
 20
95.82469568489999
 30
0.0
 11
32.9136141235
 21
95.8244481974
 31
0.0
  0
LWPOLYLINE
  5
1589
330
211
100
AcDbEntity
  8
0
  6
Continuous
 62
     7
100
AcDbPolyline
 90
        4
 70
     0
 43
0.0
 10
56.9513664667
 20
95.76586389110001
 10
57.2641729549
 20
95.764995035
 10
57.5911586026
 20
95.7640982164
 10
58.2906101065
 20
95.76222090079999
  0
LWPOLYLINE
  5
158A
330
211
100
AcDbEntity
  8
0
  6
Continuous
 62
     7
100
AcDbPolyline
 90
        4
 70
     0
 43
0.0
 10
50.1448974463
 20
95.7856685157
 10
50.7807048533
 20
95.78396607450001
 10
51.0709362558
 20
95.7831709292
 10
51.3450752089
 20
95.7824094128
  0
LWPOLYLINE
  5
158B
330
211
100
AcDbEntity
  8
0
  6
Continuous
 62
     7
100
AcDbPolyline
 90
       22
 70
     0
 43
0.0
 10
33.4996395848
 20
95.82266313099999
 10
33.7508691396
 20
95.82190692459999
 10
33.8200310417
 20
95.8216994948
 10
33.8921911435
 20
95.8214835543
 10
33.9677080814
 20
95.82125807510001
 10
34.046560719
 20
95.8210231235
 10
34.1287673838
 20
95.8207786936
 10
34.2145686986
 20
95.8205240462
 10
34.3041413228
 20
95.8202586472
 10
34.3976943879
 20
95.8199819378
 10
34.49542261
 20
95.8196934597
 10
34.5975466731
 20
95.81939260860002
 10
34.7042201118
 20
95.81907914549999
 10
34.8158393715
 20
95.8187519816
 10
34.9327709285
 20
95.81841030639999
 10
35.0552582538
 20
95.8180534685
 10
35.1834434177
 20
95.8176813957
 10
35.3179965944
 20
95.817292138
 10
35.4594720368
 20
95.81688461229999
 10
35.6083591854
 20
95.8164574849
 10
35.7650555681
 20
95.81601023180001
 10
36.4782335426
 20
95.81400435669999
  0
LWPOLYLINE
  5
158C
330
211
100
AcDbEntity
  8
0
  6
Continuous
 62
     7
100
AcDbPolyline
 90
        3
 70
     0
 43
0.0
 10
33.3884367106
 20
95.82299588620001
 10
33.4428810062
 20
95.82283323950001
 10
33.4996395848
 20
95.82266313099999
  0
LWPOLYLINE
  5
158D
330
211
100
AcDbEntity
  8
0
  6
Continuous
 62
     7
100
AcDbPolyline
 90
        6
 70
     0
 43
0.0
 10
51.3450752089
 20
95.7824094128
 10
51.8496642459
 20
95.78098109509999
 10
52.08235071489999
 20
95.7803108248
 10
52.3033136539
 20
95.779667539
 10
52.51322519390001
 20
95.77905008110001
 10
52.7129209867
 20
95.7784568699
  0
LWPOLYLINE
  5
158E
330
211
100
AcDbEntity
  8
0
  6
Continuous
 62
     7
100
AcDbPolyline
 90
        9
 70
     0
 43
0.0
 10
54.6755451485
 20
95.77247791069998
 10
54.886881196
 20
95.77184453559999
 10
55.10748959689999
 20
95.7711862356
 10
55.33776884159999
 20
95.77050393309999
 10
55.5782382094
 20
95.7697968132
 10
55.8293680649
 20
95.76906384370001
 10
56.0917059417
 20
95.76830442790001
 10
56.3657502004
 20
95.767518275
 10
56.9513664667
 20
95.76586389110001
  0
LWPOLYLINE
  5
158F
330
211
100
AcDbEntity
  8
0
  6
Continuous
 62
     7
100
AcDbPolyline
 90
        9
 70
     0
 43
0.0
 10
52.7129209867
 20
95.7784568699
 10
53.2567834751
 20
95.77681459049999
 10
53.4197836625
 20
95.7763098754
 10
53.5803359344
 20
95.77581846680001
 10
53.7449256166
 20
95.7753068234
 10
53.9146084131
 20
95.77478952819999
 10
54.09288841529999
 20
95.7742499154
 10
54.2789673197
 20
95.77367714030001
 10
54.6755451485
 20
95.77247791069998
  0
LINE
  5
1590
330
211
100
AcDbEntity
  8
0
  6
Continuous
 62
     7
100
AcDbLine
 10
32.9136141235
 20
95.8244481974
 30
0.0
 11
33.3884367106
 21
95.82299588620001
 31
0.0
  0
LWPOLYLINE
  5
1591
330
211
100
AcDbEntity
  8
0
  6
Continuous
 62
     7
100
AcDbPolyline
 90
       75
 70
     0
 43
0.0
 10
67.1199836486
 20
98.58686846370002
 10
67.21102089819999
 20
98.58691552200001
 10
67.2518877433
 20
98.58686211650001
 10
67.2907019859
 20
98.5866114599
 10
67.32818122899999
 20
98.58605640669999
 10
67.36604774369999
 20
98.5851476356
 10
67.4062871859
 20
98.58379815159999
 10
67.44858268749999
 20
98.5819651595
 10
67.4930877795
 20
98.5795849019
 10
67.53986179219999
 20
98.57657789850001
 10
67.5890757084
 20
98.57284757549999
 10
67.6407780808
 20
98.56830296970001
 10
67.69497333220001
 20
98.5628516873
 10
67.751864615
 20
98.55636927030001
 10
67.81154449839999
 20
98.54872797170001
 10
67.87433791259999
 20
98.5397528466
 10
67.9404961139
 20
98.52925261300001
 10
68.01028947449999
 20
98.51700541360001
 10
68.08396163020001
 20
98.50276265360001
 10
68.16177317800001
 20
98.48623802120002
 10
68.2440064915
 20
98.46709989889999
 10
68.3307433154
 20
98.44502278170001
 10
68.4221249535
 20
98.419628769
 10
68.51812560049999
 20
98.3905477358
 10
68.6188003636
 20
98.35734749590001
 10
68.7238878559
 20
98.3196655318
 10
68.83368313850001
 20
98.27689656069999
 10
68.946404102
 20
98.22925522600002
 10
69.06103489189999
 20
98.17678324
 10
69.1757033424
 20
98.12006865549999
 10
69.28871075039999
 20
98.05985226510001
 10
69.39895241569999
 20
97.99676640459999
 10
69.5051623736
 20
97.9317131184
 10
69.60662201959999
 20
97.86543838989999
 10
69.7024210056
 20
97.7989461081
 10
69.79230999729999
 20
97.7328924362
 10
69.8756083671
 20
97.66832379270001
 10
69.95300471829999
 20
97.6052623324
 10
70.02478887609999
 20
97.5439756537
 10
70.0914315958
 20
97.484526858
 10
70.15334925149999
 20
97.42696311959999
 10
70.2108847339
 20
97.37134636280002
 10
70.26441205090001
 20
97.31766009180001
 10
70.31415926529999
 20
97.2659920781
 10
70.3603531856
 20
97.21640200659999
 10
70.40330224819999
 20
97.16882848290001
 10
70.44327101989999
 20
97.12322059540001
 10
70.4805329869
 20
97.07948326020002
 10
70.5153526859
 20
97.03749805840001
 10
70.5479392548
 20
96.9971836782
 10
70.57853824919999
 20
96.9583868619
 10
70.60723829060001
 20
96.9211311571
 10
70.63417195779999
 20
96.88537134020002
 10
70.6594206828
 20
96.8511179044
 10
70.6830710446
 20
96.8183650557
 10
70.70521430630001
 20
96.7870902718
 10
70.72593384539999
 20
96.75727189299999
 10
70.74531344829999
 20
96.72887772160001
 10
70.7634274128
 20
96.7018804585
 10
70.7803702706
 20
96.67621393680001
 10
70.7962241817
 20
96.65182177990001
 10
70.81107629769999
 20
96.62863242420002
 10
70.8250052171
 20
96.60657919360001
 10
70.8380998247
 20
96.5855713422
 10
70.85042138199999
 20
96.56555427370001
 10
70.86209005169999
 20
96.5463671902
 10
70.87309570249999
 20
96.52805502260001
 10
70.88387328399999
 20
96.50990439170001
 10
70.8948670326
 20
96.49115564569999
 10
70.90606409729999
 20
96.47183193970001
 10
70.9177020081
 20
96.4515339144
 10
70.92948176749999
 20
96.4308096315
 10
70.94116438100001
 20
96.410121531
 10
70.952757521
 20
96.3894949175
 10
70.96416817169999
 20
96.36912945780002
  0
LWPOLYLINE
  5
1592
330
211
100
AcDbEntity
  8
0
  6
Continuous
 62
     7
100
AcDbPolyline
 90
        3
 70
     0
 43
0.0
 10
27.79222196760001
 20
98.586878626
 10
27.9457230035
 20
98.5868773814
 10
28.0268367036
 20
98.58687710860001
  0
LWPOLYLINE
  5
1593
330
211
100
AcDbEntity
  8
0
  6
Continuous
 62
     7
100
AcDbPolyline
 90
        3
 70
     0
 43
0.0
 10
66.2088888911
 20
98.58687711420001
 10
66.2921504712
 20
98.5868774539
 10
66.44921093179999
 20
98.586878737
  0
LWPOLYLINE
  5
1594
330
211
100
AcDbEntity
  8
0
  6
Continuous
 62
     7
100
AcDbPolyline
 90
        3
 70
     0
 43
0.0
 10
66.44921093179999
 20
98.586878737
 10
66.52319818699999
 20
98.58687876110002
 10
66.59439294640001
 20
98.58687771280001
  0
LINE
  5
1595
330
211
100
AcDbEntity
  8
0
  6
Continuous
 62
     7
100
AcDbLine
 10
28.0268367036
 20
98.58687710860001
 30
0.0
 11
66.2088888911
 21
98.58687711420001
 31
0.0
  0
LWPOLYLINE
  5
1596
330
211
100
AcDbEntity
  8
0
  6
Continuous
 62
     7
100
AcDbPolyline
 90
        4
 70
     0
 43
0.0
 10
27.5827213268
 20
98.58687635489999
 10
27.6500509699
 20
98.5868781717
 10
27.7197978267
 20
98.58687886280002
 10
27.79222196760001
 20
98.586878626
  0
LWPOLYLINE
  5
1597
330
211
100
AcDbEntity
  8
0
  6
Continuous
 62
     7
100
AcDbPolyline
 90
        4
 70
     0
 43
0.0
 10
66.59439294640001
 20
98.58687771280001
 10
66.7920043232
 20
98.5868725745
 10
66.8524512083
 20
98.58687169180001
 10
66.9659703944
 20
98.58688497500001
  0
LWPOLYLINE
  5
1598
330
211
100
AcDbEntity
  8
0
  6
Continuous
 62
     7
100
AcDbPolyline
 90
        4
 70
     0
 43
0.0
 10
27.1335322942
 20
98.58686457040001
 10
27.232385664
 20
98.5868874482
 10
27.2848806767
 20
98.5868791632
 10
27.5827213268
 20
98.58687635489999
  0
LINE
  5
1599
330
211
100
AcDbEntity
  8
0
  6
Continuous
 62
     7
100
AcDbLine
 10
66.9659703944
 20
98.58688497500001
 30
0.0
 11
67.1199836486
 21
98.58686846370002
 31
0.0
  0
LINE
  5
159A
330
211
100
AcDbEntity
  8
0
  6
Continuous
 62
     7
100
AcDbLine
 10
76.41061579229999
 20
101.5056589794
 30
0.0
 11
17.4106157923
 21
101.5056589794
 31
0.0
  0
LINE
  5
159B
330
211
100
AcDbEntity
  8
0
  6
Continuous
 62
     7
100
AcDbLine
 10
16.9106157923
 20
101.7356930984
 30
0.0
 11
76.91061579229999
 21
101.7356930984
 31
0.0
  0
LWPOLYLINE
  5
159C
330
211
100
AcDbEntity
  8
0
  6
Continuous
 62
     7
100
AcDbPolyline
 90
       87
 70
     0
 43
0.0
 10
64.73135451729999
 20
86.2356930984
 10
64.73265461290001
 20
86.1671982338
 10
64.7365530154
 20
86.09880201500001
 10
64.7430441036
 20
86.0306030543
 10
64.75211856779999
 20
85.9626991957
 10
64.7637634748
 20
85.89518767760001
 10
64.77796199550001
 20
85.82816641289999
 10
64.79469245469999
 20
85.7617365087
 10
64.81393407359999
 20
85.69598132600001
 10
64.8356921353
 20
85.6309057696
 10
64.85985235680001
 20
85.5668428275
 10
64.88621681879999
 20
85.50421474609999
 10
64.9148811996
 20
85.44269329189999
 10
64.9459745508
 20
85.3820214469
 10
64.9793769068
 20
85.3224785863
 10
65.0149957581
 20
85.26423159850001
 10
65.0528099429
 20
85.2073275278
 10
65.09279119689999
 20
85.15182428930001
 10
65.1348557805
 20
85.09785274939998
 10
65.1789135937
 20
85.04553374290001
 10
65.2249102823
 20
84.99492553499999
 10
65.272780152
 20
84.94609819609999
 10
65.3224513814
 20
84.899122119
 10
65.37384985590001
 20
84.85406443989999
 10
65.42690098050001
 20
84.8109871982
 10
65.4815286875
 20
84.76994918930001
 10
65.5376499684
 20
84.73100926169999
 10
65.59517929800001
 20
84.6942228702
 10
65.6540350452
 20
84.6596378165
 10
65.7141340795
 20
84.62729914479998
 10
65.77538593619999
 20
84.59725121439999
 10
65.8376963658
 20
84.5695355358
 10
65.90098465060001
 20
84.54418311579999
 10
65.96516370109999
 20
84.5212249753
 10
66.030154166
 20
84.50068634069999
 10
66.09585904790001
 20
84.48259517370001
 10
66.16224194379999
 20
84.46696198899999
 10
66.229345556
 20
84.45378809270001
 10
66.2968388562
 20
84.44314499029999
 10
66.36423128549999
 20
84.435080563
 10
66.4320202378
 20
84.42951321189999
 10
66.50060136090001
 20
84.42644936399998
 10
66.5698162747
 20
84.42596633799999
 10
66.63983772539999
 20
84.42813964189999
 10
66.71003994649999
 20
84.4330293298
 10
66.77993805109998
 20
84.44061989720001
 10
66.8492715119
 20
84.45088939260001
 10
66.9176201602
 20
84.4637471799
 10
66.9849997721
 20
84.47916358449999
 10
67.05126921770001
 20
84.49707971069999
 10
67.1164852989
 20
84.5174761075
 10
67.18086024760001
 20
84.54042498819999
 10
67.2437702017
 20
84.5656625862
 10
67.30470966359999
 20
84.59289669470001
 10
67.3636796727
 20
84.62198585219999
 10
67.4200597305
 20
84.65244908009999
 10
67.475300002
 20
84.6849586439
 10
67.5307962163
 20
84.72043267149999
 10
67.5856441209
 20
84.75845428680001
 10
67.63975520569999
 20
84.79907385050001
 10
67.692169905
 20
84.84160928660001
 10
67.74218603140001
 20
84.88539267909999
 10
67.78940883449999
 20
84.9298717747
 10
67.8327740954
 20
84.97368967559999
 10
67.874023507
 20
85.0182434515
 10
67.9151328329
 20
85.0656903674
 10
67.95359934210001
 20
85.11317588949999
 10
67.987583302
 20
85.15787464970001
 10
68.0183719528
 20
85.20086994459999
 10
68.0463105363
 20
85.24218809750001
 10
68.07210433849999
 20
85.28250288550001
 10
68.0959916253
 20
85.32190171640001
 10
68.11927482979999
 20
85.3625206357
 10
68.1430957313
 20
85.40675727760001
 10
68.1670908447
 20
85.4545157521
 10
68.19125602239999
 20
85.5065184454
 10
68.21521441059999
 20
85.562823775
 10
68.23889497189999
 20
85.62438651649999
 10
68.26109487710001
 20
85.6892008926
 10
68.2809953937
 20
85.75544681550001
 10
68.29847145069999
 20
85.8229853419
 10
68.3132788523
 20
85.8910043522
 10
68.3254265611
 20
85.9595307826
 10
68.33487423390001
 20
86.02832730440001
 10
68.34162582180001
 20
86.09734884049998
 10
68.34567453560001
 20
86.16650898649998
 10
68.34702525299999
 20
86.2356930984
  0
LINE
  5
159D
330
211
100
AcDbEntity
  8
DEFAULT_1
  6
CENTER
 62
     7
100
AcDbLine
 10
66.53561579229999
 20
86.2356930984
 30
0.0
 11
66.53561579229999
 21
82.77130888810001
 31
0.0
  0
LINE
  5
159E
330
211
100
AcDbEntity
  8
DEFAULT_1
  6
CENTER
 62
     7
100
AcDbLine
 10
66.53561579229999
 20
86.2356930984
 30
0.0
 11
66.53561579229999
 21
89.70007730869999
 31
0.0
  0
LWPOLYLINE
  5
159F
330
211
100
AcDbEntity
  8
0
  6
Continuous
 62
     7
100
AcDbPolyline
 90
       87
 70
     0
 43
0.0
 10
68.34702525299999
 20
86.2356930984
 10
68.3456881463
 20
86.3045281661
 10
68.3416805446
 20
86.37333540690001
 10
68.3349982591
 20
86.44200097569999
 10
68.3256480926
 20
86.51044279899998
 10
68.3136260168
 20
86.5786186897
 10
68.29897126270001
 20
86.64629632299998
 10
68.28171551939999
 20
86.71335629639999
 10
68.26197416789999
 20
86.77944241870001
 10
68.23966068779999
 20
86.84489091409998
 10
68.2156115164
 20
86.90758283479999
 10
68.19096951909999
 20
86.9655104961
 10
68.16594643950001
 20
87.019230379
 10
68.1411726665
 20
87.06830750020001
 10
68.11648823189999
 20
87.1138540669
 10
68.0921892997
 20
87.1559046577
 10
68.0669719418
 20
87.19708290659999
 10
68.0391065289
 20
87.2400773192
 10
68.0089062423
 20
87.28400488149999
 10
67.97620844669999
 20
87.32878010389999
 10
67.94062558100001
 20
87.3745740286
 10
67.9009806112
 20
87.4223993648
 10
67.8592889881
 20
87.4693976408
 10
67.81861131640001
 20
87.512330625
 10
67.7760105187
 20
87.554462104
 10
67.7285229924
 20
87.59828101990001
 10
67.6780255025
 20
87.6415803321
 10
67.6254878297
 20
87.6833357822
 10
67.57136913810001
 20
87.72312330590001
 10
67.5165701316
 20
87.7603260617
 10
67.4611511456
 20
87.7950131793
 10
67.4060090814
 20
87.82678009260001
 10
67.34960369479999
 20
87.8565962877
 10
67.2901873669
 20
87.88523405780001
 10
67.2288019179
 20
87.9119887318
 10
67.165908159
 20
87.93654622940001
 10
67.10169356199999
 20
87.95878358780001
 10
67.03657398989999
 20
87.97851986519999
 10
66.97041353430001
 20
87.9957955899
 10
66.9031578947
 20
88.0105903753
 10
66.834963873
 20
88.0228420032
 10
66.7658236485
 20
88.03252077370002
 10
66.6961850841
 20
88.0395374947
 10
66.6263561583
 20
88.04387414899998
 10
66.5567697611
 20
88.0455286719
 10
66.4880659815
 20
88.0445691975
 10
66.41991630559999
 20
88.04106482669999
 10
66.35221666359999
 20
88.0350535051
 10
66.2849156928
 20
88.02654889000001
 10
66.21785112659999
 20
88.01552641
 10
66.15126149439999
 20
88.0020186189
 10
66.0853186421
 20
87.98606622020001
 10
66.0200490709
 20
87.96768132910001
 10
65.9555076579
 20
87.94687954030001
 10
65.8917821007
 20
87.9236868491
 10
65.828948125
 20
87.8981274518
 10
65.76709459159999
 20
87.87023350540001
 10
65.7063041463
 20
87.84003771100001
 10
65.64666623409999
 20
87.8075801215
 10
65.58826709659999
 20
87.77290328339999
 10
65.53119077479999
 20
87.7360531821
 10
65.47551926689999
 20
87.69707858629999
 10
65.4213350114
 20
87.65603356840001
 10
65.3687183164
 20
87.61297546219999
 10
65.31774503050001
 20
87.56796335649999
 10
65.2684894012
 20
87.52105967940002
 10
65.2210229935
 20
87.47232982920001
 10
65.1754129486
 20
87.4218395265
 10
65.1317317498
 20
87.36966710629998
 10
65.09004136979999
 20
87.315883051
 10
65.0504194045
 20
87.2605956491
 10
65.0129455034
 20
87.2039319337
 10
64.97763635279999
 20
87.1459307327
 10
64.9445401281
 20
87.08668554129998
 10
64.91364289249999
 20
87.02615546030001
 10
64.88491120109999
 20
86.9642189838
 10
64.8585164647
 20
86.9011851395
 10
64.83458257560001
 20
86.8373512658
 10
64.8130874946
 20
86.7726956811
 10
64.79404303379999
 20
86.7072567824
 10
64.77748261069999
 20
86.64114580520001
 10
64.76342982040001
 20
86.57445700149999
 10
64.75190468850001
 20
86.50728546899999
 10
64.74292364490001
 20
86.4397271146
 10
64.73649943419999
 20
86.37187789379998
 10
64.73264121319999
 20
86.30383419799999
 10
64.73135451729999
 20
86.2356930984
  0
LWPOLYLINE
  5
15A0
330
211
100
AcDbEntity
  8
0
  6
Continuous
 62
     7
100
AcDbPolyline
 90
      145
 70
     0
 43
0.0
 10
70.6084940387
 20
86.2356930984
 10
70.6070880618
 20
86.0045229327
 10
70.60300553569999
 20
85.78741731239999
 10
70.59689750149999
 20
85.58478162410001
 10
70.5891556845
 20
85.39537780859999
 10
70.5801041251
 20
85.21830430479999
 10
70.57009102939999
 20
85.05300475850001
 10
70.55936775460001
 20
84.89892292430001
 10
70.5481638464
 20
84.75518116459999
 10
70.53663980499999
 20
84.62094573199999
 10
70.5249466148
 20
84.4955007877
 10
70.5131835357
 20
84.3780419548
 10
70.5014407691
 20
84.2679372563
 10
70.48976804909999
 20
84.16443372569998
 10
70.47822535109999
 20
84.06707575330001
 10
70.46684168590001
 20
83.97528808930001
 10
70.455652463
 20
83.88867815119999
 10
70.4446680493
 20
83.8067557083
 10
70.4339136255
 20
83.72923392629999
 10
70.4233948785
 20
83.65574212050001
 10
70.41312639899999
 20
83.5860380481
 10
70.40310951010001
 20
83.5198282298
 10
70.3933502025
 20
83.4568948232
 10
70.38384086179999
 20
83.3969663365
 10
70.3745907597
 20
83.339907356
 10
70.36559925689999
 20
83.28554482140001
 10
70.35686625069999
 20
83.23372529990001
 10
70.3483858537
 20
83.1842807651
 10
70.3401556044
 20
83.13708814639999
 10
70.33216439819999
 20
83.0919669852
 10
70.32442532489999
 20
83.04891533459999
 10
70.3169342939
 20
83.007835338
 10
70.3097360263
 20
82.96882424160001
 10
70.30292228430001
 20
82.932377472
 10
70.29628602649999
 20
82.8972573605
 10
70.2895956041
 20
82.8621955154
 10
70.28294529850001
 20
82.82782522229998
 10
70.2763890832
 20
82.79423580920001
 10
70.2699637425
 20
82.76164332409999
 10
70.2637371661
 20
82.73038490800001
 10
70.25767619079999
 20
82.70017724659998
 10
70.2518638735
 20
82.6714807077
 10
70.2459398804
 20
82.6424847396
 10
70.2395379542
 20
82.6114163467
 10
70.23271826520001
 20
82.57862316109999
 10
70.22542794340001
 20
82.5439000647
 10
70.2176294662
 20
82.50713401909999
 10
70.20928377229999
 20
82.46820060620001
 10
70.2003367195
 20
82.4269239702
 10
70.1907367558
 20
82.38315058739999
 10
70.1804220252
 20
82.3366917807
 10
70.16933017879999
 20
82.2873745088
 10
70.15739138979999
 20
82.2350071435
 10
70.1445319647
 20
82.17939960770001
 10
70.13067800399999
 20
82.1203805216
 10
70.11575668449999
 20
82.0578021066
 10
70.099664855
 20
81.99141211209999
 10
70.0823043134
 20
81.92100534079999
 10
70.0635517425
 20
81.8463045304
 10
70.0432823908
 20
81.76705946650001
 10
70.0213575346
 20
81.6830012039
 10
69.99763519920001
 20
81.5938857521
 10
69.9719440738
 20
81.49940234289999
 10
69.9441081481
 20
81.3992707036
 10
69.91392769569999
 20
81.293175155
 10
69.88119864729999
 20
81.18084284930001
 10
69.84567289800001
 20
81.06190854579999
 10
69.80709675609999
 20
80.9360522372
 10
69.7651802044
 20
80.80290969329999
 10
69.71890579770001
 20
80.65997764749999
 10
69.67007398609999
 20
80.5134064617
 10
69.61981753259999
 20
80.3667956476
 10
69.56987938240001
 20
80.2250538872
 10
69.5230237209
 20
80.0953914711
 10
69.4782028796
 20
79.97418825549999
 10
69.43523256919999
 20
79.86043205520001
 10
69.39406364789999
 20
79.7535671197
 10
69.3545475256
 20
79.6528490778
 10
69.3166199881
 20
79.55782176479999
 10
69.28015868740001
 20
79.4679269122
 10
69.245156765
 20
79.382915933
 10
69.2115591445
 20
79.30244082939999
 10
69.17932813810001
 20
79.22622308369999
 10
69.14833485289999
 20
79.15381548270001
 10
69.11831241770001
 20
79.0845399657
 10
69.08916433109999
 20
79.01811447819999
 10
69.0615774782
 20
78.95588887249999
 10
69.0358425491
 20
78.8982059493
 10
69.01057614559999
 20
78.84203617139999
 10
68.9846853386
 20
78.7853203951
 10
68.9553408907
 20
78.72333527409999
 10
68.92009560099999
 20
78.65267056479999
 10
68.88007479409999
 20
78.57653245689999
 10
68.83634579489999
 20
78.49830493350001
 10
68.7880868835
 20
78.4173853109
 10
68.7328639372
 20
78.33018592409999
 10
68.6717312179
 20
78.2395518209
 10
68.6054238864
 20
78.14769025770001
 10
68.535063631
 20
78.05663956229999
 10
68.46245785739999
 20
77.96866856220001
 10
68.38705138819999
 20
77.8830210095
 10
68.30884876439999
 20
77.79976408669999
 10
68.2279830037
 20
77.7190601578
 10
68.1446001793
 20
77.6410247
 10
68.0587476039
 20
77.5656990398
 10
67.97049458229999
 20
77.49317815020001
 10
67.87998418079999
 20
77.423570153
 10
67.78732557179999
 20
77.35692779
 10
67.6925611279
 20
77.29329698889999
 10
67.5955469964
 20
77.2326227946
 10
67.4971974005
 20
77.17543425689999
 10
67.3978807674
 20
77.1218413243
 10
67.29903469539999
 20
77.0724655495
 10
67.20181339439999
 20
77.02758431460001
 10
67.1079529102
 20
76.9875769359
 10
67.0200663051
 20
76.9529738799
 10
66.93695920729999
 20
76.922715529
 10
66.8581701767
 20
76.89617574319999
 10
66.78360846060001
 20
76.8729407285
 10
66.713099236
 20
76.85262113729999
 10
66.6463262916
 20
76.8348275245
 10
66.58294419909999
 20
76.8192268329
 10
66.5227822571
 20
76.80556442149999
 10
66.4655958876
 20
76.7936004985
 10
66.41117703829999
 20
76.78313214390001
 10
66.3592384146
 20
76.77396577979999
 10
66.3096626283
 20
76.7659630504
 10
66.26220003979999
 20
76.75898024430001
 10
66.21694042770001
 20
76.7529368063
 10
66.1739425043
 20
76.7477497343
 10
66.13303376970001
 20
76.74331237389999
 10
66.09407892029999
 20
76.7395357597
 10
66.0569240493
 20
76.73634490729999
 10
66.02142042939999
 20
76.73367125189999
 10
65.98777605079999
 20
76.73146821839999
 10
65.9560599947
 20
76.72968893310001
 10
65.9255993548
 20
76.7282493113
 10
65.8959647073
 20
76.7270833389
 10
65.8674981352
 20
76.72622088869999
 10
65.8410209682
 20
76.7256707696
 10
65.81709362009999
 20
76.72533914029999
 10
65.79605238319999
 20
76.72516395399999
 10
65.7764226541
 20
76.7250693687
 10
65.7563306531
 20
76.72499812409999
 10
65.7355905718
 20
76.7249510293
  0
LWPOLYLINE
  5
15A1
330
211
100
AcDbEntity
  8
0
  6
Continuous
 62
     7
100
AcDbPolyline
 90
       30
 70
     0
 43
0.0
 10
72.4242835567
 20
87.34558934350001
 10
72.4195773487
 20
87.3292096125
 10
72.41433887149999
 20
87.30841970590001
 10
72.4093113822
 20
87.2858535115
 10
72.4045023096
 20
87.26157970950001
 10
72.399905258
 20
87.2356152891
 10
72.39551478999999
 20
87.2079746098
 10
72.3913337413
 20
87.17873256009999
 10
72.38736530699999
 20
87.1479646543
 10
72.38360273959999
 20
87.11568044059999
 10
72.3800394535
 20
87.08188404399999
 10
72.3766770557
 20
87.04666558819999
 10
72.37351742520001
 20
87.0101124582
 10
72.3705542724
 20
86.9722337363
 10
72.36778173649999
 20
86.933032619
 10
72.3652001257
 20
86.8926123758
 10
72.3628103625
 20
86.8510707611
 10
72.36060727839999
 20
86.8084241056
 10
72.3585864268
 20
86.76468036850002
 10
72.3567473734
 20
86.71996050290001
 10
72.355090928
 20
86.6743770451
 10
72.35361315289999
 20
86.6279597291
 10
72.3523114811
 20
86.580733309
 10
72.3511848645
 20
86.5328232591
 10
72.35023401380001
 20
86.48434915790002
 10
72.3494565904
 20
86.43535037209998
 10
72.34885185839999
 20
86.38586040819999
 10
72.3484190709
 20
86.33601467610001
 10
72.3481605955
 20
86.2859790777
 10
72.3480730163
 20
86.2356930984
  0
LWPOLYLINE
  5
15A2
330
211
100
AcDbEntity
  8
0
  6
Continuous
 62
     7
100
AcDbPolyline
 90
      111
 70
     0
 43
0.0
 10
72.965473287
 20
86.2356936527
 10
72.9610776689
 20
86.65544956739999
 10
72.947906013
 20
87.0748220361
 10
72.9259828591
 20
87.49352207200001
 10
72.8953134353
 20
87.91164653820001
 10
72.8558722835
 20
88.3293720648
 10
72.80769221619999
 20
88.74618607930001
 10
72.75045346510001
 20
89.1641905368
 10
72.68530457189999
 20
89.5757277581
 10
72.613343
 20
89.97676602469999
 10
72.5368868397
 20
90.35896832659998
 10
72.45962341409999
 20
90.7108298017
 10
72.3816380434
 20
91.03866661389998
 10
72.3036669918
 20
91.3442893676
 10
72.22620539880001
 20
91.62968329939999
 10
72.14953712999999
 20
91.89695772829999
 10
72.07402157279999
 20
92.14746107899999
 10
71.9997890254
 20
92.38289394719998
 10
71.92708957989999
 20
92.60421322010001
 10
71.85600546229998
 20
92.812645358
 10
71.7866919184
 20
93.0089995374
 10
71.71919714259999
 20
93.19422521760001
 10
71.65358854379999
 20
93.3690649713
 10
71.5898452453
 20
93.53436965270001
 10
71.5280141539
 20
93.69070446269999
 10
71.46806401780001
 20
93.838744566
 10
71.41001494699999
 20
93.9789597717
 10
71.3538424476
 20
94.1118663311
 10
71.2995061253
 20
94.2379608527
 10
71.2469040925
 20
94.3578273093
 10
71.19607579140001
 20
94.47168182639998
 10
71.1470286384
 20
94.5797857272
 10
71.0996824496
 20
94.68256393649999
 10
71.0539506021
 20
94.78042136879999
 10
71.00978436680001
 20
94.8736528398
 10
70.9670539416
 20
94.96269850870001
 10
70.92585695050001
 20
95.0475057318
 10
70.8863269218
 20
95.1279454005
 10
70.8482019974
 20
95.20467911389999
 10
70.81120442460001
 20
95.27836803920001
 10
70.77545938490001
 20
95.3488545959
 10
70.74098771600001
 20
95.41619003790001
 10
70.7078161204
 20
95.48041111229998
 10
70.6760392907
 20
95.54141777039999
 10
70.6454529222
 20
95.5996696711
 10
70.6159003465
 20
95.6555154605
 10
70.58728822189999
 20
95.7091782508
 10
70.55936309350001
 20
95.76116276379998
 10
70.5324459813
 20
95.81089745419999
 10
70.5068472277
 20
95.8578895724
 10
70.4824276739
 20
95.9024989583
 10
70.4591688494
 20
95.9448198814
 10
70.43680994359999
 20
95.9852843007
 10
70.41512782779999
 20
96.02418698610001
 10
70.39393028720001
 20
96.0617907433
 10
70.3730470183
 20
96.09832549730001
 10
70.3522243675
 20
96.134063354
 10
70.33129892169999
 20
96.1691455006
 10
70.3098545481
 20
96.20419870090001
 10
70.2875125594
 20
96.2397528009
 10
70.2639540888
 20
96.27626420600002
 10
70.23873502479999
 20
96.31435386280001
 10
70.21171513029999
 20
96.35408091530001
 10
70.1826475905
 20
96.39561855469999
 10
70.151288939
 20
96.43911553870001
 10
70.1173610732
 20
96.48472439270001
 10
70.0806318408
 20
96.53249650479999
 10
70.0407530067
 20
96.5825932591
 10
69.99770787520001
 20
96.634729631
 10
69.9515844972
 20
96.6885094178
 10
69.9017205834
 20
96.74438274439999
 10
69.8476392748
 20
96.8024938819
 10
69.7886630647
 20
96.8631125559
 10
69.72380922100001
 20
96.9266819413
 10
69.65323834909999
 20
96.9924271077
 10
69.57682896119999
 20
97.0598605232
 10
69.49452386029999
 20
97.12844491550001
 10
69.4057041203
 20
97.1980776438
 10
69.312067699
 20
97.2668998325
 10
69.2152124959
 20
97.3334600503
 10
69.11562671129999
 20
97.39730301870002
 10
69.0145968491
 20
97.4575953291
 10
68.91174349499999
 20
97.5146010313
 10
68.80705915810001
 20
97.56832124299998
 10
68.70069186319999
 20
97.61867492120002
 10
68.59275823459999
 20
97.6656048933
 10
68.4833644884
 20
97.70906699850002
 10
68.3726201109
 20
97.74901737770001
 10
68.2606276093
 20
97.7854151856
 10
68.14746694819999
 20
97.818227734
 10
68.0333337519
 20
97.847404196
 10
67.9184876851
 20
97.87289016549999
 10
67.8028081463
 20
97.89469599889999
 10
67.68582012109999
 20
97.9128677427
 10
67.5689050908
 20
97.9272697588
 10
67.45306777839999
 20
97.9378820278
 10
67.33874998080001
 20
97.94456459850001
 10
67.22780730709999
 20
97.94754001930002
 10
67.1181285758
 20
97.9483539521
 10
67.0088461301
 20
97.94840930820001
 10
66.8969155357
 20
97.9482844856
 10
66.77831460260001
 20
97.9482594981
 10
66.65406472189999
 20
97.9483007429
 10
66.52423329770001
 20
97.9483078267
 10
66.3890109107
 20
97.9482909977
 10
66.2485523435
 20
97.9482885614
 10
66.1025865804
 20
97.9482948597
 10
65.9510500106
 20
97.94829549879999
 10
65.7936382993
 20
97.9482926624
 10
65.63006131129999
 20
97.94829231709998
 10
65.4601543791
 20
97.94829375959999
  0
LWPOLYLINE
  5
15A3
330
211
100
AcDbEntity
  8
0
  6
Continuous
 62
     7
100
AcDbPolyline
 90
       39
 70
     0
 43
0.0
 10
72.5651615701
 20
86.2356930984
 10
72.5649554964
 20
86.2847796019
 10
72.56433957449999
 20
86.333714128
 10
72.56331388439999
 20
86.38253392370002
 10
72.56188317430001
 20
86.43110157229999
 10
72.560052261
 20
86.47930866139999
 10
72.5578264249
 20
86.52710432280001
 10
72.5552102174
 20
86.5744393257
 10
72.5522141951
 20
86.62120029879998
 10
72.5488493694
 20
86.66727111700001
 10
72.5451241154
 20
86.7126111968
 10
72.54104585350001
 20
86.7571798093
 10
72.5366311897
 20
86.80086247069999
 10
72.5318971298
 20
86.8435423062
 10
72.5268542732
 20
86.88518763709998
 10
72.5215122008
 20
86.92576461459998
 10
72.51589264989999
 20
86.96516510469999
 10
72.5100175574
 20
87.0032790551
 10
72.50389895659999
 20
87.04008147450002
 10
72.49754799459999
 20
87.0755430448
 10
72.4909897618
 20
87.1095696144
 10
72.4842492037
 20
87.14206556709999
 10
72.47733928009999
 20
87.17300982120001
 10
72.47027216560001
 20
87.20237574349999
 10
72.4630744553
 20
87.2300876101
 10
72.4557723935
 20
87.25606746229999
 10
72.4483788606
 20
87.28029938989999
 10
72.4409067845
 20
87.30275937729999
 10
72.4333803793
 20
87.32339691920001
 10
72.42582361140001
 20
87.34215899330001
 10
72.4182481895
 20
87.35903264740001
 10
72.4106648451
 20
87.3740001468
 10
72.40309763039999
 20
87.38702546809999
 10
72.3955653393
 20
87.39807234030001
 10
72.38809145240001
 20
87.40712661999999
 10
72.3807015478
 20
87.4141594598
 10
72.3734046071
 20
87.41918101180001
 10
72.3662184203
 20
87.42218974149999
 10
72.35913831560001
 20
87.4231930984
  0
LWPOLYLINE
  5
15A4
330
211
100
AcDbEntity
  8
0
  6
Continuous
 62
     7
100
AcDbPolyline
 90
       39
 70
     0
 43
0.0
 10
72.2243665929
 20
86.2356930984
 10
72.2244529201
 20
86.186061206
 10
72.22471008479999
 20
86.1366202964
 10
72.2251405054
 20
86.0873109167
 10
72.22574292649999
 20
86.0382955174
 10
72.22651898390001
 20
85.98969615919999
 10
72.22746895430001
 20
85.9415768702
 10
72.2285954845
 20
85.89400442810001
 10
72.2298976733
 20
85.8470947374
 10
72.23137669499999
 20
85.80097658120001
 10
72.23303473850001
 20
85.7556812414
 10
72.23487529989999
 20
85.7112512537
 10
72.23689822930001
 20
85.66778378850001
 10
72.2391044533
 20
85.6253850406
 10
72.2414980356
 20
85.58407368080001
 10
72.24408392169999
 20
85.54387352739999
 10
72.2468614605
 20
85.50487735909999
 10
72.24983070350001
 20
85.4671834314
 10
72.25299695789999
 20
85.4308024672
 10
72.2563659779
 20
85.39575161690001
 10
72.25993641959999
 20
85.36211177140001
 10
72.26370732159999
 20
85.3299665109
 10
72.26768429919999
 20
85.2993280741
 10
72.27187323939999
 20
85.27021387679999
 10
72.2762714585
 20
85.24269380200001
 10
72.2808766613
 20
85.21683820019999
 10
72.28569326369999
 20
85.19266594479999
 10
72.2907258335
 20
85.17020093220001
 10
72.2959699827
 20
85.149500231
 10
72.3014222149
 20
85.1306203492
 10
72.30708286069999
 20
85.11358925180001
 10
72.31295390879999
 20
85.0984387463
 10
72.31902448220001
 20
85.08521549380001
 10
72.32528603739999
 20
85.07397093199999
 10
72.331730854
 20
85.06472438320001
 10
72.3383517199
 20
85.057508292
 10
72.3451351596
 20
85.05233571959999
 10
72.3520612031
 20
85.04923073529999
 10
72.3576340632
 20
85.04823956699999
  0
LWPOLYLINE
  5
15A5
330
211
100
AcDbEntity
  8
0
  6
Continuous
 62
     7
100
AcDbPolyline
 90
       30
 70
     0
 43
0.0
 10
72.3480730163
 20
86.2356930984
 10
72.3481605137
 20
86.18537992010001
 10
72.34841957739999
 20
86.13529833420001
 10
72.34885336899999
 20
86.08538525959998
 10
72.3494597056
 20
86.03581404939999
 10
72.3502396049
 20
85.9867246399
 10
72.35119361689999
 20
85.9381568112
 10
72.35232417520001
 20
85.8901570249
 10
72.3536303635
 20
85.84284705239999
 10
72.35511318520001
 20
85.7963566841
 10
72.35677502600001
 20
85.7507115085
 10
72.35861967179999
 20
85.70594424380001
 10
72.36064626619999
 20
85.66216537189999
 10
72.3628551795
 20
85.6194945922
 10
72.3652506976
 20
85.5779404569
 10
72.36783786130001
 20
85.53751963339999
 10
72.3706155703
 20
85.4983294256
 10
72.3735833178
 20
85.4604732536
 10
72.3767468602
 20
85.4239528681
 10
72.3801123039
 20
85.3887765968
 10
72.3836777312
 20
85.3550298897
 10
72.3874414621
 20
85.32280087590001
 10
72.3914099065
 20
85.2920930642
 10
72.3955897292
 20
85.26291475129999
 10
72.3999773288
 20
85.23534134260001
 10
72.40456933069999
 20
85.20944847359999
 10
72.40937145699999
 20
85.1852466835
 10
72.41438980579999
 20
85.1627507935
 10
72.41961806489999
 20
85.1420251777
 10
72.4242843869
 20
85.1257982389
  0
LWPOLYLINE
  5
15A6
330
211
100
AcDbEntity
  8
0
  6
Continuous
 62
     7
100
AcDbPolyline
 90
      105
 70
     0
 43
0.0
 10
72.965473287
 20
86.2356936527
 10
72.9610776776
 20
85.81593704499999
 10
72.947906013
 20
85.39656416060001
 10
72.92598285470001
 20
84.97786405560001
 10
72.8953134353
 20
84.5597396586
 10
72.8558722835
 20
84.14201413189999
 10
72.80769221619999
 20
83.72520011749999
 10
72.75045346510001
 20
83.30719566
 10
72.68530457189999
 20
82.89565843869999
 10
72.613343
 20
82.49462017209999
 10
72.5368868397
 20
82.1124178702
 10
72.45962341409999
 20
81.7605563951
 10
72.3816380434
 20
81.4327195829
 10
72.3036669918
 20
81.1270968292
 10
72.22620539880001
 20
80.84170289739999
 10
72.14953712999999
 20
80.57442846849999
 10
72.07402157279999
 20
80.32392511780001
 10
71.9997890254
 20
80.0884922496
 10
71.92708957989999
 20
79.86717297670001
 10
71.85600546229998
 20
79.6587408387
 10
71.7866919184
 20
79.4623866594
 10
71.71919714259999
 20
79.27716097920001
 10
71.65358854379999
 20
79.1023212255
 10
71.5898452453
 20
78.9370165441
 10
71.5280141539
 20
78.78068173409999
 10
71.46806401780001
 20
78.63264163069999
 10
71.41001494699999
 20
78.49242642500001
 10
71.3538424476
 20
78.35951986569999
 10
71.2995061253
 20
78.233425344
 10
71.2469040925
 20
78.1135588875
 10
71.19607579140001
 20
77.99970437039999
 10
71.1470286384
 20
77.89160046960001
 10
71.0996824496
 20
77.78882226029999
 10
71.0539506021
 20
77.69096482800001
 10
71.00978436680001
 20
77.597733357
 10
70.9670539416
 20
77.50868768810001
 10
70.92585695050001
 20
77.42388046489999
 10
70.8863269218
 20
77.3434407963
 10
70.8482019974
 20
77.2667070828
 10
70.81120442460001
 20
77.19301815760001
 10
70.77545938490001
 20
77.1225316009
 10
70.74098771600001
 20
77.05519615890001
 10
70.7078161204
 20
76.99097508449999
 10
70.6760392907
 20
76.92996842640001
 10
70.6454529222
 20
76.8717165257
 10
70.6159003465
 20
76.8158707362
 10
70.58728822189999
 20
76.7622079459
 10
70.55936309350001
 20
76.71022343299999
 10
70.5324459813
 20
76.66048874260001
 10
70.5068472277
 20
76.6134966244
 10
70.4824276739
 20
76.56888723849999
 10
70.4591688494
 20
76.52656631540001
 10
70.43680994359999
 20
76.48610189600001
 10
70.41512782779999
 20
76.44719921069999
 10
70.39393028720001
 20
76.4095954535
 10
70.3730470183
 20
76.3730606995
 10
70.3522243675
 20
76.3373228427
 10
70.33129892169999
 20
76.3022406962
 10
70.3098545481
 20
76.26718749590001
 10
70.2875125594
 20
76.2316333959
 10
70.2639540888
 20
76.1951219908
 10
70.23873502479999
 20
76.15703233399999
 10
70.21171513029999
 20
76.1173052814
 10
70.1826475905
 20
76.0757676421
 10
70.151288939
 20
76.0322706581
 10
70.1173610732
 20
75.98666180409999
 10
70.0806318408
 20
75.938889692
 10
70.0407530067
 20
75.8887929376
 10
69.99770787520001
 20
75.8366565658
 10
69.9515844972
 20
75.78287677899999
 10
69.9017205834
 20
75.7270034524
 10
69.8476392748
 20
75.66889231489999
 10
69.7886630647
 20
75.60827364089999
 10
69.72380922100001
 20
75.5447042554
 10
69.65323834909999
 20
75.478959089
 10
69.57682896119999
 20
75.4115256736
 10
69.49452386029999
 20
75.34294128129999
 10
69.4057041203
 20
75.273308553
 10
69.312067699
 20
75.20448636430001
 10
69.2152124959
 20
75.13792614649999
 10
69.11562671129999
 20
75.07408317810001
 10
69.0145968491
 20
75.0137908677
 10
68.91174349499999
 20
74.9567851654
 10
68.80705915810001
 20
74.90306495369999
 10
68.70069186319999
 20
74.8527112756
 10
68.59275823459999
 20
74.8057813035
 10
68.4833644884
 20
74.7623191983
 10
68.3726201109
 20
74.72236881909999
 10
68.2606276093
 20
74.6859710112
 10
68.14746694819999
 20
74.65315846279999
 10
68.0333337519
 20
74.62398200079999
 10
67.9184876851
 20
74.5984960312
 10
67.8028081463
 20
74.57669019779999
 10
67.68582012109999
 20
74.55851845409999
 10
67.5689050908
 20
74.5441164379
 10
67.45306777839999
 20
74.533504169
 10
67.33874998080001
 20
74.5268215982
 10
67.22780730709999
 20
74.5238461775
 10
67.1181285758
 20
74.5230322447
 10
67.0088461301
 20
74.52297688849999
 10
66.8969155357
 20
74.52310171109999
 10
66.77831460260001
 20
74.52312669859999
 10
66.65406472189999
 20
74.52308545380001
 10
66.52423329770001
 20
74.52307837010001
 10
66.2485523435
 20
74.52309763529999
  0
LWPOLYLINE
  5
15A7
330
211
100
AcDbEntity
  8
0
  6
Continuous
 62
     7
100
AcDbPolyline
 90
       76
 70
     0
 43
0.0
 10
70.9864831404
 20
76.142197517
 10
70.9973578305
 20
76.16171496399999
 10
71.00802425090001
 20
76.1809075526
 10
71.0185400937
 20
76.19987957010001
 10
71.02889312319999
 20
76.21860705759999
 10
71.0392725664
 20
76.23743093659999
 10
71.0498065546
 20
76.2565843216
 10
71.0606524226
 20
76.2763562475
 10
71.071967984
 20
76.29703968529999
 10
71.0838742453
 20
76.3188630766
 10
71.09659322749999
 20
76.342243725
 10
71.10996941829999
 20
76.3669083641
 10
71.12396627879999
 20
76.3928017965
 10
71.1384494584
 20
76.4196869404
 10
71.1532434475
 20
76.4472470792
 10
71.1684425524
 20
76.4756665228
 10
71.1840628259
 20
76.5049853318
 10
71.2001611818
 20
76.53532109459999
 10
71.21678337659999
 20
76.56677229829999
 10
71.2339741529
 20
76.5994375736
 10
71.2517771901
 20
76.6334157272
 10
71.2702354386
 20
76.66880665020001
 10
71.2893906166
 20
76.70571044819999
 10
71.3092837411
 20
76.744228644
 10
71.3299546956
 20
76.7844635256
 10
71.3514414138
 20
76.8265167289
 10
71.3737822066
 20
76.87049403589999
 10
71.3970074244
 20
76.91648914409999
 10
71.42114829029999
 20
76.9646011772
 10
71.44623131649999
 20
77.0149238143
 10
71.472282132
 20
77.06755311939999
 10
71.49932427829999
 20
77.1225854269
 10
71.5273784679
 20
77.18011606320001
 10
71.5564671236
 20
77.24024898649999
 10
71.5865983752
 20
77.3030638962
 10
71.6178223688
 20
77.36873436669999
 10
71.6501679939
 20
77.4373975905
 10
71.683687926
 20
77.5092501549
 10
71.7184231022
 20
77.58447429170001
 10
71.7544127928
 20
77.6632599655
 10
71.79168342859999
 20
77.7457811464
 10
71.83028552319999
 20
77.832278836
 10
71.8702510201
 20
77.92296870449999
 10
71.9116251223
 20
78.0181140584
 10
71.95443427339999
 20
78.11795516300001
 10
71.9987211275
 20
78.22279227109999
 10
72.04450132640001
 20
78.3328869996
 10
72.09182557350001
 20
78.4486138148
 10
72.1407121975
 20
78.57030253169999
 10
72.19119995719999
 20
78.6983714593
 10
72.2432905399
 20
78.83318878309999
 10
72.29701989029999
 20
78.97526109659999
 10
72.3523758121
 20
79.12502719859999
 10
72.4093824273
 20
79.2830907207
 10
72.4680052132
 20
79.4499733266
 10
72.52824814189999
 20
79.6263978993
 10
72.5900411531
 20
79.812981638
 10
72.65336041479999
 20
80.01060819930001
 10
72.7180869789
 20
80.2200217074
 10
72.7841519879
 20
80.44231068329999
 10
72.85136389939999
 20
80.67838004089999
 10
72.91958286229998
 20
80.92958530529999
 10
72.98850659590001
 20
81.19702640209998
 10
73.0578925529
 20
81.48244151810001
 10
73.1272839329
 20
81.78722979859999
 10
73.196251528
 20
82.11357562619999
 10
73.2642219116
 20
82.46395939119999
 10
73.33006370069999
 20
82.8389447764
 10
73.39335840380001
 20
83.24476406210001
 10
73.4504817041
 20
83.6667812437
 10
73.4991436474
 20
84.0920217971
 10
73.5392394766
 20
84.52088790560001
 10
73.5703193752
 20
84.9489667445
 10
73.592526788
 20
85.37755350340001
 10
73.6058559405
 20
85.80653890189999
 10
73.6103001584
 20
86.23569457190001
  0
LWPOLYLINE
  5
15A8
330
211
100
AcDbEntity
  8
0
  6
Continuous
 62
     7
100
AcDbPolyline
 90
       77
 70
     0
 43
0.0
 10
70.96416817169999
 20
96.36912945780002
 10
70.9864831404
 20
96.3291886798
 10
70.9973578305
 20
96.3096712327
 10
71.00802425090001
 20
96.29047864420002
 10
71.0185400937
 20
96.2715066267
 10
71.02889312319999
 20
96.25277913920001
 10
71.0392725664
 20
96.2339552601
 10
71.0498065546
 20
96.21480187510002
 10
71.0606524226
 20
96.19502994920001
 10
71.071967984
 20
96.17434651139999
 10
71.0838742453
 20
96.15252312009999
 10
71.09659322749999
 20
96.1291424718
 10
71.10996941829999
 20
96.1044778327
 10
71.12396627879999
 20
96.07858440020001
 10
71.1384494584
 20
96.0516992564
 10
71.1532434475
 20
96.02413911760001
 10
71.1684425524
 20
95.99571967400001
 10
71.1840628259
 20
95.966400865
 10
71.2001611818
 20
95.93606510219998
 10
71.21678337659999
 20
95.9046138985
 10
71.2339741529
 20
95.8719486232
 10
71.2517771901
 20
95.83797046959999
 10
71.2702354386
 20
95.8025795466
 10
71.2893906166
 20
95.7656757486
 10
71.3092837411
 20
95.7271575528
 10
71.3299546956
 20
95.68692267120001
 10
71.3514414138
 20
95.6448694678
 10
71.3737822066
 20
95.6008921609
 10
71.3970074244
 20
95.5548970527
 10
71.42114829029999
 20
95.50678501950001
 10
71.44623131649999
 20
95.4564623825
 10
71.472282132
 20
95.40383307729999
 10
71.49932427829999
 20
95.34880076989999
 10
71.5273784679
 20
95.29127013360001
 10
71.5564671236
 20
95.2311372103
 10
71.5865983752
 20
95.16832230049999
 10
71.6178223688
 20
95.1026518301
 10
71.6501679939
 20
95.03398860629998
 10
71.683687926
 20
94.96213604190002
 10
71.7184231022
 20
94.88691190510001
 10
71.7544127928
 20
94.80812623129999
 10
71.79168342859999
 20
94.7256050504
 10
71.83028552319999
 20
94.6391073608
 10
71.8702510201
 20
94.54841749229998
 10
71.9116251223
 20
94.4532721384
 10
71.95443427339999
 20
94.3534310337
 10
71.9987211275
 20
94.24859392569999
 10
72.04450132640001
 20
94.13849919719998
 10
72.09182557350001
 20
94.02277238200001
 10
72.1407121975
 20
93.9010836651
 10
72.19119995719999
 20
93.77301473740001
 10
72.2432905399
 20
93.63819741370001
 10
72.29701989029999
 20
93.4961251002
 10
72.3523758121
 20
93.3463589982
 10
72.4093824273
 20
93.1882954761
 10
72.4680052132
 20
93.0214128701
 10
72.52824814189999
 20
92.8449882974
 10
72.5900411531
 20
92.65840455870002
 10
72.65336041479999
 20
92.4607779975
 10
72.7180869789
 20
92.25136448929999
 10
72.7841519879
 20
92.0290755134
 10
72.85136389939999
 20
91.7930061558
 10
72.91958286229998
 20
91.54180089150001
 10
72.98850659590001
 20
91.27435979469998
 10
73.0578925529
 20
90.98894467870001
 10
73.1272839329
 20
90.68415639820001
 10
73.196251528
 20
90.3578105705
 10
73.2642219116
 20
90.00742680549999
 10
73.33006370069999
 20
89.63244142040002
 10
73.39335840380001
 20
89.22662213459998
 10
73.4504817041
 20
88.8046049531
 10
73.4991436474
 20
88.37936439969999
 10
73.5392394766
 20
87.95049829120001
 10
73.5703193866
 20
87.5224192684
 10
73.592526788
 20
87.09383269339999
 10
73.6058559177
 20
86.66484839989999
 10
73.61030015829999
 20
86.23569457190001
  0
LINE
  5
15A9
330
211
100
AcDbEntity
  8
0
  6
Continuous
 62
     7
100
AcDbLine
 10
76.68058167329999
 20
71.64354610450001
 30
0.0
 11
76.68058167329999
 21
101.2356930984
 31
0.0
  0
LINE
  5
15AA
330
211
100
AcDbEntity
  8
0
  6
Continuous
 62
     7
100
AcDbLine
 10
76.91061579229999
 20
70.7356930984
 30
0.0
 11
76.91061579229999
 21
101.7356930984
 31
0.0
  0
CIRCLE
  5
1F15
330
211
100
AcDbEntity
  8
0
  6
Continuous
 62
     7
100
AcDbCircle
 10
66.53561579229999
 20
86.2356930984
 30
0.0
 40
1.448223303199999
  0
ARC
  5
1F16
330
211
100
AcDbEntity
  8
0
  6
Continuous
 62
     7
100
AcDbCircle
 10
17.4106157923
 20
101.2356930984
 30
0.0
 40
0.269965881
100
AcDbArc
 50
90.0
 51
180.0
  0
ARC
  5
1F17
330
211
100
AcDbEntity
  8
0
  6
Continuous
 62
     7
100
AcDbCircle
 10
76.41061579229999
 20
101.2356930984
 30
0.0
 40
0.269965881
100
AcDbArc
 50
0.0
 51
90.0
  0
ARC
  5
1F18
330
211
100
AcDbEntity
  8
0
  6
Continuous
 62
     7
100
AcDbCircle
 10
17.4106157923
 20
101.2356930984
 30
0.0
 40
0.0209172065
100
AcDbArc
 50
90.0
 51
180.0
  0
ENDSEC
  0
SECTION
  2
OBJECTS
  0
DICTIONARY
  5
C
330
0
100
AcDbDictionary
281
     1
  3
ACAD_COLOR
350
1F5F
  3
ACAD_GROUP
350
D
  3
ACAD_LAYOUT
350
1A
  3
ACAD_MATERIAL
350
1F32
  3
ACAD_MLEADERSTYLE
350
1F84
  3
ACAD_MLINESTYLE
350
17
  3
ACAD_PLOTSETTINGS
350
19
  3
ACAD_PLOTSTYLENAME
350
E
  3
ACAD_SCALELIST
350
1F62
  3
ACAD_TABLESTYLE
350
1F60
  3
ACAD_VISUALSTYLE
350
1F4B
  3
ACDB_RECOMPOSE_DATA
350
1F8A
  3
AcDbVariableDictionary
350
1FBC
  3
DWGPROPS
350
32DE
  0
DICTIONARY
  5
1F8B
330
8
100
AcDbDictionary
280
     1
281
     1
  0
DICTIONARY
  5
32B2
330
10
100
AcDbDictionary
280
     1
281
     1
  3
ADSK_XREC_LAYER_RECONCILED
360
32B3
  0
DICTIONARY
  5
32B4
330
1FA
100
AcDbDictionary
280
     1
281
     1
  3
ADSK_XREC_LAYER_RECONCILED
360
32B5
  0
DICTIONARY
  5
32B6
330
1FB
100
AcDbDictionary
280
     1
281
     1
  3
ADSK_XREC_LAYER_RECONCILED
360
32B7
  0
DICTIONARY
  5
32B8
330
1FC
100
AcDbDictionary
280
     1
281
     1
  3
ADSK_XREC_LAYER_RECONCILED
360
32B9
  0
DICTIONARY
  5
32BA
330
1FD
100
AcDbDictionary
280
     1
281
     1
  3
ADSK_XREC_LAYER_RECONCILED
360
32BB
  0
DICTIONARY
  5
32BC
330
1FE
100
AcDbDictionary
280
     1
281
     1
  3
ADSK_XREC_LAYER_RECONCILED
360
32BD
  0
DICTIONARY
  5
32BE
330
1FF
100
AcDbDictionary
280
     1
281
     1
  3
ADSK_XREC_LAYER_RECONCILED
360
32BF
  0
DICTIONARY
  5
32C0
330
200
100
AcDbDictionary
280
     1
281
     1
  3
ADSK_XREC_LAYER_RECONCILED
360
32C1
  0
DICTIONARY
  5
32C2
330
201
100
AcDbDictionary
280
     1
281
     1
  3
ADSK_XREC_LAYER_RECONCILED
360
32C3
  0
DICTIONARY
  5
32C4
330
202
100
AcDbDictionary
280
     1
281
     1
  3
ADSK_XREC_LAYER_RECONCILED
360
32C5
  0
DICTIONARY
  5
32C6
330
203
100
AcDbDictionary
280
     1
281
     1
  3
ADSK_XREC_LAYER_RECONCILED
360
32C7
  0
DICTIONARY
  5
32C8
330
204
100
AcDbDictionary
280
     1
281
     1
  3
ADSK_XREC_LAYER_RECONCILED
360
32C9
  0
DICTIONARY
  5
32CA
330
205
100
AcDbDictionary
280
     1
281
     1
  3
ADSK_XREC_LAYER_RECONCILED
360
32CB
  0
DICTIONARY
  5
32CC
330
206
100
AcDbDictionary
280
     1
281
     1
  3
ADSK_XREC_LAYER_RECONCILED
360
32CD
  0
DICTIONARY
  5
32CE
330
207
100
AcDbDictionary
280
     1
281
     1
  3
ADSK_XREC_LAYER_RECONCILED
360
32CF
  0
DICTIONARY
  5
32D0
330
208
100
AcDbDictionary
280
     1
281
     1
  3
ADSK_XREC_LAYER_RECONCILED
360
32D1
  0
DICTIONARY
  5
1F5F
102
{ACAD_REACTORS
330
C
102
}
330
C
100
AcDbDictionary
281
     1
  0
DICTIONARY
  5
D
102
{ACAD_REACTORS
330
C
102
}
330
C
100
AcDbDictionary
281
     1
  0
DICTIONARY
  5
1A
102
{ACAD_REACTORS
330
C
102
}
330
C
100
AcDbDictionary
281
     1
  3
Layout1
350
1F2E
  3
Model
350
1F2D
  0
DICTIONARY
  5
1F32
102
{ACAD_REACTORS
330
C
102
}
330
C
100
AcDbDictionary
281
     1
  3
ByBlock
350
1F3B
  3
ByLayer
350
1F33
  3
Global
350
1F43
  0
DICTIONARY
  5
1F84
102
{ACAD_REACTORS
330
C
102
}
330
C
100
AcDbDictionary
281
     1
  3
Standard
350
1F85
  0
DICTIONARY
  5
17
102
{ACAD_REACTORS
330
C
102
}
330
C
100
AcDbDictionary
281
     1
  3
Standard
350
18
  0
DICTIONARY
  5
19
102
{ACAD_REACTORS
330
C
102
}
330
C
100
AcDbDictionary
281
     1
  0
ACDBDICTIONARYWDFLT
  5
E
102
{ACAD_REACTORS
330
C
102
}
330
C
100
AcDbDictionary
281
     1
  3
Normal
350
F
100
AcDbDictionaryWithDefault
340
F
  0
DICTIONARY
  5
1F62
102
{ACAD_REACTORS
330
C
102
}
330
C
100
AcDbDictionary
281
     1
  3
A0
350
1F63
  3
A1
350
1F64
  3
A2
350
1F65
  3
A3
350
1F66
  3
A4
350
1F67
  3
A5
350
1F68
  3
A6
350
1F69
  3
A7
350
1F6A
  3
A8
350
1F6B
  3
A9
350
1F6C
  3
B0
350
1F6D
  3
B1
350
1F6E
  3
B2
350
1F6F
  3
B3
350
1F70
  3
B4
350
1F71
  3
B5
350
1F72
  3
B6
350
1F73
  3
B7
350
1F74
  3
B8
350
1F75
  3
B9
350
1F76
  3
C0
350
1F77
  3
C1
350
1F78
  3
C2
350
1F79
  3
C3
350
1F7A
  3
C4
350
1F7B
  3
C5
350
1F7C
  3
C6
350
1F7D
  3
C7
350
1F7E
  3
C8
350
1F7F
  3
C9
350
1F80
  3
D0
350
1F81
  3
D1
350
1F82
  3
D2
350
1F83
  0
DICTIONARY
  5
1F60
102
{ACAD_REACTORS
330
C
102
}
330
C
100
AcDbDictionary
281
     1
  3
Standard
350
1F61
  0
DICTIONARY
  5
1F4B
102
{ACAD_REACTORS
330
C
102
}
330
C
100
AcDbDictionary
281
     1
  3
2dWireframe
350
1F51
  3
3D Hidden
350
1F53
  3
3dWireframe
350
1F52
  3
Basic
350
1F50
  3
Brighten
350
1F57
  3
ColorChange
350
1F5B
  3
Conceptual
350
1F54
  3
Dim
350
1F56
  3
EdgeColorOff
350
1F5E
  3
Facepattern
350
1F5A
  3
Flat
350
1F4C
  3
FlatWithEdges
350
1F4D
  3
Gouraud
350
1F4E
  3
GouraudWithEdges
350
1F4F
  3
JitterOff
350
1F5C
  3
Linepattern
350
1F59
  3
OverhangOff
350
1F5D
  3
Realistic
350
1F55
  3
Thicken
350
1F58
  0
XRECORD
  5
1F8A
102
{ACAD_REACTORS
330
C
102
}
330
C
100
AcDbXrecord
280
     1
 90
        1
330
1F61
  0
DICTIONARY
  5
1FBC
102
{ACAD_REACTORS
330
C
102
}
330
C
100
AcDbDictionary
281
     1
  3
CANNOSCALE
350
1FBF
  3
CMLEADERSTYLE
350
1FBE
  3
CTABLESTYLE
350
1FBD
  3
DIMASSOC
350
1FC2
  3
INDEXCTL
350
1FC1
  3
LAYEREVAL
350
32D5
  3
LAYERNOTIFY
350
32D6
  3
LIGHTINGUNITS
350
32D4
  3
MSLTSCALE
350
32D3
  3
SORTENTS
350
1FC0
  3
XCLIPFRAME
350
1FC3
  0
XRECORD
  5
32DE
102
{ACAD_REACTORS
330
C
102
}
330
C
100
AcDbXrecord
280
     1
  1
DWGPROPS COOKIE
  2

  3

  4

  6

  7

  8
francoisbu
  9

300
=
301
=
302
=
303
=
304
=
305
=
306
=
307
=
308
=
309
=
 40
0.0048930324074074
 41
2456090.309306274
 42
2456090.32361574
  1

 90
        0
  0
XRECORD
  5
32B3
102
{ACAD_REACTORS
330
32B2
102
}
330
32B2
100
AcDbXrecord
280
     1
290
     1
  0
XRECORD
  5
32B5
102
{ACAD_REACTORS
330
32B4
102
}
330
32B4
100
AcDbXrecord
280
     1
290
     1
  0
XRECORD
  5
32B7
102
{ACAD_REACTORS
330
32B6
102
}
330
32B6
100
AcDbXrecord
280
     1
290
     1
  0
XRECORD
  5
32B9
102
{ACAD_REACTORS
330
32B8
102
}
330
32B8
100
AcDbXrecord
280
     1
290
     1
  0
XRECORD
  5
32BB
102
{ACAD_REACTORS
330
32BA
102
}
330
32BA
100
AcDbXrecord
280
     1
290
     1
  0
XRECORD
  5
32BD
102
{ACAD_REACTORS
330
32BC
102
}
330
32BC
100
AcDbXrecord
280
     1
290
     1
  0
XRECORD
  5
32BF
102
{ACAD_REACTORS
330
32BE
102
}
330
32BE
100
AcDbXrecord
280
     1
290
     1
  0
XRECORD
  5
32C1
102
{ACAD_REACTORS
330
32C0
102
}
330
32C0
100
AcDbXrecord
280
     1
290
     1
  0
XRECORD
  5
32C3
102
{ACAD_REACTORS
330
32C2
102
}
330
32C2
100
AcDbXrecord
280
     1
290
     1
  0
XRECORD
  5
32C5
102
{ACAD_REACTORS
330
32C4
102
}
330
32C4
100
AcDbXrecord
280
     1
290
     1
  0
XRECORD
  5
32C7
102
{ACAD_REACTORS
330
32C6
102
}
330
32C6
100
AcDbXrecord
280
     1
290
     1
  0
XRECORD
  5
32C9
102
{ACAD_REACTORS
330
32C8
102
}
330
32C8
100
AcDbXrecord
280
     1
290
     1
  0
XRECORD
  5
32CB
102
{ACAD_REACTORS
330
32CA
102
}
330
32CA
100
AcDbXrecord
280
     1
290
     1
  0
XRECORD
  5
32CD
102
{ACAD_REACTORS
330
32CC
102
}
330
32CC
100
AcDbXrecord
280
     1
290
     1
  0
XRECORD
  5
32CF
102
{ACAD_REACTORS
330
32CE
102
}
330
32CE
100
AcDbXrecord
280
     1
290
     1
  0
XRECORD
  5
32D1
102
{ACAD_REACTORS
330
32D0
102
}
330
32D0
100
AcDbXrecord
280
     1
290
     1
  0
LAYOUT
  5
1F2E
102
{ACAD_XDICTIONARY
360
32E1
102
}
102
{ACAD_REACTORS
330
1A
102
}
330
1A
100
AcDbPlotSettings
  1

  2
none_device
  4
ANSI_B_(17.00_x_11.00_Inches)
  6

 40
0.0
 41
0.0
 42
0.0
 43
0.0
 44
431.8
 45
279.4
 46
0.0
 47
0.0
 48
0.0
 49
0.0
140
0.0
141
0.0
142
1.0
143
1.0
 70
     0
 72
     0
 73
     0
 74
     0
  7

 75
     0
147
1.0
148
0.0
149
0.0
100
AcDbLayout
  1
Layout1
 70
     1
 71
     1
 10
0.0
 20
0.0
 11
12.0
 21
9.0
 12
0.0
 22
0.0
 32
0.0
 14
1.000000000000000E+20
 24
1.000000000000000E+20
 34
1.000000000000000E+20
 15
-1.000000000000000E+20
 25
-1.000000000000000E+20
 35
-1.000000000000000E+20
146
0.0
 13
0.0
 23
0.0
 33
0.0
 16
1.0
 26
0.0
 36
0.0
 17
0.0
 27
1.0
 37
0.0
 76
     0
330
212
  0
LAYOUT
  5
1F2D
102
{ACAD_XDICTIONARY
360
32DF
102
}
102
{ACAD_REACTORS
330
1A
102
}
330
1A
100
AcDbPlotSettings
  1

  2
none_device
  4
ANSI_B_(17.00_x_11.00_Inches)
  6

 40
0.0
 41
0.0
 42
0.0
 43
0.0
 44
431.8
 45
279.4
 46
0.0
 47
0.0
 48
0.0
 49
0.0
140
0.0
141
0.0
142
1.0
143
1.0
 70
  1024
 72
     0
 73
     0
 74
     0
  7

 75
     0
147
1.0
148
0.0
149
0.0
100
AcDbLayout
  1
Model
 70
     0
 71
     0
 10
0.0
 20
0.0
 11
17.0
 21
11.0
 12
0.0
 22
0.0
 32
0.0
 14
0.0
 24
0.0
 34
0.0
 15
0.0
 25
0.0
 35
0.0
146
0.0
 13
0.0
 23
0.0
 33
0.0
 16
1.0
 26
0.0
 36
0.0
 17
0.0
 27
1.0
 37
0.0
 76
     0
330
211
331
1F4
  0
MATERIAL
  5
1F3B
102
{ACAD_XDICTIONARY
360
1F3C
102
}
102
{ACAD_REACTORS
330
1F32
102
}
330
1F32
100
AcDbMaterial
  1
ByBlock
 72
     0
 43
0.0208333333333333
 43
0.0
 43
0.0
 43
0.0
 43
0.0
 43
0.0208333333333333
 43
0.0
 43
0.0
 43
0.0
 43
0.0
 43
1.0
 43
0.0
 43
0.0
 43
0.0
 43
0.0
 43
1.0
 77
     0
 47
0.0208333333333333
 47
0.0
 47
0.0
 47
0.0
 47
0.0
 47
0.0208333333333333
 47
0.0
 47
0.0
 47
0.0
 47
0.0
 47
1.0
 47
0.0
 47
0.0
 47
0.0
 47
0.0
 47
1.0
171
     0
 49
0.0208333333333333
 49
0.0
 49
0.0
 49
0.0
 49
0.0
 49
0.0208333333333333
 49
0.0
 49
0.0
 49
0.0
 49
0.0
 49
1.0
 49
0.0
 49
0.0
 49
0.0
 49
0.0
 49
1.0
175
     0
142
0.0208333333333333
142
0.0
142
0.0
142
0.0
142
0.0
142
0.0208333333333333
142
0.0
142
0.0
142
0.0
142
0.0
142
1.0
142
0.0
142
0.0
142
0.0
142
0.0
142
1.0
179
     0
144
0.0208333333333333
144
0.0
144
0.0
144
0.0
144
0.0
144
0.0208333333333333
144
0.0
144
0.0
144
0.0
144
0.0
144
1.0
144
0.0
144
0.0
144
0.0
144
0.0
144
1.0
147
0.0208333333333333
147
0.0
147
0.0
147
0.0
147
0.0
147
0.0208333333333333
147
0.0
147
0.0
147
0.0
147
0.0
147
1.0
147
0.0
147
0.0
147
0.0
147
0.0
147
1.0
  0
MATERIAL
  5
1F33
102
{ACAD_XDICTIONARY
360
1F34
102
}
102
{ACAD_REACTORS
330
1F32
102
}
330
1F32
100
AcDbMaterial
  1
ByLayer
 72
     0
 43
0.0208333333333333
 43
0.0
 43
0.0
 43
0.0
 43
0.0
 43
0.0208333333333333
 43
0.0
 43
0.0
 43
0.0
 43
0.0
 43
1.0
 43
0.0
 43
0.0
 43
0.0
 43
0.0
 43
1.0
 77
     0
 47
0.0208333333333333
 47
0.0
 47
0.0
 47
0.0
 47
0.0
 47
0.0208333333333333
 47
0.0
 47
0.0
 47
0.0
 47
0.0
 47
1.0
 47
0.0
 47
0.0
 47
0.0
 47
0.0
 47
1.0
171
     0
 49
0.0208333333333333
 49
0.0
 49
0.0
 49
0.0
 49
0.0
 49
0.0208333333333333
 49
0.0
 49
0.0
 49
0.0
 49
0.0
 49
1.0
 49
0.0
 49
0.0
 49
0.0
 49
0.0
 49
1.0
175
     0
142
0.0208333333333333
142
0.0
142
0.0
142
0.0
142
0.0
142
0.0208333333333333
142
0.0
142
0.0
142
0.0
142
0.0
142
1.0
142
0.0
142
0.0
142
0.0
142
0.0
142
1.0
179
     0
144
0.0208333333333333
144
0.0
144
0.0
144
0.0
144
0.0
144
0.0208333333333333
144
0.0
144
0.0
144
0.0
144
0.0
144
1.0
144
0.0
144
0.0
144
0.0
144
0.0
144
1.0
147
0.0208333333333333
147
0.0
147
0.0
147
0.0
147
0.0
147
0.0208333333333333
147
0.0
147
0.0
147
0.0
147
0.0
147
1.0
147
0.0
147
0.0
147
0.0
147
0.0
147
1.0
  0
MATERIAL
  5
1F43
102
{ACAD_XDICTIONARY
360
1F44
102
}
102
{ACAD_REACTORS
330
1F32
102
}
330
1F32
100
AcDbMaterial
  1
Global
 72
     0
 43
0.0208333333333333
 43
0.0
 43
0.0
 43
0.0
 43
0.0
 43
0.0208333333333333
 43
0.0
 43
0.0
 43
0.0
 43
0.0
 43
1.0
 43
0.0
 43
0.0
 43
0.0
 43
0.0
 43
1.0
 77
     0
 47
0.0208333333333333
 47
0.0
 47
0.0
 47
0.0
 47
0.0
 47
0.0208333333333333
 47
0.0
 47
0.0
 47
0.0
 47
0.0
 47
1.0
 47
0.0
 47
0.0
 47
0.0
 47
0.0
 47
1.0
171
     0
 49
0.0208333333333333
 49
0.0
 49
0.0
 49
0.0
 49
0.0
 49
0.0208333333333333
 49
0.0
 49
0.0
 49
0.0
 49
0.0
 49
1.0
 49
0.0
 49
0.0
 49
0.0
 49
0.0
 49
1.0
175
     0
142
0.0208333333333333
142
0.0
142
0.0
142
0.0
142
0.0
142
0.0208333333333333
142
0.0
142
0.0
142
0.0
142
0.0
142
1.0
142
0.0
142
0.0
142
0.0
142
0.0
142
1.0
179
     0
144
0.0208333333333333
144
0.0
144
0.0
144
0.0
144
0.0
144
0.0208333333333333
144
0.0
144
0.0
144
0.0
144
0.0
144
1.0
144
0.0
144
0.0
144
0.0
144
0.0
144
1.0
147
0.0208333333333333
147
0.0
147
0.0
147
0.0
147
0.0
147
0.0208333333333333
147
0.0
147
0.0
147
0.0
147
0.0
147
1.0
147
0.0
147
0.0
147
0.0
147
0.0
147
1.0
  0
MLEADERSTYLE
  5
1F85
102
{ACAD_REACTORS
330
1F84
102
}
330
1F84
100
AcDbMLeaderStyle
170
     2
171
     1
172
     0
 90
        2
 40
0.0
 41
0.0
173
     1
 91
-1056964608
340
14
 92
       -2
290
     1
 42
0.09
291
     1
 43
0.36
  3
Standard
 44
0.18
300

342
11
174
     1
178
     6
175
     1
176
     0
 93
-1056964608
 45
0.18
292
     0
297
     0
 46
0.18
 94
-1056964608
 47
1.0
 49
1.0
140
1.0
293
     1
141
0.0
294
     1
177
     0
142
1.0
295
     0
296
     0
143
0.125
1001
ACAD_MLEADERVER
1070
     2
  0
MLINESTYLE
  5
18
102
{ACAD_REACTORS
330
17
102
}
330
17
100
AcDbMlineStyle
  2
STANDARD
 70
     0
  3

 62
   256
 51
90.0
 52
90.0
 71
     2
 49
0.5
 62
   256
  6
BYLAYER
 49
-0.5
 62
   256
  6
BYLAYER
  0
ACDBPLACEHOLDER
  5
F
102
{ACAD_REACTORS
330
E
102
}
330
E
  0
SCALE
  5
1F63
102
{ACAD_REACTORS
330
1F62
102
}
330
1F62
100
AcDbScale
 70
     0
300
1:1
140
1.0
141
1.0
290
     1
  0
SCALE
  5
1F64
102
{ACAD_REACTORS
330
1F62
102
}
330
1F62
100
AcDbScale
 70
     0
300
1:2
140
1.0
141
2.0
290
     0
  0
SCALE
  5
1F65
102
{ACAD_REACTORS
330
1F62
102
}
330
1F62
100
AcDbScale
 70
     0
300
1:4
140
1.0
141
4.0
290
     0
  0
SCALE
  5
1F66
102
{ACAD_REACTORS
330
1F62
102
}
330
1F62
100
AcDbScale
 70
     0
300
1:5
140
1.0
141
5.0
290
     0
  0
SCALE
  5
1F67
102
{ACAD_REACTORS
330
1F62
102
}
330
1F62
100
AcDbScale
 70
     0
300
1:8
140
1.0
141
8.0
290
     0
  0
SCALE
  5
1F68
102
{ACAD_REACTORS
330
1F62
102
}
330
1F62
100
AcDbScale
 70
     0
300
1:10
140
1.0
141
10.0
290
     0
  0
SCALE
  5
1F69
102
{ACAD_REACTORS
330
1F62
102
}
330
1F62
100
AcDbScale
 70
     0
300
1:16
140
1.0
141
16.0
290
     0
  0
SCALE
  5
1F6A
102
{ACAD_REACTORS
330
1F62
102
}
330
1F62
100
AcDbScale
 70
     0
300
1:20
140
1.0
141
20.0
290
     0
  0
SCALE
  5
1F6B
102
{ACAD_REACTORS
330
1F62
102
}
330
1F62
100
AcDbScale
 70
     0
300
1:30
140
1.0
141
30.0
290
     0
  0
SCALE
  5
1F6C
102
{ACAD_REACTORS
330
1F62
102
}
330
1F62
100
AcDbScale
 70
     0
300
1:40
140
1.0
141
40.0
290
     0
  0
SCALE
  5
1F6D
102
{ACAD_REACTORS
330
1F62
102
}
330
1F62
100
AcDbScale
 70
     0
300
1:50
140
1.0
141
50.0
290
     0
  0
SCALE
  5
1F6E
102
{ACAD_REACTORS
330
1F62
102
}
330
1F62
100
AcDbScale
 70
     0
300
1:100
140
1.0
141
100.0
290
     0
  0
SCALE
  5
1F6F
102
{ACAD_REACTORS
330
1F62
102
}
330
1F62
100
AcDbScale
 70
     0
300
2:1
140
2.0
141
1.0
290
     0
  0
SCALE
  5
1F70
102
{ACAD_REACTORS
330
1F62
102
}
330
1F62
100
AcDbScale
 70
     0
300
4:1
140
4.0
141
1.0
290
     0
  0
SCALE
  5
1F71
102
{ACAD_REACTORS
330
1F62
102
}
330
1F62
100
AcDbScale
 70
     0
300
8:1
140
8.0
141
1.0
290
     0
  0
SCALE
  5
1F72
102
{ACAD_REACTORS
330
1F62
102
}
330
1F62
100
AcDbScale
 70
     0
300
10:1
140
10.0
141
1.0
290
     0
  0
SCALE
  5
1F73
102
{ACAD_REACTORS
330
1F62
102
}
330
1F62
100
AcDbScale
 70
     0
300
100:1
140
100.0
141
1.0
290
     0
  0
SCALE
  5
1F74
102
{ACAD_REACTORS
330
1F62
102
}
330
1F62
100
AcDbScale
 70
     0
300
1/128" = 1'-0"
140
0.0078125
141
12.0
290
     0
  0
SCALE
  5
1F75
102
{ACAD_REACTORS
330
1F62
102
}
330
1F62
100
AcDbScale
 70
     0
300
1/64" = 1'-0"
140
0.015625
141
12.0
290
     0
  0
SCALE
  5
1F76
102
{ACAD_REACTORS
330
1F62
102
}
330
1F62
100
AcDbScale
 70
     0
300
1/32" = 1'-0"
140
0.03125
141
12.0
290
     0
  0
SCALE
  5
1F77
102
{ACAD_REACTORS
330
1F62
102
}
330
1F62
100
AcDbScale
 70
     0
300
1/16" = 1'-0"
140
0.0625
141
12.0
290
     0
  0
SCALE
  5
1F78
102
{ACAD_REACTORS
330
1F62
102
}
330
1F62
100
AcDbScale
 70
     0
300
3/32" = 1'-0"
140
0.09375
141
12.0
290
     0
  0
SCALE
  5
1F79
102
{ACAD_REACTORS
330
1F62
102
}
330
1F62
100
AcDbScale
 70
     0
300
1/8" = 1'-0"
140
0.125
141
12.0
290
     0
  0
SCALE
  5
1F7A
102
{ACAD_REACTORS
330
1F62
102
}
330
1F62
100
AcDbScale
 70
     0
300
3/16" = 1'-0"
140
0.1875
141
12.0
290
     0
  0
SCALE
  5
1F7B
102
{ACAD_REACTORS
330
1F62
102
}
330
1F62
100
AcDbScale
 70
     0
300
1/4" = 1'-0"
140
0.25
141
12.0
290
     0
  0
SCALE
  5
1F7C
102
{ACAD_REACTORS
330
1F62
102
}
330
1F62
100
AcDbScale
 70
     0
300
3/8" = 1'-0"
140
0.375
141
12.0
290
     0
  0
SCALE
  5
1F7D
102
{ACAD_REACTORS
330
1F62
102
}
330
1F62
100
AcDbScale
 70
     0
300
1/2" = 1'-0"
140
0.5
141
12.0
290
     0
  0
SCALE
  5
1F7E
102
{ACAD_REACTORS
330
1F62
102
}
330
1F62
100
AcDbScale
 70
     0
300
3/4" = 1'-0"
140
0.75
141
12.0
290
     0
  0
SCALE
  5
1F7F
102
{ACAD_REACTORS
330
1F62
102
}
330
1F62
100
AcDbScale
 70
     0
300
1" = 1'-0"
140
1.0
141
12.0
290
     0
  0
SCALE
  5
1F80
102
{ACAD_REACTORS
330
1F62
102
}
330
1F62
100
AcDbScale
 70
     0
300
1-1/2" = 1'-0"
140
1.5
141
12.0
290
     0
  0
SCALE
  5
1F81
102
{ACAD_REACTORS
330
1F62
102
}
330
1F62
100
AcDbScale
 70
     0
300
3" = 1'-0"
140
3.0
141
12.0
290
     0
  0
SCALE
  5
1F82
102
{ACAD_REACTORS
330
1F62
102
}
330
1F62
100
AcDbScale
 70
     0
300
6" = 1'-0"
140
6.0
141
12.0
290
     0
  0
SCALE
  5
1F83
102
{ACAD_REACTORS
330
1F62
102
}
330
1F62
100
AcDbScale
 70
     0
300
1'-0" = 1'-0"
140
12.0
141
12.0
290
     0
  0
TABLESTYLE
  5
1F61
102
{ACAD_XDICTIONARY
360
1F88
102
}
102
{ACAD_REACTORS
330
1F60
102
}
330
1F60
100
AcDbTableStyle
  3
Standard
 70
     0
 71
     0
 40
0.06
 41
0.06
280
     0
281
     0
  7
STANDARD
140
0.18
170
     2
 62
     0
 63
     7
283
     0
274
    -2
284
     1
 64
     0
275
    -2
285
     1
 65
     0
276
    -2
286
     1
 66
     0
277
    -2
287
     1
 67
     0
278
    -2
288
     1
 68
     0
279
    -2
289
     1
 69
     0
  7
STANDARD
140
0.25
170
     5
 62
     0
 63
     7
283
     0
274
    -2
284
     1
 64
     0
275
    -2
285
     1
 65
     0
276
    -2
286
     1
 66
     0
277
    -2
287
     1
 67
     0
278
    -2
288
     1
 68
     0
279
    -2
289
     1
 69
     0
  7
STANDARD
140
0.18
170
     5
 62
     0
 63
     7
283
     0
274
    -2
284
     1
 64
     0
275
    -2
285
     1
 65
     0
276
    -2
286
     1
 66
     0
277
    -2
287
     1
 67
     0
278
    -2
288
     1
 68
     0
279
    -2
289
     1
 69
     0
  0
VISUALSTYLE
  5
1F51
102
{ACAD_XDICTIONARY
360
1F9E
102
}
102
{ACAD_REACTORS
330
1F4B
102
}
330
1F4B
100
AcDbVisualStyle
  2
2dWireframe
 70
     4
 71
     0
 72
     2
 73
     0
 90
        0
 40
-0.6
 41
-30.0
 62
     5
 63
     7
 74
     1
 91
        4
 64
     7
 65
   257
 75
     1
175
     1
 42
1.0
 92
        0
 66
   257
 43
1.0
 76
     1
 77
     6
 78
     2
 67
     7
 79
     5
170
     0
171
     0
290
     0
174
     0
 93
        1
 44
0.0
173
     0
291
     0
 45
0.0
1001
ACAD
1000
AcDbSavedByObjectVersion
1070
     0
  0
VISUALSTYLE
  5
1F53
102
{ACAD_XDICTIONARY
360
1FA2
102
}
102
{ACAD_REACTORS
330
1F4B
102
}
330
1F4B
100
AcDbVisualStyle
  2
3D Hidden
 70
     6
 71
     1
 72
     2
 73
     2
 90
        0
 40
-0.6
 41
-30.0
 62
     5
 63
     7
 74
     2
 91
        2
 64
     7
 65
   257
 75
     2
175
     1
 42
179.0
 92
        0
 66
   257
 43
1.0
 76
     1
 77
     6
 78
     2
 67
     7
 79
     3
170
     0
171
     0
290
     0
174
     0
 93
        1
 44
0.0
173
     0
291
     0
 45
0.0
1001
ACAD
1000
AcDbSavedByObjectVersion
1070
     0
  0
VISUALSTYLE
  5
1F52
102
{ACAD_XDICTIONARY
360
1FA0
102
}
102
{ACAD_REACTORS
330
1F4B
102
}
330
1F4B
100
AcDbVisualStyle
  2
3dWireframe
 70
     5
 71
     0
 72
     2
 73
     0
 90
        0
 40
-0.6
 41
-30.0
 62
     5
 63
     7
 74
     1
 91
        4
 64
     7
 65
   257
 75
     1
175
     1
 42
1.0
 92
        0
 66
   257
 43
1.0
 76
     1
 77
     6
 78
     2
 67
     7
 79
     5
170
     0
171
     0
290
     0
174
     0
 93
        1
 44
0.0
173
     0
291
     0
 45
0.0
1001
ACAD
1000
AcDbSavedByObjectVersion
1070
     0
  0
VISUALSTYLE
  5
1F50
102
{ACAD_XDICTIONARY
360
1F9C
102
}
102
{ACAD_REACTORS
330
1F4B
102
}
330
1F4B
100
AcDbVisualStyle
  2
Basic
 70
     7
 71
     1
 72
     0
 73
     1
 90
        0
 40
-0.6
 41
-30.0
 62
     5
 63
     7
 74
     0
 91
        4
 64
     7
 65
   257
 75
     1
175
     1
 42
1.0
 92
        8
 66
     7
 43
1.0
 76
     1
 77
     6
 78
     2
 67
     7
 79
     5
170
     0
171
     0
290
     0
174
     0
 93
        1
 44
0.0
173
     0
291
     1
 45
0.0
1001
ACAD
1000
AcDbSavedByObjectVersion
1070
     0
  0
VISUALSTYLE
  5
1F57
102
{ACAD_XDICTIONARY
360
1FAA
102
}
102
{ACAD_REACTORS
330
1F4B
102
}
330
1F4B
100
AcDbVisualStyle
  2
Brighten
 70
    12
 71
     2
 72
     2
 73
     0
 90
        0
 40
-0.6
 41
-30.0
 62
     5
 63
     7
 74
     1
 91
        4
 64
     7
 65
   257
 75
     1
175
     1
 42
1.0
 92
        8
 66
     7
 43
1.0
 76
     1
 77
     6
 78
     2
 67
     7
 79
     5
170
     0
171
     0
290
     0
174
     0
 93
        1
 44
50.0
173
     0
291
     1
 45
0.0
1001
ACAD
1000
AcDbSavedByObjectVersion
1070
     0
  0
VISUALSTYLE
  5
1F5B
102
{ACAD_XDICTIONARY
360
1FB2
102
}
102
{ACAD_REACTORS
330
1F4B
102
}
330
1F4B
100
AcDbVisualStyle
  2
ColorChange
 70
    16
 71
     2
 72
     2
 73
     3
 90
        0
 40
-0.6
 41
-30.0
 62
     5
 63
     8
 74
     1
 91
        4
 64
     7
 65
   257
 75
     1
175
     1
 42
1.0
 92
        8
 66
     8
 43
1.0
 76
     1
 77
     6
 78
     2
 67
     7
 79
     5
170
     0
171
     0
290
     0
174
     0
 93
        1
 44
0.0
173
     0
291
     1
 45
0.0
1001
ACAD
1000
AcDbSavedByObjectVersion
1070
     0
  0
VISUALSTYLE
  5
1F54
102
{ACAD_XDICTIONARY
360
1FA4
102
}
102
{ACAD_REACTORS
330
1F4B
102
}
330
1F4B
100
AcDbVisualStyle
  2
Conceptual
 70
     9
 71
     3
 72
     2
 73
     0
 90
        0
 40
-0.6
 41
-30.0
 62
     5
 63
     7
 74
     2
 91
        2
 64
     7
 65
   257
 75
     1
175
     1
 42
179.0
 92
        8
 66
     7
 43
1.0
 76
     1
 77
     6
 78
     2
 67
     7
 79
     3
170
     0
171
     0
290
     0
174
     0
 93
        1
 44
0.0
173
     0
291
     0
 45
0.0
1001
ACAD
1000
AcDbSavedByObjectVersion
1070
     0
  0
VISUALSTYLE
  5
1F56
102
{ACAD_XDICTIONARY
360
1FA8
102
}
102
{ACAD_REACTORS
330
1F4B
102
}
330
1F4B
100
AcDbVisualStyle
  2
Dim
 70
    11
 71
     2
 72
     2
 73
     0
 90
        0
 40
-0.6
 41
-30.0
 62
     5
 63
     7
 74
     1
 91
        4
 64
     7
 65
   257
 75
     1
175
     1
 42
1.0
 92
        8
 66
     7
 43
1.0
 76
     1
 77
     6
 78
     2
 67
     7
 79
     5
170
     0
171
     0
290
     0
174
     0
 93
        1
 44
-50.0
173
     0
291
     1
 45
0.0
1001
ACAD
1000
AcDbSavedByObjectVersion
1070
     0
  0
VISUALSTYLE
  5
1F5E
102
{ACAD_XDICTIONARY
360
1FB8
102
}
102
{ACAD_REACTORS
330
1F4B
102
}
330
1F4B
100
AcDbVisualStyle
  2
EdgeColorOff
 70
    22
 71
     2
 72
     2
 73
     0
 90
        0
 40
-0.6
 41
-30.0
 62
     5
 63
     7
 74
     1
 91
        4
 64
     7
 65
   257
 75
     1
175
     1
 42
1.0
 92
        8
 66
     7
 43
1.0
 76
     1
 77
     6
 78
     2
 67
     7
 79
     5
170
     0
171
     0
290
     0
174
     0
 93
        1
 44
0.0
173
     0
291
     1
 45
0.0
1001
ACAD
1000
AcDbSavedByObjectVersion
1070
     0
  0
VISUALSTYLE
  5
1F5A
102
{ACAD_XDICTIONARY
360
1FB0
102
}
102
{ACAD_REACTORS
330
1F4B
102
}
330
1F4B
100
AcDbVisualStyle
  2
Facepattern
 70
    15
 71
     2
 72
     2
 73
     0
 90
        0
 40
-0.6
 41
-30.0
 62
     5
 63
     7
 74
     1
 91
        4
 64
     7
 65
   257
 75
     1
175
     1
 42
1.0
 92
        8
 66
     7
 43
1.0
 76
     1
 77
     6
 78
     2
 67
     7
 79
     5
170
     0
171
     0
290
     0
174
     0
 93
        1
 44
0.0
173
     0
291
     1
 45
0.0
1001
ACAD
1000
AcDbSavedByObjectVersion
1070
     0
  0
VISUALSTYLE
  5
1F4C
102
{ACAD_XDICTIONARY
360
1F94
102
}
102
{ACAD_REACTORS
330
1F4B
102
}
330
1F4B
100
AcDbVisualStyle
  2
Flat
 70
     0
 71
     2
 72
     1
 73
     1
 90
        2
 40
-0.6
 41
30.0
 62
     5
 63
     7
 74
     0
 91
        4
 64
     7
 65
   257
 75
     1
175
     1
 42
1.0
 92
        8
 66
     7
 43
1.0
 76
     1
 77
     6
 78
     2
 67
     7
 79
     5
170
     0
171
     0
290
     0
174
     0
 93
       13
 44
0.0
173
     0
291
     1
 45
0.0
1001
ACAD
1000
AcDbSavedByObjectVersion
1070
     0
  0
VISUALSTYLE
  5
1F4D
102
{ACAD_XDICTIONARY
360
1F96
102
}
102
{ACAD_REACTORS
330
1F4B
102
}
330
1F4B
100
AcDbVisualStyle
  2
FlatWithEdges
 70
     1
 71
     2
 72
     1
 73
     1
 90
        2
 40
-0.6
 41
30.0
 62
     5
 63
     7
 74
     1
 91
        4
 64
     7
 65
   257
 75
     1
175
     1
 42
1.0
 92
        0
 66
   257
 43
1.0
 76
     1
 77
     6
 78
     2
 67
     7
 79
     5
170
     0
171
     0
290
     0
174
     0
 93
       13
 44
0.0
173
     0
291
     1
 45
0.0
1001
ACAD
1000
AcDbSavedByObjectVersion
1070
     0
  0
VISUALSTYLE
  5
1F4E
102
{ACAD_XDICTIONARY
360
1F98
102
}
102
{ACAD_REACTORS
330
1F4B
102
}
330
1F4B
100
AcDbVisualStyle
  2
Gouraud
 70
     2
 71
     2
 72
     2
 73
     1
 90
        2
 40
-0.6
 41
30.0
 62
     5
 63
     7
 74
     0
 91
        4
 64
     7
 65
   257
 75
     1
175
     1
 42
1.0
 92
        0
 66
     7
 43
1.0
 76
     1
 77
     6
 78
     2
 67
     7
 79
     5
170
     0
171
     0
290
     0
174
     0
 93
       13
 44
0.0
173
     0
291
     1
 45
0.0
1001
ACAD
1000
AcDbSavedByObjectVersion
1070
     0
  0
VISUALSTYLE
  5
1F4F
102
{ACAD_XDICTIONARY
360
1F9A
102
}
102
{ACAD_REACTORS
330
1F4B
102
}
330
1F4B
100
AcDbVisualStyle
  2
GouraudWithEdges
 70
     3
 71
     2
 72
     2
 73
     1
 90
        2
 40
-0.6
 41
30.0
 62
     5
 63
     7
 74
     1
 91
        4
 64
     7
 65
   257
 75
     1
175
     1
 42
1.0
 92
        0
 66
   257
 43
1.0
 76
     1
 77
     6
 78
     2
 67
     7
 79
     5
170
     0
171
     0
290
     0
174
     0
 93
       13
 44
0.0
173
     0
291
     1
 45
0.0
1001
ACAD
1000
AcDbSavedByObjectVersion
1070
     0
  0
VISUALSTYLE
  5
1F5C
102
{ACAD_XDICTIONARY
360
1FB4
102
}
102
{ACAD_REACTORS
330
1F4B
102
}
330
1F4B
100
AcDbVisualStyle
  2
JitterOff
 70
    20
 71
     2
 72
     2
 73
     0
 90
        0
 40
-0.6
 41
-30.0
 62
     5
 63
     7
 74
     1
 91
        4
 64
     7
 65
   257
 75
     1
175
     1
 42
1.0
 92
       10
 66
     7
 43
1.0
 76
     1
 77
     6
 78
     2
 67
     7
 79
     5
170
     0
171
     0
290
     0
174
     0
 93
        1
 44
0.0
173
     0
291
     1
 45
0.0
1001
ACAD
1000
AcDbSavedByObjectVersion
1070
     0
  0
VISUALSTYLE
  5
1F59
102
{ACAD_XDICTIONARY
360
1FAE
102
}
102
{ACAD_REACTORS
330
1F4B
102
}
330
1F4B
100
AcDbVisualStyle
  2
Linepattern
 70
    14
 71
     2
 72
     2
 73
     0
 90
        0
 40
-0.6
 41
-30.0
 62
     5
 63
     7
 74
     1
 91
        4
 64
     7
 65
   257
 75
     7
175
     7
 42
1.0
 92
        8
 66
     7
 43
1.0
 76
     1
 77
     6
 78
     2
 67
     7
 79
     5
170
     0
171
     0
290
     0
174
     0
 93
        1
 44
0.0
173
     0
291
     1
 45
0.0
1001
ACAD
1000
AcDbSavedByObjectVersion
1070
     0
  0
VISUALSTYLE
  5
1F5D
102
{ACAD_XDICTIONARY
360
1FB6
102
}
102
{ACAD_REACTORS
330
1F4B
102
}
330
1F4B
100
AcDbVisualStyle
  2
OverhangOff
 70
    21
 71
     2
 72
     2
 73
     0
 90
        0
 40
-0.6
 41
-30.0
 62
     5
 63
     7
 74
     1
 91
        4
 64
     7
 65
   257
 75
     1
175
     1
 42
1.0
 92
        9
 66
     7
 43
1.0
 76
     1
 77
     6
 78
     2
 67
     7
 79
     5
170
     0
171
     0
290
     0
174
     0
 93
        1
 44
0.0
173
     0
291
     1
 45
0.0
1001
ACAD
1000
AcDbSavedByObjectVersion
1070
     0
  0
VISUALSTYLE
  5
1F55
102
{ACAD_XDICTIONARY
360
1FA6
102
}
102
{ACAD_REACTORS
330
1F4B
102
}
330
1F4B
100
AcDbVisualStyle
  2
Realistic
 70
     8
 71
     2
 72
     2
 73
     0
 90
        0
 40
-0.6
 41
-30.0
 62
     5
 63
     7
 74
     1
 91
        0
 64
     7
 65
   257
 75
     1
175
     1
 42
1.0
 92
        8
 66
     8
 43
1.0
 76
     1
 77
     6
 78
     2
 67
     7
 79
     5
170
     0
171
     0
290
     0
174
     0
 93
       13
 44
0.0
173
     0
291
     0
 45
0.0
1001
ACAD
1000
AcDbSavedByObjectVersion
1070
     0
  0
VISUALSTYLE
  5
1F58
102
{ACAD_XDICTIONARY
360
1FAC
102
}
102
{ACAD_REACTORS
330
1F4B
102
}
330
1F4B
100
AcDbVisualStyle
  2
Thicken
 70
    13
 71
     2
 72
     2
 73
     0
 90
        0
 40
-0.6
 41
-30.0
 62
     5
 63
     7
 74
     1
 91
        4
 64
     7
 65
   257
 75
     1
175
     1
 42
1.0
 92
       12
 66
     7
 43
1.0
 76
     1
 77
     6
 78
     2
 67
     7
 79
     5
170
     0
171
     0
290
     0
174
     0
 93
        1
 44
0.0
173
     0
291
     1
 45
0.0
1001
ACAD
1000
AcDbSavedByObjectVersion
1070
     0
  0
DICTIONARYVAR
  5
1FBF
102
{ACAD_REACTORS
330
1FBC
102
}
330
1FBC
100
DictionaryVariables
280
     0
  1
1:1
  0
DICTIONARYVAR
  5
1FBE
102
{ACAD_REACTORS
330
1FBC
102
}
330
1FBC
100
DictionaryVariables
280
     0
  1
STANDARD
  0
DICTIONARYVAR
  5
1FBD
102
{ACAD_REACTORS
330
1FBC
102
}
330
1FBC
100
DictionaryVariables
280
     0
  1
STANDARD
  0
DICTIONARYVAR
  5
1FC2
102
{ACAD_REACTORS
330
1FBC
102
}
330
1FBC
100
DictionaryVariables
280
     0
  1
1
  0
DICTIONARYVAR
  5
1FC1
102
{ACAD_REACTORS
330
1FBC
102
}
330
1FBC
100
DictionaryVariables
280
     0
  1
0
  0
DICTIONARYVAR
  5
32D5
102
{ACAD_REACTORS
330
1FBC
102
}
330
1FBC
100
DictionaryVariables
280
     0
  1
1
  0
DICTIONARYVAR
  5
32D6
102
{ACAD_REACTORS
330
1FBC
102
}
330
1FBC
100
DictionaryVariables
280
     0
  1
15
  0
DICTIONARYVAR
  5
32D4
102
{ACAD_REACTORS
330
1FBC
102
}
330
1FBC
100
DictionaryVariables
280
     0
  1
0
  0
DICTIONARYVAR
  5
32D3
102
{ACAD_REACTORS
330
1FBC
102
}
330
1FBC
100
DictionaryVariables
280
     0
  1
0
  0
DICTIONARYVAR
  5
1FC0
102
{ACAD_REACTORS
330
1FBC
102
}
330
1FBC
100
DictionaryVariables
280
     0
  1
127
  0
DICTIONARYVAR
  5
1FC3
102
{ACAD_REACTORS
330
1FBC
102
}
330
1FBC
100
DictionaryVariables
280
     0
  1
0
  0
DICTIONARY
  5
32E1
330
1F2E
100
AcDbDictionary
280
     1
281
     1
  3
ACAD_XREC_ROUNDTRIP
360
32E2
  0
DICTIONARY
  5
32DF
330
1F2D
100
AcDbDictionary
280
     1
281
     1
  3
ACAD_XREC_ROUNDTRIP
360
32E0
  0
DICTIONARY
  5
1F3C
330
1F3B
100
AcDbDictionary
280
     1
281
     1
  3
ACAD_XREC_ROUNDTRIP
360
32E4
  3
BUMPTILE
360
1F3E
  3
DIFFUSETILE
360
1F3D
  3
OPACITYTILE
360
1F41
  3
REFLECTIONTILE
360
1F40
  3
REFRACTIONTILE
360
1F42
  3
SPECULARTILE
360
1F3F
  0
DICTIONARY
  5
1F34
330
1F33
100
AcDbDictionary
280
     1
281
     1
  3
ACAD_XREC_ROUNDTRIP
360
32E3
  3
BUMPTILE
360
1F36
  3
DIFFUSETILE
360
1F35
  3
OPACITYTILE
360
1F39
  3
REFLECTIONTILE
360
1F38
  3
REFRACTIONTILE
360
1F3A
  3
SPECULARTILE
360
1F37
  0
DICTIONARY
  5
1F44
330
1F43
100
AcDbDictionary
280
     1
281
     1
  3
ACAD_XREC_ROUNDTRIP
360
32E5
  3
BUMPTILE
360
1F46
  3
DIFFUSETILE
360
1F45
  3
OPACITYTILE
360
1F49
  3
REFLECTIONTILE
360
1F48
  3
REFRACTIONTILE
360
1F4A
  3
SPECULARTILE
360
1F47
  0
DICTIONARY
  5
1F88
330
1F61
100
AcDbDictionary
280
     1
281
     1
  3
ACAD_ROUNDTRIP_2008_TABLESTYLE_CELLSTYLEMAP
360
32DD
  3
ACAD_XREC_ROUNDTRIP
360
32E6
  0
DICTIONARY
  5
1F9E
330
1F51
100
AcDbDictionary
280
     1
281
     1
  3
ACAD_XREC_ROUNDTRIP
360
1F9F
  0
DICTIONARY
  5
1FA2
330
1F53
100
AcDbDictionary
280
     1
281
     1
  3
ACAD_XREC_ROUNDTRIP
360
1FA3
  0
DICTIONARY
  5
1FA0
330
1F52
100
AcDbDictionary
280
     1
281
     1
  3
ACAD_XREC_ROUNDTRIP
360
1FA1
  0
DICTIONARY
  5
1F9C
330
1F50
100
AcDbDictionary
280
     1
281
     1
  3
ACAD_XREC_ROUNDTRIP
360
1F9D
  0
DICTIONARY
  5
1FAA
330
1F57
100
AcDbDictionary
280
     1
281
     1
  3
ACAD_XREC_ROUNDTRIP
360
1FAB
  0
DICTIONARY
  5
1FB2
330
1F5B
100
AcDbDictionary
280
     1
281
     1
  3
ACAD_XREC_ROUNDTRIP
360
1FB3
  0
DICTIONARY
  5
1FA4
330
1F54
100
AcDbDictionary
280
     1
281
     1
  3
ACAD_XREC_ROUNDTRIP
360
1FA5
  0
DICTIONARY
  5
1FA8
330
1F56
100
AcDbDictionary
280
     1
281
     1
  3
ACAD_XREC_ROUNDTRIP
360
1FA9
  0
DICTIONARY
  5
1FB8
330
1F5E
100
AcDbDictionary
280
     1
281
     1
  3
ACAD_XREC_ROUNDTRIP
360
1FB9
  0
DICTIONARY
  5
1FB0
330
1F5A
100
AcDbDictionary
280
     1
281
     1
  3
ACAD_XREC_ROUNDTRIP
360
1FB1
  0
DICTIONARY
  5
1F94
330
1F4C
100
AcDbDictionary
280
     1
281
     1
  3
ACAD_XREC_ROUNDTRIP
360
1F95
  0
DICTIONARY
  5
1F96
330
1F4D
100
AcDbDictionary
280
     1
281
     1
  3
ACAD_XREC_ROUNDTRIP
360
1F97
  0
DICTIONARY
  5
1F98
330
1F4E
100
AcDbDictionary
280
     1
281
     1
  3
ACAD_XREC_ROUNDTRIP
360
1F99
  0
DICTIONARY
  5
1F9A
330
1F4F
100
AcDbDictionary
280
     1
281
     1
  3
ACAD_XREC_ROUNDTRIP
360
1F9B
  0
DICTIONARY
  5
1FB4
330
1F5C
100
AcDbDictionary
280
     1
281
     1
  3
ACAD_XREC_ROUNDTRIP
360
1FB5
  0
DICTIONARY
  5
1FAE
330
1F59
100
AcDbDictionary
280
     1
281
     1
  3
ACAD_XREC_ROUNDTRIP
360
1FAF
  0
DICTIONARY
  5
1FB6
330
1F5D
100
AcDbDictionary
280
     1
281
     1
  3
ACAD_XREC_ROUNDTRIP
360
1FB7
  0
DICTIONARY
  5
1FA6
330
1F55
100
AcDbDictionary
280
     1
281
     1
  3
ACAD_XREC_ROUNDTRIP
360
1FA7
  0
DICTIONARY
  5
1FAC
330
1F58
100
AcDbDictionary
280
     1
281
     1
  3
ACAD_XREC_ROUNDTRIP
360
1FAD
  0
XRECORD
  5
32E2
102
{ACAD_REACTORS
330
32E1
102
}
330
32E1
100
AcDbXrecord
280
     1
102
SHADEPLOT
 70
     0
102
SHADEPLOTRESLEVEL
 70
     2
102
SHADEPLOTCUSTOMDPI
 70
   300
  0
XRECORD
  5
32E0
102
{ACAD_REACTORS
330
32DF
102
}
330
32DF
100
AcDbXrecord
280
     1
102
SHADEPLOT
 70
     0
102
SHADEPLOTRESLEVEL
 70
     2
102
SHADEPLOTCUSTOMDPI
 70
   300
  0
XRECORD
  5
32E4
102
{ACAD_REACTORS
330
1F3C
102
}
330
1F3C
100
AcDbXrecord
280
     1
102
MATERIAL
148
0.0
149
0.0
149
0.0
 93
        0
 94
      127
282
     0
 72
     0
 77
     0
171
     0
175
     0
179
     0
273
     0
  0
XRECORD
  5
1F3E
102
{ACAD_REACTORS
330
1F3C
102
}
330
1F3C
100
AcDbXrecord
280
     1
270
     1
271
     1
  0
XRECORD
  5
1F3D
102
{ACAD_REACTORS
330
1F3C
102
}
330
1F3C
100
AcDbXrecord
280
     1
270
     1
271
     1
  0
XRECORD
  5
1F41
102
{ACAD_REACTORS
330
1F3C
102
}
330
1F3C
100
AcDbXrecord
280
     1
270
     1
271
     1
  0
XRECORD
  5
1F40
102
{ACAD_REACTORS
330
1F3C
102
}
330
1F3C
100
AcDbXrecord
280
     1
270
     1
271
     1
  0
XRECORD
  5
1F42
102
{ACAD_REACTORS
330
1F3C
102
}
330
1F3C
100
AcDbXrecord
280
     1
270
     1
271
     1
  0
XRECORD
  5
1F3F
102
{ACAD_REACTORS
330
1F3C
102
}
330
1F3C
100
AcDbXrecord
280
     1
270
     1
271
     1
  0
XRECORD
  5
32E3
102
{ACAD_REACTORS
330
1F34
102
}
330
1F34
100
AcDbXrecord
280
     1
102
MATERIAL
148
0.0
149
0.0
149
0.0
 93
        0
 94
      127
282
     0
 72
     0
 77
     0
171
     0
175
     0
179
     0
273
     0
  0
XRECORD
  5
1F36
102
{ACAD_REACTORS
330
1F34
102
}
330
1F34
100
AcDbXrecord
280
     1
270
     1
271
     1
  0
XRECORD
  5
1F35
102
{ACAD_REACTORS
330
1F34
102
}
330
1F34
100
AcDbXrecord
280
     1
270
     1
271
     1
  0
XRECORD
  5
1F39
102
{ACAD_REACTORS
330
1F34
102
}
330
1F34
100
AcDbXrecord
280
     1
270
     1
271
     1
  0
XRECORD
  5
1F38
102
{ACAD_REACTORS
330
1F34
102
}
330
1F34
100
AcDbXrecord
280
     1
270
     1
271
     1
  0
XRECORD
  5
1F3A
102
{ACAD_REACTORS
330
1F34
102
}
330
1F34
100
AcDbXrecord
280
     1
270
     1
271
     1
  0
XRECORD
  5
1F37
102
{ACAD_REACTORS
330
1F34
102
}
330
1F34
100
AcDbXrecord
280
     1
270
     1
271
     1
  0
XRECORD
  5
32E5
102
{ACAD_REACTORS
330
1F44
102
}
330
1F44
100
AcDbXrecord
280
     1
102
MATERIAL
148
0.0
149
0.0
149
0.0
 93
        0
 94
      127
282
     0
 72
     0
 77
     0
171
     0
175
     0
179
     0
273
     0
  0
XRECORD
  5
1F46
102
{ACAD_REACTORS
330
1F44
102
}
330
1F44
100
AcDbXrecord
280
     1
270
     1
271
     1
  0
XRECORD
  5
1F45
102
{ACAD_REACTORS
330
1F44
102
}
330
1F44
100
AcDbXrecord
280
     1
270
     1
271
     1
  0
XRECORD
  5
1F49
102
{ACAD_REACTORS
330
1F44
102
}
330
1F44
100
AcDbXrecord
280
     1
270
     1
271
     1
  0
XRECORD
  5
1F48
102
{ACAD_REACTORS
330
1F44
102
}
330
1F44
100
AcDbXrecord
280
     1
270
     1
271
     1
  0
XRECORD
  5
1F4A
102
{ACAD_REACTORS
330
1F44
102
}
330
1F44
100
AcDbXrecord
280
     1
270
     1
271
     1
  0
XRECORD
  5
1F47
102
{ACAD_REACTORS
330
1F44
102
}
330
1F44
100
AcDbXrecord
280
     1
270
     1
271
     1
  0
CELLSTYLEMAP
  5
32DD
102
{ACAD_REACTORS
330
1F88
102
}
330
1F88
100
AcDbCellStyleMap
 90
        3
300
CELLSTYLE
  1
TABLEFORMAT_BEGIN
 90
        5
170
     1
 91
        0
 92
    32768
 62
   257
 93
        1
300
CONTENTFORMAT
  1
CONTENTFORMAT_BEGIN
 90
        0
 91
        0
 92
      512
 93
        0
300

 40
0.0
140
1.0
 94
        5
 62
     0
340
11
144
0.25
309
CONTENTFORMAT_END
171
     0
 94
        0
309
TABLEFORMAT_END
  1
CELLSTYLE_BEGIN
 90
        1
 91
        1
300
_TITLE
309
CELLSTYLE_END
300
CELLSTYLE
  1
TABLEFORMAT_BEGIN
 90
        5
170
     1
 91
        0
 92
        0
 62
   257
 93
        1
300
CONTENTFORMAT
  1
CONTENTFORMAT_BEGIN
 90
        0
 91
        0
 92
      512
 93
        0
300

 40
0.0
140
1.0
 94
        5
 62
     0
340
11
144
0.18
309
CONTENTFORMAT_END
171
     0
 94
        0
309
TABLEFORMAT_END
  1
CELLSTYLE_BEGIN
 90
        2
 91
        1
300
_HEADER
309
CELLSTYLE_END
300
CELLSTYLE
  1
TABLEFORMAT_BEGIN
 90
        5
170
     1
 91
        0
 92
        0
 62
   257
 93
        1
300
CONTENTFORMAT
  1
CONTENTFORMAT_BEGIN
 90
        0
 91
        0
 92
      512
 93
        0
300

 40
0.0
140
1.0
 94
        2
 62
     0
340
11
144
0.18
309
CONTENTFORMAT_END
171
     0
 94
        0
309
TABLEFORMAT_END
  1
CELLSTYLE_BEGIN
 90
        3
 91
        2
300
_DATA
309
CELLSTYLE_END
  0
XRECORD
  5
32E6
102
{ACAD_REACTORS
330
1F88
102
}
330
1F88
100
AcDbXrecord
280
     1
102
ACAD_ROUNDTRIP_PRE2007_TABLESTYLE
 90
      512
 91
        0
  1

 92
      512
 93
        0
  2

 94
      512
 95
        0
  3

  0
XRECORD
  5
1F9F
102
{ACAD_REACTORS
330
1F9E
102
}
330
1F9E
100
AcDbXrecord
280
     1
102
RTVSPropertyOp0
 70
     1
102
RTVSPropertyOp1
 70
     1
102
RTVSPropertyOp2
 70
     1
102
RTVSPropertyOp3
 70
     1
102
RTVSPropertyOp4
 70
     1
102
RTVSPropertyOp5
 70
     1
102
RTVSPropertyOp6
 70
     1
102
RTVSPropertyOp7
 70
     1
102
RTVSPropertyOp8
 70
     1
102
RTVSPropertyOp9
 70
     1
102
RTVSPropertyOp10
 70
     1
102
RTVSPropertyOp11
 70
     1
102
RTVSPropertyOp12
 70
     1
102
RTVSPropertyOp13
 70
     1
102
RTVSPropertyOp14
 70
     1
102
RTVSPropertyOp15
 70
     1
102
RTVSPropertyOp16
 70
     1
102
RTVSPropertyOp17
 70
     1
102
RTVSPropertyOp18
 70
     1
102
RTVSPropertyOp19
 70
     1
102
RTVSPropertyOp20
 70
     1
102
RTVSPropertyOp21
 70
     1
102
RTVSPropertyOp22
 70
     1
102
RTVSPropertyOp23
 70
     1
102
RTVSPropertyOp24
 70
     1
102
RTVSPropertyOp25
 70
     1
102
RTVSPropertyOp26
 70
     1
102
RTVSPropertyOp27
 70
     1
  0
XRECORD
  5
1FA3
102
{ACAD_REACTORS
330
1FA2
102
}
330
1FA2
100
AcDbXrecord
280
     1
102
RTVSPropertyOp0
 70
     1
102
RTVSPropertyOp1
 70
     1
102
RTVSPropertyOp2
 70
     1
102
RTVSPropertyOp3
 70
     1
102
RTVSPropertyOp4
 70
     1
102
RTVSPropertyOp5
 70
     1
102
RTVSPropertyOp6
 70
     1
102
RTVSPropertyOp7
 70
     1
102
RTVSPropertyOp8
 70
     1
102
RTVSPropertyOp9
 70
     1
102
RTVSPropertyOp10
 70
     1
102
RTVSPropertyOp11
 70
     1
102
RTVSPropertyOp12
 70
     1
102
RTVSPropertyOp13
 70
     1
102
RTVSPropertyOp14
 70
     1
102
RTVSPropertyOp15
 70
     1
102
RTVSPropertyOp16
 70
     1
102
RTVSPropertyOp17
 70
     1
102
RTVSPropertyOp18
 70
     1
102
RTVSPropertyOp19
 70
     1
102
RTVSPropertyOp20
 70
     1
102
RTVSPropertyOp21
 70
     1
102
RTVSPropertyOp22
 70
     1
102
RTVSPropertyOp23
 70
     1
102
RTVSPropertyOp24
 70
     1
102
RTVSPropertyOp25
 70
     1
102
RTVSPropertyOp26
 70
     1
102
RTVSPropertyOp27
 70
     1
  0
XRECORD
  5
1FA1
102
{ACAD_REACTORS
330
1FA0
102
}
330
1FA0
100
AcDbXrecord
280
     1
102
RTVSPropertyOp0
 70
     1
102
RTVSPropertyOp1
 70
     1
102
RTVSPropertyOp2
 70
     1
102
RTVSPropertyOp3
 70
     1
102
RTVSPropertyOp4
 70
     1
102
RTVSPropertyOp5
 70
     1
102
RTVSPropertyOp6
 70
     1
102
RTVSPropertyOp7
 70
     1
102
RTVSPropertyOp8
 70
     1
102
RTVSPropertyOp9
 70
     1
102
RTVSPropertyOp10
 70
     1
102
RTVSPropertyOp11
 70
     1
102
RTVSPropertyOp12
 70
     1
102
RTVSPropertyOp13
 70
     1
102
RTVSPropertyOp14
 70
     1
102
RTVSPropertyOp15
 70
     1
102
RTVSPropertyOp16
 70
     1
102
RTVSPropertyOp17
 70
     1
102
RTVSPropertyOp18
 70
     1
102
RTVSPropertyOp19
 70
     1
102
RTVSPropertyOp20
 70
     1
102
RTVSPropertyOp21
 70
     1
102
RTVSPropertyOp22
 70
     1
102
RTVSPropertyOp23
 70
     1
102
RTVSPropertyOp24
 70
     1
102
RTVSPropertyOp25
 70
     1
102
RTVSPropertyOp26
 70
     1
102
RTVSPropertyOp27
 70
     1
  0
XRECORD
  5
1F9D
102
{ACAD_REACTORS
330
1F9C
102
}
330
1F9C
100
AcDbXrecord
280
     1
102
RTVSPropertyOp0
 70
     1
102
RTVSPropertyOp1
 70
     1
102
RTVSPropertyOp2
 70
     1
102
RTVSPropertyOp3
 70
     1
102
RTVSPropertyOp4
 70
     1
102
RTVSPropertyOp5
 70
     1
102
RTVSPropertyOp6
 70
     1
102
RTVSPropertyOp7
 70
     1
102
RTVSPropertyOp8
 70
     1
102
RTVSPropertyOp9
 70
     1
102
RTVSPropertyOp10
 70
     1
102
RTVSPropertyOp11
 70
     1
102
RTVSPropertyOp12
 70
     1
102
RTVSPropertyOp13
 70
     1
102
RTVSPropertyOp14
 70
     1
102
RTVSPropertyOp15
 70
     1
102
RTVSPropertyOp16
 70
     1
102
RTVSPropertyOp17
 70
     1
102
RTVSPropertyOp18
 70
     1
102
RTVSPropertyOp19
 70
     1
102
RTVSPropertyOp20
 70
     1
102
RTVSPropertyOp21
 70
     1
102
RTVSPropertyOp22
 70
     1
102
RTVSPropertyOp23
 70
     1
102
RTVSPropertyOp24
 70
     1
102
RTVSPropertyOp25
 70
     1
102
RTVSPropertyOp26
 70
     1
102
RTVSPropertyOp27
 70
     1
  0
XRECORD
  5
1FAB
102
{ACAD_REACTORS
330
1FAA
102
}
330
1FAA
100
AcDbXrecord
280
     1
102
RTVSPropertyOp0
 70
     1
102
RTVSPropertyOp1
 70
     1
102
RTVSPropertyOp2
 70
     1
102
RTVSPropertyOp3
 70
     1
102
RTVSPropertyOp4
 70
     1
102
RTVSPropertyOp5
 70
     1
102
RTVSPropertyOp6
 70
     1
102
RTVSPropertyOp7
 70
     1
102
RTVSPropertyOp8
 70
     1
102
RTVSPropertyOp9
 70
     1
102
RTVSPropertyOp10
 70
     1
102
RTVSPropertyOp11
 70
     1
102
RTVSPropertyOp12
 70
     1
102
RTVSPropertyOp13
 70
     1
102
RTVSPropertyOp14
 70
     1
102
RTVSPropertyOp15
 70
     1
102
RTVSPropertyOp16
 70
     1
102
RTVSPropertyOp17
 70
     1
102
RTVSPropertyOp18
 70
     1
102
RTVSPropertyOp19
 70
     1
102
RTVSPropertyOp20
 70
     1
102
RTVSPropertyOp21
 70
     1
102
RTVSPropertyOp22
 70
     1
102
RTVSPropertyOp23
 70
     1
102
RTVSPropertyOp24
 70
     1
102
RTVSPropertyOp25
 70
     1
102
RTVSPropertyOp26
 70
     1
102
RTVSPropertyOp27
 70
     1
  0
XRECORD
  5
1FB3
102
{ACAD_REACTORS
330
1FB2
102
}
330
1FB2
100
AcDbXrecord
280
     1
102
RTVSPropertyOp0
 70
     1
102
RTVSPropertyOp1
 70
     1
102
RTVSPropertyOp2
 70
     1
102
RTVSPropertyOp3
 70
     1
102
RTVSPropertyOp4
 70
     1
102
RTVSPropertyOp5
 70
     1
102
RTVSPropertyOp6
 70
     1
102
RTVSPropertyOp7
 70
     1
102
RTVSPropertyOp8
 70
     1
102
RTVSPropertyOp9
 70
     1
102
RTVSPropertyOp10
 70
     1
102
RTVSPropertyOp11
 70
     1
102
RTVSPropertyOp12
 70
     1
102
RTVSPropertyOp13
 70
     1
102
RTVSPropertyOp14
 70
     1
102
RTVSPropertyOp15
 70
     1
102
RTVSPropertyOp16
 70
     1
102
RTVSPropertyOp17
 70
     1
102
RTVSPropertyOp18
 70
     1
102
RTVSPropertyOp19
 70
     1
102
RTVSPropertyOp20
 70
     1
102
RTVSPropertyOp21
 70
     1
102
RTVSPropertyOp22
 70
     1
102
RTVSPropertyOp23
 70
     1
102
RTVSPropertyOp24
 70
     1
102
RTVSPropertyOp25
 70
     1
102
RTVSPropertyOp26
 70
     1
102
RTVSPropertyOp27
 70
     1
  0
XRECORD
  5
1FA5
102
{ACAD_REACTORS
330
1FA4
102
}
330
1FA4
100
AcDbXrecord
280
     1
102
RTVSPropertyOp0
 70
     1
102
RTVSPropertyOp1
 70
     1
102
RTVSPropertyOp2
 70
     1
102
RTVSPropertyOp3
 70
     1
102
RTVSPropertyOp4
 70
     1
102
RTVSPropertyOp5
 70
     1
102
RTVSPropertyOp6
 70
     1
102
RTVSPropertyOp7
 70
     1
102
RTVSPropertyOp8
 70
     1
102
RTVSPropertyOp9
 70
     1
102
RTVSPropertyOp10
 70
     1
102
RTVSPropertyOp11
 70
     1
102
RTVSPropertyOp12
 70
     1
102
RTVSPropertyOp13
 70
     1
102
RTVSPropertyOp14
 70
     1
102
RTVSPropertyOp15
 70
     1
102
RTVSPropertyOp16
 70
     1
102
RTVSPropertyOp17
 70
     1
102
RTVSPropertyOp18
 70
     1
102
RTVSPropertyOp19
 70
     1
102
RTVSPropertyOp20
 70
     1
102
RTVSPropertyOp21
 70
     1
102
RTVSPropertyOp22
 70
     1
102
RTVSPropertyOp23
 70
     1
102
RTVSPropertyOp24
 70
     1
102
RTVSPropertyOp25
 70
     1
102
RTVSPropertyOp26
 70
     1
102
RTVSPropertyOp27
 70
     1
  0
XRECORD
  5
1FA9
102
{ACAD_REACTORS
330
1FA8
102
}
330
1FA8
100
AcDbXrecord
280
     1
102
RTVSPropertyOp0
 70
     1
102
RTVSPropertyOp1
 70
     1
102
RTVSPropertyOp2
 70
     1
102
RTVSPropertyOp3
 70
     1
102
RTVSPropertyOp4
 70
     1
102
RTVSPropertyOp5
 70
     1
102
RTVSPropertyOp6
 70
     1
102
RTVSPropertyOp7
 70
     1
102
RTVSPropertyOp8
 70
     1
102
RTVSPropertyOp9
 70
     1
102
RTVSPropertyOp10
 70
     1
102
RTVSPropertyOp11
 70
     1
102
RTVSPropertyOp12
 70
     1
102
RTVSPropertyOp13
 70
     1
102
RTVSPropertyOp14
 70
     1
102
RTVSPropertyOp15
 70
     1
102
RTVSPropertyOp16
 70
     1
102
RTVSPropertyOp17
 70
     1
102
RTVSPropertyOp18
 70
     1
102
RTVSPropertyOp19
 70
     1
102
RTVSPropertyOp20
 70
     1
102
RTVSPropertyOp21
 70
     1
102
RTVSPropertyOp22
 70
     1
102
RTVSPropertyOp23
 70
     1
102
RTVSPropertyOp24
 70
     1
102
RTVSPropertyOp25
 70
     1
102
RTVSPropertyOp26
 70
     1
102
RTVSPropertyOp27
 70
     1
  0
XRECORD
  5
1FB9
102
{ACAD_REACTORS
330
1FB8
102
}
330
1FB8
100
AcDbXrecord
280
     1
102
RTVSPropertyOp0
 70
     0
102
RTVSPropertyOp1
 70
     0
102
RTVSPropertyOp2
 70
     0
102
RTVSPropertyOp3
 70
     0
102
RTVSPropertyOp4
 70
     0
102
RTVSPropertyOp5
 70
     0
102
RTVSPropertyOp6
 70
     0
102
RTVSPropertyOp7
 70
     0
102
RTVSPropertyOp8
 70
     0
102
RTVSPropertyOp9
 70
     0
102
RTVSPropertyOp10
 70
     0
102
RTVSPropertyOp11
 70
     0
102
RTVSPropertyOp12
 70
     0
102
RTVSPropertyOp13
 70
     0
102
RTVSPropertyOp14
 70
     2
102
RTVSPropertyOp15
 70
     0
102
RTVSPropertyOp16
 70
     0
102
RTVSPropertyOp17
 70
     0
102
RTVSPropertyOp18
 70
     0
102
RTVSPropertyOp19
 70
     0
102
RTVSPropertyOp20
 70
     0
102
RTVSPropertyOp21
 70
     0
102
RTVSPropertyOp22
 70
     0
102
RTVSPropertyOp23
 70
     0
102
RTVSPropertyOp24
 70
     0
102
RTVSPropertyOp25
 70
     0
102
RTVSPropertyOp26
 70
     0
102
RTVSPropertyOp27
 70
     0
  0
XRECORD
  5
1FB1
102
{ACAD_REACTORS
330
1FB0
102
}
330
1FB0
100
AcDbXrecord
280
     1
102
RTVSPropertyOp0
 70
     1
102
RTVSPropertyOp1
 70
     1
102
RTVSPropertyOp2
 70
     1
102
RTVSPropertyOp3
 70
     1
102
RTVSPropertyOp4
 70
     1
102
RTVSPropertyOp5
 70
     1
102
RTVSPropertyOp6
 70
     1
102
RTVSPropertyOp7
 70
     1
102
RTVSPropertyOp8
 70
     1
102
RTVSPropertyOp9
 70
     1
102
RTVSPropertyOp10
 70
     1
102
RTVSPropertyOp11
 70
     1
102
RTVSPropertyOp12
 70
     1
102
RTVSPropertyOp13
 70
     1
102
RTVSPropertyOp14
 70
     1
102
RTVSPropertyOp15
 70
     1
102
RTVSPropertyOp16
 70
     1
102
RTVSPropertyOp17
 70
     1
102
RTVSPropertyOp18
 70
     1
102
RTVSPropertyOp19
 70
     1
102
RTVSPropertyOp20
 70
     1
102
RTVSPropertyOp21
 70
     1
102
RTVSPropertyOp22
 70
     1
102
RTVSPropertyOp23
 70
     1
102
RTVSPropertyOp24
 70
     1
102
RTVSPropertyOp25
 70
     1
102
RTVSPropertyOp26
 70
     1
102
RTVSPropertyOp27
 70
     1
  0
XRECORD
  5
1F95
102
{ACAD_REACTORS
330
1F94
102
}
330
1F94
100
AcDbXrecord
280
     1
102
RTVSPropertyOp0
 70
     1
102
RTVSPropertyOp1
 70
     1
102
RTVSPropertyOp2
 70
     1
102
RTVSPropertyOp3
 70
     1
102
RTVSPropertyOp4
 70
     1
102
RTVSPropertyOp5
 70
     1
102
RTVSPropertyOp6
 70
     1
102
RTVSPropertyOp7
 70
     1
102
RTVSPropertyOp8
 70
     1
102
RTVSPropertyOp9
 70
     1
102
RTVSPropertyOp10
 70
     1
102
RTVSPropertyOp11
 70
     1
102
RTVSPropertyOp12
 70
     1
102
RTVSPropertyOp13
 70
     1
102
RTVSPropertyOp14
 70
     1
102
RTVSPropertyOp15
 70
     1
102
RTVSPropertyOp16
 70
     1
102
RTVSPropertyOp17
 70
     1
102
RTVSPropertyOp18
 70
     1
102
RTVSPropertyOp19
 70
     1
102
RTVSPropertyOp20
 70
     1
102
RTVSPropertyOp21
 70
     1
102
RTVSPropertyOp22
 70
     1
102
RTVSPropertyOp23
 70
     1
102
RTVSPropertyOp24
 70
     1
102
RTVSPropertyOp25
 70
     1
102
RTVSPropertyOp26
 70
     1
102
RTVSPropertyOp27
 70
     1
  0
XRECORD
  5
1F97
102
{ACAD_REACTORS
330
1F96
102
}
330
1F96
100
AcDbXrecord
280
     1
102
RTVSPropertyOp0
 70
     1
102
RTVSPropertyOp1
 70
     1
102
RTVSPropertyOp2
 70
     1
102
RTVSPropertyOp3
 70
     1
102
RTVSPropertyOp4
 70
     1
102
RTVSPropertyOp5
 70
     1
102
RTVSPropertyOp6
 70
     1
102
RTVSPropertyOp7
 70
     1
102
RTVSPropertyOp8
 70
     1
102
RTVSPropertyOp9
 70
     1
102
RTVSPropertyOp10
 70
     1
102
RTVSPropertyOp11
 70
     1
102
RTVSPropertyOp12
 70
     1
102
RTVSPropertyOp13
 70
     1
102
RTVSPropertyOp14
 70
     1
102
RTVSPropertyOp15
 70
     1
102
RTVSPropertyOp16
 70
     1
102
RTVSPropertyOp17
 70
     1
102
RTVSPropertyOp18
 70
     1
102
RTVSPropertyOp19
 70
     1
102
RTVSPropertyOp20
 70
     1
102
RTVSPropertyOp21
 70
     1
102
RTVSPropertyOp22
 70
     1
102
RTVSPropertyOp23
 70
     1
102
RTVSPropertyOp24
 70
     1
102
RTVSPropertyOp25
 70
     1
102
RTVSPropertyOp26
 70
     1
102
RTVSPropertyOp27
 70
     1
  0
XRECORD
  5
1F99
102
{ACAD_REACTORS
330
1F98
102
}
330
1F98
100
AcDbXrecord
280
     1
102
RTVSPropertyOp0
 70
     1
102
RTVSPropertyOp1
 70
     1
102
RTVSPropertyOp2
 70
     1
102
RTVSPropertyOp3
 70
     1
102
RTVSPropertyOp4
 70
     1
102
RTVSPropertyOp5
 70
     1
102
RTVSPropertyOp6
 70
     1
102
RTVSPropertyOp7
 70
     1
102
RTVSPropertyOp8
 70
     1
102
RTVSPropertyOp9
 70
     1
102
RTVSPropertyOp10
 70
     1
102
RTVSPropertyOp11
 70
     1
102
RTVSPropertyOp12
 70
     1
102
RTVSPropertyOp13
 70
     1
102
RTVSPropertyOp14
 70
     1
102
RTVSPropertyOp15
 70
     1
102
RTVSPropertyOp16
 70
     1
102
RTVSPropertyOp17
 70
     1
102
RTVSPropertyOp18
 70
     1
102
RTVSPropertyOp19
 70
     1
102
RTVSPropertyOp20
 70
     1
102
RTVSPropertyOp21
 70
     1
102
RTVSPropertyOp22
 70
     1
102
RTVSPropertyOp23
 70
     1
102
RTVSPropertyOp24
 70
     1
102
RTVSPropertyOp25
 70
     1
102
RTVSPropertyOp26
 70
     1
102
RTVSPropertyOp27
 70
     1
  0
XRECORD
  5
1F9B
102
{ACAD_REACTORS
330
1F9A
102
}
330
1F9A
100
AcDbXrecord
280
     1
102
RTVSPropertyOp0
 70
     1
102
RTVSPropertyOp1
 70
     1
102
RTVSPropertyOp2
 70
     1
102
RTVSPropertyOp3
 70
     1
102
RTVSPropertyOp4
 70
     1
102
RTVSPropertyOp5
 70
     1
102
RTVSPropertyOp6
 70
     1
102
RTVSPropertyOp7
 70
     1
102
RTVSPropertyOp8
 70
     1
102
RTVSPropertyOp9
 70
     1
102
RTVSPropertyOp10
 70
     1
102
RTVSPropertyOp11
 70
     1
102
RTVSPropertyOp12
 70
     1
102
RTVSPropertyOp13
 70
     1
102
RTVSPropertyOp14
 70
     1
102
RTVSPropertyOp15
 70
     1
102
RTVSPropertyOp16
 70
     1
102
RTVSPropertyOp17
 70
     1
102
RTVSPropertyOp18
 70
     1
102
RTVSPropertyOp19
 70
     1
102
RTVSPropertyOp20
 70
     1
102
RTVSPropertyOp21
 70
     1
102
RTVSPropertyOp22
 70
     1
102
RTVSPropertyOp23
 70
     1
102
RTVSPropertyOp24
 70
     1
102
RTVSPropertyOp25
 70
     1
102
RTVSPropertyOp26
 70
     1
102
RTVSPropertyOp27
 70
     1
  0
XRECORD
  5
1FB5
102
{ACAD_REACTORS
330
1FB4
102
}
330
1FB4
100
AcDbXrecord
280
     1
102
RTVSPropertyOp0
 70
     0
102
RTVSPropertyOp1
 70
     0
102
RTVSPropertyOp2
 70
     0
102
RTVSPropertyOp3
 70
     0
102
RTVSPropertyOp4
 70
     0
102
RTVSPropertyOp5
 70
     0
102
RTVSPropertyOp6
 70
     0
102
RTVSPropertyOp7
 70
     0
102
RTVSPropertyOp8
 70
     0
102
RTVSPropertyOp9
 70
     0
102
RTVSPropertyOp10
 70
     0
102
RTVSPropertyOp11
 70
     0
102
RTVSPropertyOp12
 70
     0
102
RTVSPropertyOp13
 70
     0
102
RTVSPropertyOp14
 70
     2
102
RTVSPropertyOp15
 70
     0
102
RTVSPropertyOp16
 70
     0
102
RTVSPropertyOp17
 70
     0
102
RTVSPropertyOp18
 70
     0
102
RTVSPropertyOp19
 70
     0
102
RTVSPropertyOp20
 70
     0
102
RTVSPropertyOp21
 70
     0
102
RTVSPropertyOp22
 70
     0
102
RTVSPropertyOp23
 70
     0
102
RTVSPropertyOp24
 70
     0
102
RTVSPropertyOp25
 70
     0
102
RTVSPropertyOp26
 70
     0
102
RTVSPropertyOp27
 70
     0
  0
XRECORD
  5
1FAF
102
{ACAD_REACTORS
330
1FAE
102
}
330
1FAE
100
AcDbXrecord
280
     1
102
RTVSPropertyOp0
 70
     1
102
RTVSPropertyOp1
 70
     1
102
RTVSPropertyOp2
 70
     1
102
RTVSPropertyOp3
 70
     1
102
RTVSPropertyOp4
 70
     1
102
RTVSPropertyOp5
 70
     1
102
RTVSPropertyOp6
 70
     1
102
RTVSPropertyOp7
 70
     1
102
RTVSPropertyOp8
 70
     1
102
RTVSPropertyOp9
 70
     1
102
RTVSPropertyOp10
 70
     1
102
RTVSPropertyOp11
 70
     1
102
RTVSPropertyOp12
 70
     1
102
RTVSPropertyOp13
 70
     1
102
RTVSPropertyOp14
 70
     1
102
RTVSPropertyOp15
 70
     1
102
RTVSPropertyOp16
 70
     1
102
RTVSPropertyOp17
 70
     1
102
RTVSPropertyOp18
 70
     1
102
RTVSPropertyOp19
 70
     1
102
RTVSPropertyOp20
 70
     1
102
RTVSPropertyOp21
 70
     1
102
RTVSPropertyOp22
 70
     1
102
RTVSPropertyOp23
 70
     1
102
RTVSPropertyOp24
 70
     1
102
RTVSPropertyOp25
 70
     1
102
RTVSPropertyOp26
 70
     1
102
RTVSPropertyOp27
 70
     1
  0
XRECORD
  5
1FB7
102
{ACAD_REACTORS
330
1FB6
102
}
330
1FB6
100
AcDbXrecord
280
     1
102
RTVSPropertyOp0
 70
     0
102
RTVSPropertyOp1
 70
     0
102
RTVSPropertyOp2
 70
     0
102
RTVSPropertyOp3
 70
     0
102
RTVSPropertyOp4
 70
     0
102
RTVSPropertyOp5
 70
     0
102
RTVSPropertyOp6
 70
     0
102
RTVSPropertyOp7
 70
     0
102
RTVSPropertyOp8
 70
     0
102
RTVSPropertyOp9
 70
     0
102
RTVSPropertyOp10
 70
     0
102
RTVSPropertyOp11
 70
     0
102
RTVSPropertyOp12
 70
     0
102
RTVSPropertyOp13
 70
     0
102
RTVSPropertyOp14
 70
     2
102
RTVSPropertyOp15
 70
     0
102
RTVSPropertyOp16
 70
     0
102
RTVSPropertyOp17
 70
     0
102
RTVSPropertyOp18
 70
     0
102
RTVSPropertyOp19
 70
     0
102
RTVSPropertyOp20
 70
     0
102
RTVSPropertyOp21
 70
     0
102
RTVSPropertyOp22
 70
     0
102
RTVSPropertyOp23
 70
     0
102
RTVSPropertyOp24
 70
     0
102
RTVSPropertyOp25
 70
     0
102
RTVSPropertyOp26
 70
     0
102
RTVSPropertyOp27
 70
     0
  0
XRECORD
  5
1FA7
102
{ACAD_REACTORS
330
1FA6
102
}
330
1FA6
100
AcDbXrecord
280
     1
102
RTVSPropertyOp0
 70
     1
102
RTVSPropertyOp1
 70
     1
102
RTVSPropertyOp2
 70
     1
102
RTVSPropertyOp3
 70
     1
102
RTVSPropertyOp4
 70
     1
102
RTVSPropertyOp5
 70
     1
102
RTVSPropertyOp6
 70
     1
102
RTVSPropertyOp7
 70
     1
102
RTVSPropertyOp8
 70
     1
102
RTVSPropertyOp9
 70
     1
102
RTVSPropertyOp10
 70
     1
102
RTVSPropertyOp11
 70
     1
102
RTVSPropertyOp12
 70
     1
102
RTVSPropertyOp13
 70
     1
102
RTVSPropertyOp14
 70
     1
102
RTVSPropertyOp15
 70
     1
102
RTVSPropertyOp16
 70
     1
102
RTVSPropertyOp17
 70
     1
102
RTVSPropertyOp18
 70
     1
102
RTVSPropertyOp19
 70
     1
102
RTVSPropertyOp20
 70
     1
102
RTVSPropertyOp21
 70
     1
102
RTVSPropertyOp22
 70
     1
102
RTVSPropertyOp23
 70
     1
102
RTVSPropertyOp24
 70
     1
102
RTVSPropertyOp25
 70
     1
102
RTVSPropertyOp26
 70
     1
102
RTVSPropertyOp27
 70
     1
  0
XRECORD
  5
1FAD
102
{ACAD_REACTORS
330
1FAC
102
}
330
1FAC
100
AcDbXrecord
280
     1
102
RTVSPropertyOp0
 70
     1
102
RTVSPropertyOp1
 70
     1
102
RTVSPropertyOp2
 70
     1
102
RTVSPropertyOp3
 70
     1
102
RTVSPropertyOp4
 70
     1
102
RTVSPropertyOp5
 70
     1
102
RTVSPropertyOp6
 70
     1
102
RTVSPropertyOp7
 70
     1
102
RTVSPropertyOp8
 70
     1
102
RTVSPropertyOp9
 70
     1
102
RTVSPropertyOp10
 70
     1
102
RTVSPropertyOp11
 70
     1
102
RTVSPropertyOp12
 70
     1
102
RTVSPropertyOp13
 70
     1
102
RTVSPropertyOp14
 70
     1
102
RTVSPropertyOp15
 70
     1
102
RTVSPropertyOp16
 70
     1
102
RTVSPropertyOp17
 70
     1
102
RTVSPropertyOp18
 70
     1
102
RTVSPropertyOp19
 70
     1
102
RTVSPropertyOp20
 70
     1
102
RTVSPropertyOp21
 70
     1
102
RTVSPropertyOp22
 70
     1
102
RTVSPropertyOp23
 70
     1
102
RTVSPropertyOp24
 70
     1
102
RTVSPropertyOp25
 70
     1
102
RTVSPropertyOp26
 70
     1
102
RTVSPropertyOp27
 70
     1
  0
ENDSEC
  0
EOF
