  0
SECTION
  2
HEADER
  9
$ACADVER
  1
AC1018
  9
$ACADMAINTVER
 70
   104
  9
$DWGCODEPAGE
  3
ANSI_1252
  9
$LASTSAVEDBY
  1
daniele
  9
$INSBASE
 10
0.0
 20
0.0
 30
0.0
  9
$EXTMIN
 10
1.905110496271049
 20
2.126024187783542
 30
-0.0015258207003583
  9
$EXTMAX
 10
72.15448593397127
 20
43.37114876938122
 30
0.0000000349246037
  9
$LIMMIN
 10
0.0
 20
0.0
  9
$LIMMAX
 10
12.0
 20
9.0
  9
$ORTHOMODE
 70
     0
  9
$REGENMODE
 70
     1
  9
$FILLMODE
 70
     1
  9
$QTEXTMODE
 70
     0
  9
$MIRRTEXT
 70
     0
  9
$LTSCALE
 40
1.0
  9
$ATTMODE
 70
     1
  9
$TEXTSIZE
 40
0.2
  9
$TRACEWID
 40
0.05
  9
$TEXTSTYLE
  7
Standard
  9
$CLAYER
  8
0
  9
$CELTYPE
  6
ByLayer
  9
$CECOLOR
 62
   256
  9
$CELTSCALE
 40
1.0
  9
$DISPSILH
 70
     0
  9
$DIMSCALE
 40
1.0
  9
$DIMASZ
 40
0.18
  9
$DIMEXO
 40
0.0625
  9
$DIMDLI
 40
0.38
  9
$DIMRND
 40
0.0
  9
$DIMDLE
 40
0.0
  9
$DIMEXE
 40
0.18
  9
$DIMTP
 40
0.0
  9
$DIMTM
 40
0.0
  9
$DIMTXT
 40
0.18
  9
$DIMCEN
 40
0.09
  9
$DIMTSZ
 40
0.0
  9
$DIMTOL
 70
     0
  9
$DIMLIM
 70
     0
  9
$DIMTIH
 70
     1
  9
$DIMTOH
 70
     1
  9
$DIMSE1
 70
     0
  9
$DIMSE2
 70
     0
  9
$DIMTAD
 70
     0
  9
$DIMZIN
 70
     0
  9
$DIMBLK
  1

  9
$DIMASO
 70
     1
  9
$DIMSHO
 70
     1
  9
$DIMPOST
  1

  9
$DIMAPOST
  1

  9
$DIMALT
 70
     0
  9
$DIMALTD
 70
     2
  9
$DIMALTF
 40
25.4
  9
$DIMLFAC
 40
1.0
  9
$DIMTOFL
 70
     0
  9
$DIMTVP
 40
0.0
  9
$DIMTIX
 70
     0
  9
$DIMSOXD
 70
     0
  9
$DIMSAH
 70
     0
  9
$DIMBLK1
  1

  9
$DIMBLK2
  1

  9
$DIMSTYLE
  2
Standard
  9
$DIMCLRD
 70
     0
  9
$DIMCLRE
 70
     0
  9
$DIMCLRT
 70
     0
  9
$DIMTFAC
 40
1.0
  9
$DIMGAP
 40
0.09
  9
$DIMJUST
 70
     0
  9
$DIMSD1
 70
     0
  9
$DIMSD2
 70
     0
  9
$DIMTOLJ
 70
     1
  9
$DIMTZIN
 70
     0
  9
$DIMALTZ
 70
     0
  9
$DIMALTTZ
 70
     0
  9
$DIMUPT
 70
     0
  9
$DIMDEC
 70
     4
  9
$DIMTDEC
 70
     4
  9
$DIMALTU
 70
     2
  9
$DIMALTTD
 70
     2
  9
$DIMTXSTY
  7
Standard
  9
$DIMAUNIT
 70
     0
  9
$DIMADEC
 70
     0
  9
$DIMALTRND
 40
0.0
  9
$DIMAZIN
 70
     0
  9
$DIMDSEP
 70
    46
  9
$DIMATFIT
 70
     3
  9
$DIMFRAC
 70
     0
  9
$DIMLDRBLK
  1

  9
$DIMLUNIT
 70
     2
  9
$DIMLWD
 70
    -2
  9
$DIMLWE
 70
    -2
  9
$DIMTMOVE
 70
     0
  9
$LUNITS
 70
     2
  9
$LUPREC
 70
     4
  9
$SKETCHINC
 40
0.1
  9
$FILLETRAD
 40
0.0
  9
$AUNITS
 70
     0
  9
$AUPREC
 70
     0
  9
$MENU
  1
.
  9
$ELEVATION
 40
0.0
  9
$PELEVATION
 40
0.0
  9
$THICKNESS
 40
0.0
  9
$LIMCHECK
 70
     0
  9
$CHAMFERA
 40
0.0
  9
$CHAMFERB
 40
0.0
  9
$CHAMFERC
 40
0.0
  9
$CHAMFERD
 40
0.0
  9
$SKPOLY
 70
     0
  9
$TDCREATE
 40
2457799.570370371
  9
$TDUCREATE
 40
2457799.778703704
  9
$TDUPDATE
 40
2457799.578773149
  9
$TDUUPDATE
 40
2457799.787106481
  9
$TDINDWG
 40
0.0084027778
  9
$TDUSRTIMER
 40
0.0084027778
  9
$USRTIMER
 70
     1
  9
$ANGBASE
 50
0.0
  9
$ANGDIR
 70
     0
  9
$PDMODE
 70
     0
  9
$PDSIZE
 40
0.0
  9
$PLINEWID
 40
0.0
  9
$SPLFRAME
 70
     0
  9
$SPLINETYPE
 70
     6
  9
$SPLINESEGS
 70
     8
  9
$HANDSEED
  5
A26
  9
$SURFTAB1
 70
     6
  9
$SURFTAB2
 70
     6
  9
$SURFTYPE
 70
     6
  9
$SURFU
 70
     6
  9
$SURFV
 70
     6
  9
$UCSBASE
  2

  9
$UCSNAME
  2

  9
$UCSORG
 10
0.0
 20
0.0
 30
0.0
  9
$UCSXDIR
 10
1.0
 20
0.0
 30
0.0
  9
$UCSYDIR
 10
0.0
 20
1.0
 30
0.0
  9
$UCSORTHOREF
  2

  9
$UCSORTHOVIEW
 70
     0
  9
$UCSORGTOP
 10
0.0
 20
0.0
 30
0.0
  9
$UCSORGBOTTOM
 10
0.0
 20
0.0
 30
0.0
  9
$UCSORGLEFT
 10
0.0
 20
0.0
 30
0.0
  9
$UCSORGRIGHT
 10
0.0
 20
0.0
 30
0.0
  9
$UCSORGFRONT
 10
0.0
 20
0.0
 30
0.0
  9
$UCSORGBACK
 10
0.0
 20
0.0
 30
0.0
  9
$PUCSBASE
  2

  9
$PUCSNAME
  2

  9
$PUCSORG
 10
0.0
 20
0.0
 30
0.0
  9
$PUCSXDIR
 10
1.0
 20
0.0
 30
0.0
  9
$PUCSYDIR
 10
0.0
 20
1.0
 30
0.0
  9
$PUCSORTHOREF
  2

  9
$PUCSORTHOVIEW
 70
     0
  9
$PUCSORGTOP
 10
0.0
 20
0.0
 30
0.0
  9
$PUCSORGBOTTOM
 10
0.0
 20
0.0
 30
0.0
  9
$PUCSORGLEFT
 10
0.0
 20
0.0
 30
0.0
  9
$PUCSORGRIGHT
 10
0.0
 20
0.0
 30
0.0
  9
$PUCSORGFRONT
 10
0.0
 20
0.0
 30
0.0
  9
$PUCSORGBACK
 10
0.0
 20
0.0
 30
0.0
  9
$USERI1
 70
     0
  9
$USERI2
 70
     0
  9
$USERI3
 70
     0
  9
$USERI4
 70
     0
  9
$USERI5
 70
     0
  9
$USERR1
 40
0.0
  9
$USERR2
 40
0.0
  9
$USERR3
 40
0.0
  9
$USERR4
 40
0.0
  9
$USERR5
 40
0.0
  9
$WORLDVIEW
 70
     1
  9
$SHADEDGE
 70
     3
  9
$SHADEDIF
 70
    70
  9
$TILEMODE
 70
     1
  9
$MAXACTVP
 70
    64
  9
$PINSBASE
 10
0.0
 20
0.0
 30
0.0
  9
$PLIMCHECK
 70
     0
  9
$PEXTMIN
 10
0.0
 20
0.0
 30
0.0
  9
$PEXTMAX
 10
0.0
 20
0.0
 30
0.0
  9
$PLIMMIN
 10
0.0
 20
0.0
  9
$PLIMMAX
 10
12.0
 20
9.0
  9
$UNITMODE
 70
     0
  9
$VISRETAIN
 70
     1
  9
$PLINEGEN
 70
     0
  9
$PSLTSCALE
 70
     1
  9
$TREEDEPTH
 70
  3020
  9
$CMLSTYLE
  2
Standard
  9
$CMLJUST
 70
     0
  9
$CMLSCALE
 40
1.0
  9
$PROXYGRAPHICS
 70
     1
  9
$MEASUREMENT
 70
     0
  9
$CELWEIGHT
370
    -1
  9
$ENDCAPS
280
     0
  9
$JOINSTYLE
280
     0
  9
$LWDISPLAY
290
     0
  9
$INSUNITS
 70
     1
  9
$HYPERLINKBASE
  1

  9
$STYLESHEET
  1

  9
$XEDIT
290
     1
  9
$CEPSNTYPE
380
     0
  9
$PSTYLEMODE
290
     1
  9
$FINGERPRINTGUID
  2
{8E1AB0CF-2FC4-2345-89EF-620085E87F64}
  9
$VERSIONGUID
  2
{BDF7F313-2D43-9C4E-9B9B-18F1BB9EAC07}
  9
$EXTNAMES
290
     1
  9
$PSVPSCALE
 40
0.0
  9
$OLESTARTUP
290
     0
  9
$SORTENTS
280
   127
  9
$INDEXCTL
280
     0
  9
$HIDETEXT
280
     1
  9
$XCLIPFRAME
290
     0
  9
$HALOGAP
280
     0
  9
$OBSCOLOR
 70
   257
  9
$OBSLTYPE
280
     0
  9
$INTERSECTIONDISPLAY
280
     0
  9
$INTERSECTIONCOLOR
 70
   257
  9
$DIMASSOC
280
     2
  9
$PROJECTNAME
  1

  0
ENDSEC
  0
SECTION
  2
CLASSES
  0
CLASS
  1
ACDBDICTIONARYWDFLT
  2
AcDbDictionaryWithDefault
  3
ObjectDBX Classes
 90
        0
 91
        1
280
     0
281
     0
  0
CLASS
  1
DICTIONARYVAR
  2
AcDbDictionaryVar
  3
ObjectDBX Classes
 90
        0
 91
       15
280
     0
281
     0
  0
CLASS
  1
TABLESTYLE
  2
AcDbTableStyle
  3
ObjectDBX Classes
 90
     4095
 91
        1
280
     0
281
     0
  0
CLASS
  1
MATERIAL
  2
AcDbMaterial
  3
ObjectDBX Classes
 90
     1153
 91
        3
280
     0
281
     0
  0
CLASS
  1
VISUALSTYLE
  2
AcDbVisualStyle
  3
ObjectDBX Classes
 90
     4095
 91
       24
280
     0
281
     0
  0
CLASS
  1
SCALE
  2
AcDbScale
  3
ObjectDBX Classes
 90
     1153
 91
       33
280
     0
281
     0
  0
CLASS
  1
MLEADERSTYLE
  2
AcDbMLeaderStyle
  3
ACDB_MLEADERSTYLE_CLASS
 90
     4095
 91
        2
280
     0
281
     0
  0
CLASS
  1
CELLSTYLEMAP
  2
AcDbCellStyleMap
  3
ObjectDBX Classes
 90
     1152
 91
       14
280
     0
281
     0
  0
CLASS
  1
EXACXREFPANELOBJECT
  2
ExAcXREFPanelObject
  3
EXAC_ESW
 90
     1025
 91
        0
280
     0
281
     0
  0
CLASS
  1
NPOCOLLECTION
  2
AcDbImpNonPersistentObjectsCollection
  3
ObjectDBX Classes
 90
     1153
 91
        0
280
     0
281
     0
  0
CLASS
  1
LAYER_INDEX
  2
AcDbLayerIndex
  3
ObjectDBX Classes
 90
        0
 91
        0
280
     0
281
     0
  0
CLASS
  1
SPATIAL_INDEX
  2
AcDbSpatialIndex
  3
ObjectDBX Classes
 90
        0
 91
        0
280
     0
281
     0
  0
CLASS
  1
IDBUFFER
  2
AcDbIdBuffer
  3
ObjectDBX Classes
 90
        0
 91
        0
280
     0
281
     0
  0
CLASS
  1
ACDBSECTIONVIEWSTYLE
  2
AcDbSectionViewStyle
  3
ObjectDBX Classes
 90
     1025
 91
        1
280
     0
281
     0
  0
CLASS
  1
ACDBDETAILVIEWSTYLE
  2
AcDbDetailViewStyle
  3
ObjectDBX Classes
 90
     1025
 91
        1
280
     0
281
     0
  0
CLASS
  1
SORTENTSTABLE
  2
AcDbSortentsTable
  3
ObjectDBX Classes
 90
        0
 91
        8
280
     0
281
     0
  0
ENDSEC
  0
SECTION
  2
TABLES
  0
TABLE
  2
VPORT
  5
8
330
0
100
AcDbSymbolTable
 70
     1
  0
VPORT
  5
94
330
8
100
AcDbSymbolTableRecord
100
AcDbViewportTableRecord
  2
*Active
 70
     0
 10
0.0
 20
0.0
 11
1.0
 21
1.0
 12
37.46247540802134
 22
22.00524338826426
 13
0.0
 23
0.0
 14
0.5
 24
0.5
 15
0.5
 25
0.5
 16
0.0
 26
0.0
 36
1.0
 17
0.0
 27
0.0
 37
0.0
 40
43.688111995231
 41
2.309756097560975
 42
50.0
 43
0.0
 44
0.0
 50
0.0
 51
0.0
 71
     0
 72
  1000
 73
     1
 74
     3
 75
     0
 76
     0
 77
     0
 78
     0
281
     0
 65
     1
110
0.0
120
0.0
130
0.0
111
1.0
121
0.0
131
0.0
112
0.0
122
1.0
132
0.0
 79
     0
146
0.0
1001
ACAD_NAV_VCDISPLAY
1070
     3
  0
ENDTAB
  0
TABLE
  2
LTYPE
  5
5
330
0
100
AcDbSymbolTable
 70
     3
  0
LTYPE
  5
14
330
5
100
AcDbSymbolTableRecord
100
AcDbLinetypeTableRecord
  2
ByBlock
 70
     0
  3

 72
    65
 73
     0
 40
0.0
  0
LTYPE
  5
15
330
5
100
AcDbSymbolTableRecord
100
AcDbLinetypeTableRecord
  2
ByLayer
 70
     0
  3

 72
    65
 73
     0
 40
0.0
  0
LTYPE
  5
16
330
5
100
AcDbSymbolTableRecord
100
AcDbLinetypeTableRecord
  2
Continuous
 70
     0
  3
Solid line
 72
    65
 73
     0
 40
0.0
  0
LTYPE
  5
1FC
330
5
100
AcDbSymbolTableRecord
100
AcDbLinetypeTableRecord
  2
CENTERX2
 70
     0
  3
Center (2x) ________  __  ________  __  _____
 72
    65
 73
     4
 40
4.0
 49
2.5
 74
     0
 49
-0.5
 74
     0
 49
0.5
 74
     0
 49
-0.5
 74
     0
  0
ENDTAB
  0
TABLE
  2
LAYER
  5
2
102
{ACAD_XDICTIONARY
360
18E
102
}
330
0
100
AcDbSymbolTable
 70
     5
  0
LAYER
  5
10
102
{ACAD_XDICTIONARY
360
E6
102
}
330
2
100
AcDbSymbolTableRecord
100
AcDbLayerTableRecord
  2
0
 70
     0
 62
     7
  6
Continuous
370
    -3
390
F
  0
LAYER
  5
1FD
102
{ACAD_XDICTIONARY
360
1FE
102
}
330
2
100
AcDbSymbolTableRecord
100
AcDbLayerTableRecord
  2
ligne-axe
 70
     0
 62
     1
  6
CENTERX2
370
    13
390
F
  0
LAYER
  5
1FF
102
{ACAD_XDICTIONARY
360
200
102
}
330
2
100
AcDbSymbolTableRecord
100
AcDbLayerTableRecord
  2
Bain
 70
     0
 62
     5
  6
Continuous
370
    35
390
F
  0
LAYER
  5
201
102
{ACAD_XDICTIONARY
360
202
102
}
330
2
100
AcDbSymbolTableRecord
100
AcDbLayerTableRecord
  2
DIM-1_16
 70
     0
 62
    -1
  6
Continuous
370
    13
390
F
  0
LAYER
  5
203
102
{ACAD_XDICTIONARY
360
204
102
}
330
2
100
AcDbSymbolTableRecord
100
AcDbLayerTableRecord
  2
DIM-1_12
 70
     0
 62
     1
  6
Continuous
370
    -3
390
F
  0
ENDTAB
  0
TABLE
  2
STYLE
  5
3
330
0
100
AcDbSymbolTable
 70
     3
  0
STYLE
  5
11
330
3
100
AcDbSymbolTableRecord
100
AcDbTextStyleTableRecord
  2
Standard
 70
     0
 40
0.0
 41
1.0
 50
0.0
 71
     0
 42
0.2
  3
arial.ttf
  4

1001
ACAD
1000
Arial
1071
       34
  0
STYLE
  5
DC
330
3
100
AcDbSymbolTableRecord
100
AcDbTextStyleTableRecord
  2
Annotative
 70
     0
 40
0.0
 41
1.0
 50
0.0
 71
     0
 42
0.2
  3
arial.ttf
  4

1001
AcadAnnotative
1000
AnnotativeData
1002
{
1070
     1
1070
     1
1002
}
1001
ACAD
1000
Arial
1071
       34
  0
STYLE
  5
205
330
3
100
AcDbSymbolTableRecord
100
AcDbTextStyleTableRecord
  2
romans
 70
     0
 40
0.0
 41
1.0
 50
0.0
 71
     0
 42
1.0
  3
romans.shx
  4

  0
ENDTAB
  0
TABLE
  2
VIEW
  5
6
330
0
100
AcDbSymbolTable
 70
     0
  0
ENDTAB
  0
TABLE
  2
UCS
  5
7
330
0
100
AcDbSymbolTable
 70
     0
  0
ENDTAB
  0
TABLE
  2
APPID
  5
9
330
0
100
AcDbSymbolTable
 70
     9
  0
APPID
  5
12
330
9
100
AcDbSymbolTableRecord
100
AcDbRegAppTableRecord
  2
ACAD
 70
     0
  0
APPID
  5
DD
330
9
100
AcDbSymbolTableRecord
100
AcDbRegAppTableRecord
  2
AcadAnnoPO
 70
     0
  0
APPID
  5
DE
330
9
100
AcDbSymbolTableRecord
100
AcDbRegAppTableRecord
  2
AcadAnnotative
 70
     0
  0
APPID
  5
DF
330
9
100
AcDbSymbolTableRecord
100
AcDbRegAppTableRecord
  2
ACAD_DSTYLE_DIMJAG
 70
     0
  0
APPID
  5
E0
330
9
100
AcDbSymbolTableRecord
100
AcDbRegAppTableRecord
  2
ACAD_DSTYLE_DIMTALN
 70
     0
  0
APPID
  5
107
330
9
100
AcDbSymbolTableRecord
100
AcDbRegAppTableRecord
  2
ACAD_MLEADERVER
 70
     0
  0
APPID
  5
1A6
330
9
100
AcDbSymbolTableRecord
100
AcDbRegAppTableRecord
  2
ACAD_NAV_VCDISPLAY
 70
     0
  0
APPID
  5
208
330
9
100
AcDbSymbolTableRecord
100
AcDbRegAppTableRecord
  2
ACAD_PSEXT
 70
     0
  0
APPID
  5
352
330
9
100
AcDbSymbolTableRecord
100
AcDbRegAppTableRecord
  2
ACAD_EXEMPT_FROM_CAD_STANDARDS
 70
     0
  0
ENDTAB
  0
TABLE
  2
DIMSTYLE
  5
A
330
0
100
AcDbSymbolTable
 70
     5
100
AcDbDimStyleTable
 71
     2
340
27
340
E1
  0
DIMSTYLE
105
27
330
A
100
AcDbSymbolTableRecord
100
AcDbDimStyleTableRecord
  2
Standard
 70
     0
340
11
  0
DIMSTYLE
105
E1
330
A
100
AcDbSymbolTableRecord
100
AcDbDimStyleTableRecord
  2
Annotative
 70
     0
 40
0.0
340
11
1001
AcadAnnotative
1000
AnnotativeData
1002
{
1070
     1
1070
     1
1002
}
1001
ACAD_DSTYLE_DIMJAG
1070
   388
1040
1.5
1001
ACAD_DSTYLE_DIMTALN
1070
   392
1070
     0
  0
DIMSTYLE
105
206
330
A
100
AcDbSymbolTableRecord
100
AcDbDimStyleTableRecord
  2
dim-1_16-imp
 70
     0
  3
"\X
 40
16.0
 41
0.1
 43
0.25
 44
0.1
 78
     4
 79
     1
140
0.075
143
2.54
147
0.08
170
     1
171
     1
271
     2
272
     2
274
     1
276
     1
277
     5
284
     4
285
     4
286
     4
289
     1
340
205
1001
ACAD_DSTYLE_DIMJAG
1070
   388
1040
1.5
1001
ACAD_DSTYLE_DIMTALN
1070
   392
1070
     0
  0
DIMSTYLE
105
207
330
A
100
AcDbSymbolTableRecord
100
AcDbDimStyleTableRecord
  2
dim-1_16
 70
     0
  3
\X
 40
16.0
 41
0.1
 43
0.25
 44
0.1
 78
     4
 79
     1
140
0.1
143
2.54
147
0.08
170
     1
171
     1
271
     3
272
     3
274
     1
276
     1
277
     5
284
     4
285
     4
286
     4
289
     1
340
205
  0
ENDTAB
  0
TABLE
  2
BLOCK_RECORD
  5
1
330
0
100
AcDbSymbolTable
 70
    11
  0
BLOCK_RECORD
  5
1F
102
{ACAD_XDICTIONARY
360
15D
102
}
330
1
100
AcDbSymbolTableRecord
100
AcDbBlockTableRecord
  2
*Model_Space
340
22
  0
BLOCK_RECORD
  5
58
330
1
100
AcDbSymbolTableRecord
100
AcDbBlockTableRecord
  2
*Paper_Space
340
59
  0
BLOCK_RECORD
  5
5D
330
1
100
AcDbSymbolTableRecord
100
AcDbBlockTableRecord
  2
*Paper_Space0
340
5E
  0
BLOCK_RECORD
  5
1F7
330
1
100
AcDbSymbolTableRecord
100
AcDbBlockTableRecord
  2
Bulle moteur
340
0
310
2800000020000000200000000100080000000000000400000000000000000000000000000000000000000000000080000080000000808000800000008000800080800000C0C0C000C0DCC000F0CAA6000020400000206000002080000020A0000020C0000020E00000400000004020000040400000406000004080000040A0
310
000040C0000040E00000600000006020000060400000606000006080000060A0000060C0000060E00000800000008020000080400000806000008080000080A0000080C0000080E00000A0000000A0200000A0400000A0600000A0800000A0A00000A0C00000A0E00000C0000000C0200000C0400000C0600000C0800000C0
310
A00000C0C00000C0E00000E0000000E0200000E0400000E0600000E0800000E0A00000E0C00000E0E00040000000400020004000400040006000400080004000A0004000C0004000E00040200000402020004020400040206000402080004020A0004020C0004020E000404000004040200040404000404060004040800040
310
40A0004040C0004040E00040600000406020004060400040606000406080004060A0004060C0004060E00040800000408020004080400040806000408080004080A0004080C0004080E00040A0000040A0200040A0400040A0600040A0800040A0A00040A0C00040A0E00040C0000040C0200040C0400040C0600040C08000
310
40C0A00040C0C00040C0E00040E0000040E0200040E0400040E0600040E0800040E0A00040E0C00040E0E00080000000800020008000400080006000800080008000A0008000C0008000E00080200000802020008020400080206000802080008020A0008020C0008020E00080400000804020008040400080406000804080
310
008040A0008040C0008040E00080600000806020008060400080606000806080008060A0008060C0008060E00080800000808020008080400080806000808080008080A0008080C0008080E00080A0000080A0200080A0400080A0600080A0800080A0A00080A0C00080A0E00080C0000080C0200080C0400080C0600080C0
310
800080C0A00080C0C00080C0E00080E0000080E0200080E0400080E0600080E0800080E0A00080E0C00080E0E000C0000000C0002000C0004000C0006000C0008000C000A000C000C000C000E000C0200000C0202000C0204000C0206000C0208000C020A000C020C000C020E000C0400000C0402000C0404000C0406000C0
310
408000C040A000C040C000C040E000C0600000C0602000C0604000C0606000C0608000C060A000C060C000C060E000C0800000C0802000C0804000C0806000C0808000C080A000C080C000C080E000C0A00000C0A02000C0A04000C0A06000C0A08000C0A0A000C0A0C000C0A0E000C0C00000C0C02000C0C04000C0C06000
310
C0C08000C0C0A000F0FBFF00A4A0A000808080000000FF0000FF000000FFFF00FF000000FF00FF00FFFF0000FFFFFF00FFFFFFFFFFFFFFFFFFFFFFFFFFFFFFFFFFFFFFFFFFFFFFFFFFFFFFFFFFFFFFFFFFFFFFFFFFFFFFFFFFFFFFFFFFFFFFFFFFFFFFFFFFFFFFFFFFFFFFFFFFFFFFFFFFFFFFFFFFFFFFFFFFFFFFFFFFFFFF
310
FFFFFFFFFFFFFFFFFFFFFFFFFFFFFFFFFFFFFFFFFFFFFFFFFFFFFFFFFFFFFFFFFFFFFFFFFFFFFFFFFFFFFFFFFFFFFFFFFFFFFFFFFFFFFFFFFFFFFFFFFFFFFFFFFFFFFFFFFFFFFFFFFFFFFFFFFFFFFFFFFFFFFFFFFFFFFFFFFFFFFFFFFFFFFFFFFFFFFFFFFFFFFFFFFFFFFFFFFFFFFFFFFFFFFFFFFFFFFFFFFFFFFFFFFFFFFF
310
FFFFFFFFFFFFFFFFFFFFFFFFFFFFFFFFFFFFFFFFFFFFFFFFFFFFFFFFFFFFFFFFFFFFFFFFFFFFFFFFFFFFFFFFFFFFFFFFFFFFFFFFFFFFFFFFFFFFFFFFFFFFFFFFFFFFFFFFFFFFFFFFFFFFFFFFFFFFFFFFFFFFFFFFFFFFFFFFF9F9F9F9F9F9F9F9F9F9F9F9F9F9F9F9F9F9F9F9FFFFFFFFFFFFFFFFFFFFFFF9FFF9FFFFFFFFFF
310
FFFFFFFFFFFFFFFFFFFFFFFFF9F9FFFFFFFFFFFFFFFFF9F9FFFFF9F9F9F9F9F9F9F9F9F9F9F9F9F9F9F9F9F9FFFFF9F9FFFFFFFFFFF9FFFFF9F9FFFFFFFFFFFFFFFFF9FFFFFFFFFFFFFFFFFFF9FFFFFFF9FFFFFFF9FFFFF9FFFFFFFFFFFFFFFFFFFFF9FFFFFFFFFFFFFFFFFFFFF9F9FFFFF9FFFFF9F9F9FFFFFFFFFFFFFFFF
310
FFFFFFF9FFFFFFFFFFFFFFFFFFFFFFFFF9F9F9FFFFF9FFF9FFFFFFFFFFFFFFFFFFFFFFF9FFFFFFFFFFFFFFFFFFFFFFFFF9FFF9FFFFF9FFF9FFFFFFFFFFFFFFFFFFFFFFF9FFFFFFFFFFFFFFFFFFFFFFFFF9FFF9FFFFF9FFF9FFFFFFFFFFFFFFFFFFFFFFF9FFFFFFFFFFFFFFFFFFFFFFFFF9FFF9FFFFF9F9FFF9F9FFFFFFFFFF
310
FFFFFFFFF9FFFFFFFFFFFFFFFFFFFFFFF9FFF9F9FFFFFFF9FFFFFFF9FFFFFFFFFFFFFFFFF9FFFFFFFFFFFFFFFFFFF9F9FFFFF9FFFFFFFFFFF9F9FFFFF9F9F9F9F9F9F9F9F9F9F9F9F9F9F9F9F9F9FFFFF9F9FFFFFFFFFFFFFFFFF9FFF9FFFFFFFFFFFFFFFFFFFFFFFFFFFFFFFFFFF9F9FFFFFFFFFFFFFFFFFFFFFFF9F9F9F9
310
F9F9F9F9F9F9F9F9F9F9F9F9F9F9F9F9FFFFFFFFFFFFFFFFFFFFFFFFFFFFFFFFFFFFFFFFFFFFFFFFFFFFFFFFFFFFFFFFFFFFFFFFFFFFFFFFFFFFFFFFFFFFFFFFFFFFFFFFFFFFFFFFFFFFFFFFFFFFFFFFFFFFFFFFFFFFFFFFFFFFFFFFFFFFFFFFFFFFFFFFFFFFFFFFFFFFFFFFFFFFFFFFFFFFFFFFFFFFFFFFFFFFFFFFFFFFFF
310
FFFFFFFFFFFFFFFFFFFFFFFFFFFFFFFFFFFFFFFFFFFFFFFFFFFFFFFFFFFFFFFFFFFFFFFFFFFFFFFFFFFFFFFFFFFFFFFFFFFFFFFFFFFFFFFFFFFFFFFFFFFFFFFFFFFFFFFFFFFFFFFFFFFFFFFFFFFFFFFFFFFFFFFFFFFFFFFFFFFFFFFFFFFFFFFFFFFFFFFFFFFFFFFFFFFFFFFFFFFFFFFFFFFFFFFFFFFFFFFFFFFFFFFFFFFFFF
310
FFFFFFFFFFFFFFFFFFFFFFFFFFFFFFFFFFFFFFFFFFFFFFFFFFFFFFFFFFFFFFFFFFFFFFFFFFFFFFFFFFFFFFFFFFFFFFFFFFFFFFFFFFFFFFFF
102
{BLKREFS
331
304
102
}
1001
ACAD
1000
DesignCenter Data
1002
{
1070
     1
1070
     1
1002
}
  0
BLOCK_RECORD
  5
2B5
102
{ACAD_XDICTIONARY
360
308
102
}
330
1
100
AcDbSymbolTableRecord
100
AcDbBlockTableRecord
  2
A$C2E512597
340
0
1001
ACAD
1000
DesignCenter Data
1002
{
1070
     1
1070
     1
1002
}
  0
ENDTAB
  0
ENDSEC
  0
SECTION
  2
BLOCKS
  0
BLOCK
  5
20
330
1F
100
AcDbEntity
  8
0
100
AcDbBlockBegin
  2
*Model_Space
 70
     0
 10
0.0
 20
0.0
 30
0.0
  3
*Model_Space
  1

  0
ENDBLK
  5
21
330
1F
100
AcDbEntity
  8
0
100
AcDbBlockEnd
  0
BLOCK
  5
5A
330
58
100
AcDbEntity
 67
     1
  8
0
100
AcDbBlockBegin
  2
*Paper_Space
 70
     0
 10
0.0
 20
0.0
 30
0.0
  3
*Paper_Space
  1

  0
ENDBLK
  5
5B
330
58
100
AcDbEntity
 67
     1
  8
0
100
AcDbBlockEnd
  0
BLOCK
  5
5F
330
5D
100
AcDbEntity
 67
     1
  8
0
100
AcDbBlockBegin
  2
*Paper_Space0
 70
     0
 10
0.0
 20
0.0
 30
0.0
  3
*Paper_Space0
  1

  0
ENDBLK
  5
60
330
5D
100
AcDbEntity
 67
     1
  8
0
100
AcDbBlockEnd
  0
BLOCK
  5
1F8
330
1F7
100
AcDbEntity
  8
0
 48
0.1
100
AcDbBlockBegin
  2
Bulle moteur
 70
     2
 10
0.0
 20
0.0
 30
0.0
  3
Bulle moteur
  1

  4
insert au centre de la bulle
  0
LWPOLYLINE
  5
1F9
330
1F7
100
AcDbEntity
  8
DIM-1_12
100
AcDbPolyline
 90
        8
 70
     1
 43
0.2
 10
0.9669476941671462
 20
1.324395493459547
 42
0.1816070378984705
 10
-0.9669476941671462
 20
1.324395493459547
 42
0.1496639316089619
 10
-1.43080178949981
 20
0.967048993406351
 42
0.3188137821521054
 10
-1.43080178949981
 20
0.532951006593649
 42
0.149663931608962
 10
-0.9669476941671462
 20
0.1756045065404521
 42
0.1816070378984702
 10
0.9669476941671462
 20
0.1756045065404521
 42
0.149663931608962
 10
1.43080178949981
 20
0.532951006593649
 42
0.3188137821521035
 10
1.43080178949981
 20
0.967048993406351
 42
0.1496639316089619
  0
MTEXT
  5
1FA
330
1F7
100
AcDbEntity
  8
DIM-1_12
100
AcDbMText
 10
0.0
 20
0.7520241363043852
 30
0.0
 40
1.0
 41
0.8699999999999999
 71
     5
 72
     5
  1
{\fArial|b1|i0|c0|p34;T}
  7
romans
 73
     1
 44
1.0
  0
ENDBLK
  5
1FB
330
1F7
100
AcDbEntity
  8
0
 48
0.1
100
AcDbBlockEnd
  0
BLOCK
  5
30A
330
2B5
100
AcDbEntity
  8
0
100
AcDbBlockBegin
  2
A$C2E512597
 70
     0
 10
0.0
 20
0.0
 30
0.0
  3
A$C2E512597
  1

  0
LINE
  5
2B6
330
2B5
100
AcDbEntity
  8
ligne-axe
100
AcDbLine
 10
39.09584712971464
 20
1.835293036471995
 30
0.0
 11
39.09584712971464
 21
43.07251606208964
 31
0.0
  0
LINE
  5
2B7
330
2B5
100
AcDbEntity
  8
0
  6
Continuous
 62
     7
100
AcDbLine
 10
6.199465129714639
 20
40.14440526124793
 30
0.0
 11
6.199465129714639
 21
4.394405261247953
 31
0.0
  0
LINE
  5
2B8
330
2B5
100
AcDbEntity
  8
0
  6
Continuous
 62
     7
100
AcDbLine
 10
6.324465129714639
 20
4.394405261247953
 30
0.0
 11
6.324465129714639
 21
40.14440526124793
 31
0.0
  0
LWPOLYLINE
  5
2B9
330
2B5
100
AcDbEntity
  8
0
  6
Continuous
 62
     7
100
AcDbPolyline
 90
       23
 70
     0
 43
0.0
 10
13.16524544611464
 20
32.90907768764794
 10
12.76478496491464
 20
31.95288844684796
 10
12.40044275811463
 20
30.97599844564795
 10
12.07498664411463
 20
29.98526646234797
 10
11.78909187381462
 20
28.98283206574794
 10
11.54321452451464
 20
27.97029353304794
 10
11.33768979921463
 20
26.94902043574794
 10
11.17273658141464
 20
25.92034100444795
 10
11.04861561381463
 20
24.88572525284795
 10
10.96555912041464
 20
23.84691321574795
 10
10.92368488941463
 20
22.80567593754796
 10
10.92308107801463
 20
21.76360151934796
 10
10.96375267421463
 20
20.72226773254795
 10
11.04560008231463
 20
19.68344419634795
 10
11.16849183611462
 20
18.64889381144795
 10
11.33223117611463
 20
17.62009579424796
 10
11.53660577481463
 20
16.59837653574794
 10
11.78140958091463
 20
15.58515514864797
 10
12.06628810071463
 20
14.58196125164795
 10
12.39050671881463
 20
13.59120647234795
 10
12.75633585791463
 20
12.60730170134795
 10
13.16332993741463
 20
11.63384145574795
 10
13.16525039411464
 20
11.62972236464793
  0
LWPOLYLINE
  5
2BA
330
2B5
100
AcDbEntity
  8
0
  6
Continuous
 62
     7
100
AcDbPolyline
 90
       18
 70
     0
 43
0.0
 10
13.49690081581464
 20
33.91618440134795
 10
13.59934967191464
 20
34.10872999474793
 10
13.71318596101463
 20
34.29241441344795
 10
13.83890393691463
 20
34.46849807344796
 10
13.97576449481464
 20
34.63594269204794
 10
14.12318045921464
 20
34.79401059834794
 10
14.28058487771463
 20
34.94211886064795
 10
14.44734608571464
 20
35.07967025554797
 10
14.62273669311463
 20
35.20606415514794
 10
14.80600256461463
 20
35.32075015534795
 10
14.99633896891463
 20
35.42322554284794
 10
15.19292051801463
 20
35.51305851854795
 10
15.39493541831463
 20
35.58987535014797
 10
15.60168390771463
 20
35.65339515674793
 10
15.81209817811464
 20
35.70327044864797
 10
16.02832616181463
 20
35.73974316024794
 10
16.24890286621463
 20
35.76200675874793
 10
16.47067548751464
 20
35.76940525784795
  0
LWPOLYLINE
  5
2BB
330
2B5
100
AcDbEntity
  8
0
  6
Continuous
 62
     7
100
AcDbPolyline
 90
       18
 70
     0
 43
0.0
 10
13.60912299941464
 20
33.86112823424793
 10
13.70769503731464
 20
34.04638994444795
 10
13.81723149001463
 20
34.22313578844796
 10
13.93821511631464
 20
34.39258832684795
 10
14.06991605121463
 20
34.55372052694796
 10
14.21176288641463
 20
34.70581675734795
 10
14.36322954671463
 20
34.84833795274795
 10
14.52369510891464
 20
34.98069638694796
 10
14.69247154591464
 20
35.10232385294796
 10
14.86881681281463
 20
35.21267902034793
 10
15.05197526431463
 20
35.31128983524795
 10
15.24113561451463
 20
35.39773157254797
 10
15.43552978801463
 20
35.47165057634794
 10
15.63446809131463
 20
35.53277095804793
 10
15.83694851071463
 20
35.58076550594797
 10
16.04503393351463
 20
35.61586479124793
 10
16.25727979381463
 20
35.63728776624794
 10
16.47064603661464
 20
35.64440526124793
  0
LWPOLYLINE
  5
2BC
330
2B5
100
AcDbEntity
  8
0
  6
Continuous
 62
     7
100
AcDbPolyline
 90
       17
 70
     0
 43
0.0
 10
13.70867615881464
 20
10.49083591194795
 10
13.81725282781463
 20
10.31564268864795
 10
13.93823822151464
 20
10.14619196814794
 10
14.06994343301463
 20
9.985058641447949
 10
14.21179366571464
 20
9.832962850747946
 10
14.36326407971462
 20
9.69044213794794
 10
14.52373398911463
 20
9.55808414364796
 10
14.69251479161464
 20
9.436457600147946
 10
14.86886396881464
 20
9.326104094247938
 10
15.05202606691463
 20
9.227495437047934
 10
15.24119101791463
 20
9.141055787947948
 10
15.43558855791464
 20
9.067139767247965
 10
15.63453453201463
 20
9.006021507547956
 10
15.83700450141462
 20
8.958033659447949
 10
16.04505128731463
 20
8.922943390847933
 10
16.25727849891463
 20
8.901522843347947
 10
16.25907134921463
 20
8.901463036847957
  0
LWPOLYLINE
  5
2BD
330
2B5
100
AcDbEntity
  8
0
  6
Continuous
 62
     7
100
AcDbPolyline
 90
       24
 70
     0
 43
0.0
 10
13.49690081581464
 20
10.62262612124794
 10
13.05271851021463
 20
11.57489709664793
 10
12.64856859561463
 20
12.53989211694795
 10
12.28249401091463
 20
13.52142253154795
 10
11.95549353341464
 20
14.51685076174794
 10
11.66824103931463
 20
15.52403980284793
 10
11.42119369331463
 20
16.54138916604796
 10
11.21469107531463
 20
17.56751192964793
 10
11.04895282941463
 20
18.60107453884794
 10
10.92424005631463
 20
19.64060635284795
 10
10.84078714261463
 20
20.68435036334796
 10
10.79871200711463
 20
21.73053041534794
 10
10.79810310551464
 20
22.77755626264795
 10
10.83896541031463
 20
23.82383266984795
 10
10.92119883791463
 20
24.86758657144793
 10
11.04467186101463
 20
25.90705199714796
 10
11.20918610131463
 20
26.94073549104795
 10
11.41452889401463
 20
27.96730850694797
 10
11.66049382711463
 20
28.98534741094795
 10
11.94671955791463
 20
29.99329607224794
 10
12.27247810051463
 20
30.98876530594794
 10
12.64005800101464
 20
31.97738321834794
 10
13.04899764191464
 20
32.95549753604797
 10
13.49690081581464
 20
33.91618440134795
  0
LWPOLYLINE
  5
2BE
330
2B5
100
AcDbEntity
  8
0
  6
Continuous
 62
     7
100
AcDbPolyline
 90
       24
 70
     0
 43
0.0
 10
13.60912299941464
 20
10.67768228834794
 10
13.16703435391463
 20
11.62546277564795
 10
12.76479966251463
 20
12.58588493254794
 10
12.40045524511463
 20
13.56277645774796
 10
12.07499852561463
 20
14.55350532264793
 10
11.78910274231464
 20
15.55593727514795
 10
11.54322436401463
 20
16.56847265534793
 10
11.33769842071463
 20
17.58974238154795
 10
11.17274358591463
 20
18.61841952674794
 10
11.04862072801462
 20
19.65303408464794
 10
10.96556228331464
 20
20.69184464564796
 10
10.92368600511463
 20
21.73307989224796
 10
10.92307998291463
 20
22.77515207974795
 10
10.96374915931463
 20
23.81648311404797
 10
11.04559389191463
 20
24.85530363394796
 10
11.16848285801463
 20
25.88985208414795
 10
11.33221946801463
 20
26.91864950734794
 10
11.53659111031463
 20
27.94036754634794
 10
11.78139214981463
 20
28.95358901754793
 10
12.06626597061464
 20
29.95677682784793
 10
12.39048663251464
 20
30.94754654354796
 10
12.75632933261464
 20
31.93149228854796
 10
13.16333114981464
 20
32.90497181034794
 10
13.60912299941464
 20
33.86112823424793
  0
LWPOLYLINE
  5
2BF
330
2B5
100
AcDbEntity
  8
Bain
100
AcDbPolyline
 90
       17
 70
     0
 43
0.0
 10
20.53656406131464
 20
12.65578314224794
 10
20.64831870331463
 20
12.46428834244796
 10
20.77170263081463
 20
12.28030092404796
 10
20.90621509861464
 20
12.10459240504795
 10
21.05131169421463
 20
11.93790047044794
 10
21.20640835961463
 20
11.78092341204794
 10
21.37087830901463
 20
11.63432520874795
 10
21.54405108791464
 20
11.49873367344796
 10
21.72521779311464
 20
11.37473406044796
 10
21.91363369311464
 20
11.26286609924796
 10
22.10851973531463
 20
11.16362193424794
 10
22.30906507461464
 20
11.07744326614795
 10
22.51443000291464
 20
11.00471863144796
 10
22.72374942131464
 20
10.94578035744794
 10
22.93613787741464
 20
10.90090263364794
 10
23.15069038721462
 20
10.87029828184796
 10
23.36649467711463
 20
10.85411935944796
  0
LINE
  5
2C0
330
2B5
100
AcDbEntity
  8
0
  6
Continuous
 62
     7
100
AcDbLine
 10
6.324465129714639
 20
4.269405261247953
 30
0.0
 11
72.07446512971467
 21
4.269405261247953
 31
0.0
  0
LINE
  5
2C1
330
2B5
100
AcDbEntity
  8
0
  6
Continuous
 62
     7
100
AcDbLine
 10
6.324465129714639
 20
4.394405261247953
 30
0.0
 11
72.07446512971467
 21
4.394405261247953
 31
0.0
  0
LWPOLYLINE
  5
2C2
330
2B5
100
AcDbEntity
  8
0
  6
Continuous
 62
     7
100
AcDbPolyline
 90
       17
 70
     0
 43
0.0
 10
62.13987074551464
 20
8.901463388247947
 10
62.34498017811465
 20
8.921755979247961
 10
62.55040058161466
 20
8.955718041747957
 10
62.75307675561464
 20
9.002967780247956
 10
62.95210896451465
 20
9.063306430947932
 10
63.14678342971461
 20
9.13649964154797
 10
63.33629917321463
 20
9.22224908354795
 10
63.51984226971461
 20
9.320187130447948
 10
63.69659940961463
 20
9.429885791747949
 10
63.86581422301464
 20
9.55087472814796
 10
64.02674906281465
 20
9.682613577547954
 10
64.17874622941463
 20
9.824567066847947
 10
64.32125825681464
 20
9.976241805047948
 10
64.45353511131464
 20
10.13686455984793
 10
64.57669066561464
 20
10.30817633764795
 10
64.68941597161466
 20
10.48926296264795
 10
64.69025963001462
 20
10.49084638224795
  0
LINE
  5
2C3
330
2B5
100
AcDbEntity
  8
0
  6
Continuous
 62
     7
100
AcDbLine
 10
61.92825477181462
 20
8.769405264747945
 30
0.0
 11
16.47067548751464
 21
8.769405264747945
 31
0.0
  0
LINE
  5
2C4
330
2B5
100
AcDbEntity
  8
0
  6
Continuous
 62
     7
100
AcDbLine
 10
61.92828422281464
 20
8.894405261247953
 30
0.0
 11
16.47064603661464
 21
8.894405261247953
 31
0.0
  0
LWPOLYLINE
  5
2C5
330
2B5
100
AcDbEntity
  8
0
  6
Continuous
 62
     7
100
AcDbPolyline
 90
       18
 70
     0
 43
0.0
 10
16.47067548751464
 20
8.769405264747945
 10
16.25268010781464
 20
8.776552236047962
 10
16.03763117461463
 20
8.797825777847947
 10
15.82417126601463
 20
8.833114333447952
 10
15.61355809941463
 20
8.882211792147955
 10
15.40671259251463
 20
8.944916000747952
 10
15.20440782681463
 20
9.020974796647948
 10
15.00745821891463
 20
9.110084217347946
 10
14.81672341591464
 20
9.211855866547949
 10
14.63302976021462
 20
9.325855209347935
 10
14.45718307231463
 20
9.451581282647964
 10
14.28993460761462
 20
9.588483336147959
 10
14.13197751801464
 20
9.735997234247946
 10
13.98387220391463
 20
9.893618547447943
 10
13.84640112571463
 20
10.06054164744796
 10
13.71840032381463
 20
10.23858893744796
 10
13.60123987321464
 20
10.42679976394794
 10
13.49690081581464
 20
10.62262612124794
  0
LWPOLYLINE
  5
2C6
330
2B5
100
AcDbEntity
  8
0
  6
Continuous
 62
     7
100
AcDbPolyline
 90
       18
 70
     0
 43
0.0
 10
16.47064603661464
 20
8.894405261247953
 10
16.26091395421464
 20
8.901280756647963
 10
16.05398825751463
 20
8.921750940147944
 10
15.84856699631463
 20
8.955710615447941
 10
15.64589371741464
 20
9.002957010747934
 10
15.44686260941463
 20
9.063292417947934
 10
15.25218936361463
 20
9.136482046347964
 10
15.06267513931463
 20
9.222227392247958
 10
14.87913313711463
 20
9.320161114347968
 10
14.70237622741463
 20
9.429855533847955
 10
14.53316108251464
 20
9.550840246747952
 10
14.37222639441464
 20
9.682574046847946
 10
14.22022803221463
 20
9.824523200747933
 10
14.07771747921463
 20
9.976190118347943
 10
13.94543000461463
 20
10.13681930584795
 10
13.82224933291464
 20
10.30816180024794
 10
13.70951363791464
 20
10.48926408894795
 10
13.60912299941464
 20
10.67768228834794
  0
LWPOLYLINE
  5
2C7
330
2B5
100
AcDbEntity
  8
Bain
100
AcDbPolyline
 90
       18
 70
     0
 43
0.0
 10
58.30728872961462
 20
10.85411936344795
 10
58.53009178231461
 20
10.86655169494793
 10
58.75175862391465
 20
10.89365231964794
 10
58.97133885481462
 20
10.93529491314794
 10
59.18788816591463
 20
10.99129139034795
 10
59.40047861821465
 20
11.06139185104794
 10
59.60820031791461
 20
11.14528657414794
 10
59.81016596361463
 20
11.24260743054793
 10
60.00551440111464
 20
11.35292989994795
 10
60.19341419601464
 20
11.47577520564795
 10
60.37306655551462
 20
11.61061238974795
 10
60.54370847221462
 20
11.75686068504794
 10
60.70461543111462
 20
11.91389178524795
 10
60.85510527651464
 20
12.08103359414795
 10
60.99454010771466
 20
12.25757268914793
 10
61.12232759291463
 20
12.44275578354796
 10
61.23792280801463
 20
12.63579068074796
 10
61.34083565721464
 20
12.83585922884794
  0
LWPOLYLINE
  5
2C8
330
2B5
100
AcDbEntity
  8
Bain
  6
Continuous
100
AcDbPolyline
 90
       25
 70
     0
 43
0.0
 10
40.40834712971464
 20
9.076184392347954
 10
40.42161557141463
 20
9.076241877047948
 10
40.43482659311464
 20
9.076414016547943
 10
40.44792263971463
 20
9.076699855747961
 10
40.46084641311462
 20
9.077097785147941
 10
40.47354099191463
 20
9.077605518647942
 10
40.48594993661462
 20
9.078220059647946
 10
40.49801738011463
 20
9.078937651047965
 10
40.50968809661464
 20
9.079753702447931
 10
40.52090754731463
 20
9.080662687747945
 10
40.53162190541463
 20
9.081658000247955
 10
40.54177806641463
 20
9.082731748647944
 10
40.55132366651463
 20
9.083874473947957
 10
40.56020725141464
 20
9.085074771847956
 10
40.56837876271463
 20
9.086318816947937
 10
40.57578900221463
 20
9.087589516847941
 10
40.58239194471463
 20
9.088865836547938
 10
40.58814669951464
 20
9.090121875847955
 10
40.59302224381463
 20
9.091326389747962
 10
40.59700235661463
 20
9.092442592647955
 10
40.60009320611463
 20
9.093429435447944
 10
40.60233324981463
 20
9.094245713047939
 10
40.60379327821464
 20
9.094853906447951
 10
40.60457415401462
 20
9.095225605647954
 10
40.60470371571463
 20
9.095293655147941
  0
LWPOLYLINE
  5
2C9
330
2B5
100
AcDbEntity
  8
Bain
  6
Continuous
100
AcDbPolyline
 90
       38
 70
     0
 43
0.0
 10
37.53334712971464
 20
9.157989933647968
 10
37.51222961671464
 20
9.157907610347933
 10
37.49116808071465
 20
9.157660758147954
 10
37.47021749271464
 20
9.157249706547958
 10
37.44943212991464
 20
9.15667496774796
 10
37.42886588011463
 20
9.155937220847931
 10
37.40857002291463
 20
9.155037185847959
 10
37.38859425861465
 20
9.153975564347945
 10
37.36898576161464
 20
9.152752887647949
 10
37.34978972891465
 20
9.151369405947946
 10
37.33104534781464
 20
9.149824576247937
 10
37.31278724171463
 20
9.14811677414795
 10
37.29504329001463
 20
9.146242584447946
 10
37.27783244321464
 20
9.144195753547961
 10
37.26116138781464
 20
9.141965479047939
 10
37.24501462481463
 20
9.139532753447952
 10
37.22934619581464
 20
9.136864718947947
 10
37.21405405991463
 20
9.133901731147943
 10
37.19892287071464
 20
9.130526417747944
 10
37.18426522711464
 20
9.12670109674795
 10
37.17191055561464
 20
9.122899909547953
 10
37.16152427641463
 20
9.119145287847942
 10
37.15263317881464
 20
9.115383671747963
 10
37.14491549531464
 20
9.111576941947959
 10
37.13816681131464
 20
9.107713737647941
 10
37.13216776571464
 20
9.103746238647943
 10
37.12672576651464
 20
9.099598667147944
 10
37.12171971781463
 20
9.095200494747956
 10
37.11707390001463
 20
9.090478177647952
 10
37.11296216721463
 20
9.085625110247946
 10
37.10916652491464
 20
9.08038484034796
 10
37.10586615551463
 20
9.074990477947949
 10
37.10288323701464
 20
9.069101975147958
 10
37.10047611231464
 20
9.063198664947947
 10
37.09848518941463
 20
9.05685818624795
 10
37.09703794711463
 20
9.050348610947935
 10
37.09615203111464
 20
9.043695268247944
 10
37.09584712971464
 20
9.036843819047959
  0
LINE
  5
2CA
330
2B5
100
AcDbEntity
  8
Bain
  6
Continuous
100
AcDbLine
 10
40.65834712971464
 20
8.952436720747954
 30
0.0
 11
37.53334712971464
 21
8.952436720747954
 31
0.0
  0
LINE
  5
2CB
330
2B5
100
AcDbEntity
  8
Bain
  6
Continuous
100
AcDbLine
 10
40.65834712971464
 20
8.975955587347954
 30
0.0
 11
37.53334712971464
 21
8.975955587347954
 31
0.0
  0
LINE
  5
2CC
330
2B5
100
AcDbEntity
  8
Bain
  6
Continuous
100
AcDbLine
 10
40.65834712971464
 20
9.055016469247959
 30
0.0
 11
37.53334712971464
 21
9.055016469247959
 31
0.0
  0
LINE
  5
2CD
330
2B5
100
AcDbEntity
  8
Bain
  6
Continuous
100
AcDbLine
 10
40.40834712971464
 20
9.075892434347963
 30
0.0
 11
37.78334712971464
 21
9.075892434347963
 31
0.0
  0
LINE
  5
2CE
330
2B5
100
AcDbEntity
  8
Bain
  6
Continuous
100
AcDbLine
 10
40.40834712971464
 20
9.076184392347954
 30
0.0
 11
37.78334712971464
 21
9.076184392347954
 31
0.0
  0
LINE
  5
2CF
330
2B5
100
AcDbEntity
  8
Bain
  6
Continuous
100
AcDbLine
 10
37.78334712971464
 20
9.102549498247952
 30
0.0
 11
40.40834712971464
 21
9.102549498247952
 31
0.0
  0
LINE
  5
2D0
330
2B5
100
AcDbEntity
  8
Bain
  6
Continuous
100
AcDbLine
 10
37.78334712971464
 20
9.136432733247943
 30
0.0
 11
40.40834712971464
 21
9.136432733247943
 31
0.0
  0
LINE
  5
2D1
330
2B5
100
AcDbEntity
  8
Bain
  6
Continuous
100
AcDbLine
 10
37.53334712971464
 20
9.157308698447934
 30
0.0
 11
40.65834712971464
 21
9.157308698447934
 31
0.0
  0
LINE
  5
2D2
330
2B5
100
AcDbEntity
  8
Bain
  6
Continuous
100
AcDbLine
 10
37.53334712971464
 20
9.157989933647968
 30
0.0
 11
40.65834712971464
 21
9.157989933647968
 31
0.0
  0
LINE
  5
2D3
330
2B5
100
AcDbEntity
  8
Bain
100
AcDbLine
 10
23.36649467711463
 20
10.85411935424795
 30
0.0
 11
58.30728872961462
 21
10.85411935424795
 31
0.0
  0
LWPOLYLINE
  5
2D4
330
2B5
100
AcDbEntity
  8
Bain
  6
Continuous
100
AcDbPolyline
 90
       31
 70
     0
 43
0.0
 10
37.53334712971464
 20
8.975955587347954
 10
37.51006242821464
 20
8.976041884547953
 10
37.48684372971464
 20
8.976300531347931
 10
37.46375685021464
 20
8.976730794747936
 10
37.44086723181464
 20
8.977331454947943
 10
37.41823975781465
 20
8.978100809547953
 10
37.39593856821465
 20
8.979036677447936
 10
37.37402687801463
 20
8.980136406047961
 10
37.35256679841463
 20
8.981396878047945
 10
37.33161916031465
 20
8.982814520347943
 10
37.31124334201464
 20
8.984385314547949
 10
37.29149710111464
 20
8.98610480804794
 10
37.27243641031464
 20
8.98796812684796
 10
37.25411529931463
 20
8.989969989047949
 10
37.23658570131464
 20
8.992104720247937
 10
37.21989730581464
 20
8.994366269347949
 10
37.20409741791464
 20
8.996748225647934
 10
37.18923082401464
 20
8.999243837247945
 10
37.17533966521464
 20
9.001846030047943
 10
37.16246331751462
 20
9.004547427847938
 10
37.15063828021464
 20
9.007340373347943
 10
37.13989807271464
 20
9.010216949547952
 10
37.13027313941463
 20
9.013169002547954
 10
37.12179076301463
 20
9.016188164347965
 10
37.11447498791462
 20
9.019265876847953
 10
37.10834655141464
 20
9.022393415947959
 10
37.10342282521464
 20
9.025561916247937
 10
37.09971776611464
 20
9.028762396347957
 10
37.09724187661463
 20
9.031985784147934
 10
37.09600217481464
 20
9.035222942547932
 10
37.09584712971464
 20
9.036843819047959
  0
LWPOLYLINE
  5
2D5
330
2B5
100
AcDbEntity
  8
Bain
  6
Continuous
100
AcDbPolyline
 90
       57
 70
     0
 43
0.0
 10
37.53334712971464
 20
9.055016469247959
 10
37.51275215641463
 20
9.055096846247948
 10
37.49220969791463
 20
9.055337916147948
 10
37.47179842931463
 20
9.055738879147952
 10
37.45157976061463
 20
9.056298520847946
 10
37.43161874021463
 20
9.057015049147935
 10
37.41197768271464
 20
9.057886223947946
 10
37.39271855291463
 20
9.058909298147966
 10
37.37390189721462
 20
9.060081054947943
 10
37.35558693771463
 20
9.061397806547944
 10
37.33783129781464
 20
9.062855410047944
 10
37.32069084661464
 20
9.064449279147936
 10
37.30421951601464
 20
9.066174398647945
 10
37.28846913301463
 20
9.068025340647949
 10
37.27348925611464
 20
9.069996280947947
 10
37.25932701911464
 20
9.072081018247956
 10
37.24602698351463
 20
9.07427299274795
 10
37.23363099761464
 20
9.076565307547951
 10
37.22217806531464
 20
9.078950749847962
 10
37.21170422311464
 20
9.081421813847953
 10
37.20224242691464
 20
9.083970724447965
 10
37.19382244801463
 20
9.086589461547958
 10
37.18647077991465
 20
9.089269785147962
 10
37.18021055451463
 20
9.092003261847935
 10
37.17506146951463
 20
9.09478129074796
 10
37.17103972651464
 20
9.09759513064796
 10
37.16815797991464
 20
9.100435928047943
 10
37.16642529701464
 20
9.103294744247932
 10
37.16584712971464
 20
9.10616258404795
 10
37.16642529721463
 20
9.10903042384794
 10
37.16815798031464
 20
9.111889240147945
 10
37.17103972711463
 20
9.114730037447941
 10
37.17506147031464
 20
9.117543877347941
 10
37.18021055541463
 20
9.120321906247937
 10
37.18647078101464
 20
9.123055382847951
 10
37.19382244921464
 20
9.12573570654797
 10
37.20224242831465
 20
9.128354443547948
 10
37.21170422461462
 20
9.13090335414796
 10
37.22217806701464
 20
9.133374418247939
 10
37.23363099941464
 20
9.135759860447933
 10
37.24602698551463
 20
9.138052175247935
 10
37.25932702121465
 20
9.140244149747957
 10
37.27348925831464
 20
9.14232888694795
 10
37.28846913541463
 20
9.144299827347936
 10
37.30421951851464
 20
9.146150769247952
 10
37.32069084921463
 20
9.147875888747933
 10
37.33783130051462
 20
9.149469757847953
 10
37.35558694051464
 20
9.150927361347953
 10
37.37390190011463
 20
9.152244112947954
 10
37.39271855581464
 20
9.153415869647943
 10
37.41197768581465
 20
9.154438943847935
 10
37.43161874311464
 20
9.155310118647946
 10
37.45157976391464
 20
9.156026646847948
 10
37.47179843221464
 20
9.156586288547941
 10
37.49220970121463
 20
9.156987251647933
 10
37.51275216081463
 20
9.157228321447945
 10
37.53334712971464
 20
9.157308698447934
  0
LWPOLYLINE
  5
2D6
330
2B5
100
AcDbEntity
  8
Bain
  6
Continuous
100
AcDbPolyline
 90
       57
 70
     0
 43
0.0
 10
40.65834712971464
 20
9.157308698447934
 10
40.67894209861463
 20
9.157228321447945
 10
40.69948455811463
 20
9.156987251647933
 10
40.71989582721464
 20
9.156586288547941
 10
40.74011449541463
 20
9.156026646847948
 10
40.76007551621464
 20
9.155310118647946
 10
40.77971657361463
 20
9.154438943847935
 10
40.79897570351464
 20
9.153415869647943
 10
40.81779235931462
 20
9.152244112947954
 10
40.83610731891464
 20
9.150927361347953
 10
40.85386295891463
 20
9.149469757847953
 10
40.87100341021463
 20
9.147875888747933
 10
40.88747474091464
 20
9.146150769247952
 10
40.90322512391462
 20
9.144299827347936
 10
40.91820500101464
 20
9.14232888694795
 10
40.93236723811464
 20
9.140244149747957
 10
40.94566727391462
 20
9.138052175247935
 10
40.95806325991463
 20
9.135759860447933
 10
40.96951619241465
 20
9.133374418247939
 10
40.97999003471463
 20
9.13090335414796
 10
40.98945183111463
 20
9.128354443547948
 10
40.99787181011463
 20
9.12573570654797
 10
41.00522347841463
 20
9.123055382847951
 10
41.01148370401463
 20
9.120321906247937
 10
41.01663278911463
 20
9.117543877347941
 10
41.02065453231463
 20
9.114730037447941
 10
41.02353627911464
 20
9.111889240147945
 10
41.02526896221464
 20
9.10903042384794
 10
41.02584712971463
 20
9.10616258404795
 10
41.02526896241464
 20
9.103294744247932
 10
41.02353627951463
 20
9.100435928047943
 10
41.02065453281464
 20
9.09759513064796
 10
41.01663278981463
 20
9.09478129074796
 10
41.01148370491464
 20
9.092003261847935
 10
41.00522347951463
 20
9.089269785147962
 10
40.99787181141464
 20
9.086589461547958
 10
40.98945183251463
 20
9.083970724447965
 10
40.97999003631463
 20
9.081421813847953
 10
40.96951619411463
 20
9.078950749847962
 10
40.95806326181462
 20
9.076565307547951
 10
40.94566727591463
 20
9.07427299274795
 10
40.93236724031463
 20
9.072081018247956
 10
40.91820500331464
 20
9.069996280947947
 10
40.90322512631463
 20
9.068025340647949
 10
40.88747474341462
 20
9.066174398647945
 10
40.87100341281463
 20
9.064449279147936
 10
40.85386296161463
 20
9.062855410047944
 10
40.83610732171464
 20
9.061397806547944
 10
40.81779236221463
 20
9.060081054947943
 10
40.79897570651463
 20
9.058909298147966
 10
40.77971657661463
 20
9.057886223947946
 10
40.76007551921462
 20
9.057015049147935
 10
40.74011449881463
 20
9.056298520847946
 10
40.71989583011462
 20
9.055738879147952
 10
40.69948456141463
 20
9.055337916147948
 10
40.67894210291463
 20
9.055096846247948
 10
40.65834712971464
 20
9.055016469247959
  0
LWPOLYLINE
  5
2D7
330
2B5
100
AcDbEntity
  8
Bain
  6
Continuous
100
AcDbPolyline
 90
       38
 70
     0
 43
0.0
 10
40.65834712971464
 20
9.157989933647968
 10
40.67946464261463
 20
9.157907610347933
 10
40.70052617871463
 20
9.157660758147954
 10
40.72147676671463
 20
9.157249706547958
 10
40.74226212951463
 20
9.15667496774796
 10
40.76282837921463
 20
9.155937220847931
 10
40.78312423651463
 20
9.155037185847959
 10
40.80310000071463
 20
9.153975564347945
 10
40.82270849781465
 20
9.152752887647949
 10
40.84190453041462
 20
9.151369405947946
 10
40.86064891151464
 20
9.149824576247937
 10
40.87890701771463
 20
9.14811677414795
 10
40.89665096941463
 20
9.146242584447946
 10
40.91386181621463
 20
9.144195753547961
 10
40.93053287151464
 20
9.141965479047939
 10
40.94667963451463
 20
9.139532753447952
 10
40.96234806361464
 20
9.136864718947947
 10
40.97764019941464
 20
9.133901731147943
 10
40.99277138861462
 20
9.130526417747944
 10
41.00742903221463
 20
9.12670109674795
 10
41.01978370381464
 20
9.122899909547953
 10
41.03016998301463
 20
9.119145287847942
 10
41.03906108061464
 20
9.115383671747963
 10
41.04677876401463
 20
9.111576941947959
 10
41.05352744801463
 20
9.107713737647941
 10
41.05952649371464
 20
9.103746238647943
 10
41.06496849291462
 20
9.099598667147944
 10
41.06997454161464
 20
9.095200494747956
 10
41.07462035931463
 20
9.090478177647952
 10
41.07873209221462
 20
9.085625110247946
 10
41.08252773451464
 20
9.08038484034796
 10
41.08582810391463
 20
9.074990477947949
 10
41.08881102241464
 20
9.069101975147958
 10
41.09121814701462
 20
9.063198664947947
 10
41.09320907001462
 20
9.05685818624795
 10
41.09465631221463
 20
9.050348610947935
 10
41.09554222821462
 20
9.043695268247944
 10
41.09584712971463
 20
9.036843819047959
  0
LWPOLYLINE
  5
2D8
330
2B5
100
AcDbEntity
  8
Bain
  6
Continuous
100
AcDbPolyline
 90
       51
 70
     0
 43
0.0
 10
37.78334712971464
 20
9.075892434347963
 10
37.76970055531463
 20
9.075952074847947
 10
37.75609622081464
 20
9.076130964147949
 10
37.74260090261463
 20
9.076428357447952
 10
37.72926559661464
 20
9.07684312244794
 10
37.71614393851463
 20
9.077373598947957
 10
37.70328746211463
 20
9.078017701647951
 10
37.69074697671463
 20
9.078772885547948
 10
37.67857196401464
 20
9.079636170847948
 10
37.66681047741464
 20
9.080604150047946
 10
37.65550893491464
 20
9.081673003047939
 10
37.64471194231463
 20
9.082838511247956
 10
37.63446211341463
 20
9.084096074447955
 10
37.62479990191464
 20
9.08544072954794
 10
37.61576344241464
 20
9.086867169347954
 10
37.60738839981464
 20
9.088369763947952
 10
37.59970782871465
 20
9.089942583047957
 10
37.59275204261463
 20
9.091579419047945
 10
37.58654849471464
 20
9.093273811647947
 10
37.58112166881463
 20
9.095019073547945
 10
37.57649298361464
 20
9.096808316447948
 10
37.57268070751464
 20
9.098634478647966
 10
37.56969988681464
 20
9.100490352647966
 10
37.56756228601464
 20
9.102368613747955
 10
37.56627634181463
 20
9.104261848847954
 10
37.56584712971464
 20
9.10616258564795
 10
37.56627634351463
 20
9.108063322547934
 10
37.56756228931464
 20
9.109956557647933
 10
37.56969989181464
 20
9.111834818647963
 10
37.57268071421463
 20
9.113690692647935
 10
37.57649299191463
 20
9.115516854747966
 10
37.58112167871464
 20
9.11730609764794
 10
37.58654850611464
 20
9.119051359347963
 10
37.59275205561464
 20
9.120745751847948
 10
37.59970784301463
 20
9.122382587747949
 10
37.60738841551463
 20
9.123955406747938
 10
37.61576345951464
 20
9.125458001247949
 10
37.62479992031463
 20
9.126884440847959
 10
37.63446213291464
 20
9.12822909574794
 10
37.64471196301463
 20
9.129486658847952
 10
37.65550895671463
 20
9.13065216674795
 10
37.66681050001462
 20
9.131721019547939
 10
37.67857198761463
 20
9.13268899864795
 10
37.69074700091464
 20
9.133552283647958
 10
37.70328748741464
 20
9.134307467447939
 10
37.71614396331464
 20
9.134951569847942
 10
37.72926562451464
 20
9.135482046247943
 10
37.74260092601463
 20
9.135896810747937
 10
37.75609624981463
 20
9.136194204047967
 10
37.76970059191463
 20
9.13637309304795
 10
37.78334712971464
 20
9.136432733247943
  0
LWPOLYLINE
  5
2D9
330
2B5
100
AcDbEntity
  8
Bain
  6
Continuous
100
AcDbPolyline
 90
       25
 70
     0
 43
0.0
 10
37.78334712971464
 20
9.076184392347954
 10
37.77007868791462
 20
9.076241877047948
 10
37.75686766621463
 20
9.076414016547943
 10
37.74377161971464
 20
9.076699855747961
 10
37.73084784621465
 20
9.077097785147941
 10
37.71815326751464
 20
9.077605518647942
 10
37.70574432281464
 20
9.078220059647946
 10
37.69367687921464
 20
9.078937651047965
 10
37.68200616281463
 20
9.079753702447931
 10
37.67078671211463
 20
9.080662687747945
 10
37.66007235401465
 20
9.081658000247955
 10
37.64991619301464
 20
9.082731748647944
 10
37.64037059291464
 20
9.083874473947957
 10
37.63148700801463
 20
9.085074771847956
 10
37.62331549671463
 20
9.086318816947937
 10
37.61590525711464
 20
9.087589516847941
 10
37.60930231471464
 20
9.088865836547938
 10
37.60354755981463
 20
9.090121875847955
 10
37.59867201561464
 20
9.091326389747962
 10
37.59469190281463
 20
9.092442592647955
 10
37.59160105321463
 20
9.093429435447944
 10
37.58936100961462
 20
9.094245713047939
 10
37.58790098121465
 20
9.094853906447951
 10
37.58712010541463
 20
9.095225605647954
 10
37.58699054371464
 20
9.095293655147941
  0
LWPOLYLINE
  5
2DA
330
2B5
100
AcDbEntity
  8
Bain
  6
Continuous
100
AcDbPolyline
 90
       51
 70
     0
 43
0.0
 10
40.40834712971464
 20
9.136432733247943
 10
40.42199366741463
 20
9.13637309304795
 10
40.43559800961462
 20
9.136194204047967
 10
40.44909333331463
 20
9.135896810847953
 10
40.46242863481462
 20
9.135482046247943
 10
40.47555029601463
 20
9.134951569847942
 10
40.48840677191463
 20
9.134307467447939
 10
40.50094725841463
 20
9.133552283647958
 10
40.51312227171464
 20
9.13268899864795
 10
40.52488375931463
 20
9.131721019547939
 10
40.53618530271463
 20
9.13065216674795
 10
40.54698229631462
 20
9.129486658847952
 10
40.55723212641463
 20
9.12822909574794
 10
40.56689433911464
 20
9.126884440847959
 10
40.57593079991464
 20
9.125458001247949
 10
40.58430584381463
 20
9.123955406747938
 10
40.59198641631463
 20
9.122382587747949
 10
40.59894220381463
 20
9.120745751847948
 10
40.60514575331462
 20
9.119051359347963
 10
40.61057258071464
 20
9.11730609764794
 10
40.61520126741463
 20
9.115516854747966
 10
40.61901354511464
 20
9.113690692647935
 10
40.62199436761463
 20
9.111834818747951
 10
40.62413197001463
 20
9.109956557647933
 10
40.62541791581463
 20
9.108063322547934
 10
40.62584712971464
 20
9.106162585747938
 10
40.62541791751463
 20
9.104261848847954
 10
40.62413197341463
 20
9.102368613747955
 10
40.62199437261462
 20
9.100490352647966
 10
40.61901355181463
 20
9.098634478647966
 10
40.61520127571464
 20
9.096808316447948
 10
40.61057259061463
 20
9.095019073547945
 10
40.60514576471463
 20
9.093273811647947
 10
40.59894221681463
 20
9.091579419047945
 10
40.59198643071463
 20
9.089942583047957
 10
40.58430585961462
 20
9.088369763947952
 10
40.57593081701464
 20
9.086867169347954
 10
40.56689435751462
 20
9.08544072954794
 10
40.55723214601464
 20
9.084096074447955
 10
40.54698231711462
 20
9.082838511247956
 10
40.53618532451465
 20
9.081673003047939
 10
40.52488378201464
 20
9.080604150047946
 10
40.51312229541463
 20
9.079636170847948
 10
40.50094728271463
 20
9.078772885547948
 10
40.48840679731462
 20
9.078017701647951
 10
40.47555032091461
 20
9.077373598947957
 10
40.46242866281464
 20
9.07684312244794
 10
40.44909335681462
 20
9.076428357447952
 10
40.43559803861462
 20
9.076130964147949
 10
40.42199370421463
 20
9.075952074847947
 10
40.40834712971464
 20
9.075892434347963
  0
LWPOLYLINE
  5
2DB
330
2B5
100
AcDbEntity
  8
Bain
  6
Continuous
100
AcDbPolyline
 90
       19
 70
     0
 43
0.0
 10
40.40834712971464
 20
9.102549498247952
 10
40.42061021681464
 20
9.102493626847945
 10
40.43282079161464
 20
9.102326252247962
 10
40.44492656631463
 20
9.102048090847944
 10
40.45687570231463
 20
9.101660334047949
 10
40.46861703081463
 20
9.101164642147949
 10
40.48010027421462
 20
9.100563137847927
 10
40.49127626001463
 20
9.099858396847935
 10
40.50209713061464
 20
9.099053436847952
 10
40.51251654921462
 20
9.098151704947952
 10
40.52248989831464
 20
9.09715706254795
 10
40.53197447061463
 20
9.096073768747942
 10
40.54092965171462
 20
9.09490646234795
 10
40.54931709411464
 20
9.093660142047951
 10
40.55710088141462
 20
9.092340144647948
 10
40.56424768231464
 20
9.09095212274795
 10
40.57072689321462
 20
9.089502019947929
 10
40.57651076891462
 20
9.087996045847944
 10
40.57704431031463
 20
9.08783216234795
  0
LWPOLYLINE
  5
2DC
330
2B5
100
AcDbEntity
  8
Bain
  6
Continuous
100
AcDbPolyline
 90
       31
 70
     0
 43
0.0
 10
37.09584712971464
 20
9.013324952347943
 10
37.09644670821463
 20
9.010138308547936
 10
37.09824380051462
 20
9.006960399147942
 10
37.10123348071464
 20
9.003799934447954
 10
37.10540755441464
 20
9.000665577147941
 10
37.11075458071464
 20
8.997565918447946
 10
37.11725990381463
 20
8.994509454047943
 10
37.12490569311463
 20
8.991504561647957
 10
37.13367099201465
 20
8.98855947744795
 10
37.14353177531463
 20
8.985682273647967
 10
37.15446101551463
 20
8.982880836547963
 10
37.16642875621464
 20
8.980162844647963
 10
37.17940219461464
 20
8.977535747747936
 10
37.19334577151464
 20
8.975006746647949
 10
37.20822126851464
 20
8.972582773047946
 10
37.22398791291464
 20
8.970270470847935
 10
37.24060248941463
 20
8.968076178047965
 10
37.25801945861464
 20
8.966005909047964
 10
37.27619108181463
 20
8.964065338247934
 10
37.29506755191464
 20
8.962259784547939
 10
37.31459712971464
 20
8.960594196947965
 10
37.33472628601463
 20
8.959073140747932
 10
37.35539984831464
 20
8.957700784947945
 10
37.37656115181464
 20
8.956480891047959
 10
37.39815219461464
 20
8.955416802847935
 10
37.42011379741463
 20
8.954511436947939
 10
37.44238576491465
 20
8.953767274647958
 10
37.46490705121464
 20
8.953186355847947
 10
37.48761592701463
 20
8.952770272847942
 10
37.51045014881463
 20
8.952520165947959
 10
37.53334712971464
 20
8.952436720747954
  0
LINE
  5
2DD
330
2B5
100
AcDbEntity
  8
Bain
  6
Continuous
100
AcDbLine
 10
37.09584712971464
 20
9.013324952347943
 30
0.0
 11
37.09584712971464
 21
9.036843819047959
 31
0.0
  0
LINE
  5
2DE
330
2B5
100
AcDbEntity
  8
Bain
  6
Continuous
100
AcDbLine
 10
37.53334712971464
 20
9.157989933647968
 30
0.0
 11
37.53334712971464
 21
9.157308698447934
 31
0.0
  0
LINE
  5
2DF
330
2B5
100
AcDbEntity
  8
Bain
  6
Continuous
100
AcDbLine
 10
37.53334712971464
 20
8.952436720747954
 30
0.0
 11
37.53334712971464
 21
9.055016469247959
 31
0.0
  0
LINE
  5
2E0
330
2B5
100
AcDbEntity
  8
Bain
  6
Continuous
100
AcDbLine
 10
37.78334712971464
 20
9.075892434347963
 30
0.0
 11
37.78334712971464
 21
9.136432733247943
 31
0.0
  0
LINE
  5
2E1
330
2B5
100
AcDbEntity
  8
Bain
  6
Continuous
100
AcDbLine
 10
40.40834712971464
 20
9.075892434347963
 30
0.0
 11
40.40834712971464
 21
9.136432733247943
 31
0.0
  0
LINE
  5
2E2
330
2B5
100
AcDbEntity
  8
Bain
  6
Continuous
100
AcDbLine
 10
40.65834712971464
 20
9.157989933647968
 30
0.0
 11
40.65834712971464
 21
9.157308698447934
 31
0.0
  0
LINE
  5
2E3
330
2B5
100
AcDbEntity
  8
Bain
  6
Continuous
100
AcDbLine
 10
40.65834712971464
 20
8.952436720747954
 30
0.0
 11
40.65834712971464
 21
9.055016469247959
 31
0.0
  0
LINE
  5
2E4
330
2B5
100
AcDbEntity
  8
Bain
  6
Continuous
100
AcDbLine
 10
41.09584712971463
 20
9.036843819047959
 30
0.0
 11
41.09584712971463
 21
9.013324952347943
 31
0.0
  0
LWPOLYLINE
  5
2E5
330
2B5
100
AcDbEntity
  8
Bain
  6
Continuous
100
AcDbPolyline
 90
       31
 70
     0
 43
0.0
 10
41.09584712971463
 20
9.036843819047959
 10
41.09569208451463
 20
9.035222942547932
 10
41.09445238281463
 20
9.031985784147934
 10
41.09197649321463
 20
9.028762396347957
 10
41.08827143421463
 20
9.025561916247937
 10
41.08334770801464
 20
9.022393415947959
 10
41.07721927151463
 20
9.019265876847953
 10
41.06990349631463
 20
9.016188164347965
 10
41.06142112001463
 20
9.013169002547954
 10
41.05179618661463
 20
9.010216949547952
 10
41.04105597921463
 20
9.007340373347943
 10
41.02923094191463
 20
9.004547427847938
 10
41.01635459411464
 20
9.001846030047943
 10
41.00246343531463
 20
8.999243837247945
 10
40.98759684151464
 20
8.996748225647934
 10
40.97179695361463
 20
8.994366269347949
 10
40.95510855801463
 20
8.992104720247937
 10
40.93757896001463
 20
8.989969989047949
 10
40.91925784901464
 20
8.98796812684796
 10
40.90019715831464
 20
8.98610480804794
 10
40.88045091731463
 20
8.984385314547949
 10
40.86007509911463
 20
8.982814520347943
 10
40.83912746091463
 20
8.981396878047945
 10
40.81766738131462
 20
8.980136406047961
 10
40.79575569121463
 20
8.979036677447936
 10
40.77345450151463
 20
8.978100809547953
 10
40.75082702751463
 20
8.977331454947943
 10
40.72793740921463
 20
8.976730794747936
 10
40.70485052961463
 20
8.976300531347931
 10
40.68163183121463
 20
8.976041884547953
 10
40.65834712971464
 20
8.975955587347954
  0
LWPOLYLINE
  5
2E6
330
2B5
100
AcDbEntity
  8
Bain
  6
Continuous
100
AcDbPolyline
 90
       31
 70
     0
 43
0.0
 10
41.09584712971463
 20
9.013324952347943
 10
41.09524755111464
 20
9.010138308547936
 10
41.09345045891463
 20
9.006960399147942
 10
41.09046077871464
 20
9.003799934447954
 10
41.08628670501462
 20
9.000665577147941
 10
41.08093967871464
 20
8.997565918447946
 10
41.07443435561463
 20
8.994509454047943
 10
41.06678856631463
 20
8.991504561647957
 10
41.05802326741463
 20
8.98855947744795
 10
41.04816248401464
 20
8.985682273647967
 10
41.03723324381464
 20
8.982880836547963
 10
41.02526550321464
 20
8.980162844647963
 10
41.01229206471463
 20
8.977535747747936
 10
40.99834848781464
 20
8.975006746647949
 10
40.98347299081463
 20
8.972582773047946
 10
40.96770634641463
 20
8.970270470847935
 10
40.95109177001463
 20
8.968076178047965
 10
40.93367480081464
 20
8.966005909047964
 10
40.91550317761464
 20
8.964065338247934
 10
40.89662670751462
 20
8.962259784547939
 10
40.87709712971464
 20
8.960594196947965
 10
40.85696797331464
 20
8.959073140747932
 10
40.83629441101463
 20
8.957700784947945
 10
40.81513310761464
 20
8.956480891047959
 10
40.79354206471463
 20
8.955416802847935
 10
40.77158046191463
 20
8.954511436947939
 10
40.74930849441463
 20
8.953767274647958
 10
40.72678720811462
 20
8.953186355847947
 10
40.70407833241463
 20
8.952770272847942
 10
40.68124411051464
 20
8.952520165947959
 10
40.65834712971464
 20
8.952436720747954
  0
LWPOLYLINE
  5
2E7
330
2B5
100
AcDbEntity
  8
Bain
  6
Continuous
100
AcDbPolyline
 90
       19
 70
     0
 43
0.0
 10
37.61464994901464
 20
9.08783216234795
 10
37.61518349041462
 20
9.087996045847944
 10
37.62096736621463
 20
9.089502019947929
 10
37.62744657701464
 20
9.09095212274795
 10
37.63459337801463
 20
9.092340144647948
 10
37.64237716531464
 20
9.093660142047951
 10
37.65076460761463
 20
9.09490646234795
 10
37.65971978871464
 20
9.096073768747942
 10
37.66920436101464
 20
9.09715706254795
 10
37.67917771011463
 20
9.098151704947952
 10
37.68959712871464
 20
9.099053436847952
 10
37.70041799941463
 20
9.099858396847935
 10
37.71159398511463
 20
9.100563137847927
 10
37.72307722851464
 20
9.101164642147949
 10
37.73481855711462
 20
9.101660334047949
 10
37.74676769301463
 20
9.102048090847944
 10
37.75887346781464
 20
9.102326252247962
 10
37.77108404251463
 20
9.102493626847945
 10
37.78334712971464
 20
9.102549498247952
  0
LWPOLYLINE
  5
2E8
330
2B5
100
AcDbEntity
  8
Bain
100
AcDbPolyline
 90
       17
 70
     0
 43
0.0
 10
23.36649469211464
 20
33.68469116384796
 10
23.15069032381463
 20
33.66851223074795
 10
22.93613779011463
 20
33.63790786734796
 10
22.72374935161463
 20
33.59303013954795
 10
22.51442994771463
 20
33.53409186024794
 10
22.30906503451463
 20
33.46136722224793
 10
22.10851970781464
 20
33.37518855114797
 10
21.91363367691464
 20
33.27594438404796
 10
21.72521778801463
 20
33.16407642234793
 10
21.54405109471463
 20
33.04007681114797
 10
21.37087832611463
 20
32.90448527874793
 10
21.20640838201463
 20
32.75788707544797
 10
21.05131172341463
 20
32.60091001974797
 10
20.90621514351463
 20
32.43421809854794
 10
20.77170268951464
 20
32.25850959754794
 10
20.64831875531464
 20
32.07452215784795
 10
20.53656410141464
 20
31.88302736424794
  0
LINE
  5
2E9
330
2B5
100
AcDbEntity
  8
Bain
100
AcDbLine
 10
58.30728872841463
 20
33.68469116834797
 30
0.0
 11
23.36649469211464
 21
33.68469116834797
 31
0.0
  0
LWPOLYLINE
  5
2EA
330
2B5
100
AcDbEntity
  8
0
  6
Continuous
 62
     7
100
AcDbPolyline
 90
       17
 70
     0
 43
0.0
 10
16.25905951391463
 20
35.63734713434795
 10
16.05395008131464
 20
35.61705454324795
 10
15.84852967771464
 20
35.58309248084794
 10
15.64585350371463
 20
35.53584274234794
 10
15.44682129481464
 20
35.47550409164796
 10
15.25214682961463
 20
35.40231088104795
 10
15.06263108621463
 20
35.31656143904797
 10
14.87908798971463
 20
35.21862339214795
 10
14.70233084981463
 20
35.10892473074796
 10
14.53311603631464
 20
34.98793579444793
 10
14.37218119651463
 20
34.85619694494796
 10
14.22018403001463
 20
34.71424345574795
 10
14.07767200261463
 20
34.56256871754795
 10
13.94539514801464
 20
34.40194596274796
 10
13.82223959381464
 20
34.23063418494795
 10
13.70951428771464
 20
34.04954755994794
 10
13.70867062941464
 20
34.04796414034795
  0
LINE
  5
2EB
330
2B5
100
AcDbEntity
  8
0
  6
Continuous
 62
     7
100
AcDbLine
 10
16.47064603661464
 20
35.64440526124793
 30
0.0
 11
61.92828422281464
 21
35.64440526124793
 31
0.0
  0
LINE
  5
2EC
330
2B5
100
AcDbEntity
  8
0
  6
Continuous
 62
     7
100
AcDbLine
 10
16.47067548751464
 20
35.76940525784795
 30
0.0
 11
61.92825477181462
 21
35.76940525784795
 31
0.0
  0
LWPOLYLINE
  5
2ED
330
2B5
100
AcDbEntity
  8
0
  6
Continuous
 62
     7
100
AcDbPolyline
 90
       18
 70
     0
 43
0.0
 10
61.92828422281464
 20
35.64440526124793
 10
62.13801630521463
 20
35.63752976594793
 10
62.34494200191464
 20
35.61705958244795
 10
62.55036326311466
 20
35.58309990714795
 10
62.75303654201462
 20
35.53585351184796
 10
62.95206765001461
 20
35.47551810464796
 10
63.14674089581467
 20
35.40232847624793
 10
63.33625512011463
 20
35.31658313034796
 10
63.51979712231463
 20
35.21864940824793
 10
63.69655403201466
 20
35.10895498874794
 10
63.86576917681463
 20
34.98797027584795
 10
64.02670386501461
 20
34.85623647574795
 10
64.17870222721461
 20
34.71428732184796
 10
64.32121278021464
 20
34.56262040424795
 10
64.45350025481463
 20
34.40199121674794
 10
64.57668092651466
 20
34.23064872234795
 10
64.68941662141464
 20
34.04954643364795
 10
64.78980725991466
 20
33.86112823424793
  0
LWPOLYLINE
  5
2EE
330
2B5
100
AcDbEntity
  8
0
  6
Continuous
 62
     7
100
AcDbPolyline
 90
       18
 70
     0
 43
0.0
 10
61.92825477181462
 20
35.76940525784795
 10
62.14625015151465
 20
35.76225828654794
 10
62.36129908471461
 20
35.74098474474795
 10
62.57475899331467
 20
35.70569618904796
 10
62.78537216001462
 20
35.65659873044797
 10
62.99221766691466
 20
35.59389452184797
 10
63.19452243251465
 20
35.51783572594795
 10
63.39147204051466
 20
35.42872630524795
 10
63.58220684351465
 20
35.32695465604795
 10
63.76590049911465
 20
35.21295531314797
 10
63.94174718711463
 20
35.08722923994793
 10
64.10899565181466
 20
34.95032718644797
 10
64.26695274141462
 20
34.80281328834795
 10
64.41505805551464
 20
34.64519197504797
 10
64.55252913371464
 20
34.47826887514793
 10
64.68052993561463
 20
34.30022158514794
 10
64.79769038621464
 20
34.11201075854797
 10
64.90202944361465
 20
33.91618440134795
  0
LINE
  5
2EF
330
2B5
100
AcDbEntity
  8
0
  6
Continuous
 62
     7
100
AcDbLine
 10
6.324465129714639
 20
40.14440526124793
 30
0.0
 11
72.07446512971467
 21
40.14440526124793
 31
0.0
  0
LINE
  5
2F0
330
2B5
100
AcDbEntity
  8
0
  6
Continuous
 62
     7
100
AcDbLine
 10
72.07446512971467
 20
40.26940526124792
 30
0.0
 11
6.324465129714639
 21
40.26940526124792
 31
0.0
  0
LWPOLYLINE
  5
2F1
330
2B5
100
AcDbEntity
  8
Bain
100
AcDbPolyline
 90
       18
 70
     0
 43
0.0
 10
61.34083565591463
 20
31.70295129374796
 10
61.23792280671465
 20
31.90301984174795
 10
61.12232759151464
 20
32.09605473894794
 10
60.99454010641465
 20
32.28123783334794
 10
60.85510527531464
 20
32.45777692834796
 10
60.70461542981464
 20
32.62491873724795
 10
60.54370847091464
 20
32.78194983744794
 10
60.37306655431463
 20
32.92819813264794
 10
60.19341419491464
 20
33.06303531684796
 10
60.00551440001463
 20
33.18588062254793
 10
59.81016596251463
 20
33.29620309194798
 10
59.60820031681463
 20
33.39352394834794
 10
59.40047861721463
 20
33.47741867144794
 10
59.18788816491463
 20
33.54751913214796
 10
58.97133885381463
 20
33.60351560934794
 10
58.75175862291463
 20
33.64515820284794
 10
58.53009178151466
 20
33.67225882764797
 10
58.30728872841463
 20
33.68469115914795
  0
LWPOLYLINE
  5
2F2
330
2B5
100
AcDbEntity
  8
0
  6
Continuous
 62
     7
100
AcDbPolyline
 90
       23
 70
     0
 43
0.0
 10
65.23368481331465
 20
11.62973283494796
 10
65.63414529451467
 20
12.58592207574793
 10
65.99848750131463
 20
13.56281207694795
 10
66.32394361531464
 20
14.55354406014794
 10
66.60983838551465
 20
15.55597845684795
 10
66.85571573481462
 20
16.56851698954796
 10
67.06124046021466
 20
17.58979008684795
 10
67.22619367791463
 20
18.61846951814795
 10
67.35031464561462
 20
19.65308526974794
 10
67.43337113901464
 20
20.69189730674793
 10
67.47524536991466
 20
21.73313458494795
 10
67.47584918131463
 20
22.77520900324794
 10
67.43517758521466
 20
23.81654279004795
 10
67.35333017711463
 20
24.85536632624795
 10
67.23043842321465
 20
25.88991671114795
 10
67.06669908331463
 20
26.91871472834794
 10
66.86232448461464
 20
27.94043398684795
 10
66.61752067851466
 20
28.95365537384794
 10
66.33264215861465
 20
29.95684927094794
 10
66.00842354051462
 20
30.94760405024795
 10
65.64259440151466
 20
31.93150882114796
 10
65.23560032191466
 20
32.90496906684797
 10
65.23367986531463
 20
32.90908815794796
  0
LWPOLYLINE
  5
2F3
330
2B5
100
AcDbEntity
  8
0
  6
Continuous
 62
     7
100
AcDbPolyline
 90
       18
 70
     0
 43
0.0
 10
64.78980725991466
 20
10.67768228834794
 10
64.69123522201465
 20
10.49242057814794
 10
64.58169876931464
 20
10.31567473414793
 10
64.46071514301462
 20
10.14622219574795
 10
64.32901420821463
 20
9.985089995647967
 10
64.18716737301463
 20
9.832993765247948
 10
64.03570071271463
 20
9.690472569847941
 10
63.87523515051464
 20
9.55811413564794
 10
63.70645871341463
 20
9.436486669647933
 10
63.53011344661462
 20
9.32613150224796
 10
63.34695499501464
 20
9.227520687347947
 10
63.15779464491464
 20
9.141078950047955
 10
62.96340047141462
 20
9.067159946247954
 10
62.76446216811462
 20
9.006039564547961
 10
62.56198174861464
 20
8.958045016647929
 10
62.35389632591465
 20
8.922945731347965
 10
62.14165046561463
 20
8.901522756347958
 10
61.92828422281464
 20
8.894405261247953
  0
LWPOLYLINE
  5
2F4
330
2B5
100
AcDbEntity
  8
0
  6
Continuous
 62
     7
100
AcDbPolyline
 90
       18
 70
     0
 43
0.0
 10
64.90202944361465
 20
10.62262612124794
 10
64.79958058751464
 20
10.43008052784793
 10
64.68574429841464
 20
10.24639610914795
 10
64.56002632251466
 20
10.07031244914793
 10
64.42316576461462
 20
9.902867830547961
 10
64.27574980021467
 20
9.744799924247956
 10
64.11834538171461
 20
9.596691661947943
 10
63.95158417371465
 20
9.459140267047928
 10
63.77619356621465
 20
9.332746367447953
 10
63.59292769481465
 20
9.218060367247943
 10
63.40259129041465
 20
9.11558497974795
 10
63.20600974131463
 20
9.025752004047944
 10
63.00399484111466
 20
8.948935172447932
 10
62.79724635161466
 20
8.885415365847961
 10
62.58683208131464
 20
8.835540073947953
 10
62.37060409761465
 20
8.799067362347955
 10
62.15002739321464
 20
8.776803763847965
 10
61.92825477181462
 20
8.769405264747945
  0
LWPOLYLINE
  5
2F5
330
2B5
100
AcDbEntity
  8
0
  6
Continuous
 62
     7
100
AcDbPolyline
 90
       17
 70
     0
 43
0.0
 10
64.69025410061465
 20
34.04797461064794
 10
64.58167743161465
 20
34.22316783384796
 10
64.46069203791461
 20
34.39261855444795
 10
64.32898682641462
 20
34.55375188104796
 10
64.18713659361464
 20
34.70584767184795
 10
64.03566617971467
 20
34.84836838464796
 10
63.87519627031463
 20
34.98072637894797
 10
63.70641546771463
 20
35.10235292244795
 10
63.53006629051463
 20
35.21270642834793
 10
63.34690419251462
 20
35.31131508544794
 10
63.15773924141462
 20
35.39775473464795
 10
62.96334170151465
 20
35.47167075534793
 10
62.76439572741463
 20
35.53278901504797
 10
62.56192575801463
 20
35.58077686314795
 10
62.35387897201464
 20
35.61586713174796
 10
62.14165176051465
 20
35.63728767924795
 10
62.13985891021462
 20
35.63734748574794
  0
LWPOLYLINE
  5
2F6
330
2B5
100
AcDbEntity
  8
0
  6
Continuous
 62
     7
100
AcDbPolyline
 90
       24
 70
     0
 43
0.0
 10
64.78980725991466
 20
33.86112823424793
 10
65.23189590551464
 20
32.91334774694795
 10
65.63413059691464
 20
31.95292559004796
 10
65.99847501421464
 20
30.97603406484797
 10
66.32393173371463
 20
29.98530519994796
 10
66.60982751701465
 20
28.98287324734795
 10
66.85570589531465
 20
27.97033786714795
 10
67.06123183871466
 20
26.94906814104795
 10
67.22618667341464
 20
25.92039099584795
 10
67.35030953141467
 20
24.88577643794795
 10
67.43336797611465
 20
23.84696587694794
 10
67.47524425431464
 20
22.80573063024795
 10
67.47585027641463
 20
21.76365844284794
 10
67.43518110001463
 20
20.72232740854795
 10
67.35333636751466
 20
19.68350688864797
 10
67.23044740131462
 20
18.64895843844795
 10
67.06671079131462
 20
17.62016101524796
 10
66.86233914901464
 20
16.59844297614796
 10
66.61753810951466
 20
15.58522150504794
 10
66.33266428881461
 20
14.58203369474796
 10
66.00844362691464
 20
13.59126397894795
 10
65.64260092671464
 20
12.60731823404796
 10
65.23559910951462
 20
11.63383871224795
 10
64.78980725991466
 20
10.67768228834794
  0
LWPOLYLINE
  5
2F7
330
2B5
100
AcDbEntity
  8
0
  6
Continuous
 62
     7
100
AcDbPolyline
 90
       24
 70
     0
 43
0.0
 10
64.90202944361465
 20
33.91618440134795
 10
65.34621174921466
 20
32.96391342594797
 10
65.75036166381465
 20
31.99891840564794
 10
66.11643624851462
 20
31.01738799104794
 10
66.44343672601462
 20
30.02195976084795
 10
66.73068922001466
 20
29.01477071974796
 10
66.97773656611463
 20
27.99742135654796
 10
67.18423918411463
 20
26.97129859284795
 10
67.34997742991464
 20
25.93773598374793
 10
67.47469020301463
 20
24.89820416974794
 10
67.55814311681461
 20
23.85446015924793
 10
67.60021825221463
 20
22.80828010724795
 10
67.60082715391462
 20
21.76125425994795
 10
67.55996484911463
 20
20.71497785264796
 10
67.47773142141466
 20
19.67122395114796
 10
67.35425839841463
 20
18.63175852534794
 10
67.18974415801466
 20
17.59807503154795
 10
66.98440136531463
 20
16.57150201564795
 10
66.73843643231464
 20
15.55346311164794
 10
66.45221070151461
 20
14.54551445034795
 10
66.12645215891461
 20
13.55004521654794
 10
65.75887225841461
 20
12.56142730424796
 10
65.34993261751464
 20
11.58331298654795
 10
64.90202944361465
 20
10.62262612124794
  0
LINE
  5
2F8
330
2B5
100
AcDbEntity
  8
0
  6
Continuous
 62
     7
100
AcDbLine
 10
72.07446512971467
 20
4.394405261247953
 30
0.0
 11
72.07446512971467
 21
40.14440526124793
 31
0.0
  0
LINE
  5
2F9
330
2B5
100
AcDbEntity
  8
0
  6
Continuous
 62
     7
100
AcDbLine
 10
72.19946512971467
 20
4.394405261247953
 30
0.0
 11
72.19946512971467
 21
40.14440526124793
 31
0.0
  0
ARC
  5
2FA
330
2B5
100
AcDbEntity
  8
Bain
100
AcDbCircle
 10
41.16821512971462
 20
22.26940526124792
 30
0.0
 40
22.2694052687
100
AcDbArc
 50
334.9372780698991
 51
25.06272193149962
  0
ARC
  5
2FB
330
2B5
100
AcDbEntity
  8
Bain
100
AcDbCircle
 10
37.23071512971463
 20
22.26940526124792
 30
0.0
 40
19.2643819069
100
AcDbArc
 50
150.0637502685008
 51
209.9362497145001
  0
ARC
  5
2FC
330
2B5
100
AcDbEntity
  8
0
  6
Continuous
 62
     7
100
AcDbCircle
 10
72.07446512971467
 20
40.14440526124793
 30
0.0
 40
0.125
100
AcDbArc
 50
0.0
 51
90.0
  0
ARC
  5
2FD
330
2B5
100
AcDbEntity
  8
0
  6
Continuous
 62
     7
100
AcDbCircle
 10
72.07446512971467
 20
4.394405261247953
 30
0.0
 40
0.125
100
AcDbArc
 50
270.0
 51
0.0
  0
ARC
  5
2FE
330
2B5
100
AcDbEntity
  8
0
  6
Continuous
 62
     7
100
AcDbCircle
 10
6.324465129714639
 20
4.394405261247953
 30
0.0
 40
0.125
100
AcDbArc
 50
180.0
 51
270.0
  0
ARC
  5
2FF
330
2B5
100
AcDbEntity
  8
0
  6
Continuous
 62
     7
100
AcDbCircle
 10
6.324465129714639
 20
40.14440526124793
 30
0.0
 40
0.125
100
AcDbArc
 50
90.0
 51
180.0
  0
CIRCLE
  5
300
330
2B5
100
AcDbEntity
  8
Bain
  6
Continuous
100
AcDbCircle
 10
39.09584712971464
 20
15.64440526124795
 30
0.0
 40
1.9785533906
  0
CIRCLE
  5
301
330
2B5
100
AcDbEntity
  8
Bain
  6
Continuous
100
AcDbCircle
 10
39.09584712971464
 20
15.64440526124795
 30
0.0
 40
1.271446609399999
  0
LINE
  5
302
330
2B5
100
AcDbEntity
  8
ligne-axe
 48
0.1
100
AcDbLine
 10
42.03027945890416
 20
15.64440526124798
 30
0.0
 11
36.16141480052524
 21
15.64440526124795
 31
0.0
  0
LINE
  5
303
330
2B5
100
AcDbEntity
  8
ligne-axe
 48
0.1
100
AcDbLine
 10
39.09584712971464
 20
18.57883759043741
 30
0.0
 11
39.09584712971464
 21
12.70997293205849
 31
0.0
  0
INSERT
  5
304
330
2B5
100
AcDbEntity
  8
DIM-1_16
100
AcDbBlockReference
  2
Bulle moteur
 10
8.406270037482656
 20
21.89440526123127
 30
0.0
  0
LINE
  5
305
330
2B5
100
AcDbEntity
  8
ligne-axe
100
AcDbLine
 10
74.91588567159533
 20
22.26940526124792
 30
0.0
 11
11.73060101833198
 21
22.26940526124792
 31
0.0
  0
LINE
  5
306
330
2B5
100
AcDbEntity
  8
ligne-axe
100
AcDbLine
 10
5.278770066168362
 20
22.26940526124792
 30
0.0
 11
-0.0000000929301223
 21
22.26940526124792
 31
0.0
  0
LINE
  5
307
330
2B5
100
AcDbEntity
  8
ligne-axe
 48
0.1
100
AcDbLine
 10
42.84087283723475
 20
15.64440526124798
 30
0.0
 11
71.37252728118074
 21
15.64440526124795
 31
0.0
  0
ENDBLK
  5
30B
330
2B5
100
AcDbEntity
  8
0
100
AcDbBlockEnd
  0
ENDSEC
  0
SECTION
  2
ENTITIES
  0
LWPOLYLINE
  5
94C
330
1F
100
AcDbEntity
  8
0
  6
Continuous
 62
     7
100
AcDbPolyline
 90
       23
 70
     0
 43
0.0
 10
10.38078313258673
 20
33.20156333195617
 10
9.980322651386721
 20
32.24537409115619
 10
9.61598044458676
 20
31.26848408995618
 10
9.290524330586741
 20
30.2777521066562
 10
9.004629560286751
 20
29.27531771005618
 10
8.75875221098672
 20
28.26277917735618
 10
8.553227485686726
 20
27.24150608005619
 10
8.388274267886764
 20
26.21282664875619
 10
8.264153300286714
 20
25.17821089715619
 10
8.181096806886749
 20
24.13939886005619
 10
8.139222575886741
 20
23.0981615818562
 10
8.138618764486771
 20
22.0560871636562
 10
8.179290360686728
 20
21.01475337685619
 10
8.26113776878676
 20
19.97592984065619
 10
8.38402952258675
 20
18.94137945575619
 10
8.547768862586757
 20
17.9125814385562
 10
8.752143461286742
 20
16.89086218005619
 10
8.996947267386723
 20
15.87764079295621
 10
9.281825787186754
 20
14.87444689595619
 10
9.606044405286773
 20
13.88369211665619
 10
9.971873544386731
 20
12.89978734565619
 10
10.37886762388674
 20
11.9263271000562
 10
10.38078808058676
 20
11.92220800895617
  0
LWPOLYLINE
  5
94D
330
1F
100
AcDbEntity
  8
0
  6
Continuous
 62
     7
100
AcDbPolyline
 90
       18
 70
     0
 43
0.0
 10
10.71243850228674
 20
34.20867004565618
 10
10.81488735838675
 20
34.40121563905616
 10
10.92872364748674
 20
34.58490005775618
 10
11.05444162338673
 20
34.76098371775619
 10
11.19130218128676
 20
34.92842833635616
 10
11.33871814568672
 20
35.08649624265617
 10
11.49612256418677
 20
35.23460450495618
 10
11.66288377218674
 20
35.3721558998562
 10
11.83827437958674
 20
35.49854979945617
 10
12.02154025108674
 20
35.61323579965618
 10
12.21187665538675
 20
35.71571118715617
 10
12.40845820448671
 20
35.80554416285618
 10
12.61047310478673
 20
35.88236099445619
 10
12.81722159418674
 20
35.94588080105616
 10
13.02763586458676
 20
35.9957560929562
 10
13.24386384828674
 20
36.03222880455617
 10
13.46444055268674
 20
36.05449240305616
 10
13.68621317398678
 20
36.06189090215618
  0
LWPOLYLINE
  5
94E
330
1F
100
AcDbEntity
  8
0
  6
Continuous
 62
     7
100
AcDbPolyline
 90
       18
 70
     0
 43
0.0
 10
10.82466068588675
 20
34.15361387855616
 10
10.92323272378674
 20
34.33887558875618
 10
11.03276917648676
 20
34.51562143275619
 10
11.15375280278672
 20
34.68507397115617
 10
11.28545373768676
 20
34.84620617125619
 10
11.42730057288676
 20
34.99830240165618
 10
11.57876723318676
 20
35.14082359705618
 10
11.73923279538675
 20
35.27318203125619
 10
11.90800923238676
 20
35.39480949725619
 10
12.08435449928677
 20
35.50516466465616
 10
12.26751295078676
 20
35.60377547955618
 10
12.45667330098674
 20
35.6902172168562
 10
12.65106747448671
 20
35.76413622065617
 10
12.85000577778671
 20
35.82525660235616
 10
13.05248619718677
 20
35.8732511502562
 10
13.26057161998674
 20
35.90835043555616
 10
13.47281748028676
 20
35.92977341055617
 10
13.68618372308677
 20
35.93689090555616
  0
LWPOLYLINE
  5
94F
330
1F
100
AcDbEntity
  8
0
  6
Continuous
 62
     7
100
AcDbPolyline
 90
       17
 70
     0
 43
0.0
 10
10.92421384528673
 20
10.7833215562562
 10
11.03279051428674
 20
10.6081283329562
 10
11.15377590798678
 20
10.43867761245619
 10
11.28548111948671
 20
10.27754428575619
 10
11.42733135218676
 20
10.12544849505619
 10
11.57880176618672
 20
9.982927782256183
 10
11.73927167558675
 20
9.850569787956203
 10
11.90805247808676
 20
9.728943244456189
 10
12.08440165528676
 20
9.618589738556181
 10
12.26756375338677
 20
9.519981081356178
 10
12.45672870438673
 20
9.433541432256191
 10
12.65112624438674
 20
9.359625411556208
 10
12.85007221848675
 20
9.298507151856199
 10
13.05254218788676
 20
9.250519303756192
 10
13.26058897378679
 20
9.215429035156176
 10
13.47281618538674
 20
9.194008487656191
 10
13.47460903568677
 20
9.1939486811562
  0
LWPOLYLINE
  5
950
330
1F
100
AcDbEntity
  8
0
  6
Continuous
 62
     7
100
AcDbPolyline
 90
       24
 70
     0
 43
0.0
 10
10.71243850228674
 20
10.91511176555619
 10
10.26825619668673
 20
11.86738274095617
 10
9.86410628208673
 20
12.83237776125619
 10
9.498031697386771
 20
13.8139081758562
 10
9.171031219886764
 20
14.80933640605619
 10
8.883778725786747
 20
15.81652544715618
 10
8.636731379786759
 20
16.83387481035621
 10
8.430228761786757
 20
17.85999757395618
 10
8.264490515886755
 20
18.89356018315618
 10
8.139777742786712
 20
19.9330919971562
 10
8.056324829086769
 20
20.9768360076562
 10
8.014249693586769
 20
22.02301605965619
 10
8.013640791986766
 20
23.07004190695619
 10
8.054503096786753
 20
24.11631831415619
 10
8.136736524386741
 20
25.16007221575617
 10
8.260209547486759
 20
26.1995376414562
 10
8.424723787786739
 20
27.23322113535619
 10
8.630066580486776
 20
28.25979415125622
 10
8.876031513586745
 20
29.2778330552562
 10
9.162257244386772
 20
30.28578171655617
 10
9.488015786986714
 20
31.28125095025616
 10
9.855595687486719
 20
32.26986886265617
 10
10.26453532838675
 20
33.2479831803562
 10
10.71243850228674
 20
34.20867004565618
  0
LWPOLYLINE
  5
951
330
1F
100
AcDbEntity
  8
0
  6
Continuous
 62
     7
100
AcDbPolyline
 90
       24
 70
     0
 43
0.0
 10
10.82466068588675
 20
10.97016793265618
 10
10.38257204038674
 20
11.91794841995619
 10
9.980337348986743
 20
12.87837057685618
 10
9.615992931586752
 20
13.8552621020562
 10
9.29053621208677
 20
14.84599096695618
 10
9.00464042878675
 20
15.84842291945619
 10
8.758762050486744
 20
16.86095829965617
 10
8.553236107186727
 20
17.88222802585619
 10
8.388281272386755
 20
18.91090517105618
 10
8.264158414486722
 20
19.94551972895618
 10
8.181099969786735
 20
20.98433028995621
 10
8.139223691586742
 20
22.0255655365562
 10
8.138617669386711
 20
23.0676377240562
 10
8.179286845786712
 20
24.10896875835621
 10
8.261131578386731
 20
25.1477892782562
 10
8.384020544486723
 20
26.18233772845619
 10
8.547757154486724
 20
27.21113515165618
 10
8.752128796786756
 20
28.23285319065618
 10
8.996929836286732
 20
29.24607466185617
 10
9.281803657086719
 20
30.24926247215616
 10
9.606024318986747
 20
31.24003218785619
 10
9.971867019086765
 20
32.22397793285619
 10
10.37886883628678
 20
33.19745745465617
 10
10.82466068588675
 20
34.15361387855616
  0
LWPOLYLINE
  5
952
330
1F
100
AcDbEntity
  8
0
100
AcDbPolyline
 90
       17
 70
     0
 43
0.0
 10
17.75210174778673
 20
12.94826878655618
 10
17.86385638978678
 20
12.7567739867562
 10
17.98724031728674
 20
12.57278656835621
 10
18.12175278508679
 20
12.39707804935619
 10
18.26684938068676
 20
12.23038611475618
 10
18.42194604608674
 20
12.07340905635618
 10
18.58641599548677
 20
11.92681085305619
 10
18.75958877438675
 20
11.7912193177562
 10
18.94075547958679
 20
11.6672197047562
 10
19.12917137958678
 20
11.5553517435562
 10
19.32405742178677
 20
11.45610757855618
 10
19.52460276108676
 20
11.36992891045619
 10
19.72996768938677
 20
11.2972042757562
 10
19.93928710778679
 20
11.23826600175618
 10
20.15167556388676
 20
11.19338827795619
 10
20.36622807368676
 20
11.16278392615621
 10
20.58203236358677
 20
11.1466050037562
  0
LWPOLYLINE
  5
953
330
1F
100
AcDbEntity
  8
0
  6
Continuous
 62
     7
100
AcDbPolyline
 90
       17
 70
     0
 43
0.0
 10
59.35540843198673
 20
9.19394903255619
 10
59.56051786458673
 20
9.214241623556205
 10
59.76593826808679
 20
9.2482036860562
 10
59.96861444208676
 20
9.2954534245562
 10
60.16764665098677
 20
9.355792075256175
 10
60.36232111618669
 20
9.428985285856214
 10
60.55183685968681
 20
9.514734727856193
 10
60.73537995618679
 20
9.612672774756191
 10
60.91213709608681
 20
9.722371436056192
 10
61.08135190948682
 20
9.843360372456203
 10
61.24228674928671
 20
9.975099221856197
 10
61.39428391588675
 20
10.11705271115619
 10
61.53679594328677
 20
10.26872744935619
 10
61.66907279778676
 20
10.42935020415618
 10
61.79222835208683
 20
10.60066198195619
 10
61.90495365808673
 20
10.7817486069562
 10
61.9057973164868
 20
10.78333202655619
  0
LINE
  5
954
330
1F
100
AcDbEntity
  8
0
  6
Continuous
 62
     7
100
AcDbLine
 10
59.14379245828676
 20
9.061890909056188
 30
0.0
 11
13.68621317398678
 21
9.061890909056188
 31
0.0
  0
LINE
  5
955
330
1F
100
AcDbEntity
  8
0
  6
Continuous
 62
     7
100
AcDbLine
 10
59.1438219092868
 20
9.186890905556197
 30
0.0
 11
13.68618372308677
 21
9.186890905556197
 31
0.0
  0
LWPOLYLINE
  5
956
330
1F
100
AcDbEntity
  8
0
  6
Continuous
 62
     7
100
AcDbPolyline
 90
       18
 70
     0
 43
0.0
 10
13.68621317398678
 20
9.061890909056188
 10
13.46821779428675
 20
9.069037880356205
 10
13.25316886108673
 20
9.09031142215619
 10
13.03970895248674
 20
9.125599977756195
 10
12.82909578588671
 20
9.174697436456199
 10
12.62225027898673
 20
9.237401645056195
 10
12.41994551328675
 20
9.313460440956191
 10
12.22299590538673
 20
9.402569861656189
 10
12.03226110238673
 20
9.504341510856193
 10
11.84856744668675
 20
9.618340853656178
 10
11.67272075878676
 20
9.744066926956207
 10
11.50547229408672
 20
9.880968980456202
 10
11.34751520448676
 20
10.02848287855619
 10
11.19940989038675
 20
10.18610419175618
 10
11.06193881218674
 20
10.3530272917562
 10
10.93393801028676
 20
10.5310745817562
 10
10.81677755968675
 20
10.71928540825618
 10
10.71243850228674
 20
10.91511176555619
  0
LWPOLYLINE
  5
957
330
1F
100
AcDbEntity
  8
0
  6
Continuous
 62
     7
100
AcDbPolyline
 90
       18
 70
     0
 43
0.0
 10
13.68618372308677
 20
9.186890905556197
 10
13.47645164068675
 20
9.193766400956207
 10
13.26952594398674
 20
9.214236584456187
 10
13.06410468278674
 20
9.248196259756184
 10
12.86143140388676
 20
9.295442655056177
 10
12.66240029588677
 20
9.355778062256177
 10
12.46772705008677
 20
9.428967690656207
 10
12.27821282578676
 20
9.514713036556202
 10
12.09467082358676
 20
9.612646758656211
 10
11.91791391388673
 20
9.722341178156199
 10
11.74869876898676
 20
9.843325891056196
 10
11.58776408088672
 20
9.975059691156189
 10
11.43576571868677
 20
10.11700884505617
 10
11.29325516568675
 20
10.26867576265618
 10
11.16096769108676
 20
10.42930495015619
 10
11.03778701938673
 20
10.60064744455619
 10
10.92505132438676
 20
10.78174973325619
 10
10.82466068588675
 20
10.97016793265618
  0
LWPOLYLINE
  5
958
330
1F
100
AcDbEntity
  8
0
100
AcDbPolyline
 90
       18
 70
     0
 43
0.0
 10
55.52282641608671
 20
11.14660500775619
 10
55.74562946878669
 20
11.15903733925617
 10
55.96729631038673
 20
11.18613796395618
 10
56.1868765412867
 20
11.22778055745618
 10
56.40342585238673
 20
11.28377703465619
 10
56.61601630468673
 20
11.35387749535619
 10
56.82373800438669
 20
11.43777221845619
 10
57.02570365008675
 20
11.53509307485617
 10
57.22105208758675
 20
11.64541554425619
 10
57.40895188248672
 20
11.76826084995619
 10
57.58860424198671
 20
11.9030980340562
 10
57.7592461586867
 20
12.04934632935618
 10
57.9201531175867
 20
12.2063774295562
 10
58.0706429629868
 20
12.3735192384562
 10
58.21007779418679
 20
12.55005833345618
 10
58.33786527938677
 20
12.73524142785621
 10
58.45346049448679
 20
12.9282763250562
 10
58.55637334368672
 20
13.12834487315618
  0
LWPOLYLINE
  5
959
330
1F
100
AcDbEntity
  8
0
  6
Continuous
100
AcDbPolyline
 90
       25
 70
     0
 43
0.0
 10
37.62388481618675
 20
9.368670036656197
 10
37.63715325788676
 20
9.368727521356191
 10
37.65036427958675
 20
9.368899660856186
 10
37.66346032618677
 20
9.369185500056204
 10
37.67638409958673
 20
9.369583429456184
 10
37.68907867838679
 20
9.370091162956185
 10
37.70148762308677
 20
9.37070570395619
 10
37.71355506658674
 20
9.371423295356208
 10
37.72522578308676
 20
9.372239346756174
 10
37.73644523378679
 20
9.373148332056189
 10
37.74715959188675
 20
9.374143644556198
 10
37.75731575288675
 20
9.375217392956187
 10
37.76686135298676
 20
9.376360118256201
 10
37.77574493788675
 20
9.3775604161562
 10
37.78391644918677
 20
9.37880446125618
 10
37.79132668868673
 20
9.380075161156185
 10
37.79792963118675
 20
9.381351480856181
 10
37.80368438598678
 20
9.382607520156199
 10
37.80855993028676
 20
9.383812034056205
 10
37.81254004308679
 20
9.384928236956199
 10
37.81563089258678
 20
9.385915079756188
 10
37.81787093628678
 20
9.386731357356183
 10
37.81933096468678
 20
9.387339550756195
 10
37.82011184048677
 20
9.387711249956197
 10
37.82024140218679
 20
9.387779299456184
  0
LWPOLYLINE
  5
95A
330
1F
100
AcDbEntity
  8
0
  6
Continuous
100
AcDbPolyline
 90
       38
 70
     0
 43
0.0
 10
34.74888481618676
 20
9.450475577956211
 10
34.72776730318678
 20
9.450393254656177
 10
34.70670576718678
 20
9.450146402456198
 10
34.68575517918678
 20
9.449735350856201
 10
34.66496981638674
 20
9.449160612056203
 10
34.64440356658677
 20
9.448422865156175
 10
34.62410770938678
 20
9.447522830156202
 10
34.60413194508678
 20
9.446461208656188
 10
34.58452344808675
 20
9.445238531956192
 10
34.56532741538675
 20
9.443855050256189
 10
34.54658303428679
 20
9.44231022055618
 10
34.52832492818679
 20
9.440602418456194
 10
34.51058097648676
 20
9.43872822875619
 10
34.49337012968673
 20
9.436681397856204
 10
34.47669907428676
 20
9.434451123356183
 10
34.46055231128677
 20
9.432018397756195
 10
34.44488388228676
 20
9.42935036325619
 10
34.42959174638677
 20
9.426387375456187
 10
34.41446055718675
 20
9.423012062056187
 10
34.39980291358675
 20
9.419186741056194
 10
34.38744824208678
 20
9.415385553856197
 10
34.37706196288676
 20
9.411630932156185
 10
34.36817086528678
 20
9.407869316056206
 10
34.36045318178678
 20
9.404062586256202
 10
34.35370449778677
 20
9.400199381956184
 10
34.34770545218678
 20
9.396231882956186
 10
34.34226345298678
 20
9.392084311456187
 10
34.33725740428677
 20
9.387686139056199
 10
34.33261158648677
 20
9.382963821956195
 10
34.32849985368675
 20
9.378110754556189
 10
34.32470421138678
 20
9.372870484656203
 10
34.32140384198673
 20
9.367476122256192
 10
34.31842092348675
 20
9.361587619456201
 10
34.31601379878678
 20
9.35568430925619
 10
34.31402287588677
 20
9.349343830556193
 10
34.31257563358677
 20
9.342834255256178
 10
34.31168971758675
 20
9.336180912556187
 10
34.31138481618675
 20
9.329329463356202
  0
LINE
  5
95B
330
1F
100
AcDbEntity
  8
0
  6
Continuous
100
AcDbLine
 10
37.87388481618676
 20
9.244922365056197
 30
0.0
 11
34.74888481618676
 21
9.244922365056197
 31
0.0
  0
LINE
  5
95C
330
1F
100
AcDbEntity
  8
0
  6
Continuous
100
AcDbLine
 10
37.87388481618676
 20
9.268441231656197
 30
0.0
 11
34.74888481618676
 21
9.268441231656197
 31
0.0
  0
LINE
  5
95D
330
1F
100
AcDbEntity
  8
0
  6
Continuous
100
AcDbLine
 10
37.87388481618676
 20
9.347502113556203
 30
0.0
 11
34.74888481618676
 21
9.347502113556203
 31
0.0
  0
LINE
  5
95E
330
1F
100
AcDbEntity
  8
0
  6
Continuous
100
AcDbLine
 10
37.62388481618675
 20
9.368378078656206
 30
0.0
 11
34.99888481618675
 21
9.368378078656206
 31
0.0
  0
LINE
  5
95F
330
1F
100
AcDbEntity
  8
0
  6
Continuous
100
AcDbLine
 10
37.62388481618675
 20
9.368670036656197
 30
0.0
 11
34.99888481618675
 21
9.368670036656197
 31
0.0
  0
LINE
  5
960
330
1F
100
AcDbEntity
  8
0
  6
Continuous
100
AcDbLine
 10
34.99888481618675
 20
9.395035142556196
 30
0.0
 11
37.62388481618675
 21
9.395035142556196
 31
0.0
  0
LINE
  5
961
330
1F
100
AcDbEntity
  8
0
  6
Continuous
100
AcDbLine
 10
34.99888481618675
 20
9.428918377556186
 30
0.0
 11
37.62388481618675
 21
9.428918377556186
 31
0.0
  0
LINE
  5
962
330
1F
100
AcDbEntity
  8
0
  6
Continuous
100
AcDbLine
 10
34.74888481618676
 20
9.449794342756177
 30
0.0
 11
37.87388481618676
 21
9.449794342756177
 31
0.0
  0
LINE
  5
963
330
1F
100
AcDbEntity
  8
0
  6
Continuous
100
AcDbLine
 10
34.74888481618676
 20
9.450475577956211
 30
0.0
 11
37.87388481618676
 21
9.450475577956211
 31
0.0
  0
LINE
  5
964
330
1F
100
AcDbEntity
  8
0
100
AcDbLine
 10
20.58203236358677
 20
11.1466049985562
 30
0.0
 11
55.52282641608671
 21
11.1466049985562
 31
0.0
  0
LWPOLYLINE
  5
965
330
1F
100
AcDbEntity
  8
0
  6
Continuous
100
AcDbPolyline
 90
       31
 70
     0
 43
0.0
 10
34.74888481618676
 20
9.268441231656197
 10
34.72560011468674
 20
9.268527528856196
 10
34.70238141618675
 20
9.268786175656174
 10
34.67929453668675
 20
9.269216439056179
 10
34.65640491828678
 20
9.269817099256187
 10
34.63377744428679
 20
9.270586453856196
 10
34.61147625468679
 20
9.271522321756179
 10
34.58956456448678
 20
9.272622050356204
 10
34.56810448488674
 20
9.273882522356188
 10
34.54715684678676
 20
9.275300164656187
 10
34.52678102848675
 20
9.276870958856193
 10
34.50703478758678
 20
9.278590452356183
 10
34.48797409678677
 20
9.280453771156203
 10
34.46965298578679
 20
9.282455633356192
 10
34.45212338778678
 20
9.28459036455618
 10
34.43543499228677
 20
9.286851913656192
 10
34.41963510438675
 20
9.289233869956177
 10
34.40476851048678
 20
9.291729481556188
 10
34.39087735168679
 20
9.294331674356186
 10
34.37800100398674
 20
9.297033072156182
 10
34.36617596668678
 20
9.299826017656187
 10
34.35543575918675
 20
9.302702593856196
 10
34.34581082588674
 20
9.305654646856197
 10
34.33732844948677
 20
9.308673808656209
 10
34.33001267438673
 20
9.311751521156196
 10
34.32388423788675
 20
9.314879060256203
 10
34.31896051168676
 20
9.31804756055618
 10
34.31525545258675
 20
9.3212480406562
 10
34.31277956308677
 20
9.324471428456178
 10
34.31153986128678
 20
9.327708586856175
 10
34.31138481618675
 20
9.329329463356202
  0
LWPOLYLINE
  5
966
330
1F
100
AcDbEntity
  8
0
  6
Continuous
100
AcDbPolyline
 90
       57
 70
     0
 43
0.0
 10
34.74888481618676
 20
9.347502113556203
 10
34.72828984288677
 20
9.347582490556192
 10
34.70774738438676
 20
9.347823560456191
 10
34.68733611578674
 20
9.348224523456195
 10
34.66711744708679
 20
9.348784165156189
 10
34.64715642668674
 20
9.349500693456178
 10
34.62751536918675
 20
9.350371868256189
 10
34.60825623938676
 20
9.351394942456209
 10
34.58943958368676
 20
9.352566699256186
 10
34.57112462418676
 20
9.353883450856187
 10
34.55336898428678
 20
9.355341054356188
 10
34.53622853308676
 20
9.356934923456179
 10
34.51975720248678
 20
9.358660042956188
 10
34.50400681948677
 20
9.360510984956192
 10
34.48902694258678
 20
9.36248192525619
 10
34.47486470558673
 20
9.3645666625562
 10
34.46156466998676
 20
9.366758637056193
 10
34.44916868408675
 20
9.369050951856195
 10
34.43771575178679
 20
9.371436394156205
 10
34.42724190958675
 20
9.373907458156196
 10
34.41778011338673
 20
9.376456368756208
 10
34.40936013448678
 20
9.379075105856202
 10
34.40200846638678
 20
9.381755429456205
 10
34.39574824098677
 20
9.384488906156178
 10
34.39059915598674
 20
9.387266935056203
 10
34.38657741298679
 20
9.390080774956203
 10
34.38369566638679
 20
9.392921572356186
 10
34.38196298348678
 20
9.395780388556175
 10
34.38138481618675
 20
9.398648228356194
 10
34.38196298368676
 20
9.401516068156183
 10
34.38369566678674
 20
9.404374884456188
 10
34.38657741358677
 20
9.407215681756184
 10
34.39059915678676
 20
9.410029521656184
 10
34.39574824188677
 20
9.412807550556181
 10
34.40200846748676
 20
9.415541027156194
 10
34.40936013568675
 20
9.418221350856214
 10
34.41778011478679
 20
9.420840087856191
 10
34.42724191108673
 20
9.423388998456204
 10
34.43771575348675
 20
9.425860062556182
 10
34.44916868588676
 20
9.428245504756176
 10
34.46156467198675
 20
9.430537819556178
 10
34.47486470768676
 20
9.4327297940562
 10
34.48902694478674
 20
9.434814531256193
 10
34.50400682188675
 20
9.436785471656179
 10
34.51975720498675
 20
9.438636413556196
 10
34.53622853568678
 20
9.440361533056176
 10
34.55336898698674
 20
9.441955402156196
 10
34.57112462698675
 20
9.443413005656196
 10
34.58943958658674
 20
9.444729757256197
 10
34.60825624228679
 20
9.445901513956187
 10
34.62751537228676
 20
9.446924588156178
 10
34.64715642958678
 20
9.447795762956189
 10
34.66711745038678
 20
9.448512291156191
 10
34.68733611868678
 20
9.449071932856185
 10
34.70774738768675
 20
9.449472895956176
 10
34.72828984728674
 20
9.449713965756188
 10
34.74888481618676
 20
9.449794342756177
  0
LWPOLYLINE
  5
967
330
1F
100
AcDbEntity
  8
0
  6
Continuous
100
AcDbPolyline
 90
       57
 70
     0
 43
0.0
 10
37.87388481618676
 20
9.449794342756177
 10
37.89447978508677
 20
9.449713965756188
 10
37.91502224458677
 20
9.449472895956176
 10
37.93543351368678
 20
9.449071932856185
 10
37.95565218188674
 20
9.448512291156191
 10
37.97561320268679
 20
9.447795762956189
 10
37.99525426008675
 20
9.446924588156178
 10
38.01451338998678
 20
9.445901513956187
 10
38.03333004578676
 20
9.444729757256197
 10
38.05164500538675
 20
9.443413005656196
 10
38.06940064538677
 20
9.441955402156196
 10
38.08654109668678
 20
9.440361533056176
 10
38.10301242738675
 20
9.438636413556196
 10
38.11876281038676
 20
9.436785471656179
 10
38.13374268748678
 20
9.434814531256193
 10
38.14790492458676
 20
9.4327297940562
 10
38.16120496038676
 20
9.430537819556178
 10
38.17360094638676
 20
9.428245504756176
 10
38.18505387888676
 20
9.425860062556182
 10
38.19552772118679
 20
9.423388998456204
 10
38.20498951758678
 20
9.420840087856191
 10
38.21340949658677
 20
9.418221350856214
 10
38.22076116488675
 20
9.415541027156194
 10
38.22702139048674
 20
9.412807550556181
 10
38.23217047558675
 20
9.410029521656184
 10
38.23619221878679
 20
9.407215681756184
 10
38.23907396558676
 20
9.404374884456188
 10
38.24080664868675
 20
9.401516068156183
 10
38.24138481618676
 20
9.398648228356194
 10
38.24080664888678
 20
9.395780388556175
 10
38.23907396598677
 20
9.392921572356186
 10
38.23619221928679
 20
9.390080774956203
 10
38.23217047628677
 20
9.387266935056203
 10
38.22702139138679
 20
9.384488906156178
 10
38.22076116598678
 20
9.381755429456205
 10
38.21340949788678
 20
9.379075105856202
 10
38.20498951898677
 20
9.376456368756208
 10
38.19552772278676
 20
9.373907458156196
 10
38.18505388058677
 20
9.371436394156205
 10
38.17360094828675
 20
9.369050951856195
 10
38.16120496238674
 20
9.366758637056193
 10
38.14790492678677
 20
9.3645666625562
 10
38.13374268978678
 20
9.36248192525619
 10
38.11876281278675
 20
9.360510984956192
 10
38.10301242988673
 20
9.358660042956188
 10
38.08654109928674
 20
9.356934923456179
 10
38.06940064808678
 20
9.355341054356188
 10
38.05164500818675
 20
9.353883450856187
 10
38.03333004868675
 20
9.352566699256186
 10
38.01451339298675
 20
9.351394942456209
 10
37.99525426308677
 20
9.350371868256189
 10
37.97561320568676
 20
9.349500693456178
 10
37.95565218528678
 20
9.348784165156189
 10
37.93543351658676
 20
9.348224523456195
 10
37.91502224788676
 20
9.347823560456191
 10
37.89447978938675
 20
9.347582490556192
 10
37.87388481618676
 20
9.347502113556203
  0
LWPOLYLINE
  5
968
330
1F
100
AcDbEntity
  8
0
  6
Continuous
100
AcDbPolyline
 90
       38
 70
     0
 43
0.0
 10
37.87388481618676
 20
9.450475577956211
 10
37.89500232908674
 20
9.450393254656177
 10
37.91606386518678
 20
9.450146402456198
 10
37.93701445318678
 20
9.449735350856201
 10
37.95779981598677
 20
9.449160612056203
 10
37.97836606568675
 20
9.448422865156175
 10
37.99866192298678
 20
9.447522830156202
 10
38.01863768718673
 20
9.446461208656188
 10
38.03824618428676
 20
9.445238531956192
 10
38.05744221688676
 20
9.443855050256189
 10
38.07618659798679
 20
9.44231022055618
 10
38.09444470418678
 20
9.440602418456194
 10
38.11218865588675
 20
9.43872822875619
 10
38.12939950268678
 20
9.436681397856204
 10
38.14607055798676
 20
9.434451123356183
 10
38.16221732098675
 20
9.432018397756195
 10
38.17788575008675
 20
9.42935036325619
 10
38.19317788588675
 20
9.426387375456187
 10
38.20830907508677
 20
9.423012062056187
 10
38.22296671868677
 20
9.419186741056194
 10
38.23532139028678
 20
9.415385553856197
 10
38.24570766948674
 20
9.411630932156185
 10
38.25459876708679
 20
9.407869316056206
 10
38.26231645048674
 20
9.404062586256202
 10
38.26906513448675
 20
9.400199381956184
 10
38.27506418018678
 20
9.396231882956186
 10
38.28050617938679
 20
9.392084311456187
 10
38.28551222808679
 20
9.387686139056199
 10
38.29015804578675
 20
9.382963821956195
 10
38.29426977868676
 20
9.378110754556189
 10
38.29806542098678
 20
9.372870484656203
 10
38.30136579038678
 20
9.367476122256192
 10
38.30434870888676
 20
9.361587619456201
 10
38.30675583348674
 20
9.35568430925619
 10
38.30874675648674
 20
9.349343830556193
 10
38.31019399868675
 20
9.342834255256178
 10
38.31107991468677
 20
9.336180912556187
 10
38.31138481618675
 20
9.329329463356202
  0
LWPOLYLINE
  5
969
330
1F
100
AcDbEntity
  8
0
  6
Continuous
100
AcDbPolyline
 90
       51
 70
     0
 43
0.0
 10
34.99888481618675
 20
9.368378078656206
 10
34.98523824178674
 20
9.36843771915619
 10
34.97163390728676
 20
9.368616608456193
 10
34.95813858908677
 20
9.368914001756195
 10
34.94480328308678
 20
9.369328766756183
 10
34.93168162498675
 20
9.3698592432562
 10
34.91882514858677
 20
9.370503345956194
 10
34.90628466318677
 20
9.371258529856191
 10
34.89410965048675
 20
9.372121815156191
 10
34.88234816388676
 20
9.373089794356189
 10
34.87104662138675
 20
9.374158647356182
 10
34.86024962878677
 20
9.375324155556199
 10
34.84999979988678
 20
9.376581718756199
 10
34.84033758838676
 20
9.377926373856183
 10
34.83130112888674
 20
9.379352813656197
 10
34.82292608628675
 20
9.380855408256195
 10
34.81524551518678
 20
9.3824282273562
 10
34.80828972908675
 20
9.384065063356189
 10
34.80208618118676
 20
9.38575945595619
 10
34.79665935528673
 20
9.387504717856188
 10
34.79203067008675
 20
9.389293960756191
 10
34.78821839398675
 20
9.391120122956209
 10
34.78523757328677
 20
9.392975996956209
 10
34.78309997248679
 20
9.394854258056199
 10
34.78181402828674
 20
9.396747493156198
 10
34.78138481618678
 20
9.398648229956194
 10
34.78181402998675
 20
9.400548966856177
 10
34.78309997578678
 20
9.402442201956176
 10
34.78523757828678
 20
9.404320462956206
 10
34.78821840068677
 20
9.406176336956178
 10
34.79203067838675
 20
9.408002499056209
 10
34.79665936518675
 20
9.409791741956183
 10
34.80208619258676
 20
9.411537003656206
 10
34.80828974208678
 20
9.413231396156191
 10
34.81524552948677
 20
9.414868232056193
 10
34.82292610198673
 20
9.416441051056182
 10
34.83130114598678
 20
9.417943645556192
 10
34.84033760678674
 20
9.419370085156202
 10
34.84999981938674
 20
9.420714740056183
 10
34.86024964948676
 20
9.421972303156195
 10
34.87104664318677
 20
9.423137811056193
 10
34.88234818648673
 20
9.424206663856182
 10
34.89410967408677
 20
9.425174642956193
 10
34.90628468738678
 20
9.426037927956201
 10
34.91882517388675
 20
9.426793111756182
 10
34.93168164978673
 20
9.427437214156185
 10
34.94480331098678
 20
9.427967690556187
 10
34.95813861248676
 20
9.42838245505618
 10
34.97163393628675
 20
9.42867984835621
 10
34.98523827838674
 20
9.428858737356193
 10
34.99888481618675
 20
9.428918377556186
  0
LWPOLYLINE
  5
96A
330
1F
100
AcDbEntity
  8
0
  6
Continuous
100
AcDbPolyline
 90
       25
 70
     0
 43
0.0
 10
34.99888481618675
 20
9.368670036656197
 10
34.98561637438676
 20
9.368727521356191
 10
34.97240535268677
 20
9.368899660856186
 10
34.95930930618673
 20
9.369185500056204
 10
34.94638553268679
 20
9.369583429456184
 10
34.93369095398678
 20
9.370091162956185
 10
34.92128200928679
 20
9.37070570395619
 10
34.90921456568678
 20
9.371423295356208
 10
34.89754384928674
 20
9.372239346756174
 10
34.88632439858677
 20
9.373148332056189
 10
34.87561004048675
 20
9.374143644556198
 10
34.86545387948676
 20
9.375217392956187
 10
34.85590827938675
 20
9.376360118256201
 10
34.84702469448676
 20
9.3775604161562
 10
34.83885318318673
 20
9.37880446125618
 10
34.83144294358673
 20
9.380075161156185
 10
34.82484000118675
 20
9.381351480856181
 10
34.81908524628674
 20
9.382607520156199
 10
34.81420970208675
 20
9.383812034056205
 10
34.81022958928677
 20
9.384928236956199
 10
34.80713873968674
 20
9.385915079756188
 10
34.80489869608673
 20
9.386731357356183
 10
34.80343866768679
 20
9.387339550756195
 10
34.80265779188674
 20
9.387711249956197
 10
34.80252823018677
 20
9.387779299456184
  0
LWPOLYLINE
  5
96B
330
1F
100
AcDbEntity
  8
0
  6
Continuous
100
AcDbPolyline
 90
       51
 70
     0
 43
0.0
 10
37.62388481618675
 20
9.428918377556186
 10
37.63753135388678
 20
9.428858737356193
 10
37.65113569608676
 20
9.42867984835621
 10
37.66463101978676
 20
9.428382455156196
 10
37.67796632128674
 20
9.427967690556187
 10
37.69108798248673
 20
9.427437214156185
 10
37.70394445838677
 20
9.426793111756182
 10
37.71648494488674
 20
9.426037927956201
 10
37.72865995818675
 20
9.425174642956193
 10
37.74042144578679
 20
9.424206663856182
 10
37.75172298918674
 20
9.423137811056193
 10
37.76251998278676
 20
9.421972303156195
 10
37.77276981288677
 20
9.420714740056183
 10
37.78243202558677
 20
9.419370085156202
 10
37.79146848638678
 20
9.417943645556192
 10
37.79984353028673
 20
9.416441051056182
 10
37.80752410278675
 20
9.414868232056193
 10
37.81447989028678
 20
9.413231396156191
 10
37.82068343978674
 20
9.411537003656206
 10
37.82611026718676
 20
9.409791741956183
 10
37.83073895388677
 20
9.408002499056209
 10
37.83455123158675
 20
9.406176336956178
 10
37.83753205408679
 20
9.404320463056194
 10
37.83966965648674
 20
9.402442201956176
 10
37.84095560228676
 20
9.400548966856177
 10
37.84138481618678
 20
9.398648230056181
 10
37.84095560398678
 20
9.396747493156198
 10
37.83966965988677
 20
9.394854258056199
 10
37.83753205908674
 20
9.392975996956209
 10
37.83455123828677
 20
9.391120122956209
 10
37.83073896218676
 20
9.389293960756191
 10
37.82611027708678
 20
9.387504717856188
 10
37.82068345118675
 20
9.38575945595619
 10
37.81447990328676
 20
9.384065063356189
 10
37.80752411718678
 20
9.3824282273562
 10
37.79984354608675
 20
9.380855408256195
 10
37.79146850348676
 20
9.379352813656197
 10
37.78243204398676
 20
9.377926373856183
 10
37.77276983248678
 20
9.376581718756199
 10
37.76252000358674
 20
9.375324155556199
 10
37.75172301098676
 20
9.374158647356182
 10
37.74042146848675
 20
9.373089794356189
 10
37.72865998188676
 20
9.372121815156191
 10
37.71648496918673
 20
9.371258529856191
 10
37.70394448378674
 20
9.370503345956194
 10
37.69108800738676
 20
9.3698592432562
 10
37.67796634928679
 20
9.369328766756183
 10
37.66463104328674
 20
9.368914001756195
 10
37.65113572508674
 20
9.368616608456193
 10
37.63753139068676
 20
9.36843771915619
 10
37.62388481618675
 20
9.368378078656206
  0
LWPOLYLINE
  5
96C
330
1F
100
AcDbEntity
  8
0
  6
Continuous
100
AcDbPolyline
 90
       19
 70
     0
 43
0.0
 10
37.62388481618675
 20
9.395035142556196
 10
37.63614790328675
 20
9.394979271156188
 10
37.64835847808676
 20
9.394811896556205
 10
37.66046425278675
 20
9.394533735156187
 10
37.67241338878675
 20
9.394145978356192
 10
37.68415471728677
 20
9.393650286456193
 10
37.69563796068676
 20
9.393048782156171
 10
37.70681394648674
 20
9.392344041156178
 10
37.71763481708676
 20
9.391539081156196
 10
37.72805423568676
 20
9.390637349256195
 10
37.73802758478676
 20
9.389642706856193
 10
37.74751215708674
 20
9.388559413056185
 10
37.75646733818676
 20
9.387392106656193
 10
37.76485478058678
 20
9.386145786356195
 10
37.77263856788674
 20
9.384825788956192
 10
37.77978536878678
 20
9.383437767056193
 10
37.78626457968674
 20
9.381987664256172
 10
37.79204845538679
 20
9.380481690156187
 10
37.79258199678678
 20
9.380317806656194
  0
LWPOLYLINE
  5
96D
330
1F
100
AcDbEntity
  8
0
  6
Continuous
100
AcDbPolyline
 90
       31
 70
     0
 43
0.0
 10
34.31138481618675
 20
9.305810596656186
 10
34.31198439468674
 20
9.30262395285618
 10
34.31378148698676
 20
9.299446043456185
 10
34.31677116718678
 20
9.296285578756197
 10
34.32094524088675
 20
9.293151221456184
 10
34.32629226718675
 20
9.29005156275619
 10
34.33279759028674
 20
9.286995098356186
 10
34.34044337958674
 20
9.2839902059562
 10
34.34920867848676
 20
9.281045121756193
 10
34.35906946178674
 20
9.27816791795621
 10
34.36999870198677
 20
9.275366480856206
 10
34.38196644268678
 20
9.272648488956207
 10
34.39493988108675
 20
9.270021392056179
 10
34.40888345798678
 20
9.267492390956192
 10
34.42375895498678
 20
9.265068417356189
 10
34.43952559938678
 20
9.262756115156179
 10
34.45614017588677
 20
9.260561822356208
 10
34.47355714508675
 20
9.258491553356208
 10
34.49172876828678
 20
9.256550982556177
 10
34.51060523838678
 20
9.254745428856182
 10
34.53013481618675
 20
9.253079841256209
 10
34.55026397248677
 20
9.251558785056175
 10
34.57093753478674
 20
9.250186429256189
 10
34.59209883828678
 20
9.248966535356203
 10
34.61368988108675
 20
9.247902447156178
 10
34.63565148388674
 20
9.246997081256182
 10
34.65792345138679
 20
9.246252918956201
 10
34.68044473768678
 20
9.24567200015619
 10
34.70315361348677
 20
9.245255917156185
 10
34.72598783528677
 20
9.245005810256202
 10
34.74888481618676
 20
9.244922365056197
  0
LINE
  5
96E
330
1F
100
AcDbEntity
  8
0
  6
Continuous
100
AcDbLine
 10
34.31138481618675
 20
9.305810596656186
 30
0.0
 11
34.31138481618675
 21
9.329329463356202
 31
0.0
  0
LINE
  5
96F
330
1F
100
AcDbEntity
  8
0
  6
Continuous
100
AcDbLine
 10
34.74888481618676
 20
9.450475577956211
 30
0.0
 11
34.74888481618676
 21
9.449794342756177
 31
0.0
  0
LINE
  5
970
330
1F
100
AcDbEntity
  8
0
  6
Continuous
100
AcDbLine
 10
34.74888481618676
 20
9.244922365056197
 30
0.0
 11
34.74888481618676
 21
9.347502113556203
 31
0.0
  0
LINE
  5
971
330
1F
100
AcDbEntity
  8
0
  6
Continuous
100
AcDbLine
 10
34.99888481618675
 20
9.368378078656206
 30
0.0
 11
34.99888481618675
 21
9.428918377556186
 31
0.0
  0
LINE
  5
972
330
1F
100
AcDbEntity
  8
0
  6
Continuous
100
AcDbLine
 10
37.62388481618675
 20
9.368378078656206
 30
0.0
 11
37.62388481618675
 21
9.428918377556186
 31
0.0
  0
LINE
  5
973
330
1F
100
AcDbEntity
  8
0
  6
Continuous
100
AcDbLine
 10
37.87388481618676
 20
9.450475577956211
 30
0.0
 11
37.87388481618676
 21
9.449794342756177
 31
0.0
  0
LINE
  5
974
330
1F
100
AcDbEntity
  8
0
  6
Continuous
100
AcDbLine
 10
37.87388481618676
 20
9.244922365056197
 30
0.0
 11
37.87388481618676
 21
9.347502113556203
 31
0.0
  0
LINE
  5
975
330
1F
100
AcDbEntity
  8
0
  6
Continuous
100
AcDbLine
 10
38.31138481618675
 20
9.329329463356202
 30
0.0
 11
38.31138481618675
 21
9.305810596656186
 31
0.0
  0
LWPOLYLINE
  5
976
330
1F
100
AcDbEntity
  8
0
  6
Continuous
100
AcDbPolyline
 90
       31
 70
     0
 43
0.0
 10
38.31138481618675
 20
9.329329463356202
 10
38.31122977098679
 20
9.327708586856175
 10
38.30999006928679
 20
9.324471428456178
 10
38.30751417968677
 20
9.3212480406562
 10
38.30380912068675
 20
9.31804756055618
 10
38.29888539448675
 20
9.314879060256203
 10
38.29275695798678
 20
9.311751521156196
 10
38.28544118278675
 20
9.308673808656209
 10
38.27695880648677
 20
9.305654646856197
 10
38.26733387308676
 20
9.302702593856196
 10
38.25659366568679
 20
9.299826017656187
 10
38.24476862838677
 20
9.297033072156182
 10
38.23189228058679
 20
9.294331674356186
 10
38.21800112178679
 20
9.291729481556188
 10
38.20313452798675
 20
9.289233869956177
 10
38.18733464008674
 20
9.286851913656192
 10
38.17064624448674
 20
9.28459036455618
 10
38.15311664648679
 20
9.282455633356192
 10
38.13479553548675
 20
9.280453771156203
 10
38.11573484478678
 20
9.278590452356183
 10
38.09598860378677
 20
9.276870958856193
 10
38.07561278558675
 20
9.275300164656187
 10
38.05466514738678
 20
9.273882522356188
 10
38.03320506778673
 20
9.272622050356204
 10
38.01129337768678
 20
9.271522321756179
 10
37.98899218798673
 20
9.270586453856196
 10
37.96636471398674
 20
9.269817099256187
 10
37.94347509568676
 20
9.269216439056179
 10
37.92038821608677
 20
9.268786175656174
 10
37.89716951768677
 20
9.268527528856196
 10
37.87388481618676
 20
9.268441231656197
  0
LWPOLYLINE
  5
977
330
1F
100
AcDbEntity
  8
0
  6
Continuous
100
AcDbPolyline
 90
       31
 70
     0
 43
0.0
 10
38.31138481618675
 20
9.305810596656186
 10
38.31078523758678
 20
9.30262395285618
 10
38.30898814538674
 20
9.299446043456185
 10
38.30599846518678
 20
9.296285578756197
 10
38.30182439148675
 20
9.293151221456184
 10
38.29647736518675
 20
9.29005156275619
 10
38.28997204208677
 20
9.286995098356186
 10
38.28232625278677
 20
9.2839902059562
 10
38.27356095388675
 20
9.281045121756193
 10
38.26370017048678
 20
9.27816791795621
 10
38.25277093028675
 20
9.275366480856206
 10
38.24080318968678
 20
9.272648488956207
 10
38.22782975118677
 20
9.270021392056179
 10
38.21388617428674
 20
9.267492390956192
 10
38.19901067728674
 20
9.265068417356189
 10
38.18324403288674
 20
9.262756115156179
 10
38.16662945648674
 20
9.260561822356208
 10
38.14921248728675
 20
9.258491553356208
 10
38.13104086408678
 20
9.256550982556177
 10
38.11216439398678
 20
9.254745428856182
 10
38.09263481618675
 20
9.253079841256209
 10
38.07250565978675
 20
9.251558785056175
 10
38.05183209748678
 20
9.250186429256189
 10
38.03067079408678
 20
9.248966535356203
 10
38.00907975118677
 20
9.247902447156178
 10
37.98711814838678
 20
9.246997081256182
 10
37.96484618088679
 20
9.246252918956201
 10
37.94232489458674
 20
9.24567200015619
 10
37.91961601888674
 20
9.245255917156185
 10
37.89678179698675
 20
9.245005810256202
 10
37.87388481618676
 20
9.244922365056197
  0
LWPOLYLINE
  5
978
330
1F
100
AcDbEntity
  8
0
  6
Continuous
100
AcDbPolyline
 90
       19
 70
     0
 43
0.0
 10
34.83018763548674
 20
9.380317806656194
 10
34.83072117688673
 20
9.380481690156187
 10
34.83650505268677
 20
9.381987664256172
 10
34.84298426348679
 20
9.383437767056193
 10
34.85013106448677
 20
9.384825788956192
 10
34.85791485178678
 20
9.386145786356195
 10
34.86630229408676
 20
9.387392106656193
 10
34.87525747518678
 20
9.388559413056185
 10
34.88474204748676
 20
9.389642706856193
 10
34.89471539658675
 20
9.390637349256195
 10
34.90513481518676
 20
9.391539081156196
 10
34.91595568588677
 20
9.392344041156178
 10
34.92713167158676
 20
9.393048782156171
 10
34.93861491498675
 20
9.393650286456193
 10
34.95035624358676
 20
9.394145978356192
 10
34.96230537948677
 20
9.394533735156187
 10
34.97441115428675
 20
9.394811896556205
 10
34.98662172898677
 20
9.394979271156188
 10
34.99888481618675
 20
9.395035142556196
  0
LWPOLYLINE
  5
979
330
1F
100
AcDbEntity
  8
0
100
AcDbPolyline
 90
       17
 70
     0
 43
0.0
 10
20.58203237858678
 20
33.97717680815619
 10
20.36622801028674
 20
33.96099787505618
 10
20.15167547658675
 20
33.93039351165619
 10
19.93928703808675
 20
33.88551578385618
 10
19.72996763418676
 20
33.82657750455617
 10
19.52460272098674
 20
33.75385286655616
 10
19.32405739428677
 20
33.6676741954562
 10
19.12917136338675
 20
33.56843002835619
 10
18.94075547448674
 20
33.45656206665616
 10
18.75958878118676
 20
33.3325624554562
 10
18.58641601258674
 20
33.19697092305616
 10
18.42194606848674
 20
33.0503727197562
 10
18.26684940988677
 20
32.8933956640562
 10
18.12175282998672
 20
32.72670374285617
 10
17.98724037598678
 20
32.55099524185617
 10
17.86385644178674
 20
32.36700780215618
 10
17.75210178788675
 20
32.17551300855617
  0
LINE
  5
97A
330
1F
100
AcDbEntity
  8
0
100
AcDbLine
 10
55.52282641488674
 20
33.9771768126562
 30
0.0
 11
20.58203237858678
 21
33.9771768126562
 31
0.0
  0
LWPOLYLINE
  5
97B
330
1F
100
AcDbEntity
  8
0
  6
Continuous
 62
     7
100
AcDbPolyline
 90
       17
 70
     0
 43
0.0
 10
13.47459720038674
 20
35.92983277865618
 10
13.26948776778673
 20
35.90954018755617
 10
13.06406736418675
 20
35.87557812515617
 10
12.86139119018676
 20
35.82832838665617
 10
12.66235898128675
 20
35.76798973595619
 10
12.46768451608673
 20
35.69479652535618
 10
12.27816877268676
 20
35.6090470833562
 10
12.09462567618677
 20
35.51110903645618
 10
11.91786853628675
 20
35.40141037505619
 10
11.74865372278676
 20
35.28042143875616
 10
11.58771888298675
 20
35.14868258925619
 10
11.43572171648676
 20
35.00672910005618
 10
11.29320968908674
 20
34.85505436185618
 10
11.16093283448676
 20
34.69443160705619
 10
11.03777728028674
 20
34.52311982925618
 10
10.92505197418673
 20
34.34203320425617
 10
10.92420831588676
 20
34.34044978465617
  0
LINE
  5
97C
330
1F
100
AcDbEntity
  8
0
  6
Continuous
 62
     7
100
AcDbLine
 10
13.68618372308677
 20
35.93689090555616
 30
0.0
 11
59.1438219092868
 21
35.93689090555616
 31
0.0
  0
LINE
  5
97D
330
1F
100
AcDbEntity
  8
0
  6
Continuous
 62
     7
100
AcDbLine
 10
13.68621317398678
 20
36.06189090215618
 30
0.0
 11
59.14379245828676
 21
36.06189090215618
 31
0.0
  0
LWPOLYLINE
  5
97E
330
1F
100
AcDbEntity
  8
0
  6
Continuous
 62
     7
100
AcDbPolyline
 90
       18
 70
     0
 43
0.0
 10
59.1438219092868
 20
35.93689090555616
 10
59.35355399168671
 20
35.93001541025616
 10
59.56047968838678
 20
35.90954522675618
 10
59.76590094958673
 20
35.87558555145618
 10
59.9685742284867
 20
35.82833915615619
 10
60.16760533648679
 20
35.76800374895619
 10
60.3622785822868
 20
35.69481412055616
 10
60.55179280658675
 20
35.60906877465619
 10
60.73533480878681
 20
35.51113505255616
 10
60.91209171848678
 20
35.40144063305617
 10
61.08130686328676
 20
35.28045592015617
 10
61.24224155148674
 20
35.14872212005618
 10
61.3942399136868
 20
35.00677296615619
 10
61.53675046668676
 20
34.85510604855618
 10
61.66903794128669
 20
34.69447686105617
 10
61.79221861298678
 20
34.52313436665618
 10
61.90495430788682
 20
34.34203207795618
 10
62.00534494638672
 20
34.15361387855616
  0
LWPOLYLINE
  5
97F
330
1F
100
AcDbEntity
  8
0
  6
Continuous
 62
     7
100
AcDbPolyline
 90
       18
 70
     0
 43
0.0
 10
59.14379245828676
 20
36.06189090215618
 10
59.36178783798679
 20
36.05474393085617
 10
59.57683677118669
 20
36.03347038905618
 10
59.79029667978674
 20
35.99818183335619
 10
60.00090984648674
 20
35.9490843747562
 10
60.20775535338684
 20
35.8863801661562
 10
60.41006011898677
 20
35.81032137025618
 10
60.60700972698672
 20
35.72121194955618
 10
60.79774452998678
 20
35.61944030035617
 10
60.98143818558678
 20
35.5054409574562
 10
61.15728487358675
 20
35.37971488425616
 10
61.32453333828679
 20
35.2428128307562
 10
61.4824904278867
 20
35.09529893265618
 10
61.63059574198682
 20
34.93767761935619
 10
61.76806682018677
 20
34.77075451945616
 10
61.89606762208681
 20
34.59270722945617
 10
62.01322807268677
 20
34.4044964028562
 10
62.11756713008678
 20
34.20867004565618
  0
LWPOLYLINE
  5
980
330
1F
100
AcDbEntity
  8
0
100
AcDbPolyline
 90
       18
 70
     0
 43
0.0
 10
58.55637334238672
 20
31.99543693805619
 10
58.45346049318679
 20
32.19550548605618
 10
58.33786527798672
 20
32.38854038325617
 10
58.21007779288678
 20
32.57372347765617
 10
58.07064296178673
 20
32.75026257265619
 10
57.92015311628681
 20
32.91740438155618
 10
57.75924615738681
 20
33.07443548175617
 10
57.58860424078674
 20
33.22068377695617
 10
57.4089518813868
 20
33.35552096115619
 10
57.22105208648671
 20
33.47836626685616
 10
57.02570364898671
 20
33.5886887362562
 10
56.82373800328677
 20
33.68600959265616
 10
56.61601630368674
 20
33.76990431575617
 10
56.40342585138675
 20
33.84000477645618
 10
56.18687654028671
 20
33.89600125365617
 10
55.96729630938675
 20
33.93764384715617
 10
55.74562946798679
 20
33.9647444719562
 10
55.52282641488674
 20
33.97717680345618
  0
LWPOLYLINE
  5
981
330
1F
100
AcDbEntity
  8
0
  6
Continuous
 62
     7
100
AcDbPolyline
 90
       23
 70
     0
 43
0.0
 10
62.44922249978678
 20
11.9222184792562
 10
62.84968298098673
 20
12.87840772005617
 10
63.21402518778681
 20
13.85529772125619
 10
63.53948130178677
 20
14.84602970445618
 10
63.82537607198678
 20
15.84846410115619
 10
64.07125342128669
 20
16.8610026338562
 10
64.27677814668678
 20
17.8822757311562
 10
64.4417313643867
 20
18.91095516245619
 10
64.56585233208674
 20
19.94557091405619
 10
64.64890882548676
 20
20.98438295105617
 10
64.69078305638678
 20
22.02562022925619
 10
64.69138686778674
 20
23.06769464755618
 10
64.65071527168678
 20
24.10902843435619
 10
64.5688678635868
 20
25.14785197055619
 10
64.44597610968677
 20
26.18240235545619
 10
64.28223676978681
 20
27.21120037265618
 10
64.07786217108676
 20
28.2329196311562
 10
63.83305836498679
 20
29.24614101815618
 10
63.54817984508671
 20
30.24933491525617
 10
63.22396122698675
 20
31.24008969455618
 10
62.85813208798678
 20
32.22399446545619
 10
62.45113800838684
 20
33.1974547111562
 10
62.44921755178669
 20
33.20157380225619
  0
LWPOLYLINE
  5
982
330
1F
100
AcDbEntity
  8
0
  6
Continuous
 62
     7
100
AcDbPolyline
 90
       18
 70
     0
 43
0.0
 10
62.00534494638672
 20
10.97016793265618
 10
61.90677290848683
 20
10.78490622245618
 10
61.79723645578683
 20
10.60816037845617
 10
61.67625282948669
 20
10.43870784005619
 10
61.54455189468675
 20
10.27757563995621
 10
61.40270505948675
 20
10.12547940955619
 10
61.25123839918675
 20
9.982958214156184
 10
61.09077283698677
 20
9.850599779956183
 10
60.9219963998867
 20
9.728972313956177
 10
60.7456511330868
 20
9.618617146556204
 10
60.56249268148671
 20
9.52000633165619
 10
60.37333233138682
 20
9.433564594356198
 10
60.17893815788674
 20
9.359645590556198
 10
59.97999985458674
 20
9.298525208856204
 10
59.77751943508682
 20
9.250530660956172
 10
59.56943401238678
 20
9.215431375656208
 10
59.35718815208671
 20
9.194008400656201
 10
59.1438219092868
 20
9.186890905556197
  0
LWPOLYLINE
  5
983
330
1F
100
AcDbEntity
  8
0
  6
Continuous
 62
     7
100
AcDbPolyline
 90
       18
 70
     0
 43
0.0
 10
62.11756713008678
 20
10.91511176555619
 10
62.01511827398671
 20
10.72256617215618
 10
61.90128198488677
 20
10.53888175345619
 10
61.77556400898678
 20
10.36279809345618
 10
61.63870345108675
 20
10.1953534748562
 10
61.49128748668685
 20
10.0372855685562
 10
61.33388306818669
 20
9.889177306256186
 10
61.16712186018677
 20
9.751625911356171
 10
60.99173125268684
 20
9.625232011756196
 10
60.80846538128677
 20
9.510546011556186
 10
60.61812897688677
 20
9.408070624056193
 10
60.4215474277867
 20
9.318237648356188
 10
60.21953252758684
 20
9.241420816756175
 10
60.01278403808672
 20
9.177901010156205
 10
59.80236976778682
 20
9.128025718256196
 10
59.58614178408678
 20
9.091553006656198
 10
59.36556507968672
 20
9.069289408156208
 10
59.14379245828676
 20
9.061890909056188
  0
LWPOLYLINE
  5
984
330
1F
100
AcDbEntity
  8
0
  6
Continuous
 62
     7
100
AcDbPolyline
 90
       17
 70
     0
 43
0.0
 10
61.90579178708677
 20
34.34046025495617
 10
61.79721511808683
 20
34.51565347815618
 10
61.67622972438679
 20
34.68510419875618
 10
61.54452451288674
 20
34.84623752535619
 10
61.40267428008682
 20
34.99833331615618
 10
61.25120386618679
 20
35.14085402895619
 10
61.09073395678676
 20
35.27321202325619
 10
60.9219531541867
 20
35.39483856675618
 10
60.74560397698682
 20
35.50519207265616
 10
60.56244187898668
 20
35.60380072975617
 10
60.3732769278868
 20
35.69024037895618
 10
60.17887938798677
 20
35.76415639965616
 10
59.97993341388681
 20
35.8252746593562
 10
59.77746344448682
 20
35.87326250745618
 10
59.56941665848675
 20
35.90835277605619
 10
59.35718944698673
 20
35.92977332355618
 10
59.3553965966867
 20
35.92983313005617
  0
LWPOLYLINE
  5
985
330
1F
100
AcDbEntity
  8
0
  6
Continuous
 62
     7
100
AcDbPolyline
 90
       24
 70
     0
 43
0.0
 10
62.00534494638672
 20
34.15361387855616
 10
62.44743359198677
 20
33.20583339125618
 10
62.84966828338682
 20
32.24541123435618
 10
63.21401270068672
 20
31.2685197091562
 10
63.53946942018676
 20
30.27779084425619
 10
63.82536520348677
 20
29.2753588916562
 10
64.07124358178683
 20
28.26282351145619
 10
64.27676952518678
 20
27.24155378535619
 10
64.44172435988676
 20
26.2128766401562
 10
64.56584721788684
 20
25.1782620822562
 10
64.64890566258671
 20
24.13945152125618
 10
64.69078194078682
 20
23.09821627455619
 10
64.69138796288669
 20
22.05614408715618
 10
64.6507187864868
 20
21.0148130528562
 10
64.56887405398678
 20
19.97599253295621
 10
64.44598508778679
 20
18.94144408275619
 10
64.28224847778668
 20
17.9126466595562
 10
64.0778768354867
 20
16.89092862045621
 10
63.83307579598685
 20
15.87770714935618
 10
63.54820197528674
 20
14.8745193390562
 10
63.22398131338676
 20
13.88374962325619
 10
62.85813861318676
 20
12.89980387835621
 10
62.45113679598675
 20
11.92632435655619
 10
62.00534494638672
 20
10.97016793265618
  0
LWPOLYLINE
  5
986
330
1F
100
AcDbEntity
  8
0
  6
Continuous
 62
     7
100
AcDbPolyline
 90
       24
 70
     0
 43
0.0
 10
62.11756713008678
 20
34.20867004565618
 10
62.56174943568684
 20
33.2563990702562
 10
62.96589935028673
 20
32.29140404995617
 10
63.3319739349868
 20
31.30987363535617
 10
63.65897441248675
 20
30.31444540515618
 10
63.94622690648684
 20
29.3072563640562
 10
64.19327425258669
 20
28.28990700085621
 10
64.39977687058675
 20
27.26378423715619
 10
64.56551511638671
 20
26.23022162805617
 10
64.69022788948681
 20
25.19068981405619
 10
64.77368080328668
 20
24.14694580355618
 10
64.81575593868675
 20
23.1007657515562
 10
64.8163648403868
 20
22.05373990425619
 10
64.77550253558675
 20
21.0074634969562
 10
64.69326910788677
 20
19.96370959545621
 10
64.5697960848868
 20
18.92424416965619
 10
64.40528184448684
 20
17.89056067585619
 10
64.19993905178674
 20
16.86398765995619
 10
63.95397411878676
 20
15.84594875595619
 10
63.66774838798669
 20
14.83800009465619
 10
63.34198984538674
 20
13.84253086085619
 10
62.97440994488674
 20
12.8539129485562
 10
62.56547030398682
 20
11.87579863085619
 10
62.11756713008678
 20
10.91511176555619
  0
ARC
  5
987
330
1F
100
AcDbEntity
  8
0
100
AcDbCircle
 10
38.38375281618674
 20
22.56189090555617
 30
0.0
 40
22.2694052687
100
AcDbArc
 50
334.937278069899
 51
25.06272193149963
  0
ARC
  5
988
330
1F
100
AcDbEntity
  8
0
100
AcDbCircle
 10
34.44625281618673
 20
22.56189090555617
 30
0.0
 40
19.2643819069
100
AcDbArc
 50
150.063750268501
 51
209.936249714501
  0
CIRCLE
  5
989
330
1F
100
AcDbEntity
  8
0
  6
Continuous
100
AcDbCircle
 10
36.31138481618676
 20
15.9368909055562
 30
0.0
 40
1.9785533906
  0
CIRCLE
  5
98A
330
1F
100
AcDbEntity
  8
0
  6
Continuous
100
AcDbCircle
 10
36.31138481618676
 20
15.9368909055562
 30
0.0
 40
1.271446609399999
  0
LINE
  5
98B
330
1F
100
AcDbEntity
  8
0
  6
CENTERX2
100
AcDbLine
 10
39.24581714537627
 20
15.93689090555622
 30
0.0
 11
33.37695248699735
 21
15.9368909055562
 31
0.0
  0
LINE
  5
98C
330
1F
100
AcDbEntity
  8
0
  6
CENTERX2
100
AcDbLine
 10
36.31138481618676
 20
18.87132323474566
 30
0.0
 11
36.31138481618676
 21
13.00245857636673
 31
0.0
  0
LINE
  5
98F
330
1F
100
AcDbEntity
  8
0
  6
Continuous
100
AcDbLine
 10
5.006254487386762
 20
40.4424312665562
 30
0.0
 11
4.99834694748673
 21
40.56718089905617
 31
0.0
  0
LINE
  5
990
330
1F
100
AcDbEntity
  8
0
  6
Continuous
100
AcDbLine
 10
5.006254487386762
 20
4.681350544656197
 30
0.0
 11
4.99834694748673
 21
4.556600912156199
 31
0.0
  0
LINE
  5
991
330
1F
100
AcDbEntity
  8
0
  6
Continuous
100
AcDbLine
 10
67.82375114508685
 20
40.4424312665562
 30
0.0
 11
67.94205531738683
 21
40.48279366015619
 31
0.0
  0
LINE
  5
992
330
1F
100
AcDbEntity
  8
0
  6
Continuous
100
AcDbLine
 10
67.82375114508685
 20
4.681350544656197
 30
0.0
 11
67.94205531738683
 21
4.640988151056205
 31
0.0
  0
LINE
  5
993
330
1F
100
AcDbEntity
  8
0
  6
Continuous
100
AcDbLine
 10
5.006254487386762
 20
4.681350544656197
 30
0.0
 11
4.887950315086719
 21
4.640988151056205
 31
0.0
  0
LINE
  5
994
330
1F
100
AcDbEntity
  8
0
  6
Continuous
100
AcDbLine
 10
5.006254487386762
 20
40.4424312665562
 30
0.0
 11
4.887950315086719
 21
40.48279366015619
 31
0.0
  0
LINE
  5
995
330
1F
100
AcDbEntity
  8
0
  6
Continuous
100
AcDbLine
 10
67.82375114508685
 20
4.681350544656197
 30
0.0
 11
67.8316586849867
 21
4.556600912156199
 31
0.0
  0
LINE
  5
996
330
1F
100
AcDbEntity
  8
0
  6
Continuous
100
AcDbLine
 10
67.82375114508685
 20
40.4424312665562
 30
0.0
 11
67.8316586849867
 21
40.56718089905617
 31
0.0
  0
ARC
  5
997
330
1F
100
AcDbEntity
  8
0
  6
Continuous
100
AcDbCircle
 10
36.41500281618674
 20
-455.0631090943439
 30
0.0
 40
496.625
100
AcDbArc
 50
86.37302885840158
 51
93.62697114160166
  0
ARC
  5
998
330
1F
100
AcDbEntity
  8
0
  6
Continuous
100
AcDbCircle
 10
36.41500281618674
 20
500.1868909055562
 30
0.0
 40
496.625
100
AcDbArc
 50
266.3730288584016
 51
273.6269711415984
  0
ARC
  5
999
330
1F
100
AcDbEntity
  8
0
  6
Continuous
100
AcDbCircle
 10
36.41500281618674
 20
-455.0631090943439
 30
0.0
 40
496.4999999999999
100
AcDbArc
 50
86.37302885840158
 51
93.62697114160166
  0
ARC
  5
99A
330
1F
100
AcDbEntity
  8
0
  6
Continuous
100
AcDbCircle
 10
36.41500281618674
 20
500.1868909055562
 30
0.0
 40
496.4999999999999
100
AcDbArc
 50
266.3730288584016
 51
273.6269711415984
  0
ARC
  5
99B
330
1F
100
AcDbEntity
  8
0
  6
Continuous
100
AcDbCircle
 10
15.41500281618673
 20
22.5618909055562
 30
0.0
 40
55.5
100
AcDbArc
 50
341.1616559678991
 51
18.83834403210091
  0
ARC
  5
99C
330
1F
100
AcDbEntity
  8
0
  6
Continuous
100
AcDbCircle
 10
57.41500281618668
 20
22.5618909055562
 30
0.0
 40
55.5
100
AcDbArc
 50
161.1616559678991
 51
198.8383440321009
  0
ARC
  5
99D
330
1F
100
AcDbEntity
  8
0
  6
Continuous
100
AcDbCircle
 10
15.41500281618673
 20
22.5618909055562
 30
0.0
 40
55.375
100
AcDbArc
 50
341.1616559678991
 51
18.83834403210091
  0
ARC
  5
99E
330
1F
100
AcDbEntity
  8
0
  6
Continuous
100
AcDbCircle
 10
57.41500281618668
 20
22.5618909055562
 30
0.0
 40
55.375
100
AcDbArc
 50
161.1616559678991
 51
198.8383440321009
  0
ARC
  5
99F
330
1F
100
AcDbEntity
  8
0
  6
Continuous
100
AcDbCircle
 10
5.006254487386762
 20
40.4424312665562
 30
0.0
 40
0.125
100
AcDbArc
 50
93.62697114160166
 51
161.1616559678991
  0
ARC
  5
9A0
330
1F
100
AcDbEntity
  8
0
  6
Continuous
100
AcDbCircle
 10
67.82375114508685
 20
40.4424312665562
 30
0.0
 40
0.125
100
AcDbArc
 50
18.83834403210091
 51
86.37302885840158
  0
ARC
  5
9A1
330
1F
100
AcDbEntity
  8
0
  6
Continuous
100
AcDbCircle
 10
67.82375114508685
 20
4.681350544656197
 30
0.0
 40
0.125
100
AcDbArc
 50
273.6269711415984
 51
341.1616559678991
  0
ARC
  5
9A2
330
1F
100
AcDbEntity
  8
0
  6
Continuous
100
AcDbCircle
 10
5.006254487386762
 20
4.681350544656197
 30
0.0
 40
0.125
100
AcDbArc
 50
198.8383440321009
 51
266.3730288584016
  0
LINE
  5
9A3
330
1F
100
AcDbEntity
  8
0
100
AcDbLine
 10
67.82770491503677
 20
4.680001618275781
 30
0.0
 11
67.91343231826298
 21
4.594274215049665
 31
0.0
  0
ENDSEC
  0
SECTION
  2
OBJECTS
  0
DICTIONARY
  5
C
330
0
100
AcDbDictionary
281
     1
  3
ACAD_CIP_PREVIOUS_PRODUCT_INFO
350
1A5
  3
ACAD_COLOR
350
73
  3
ACAD_DETAILVIEWSTYLE
350
1AB
  3
ACAD_GROUP
350
D
  3
ACAD_LAYOUT
350
1A
  3
ACAD_MATERIAL
350
72
  3
ACAD_MLEADERSTYLE
350
D7
  3
ACAD_MLINESTYLE
350
17
  3
ACAD_PLOTSETTINGS
350
19
  3
ACAD_PLOTSTYLENAME
350
E
  3
ACAD_SCALELIST
350
B6
  3
ACAD_SECTIONVIEWSTYLE
350
1A8
  3
ACAD_TABLESTYLE
350
86
  3
ACAD_VISUALSTYLE
350
99
  3
ACDB_RECOMPOSE_DATA
350
9E7
  3
AcDbVariableDictionary
350
66
  3
AcDsDecomposeData
350
9ED
  0
DICTIONARY
  5
18E
330
2
100
AcDbDictionary
280
     1
281
     1
  3
ACAD_LAYERSTATES
360
18F
  0
DICTIONARY
  5
E6
330
10
100
AcDbDictionary
280
     1
281
     1
  0
DICTIONARY
  5
1FE
330
1FD
100
AcDbDictionary
280
     1
281
     1
  0
DICTIONARY
  5
200
330
1FF
100
AcDbDictionary
280
     1
281
     1
  0
DICTIONARY
  5
202
330
201
100
AcDbDictionary
280
     1
281
     1
  0
DICTIONARY
  5
204
330
203
100
AcDbDictionary
280
     1
281
     1
  0
DICTIONARY
  5
15D
330
1F
100
AcDbDictionary
280
     1
281
     1
  0
DICTIONARY
  5
308
330
2B5
100
AcDbDictionary
280
     1
281
     1
  3
ACAD_SORTENTS
360
309
  0
XRECORD
  5
1A5
102
{ACAD_REACTORS
330
C
102
}
330
C
100
AcDbXrecord
280
     1
300
ACDLT
300
2017
300
ACDLT_F_S
  0
DICTIONARY
  5
73
102
{ACAD_REACTORS
330
C
102
}
330
C
100
AcDbDictionary
281
     1
  0
DICTIONARY
  5
1AB
102
{ACAD_REACTORS
330
C
102
}
330
C
100
AcDbDictionary
281
     1
  3
Imperial24
350
1AC
  0
DICTIONARY
  5
D
102
{ACAD_REACTORS
330
C
102
}
330
C
100
AcDbDictionary
281
     1
  0
DICTIONARY
  5
1A
102
{ACAD_REACTORS
330
C
102
}
330
C
100
AcDbDictionary
281
     1
  3
Layout1
350
59
  3
Layout2
350
5E
  3
Model
350
22
  0
DICTIONARY
  5
72
102
{ACAD_REACTORS
330
C
102
}
330
C
100
AcDbDictionary
281
     1
  3
ByBlock
350
97
  3
ByLayer
350
96
  3
Global
350
98
  0
DICTIONARY
  5
D7
102
{ACAD_REACTORS
330
C
102
}
330
C
100
AcDbDictionary
281
     1
  3
Annotative
350
E5
  3
Standard
350
D8
  0
DICTIONARY
  5
17
102
{ACAD_REACTORS
330
C
102
}
330
C
100
AcDbDictionary
281
     1
  3
Standard
350
18
  0
DICTIONARY
  5
19
102
{ACAD_REACTORS
330
C
102
}
330
C
100
AcDbDictionary
281
     1
  0
ACDBDICTIONARYWDFLT
  5
E
102
{ACAD_REACTORS
330
C
102
}
330
C
100
AcDbDictionary
281
     1
  3
Normal
350
F
100
AcDbDictionaryWithDefault
340
F
  0
DICTIONARY
  5
B6
102
{ACAD_REACTORS
330
C
102
}
330
C
100
AcDbDictionary
281
     1
  3
A0
350
B7
  3
A1
350
124
  3
A2
350
125
  3
A3
350
126
  3
A4
350
127
  3
A5
350
128
  3
A6
350
129
  3
A7
350
12A
  3
A8
350
12B
  3
A9
350
12C
  3
B0
350
12D
  3
B1
350
12E
  3
B2
350
12F
  3
B3
350
130
  3
B4
350
131
  3
B5
350
132
  3
B6
350
133
  3
B7
350
134
  3
B8
350
135
  3
B9
350
136
  3
C0
350
137
  3
C1
350
138
  3
C2
350
139
  3
C3
350
13A
  3
C4
350
13B
  3
C5
350
13C
  3
C6
350
13D
  3
C7
350
13E
  3
C8
350
13F
  3
C9
350
140
  3
D0
350
141
  3
D1
350
142
  3
D2
350
143
  0
DICTIONARY
  5
1A8
102
{ACAD_REACTORS
330
C
102
}
330
C
100
AcDbDictionary
281
     1
  3
Imperial24
350
1AA
  0
DICTIONARY
  5
86
102
{ACAD_REACTORS
330
C
102
}
330
C
100
AcDbDictionary
281
     1
  3
Standard
350
87
  0
DICTIONARY
  5
99
102
{ACAD_REACTORS
330
C
102
}
330
C
100
AcDbDictionary
281
     1
  3
2dWireframe
350
9F
  3
Basic
350
9E
  3
Brighten
350
A5
  3
ColorChange
350
A9
  3
Conceptual
350
A2
  3
Dim
350
A4
  3
EdgeColorOff
350
175
  3
Facepattern
350
A8
  3
Flat
350
9A
  3
FlatWithEdges
350
9B
  3
Gouraud
350
9C
  3
GouraudWithEdges
350
9D
  3
Hidden
350
A1
  3
JitterOff
350
173
  3
Linepattern
350
A7
  3
OverhangOff
350
174
  3
Realistic
350
A3
  3
Shaded
350
182
  3
Shaded with edges
350
181
  3
Shades of Gray
350
17E
  3
Sketchy
350
17F
  3
Thicken
350
A6
  3
Wireframe
350
A0
  3
X-Ray
350
180
  0
XRECORD
  5
9E7
102
{ACAD_REACTORS
330
C
102
}
330
C
100
AcDbXrecord
280
     1
 90
        1
330
87
  0
DICTIONARY
  5
66
102
{ACAD_REACTORS
330
C
102
}
330
C
100
AcDbDictionary
281
     1
  3
CANNOSCALE
350
F0
  3
CMLEADERSTYLE
350
EF
  3
CTABLESTYLE
350
89
  3
CVIEWDETAILSTYLE
350
1B7
  3
CVIEWSECTIONSTYLE
350
1B8
  3
DIMASSOC
350
67
  3
HIDETEXT
350
6B
  3
LAYEREVAL
350
14D
  3
LAYERNOTIFY
350
14E
  3
LIGHTINGUNITS
350
35A
  3
MSLTSCALE
350
359
  3
XCLIPFRAME
350
35B
  0
DICTIONARY
  5
9ED
102
{ACAD_REACTORS
330
C
102
}
330
C
100
AcDbDictionary
281
     1
  3
AcDsRecords
350
9EF
  3
AcDsSchemas
350
9EE
1001
ACAD
1070
     2
  0
DICTIONARY
  5
18F
102
{ACAD_REACTORS
330
18E
102
}
330
18E
100
AcDbDictionary
281
     1
  0
SORTENTSTABLE
  5
309
102
{ACAD_REACTORS
330
308
102
}
330
308
100
AcDbSortentsTable
330
2B5
  0
ACDBDETAILVIEWSTYLE
  5
1AC
102
{ACAD_XDICTIONARY
360
1C6
102
}
102
{ACAD_REACTORS
330
1AB
102
}
330
1AB
100
AcDbModelDocViewStyle
 70
     0
  3
Imperial24
290
     0
100
AcDbDetailViewStyle
 70
     0
 71
     0
 90
        3
 71
     1
340
11
 62
   256
 40
0.24
340
0
 62
   256
 40
0.24
300

 40
0.36
280
     3
 71
     2
340
16
 90
       25
 62
   256
 71
     3
340
11
 62
   256
 40
0.24
 90
        1
 40
0.75
 90
        1
300
%<\AcVar ViewType \f "%tc1">% %<\AcVar ViewDetailId>%\PSCALE %<\AcVar ViewScale \f "%sn">%
 71
     4
340
16
 90
       25
 62
   256
340
16
 90
       25
 62
   256
280
     0
  0
LAYOUT
  5
59
102
{ACAD_REACTORS
330
1A
102
}
330
1A
100
AcDbPlotSettings
  1

  2
None
  4

  6

 40
0.0
 41
0.0
 42
0.0
 43
0.0
 44
0.0
 45
0.0
 46
0.0
 47
0.0
 48
0.0
 49
0.0
140
0.0
141
0.0
142
1.0
143
1.0
 70
   688
 72
     0
 73
     0
 74
     5
  7

 75
    16
147
1.0
 76
     0
 77
     2
 78
   300
148
0.0
149
0.0
100
AcDbLayout
  1
Layout1
 70
     1
 71
     1
 10
0.0
 20
0.0
 11
12.0
 21
9.0
 12
0.0
 22
0.0
 32
0.0
 14
0.0
 24
0.0
 34
0.0
 15
0.0
 25
0.0
 35
0.0
146
0.0
 13
0.0
 23
0.0
 33
0.0
 16
1.0
 26
0.0
 36
0.0
 17
0.0
 27
1.0
 37
0.0
 76
     0
330
58
  0
LAYOUT
  5
5E
102
{ACAD_REACTORS
330
1A
102
}
330
1A
100
AcDbPlotSettings
  1

  2
None
  4

  6

 40
0.0
 41
0.0
 42
0.0
 43
0.0
 44
0.0
 45
0.0
 46
0.0
 47
0.0
 48
0.0
 49
0.0
140
0.0
141
0.0
142
1.0
143
1.0
 70
   688
 72
     0
 73
     0
 74
     5
  7

 75
    16
147
1.0
 76
     0
 77
     2
 78
   300
148
0.0
149
0.0
100
AcDbLayout
  1
Layout2
 70
     1
 71
     2
 10
0.0
 20
0.0
 11
12.0
 21
9.0
 12
0.0
 22
0.0
 32
0.0
 14
0.0
 24
0.0
 34
0.0
 15
0.0
 25
0.0
 35
0.0
146
0.0
 13
0.0
 23
0.0
 33
0.0
 16
1.0
 26
0.0
 36
0.0
 17
0.0
 27
1.0
 37
0.0
 76
     0
330
5D
  0
LAYOUT
  5
22
102
{ACAD_XDICTIONARY
360
194
102
}
102
{ACAD_REACTORS
330
1A
102
}
330
1A
100
AcDbPlotSettings
  1

  2
none_device
  4
ANSI_A_(8.50_x_11.00_Inches)
  6

 40
6.349999904632568
 41
19.04999923706055
 42
6.350006103515625
 43
19.04998779296875
 44
215.8999938964844
 45
279.3999938964844
 46
0.0
 47
0.0
 48
0.0
 49
0.0
140
0.0
141
0.0
142
1.0
143
2.584895464708373
 70
 11952
 72
     0
 73
     1
 74
     0
  7

 75
     0
147
0.3868628397755418
 76
     0
 77
     2
 78
   300
148
0.0
149
0.0
100
AcDbLayout
  1
Model
 70
     1
 71
     0
 10
0.0
 20
0.0
 11
12.0
 21
9.0
 12
0.0
 22
0.0
 32
0.0
 14
0.0
 24
0.0
 34
0.0
 15
0.0
 25
0.0
 35
0.0
146
0.0
 13
0.0
 23
0.0
 33
0.0
 16
1.0
 26
0.0
 36
0.0
 17
0.0
 27
1.0
 37
0.0
 76
     0
330
1F
331
94
  0
MATERIAL
  5
97
102
{ACAD_XDICTIONARY
360
188
102
}
102
{ACAD_REACTORS
330
72
102
}
330
72
100
AcDbMaterial
  1
ByBlock
  0
MATERIAL
  5
96
102
{ACAD_XDICTIONARY
360
186
102
}
102
{ACAD_REACTORS
330
72
102
}
330
72
100
AcDbMaterial
  1
ByLayer
  0
MATERIAL
  5
98
102
{ACAD_XDICTIONARY
360
110
102
}
102
{ACAD_REACTORS
330
72
102
}
330
72
100
AcDbMaterial
  1
Global
 43
0.0208000000566244
 43
0.0
 43
0.0
 43
0.0
 43
0.0
 43
0.0208000000566244
 43
0.0
 43
0.0
 43
0.0
 43
0.0
 43
1.0
 43
0.0
 43
0.0
 43
0.0
 43
0.0
 43
1.0
 49
0.0208000000566244
 49
0.0
 49
0.0
 49
0.0
 49
0.0
 49
0.0208000000566244
 49
0.0
 49
0.0
 49
0.0
 49
0.0
 49
1.0
 49
0.0
 49
0.0
 49
0.0
 49
0.0
 49
1.0
142
0.0208000000566244
142
0.0
142
0.0
142
0.0
142
0.0
142
0.0208000000566244
142
0.0
142
0.0
142
0.0
142
0.0
142
1.0
142
0.0
142
0.0
142
0.0
142
0.0
142
1.0
144
0.0208000000566244
144
0.0
144
0.0
144
0.0
144
0.0
144
0.0208000000566244
144
0.0
144
0.0
144
0.0
144
0.0
144
1.0
144
0.0
144
0.0
144
0.0
144
0.0
144
1.0
1001
ACAD
1070
    -1
1070
     3
1070
     0
1000

1071
        0
1070
     0
  0
MLEADERSTYLE
  5
E5
102
{ACAD_REACTORS
330
D7
102
}
330
D7
100
AcDbMLeaderStyle
170
     2
171
     1
172
     0
 90
        2
 40
0.0
 41
0.0
173
     1
 91
-1056964608
340
14
 92
       -2
290
     1
 42
0.09
291
     1
 43
0.36
  3
Standard
 44
0.18
300

342
11
174
     1
178
     1
175
     1
176
     0
 93
-1056964608
 45
0.18
292
     0
297
     0
 46
0.18
 94
-1056964608
 47
1.0
 49
1.0
140
1.0
293
     1
141
0.0
294
     1
177
     0
142
1.0
295
     0
296
     1
143
0.125
1001
ACAD_MLEADERVER
1070
     2
  0
MLEADERSTYLE
  5
D8
102
{ACAD_REACTORS
330
D7
102
}
330
D7
100
AcDbMLeaderStyle
170
     2
171
     1
172
     0
 90
        2
 40
0.0
 41
0.0
173
     1
 91
-1056964608
340
14
 92
       -2
290
     1
 42
0.09
291
     1
 43
0.36
  3
Standard
 44
0.18
300

342
11
174
     1
178
     1
175
     1
176
     0
 93
-1056964608
 45
0.18
292
     0
297
     0
 46
0.18
 94
-1056964608
 47
1.0
 49
1.0
140
1.0
293
     1
141
0.0
294
     1
177
     0
142
1.0
295
     0
296
     0
143
0.125
1001
ACAD_MLEADERVER
1070
     2
  0
MLINESTYLE
  5
18
102
{ACAD_REACTORS
330
17
102
}
330
17
100
AcDbMlineStyle
  2
STANDARD
 70
     0
  3

 62
   256
 51
90.0
 52
90.0
 71
     2
 49
0.5
 62
   256
  6
BYLAYER
 49
-0.5
 62
   256
  6
BYLAYER
  0
ACDBPLACEHOLDER
  5
F
102
{ACAD_REACTORS
330
E
102
}
330
E
  0
SCALE
  5
B7
102
{ACAD_REACTORS
330
B6
102
}
330
B6
100
AcDbScale
 70
     0
300
1:1
140
1.0
141
1.0
290
     1
  0
SCALE
  5
124
102
{ACAD_REACTORS
330
B6
102
}
330
B6
100
AcDbScale
 70
     0
300
1:2
140
1.0
141
2.0
290
     0
  0
SCALE
  5
125
102
{ACAD_REACTORS
330
B6
102
}
330
B6
100
AcDbScale
 70
     0
300
1:4
140
1.0
141
4.0
290
     0
  0
SCALE
  5
126
102
{ACAD_REACTORS
330
B6
102
}
330
B6
100
AcDbScale
 70
     0
300
1:5
140
1.0
141
5.0
290
     0
  0
SCALE
  5
127
102
{ACAD_REACTORS
330
B6
102
}
330
B6
100
AcDbScale
 70
     0
300
1:8
140
1.0
141
8.0
290
     0
  0
SCALE
  5
128
102
{ACAD_REACTORS
330
B6
102
}
330
B6
100
AcDbScale
 70
     0
300
1:10
140
1.0
141
10.0
290
     0
  0
SCALE
  5
129
102
{ACAD_REACTORS
330
B6
102
}
330
B6
100
AcDbScale
 70
     0
300
1:16
140
1.0
141
16.0
290
     0
  0
SCALE
  5
12A
102
{ACAD_REACTORS
330
B6
102
}
330
B6
100
AcDbScale
 70
     0
300
1:20
140
1.0
141
20.0
290
     0
  0
SCALE
  5
12B
102
{ACAD_REACTORS
330
B6
102
}
330
B6
100
AcDbScale
 70
     0
300
1:30
140
1.0
141
30.0
290
     0
  0
SCALE
  5
12C
102
{ACAD_REACTORS
330
B6
102
}
330
B6
100
AcDbScale
 70
     0
300
1:40
140
1.0
141
40.0
290
     0
  0
SCALE
  5
12D
102
{ACAD_REACTORS
330
B6
102
}
330
B6
100
AcDbScale
 70
     0
300
1:50
140
1.0
141
50.0
290
     0
  0
SCALE
  5
12E
102
{ACAD_REACTORS
330
B6
102
}
330
B6
100
AcDbScale
 70
     0
300
1:100
140
1.0
141
100.0
290
     0
  0
SCALE
  5
12F
102
{ACAD_REACTORS
330
B6
102
}
330
B6
100
AcDbScale
 70
     0
300
2:1
140
2.0
141
1.0
290
     0
  0
SCALE
  5
130
102
{ACAD_REACTORS
330
B6
102
}
330
B6
100
AcDbScale
 70
     0
300
4:1
140
4.0
141
1.0
290
     0
  0
SCALE
  5
131
102
{ACAD_REACTORS
330
B6
102
}
330
B6
100
AcDbScale
 70
     0
300
8:1
140
8.0
141
1.0
290
     0
  0
SCALE
  5
132
102
{ACAD_REACTORS
330
B6
102
}
330
B6
100
AcDbScale
 70
     0
300
10:1
140
10.0
141
1.0
290
     0
  0
SCALE
  5
133
102
{ACAD_REACTORS
330
B6
102
}
330
B6
100
AcDbScale
 70
     0
300
100:1
140
100.0
141
1.0
290
     0
  0
SCALE
  5
134
102
{ACAD_REACTORS
330
B6
102
}
330
B6
100
AcDbScale
 70
     0
300
1/128" = 1'-0"
140
0.0078125
141
12.0
290
     0
  0
SCALE
  5
135
102
{ACAD_REACTORS
330
B6
102
}
330
B6
100
AcDbScale
 70
     0
300
1/64" = 1'-0"
140
0.015625
141
12.0
290
     0
  0
SCALE
  5
136
102
{ACAD_REACTORS
330
B6
102
}
330
B6
100
AcDbScale
 70
     0
300
1/32" = 1'-0"
140
0.03125
141
12.0
290
     0
  0
SCALE
  5
137
102
{ACAD_REACTORS
330
B6
102
}
330
B6
100
AcDbScale
 70
     0
300
1/16" = 1'-0"
140
0.0625
141
12.0
290
     0
  0
SCALE
  5
138
102
{ACAD_REACTORS
330
B6
102
}
330
B6
100
AcDbScale
 70
     0
300
3/32" = 1'-0"
140
0.09375
141
12.0
290
     0
  0
SCALE
  5
139
102
{ACAD_REACTORS
330
B6
102
}
330
B6
100
AcDbScale
 70
     0
300
1/8" = 1'-0"
140
0.125
141
12.0
290
     0
  0
SCALE
  5
13A
102
{ACAD_REACTORS
330
B6
102
}
330
B6
100
AcDbScale
 70
     0
300
3/16" = 1'-0"
140
0.1875
141
12.0
290
     0
  0
SCALE
  5
13B
102
{ACAD_REACTORS
330
B6
102
}
330
B6
100
AcDbScale
 70
     0
300
1/4" = 1'-0"
140
0.25
141
12.0
290
     0
  0
SCALE
  5
13C
102
{ACAD_REACTORS
330
B6
102
}
330
B6
100
AcDbScale
 70
     0
300
3/8" = 1'-0"
140
0.375
141
12.0
290
     0
  0
SCALE
  5
13D
102
{ACAD_REACTORS
330
B6
102
}
330
B6
100
AcDbScale
 70
     0
300
1/2" = 1'-0"
140
0.5
141
12.0
290
     0
  0
SCALE
  5
13E
102
{ACAD_REACTORS
330
B6
102
}
330
B6
100
AcDbScale
 70
     0
300
3/4" = 1'-0"
140
0.75
141
12.0
290
     0
  0
SCALE
  5
13F
102
{ACAD_REACTORS
330
B6
102
}
330
B6
100
AcDbScale
 70
     0
300
1" = 1'-0"
140
1.0
141
12.0
290
     0
  0
SCALE
  5
140
102
{ACAD_REACTORS
330
B6
102
}
330
B6
100
AcDbScale
 70
     0
300
1-1/2" = 1'-0"
140
1.5
141
12.0
290
     0
  0
SCALE
  5
141
102
{ACAD_REACTORS
330
B6
102
}
330
B6
100
AcDbScale
 70
     0
300
3" = 1'-0"
140
3.0
141
12.0
290
     0
  0
SCALE
  5
142
102
{ACAD_REACTORS
330
B6
102
}
330
B6
100
AcDbScale
 70
     0
300
6" = 1'-0"
140
6.0
141
12.0
290
     0
  0
SCALE
  5
143
102
{ACAD_REACTORS
330
B6
102
}
330
B6
100
AcDbScale
 70
     0
300
1'-0" = 1'-0"
140
12.0
141
12.0
290
     0
  0
ACDBSECTIONVIEWSTYLE
  5
1AA
102
{ACAD_XDICTIONARY
360
1C4
102
}
102
{ACAD_REACTORS
330
1A8
102
}
330
1A8
100
AcDbModelDocViewStyle
 70
     0
  3
Imperial24
290
     0
100
AcDbSectionViewStyle
 70
     0
 71
     0
 90
       78
 71
     1
340
11
 62
   256
 40
0.24
340
0
340
0
 62
   256
 40
0.24
300
I, O, Q, S, X, Z
 40
0.48
 90
        3
 40
0.18
 90
        1
 71
     2
340
16
 90
       25
 62
   256
340
16
 90
       50
 62
   256
 40
0.24
 40
0.0
 40
0.24
 71
     3
340
11
 62
   256
 40
0.24
 90
        1
 40
0.75
 90
        1
300
%<\AcVar ViewType \f "%tc1">% %<\AcVar ViewSectionStartId>%-%<\AcVar ViewSectionEndId>%\PSCALE %<\AcVar ViewScale \f "%sn">%
 71
     4
 62
   256
 62
   257
300
ANSI31
 40
1.0
 90
        0
290
     0
290
     0
 90
        6
 40
0.0
 40
1.570796326794896
 40
0.2617993877991494
 40
1.308996938995747
 40
-0.2617993877991494
 40
1.832595714594046
  0
TABLESTYLE
  5
87
102
{ACAD_XDICTIONARY
360
104
102
}
102
{ACAD_REACTORS
330
86
102
}
330
86
100
AcDbTableStyle
  3
Standard
 70
     0
 71
     0
 40
0.06
 41
0.06
280
     0
281
     0
  7
Standard
140
0.18
170
     2
 62
     0
 63
     7
283
     0
274
    -2
284
     1
 64
     0
275
    -2
285
     1
 65
     0
276
    -2
286
     1
 66
     0
277
    -2
287
     1
 67
     0
278
    -2
288
     1
 68
     0
279
    -2
289
     1
 69
     0
  7
Standard
140
0.25
170
     5
 62
     0
 63
     7
283
     0
274
    -2
284
     1
 64
     0
275
    -2
285
     1
 65
     0
276
    -2
286
     1
 66
     0
277
    -2
287
     1
 67
     0
278
    -2
288
     1
 68
     0
279
    -2
289
     1
 69
     0
  7
Standard
140
0.18
170
     5
 62
     0
 63
     7
283
     0
274
    -2
284
     1
 64
     0
275
    -2
285
     1
 65
     0
276
    -2
286
     1
 66
     0
277
    -2
287
     1
 67
     0
278
    -2
288
     1
 68
     0
279
    -2
289
     1
 69
     0
  0
VISUALSTYLE
  5
9F
102
{ACAD_XDICTIONARY
360
9FE
102
}
102
{ACAD_REACTORS
330
99
102
}
330
99
100
AcDbVisualStyle
  2
2dWireframe
 70
     4
 71
     0
 72
     2
 73
     1
 90
        0
 40
-0.6
 41
-30.0
 62
     5
 63
     7
421
 16777215
 74
     1
 91
        4
 64
     7
 65
   257
 75
     1
175
     1
 42
1.0
 92
        0
 66
   257
 43
1.0
 76
     1
 77
     6
 78
     2
 67
     7
 79
     5
170
     0
171
     0
290
     0
174
     0
 93
        1
 44
0.0
173
     0
291
     0
 45
0.0
1001
ACAD
1000
AcDbSavedByObjectVersion
1070
     0
  0
VISUALSTYLE
  5
9E
102
{ACAD_XDICTIONARY
360
9FC
102
}
102
{ACAD_REACTORS
330
99
102
}
330
99
100
AcDbVisualStyle
  2
Basic
 70
     7
 71
     1
 72
     0
 73
     1
 90
        0
 40
-0.6
 41
-30.0
 62
     5
 63
     7
421
 16777215
 74
     0
 91
        4
 64
     7
 65
   257
 75
     1
175
     1
 42
1.0
 92
        8
 66
     7
 43
1.0
 76
     1
 77
     6
 78
     2
 67
     7
 79
     5
170
     0
171
     0
290
     0
174
     0
 93
        1
 44
0.0
173
     0
291
     1
 45
0.0
1001
ACAD
1000
AcDbSavedByObjectVersion
1070
     0
  0
VISUALSTYLE
  5
A5
102
{ACAD_XDICTIONARY
360
A0A
102
}
102
{ACAD_REACTORS
330
99
102
}
330
99
100
AcDbVisualStyle
  2
Brighten
 70
    12
 71
     2
 72
     2
 73
     1
 90
        0
 40
-0.6
 41
-30.0
 62
     5
 63
     7
421
 16777215
 74
     1
 91
        4
 64
     7
 65
   257
 75
     1
175
     1
 42
1.0
 92
        8
 66
     7
 43
1.0
 76
     1
 77
     6
 78
     2
 67
     7
 79
     5
170
     0
171
     0
290
     0
174
     0
 93
        1
 44
50.0
173
     0
291
     1
 45
0.0
1001
ACAD
1000
AcDbSavedByObjectVersion
1070
     0
  0
VISUALSTYLE
  5
A9
102
{ACAD_XDICTIONARY
360
A12
102
}
102
{ACAD_REACTORS
330
99
102
}
330
99
100
AcDbVisualStyle
  2
ColorChange
 70
    16
 71
     2
 72
     2
 73
     3
 90
        0
 40
-0.6
 41
-30.0
 62
     5
 63
     8
421
  8421504
 74
     1
 91
        4
 64
     7
 65
   257
 75
     1
175
     1
 42
1.0
 92
        8
 66
     8
424
  8421504
 43
1.0
 76
     1
 77
     6
 78
     2
 67
     7
 79
     5
170
     0
171
     0
290
     0
174
     0
 93
        1
 44
0.0
173
     0
291
     1
 45
0.0
1001
ACAD
1000
AcDbSavedByObjectVersion
1070
     0
  0
VISUALSTYLE
  5
A2
102
{ACAD_XDICTIONARY
360
A04
102
}
102
{ACAD_REACTORS
330
99
102
}
330
99
100
AcDbVisualStyle
  2
Conceptual
 70
     9
 71
     3
 72
     2
 73
     1
 90
        0
 40
-0.6
 41
-30.0
 62
     5
 63
     7
421
 16777215
 74
     2
 91
        2
 64
     7
 65
   257
 75
     1
175
     1
 42
40.0
 92
        8
 66
     7
 43
1.0
 76
     1
 77
     6
 78
     2
 67
     7
 79
     3
170
     0
171
     0
290
     0
174
     0
 93
        1
 44
0.0
173
     0
291
     0
 45
0.0
1001
ACAD
1000
AcDbSavedByObjectVersion
1070
     0
  0
VISUALSTYLE
  5
A4
102
{ACAD_XDICTIONARY
360
A08
102
}
102
{ACAD_REACTORS
330
99
102
}
330
99
100
AcDbVisualStyle
  2
Dim
 70
    11
 71
     2
 72
     2
 73
     1
 90
        0
 40
-0.6
 41
-30.0
 62
     5
 63
     7
421
 16777215
 74
     1
 91
        4
 64
     7
 65
   257
 75
     1
175
     1
 42
1.0
 92
        8
 66
     7
 43
1.0
 76
     1
 77
     6
 78
     2
 67
     7
 79
     5
170
     0
171
     0
290
     0
174
     0
 93
        1
 44
-50.0
173
     0
291
     1
 45
0.0
1001
ACAD
1000
AcDbSavedByObjectVersion
1070
     0
  0
VISUALSTYLE
  5
175
102
{ACAD_XDICTIONARY
360
A18
102
}
102
{ACAD_REACTORS
330
99
102
}
330
99
100
AcDbVisualStyle
  2
EdgeColorOff
 70
    22
 71
     2
 72
     2
 73
     0
 90
        0
 40
-0.6
 41
-30.0
 62
     5
 63
     7
421
 16777215
 74
     1
 91
        4
 64
     7
 65
   257
 75
     1
175
     1
 42
1.0
 92
        8
 66
     7
 43
1.0
 76
     1
 77
     6
 78
     2
 67
     7
 79
     5
170
     0
171
     0
290
     0
174
     0
 93
        1
 44
0.0
173
     0
291
     1
 45
0.0
1001
ACAD
1000
AcDbSavedByObjectVersion
1070
     0
  0
VISUALSTYLE
  5
A8
102
{ACAD_XDICTIONARY
360
A10
102
}
102
{ACAD_REACTORS
330
99
102
}
330
99
100
AcDbVisualStyle
  2
Facepattern
 70
    15
 71
     2
 72
     2
 73
     1
 90
        0
 40
-0.6
 41
-30.0
 62
     5
 63
     7
421
 16777215
 74
     1
 91
        4
 64
     7
 65
   257
 75
     1
175
     1
 42
1.0
 92
        8
 66
     7
 43
1.0
 76
     1
 77
     6
 78
     2
 67
     7
 79
     5
170
     0
171
     0
290
     0
174
     0
 93
        1
 44
0.0
173
     0
291
     1
 45
0.0
1001
ACAD
1000
AcDbSavedByObjectVersion
1070
     0
  0
VISUALSTYLE
  5
9A
102
{ACAD_XDICTIONARY
360
9F4
102
}
102
{ACAD_REACTORS
330
99
102
}
330
99
100
AcDbVisualStyle
  2
Flat
 70
     0
 71
     2
 72
     1
 73
     1
 90
        2
 40
-0.6
 41
30.0
 62
     5
 63
     7
421
 16777215
 74
     0
 91
        0
 64
     7
 65
   257
 75
     1
175
     1
 42
1.0
 92
        8
 66
     7
 43
1.0
 76
     1
 77
     6
 78
     2
 67
     7
 79
     5
170
     0
171
     0
290
     0
174
     0
 93
       13
 44
0.0
173
     0
291
     1
 45
0.0
1001
ACAD
1000
AcDbSavedByObjectVersion
1070
     0
  0
VISUALSTYLE
  5
9B
102
{ACAD_XDICTIONARY
360
9F6
102
}
102
{ACAD_REACTORS
330
99
102
}
330
99
100
AcDbVisualStyle
  2
FlatWithEdges
 70
     1
 71
     2
 72
     1
 73
     1
 90
        2
 40
-0.6
 41
30.0
 62
     5
 63
     7
421
 16777215
 74
     1
 91
        0
 64
     7
 65
   257
 75
     1
175
     1
 42
1.0
 92
        0
 66
   257
 43
1.0
 76
     1
 77
     6
 78
     2
 67
     7
 79
     5
170
     0
171
     0
290
     0
174
     0
 93
       13
 44
0.0
173
     0
291
     1
 45
0.0
1001
ACAD
1000
AcDbSavedByObjectVersion
1070
     0
  0
VISUALSTYLE
  5
9C
102
{ACAD_XDICTIONARY
360
9F8
102
}
102
{ACAD_REACTORS
330
99
102
}
330
99
100
AcDbVisualStyle
  2
Gouraud
 70
     2
 71
     2
 72
     2
 73
     1
 90
        2
 40
-0.6
 41
30.0
 62
     5
 63
     7
421
 16777215
 74
     0
 91
        0
 64
     7
 65
   257
 75
     1
175
     1
 42
1.0
 92
        0
 66
     7
 43
1.0
 76
     1
 77
     6
 78
     2
 67
     7
 79
     5
170
     0
171
     0
290
     0
174
     0
 93
       13
 44
0.0
173
     0
291
     1
 45
0.0
1001
ACAD
1000
AcDbSavedByObjectVersion
1070
     0
  0
VISUALSTYLE
  5
9D
102
{ACAD_XDICTIONARY
360
9FA
102
}
102
{ACAD_REACTORS
330
99
102
}
330
99
100
AcDbVisualStyle
  2
GouraudWithEdges
 70
     3
 71
     2
 72
     2
 73
     1
 90
        2
 40
-0.6
 41
30.0
 62
     5
 63
     7
421
 16777215
 74
     1
 91
        0
 64
     7
 65
   257
 75
     1
175
     1
 42
1.0
 92
        0
 66
   257
 43
1.0
 76
     1
 77
     6
 78
     2
 67
     7
 79
     5
170
     0
171
     0
290
     0
174
     0
 93
       13
 44
0.0
173
     0
291
     1
 45
0.0
1001
ACAD
1000
AcDbSavedByObjectVersion
1070
     0
  0
VISUALSTYLE
  5
A1
102
{ACAD_XDICTIONARY
360
A02
102
}
102
{ACAD_REACTORS
330
99
102
}
330
99
100
AcDbVisualStyle
  2
Hidden
 70
     6
 71
     1
 72
     2
 73
     2
 90
        0
 40
-0.6
 41
-30.0
 62
     5
 63
     7
421
 16777215
 74
     2
 91
        2
 64
     7
 65
   257
 75
     2
175
     1
 42
40.0
 92
        0
 66
   257
 43
1.0
 76
     1
 77
     6
 78
     2
 67
     7
 79
     3
170
     0
171
     0
290
     0
174
     0
 93
        1
 44
0.0
173
     0
291
     0
 45
0.0
1001
ACAD
1000
AcDbSavedByObjectVersion
1070
     0
  0
VISUALSTYLE
  5
173
102
{ACAD_XDICTIONARY
360
A14
102
}
102
{ACAD_REACTORS
330
99
102
}
330
99
100
AcDbVisualStyle
  2
JitterOff
 70
    20
 71
     2
 72
     2
 73
     0
 90
        0
 40
-0.6
 41
-30.0
 62
     5
 63
     7
421
 16777215
 74
     1
 91
        4
 64
     7
 65
   257
 75
     1
175
     1
 42
1.0
 92
       10
 66
     7
 43
1.0
 76
     1
 77
     6
 78
     2
 67
     7
 79
     5
170
     0
171
     0
290
     0
174
     0
 93
        1
 44
0.0
173
     0
291
     1
 45
0.0
1001
ACAD
1000
AcDbSavedByObjectVersion
1070
     0
  0
VISUALSTYLE
  5
A7
102
{ACAD_XDICTIONARY
360
A0E
102
}
102
{ACAD_REACTORS
330
99
102
}
330
99
100
AcDbVisualStyle
  2
Linepattern
 70
    14
 71
     2
 72
     2
 73
     1
 90
        0
 40
-0.6
 41
-30.0
 62
     5
 63
     7
421
 16777215
 74
     1
 91
        4
 64
     7
 65
   257
 75
     7
175
     7
 42
1.0
 92
        8
 66
     7
 43
1.0
 76
     1
 77
     6
 78
     2
 67
     7
 79
     5
170
     0
171
     0
290
     0
174
     0
 93
        1
 44
0.0
173
     0
291
     1
 45
0.0
1001
ACAD
1000
AcDbSavedByObjectVersion
1070
     0
  0
VISUALSTYLE
  5
174
102
{ACAD_XDICTIONARY
360
A16
102
}
102
{ACAD_REACTORS
330
99
102
}
330
99
100
AcDbVisualStyle
  2
OverhangOff
 70
    21
 71
     2
 72
     2
 73
     0
 90
        0
 40
-0.6
 41
-30.0
 62
     5
 63
     7
421
 16777215
 74
     1
 91
        4
 64
     7
 65
   257
 75
     1
175
     1
 42
1.0
 92
        9
 66
     7
 43
1.0
 76
     1
 77
     6
 78
     2
 67
     7
 79
     5
170
     0
171
     0
290
     0
174
     0
 93
        1
 44
0.0
173
     0
291
     1
 45
0.0
1001
ACAD
1000
AcDbSavedByObjectVersion
1070
     0
  0
VISUALSTYLE
  5
A3
102
{ACAD_XDICTIONARY
360
A06
102
}
102
{ACAD_REACTORS
330
99
102
}
330
99
100
AcDbVisualStyle
  2
Realistic
 70
     8
 71
     2
 72
     3
 73
     0
 90
        2
 40
-0.6
 41
30.0
 62
     5
 63
     7
421
 16777215
 74
     0
 91
        0
 64
     7
 65
   257
 75
     1
175
     1
 42
1.0
 92
        8
 66
   257
 43
1.0
 76
     1
 77
     6
 78
     2
 67
     7
 79
     3
170
     0
171
     0
290
     0
174
     0
 93
       13
 44
0.0
173
     0
291
     0
 45
0.0
1001
ACAD
1000
AcDbSavedByObjectVersion
1070
     0
  0
VISUALSTYLE
  5
182
102
{ACAD_XDICTIONARY
360
A22
102
}
102
{ACAD_REACTORS
330
99
102
}
330
99
100
AcDbVisualStyle
  2
Shaded
 70
    27
 71
     2
 72
     2
 73
     1
 90
        2
 40
-0.6
 41
30.0
 62
     5
 63
     7
421
 16777215
 74
     0
 91
        4
 64
     7
 65
   257
 75
     1
175
     1
 42
1.0
 92
        8
 66
   257
 43
1.0
 76
     1
 77
     6
 78
     2
 67
     8
425
  7895160
 79
     3
170
     0
171
     0
290
     0
174
     0
 93
        5
 44
0.0
173
     0
291
     0
 45
0.0
1001
ACAD
1000
AcDbSavedByObjectVersion
1070
     0
  0
VISUALSTYLE
  5
181
102
{ACAD_XDICTIONARY
360
A20
102
}
102
{ACAD_REACTORS
330
99
102
}
330
99
100
AcDbVisualStyle
  2
Shaded with edges
 70
    26
 71
     2
 72
     2
 73
     1
 90
        2
 40
-0.6
 41
30.0
 62
     5
 63
     7
421
 16777215
 74
     1
 91
        2
 64
     7
 65
   257
 75
     2
175
     1
 42
1.0
 92
        8
 66
   257
 43
1.0
 76
     1
 77
     6
 78
     2
 67
     7
 79
     3
170
     0
171
     0
290
     0
174
     0
 93
        5
 44
0.0
173
     0
291
     0
 45
0.0
1001
ACAD
1000
AcDbSavedByObjectVersion
1070
     0
  0
VISUALSTYLE
  5
17E
102
{ACAD_XDICTIONARY
360
A1A
102
}
102
{ACAD_REACTORS
330
99
102
}
330
99
100
AcDbVisualStyle
  2
Shades of Gray
 70
    23
 71
     2
 72
     2
 73
     3
 90
        0
 40
-0.6
 41
-30.0
 62
     5
 63
     7
421
 16777215
 74
     2
 91
        2
 64
     7
 65
     7
 75
     1
175
     1
 42
40.0
 92
        8
 66
     7
 43
1.0
 76
     1
 77
     6
 78
     2
 67
     7
 79
     3
170
     0
171
     0
290
     0
174
     0
 93
        1
 44
0.0
173
     0
291
     0
 45
0.0
1001
ACAD
1000
AcDbSavedByObjectVersion
1070
     0
  0
VISUALSTYLE
  5
17F
102
{ACAD_XDICTIONARY
360
A1C
102
}
102
{ACAD_REACTORS
330
99
102
}
330
99
100
AcDbVisualStyle
  2
Sketchy
 70
    24
 71
     1
 72
     2
 73
     2
 90
        0
 40
-0.6
 41
-30.0
 62
     5
 63
     7
421
 16777215
 74
     2
 91
        2
 64
     7
 65
     7
 75
     1
175
     1
 42
40.0
 92
       11
 66
     7
 43
1.0
 76
     1
 77
     6
 78
     2
 67
     7
 79
     6
170
     0
171
     0
290
     0
174
     0
 93
        1
 44
0.0
173
     0
291
     0
 45
0.0
1001
ACAD
1000
AcDbSavedByObjectVersion
1070
     0
  0
VISUALSTYLE
  5
A6
102
{ACAD_XDICTIONARY
360
A0C
102
}
102
{ACAD_REACTORS
330
99
102
}
330
99
100
AcDbVisualStyle
  2
Thicken
 70
    13
 71
     2
 72
     2
 73
     1
 90
        0
 40
-0.6
 41
-30.0
 62
     5
 63
     7
421
 16777215
 74
     1
 91
        4
 64
     7
 65
   257
 75
     1
175
     1
 42
1.0
 92
       12
 66
     7
 43
1.0
 76
     1
 77
     6
 78
     2
 67
     7
 79
     5
170
     0
171
     0
290
     0
174
     0
 93
        1
 44
0.0
173
     0
291
     1
 45
0.0
1001
ACAD
1000
AcDbSavedByObjectVersion
1070
     0
  0
VISUALSTYLE
  5
A0
102
{ACAD_XDICTIONARY
360
A00
102
}
102
{ACAD_REACTORS
330
99
102
}
330
99
100
AcDbVisualStyle
  2
Wireframe
 70
     5
 71
     0
 72
     2
 73
     0
 90
        0
 40
-0.6
 41
-30.0
 62
     5
 63
     7
421
 16777215
 74
     1
 91
        4
 64
     7
 65
   257
 75
     1
175
     1
 42
1.0
 92
        0
 66
   257
 43
1.0
 76
     1
 77
     6
 78
     2
 67
     7
 79
     3
170
     0
171
     0
290
     0
174
     0
 93
        1
 44
0.0
173
     0
291
     0
 45
0.0
1001
ACAD
1000
AcDbSavedByObjectVersion
1070
     0
  0
VISUALSTYLE
  5
180
102
{ACAD_XDICTIONARY
360
A1E
102
}
102
{ACAD_REACTORS
330
99
102
}
330
99
100
AcDbVisualStyle
  2
X-Ray
 70
    25
 71
     2
 72
     2
 73
     1
 90
        1
 40
0.5
 41
-30.0
 62
     5
 63
     7
421
 16777215
 74
     1
 91
        0
 64
     7
 65
   257
 75
     1
175
     1
 42
1.0
 92
        8
 66
     7
 43
1.0
 76
     1
 77
     6
 78
     2
 67
     7
 79
     3
170
     0
171
     0
290
     0
174
     0
 93
       13
 44
0.0
173
     0
291
     0
 45
0.0
1001
ACAD
1000
AcDbSavedByObjectVersion
1070
     0
  0
DICTIONARYVAR
  5
F0
102
{ACAD_REACTORS
330
66
102
}
330
66
100
DictionaryVariables
280
     0
  1
1:1
  0
DICTIONARYVAR
  5
EF
102
{ACAD_REACTORS
330
66
102
}
330
66
100
DictionaryVariables
280
     0
  1
STANDARD
  0
DICTIONARYVAR
  5
89
102
{ACAD_REACTORS
330
66
102
}
330
66
100
DictionaryVariables
280
     0
  1
STANDARD
  0
DICTIONARYVAR
  5
1B7
102
{ACAD_REACTORS
330
66
102
}
330
66
100
DictionaryVariables
280
     0
  1
Imperial24
  0
DICTIONARYVAR
  5
1B8
102
{ACAD_REACTORS
330
66
102
}
330
66
100
DictionaryVariables
280
     0
  1
Imperial24
  0
DICTIONARYVAR
  5
67
102
{ACAD_REACTORS
330
66
102
}
330
66
100
DictionaryVariables
280
     0
  1
2
  0
DICTIONARYVAR
  5
6B
102
{ACAD_REACTORS
330
66
102
}
330
66
100
DictionaryVariables
280
     0
  1
1
  0
DICTIONARYVAR
  5
14D
102
{ACAD_REACTORS
330
66
102
}
330
66
100
DictionaryVariables
280
     0
  1
0
  0
DICTIONARYVAR
  5
14E
102
{ACAD_REACTORS
330
66
102
}
330
66
100
DictionaryVariables
280
     0
  1
0
  0
DICTIONARYVAR
  5
35A
102
{ACAD_REACTORS
330
66
102
}
330
66
100
DictionaryVariables
280
     0
  1
2
  0
DICTIONARYVAR
  5
359
102
{ACAD_REACTORS
330
66
102
}
330
66
100
DictionaryVariables
280
     0
  1
1
  0
DICTIONARYVAR
  5
35B
102
{ACAD_REACTORS
330
66
102
}
330
66
100
DictionaryVariables
280
     0
  1
2
  0
DICTIONARY
  5
9EF
102
{ACAD_REACTORS
330
9ED
102
}
330
9ED
100
AcDbDictionary
281
     1
  0
DICTIONARY
  5
9EE
102
{ACAD_REACTORS
330
9ED
102
}
330
9ED
100
AcDbDictionary
281
     1
  3
1079624960
350
9E8
  3
1079624976
350
9E9
  3
1079624992
350
9EA
  3
1079625008
350
9EB
  3
1079625024
350
9EC
  0
DICTIONARY
  5
1C6
330
1AC
100
AcDbDictionary
280
     1
281
     1
  3
ACAD_XREC_ROUNDTRIP
360
A25
  0
DICTIONARY
  5
194
330
22
100
AcDbDictionary
280
     1
281
     1
  0
DICTIONARY
  5
188
330
97
100
AcDbDictionary
280
     1
281
     1
  3
ACAD_XREC_ROUNDTRIP
360
9F2
  3
FBXASSET
360
189
  0
DICTIONARY
  5
186
330
96
100
AcDbDictionary
280
     1
281
     1
  3
ACAD_XREC_ROUNDTRIP
360
9F1
  3
FBXASSET
360
187
  0
DICTIONARY
  5
110
330
98
100
AcDbDictionary
280
     1
281
     1
  3
ACAD_XREC_ROUNDTRIP
360
9F3
  3
BUMPTILE
360
112
  3
DIFFUSETILE
360
111
  3
FBXASSET
360
18A
  3
OPACITYTILE
360
113
  3
REFLECTIONTILE
360
114
  0
DICTIONARY
  5
1C4
330
1AA
100
AcDbDictionary
280
     1
281
     1
  3
ACAD_XREC_ROUNDTRIP
360
A24
  0
DICTIONARY
  5
104
330
87
100
AcDbDictionary
280
     1
281
     1
  3
ACAD_ROUNDTRIP_2008_TABLESTYLE_CELLSTYLEMAP
360
9E6
  3
ACAD_XREC_ROUNDTRIP
360
9F0
  0
DICTIONARY
  5
9FE
330
9F
100
AcDbDictionary
280
     1
281
     1
  3
ACAD_XREC_ROUNDTRIP
360
9FF
  0
DICTIONARY
  5
9FC
330
9E
100
AcDbDictionary
280
     1
281
     1
  3
ACAD_XREC_ROUNDTRIP
360
9FD
  0
DICTIONARY
  5
A0A
330
A5
100
AcDbDictionary
280
     1
281
     1
  3
ACAD_XREC_ROUNDTRIP
360
A0B
  0
DICTIONARY
  5
A12
330
A9
100
AcDbDictionary
280
     1
281
     1
  3
ACAD_XREC_ROUNDTRIP
360
A13
  0
DICTIONARY
  5
A04
330
A2
100
AcDbDictionary
280
     1
281
     1
  3
ACAD_XREC_ROUNDTRIP
360
A05
  0
DICTIONARY
  5
A08
330
A4
100
AcDbDictionary
280
     1
281
     1
  3
ACAD_XREC_ROUNDTRIP
360
A09
  0
DICTIONARY
  5
A18
330
175
100
AcDbDictionary
280
     1
281
     1
  3
ACAD_XREC_ROUNDTRIP
360
A19
  0
DICTIONARY
  5
A10
330
A8
100
AcDbDictionary
280
     1
281
     1
  3
ACAD_XREC_ROUNDTRIP
360
A11
  0
DICTIONARY
  5
9F4
330
9A
100
AcDbDictionary
280
     1
281
     1
  3
ACAD_XREC_ROUNDTRIP
360
9F5
  0
DICTIONARY
  5
9F6
330
9B
100
AcDbDictionary
280
     1
281
     1
  3
ACAD_XREC_ROUNDTRIP
360
9F7
  0
DICTIONARY
  5
9F8
330
9C
100
AcDbDictionary
280
     1
281
     1
  3
ACAD_XREC_ROUNDTRIP
360
9F9
  0
DICTIONARY
  5
9FA
330
9D
100
AcDbDictionary
280
     1
281
     1
  3
ACAD_XREC_ROUNDTRIP
360
9FB
  0
DICTIONARY
  5
A02
330
A1
100
AcDbDictionary
280
     1
281
     1
  3
ACAD_XREC_ROUNDTRIP
360
A03
  0
DICTIONARY
  5
A14
330
173
100
AcDbDictionary
280
     1
281
     1
  3
ACAD_XREC_ROUNDTRIP
360
A15
  0
DICTIONARY
  5
A0E
330
A7
100
AcDbDictionary
280
     1
281
     1
  3
ACAD_XREC_ROUNDTRIP
360
A0F
  0
DICTIONARY
  5
A16
330
174
100
AcDbDictionary
280
     1
281
     1
  3
ACAD_XREC_ROUNDTRIP
360
A17
  0
DICTIONARY
  5
A06
330
A3
100
AcDbDictionary
280
     1
281
     1
  3
ACAD_XREC_ROUNDTRIP
360
A07
  0
DICTIONARY
  5
A22
330
182
100
AcDbDictionary
280
     1
281
     1
  3
ACAD_XREC_ROUNDTRIP
360
A23
  0
DICTIONARY
  5
A20
330
181
100
AcDbDictionary
280
     1
281
     1
  3
ACAD_XREC_ROUNDTRIP
360
A21
  0
DICTIONARY
  5
A1A
330
17E
100
AcDbDictionary
280
     1
281
     1
  3
ACAD_XREC_ROUNDTRIP
360
A1B
  0
DICTIONARY
  5
A1C
330
17F
100
AcDbDictionary
280
     1
281
     1
  3
ACAD_XREC_ROUNDTRIP
360
A1D
  0
DICTIONARY
  5
A0C
330
A6
100
AcDbDictionary
280
     1
281
     1
  3
ACAD_XREC_ROUNDTRIP
360
A0D
  0
DICTIONARY
  5
A00
330
A0
100
AcDbDictionary
280
     1
281
     1
  3
ACAD_XREC_ROUNDTRIP
360
A01
  0
DICTIONARY
  5
A1E
330
180
100
AcDbDictionary
280
     1
281
     1
  3
ACAD_XREC_ROUNDTRIP
360
A1F
  0
XRECORD
  5
9E8
102
{ACAD_REACTORS
330
9EE
102
}
330
9EE
100
AcDbXrecord
280
     1
  1
AcDb_Thumbnail_Schema
102
{ATTRRECORD
341
9E9
  2
AcDbDs::TreatedAsObjectData
280
     1
291
     1
102
ATTRRECORD}
102
{ATTRRECORD
341
9EA
  2
AcDbDs::Legacy
280
     1
291
     1
102
ATTRRECORD}
  2
AcDbDs::ID
280
    10
 91
        8
102
{ATTRRECORD
341
9EB
  2
AcDs:Indexable
280
     1
291
     1
102
ATTRRECORD}
102
{ATTRRECORD
341
9EC
  2
AcDbDs::HandleAttribute
280
     7
282
     1
102
ATTRRECORD}
  2
Thumbnail_Data
280
    15
 91
        0
  0
XRECORD
  5
9E9
102
{ACAD_REACTORS
330
9EE
102
}
330
9EE
100
AcDbXrecord
280
     1
  1
AcDbDs::TreatedAsObjectDataSchema
  2
AcDbDs::TreatedAsObjectData
280
     1
 91
        0
  0
XRECORD
  5
9EA
102
{ACAD_REACTORS
330
9EE
102
}
330
9EE
100
AcDbXrecord
280
     1
  1
AcDbDs::LegacySchema
  2
AcDbDs::Legacy
280
     1
 91
        0
  0
XRECORD
  5
9EB
102
{ACAD_REACTORS
330
9EE
102
}
330
9EE
100
AcDbXrecord
280
     1
  1
AcDbDs::IndexedPropertySchema
  2
AcDs:Indexable
280
     1
 91
        0
  0
XRECORD
  5
9EC
102
{ACAD_REACTORS
330
9EE
102
}
330
9EE
100
AcDbXrecord
280
     1
  1
AcDbDs::HandleAttributeSchema
  2
AcDbDs::HandleAttribute
280
     7
 91
        1
284
     1
  0
XRECORD
  5
A25
102
{ACAD_REACTORS
330
1C6
102
}
330
1C6
100
AcDbXrecord
280
     1
102
DISPLAYNAME
  1
Imperial24
102
FLAGS
 90
        0
  0
XRECORD
  5
9F2
102
{ACAD_REACTORS
330
188
102
}
330
188
100
AcDbXrecord
280
     1
102
MATERIAL
148
0.0
149
0.0
149
0.0
 93
        0
 94
       63
282
     0
 72
     1
 77
     1
171
     1
175
     1
179
     1
273
     0
  0
XRECORD
  5
189
102
{ACAD_REACTORS
330
188
102
}
330
188
100
AcDbXrecord
280
     1
 70
     1
 90
429727718
  1
508B35C9-AEE7-456F-BE74-D52651303AC6
310
504B03040A0000080000B670623B3DEE336E79000000790000001B0000006175746F6465736B2D64657369676E2D7061636B6167652E786D6C3C3F786D6C2076657273696F6E3D22312E302220656E636F64696E673D227574662D3822203F3E3C666F726D6174733E3C666F726D61743E687474703A2F2F736368656D612E
310
6175746F6465736B2E636F6D2F64657369676E2D7061636B6167652F323030393C2F666F726D61743E3C2F666F726D6174733E504B0304140006080800B670623BD486FD9CA0000000F4000000130000005B436F6E74656E745F54797065735D2E786D6C7D8EC10E82300C865F65E91D8A1E8C310C0EEA1BF002731658846E
310
D98AC1B77784ABF1D8FE5FBFBF75BBCE937A534CCEB38643598122B6FEE978D0B0485F9C41B54DDD7D022595594E1A469170414C76A4D9A4D207E29CF43ECE46F218070CC6BECC4078ACAA135ACF422C856C0E68EA1BF5669944DDD7BCDE7B1F8E415D77AECB980613C2E4AC91FC167A2B244592486606FC29C8FD7F045B9A
310
EF7053A7E60B504B0304140006080800B670623B28ED286BEB0000007C01000008000000636F72652E786D6C8D90416EC3201045AF82665B6183218D6D61A254764FD00B204C5C94182C03558F5F9C3852BBEB6A467FFE9B197D71FA9E6FE8CBACC17AD7012D0820E3B41FAD9B3A48F1826B40272956EFE32F1B20A766D3C1
310
268314D3EAD3B24BDABB685CCCAAF3A3D94515828980F42D371D04FD696655A814B3235C8B45E9AB9A4C419F5D8653B2237A1CB163DE672FD6AC209BF3C08E0D1B30EB19C3FC9D72FCC6EB231EFA33EDE96BDD341517E5064B11EDFCBCAF57A3A2194156843498524CAA0FCA5B7268F9E185D42D21A2DCEC7FA0B48CFF8492
310
759155FBBB0F2C80A4F991FB408A72CB22977B50B96EB9C91F504B0304140006080800B670623B55019EA25F0000007C00000007000000636E782E786D6C4DCB3B0E80201045D1AD90E915ED2CF8AC45050C11660C8261F98AB1B07AC9C97D42D718D865D3E909258CFD00CCE24AC6E326A164D74DC0B4128928FF32603847
310
2BA13128B1252AC747C6BAB984FC68F0B87FE8960A5C09FE86CFB69FBA01504B0304140006080800B670623B7BC41AC871010000D40300000C0000006662782F636F72652E786D6CC553ED6E8320147D15C2DF4501B56B6D90A64BBB27D80B50A5CE54C120983EFEAE1F4DD7A56BBA5FF3879273EEE59E7310BE393735EA95
310
ED2AA333CC428A91D2B9292A5D66D8BB63B0C26823B835C67D2BC348CB46657880B1E0A535BE9DA1DC68A7B403549B42CDA0EC3AE530CA6B5864B8CB3F552343E91D5474A7B095F949962A6421D0502778E72C0840D390E18DC5F170E664C205F7BE2A66B62A605A75AC94C522DDEEE3651AEF837817C741F2CE92E02D592D
310
83FD6ECB76EC7595A651C2C9D02CB8AB9A8BBADC2AE954814544691A3016D0E883256BBA58278B17BA5A53CAC9507ED3E4DBE2C9265F691747B3DCA9ADC382819091F8E1162272A8933DE82182932144F88C09DF060D8140C84E1EEA8B8F1340BDCA9DB1093085F157AA97B557309586747CD0EF0B4EA64E983A6E0EAEEFCE
310
889E9EF17847386AA94B30211D2C0FDE0D3AF9A4610EAD5536E8DD1969631B593F67E381C33F5157F17725E5A636F6BF1491F980C8FC7B90E13E8A2F504B0304140006080800B670623B70102A487D0000009D0000000B0000006662782F636E782E786D6C4DCCD10A83201886E15B91FFDC95A5C30335ACCDFB886521330D
310
A76397BF1A1DECE883878F57749FD5A3B74D2F17830472A901D9F088930B8B849267CC01754AA418F3DF0D5018572BE160506249B16C274D761E8BCFBB7A179E27F65CB39A0F14D396184C9921B81F34C3ACA1B4B99ABB6E6F062A25AA5F69DF23ACBE504B0304140006080800B670623B3610CA3329010000120200003100
310
00006662782F42384135303843342D343331462D343546312D424341352D3532343432364645413344462F636F72652E786D6C8D515B6EC32010BC0AE22B55850D0E446E848992B43E412FE000495162B07854397EA176A4F62F3F2C9A9D991D58BEBB8F37F0AD7D30CE76905418026DA553C65E3A98E219B510EC04F7CEC5
310
3F3408EC30EA0E16180A7EF12E4D0B249D8DDAC68C5AA7F4020E21E80881BCE54B0783FCD2E3500D296646B856D320AFC34557A4CAEDCC133C449F0380794839A138B47B86DB2345744D7A44594FD0E1B867883594369BFE63BF7EEF793D0B054FC9A8456E548E63CE46FB674D8A58F068C6477CE9F510B582A2C1F80D1182
310
70F349E816B32D65AFB8DD62CCEB42FF274A937A52948C8DEB66893BCB021484D7734370E5D2E9F608A3EF93F3119479ABA0E50B14B8C298119A43CCC4FCFCECB8A18B6388CEE7EF5D5D4F994BD86CBBA182D76543B9FCAE2FD7B24DF103504B0304140006080800B670623B1B8617914E0100003303000030000000666278
310
2F42384135303843342D343331462D343546312D424341352D3532343432364645413344462F636E782E786D6CD593C16EC32010447F0571AD6CE3D489D20813A9877E410FBD62D82434182CC055F3F75D1292E692438FBD206B7698593D61BEFD1E2DF982108D773D6D6B460938E5B571FB9ECE6957AD29D90A1EBC4F7736
310
4A9C1CA1A759A682EF839FA72269D8C9D92654AD71C72206887E0E0A22CAF926B15E498B01E0AA19451807D01A34B919F16B070157417138917400F2F6FA41FCF0092A45DEE414C19BDC21783E4BD39D891265658C3D8DEA00A3ACE59CBC8678ACB54CB26EEB6BD7839D7E9348BE70AD9C8321B9BCA7F9A4A26C542347DEE0
310
50F09802D22BA6749A800A394DD62899107273365E3C82CFC6A55557BC06C10774B7ABE7AEC3B0F34CF06446280E154026D0542C187BA9DAB6628BF7B6DBB0E5A65B3EB1F58631DE64BBE083F7B65CC218087E22CABB042E51D1F2268F1FE12B3EA24D40D63E9CFE00120194D60B9D5BC67FE6D39CDF37E20AF817881F504B
310
0304140006080800B670623BBFEF2E3B690500003C100000340000006662782F42384135303843342D343331462D343546312D424341352D3532343432364645413344462F6F626A656374732E786D6CAD575D739B3814FD2B0CFB0C98D84E931D4227B6938EA793B6534F3BFB90198F0099B001899144EAECAFDF231018B0
310
D37A3FFC609090EEE7B94757C1FB7D915B2F54C88CB31BDB7727B64559CC938CA53776A576CE956DBD0F03C1B9EA2DB32D460A7A63EB693B0C52C1ABD24C257447AA5C8D66EF177F5832A68CDA569C13296F6C193FD182B8A4523CA1F2D94D88226EBADBBBBEDB2C1C8A4D05299F46424B222853B014F30C52ACC6287F389C
310
D85E1878FA7B18E87FB36AFAF62AAFF667A83F635211161F291B8999FAB3D5DDC5FCDA99CF6653677679E13B8BFBC5CAF1DF4D27CBCBE5F2FAF6EE1A8AA51290642C117467871F101B91C581D77CEA2C36869F3229E68CD1B8F61F1ED6361B89092D294B90C78C4A68EB793D190E7D1D9BDEE7A91E1B95FDE9F3BCEAEFE809
310
6A6D6F9F7D4B79F4275C90E7A04248AA51D5C4C738DAE06F72885AC4796EBE65D22A88A22223B995679120E2D50EB1542F098381188D4EA111AE3DB043FF20AF6F2B4AE3D7D83D65E5AECA730D4D3BAC91BD05FEA992B565D95F549CD6069B90AB2A63EACA38A45E4B6A87D781574F86817E4C2FCCC72690D62E2729520E37
310
9BAF234797BAF6D62B3BFC781FED37BA1E4F2B2F052FA9501A3E80569BB8F6A9A364D4FA67654E6F803383981F82F21591FF84F23D9882BC896C3FDBCF8C162508933B2E0AE4C69DD43F6BD2BE38DDDBF10BF86CB4FA784D37F3AF16075E67EC9030DECA1FC0A55373F5DFF3378C591FA9BDF485C10B0A8C8BA909E5262639
310
A8E72163488806A595734C81CB77D1DE0ED7604A303B76913CEC0272F412782FF88EFF4636D8AA56DF7B322474C4B767303F625997056C7B032C473C592B36CEBD15F3F9FF5233B7ABCDC74D257624A60F8658567497B14CE1EC3C80B76FD02011038F9EE9EB0F2E12387A9C844D3F09855125116D1D731DF8B43D2CF4E0A0
310
79A020C6BE946BCE0B7EA1E1219331CD73C228AF5A2DDD31A4B1DA918CE91350854D40A71723140BFA92E94E62B0626016CEFA5864A50E5977E8753CEDBEE1CBB7F52780D20E17AF0BA0F5F9B02A3AD07DCC732EB6D1EBB661421BE0C39E21BABF0FE16D22EA6929407C8DE596724C88B749B6DB5512BC7B228ADFD7CB7EA6
310
3A22397E690BA8D5D8D4E40CEC8CDA23C2C0B7D5898640101CEC9C6D331CE328CB93CAFBBAC70A642DF70DF95155945B52F08AA973C23469FD69ADEF84F7BB18F983A8F8C90E37F5D35980B2139A1C523540813E824EF83448CF7C72B598CE97D7CEEDDDDD3B6736BFBC771677EF66CE6A7E7139F7A793E9EDF2B2B3A8B624
310
0CDA13AA5F8388264EC4A0129909F3B7F5A16CEDF08128E97D680ACA4B9BE7B7B58BB638F0B00700EF36AE8B32A705658A68F83EE897FC2B41573190D1CCAF0B92D233A47CFEB019D9809933F67DD1A5467F8CF69AD9A5AE859342D45355448C64F968A371DC2D596ADC6E43D93D1B466F877A64E2893E54F23C4B40388995
310
525E5005DA3983ED45412510D3EFCA13737B3863F74BD30F2A12E5B4B5E489A025CE25500DB855B11ACE5BBFA185D35DD48D8DC3CE7DC69F2944DB42AA6F6CF09BCA622ADD08C7A36E7C6AE18000BAB08E040135C2D21C9D75B3A91B77BB746C403F38018DFE6EC939DD92F16B40BC05294B9CDA035AAD6D330AE27FE4786B
310
8E45145EA34A75BE1C263A676A35A8ACC6297337400BF16C54EF515F3F77CB77EB3583889C754FFA29081AA98E2222ADEF05DA3E63D2EDEA8B8756C05A7FB6CABC4A91CBF325398202CC952E70A008A830324BA200D5E5EF8F5F04C75DB4B0EE3340E071C98B823333B83577596BF3849B69F2085AA0FAFA212F26BEFF5877
310
FDE622B28D88A42E49E43326DA82D31E8CB006401E1DA726059ECEC168F97A6599036306A135688F9AD2E61A6EA178F4CD51974A9F2CCB9F36FE5EBD14601068D9C3BF01504B0304140006080000B670623B000000000000000000000000350000006662782F42384135303843342D343331462D343546312D424341352D35
310
32343432364645413344462F76657274696365732E62696E504B0304140006080800B670623BF270F1330600000004000000360000006662782F42384135303843342D343331462D343546312D424341352D3532343432364645413344462F747269616E676C65732E62696E636660600000504B0304140006080000B67062
310
3B000000000000000000000000370000006662782F42384135303843342D343331462D343546312D424341352D3532343432364645413344462F617474726962757465732E62696E504B0304140006080800B670623B08DA0BD19000000041010000360000006662782F42384135303843342D343331462D343546312D4243
310
41352D3532343432364645413344462F6469726563746F72792E786D6C858F410AC3201045AF22B36F53E9A60B35CBEEBAE80D244E44489C6234F4F835464A48035D0DF398FF9F8AF63D0E6CC63039F212F8F9020C7D47C6792B21C5FE7403D62A1188E2E60C98D7234A5830286103A55745067B9D86B8A3CF9C7F90C11DE6
310
07FB144396D7B6A82D282E9A152AD114D5EF2CB866EEE831B8EEA07A7BB5A8D7D61A2BAAEB7FD5F70921FF497D00504B0304140006080800B670623B3B4606F3FE000000A00100003B0000006662782F42384135303843342D343331462D343546312D424341352D3532343432364645413344462F7265736F75726365732F
310
636F72652E786D6C8D504B6E833010BD0A9A6D65B08134808CA354A427E8052C332156828DFCA97AFC9A40A576D7CDCCE87D344F8F9FBEE647F689CE6B6B7A6039850C8DB2A336530F315C4903D94970676DF82583CCC8197B5861107C72362E3BA4AC096842428D1D7107A5F71820538F74F4E0D50D6799CB1892C2DFF345
310
AABB9C306779A2934E701F5C0A906D4FD609C2A1B7D129F4BCD858C163D4E3AED163FAA9AF1A1D88F67CA98E6D35906AA82A52BFB39ABCD5CD915C86331BD86BD3B665CD8BD52C78D0F34F46E550061C419494B6843142CB0F5677F4D0D58717DA7494F26295FF31C565FCA7296A13AA728FBBD93C0896823C09C18BB5AFB4
310
9E65A6BD762BBE01504B010214000A0000080000B670623B3DEE336E79000000790000001B00000000000000000000000000000000006175746F6465736B2D64657369676E2D7061636B6167652E786D6C504B01021400140006080800B670623BD486FD9CA0000000F40000001300000000000000000000000000B2000000
310
5B436F6E74656E745F54797065735D2E786D6C504B01021400140006080800B670623B28ED286BEB0000007C010000080000000000000000000000000083010000636F72652E786D6C504B01021400140006080800B670623B55019EA25F0000007C000000070000000000000000000000000094020000636E782E786D6C50
310
4B01021400140006080800B670623B7BC41AC871010000D40300000C00000000000000000000000000180300006662782F636F72652E786D6C504B01021400140006080800B670623B70102A487D0000009D0000000B00000000000000000000000000B30400006662782F636E782E786D6C504B01021400140006080800B6
310
70623B3610CA3329010000120200003100000000000000000000000000590500006662782F42384135303843342D343331462D343546312D424341352D3532343432364645413344462F636F72652E786D6C504B01021400140006080800B670623B1B8617914E010000330300003000000000000000000000000000D10600
310
006662782F42384135303843342D343331462D343546312D424341352D3532343432364645413344462F636E782E786D6C504B01021400140006080800B670623BBFEF2E3B690500003C10000034000000000000000000000000006D0800006662782F42384135303843342D343331462D343546312D424341352D35323434
310
32364645413344462F6F626A656374732E786D6C504B01021400140006080000B670623B0000000000000000000000003500000000000000000000000000280E00006662782F42384135303843342D343331462D343546312D424341352D3532343432364645413344462F76657274696365732E62696E504B010214001400
310
06080800B670623BF270F133060000000400000036000000000000000000000000007B0E00006662782F42384135303843342D343331462D343546312D424341352D3532343432364645413344462F747269616E676C65732E62696E504B01021400140006080000B670623B00000000000000000000000037000000000000
310
00000000000000D50E00006662782F42384135303843342D343331462D343546312D424341352D3532343432364645413344462F617474726962757465732E62696E504B01021400140006080800B670623B08DA0BD1900000004101000036000000000000000000000000002A0F00006662782F42384135303843342D3433
310
31462D343546312D424341352D3532343432364645413344462F6469726563746F72792E786D6C504B01021400140006080800B670623B3B4606F3FE000000A00100003B000000000000000000000000000E1000006662782F42384135303843342D343331462D343546312D424341352D3532343432364645413344462F72
310
65736F75726365732F636F72652E786D6C504B0506000000000E000E0080040000651100000000
  0
XRECORD
  5
9F1
102
{ACAD_REACTORS
330
186
102
}
330
186
100
AcDbXrecord
280
     1
102
MATERIAL
148
0.0
149
0.0
149
0.0
 93
        0
 94
       63
282
     0
 72
     1
 77
     1
171
     1
175
     1
179
     1
273
     0
  0
XRECORD
  5
187
102
{ACAD_REACTORS
330
186
102
}
330
186
100
AcDbXrecord
280
     1
 70
     1
 90
429727718
  1
887D55A9-D0DD-414E-B741-A7DCD4DA2B4C
310
504B03040A0000080000B670623B3DEE336E79000000790000001B0000006175746F6465736B2D64657369676E2D7061636B6167652E786D6C3C3F786D6C2076657273696F6E3D22312E302220656E636F64696E673D227574662D3822203F3E3C666F726D6174733E3C666F726D61743E687474703A2F2F736368656D612E
310
6175746F6465736B2E636F6D2F64657369676E2D7061636B6167652F323030393C2F666F726D61743E3C2F666F726D6174733E504B0304140006080800B670623BD486FD9CA0000000F4000000130000005B436F6E74656E745F54797065735D2E786D6C7D8EC10E82300C865F65E91D8A1E8C310C0EEA1BF002731658846E
310
D98AC1B77784ABF1D8FE5FBFBF75BBCE937A534CCEB38643598122B6FEE978D0B0485F9C41B54DDD7D022595594E1A469170414C76A4D9A4D207E29CF43ECE46F218070CC6BECC4078ACAA135ACF422C856C0E68EA1BF5669944DDD7BCDE7B1F8E415D77AECB980613C2E4AC91FC167A2B244592486606FC29C8FD7F045B9A
310
EF7053A7E60B504B0304140006080800B670623BBC1638F5EC0000007C01000008000000636F72652E786D6C8D90416EC3201045AF82665B61836BE2D8C24471DB9CA01740401C94182C03558F5F9C3852BBEB6A467FFE9B197D7EF89E6EE8CB2CC17AD7032D0820E394D7D68D3DA478C67B4007C117EFE32F1B202727D3C3
310
2A83E0E3E2D3BC49CABB685CCCAAF3DA6CA20CC14440EA969B1E82BA98491632C5EC08D76296EA2A4753D06797E194AC468F2356E77DF66CCD02825543D50CACC62D39ED70FDC68EB8FD68F6F8787A6784342D1DDA1D2F5758F068A7E77DB518198D065111D2624A31A93E69DD11D6D5EC85EC3B4278B9DAFF4069D6FF8492
310
75F1B5DADE7D600104CD8FDC0782976B16B9DC83CA75CD4DFC00504B0304140006080800B670623B55019EA25F0000007C00000007000000636E782E786D6C4DCB3B0E80201045D1AD90E915ED2CF8AC45050C11660C8261F98AB1B07AC9C97D42D718D865D3E909258CFD00CCE24AC6E326A164D74DC0B4128928FF326038
310
472BA13128B1252AC747C6BAB984FC68F0B87FE8960A5C09FE86CFB69FBA01504B0304140006080800B670623B3586FFB671010000D40300000C0000006662782F636F72652E786D6CC553ED6E8320147D15C2DF4541A76D6D90A6DDD627D80B50A4CE54C120983EFEAE1F4DD7A55BBA5FF3879273EEE59E7310B6393735EA
310
95ED2AA3731C851423A5A5292A5DE6D8BB63B0C268C39935C67D29C3488B46E578803167A535BE9D2169B453DA01AA4DA16650749D7218C91A1639EEE4876A4428BC838AEE14B6429E44A9C228041AEA38EB9C0501681A32BC313F1ECE8C4C3867DE57C5CC56054CAB8E95B298A7F12E5EEED224C8E87E11242FE936C8DE96
310
AB60BB7F4D295D66D12E5B30323473E6AAE6A24E5A259C2A308F29CD82280A68FC1E256B9AAE93F489AED694323294DF34F9B678B0C957DA3DC7B3DCA9ADC33C022123F1CD2D44E450277AD04338234388F01913BE0D1A0281909D38D4171F27807A259DB1093085F157AA17B557309586747CD0CF0B46A64E983A6E0EAEEF
310
CE881F9EF1FB8E70D44297604238581EBC1B74B249C31C5AAB6CD0BB33D2C636A27ECCC62F0EFF445DC5DF95244D6DEC7F2922F30191F9F720C37DE49F504B0304140006080800B670623B4220A0FF7D0000009D0000000B0000006662782F636E782E786D6C4DCCD10A83201886E15B91FFDCE542CB0335D0EC3E6259C84A
310
C3E9D8E5AF46073BFAE0E1E315DD675BD1DBA5978F41C2FD4600B9F088930F8B849267CC01754AA418F3DF0D50183727E164506249B1EC174D6E1ECB9A0F5D7D785E68DB8151CD286E5A5363CA6B8A39E90D36D40E96B086F55A43A544F52B1D7B86D517504B0304140006080800B670623B2FA3FEDE290100001202000031
310
0000006662782F45374635344235342D363743322D343832342D383044432D4334454645303536354442422F636F72652E786D6C8D515B6EC32010BC0AE22B55850D2E386E848994D7097A0117488A1283C5A3CAF10BB523B57FF961D1ECCCECC0F2ED7DBC816FED8371B687A4C210682B9D32F6D2C314CFA883602BB8772E
310
FEA141608751F7B0C050F08B77695A20E96CD43666D43AA5177008414708E42D5F7A18E4971E876A483133C2B59A06791D2EBA22556E679EE021FA1C00CC43CA09C5717D6274C7286AD7FB06D1AEA1A8C3873DDAD3E3E98859CB0EBB1DAF67A1E02919B5C88DCA71CCD968FFAC49110B1ECDF8882FBD1EA256503418BF2342
310
106E3E08DD60B6A1EC15771B8C795DE8FF4469524F8A92B1F1AD59E2CEB20005E1F5DC105CB9F4797B84D1F7C9F908CABC55D0F2050A5C61CC1AD2F27A26E6E767C7962E8E213A9FBF7775FDCC5CC266DB960A5E970DE5F2BBBE5CCB36C50F504B0304140006080800B670623B1B8617914E01000033030000300000006662
310
782F45374635344235342D363743322D343832342D383044432D4334454645303536354442422F636E782E786D6CD593C16EC32010447F0571AD6CE3D489D20813A9877E410FBD62D82434182CC055F3F75D1292E692438FBD206B7698593D61BEFD1E2DF982108D773D6D6B460938E5B571FB9ECE6957AD29D90A1EBC4F77
310
364A9C1CA1A759A682EF839FA72269D8C9D92654AD71C72206887E0E0A22CAF926B15E498B01E0AA19451807D01A34B919F16B070157417138917400F2F6FA41FCF0092A45DEE414C19BDC21783E4BD39D891265658C3D8DEA00A3ACE59CBC8678ACB54CB26EEB6BD7839D7E9348BE70AD9C8321B9BCA7F9A4A26C542347DE
310
E050F09802D22BA6749A800A394DD62899107273365E3C82CFC6A55557BC06C10774B7ABE7AEC3B0F34CF06446280E154026D0542C187BA9DAB6628BF7B6DBB0E5A65B3EB1F58631DE64BBE083F7B65CC218087E22CABB042E51D1F2268F1FE12B3EA24D40D63E9CFE00120194D60B9D5BC67FE6D39CDF37E20AF817881F50
310
4B0304140006080800B670623B29652116630500003C100000340000006662782F45374635344235342D363743322D343832342D383044432D4334454645303536354442422F6F626A656374732E786D6CAD575D739B3814FD2B0CFB0C989834C90EA1639B24E3E9A6EDD4D3CE3E64C623834CD8006224913AFDF57B040203
310
B65BEF871F0C12D2FD3CF7E8CA7FBFCB33E3957291B2E2D674ED8969D02262715A24B76625B7D6B569BC0F7CCE98EC2D338D82E4F4D654D366E0279C55A59E8AE99654991CCDDECFFF3444440B6A1A514684B83545F44C7362934AB2988A173B2692D8C97667BB76B3702836E1A47C1E092D09A78584A5982F20C5688C7287
310
C389E904BEA3BE07BEFAD7ABA6A75739B53F43FD69212429A20365233153D70BEF2E2E6FAC4BCF9B5ADEBB0BD79ADFCF43CBBD9A4E16EF168B9BD9DD0D140BC921495BC2E9D60C1E101B9E46BED37CEA2CD6861F3329624541A3DA7F7858DBAC25C6B4A4458C3CA654405BCFEBC970E8AAD8F43E4FD558ABEC4F9FE7557F47
310
4F506B7BFBEC5BCA367FC105710E2AB8A00A554D7CB4A30DFE26FBA86D18CBF4B75418399194A72433B274C3097F33032C554B027F2046A1932B842B0FCCC0DDCBEBDB8AD2F835768F59B9ADB24C41D30C6A64AF817F2A456D59FA83F2E3DA60137255A585BCD60EC9B7929AC18DEFD49381AF1ED30BFDB109A4B1CD488294
310
C3CDE6EBC8D185AABD6568061FEE37BB95AAC7E3CA4BCE4ACAA5820FA0D526AE7DAA2869B5EE5999531BE0CC20E6FBA07C41E43FA27CF7A6206F3CDD793B4F6B919C1462CB788EDCD893FA674CDA17AB7B3B7C019F8D561FAEE966FED562DFE98C1D12C6A9FC015C2A35D7FF3D7FC398F591DA4B5FE0BFA2C0189FEA50AE22
310
92817A1ED3020951A03432862970F976B33383259812CC8E5D240BBA801CBCF8CE2BBEE3BF910DB6AAD5F79E05123AE2DB33981FB1ACCB02B69D00CB014FD68AB573A7627EF9BFD4CC2C5C7D58557C4B22FAA88925A4DBB44825CECE3D78FB060D1231F0E885BE7D673C86A3874958F593906B5502D1563157814FDAC3420D
310
F69A070A22EC4B98E23CFF171A1E5311D12C23056555ABA53B8614563B92D17D02AAB009E8F46284624E5F53D5490C560CCCC2591FF1B45421EB0EBD8EA7ED13BE7C5D7E0428CD60FEF60779EB13E6664FF711CB185F6FDED60D139A001FF60CD1FD6D086F1D51474901E26B2CB794A343BC8ED3EDB612E0DD2351FCB65CF4
310
33D511C9E14B5B40ADC6A6263DB0336A8F700DDF56271A024E70B0B3629DE21847591E55DED73D56206AB927E46FAABC5C939C55853C274C93D69FD6FA4E78BF8B11DF898C9ECD60553FAD39283BA6F18984AA23E8884F83F45C5F5F859797B31B2B9C84A1E5B9DE9D35BFF25C6B76152E422F9C5DCC3D847F5801ED09D5AF
310
41441327A25FF15487F9EB725FB666F048A4701E9A827292E6F97569A32DF61DEC01C0BB8DCBBCCC684E0B49147C1FD54BF685A0AB18C868E6973949E819523E3DAC463660E68C7D9F55A9D1EFA3BD7A76A16AE1A810F95CE59B82A4D968A376DC2E8B44BBDD86B27B368CDE0ED548C7137DA860591A83706223A12CA712B4
310
7306DBF39C0A20A6DF95C7FAF670C6EED7A61F946493D1D6926782963813403548A78AE470DEF80D2D9CEAA26E4D1C76F60BFE74219A06527D6B82DF641A51616F703CAAC6A7160E08A00BEB4810A0274592A1B36E3675E36E978A0DE80727A0D6DF2D39A75BD27E0D8837276589537B40ABB56D5A41F48F1C6FCD3188C4EB
310
A6929D2FFB89CE995A4D00AE813BDD032DC48B56BD437DFDDC2DD7AED70C2272D63DE9A72068A45A92F0A4BE17A8A06B9366E16707AD80B1FC649459952097E74BB23805982B55E0401150A165964402AA8BDF9F3E7386BB686EDCA780C0D382E5392BF460A6EFB2C6EA1937D3F809B440D5F5435C4C5CF7A9EEFAF54564BD
310
2182DA24162F98680B4E7930C21A0079709CEAEB99A372305ABE0C0D7D6078105A83F6A0296DAEE1068A47DD1C55A9F4C9B2FC69E3EFD44B81028E963DF81B504B0304140006080000B670623B000000000000000000000000350000006662782F45374635344235342D363743322D343832342D383044432D433445464530
310
3536354442422F76657274696365732E62696E504B0304140006080800B670623BF270F1330600000004000000360000006662782F45374635344235342D363743322D343832342D383044432D4334454645303536354442422F747269616E676C65732E62696E636660600000504B0304140006080000B670623B00000000
310
0000000000000000370000006662782F45374635344235342D363743322D343832342D383044432D4334454645303536354442422F617474726962757465732E62696E504B0304140006080800B670623B08DA0BD19000000041010000360000006662782F45374635344235342D363743322D343832342D383044432D4334
310
454645303536354442422F6469726563746F72792E786D6C858F410AC3201045AF22B36F53E9A60B35CBEEBAE80D244E44489C6234F4F835464A48035D0DF398FF9F8AF63D0E6CC63039F212F8F9020C7D47C6792B21C5FE7403D62A1188E2E60C98D7234A5830286103A55745067B9D86B8A3CF9C7F90C11DE607FB144396
310
D7B6A82D282E9A152AD114D5EF2CB866EEE831B8EEA07A7BB5A8D7D61A2BAAEB7FD5F70921FF497D00504B0304140006080800B670623B6378F24DFF000000A00100003B0000006662782F45374635344235342D363743322D343832342D383044432D4334454645303536354442422F7265736F75726365732F636F72652E
310
786D6C8D504B6E833010BD0A9A6D65B0094E42641C85B639412F6099496225D8C89FAAC7AF09546A77DDCC8CDE47F3F4C4F16B7C149FE88371B603565228D06A37187BED20C50BD9437194C23B177FC9A0B06AC40E6618A4B87A97A615D2CE46B431A3D60DB8822A048C50E8473E3A08FA86A32A558A5911EEE5A4F45D5DB1
310
6465A6B34E8A107D0E502C4FE609D26370C96B0CA25A58295232C3AA3143FE692E063D485EF7F5AEE71BD2D2F39634AFFC44DAF7DD9E9CCE6F9CD25DCBFA762BAAD92C4534E34F46ED51451C40D694B6843142EB0FD61C283F34FC85EE0F948A6A96FF31A569F8A729191B37F51A77B105902C0779125254735F793DCBCC7B
310
EE567E03504B010214000A0000080000B670623B3DEE336E79000000790000001B00000000000000000000000000000000006175746F6465736B2D64657369676E2D7061636B6167652E786D6C504B01021400140006080800B670623BD486FD9CA0000000F40000001300000000000000000000000000B20000005B436F6E
310
74656E745F54797065735D2E786D6C504B01021400140006080800B670623BBC1638F5EC0000007C010000080000000000000000000000000083010000636F72652E786D6C504B01021400140006080800B670623B55019EA25F0000007C000000070000000000000000000000000095020000636E782E786D6C504B010214
310
00140006080800B670623B3586FFB671010000D40300000C00000000000000000000000000190300006662782F636F72652E786D6C504B01021400140006080800B670623B4220A0FF7D0000009D0000000B00000000000000000000000000B40400006662782F636E782E786D6C504B01021400140006080800B670623B2F
310
A3FEDE290100001202000031000000000000000000000000005A0500006662782F45374635344235342D363743322D343832342D383044432D4334454645303536354442422F636F72652E786D6C504B01021400140006080800B670623B1B8617914E010000330300003000000000000000000000000000D2060000666278
310
2F45374635344235342D363743322D343832342D383044432D4334454645303536354442422F636E782E786D6C504B01021400140006080800B670623B29652116630500003C10000034000000000000000000000000006E0800006662782F45374635344235342D363743322D343832342D383044432D4334454645303536
310
354442422F6F626A656374732E786D6C504B01021400140006080000B670623B0000000000000000000000003500000000000000000000000000230E00006662782F45374635344235342D363743322D343832342D383044432D4334454645303536354442422F76657274696365732E62696E504B01021400140006080800
310
B670623BF270F13306000000040000003600000000000000000000000000760E00006662782F45374635344235342D363743322D343832342D383044432D4334454645303536354442422F747269616E676C65732E62696E504B01021400140006080000B670623B0000000000000000000000003700000000000000000000
310
000000D00E00006662782F45374635344235342D363743322D343832342D383044432D4334454645303536354442422F617474726962757465732E62696E504B01021400140006080800B670623B08DA0BD190000000410100003600000000000000000000000000250F00006662782F45374635344235342D363743322D34
310
3832342D383044432D4334454645303536354442422F6469726563746F72792E786D6C504B01021400140006080800B670623B6378F24DFF000000A00100003B00000000000000000000000000091000006662782F45374635344235342D363743322D343832342D383044432D4334454645303536354442422F7265736F75
310
726365732F636F72652E786D6C504B0506000000000E000E0080040000611100000000
  0
XRECORD
  5
9F3
102
{ACAD_REACTORS
330
110
102
}
330
110
100
AcDbXrecord
280
     1
102
MATERIAL
148
0.0
149
0.0
149
0.0
 93
        0
 94
       63
282
     0
 72
     1
 77
     1
171
     1
175
     1
179
     1
273
     0
  0
XRECORD
  5
112
102
{ACAD_REACTORS
330
110
102
}
330
110
100
AcDbXrecord
280
     1
270
     1
271
     1
  0
XRECORD
  5
111
102
{ACAD_REACTORS
330
110
102
}
330
110
100
AcDbXrecord
280
     1
270
     1
271
     1
  0
XRECORD
  5
18A
102
{ACAD_REACTORS
330
110
102
}
330
110
100
AcDbXrecord
280
     1
 70
     0
 90
1778669749
  1
9BF507EE-FAF7-4A99-A33D-4EE51894BC40
310
504B03040A0000080000B670623B3DEE336E79000000790000001B0000006175746F6465736B2D64657369676E2D7061636B6167652E786D6C3C3F786D6C2076657273696F6E3D22312E302220656E636F64696E673D227574662D3822203F3E3C666F726D6174733E3C666F726D61743E687474703A2F2F736368656D612E
310
6175746F6465736B2E636F6D2F64657369676E2D7061636B6167652F323030393C2F666F726D61743E3C2F666F726D6174733E504B0304140006080800B670623BD486FD9CA0000000F4000000130000005B436F6E74656E745F54797065735D2E786D6C7D8EC10E82300C865F65E91D8A1E8C310C0EEA1BF002731658846E
310
D98AC1B77784ABF1D8FE5FBFBF75BBCE937A534CCEB38643598122B6FEE978D0B0485F9C41B54DDD7D022595594E1A469170414C76A4D9A4D207E29CF43ECE46F218070CC6BECC4078ACAA135ACF422C856C0E68EA1BF5669944DDD7BCDE7B1F8E415D77AECB980613C2E4AC91FC167A2B244592486606FC29C8FD7F045B9A
310
EF7053A7E60B504B0304140006080800B670623BCA089DFFEC0000007C01000008000000636F72652E786D6C8D90416E83301045AF62CDB632D8402020E32882F604BD80653BC44AB011B6AB1EBF262152BBEB6A467FFE9B197D76FA9EEFE84BAFDE38DB03CD08206DA553C64E3DC470C1474027CE56E7C22F1B202B66DDC3
310
260367D3EAE2B24BD2D9A06D48AA754AEFA2F05E0740F29E9A1EBCBCEA59642286E4F0B76C11F226269DD15797E0188D42CF2346A57DE662F40ABCAEC77628C6120F654571D50C04B7F5B9C1E3997CD4F550BE3745C3F20DE62C98F9755FAE5A04AD801784B498524C8A4F5A75E4D055873772EC0861F966FF03C545FD138A
310
C686B2D8DF7D621E384D8F3C069CE55B16A93C824A75CB8DFF00504B0304140006080800B670623B55019EA25F0000007C00000007000000636E782E786D6C4DCB3B0E80201045D1AD90E915ED2CF8AC45050C11660C8261F98AB1B07AC9C97D42D718D865D3E909258CFD00CCE24AC6E326A164D74DC0B4128928FF326038
310
472BA13128B1252AC747C6BAB984FC68F0B87FE8960A5C09FE86CFB69FBA01504B0304140006080800B670623B68FC0B7272010000D40300000C0000006662782F636F72652E786D6CC5535B6E833010BC8AE5DF0A6C1E8124328E22D29EA01770C0A128602363A31CBFCB234A53A555FA553EC09AD9F5CE8C31DB5DDA060D
310
D2F4B556190E7C8A9154852E6B5565D8D993B7C668C799D1DA7E29C3488956667884316795D1AE5BA0422B2B950554E9522EA0E87B69312A1A5864B82F3E642B7CE12C54F467BF13C55954D20F7CA0A18EB3DE1A1080E621E31BF3D3F1C2C88C73E65C5D2E6C5DC2B4FA544B8379921C36797888BC3C8A032F4E73EA6D927D
310
EA1DF6F42D49F2E8350D5346C666CE6CDD5ED515460A2B4BCC434A375E1078347C0FE22D5D6DE3D50B5D6F2965642CBF6B725DF96493AB958DC245EEDCD6631E809089F8E61622B2A81703E8219C913144F84C09DF070D8140C8561C9BAB8F3340832CAC363130A576376A108D933095FA747AD0CF0B46E64E983A6D0EAE1F
310
CE089F9EF1FB8E70D44255604258581E9D1D75B259C3125A278D37D80B52DAB4A279CEC62F0EFF44DDC43F9454E8469BFF5244960322CBEF41C6FBC83F01504B0304140006080800B670623B0F71DDB67E0000009D0000000B0000006662782F636E782E786D6C4DCCD10A83201886E15B91FFDCA54DB73F502386BB8F5816
310
32D3703976F9ABD1C18E3E78F87855FB990379BBFCF2296AE02706C4C5471A7C9C349475A408A4352AA7B4FEDD80C47E761A7606A3A69CCA72D0E0C6BE8475D3E0E3F3409428EA6B27A84079A782899AA2EC1A7AE3ECCC2FD858CB2D544655BFD2B67BD87C01504B0304140006080800B670623BE134B4FB28010000120200
310
00310000006662782F38353834323741342D343835462D343034322D383541392D4331303331363839454531452F636F72652E786D6C8D515B6EC32010BC0AE22B55850D0EA424C24451959EA0172086A42831583CAA1CBF503B52FB971F16CDCECC0EACD8DFC71BF836215AEF7A481A0C817183D7D65D7A98D3197108F652
310
04EFD31F1A044E8DA6871586525C82CFD3020DDE25E352419DD76601558C264130DCCAA58771F832A36A544E8511AFCDA486ABBA988634A55D7852C4144A00300FA927949C71DABD1D28A29C7D208A6987383B6CD13BC16BB2E1DBE3911C453B0BA5C8D9EA456E758963CFD684674DAA588A64C747FC2118958C86B2C3788B
310
0841B8FB247487D98EB257CC77188BB6D2FF89F2A49F1465EBD2BA5BE2CEB2082511EDDC9042FB7CBA3DC298FBE4430275DE2A9AE1054ADC60CC08E3A29D89E5F9C5714317C7987C28DFBBBA9E0A97B0D97643A568EB864AF95D5FA9759BF207504B0304140006080800B670623B1B8617914E010000330300003000000066
310
62782F38353834323741342D343835462D343034322D383541392D4331303331363839454531452F636E782E786D6CD593C16EC32010447F0571AD6CE3D489D20813A9877E410FBD62D82434182CC055F3F75D1292E692438FBD206B7698593D61BEFD1E2DF982108D773D6D6B460938E5B571FB9ECE6957AD29D90A1EBC4F
310
77364A9C1CA1A759A682EF839FA72269D8C9D92654AD71C72206887E0E0A22CAF926B15E498B01E0AA19451807D01A34B919F16B070157417138917400F2F6FA41FCF0092A45DEE414C19BDC21783E4BD39D891265658C3D8DEA00A3ACE59CBC8678ACB54CB26EEB6BD7839D7E9348BE70AD9C8321B9BCA7F9A4A26C542347
310
DEE050F09802D22BA6749A800A394DD62899107273365E3C82CFC6A55557BC06C10774B7ABE7AEC3B0F34CF06446280E154026D0542C187BA9DAB6628BF7B6DBB0E5A65B3EB1F58631DE64BBE083F7B65CC218087E22CABB042E51D1F2268F1FE12B3EA24D40D63E9CFE00120194D60B9D5BC67FE6D39CDF37E20AF817881F
310
504B0304140006080800B670623B5933D422630500003B100000340000006662782F38353834323741342D343835462D343034322D383541392D4331303331363839454531452F6F626A656374732E786D6CAD575B6FA33814FE2B887D0642934E9B156594264D158D3A534DD4D13E548A0C38942D60649B4EBABF7E3F8321
310
40924EF6928780CDF1B97EE762EFF32E4B8D37CA45C2F21BD3B547A641F39045491EDF98A5DC5AD7A6F1D9F73863B243661A39C9E88DA9B64DDF8B392B0BBD15D12D295339D85DDEFE618890E6D434C2940871638AF08566C426A5641115AF764424B1E3EDCE76ED9AB0CF36E6A47819302D08A7B984A6D8CFC1C5A89572FB
310
CB91E9F89EA3BEFB9EFAD754E3D3544E654F5F7E920B49F2F040D880CDD89D2CEE2E2EA7D6E56432B6269F2E5CEB7679BBB0DCABF168FE693E9FCEEEA6102C240727AD09A75BD3BF876F78127A4EFDA9D5582B7E4CA590E5390D2BFB6161A5B3E618D182E611E2985001691DAB47FDA5AB7CD3F93C566B2DB2BB7D9E55DD13
310
1D468DEECDB3AB290BFE8409E21C54704115AA6AFF68436BFC8DF65E0B184BF5B74418199194272435D224E084BF9B3E481589EFF5D828747285706581E9BB7B7E5D5D911ABFC6EE312DB7659A2A689A7E85EC0DF04FA5A8344BFEA2FCB834E8845895492EAFB541F2BDA0A63FF59C6AD3F7D4637CA13FD68E34B629891172
310
98597F1D183A57B9B75A98FE9765B05BAB7C3C2EBCE0ACA05C2AF8005A4DE09AA7F29216EB9E15397500C6F47CBE77CA7778FE2BD277AF0AE2C693DD6437D1522427B9D8329E2136F6A8FA19A3E6C56ADF0E5F50CF06D48734EDCEBF22F69C56D97EC138153F804B85E6FABFC7AFEFB32E523BE1F3BD372418E363EDCA7548
310
52949E8724474014288D94610BB57C1BEC4C7F854A89CA8E5324F55B871CBC78CE1BBEE3BFE68D6A5589EF3C730474506FCFA8FCF0659516D0ED04580EEA6425581B77CAE797FF4BCECC16EB2FEB926F49481F746159D06D922712BD730FDEAE42BD40F42C7AA5EF3F198F60E86110D6DD20645A9480B795CF95E3E3A659A8
310
C55E724F408873315335CFFB8584874484344D494E59D94869DB90C26A5B64F49C802CAC1D3ABE18A098D3B7444D123D8A9E5AE8F5214F0AE5B2B6E9B575DA3E61CBD3EA2B4009FA940524DD1305FB6A1FB294F14DF0BEA90BA109ECE1481FDC3FFAE8D60E75141700BE82725371B4873751B2DD960265F788137FACE6DD40
310
B575E4F0A5C99F46629D92131467A41EE11ABD8D4CCC039CA0AFB37C93A08B232B8F0AEFCA1E0A1015DF13FC83322B362463652ECF71D3A8B1A7D1BE65DE1D62C44F22C317D35F574FEB16153BA2D13E543D10A80E74C4A65E78A6B7CBCBD1D5DD9DB59C2DAFACC96C3AB566E3F1C29ADCDD5DBAD7D3C9ED7C822ED74F80A6
310
41755310DE4443F44A9E68373FADF6596BFA0F440AE7BECE2727AE9F4F2B1B53B1E7E00CF0DD1E5C65454A339A4BA2D0FBA05ED2EF0443458F47BDBFCA484CCFE0F2ED7E3DD0013B679C7B5499467F0ECEEADDB9CA85A34CE44B99053949D2C1416DB85DE4B136BB7165FBAC0B7AB3542BED4F8CA182A549847A1319316519
310
95A83A67147B9E5101C47487F2485F1ECE38FD568F839204296D3479219888530154036E6528FBFBC66F98E0D4107563A2D7D9AFF8D389681A08F58D89F22693900A3B407754734FC51C10C010D6D640809EE4718AC1BA3ED4AEDB53CA37283F68805A7E4B72CEB0A4EDEAD5DD8C14059A76AFAA56BA6901E13F32BC51C720
310
12AF41295B5BF61BAD3195181FB506E6B40F4C10AF5AF40EF9F5B159AE5DD1F43C72D635E94310D45C2D49785C5D0B94D3B54AB3C5A38349C0587D338AB48C11CBF339599C02CCA54A70A008A8D03C0B2201D5F9EFCF8F9CE12A9A19CB0410789EB32C63B95ECCF455D658BFE0621A3DA32C5075FB101723D77DAE867E7D0F
310
D90444509B44E2151B4DC2290B065803200FBAA9BE9D392A0603F2D5C2D00D6302A615680F66D2FA166E2079D4C551A54AB758161FCEFD4E450A14704CECFEDF504B0304140006080000B670623B000000000000000000000000350000006662782F38353834323741342D343835462D343034322D383541392D4331303331
310
363839454531452F76657274696365732E62696E504B0304140006080800B670623BF270F1330600000004000000360000006662782F38353834323741342D343835462D343034322D383541392D4331303331363839454531452F747269616E676C65732E62696E636660600000504B0304140006080000B670623B000000
310
000000000000000000370000006662782F38353834323741342D343835462D343034322D383541392D4331303331363839454531452F617474726962757465732E62696E504B0304140006080800B670623B08DA0BD19000000041010000360000006662782F38353834323741342D343835462D343034322D383541392D43
310
31303331363839454531452F6469726563746F72792E786D6C858F410AC3201045AF22B36F53E9A60B35CBEEBAE80D244E44489C6234F4F835464A48035D0DF398FF9F8AF63D0E6CC63039F212F8F9020C7D47C6792B21C5FE7403D62A1188E2E60C98D7234A5830286103A55745067B9D86B8A3CF9C7F90C11DE607FB1443
310
96D7B6A82D282E9A152AD114D5EF2CB866EEE831B8EEA07A7BB5A8D7D61A2BAAEB7FD5F70921FF497D00504B0304140006080800B670623BD9A3B367FE000000A00100003B0000006662782F38353834323741342D343835462D343034322D383541392D4331303331363839454531452F7265736F75726365732F636F7265
310
2E786D6C8D504B6E833010BD0A9A6D65B01D0201194711694FD00B586642AD043BF2A7EAF16B122AB5BB6E6646EFA3797AE2F8B5DC8A4FF4C1383B002B291468B59B8C9D0748F1420E501CA5F0CEC55F3228AC5A708015062966EFD27D83B4B3116DCCA875136EA00A012314FA968F0182FEC045952AC5AC08D7F2AEF455CD
310
58B232D3592745883E07289E4FD609D26370C96B0CA27AB252A464A64D63A6FCD35C0C7A904D73EE467EE664DCD58CD4ED4849D79C5A723ED1B7A61977AF2D6F45B59AA58866F9C9A83DAA8813484E6947182394BFB3BAA7FBBEDEBFD0434FA9A856F91F53BA4FFF342563E38E6F719FB60092E5200F428A6AED2BAF479979
310
AFDDCA6F504B010214000A0000080000B670623B3DEE336E79000000790000001B00000000000000000000000000000000006175746F6465736B2D64657369676E2D7061636B6167652E786D6C504B01021400140006080800B670623BD486FD9CA0000000F40000001300000000000000000000000000B20000005B436F6E
310
74656E745F54797065735D2E786D6C504B01021400140006080800B670623BCA089DFFEC0000007C010000080000000000000000000000000083010000636F72652E786D6C504B01021400140006080800B670623B55019EA25F0000007C000000070000000000000000000000000095020000636E782E786D6C504B010214
310
00140006080800B670623B68FC0B7272010000D40300000C00000000000000000000000000190300006662782F636F72652E786D6C504B01021400140006080800B670623B0F71DDB67E0000009D0000000B00000000000000000000000000B50400006662782F636E782E786D6C504B01021400140006080800B670623BE1
310
34B4FB280100001202000031000000000000000000000000005C0500006662782F38353834323741342D343835462D343034322D383541392D4331303331363839454531452F636F72652E786D6C504B01021400140006080800B670623B1B8617914E010000330300003000000000000000000000000000D3060000666278
310
2F38353834323741342D343835462D343034322D383541392D4331303331363839454531452F636E782E786D6C504B01021400140006080800B670623B5933D422630500003B10000034000000000000000000000000006F0800006662782F38353834323741342D343835462D343034322D383541392D4331303331363839
310
454531452F6F626A656374732E786D6C504B01021400140006080000B670623B0000000000000000000000003500000000000000000000000000240E00006662782F38353834323741342D343835462D343034322D383541392D4331303331363839454531452F76657274696365732E62696E504B01021400140006080800
310
B670623BF270F13306000000040000003600000000000000000000000000770E00006662782F38353834323741342D343835462D343034322D383541392D4331303331363839454531452F747269616E676C65732E62696E504B01021400140006080000B670623B0000000000000000000000003700000000000000000000
310
000000D10E00006662782F38353834323741342D343835462D343034322D383541392D4331303331363839454531452F617474726962757465732E62696E504B01021400140006080800B670623B08DA0BD190000000410100003600000000000000000000000000260F00006662782F38353834323741342D343835462D34
310
3034322D383541392D4331303331363839454531452F6469726563746F72792E786D6C504B01021400140006080800B670623BD9A3B367FE000000A00100003B000000000000000000000000000A1000006662782F38353834323741342D343835462D343034322D383541392D4331303331363839454531452F7265736F75
310
726365732F636F72652E786D6C504B0506000000000E000E0080040000611100000000
  0
XRECORD
  5
113
102
{ACAD_REACTORS
330
110
102
}
330
110
100
AcDbXrecord
280
     1
270
     1
271
     1
  0
XRECORD
  5
114
102
{ACAD_REACTORS
330
110
102
}
330
110
100
AcDbXrecord
280
     1
270
     1
271
     1
  0
XRECORD
  5
A24
102
{ACAD_REACTORS
330
1C4
102
}
330
1C4
100
AcDbXrecord
280
     1
102
DISPLAYNAME
  1
Imperial24
102
FLAGS
 90
        0
  0
CELLSTYLEMAP
  5
9E6
102
{ACAD_REACTORS
330
104
102
}
330
104
100
AcDbCellStyleMap
 90
        3
300
CELLSTYLE
  1
TABLEFORMAT_BEGIN
 90
        5
170
     1
 91
        0
 92
    32768
 62
   257
 93
        1
300
CONTENTFORMAT
  1
CONTENTFORMAT_BEGIN
 90
        0
 91
        0
 92
      512
 93
        0
300

 40
0.0
140
1.0
 94
        5
 62
     0
340
11
144
0.25
309
CONTENTFORMAT_END
171
     1
301
MARGIN
  1
CELLMARGIN_BEGIN
 40
0.06
 40
0.06
 40
0.06
 40
0.06
 40
0.18
 40
0.18
309
CELLMARGIN_END
 94
        6
 95
        1
302
GRIDFORMAT
  1
GRIDFORMAT_BEGIN
 90
        0
 91
        1
 62
     0
 92
       -2
340
0
 93
        0
 40
0.045
309
GRIDFORMAT_END
 95
        2
302
GRIDFORMAT
  1
GRIDFORMAT_BEGIN
 90
        0
 91
        1
 62
     0
 92
       -2
340
0
 93
        0
 40
0.045
309
GRIDFORMAT_END
 95
        4
302
GRIDFORMAT
  1
GRIDFORMAT_BEGIN
 90
        0
 91
        1
 62
     0
 92
       -2
340
0
 93
        0
 40
0.045
309
GRIDFORMAT_END
 95
        8
302
GRIDFORMAT
  1
GRIDFORMAT_BEGIN
 90
        0
 91
        1
 62
     0
 92
       -2
340
0
 93
        0
 40
0.045
309
GRIDFORMAT_END
 95
       16
302
GRIDFORMAT
  1
GRIDFORMAT_BEGIN
 90
        0
 91
        1
 62
     0
 92
       -2
340
0
 93
        0
 40
0.045
309
GRIDFORMAT_END
 95
       32
302
GRIDFORMAT
  1
GRIDFORMAT_BEGIN
 90
        0
 91
        1
 62
     0
 92
       -2
340
0
 93
        0
 40
0.045
309
GRIDFORMAT_END
309
TABLEFORMAT_END
  1
CELLSTYLE_BEGIN
 90
        1
 91
        1
300
_TITLE
309
CELLSTYLE_END
300
CELLSTYLE
  1
TABLEFORMAT_BEGIN
 90
        5
170
     1
 91
        0
 92
        0
 62
   257
 93
        1
300
CONTENTFORMAT
  1
CONTENTFORMAT_BEGIN
 90
        0
 91
        0
 92
      512
 93
        0
300

 40
0.0
140
1.0
 94
        5
 62
     0
340
11
144
0.18
309
CONTENTFORMAT_END
171
     1
301
MARGIN
  1
CELLMARGIN_BEGIN
 40
0.06
 40
0.06
 40
0.06
 40
0.06
 40
0.18
 40
0.18
309
CELLMARGIN_END
 94
        6
 95
        1
302
GRIDFORMAT
  1
GRIDFORMAT_BEGIN
 90
        0
 91
        1
 62
     0
 92
       -2
340
0
 93
        0
 40
0.045
309
GRIDFORMAT_END
 95
        2
302
GRIDFORMAT
  1
GRIDFORMAT_BEGIN
 90
        0
 91
        1
 62
     0
 92
       -2
340
0
 93
        0
 40
0.045
309
GRIDFORMAT_END
 95
        4
302
GRIDFORMAT
  1
GRIDFORMAT_BEGIN
 90
        0
 91
        1
 62
     0
 92
       -2
340
0
 93
        0
 40
0.045
309
GRIDFORMAT_END
 95
        8
302
GRIDFORMAT
  1
GRIDFORMAT_BEGIN
 90
        0
 91
        1
 62
     0
 92
       -2
340
0
 93
        0
 40
0.045
309
GRIDFORMAT_END
 95
       16
302
GRIDFORMAT
  1
GRIDFORMAT_BEGIN
 90
        0
 91
        1
 62
     0
 92
       -2
340
0
 93
        0
 40
0.045
309
GRIDFORMAT_END
 95
       32
302
GRIDFORMAT
  1
GRIDFORMAT_BEGIN
 90
        0
 91
        1
 62
     0
 92
       -2
340
0
 93
        0
 40
0.045
309
GRIDFORMAT_END
309
TABLEFORMAT_END
  1
CELLSTYLE_BEGIN
 90
        2
 91
        1
300
_HEADER
309
CELLSTYLE_END
300
CELLSTYLE
  1
TABLEFORMAT_BEGIN
 90
        5
170
     1
 91
        0
 92
        0
 62
   257
 93
        1
300
CONTENTFORMAT
  1
CONTENTFORMAT_BEGIN
 90
        0
 91
        0
 92
      512
 93
        0
300

 40
0.0
140
1.0
 94
        2
 62
     0
340
11
144
0.18
309
CONTENTFORMAT_END
171
     1
301
MARGIN
  1
CELLMARGIN_BEGIN
 40
0.06
 40
0.06
 40
0.06
 40
0.06
 40
0.18
 40
0.18
309
CELLMARGIN_END
 94
        6
 95
        1
302
GRIDFORMAT
  1
GRIDFORMAT_BEGIN
 90
        0
 91
        1
 62
     0
 92
       -2
340
0
 93
        0
 40
0.045
309
GRIDFORMAT_END
 95
        2
302
GRIDFORMAT
  1
GRIDFORMAT_BEGIN
 90
        0
 91
        1
 62
     0
 92
       -2
340
0
 93
        0
 40
0.045
309
GRIDFORMAT_END
 95
        4
302
GRIDFORMAT
  1
GRIDFORMAT_BEGIN
 90
        0
 91
        1
 62
     0
 92
       -2
340
0
 93
        0
 40
0.045
309
GRIDFORMAT_END
 95
        8
302
GRIDFORMAT
  1
GRIDFORMAT_BEGIN
 90
        0
 91
        1
 62
     0
 92
       -2
340
0
 93
        0
 40
0.045
309
GRIDFORMAT_END
 95
       16
302
GRIDFORMAT
  1
GRIDFORMAT_BEGIN
 90
        0
 91
        1
 62
     0
 92
       -2
340
0
 93
        0
 40
0.045
309
GRIDFORMAT_END
 95
       32
302
GRIDFORMAT
  1
GRIDFORMAT_BEGIN
 90
        0
 91
        1
 62
     0
 92
       -2
340
0
 93
        0
 40
0.045
309
GRIDFORMAT_END
309
TABLEFORMAT_END
  1
CELLSTYLE_BEGIN
 90
        3
 91
        2
300
_DATA
309
CELLSTYLE_END
  0
XRECORD
  5
9F0
102
{ACAD_REACTORS
330
104
102
}
330
104
100
AcDbXrecord
280
     1
102
ACAD_ROUNDTRIP_PRE2007_TABLESTYLE
 90
      512
 91
        0
  1

 92
      512
 93
        0
  2

 94
      512
 95
        0
  3

  0
XRECORD
  5
9FF
102
{ACAD_REACTORS
330
9FE
102
}
330
9FE
100
AcDbXrecord
280
     1
102
RTVSPost2010Prop28
280
     1
102
RTVSPost2010PropOp28
 70
     1
102
RTVSPost2010Prop29
280
     1
102
RTVSPost2010PropOp29
 70
     1
102
RTVSPost2010Prop30
280
     0
102
RTVSPost2010PropOp30
 70
     1
102
RTVSPost2010Prop31
280
     0
102
RTVSPost2010PropOp31
 70
     1
102
RTVSPost2010Prop32
280
     0
102
RTVSPost2010PropOp32
 70
     1
102
RTVSPost2010Prop33
280
     0
102
RTVSPost2010PropOp33
 70
     1
102
RTVSPost2010Prop34
280
     0
102
RTVSPost2010PropOp34
 70
     1
102
RTVSPost2010Prop35
280
     0
102
RTVSPost2010PropOp35
 70
     1
102
RTVSPost2010Prop36
280
     0
102
RTVSPost2010PropOp36
 70
     1
102
RTVSPost2010Prop37
 90
       50
102
RTVSPost2010PropOp37
 70
     1
102
RTVSPost2010Prop38
140
0.0
102
RTVSPost2010PropOp38
 70
     1
102
RTVSPost2010Prop39
140
1.0
102
RTVSPost2010PropOp39
 70
     1
102
RTVSPost2010Prop40
 90
        0
102
RTVSPost2010PropOp40
 70
     1
102
RTVSPost2010Prop41ColorIndex
 90
       18
102
RTVSPost2010Prop41ColorRGB
 90
        0
102
RTVSPost2010PropOp41
 70
     1
102
RTVSPost2010Prop42
 90
       50
102
RTVSPost2010PropOp42
 70
     1
102
RTVSPost2010Prop43
 90
        3
102
RTVSPost2010PropOp43
 70
     1
102
RTVSPost2010Prop44ColorIndex
 90
        5
102
RTVSPost2010Prop44ColorRGB
 90
      255
102
RTVSPost2010PropOp44
 70
     1
102
RTVSPost2010Prop45
280
     0
102
RTVSPost2010PropOp45
 70
     1
102
RTVSPost2010Prop46
 90
       50
102
RTVSPost2010PropOp46
 70
     1
102
RTVSPost2010Prop47
 90
       50
102
RTVSPost2010PropOp47
 70
     1
102
RTVSPost2010Prop48
 90
       50
102
RTVSPost2010PropOp48
 70
     1
102
RTVSPost2010Prop49
280
     0
102
RTVSPost2010PropOp49
 70
     1
102
RTVSPost2010Prop50
 90
       50
102
RTVSPost2010PropOp50
 70
     1
102
RTVSPost2010Prop51ColorIndex
 90
      256
102
RTVSPost2010Prop51ColorRGB
 90
-16777216
102
RTVSPost2010PropOp51
 70
     0
102
RTVSPost2010Prop52
140
1.0
102
RTVSPost2010PropOp52
 70
     0
102
RTVSPost2010Prop53
 90
        2
102
RTVSPost2010PropOp53
 70
     1
102
RTVSPost2010Prop54
  1
strokes_ogs.tif
102
RTVSPost2010PropOp54
 70
     1
102
RTVSPost2010Prop55
280
     0
102
RTVSPost2010PropOp55
 70
     1
102
RTVSPost2010Prop56
140
1.0
102
RTVSPost2010PropOp56
 70
     1
102
RTVSPost2010Prop57
140
1.0
102
RTVSPost2010PropOp57
 70
     1
102
RTVSPropertyOp0
 70
     1
102
RTVSPropertyOp1
 70
     1
102
RTVSPropertyOp2
 70
     1
102
RTVSPropertyOp3
 70
     1
102
RTVSPropertyOp4
 70
     1
102
RTVSPropertyOp5
 70
     1
102
RTVSPropertyOp6
 70
     1
102
RTVSPropertyOp7
 70
     1
102
RTVSPropertyOp8
 70
     1
102
RTVSPropertyOp9
 70
     1
102
RTVSPropertyOp10
 70
     1
102
RTVSPropertyOp11
 70
     1
102
RTVSPropertyOp12
 70
     1
102
RTVSPropertyOp13
 70
     1
102
RTVSPropertyOp14
 70
     1
102
RTVSPropertyOp15
 70
     1
102
RTVSPropertyOp16
 70
     1
102
RTVSPropertyOp17
 70
     1
102
RTVSPropertyOp18
 70
     1
102
RTVSPropertyOp19
 70
     1
102
RTVSPropertyOp20
 70
     1
102
RTVSPropertyOp21
 70
     1
102
RTVSPropertyOp22
 70
     1
102
RTVSPropertyOp23
 70
     1
102
RTVSPropertyOp24
 70
     1
102
RTVSPropertyOp25
 70
     1
102
RTVSPropertyOp26
 70
     1
102
RTVSPropertyOp27
 70
     1
102
RTVSPropertyOp28
 70
     1
102
RTVSPropertyOp29
 70
     1
102
RTVSPropertyOp30
 70
     1
102
RTVSPropertyOp31
 70
     1
102
RTVSPropertyOp32
 70
     1
102
RTVSPropertyOp33
 70
     1
102
RTVSPropertyOp34
 70
     1
102
RTVSPropertyOp35
 70
     1
102
RTVSPropertyOp36
 70
     1
102
RTVSPropertyOp37
 70
     1
102
RTVSPropertyOp38
 70
     1
102
RTVSPropertyOp39
 70
     1
102
RTVSPropertyOp40
 70
     1
102
RTVSPropertyOp41
 70
     1
102
RTVSPropertyOp42
 70
     1
102
RTVSPropertyOp43
 70
     1
102
RTVSPropertyOp44
 70
     1
102
RTVSPropertyOp45
 70
     1
102
RTVSPropertyOp46
 70
     1
102
RTVSPropertyOp47
 70
     1
102
RTVSPropertyOp48
 70
     1
102
RTVSPropertyOp49
 70
     1
102
RTVSPropertyOp50
 70
     1
102
RTVSPropertyOp51
 70
     0
102
RTVSPropertyOp52
 70
     0
102
RTVSPropertyOp53
 70
     1
102
RTVSPropertyOp54
 70
     1
102
RTVSPropertyOp55
 70
     1
102
RTVSPropertyOp56
 70
     1
102
RTVSPropertyOp57
 70
     1
102
RTVSPropertyOp58
 70
     1
102
RTVSPropertyOp59
 70
     1
102
RTVSPropertyOp60
 70
     1
102
RTVSPropertyOp61
 70
     1
102
RTVSPropertyOp62
 70
     1
  0
XRECORD
  5
9FD
102
{ACAD_REACTORS
330
9FC
102
}
330
9FC
100
AcDbXrecord
280
     1
102
RTVSPost2010Prop28
280
     0
102
RTVSPost2010PropOp28
 70
     1
102
RTVSPost2010Prop29
280
     1
102
RTVSPost2010PropOp29
 70
     1
102
RTVSPost2010Prop30
280
     1
102
RTVSPost2010PropOp30
 70
     1
102
RTVSPost2010Prop31
280
     0
102
RTVSPost2010PropOp31
 70
     1
102
RTVSPost2010Prop32
280
     0
102
RTVSPost2010PropOp32
 70
     1
102
RTVSPost2010Prop33
280
     0
102
RTVSPost2010PropOp33
 70
     1
102
RTVSPost2010Prop34
280
     0
102
RTVSPost2010PropOp34
 70
     1
102
RTVSPost2010Prop35
280
     0
102
RTVSPost2010PropOp35
 70
     1
102
RTVSPost2010Prop36
280
     0
102
RTVSPost2010PropOp36
 70
     1
102
RTVSPost2010Prop37
 90
       50
102
RTVSPost2010PropOp37
 70
     1
102
RTVSPost2010Prop38
140
0.0
102
RTVSPost2010PropOp38
 70
     1
102
RTVSPost2010Prop39
140
1.0
102
RTVSPost2010PropOp39
 70
     1
102
RTVSPost2010Prop40
 90
        0
102
RTVSPost2010PropOp40
 70
     1
102
RTVSPost2010Prop41ColorIndex
 90
       18
102
RTVSPost2010Prop41ColorRGB
 90
        0
102
RTVSPost2010PropOp41
 70
     1
102
RTVSPost2010Prop42
 90
       50
102
RTVSPost2010PropOp42
 70
     1
102
RTVSPost2010Prop43
 90
        3
102
RTVSPost2010PropOp43
 70
     1
102
RTVSPost2010Prop44ColorIndex
 90
        5
102
RTVSPost2010Prop44ColorRGB
 90
      255
102
RTVSPost2010PropOp44
 70
     1
102
RTVSPost2010Prop45
280
     0
102
RTVSPost2010PropOp45
 70
     1
102
RTVSPost2010Prop46
 90
       50
102
RTVSPost2010PropOp46
 70
     1
102
RTVSPost2010Prop47
 90
       50
102
RTVSPost2010PropOp47
 70
     1
102
RTVSPost2010Prop48
 90
       50
102
RTVSPost2010PropOp48
 70
     1
102
RTVSPost2010Prop49
280
     0
102
RTVSPost2010PropOp49
 70
     1
102
RTVSPost2010Prop50
 90
       50
102
RTVSPost2010PropOp50
 70
     1
102
RTVSPost2010Prop51ColorIndex
 90
      256
102
RTVSPost2010Prop51ColorRGB
 90
-16777216
102
RTVSPost2010PropOp51
 70
     0
102
RTVSPost2010Prop52
140
1.0
102
RTVSPost2010PropOp52
 70
     0
102
RTVSPost2010Prop53
 90
        2
102
RTVSPost2010PropOp53
 70
     1
102
RTVSPost2010Prop54
  1
strokes_ogs.tif
102
RTVSPost2010PropOp54
 70
     1
102
RTVSPost2010Prop55
280
     0
102
RTVSPost2010PropOp55
 70
     1
102
RTVSPost2010Prop56
140
1.0
102
RTVSPost2010PropOp56
 70
     1
102
RTVSPost2010Prop57
140
1.0
102
RTVSPost2010PropOp57
 70
     1
102
RTVSPropertyOp0
 70
     1
102
RTVSPropertyOp1
 70
     1
102
RTVSPropertyOp2
 70
     1
102
RTVSPropertyOp3
 70
     1
102
RTVSPropertyOp4
 70
     1
102
RTVSPropertyOp5
 70
     1
102
RTVSPropertyOp6
 70
     1
102
RTVSPropertyOp7
 70
     1
102
RTVSPropertyOp8
 70
     1
102
RTVSPropertyOp9
 70
     1
102
RTVSPropertyOp10
 70
     1
102
RTVSPropertyOp11
 70
     1
102
RTVSPropertyOp12
 70
     1
102
RTVSPropertyOp13
 70
     1
102
RTVSPropertyOp14
 70
     1
102
RTVSPropertyOp15
 70
     1
102
RTVSPropertyOp16
 70
     1
102
RTVSPropertyOp17
 70
     1
102
RTVSPropertyOp18
 70
     1
102
RTVSPropertyOp19
 70
     1
102
RTVSPropertyOp20
 70
     1
102
RTVSPropertyOp21
 70
     1
102
RTVSPropertyOp22
 70
     1
102
RTVSPropertyOp23
 70
     1
102
RTVSPropertyOp24
 70
     1
102
RTVSPropertyOp25
 70
     1
102
RTVSPropertyOp26
 70
     1
102
RTVSPropertyOp27
 70
     1
102
RTVSPropertyOp28
 70
     1
102
RTVSPropertyOp29
 70
     1
102
RTVSPropertyOp30
 70
     1
102
RTVSPropertyOp31
 70
     1
102
RTVSPropertyOp32
 70
     1
102
RTVSPropertyOp33
 70
     1
102
RTVSPropertyOp34
 70
     1
102
RTVSPropertyOp35
 70
     1
102
RTVSPropertyOp36
 70
     1
102
RTVSPropertyOp37
 70
     1
102
RTVSPropertyOp38
 70
     1
102
RTVSPropertyOp39
 70
     1
102
RTVSPropertyOp40
 70
     1
102
RTVSPropertyOp41
 70
     1
102
RTVSPropertyOp42
 70
     1
102
RTVSPropertyOp43
 70
     1
102
RTVSPropertyOp44
 70
     1
102
RTVSPropertyOp45
 70
     1
102
RTVSPropertyOp46
 70
     1
102
RTVSPropertyOp47
 70
     1
102
RTVSPropertyOp48
 70
     1
102
RTVSPropertyOp49
 70
     1
102
RTVSPropertyOp50
 70
     1
102
RTVSPropertyOp51
 70
     0
102
RTVSPropertyOp52
 70
     0
102
RTVSPropertyOp53
 70
     1
102
RTVSPropertyOp54
 70
     1
102
RTVSPropertyOp55
 70
     1
102
RTVSPropertyOp56
 70
     1
102
RTVSPropertyOp57
 70
     1
102
RTVSPropertyOp58
 70
     1
102
RTVSPropertyOp59
 70
     1
102
RTVSPropertyOp60
 70
     1
102
RTVSPropertyOp61
 70
     1
102
RTVSPropertyOp62
 70
     1
  0
XRECORD
  5
A0B
102
{ACAD_REACTORS
330
A0A
102
}
330
A0A
100
AcDbXrecord
280
     1
102
RTVSPost2010Prop28
280
     0
102
RTVSPost2010PropOp28
 70
     1
102
RTVSPost2010Prop29
280
     1
102
RTVSPost2010PropOp29
 70
     1
102
RTVSPost2010Prop30
280
     1
102
RTVSPost2010PropOp30
 70
     1
102
RTVSPost2010Prop31
280
     0
102
RTVSPost2010PropOp31
 70
     1
102
RTVSPost2010Prop32
280
     0
102
RTVSPost2010PropOp32
 70
     1
102
RTVSPost2010Prop33
280
     0
102
RTVSPost2010PropOp33
 70
     1
102
RTVSPost2010Prop34
280
     0
102
RTVSPost2010PropOp34
 70
     1
102
RTVSPost2010Prop35
280
     0
102
RTVSPost2010PropOp35
 70
     1
102
RTVSPost2010Prop36
280
     0
102
RTVSPost2010PropOp36
 70
     1
102
RTVSPost2010Prop37
 90
       50
102
RTVSPost2010PropOp37
 70
     1
102
RTVSPost2010Prop38
140
0.0
102
RTVSPost2010PropOp38
 70
     1
102
RTVSPost2010Prop39
140
1.0
102
RTVSPost2010PropOp39
 70
     1
102
RTVSPost2010Prop40
 90
        0
102
RTVSPost2010PropOp40
 70
     1
102
RTVSPost2010Prop41ColorIndex
 90
       18
102
RTVSPost2010Prop41ColorRGB
 90
        0
102
RTVSPost2010PropOp41
 70
     1
102
RTVSPost2010Prop42
 90
       50
102
RTVSPost2010PropOp42
 70
     1
102
RTVSPost2010Prop43
 90
        3
102
RTVSPost2010PropOp43
 70
     1
102
RTVSPost2010Prop44ColorIndex
 90
        5
102
RTVSPost2010Prop44ColorRGB
 90
      255
102
RTVSPost2010PropOp44
 70
     1
102
RTVSPost2010Prop45
280
     0
102
RTVSPost2010PropOp45
 70
     1
102
RTVSPost2010Prop46
 90
       50
102
RTVSPost2010PropOp46
 70
     1
102
RTVSPost2010Prop47
 90
       50
102
RTVSPost2010PropOp47
 70
     1
102
RTVSPost2010Prop48
 90
       50
102
RTVSPost2010PropOp48
 70
     1
102
RTVSPost2010Prop49
280
     0
102
RTVSPost2010PropOp49
 70
     1
102
RTVSPost2010Prop50
 90
       50
102
RTVSPost2010PropOp50
 70
     1
102
RTVSPost2010Prop51ColorIndex
 90
      256
102
RTVSPost2010Prop51ColorRGB
 90
-16777216
102
RTVSPost2010PropOp51
 70
     0
102
RTVSPost2010Prop52
140
1.0
102
RTVSPost2010PropOp52
 70
     0
102
RTVSPost2010Prop53
 90
        2
102
RTVSPost2010PropOp53
 70
     1
102
RTVSPost2010Prop54
  1
strokes_ogs.tif
102
RTVSPost2010PropOp54
 70
     1
102
RTVSPost2010Prop55
280
     0
102
RTVSPost2010PropOp55
 70
     1
102
RTVSPost2010Prop56
140
1.0
102
RTVSPost2010PropOp56
 70
     1
102
RTVSPost2010Prop57
140
1.0
102
RTVSPost2010PropOp57
 70
     1
102
RTVSPropertyOp0
 70
     1
102
RTVSPropertyOp1
 70
     1
102
RTVSPropertyOp2
 70
     1
102
RTVSPropertyOp3
 70
     1
102
RTVSPropertyOp4
 70
     1
102
RTVSPropertyOp5
 70
     1
102
RTVSPropertyOp6
 70
     1
102
RTVSPropertyOp7
 70
     1
102
RTVSPropertyOp8
 70
     1
102
RTVSPropertyOp9
 70
     1
102
RTVSPropertyOp10
 70
     1
102
RTVSPropertyOp11
 70
     1
102
RTVSPropertyOp12
 70
     1
102
RTVSPropertyOp13
 70
     1
102
RTVSPropertyOp14
 70
     1
102
RTVSPropertyOp15
 70
     1
102
RTVSPropertyOp16
 70
     1
102
RTVSPropertyOp17
 70
     1
102
RTVSPropertyOp18
 70
     1
102
RTVSPropertyOp19
 70
     1
102
RTVSPropertyOp20
 70
     1
102
RTVSPropertyOp21
 70
     1
102
RTVSPropertyOp22
 70
     1
102
RTVSPropertyOp23
 70
     1
102
RTVSPropertyOp24
 70
     1
102
RTVSPropertyOp25
 70
     1
102
RTVSPropertyOp26
 70
     1
102
RTVSPropertyOp27
 70
     1
102
RTVSPropertyOp28
 70
     1
102
RTVSPropertyOp29
 70
     1
102
RTVSPropertyOp30
 70
     1
102
RTVSPropertyOp31
 70
     1
102
RTVSPropertyOp32
 70
     1
102
RTVSPropertyOp33
 70
     1
102
RTVSPropertyOp34
 70
     1
102
RTVSPropertyOp35
 70
     1
102
RTVSPropertyOp36
 70
     1
102
RTVSPropertyOp37
 70
     1
102
RTVSPropertyOp38
 70
     1
102
RTVSPropertyOp39
 70
     1
102
RTVSPropertyOp40
 70
     1
102
RTVSPropertyOp41
 70
     1
102
RTVSPropertyOp42
 70
     1
102
RTVSPropertyOp43
 70
     1
102
RTVSPropertyOp44
 70
     1
102
RTVSPropertyOp45
 70
     1
102
RTVSPropertyOp46
 70
     1
102
RTVSPropertyOp47
 70
     1
102
RTVSPropertyOp48
 70
     1
102
RTVSPropertyOp49
 70
     1
102
RTVSPropertyOp50
 70
     1
102
RTVSPropertyOp51
 70
     0
102
RTVSPropertyOp52
 70
     0
102
RTVSPropertyOp53
 70
     1
102
RTVSPropertyOp54
 70
     1
102
RTVSPropertyOp55
 70
     1
102
RTVSPropertyOp56
 70
     1
102
RTVSPropertyOp57
 70
     1
102
RTVSPropertyOp58
 70
     1
102
RTVSPropertyOp59
 70
     1
102
RTVSPropertyOp60
 70
     1
102
RTVSPropertyOp61
 70
     1
102
RTVSPropertyOp62
 70
     1
  0
XRECORD
  5
A13
102
{ACAD_REACTORS
330
A12
102
}
330
A12
100
AcDbXrecord
280
     1
102
RTVSPost2010Prop28
280
     0
102
RTVSPost2010PropOp28
 70
     1
102
RTVSPost2010Prop29
280
     1
102
RTVSPost2010PropOp29
 70
     1
102
RTVSPost2010Prop30
280
     1
102
RTVSPost2010PropOp30
 70
     1
102
RTVSPost2010Prop31
280
     0
102
RTVSPost2010PropOp31
 70
     1
102
RTVSPost2010Prop32
280
     0
102
RTVSPost2010PropOp32
 70
     1
102
RTVSPost2010Prop33
280
     0
102
RTVSPost2010PropOp33
 70
     1
102
RTVSPost2010Prop34
280
     0
102
RTVSPost2010PropOp34
 70
     1
102
RTVSPost2010Prop35
280
     0
102
RTVSPost2010PropOp35
 70
     1
102
RTVSPost2010Prop36
280
     0
102
RTVSPost2010PropOp36
 70
     1
102
RTVSPost2010Prop37
 90
       50
102
RTVSPost2010PropOp37
 70
     1
102
RTVSPost2010Prop38
140
0.0
102
RTVSPost2010PropOp38
 70
     1
102
RTVSPost2010Prop39
140
1.0
102
RTVSPost2010PropOp39
 70
     1
102
RTVSPost2010Prop40
 90
        0
102
RTVSPost2010PropOp40
 70
     1
102
RTVSPost2010Prop41ColorIndex
 90
       18
102
RTVSPost2010Prop41ColorRGB
 90
        0
102
RTVSPost2010PropOp41
 70
     1
102
RTVSPost2010Prop42
 90
       50
102
RTVSPost2010PropOp42
 70
     1
102
RTVSPost2010Prop43
 90
        3
102
RTVSPost2010PropOp43
 70
     1
102
RTVSPost2010Prop44ColorIndex
 90
        5
102
RTVSPost2010Prop44ColorRGB
 90
      255
102
RTVSPost2010PropOp44
 70
     1
102
RTVSPost2010Prop45
280
     0
102
RTVSPost2010PropOp45
 70
     1
102
RTVSPost2010Prop46
 90
       50
102
RTVSPost2010PropOp46
 70
     1
102
RTVSPost2010Prop47
 90
       50
102
RTVSPost2010PropOp47
 70
     1
102
RTVSPost2010Prop48
 90
       50
102
RTVSPost2010PropOp48
 70
     1
102
RTVSPost2010Prop49
280
     0
102
RTVSPost2010PropOp49
 70
     1
102
RTVSPost2010Prop50
 90
       50
102
RTVSPost2010PropOp50
 70
     1
102
RTVSPost2010Prop51ColorIndex
 90
      256
102
RTVSPost2010Prop51ColorRGB
 90
-16777216
102
RTVSPost2010PropOp51
 70
     0
102
RTVSPost2010Prop52
140
1.0
102
RTVSPost2010PropOp52
 70
     0
102
RTVSPost2010Prop53
 90
        2
102
RTVSPost2010PropOp53
 70
     1
102
RTVSPost2010Prop54
  1
strokes_ogs.tif
102
RTVSPost2010PropOp54
 70
     1
102
RTVSPost2010Prop55
280
     0
102
RTVSPost2010PropOp55
 70
     1
102
RTVSPost2010Prop56
140
1.0
102
RTVSPost2010PropOp56
 70
     1
102
RTVSPost2010Prop57
140
1.0
102
RTVSPost2010PropOp57
 70
     1
102
RTVSPropertyOp0
 70
     1
102
RTVSPropertyOp1
 70
     1
102
RTVSPropertyOp2
 70
     1
102
RTVSPropertyOp3
 70
     1
102
RTVSPropertyOp4
 70
     1
102
RTVSPropertyOp5
 70
     1
102
RTVSPropertyOp6
 70
     1
102
RTVSPropertyOp7
 70
     1
102
RTVSPropertyOp8
 70
     1
102
RTVSPropertyOp9
 70
     1
102
RTVSPropertyOp10
 70
     1
102
RTVSPropertyOp11
 70
     1
102
RTVSPropertyOp12
 70
     1
102
RTVSPropertyOp13
 70
     1
102
RTVSPropertyOp14
 70
     1
102
RTVSPropertyOp15
 70
     1
102
RTVSPropertyOp16
 70
     1
102
RTVSPropertyOp17
 70
     1
102
RTVSPropertyOp18
 70
     1
102
RTVSPropertyOp19
 70
     1
102
RTVSPropertyOp20
 70
     1
102
RTVSPropertyOp21
 70
     1
102
RTVSPropertyOp22
 70
     1
102
RTVSPropertyOp23
 70
     1
102
RTVSPropertyOp24
 70
     1
102
RTVSPropertyOp25
 70
     1
102
RTVSPropertyOp26
 70
     1
102
RTVSPropertyOp27
 70
     1
102
RTVSPropertyOp28
 70
     1
102
RTVSPropertyOp29
 70
     1
102
RTVSPropertyOp30
 70
     1
102
RTVSPropertyOp31
 70
     1
102
RTVSPropertyOp32
 70
     1
102
RTVSPropertyOp33
 70
     1
102
RTVSPropertyOp34
 70
     1
102
RTVSPropertyOp35
 70
     1
102
RTVSPropertyOp36
 70
     1
102
RTVSPropertyOp37
 70
     1
102
RTVSPropertyOp38
 70
     1
102
RTVSPropertyOp39
 70
     1
102
RTVSPropertyOp40
 70
     1
102
RTVSPropertyOp41
 70
     1
102
RTVSPropertyOp42
 70
     1
102
RTVSPropertyOp43
 70
     1
102
RTVSPropertyOp44
 70
     1
102
RTVSPropertyOp45
 70
     1
102
RTVSPropertyOp46
 70
     1
102
RTVSPropertyOp47
 70
     1
102
RTVSPropertyOp48
 70
     1
102
RTVSPropertyOp49
 70
     1
102
RTVSPropertyOp50
 70
     1
102
RTVSPropertyOp51
 70
     0
102
RTVSPropertyOp52
 70
     0
102
RTVSPropertyOp53
 70
     1
102
RTVSPropertyOp54
 70
     1
102
RTVSPropertyOp55
 70
     1
102
RTVSPropertyOp56
 70
     1
102
RTVSPropertyOp57
 70
     1
102
RTVSPropertyOp58
 70
     1
102
RTVSPropertyOp59
 70
     1
102
RTVSPropertyOp60
 70
     1
102
RTVSPropertyOp61
 70
     1
102
RTVSPropertyOp62
 70
     1
  0
XRECORD
  5
A05
102
{ACAD_REACTORS
330
A04
102
}
330
A04
100
AcDbXrecord
280
     1
102
RTVSPost2010Prop28
280
     0
102
RTVSPost2010PropOp28
 70
     1
102
RTVSPost2010Prop29
280
     1
102
RTVSPost2010PropOp29
 70
     1
102
RTVSPost2010Prop30
280
     1
102
RTVSPost2010PropOp30
 70
     1
102
RTVSPost2010Prop31
280
     0
102
RTVSPost2010PropOp31
 70
     1
102
RTVSPost2010Prop32
280
     0
102
RTVSPost2010PropOp32
 70
     1
102
RTVSPost2010Prop33
280
     0
102
RTVSPost2010PropOp33
 70
     1
102
RTVSPost2010Prop34
280
     0
102
RTVSPost2010PropOp34
 70
     1
102
RTVSPost2010Prop35
280
     0
102
RTVSPost2010PropOp35
 70
     1
102
RTVSPost2010Prop36
280
     0
102
RTVSPost2010PropOp36
 70
     1
102
RTVSPost2010Prop37
 90
       50
102
RTVSPost2010PropOp37
 70
     1
102
RTVSPost2010Prop38
140
0.0
102
RTVSPost2010PropOp38
 70
     1
102
RTVSPost2010Prop39
140
1.0
102
RTVSPost2010PropOp39
 70
     1
102
RTVSPost2010Prop40
 90
        0
102
RTVSPost2010PropOp40
 70
     1
102
RTVSPost2010Prop41ColorIndex
 90
       18
102
RTVSPost2010Prop41ColorRGB
 90
        0
102
RTVSPost2010PropOp41
 70
     1
102
RTVSPost2010Prop42
 90
       50
102
RTVSPost2010PropOp42
 70
     1
102
RTVSPost2010Prop43
 90
        3
102
RTVSPost2010PropOp43
 70
     1
102
RTVSPost2010Prop44ColorIndex
 90
        5
102
RTVSPost2010Prop44ColorRGB
 90
      255
102
RTVSPost2010PropOp44
 70
     1
102
RTVSPost2010Prop45
280
     0
102
RTVSPost2010PropOp45
 70
     1
102
RTVSPost2010Prop46
 90
       50
102
RTVSPost2010PropOp46
 70
     1
102
RTVSPost2010Prop47
 90
       50
102
RTVSPost2010PropOp47
 70
     1
102
RTVSPost2010Prop48
 90
       50
102
RTVSPost2010PropOp48
 70
     1
102
RTVSPost2010Prop49
280
     0
102
RTVSPost2010PropOp49
 70
     1
102
RTVSPost2010Prop50
 90
       50
102
RTVSPost2010PropOp50
 70
     1
102
RTVSPost2010Prop51ColorIndex
 90
      256
102
RTVSPost2010Prop51ColorRGB
 90
-16777216
102
RTVSPost2010PropOp51
 70
     0
102
RTVSPost2010Prop52
140
1.0
102
RTVSPost2010PropOp52
 70
     0
102
RTVSPost2010Prop53
 90
        2
102
RTVSPost2010PropOp53
 70
     1
102
RTVSPost2010Prop54
  1
strokes_ogs.tif
102
RTVSPost2010PropOp54
 70
     1
102
RTVSPost2010Prop55
280
     0
102
RTVSPost2010PropOp55
 70
     1
102
RTVSPost2010Prop56
140
1.0
102
RTVSPost2010PropOp56
 70
     1
102
RTVSPost2010Prop57
140
1.0
102
RTVSPost2010PropOp57
 70
     1
102
RTVSPropertyOp0
 70
     1
102
RTVSPropertyOp1
 70
     1
102
RTVSPropertyOp2
 70
     1
102
RTVSPropertyOp3
 70
     1
102
RTVSPropertyOp4
 70
     1
102
RTVSPropertyOp5
 70
     1
102
RTVSPropertyOp6
 70
     1
102
RTVSPropertyOp7
 70
     1
102
RTVSPropertyOp8
 70
     1
102
RTVSPropertyOp9
 70
     1
102
RTVSPropertyOp10
 70
     1
102
RTVSPropertyOp11
 70
     1
102
RTVSPropertyOp12
 70
     1
102
RTVSPropertyOp13
 70
     1
102
RTVSPropertyOp14
 70
     1
102
RTVSPropertyOp15
 70
     1
102
RTVSPropertyOp16
 70
     1
102
RTVSPropertyOp17
 70
     1
102
RTVSPropertyOp18
 70
     1
102
RTVSPropertyOp19
 70
     1
102
RTVSPropertyOp20
 70
     1
102
RTVSPropertyOp21
 70
     1
102
RTVSPropertyOp22
 70
     1
102
RTVSPropertyOp23
 70
     1
102
RTVSPropertyOp24
 70
     1
102
RTVSPropertyOp25
 70
     1
102
RTVSPropertyOp26
 70
     1
102
RTVSPropertyOp27
 70
     1
102
RTVSPropertyOp28
 70
     1
102
RTVSPropertyOp29
 70
     1
102
RTVSPropertyOp30
 70
     1
102
RTVSPropertyOp31
 70
     1
102
RTVSPropertyOp32
 70
     1
102
RTVSPropertyOp33
 70
     1
102
RTVSPropertyOp34
 70
     1
102
RTVSPropertyOp35
 70
     1
102
RTVSPropertyOp36
 70
     1
102
RTVSPropertyOp37
 70
     1
102
RTVSPropertyOp38
 70
     1
102
RTVSPropertyOp39
 70
     1
102
RTVSPropertyOp40
 70
     1
102
RTVSPropertyOp41
 70
     1
102
RTVSPropertyOp42
 70
     1
102
RTVSPropertyOp43
 70
     1
102
RTVSPropertyOp44
 70
     1
102
RTVSPropertyOp45
 70
     1
102
RTVSPropertyOp46
 70
     1
102
RTVSPropertyOp47
 70
     1
102
RTVSPropertyOp48
 70
     1
102
RTVSPropertyOp49
 70
     1
102
RTVSPropertyOp50
 70
     1
102
RTVSPropertyOp51
 70
     0
102
RTVSPropertyOp52
 70
     0
102
RTVSPropertyOp53
 70
     1
102
RTVSPropertyOp54
 70
     1
102
RTVSPropertyOp55
 70
     1
102
RTVSPropertyOp56
 70
     1
102
RTVSPropertyOp57
 70
     1
102
RTVSPropertyOp58
 70
     1
102
RTVSPropertyOp59
 70
     1
102
RTVSPropertyOp60
 70
     1
102
RTVSPropertyOp61
 70
     1
102
RTVSPropertyOp62
 70
     1
  0
XRECORD
  5
A09
102
{ACAD_REACTORS
330
A08
102
}
330
A08
100
AcDbXrecord
280
     1
102
RTVSPost2010Prop28
280
     0
102
RTVSPost2010PropOp28
 70
     1
102
RTVSPost2010Prop29
280
     1
102
RTVSPost2010PropOp29
 70
     1
102
RTVSPost2010Prop30
280
     1
102
RTVSPost2010PropOp30
 70
     1
102
RTVSPost2010Prop31
280
     0
102
RTVSPost2010PropOp31
 70
     1
102
RTVSPost2010Prop32
280
     0
102
RTVSPost2010PropOp32
 70
     1
102
RTVSPost2010Prop33
280
     0
102
RTVSPost2010PropOp33
 70
     1
102
RTVSPost2010Prop34
280
     0
102
RTVSPost2010PropOp34
 70
     1
102
RTVSPost2010Prop35
280
     0
102
RTVSPost2010PropOp35
 70
     1
102
RTVSPost2010Prop36
280
     0
102
RTVSPost2010PropOp36
 70
     1
102
RTVSPost2010Prop37
 90
       50
102
RTVSPost2010PropOp37
 70
     1
102
RTVSPost2010Prop38
140
0.0
102
RTVSPost2010PropOp38
 70
     1
102
RTVSPost2010Prop39
140
1.0
102
RTVSPost2010PropOp39
 70
     1
102
RTVSPost2010Prop40
 90
        0
102
RTVSPost2010PropOp40
 70
     1
102
RTVSPost2010Prop41ColorIndex
 90
       18
102
RTVSPost2010Prop41ColorRGB
 90
        0
102
RTVSPost2010PropOp41
 70
     1
102
RTVSPost2010Prop42
 90
       50
102
RTVSPost2010PropOp42
 70
     1
102
RTVSPost2010Prop43
 90
        3
102
RTVSPost2010PropOp43
 70
     1
102
RTVSPost2010Prop44ColorIndex
 90
        5
102
RTVSPost2010Prop44ColorRGB
 90
      255
102
RTVSPost2010PropOp44
 70
     1
102
RTVSPost2010Prop45
280
     0
102
RTVSPost2010PropOp45
 70
     1
102
RTVSPost2010Prop46
 90
       50
102
RTVSPost2010PropOp46
 70
     1
102
RTVSPost2010Prop47
 90
       50
102
RTVSPost2010PropOp47
 70
     1
102
RTVSPost2010Prop48
 90
       50
102
RTVSPost2010PropOp48
 70
     1
102
RTVSPost2010Prop49
280
     0
102
RTVSPost2010PropOp49
 70
     1
102
RTVSPost2010Prop50
 90
       50
102
RTVSPost2010PropOp50
 70
     1
102
RTVSPost2010Prop51ColorIndex
 90
      256
102
RTVSPost2010Prop51ColorRGB
 90
-16777216
102
RTVSPost2010PropOp51
 70
     0
102
RTVSPost2010Prop52
140
1.0
102
RTVSPost2010PropOp52
 70
     0
102
RTVSPost2010Prop53
 90
        2
102
RTVSPost2010PropOp53
 70
     1
102
RTVSPost2010Prop54
  1
strokes_ogs.tif
102
RTVSPost2010PropOp54
 70
     1
102
RTVSPost2010Prop55
280
     0
102
RTVSPost2010PropOp55
 70
     1
102
RTVSPost2010Prop56
140
1.0
102
RTVSPost2010PropOp56
 70
     1
102
RTVSPost2010Prop57
140
1.0
102
RTVSPost2010PropOp57
 70
     1
102
RTVSPropertyOp0
 70
     1
102
RTVSPropertyOp1
 70
     1
102
RTVSPropertyOp2
 70
     1
102
RTVSPropertyOp3
 70
     1
102
RTVSPropertyOp4
 70
     1
102
RTVSPropertyOp5
 70
     1
102
RTVSPropertyOp6
 70
     1
102
RTVSPropertyOp7
 70
     1
102
RTVSPropertyOp8
 70
     1
102
RTVSPropertyOp9
 70
     1
102
RTVSPropertyOp10
 70
     1
102
RTVSPropertyOp11
 70
     1
102
RTVSPropertyOp12
 70
     1
102
RTVSPropertyOp13
 70
     1
102
RTVSPropertyOp14
 70
     1
102
RTVSPropertyOp15
 70
     1
102
RTVSPropertyOp16
 70
     1
102
RTVSPropertyOp17
 70
     1
102
RTVSPropertyOp18
 70
     1
102
RTVSPropertyOp19
 70
     1
102
RTVSPropertyOp20
 70
     1
102
RTVSPropertyOp21
 70
     1
102
RTVSPropertyOp22
 70
     1
102
RTVSPropertyOp23
 70
     1
102
RTVSPropertyOp24
 70
     1
102
RTVSPropertyOp25
 70
     1
102
RTVSPropertyOp26
 70
     1
102
RTVSPropertyOp27
 70
     1
102
RTVSPropertyOp28
 70
     1
102
RTVSPropertyOp29
 70
     1
102
RTVSPropertyOp30
 70
     1
102
RTVSPropertyOp31
 70
     1
102
RTVSPropertyOp32
 70
     1
102
RTVSPropertyOp33
 70
     1
102
RTVSPropertyOp34
 70
     1
102
RTVSPropertyOp35
 70
     1
102
RTVSPropertyOp36
 70
     1
102
RTVSPropertyOp37
 70
     1
102
RTVSPropertyOp38
 70
     1
102
RTVSPropertyOp39
 70
     1
102
RTVSPropertyOp40
 70
     1
102
RTVSPropertyOp41
 70
     1
102
RTVSPropertyOp42
 70
     1
102
RTVSPropertyOp43
 70
     1
102
RTVSPropertyOp44
 70
     1
102
RTVSPropertyOp45
 70
     1
102
RTVSPropertyOp46
 70
     1
102
RTVSPropertyOp47
 70
     1
102
RTVSPropertyOp48
 70
     1
102
RTVSPropertyOp49
 70
     1
102
RTVSPropertyOp50
 70
     1
102
RTVSPropertyOp51
 70
     0
102
RTVSPropertyOp52
 70
     0
102
RTVSPropertyOp53
 70
     1
102
RTVSPropertyOp54
 70
     1
102
RTVSPropertyOp55
 70
     1
102
RTVSPropertyOp56
 70
     1
102
RTVSPropertyOp57
 70
     1
102
RTVSPropertyOp58
 70
     1
102
RTVSPropertyOp59
 70
     1
102
RTVSPropertyOp60
 70
     1
102
RTVSPropertyOp61
 70
     1
102
RTVSPropertyOp62
 70
     1
  0
XRECORD
  5
A19
102
{ACAD_REACTORS
330
A18
102
}
330
A18
100
AcDbXrecord
280
     1
102
RTVSPost2010Prop28
280
     0
102
RTVSPost2010PropOp28
 70
     1
102
RTVSPost2010Prop29
280
     1
102
RTVSPost2010PropOp29
 70
     1
102
RTVSPost2010Prop30
280
     1
102
RTVSPost2010PropOp30
 70
     1
102
RTVSPost2010Prop31
280
     0
102
RTVSPost2010PropOp31
 70
     1
102
RTVSPost2010Prop32
280
     0
102
RTVSPost2010PropOp32
 70
     1
102
RTVSPost2010Prop33
280
     0
102
RTVSPost2010PropOp33
 70
     1
102
RTVSPost2010Prop34
280
     0
102
RTVSPost2010PropOp34
 70
     1
102
RTVSPost2010Prop35
280
     0
102
RTVSPost2010PropOp35
 70
     1
102
RTVSPost2010Prop36
280
     0
102
RTVSPost2010PropOp36
 70
     1
102
RTVSPost2010Prop37
 90
       50
102
RTVSPost2010PropOp37
 70
     1
102
RTVSPost2010Prop38
140
0.0
102
RTVSPost2010PropOp38
 70
     1
102
RTVSPost2010Prop39
140
1.0
102
RTVSPost2010PropOp39
 70
     1
102
RTVSPost2010Prop40
 90
        0
102
RTVSPost2010PropOp40
 70
     1
102
RTVSPost2010Prop41ColorIndex
 90
       18
102
RTVSPost2010Prop41ColorRGB
 90
        0
102
RTVSPost2010PropOp41
 70
     1
102
RTVSPost2010Prop42
 90
       50
102
RTVSPost2010PropOp42
 70
     1
102
RTVSPost2010Prop43
 90
        3
102
RTVSPost2010PropOp43
 70
     1
102
RTVSPost2010Prop44ColorIndex
 90
        5
102
RTVSPost2010Prop44ColorRGB
 90
      255
102
RTVSPost2010PropOp44
 70
     1
102
RTVSPost2010Prop45
280
     0
102
RTVSPost2010PropOp45
 70
     1
102
RTVSPost2010Prop46
 90
       50
102
RTVSPost2010PropOp46
 70
     1
102
RTVSPost2010Prop47
 90
       50
102
RTVSPost2010PropOp47
 70
     1
102
RTVSPost2010Prop48
 90
       50
102
RTVSPost2010PropOp48
 70
     1
102
RTVSPost2010Prop49
280
     0
102
RTVSPost2010PropOp49
 70
     1
102
RTVSPost2010Prop50
 90
       50
102
RTVSPost2010PropOp50
 70
     1
102
RTVSPost2010Prop51ColorIndex
 90
      256
102
RTVSPost2010Prop51ColorRGB
 90
-16777216
102
RTVSPost2010PropOp51
 70
     0
102
RTVSPost2010Prop52
140
1.0
102
RTVSPost2010PropOp52
 70
     0
102
RTVSPost2010Prop53
 90
        2
102
RTVSPost2010PropOp53
 70
     1
102
RTVSPost2010Prop54
  1
strokes_ogs.tif
102
RTVSPost2010PropOp54
 70
     1
102
RTVSPost2010Prop55
280
     0
102
RTVSPost2010PropOp55
 70
     1
102
RTVSPost2010Prop56
140
1.0
102
RTVSPost2010PropOp56
 70
     1
102
RTVSPost2010Prop57
140
1.0
102
RTVSPost2010PropOp57
 70
     1
102
RTVSPropertyOp0
 70
     0
102
RTVSPropertyOp1
 70
     0
102
RTVSPropertyOp2
 70
     0
102
RTVSPropertyOp3
 70
     0
102
RTVSPropertyOp4
 70
     0
102
RTVSPropertyOp5
 70
     0
102
RTVSPropertyOp6
 70
     0
102
RTVSPropertyOp7
 70
     0
102
RTVSPropertyOp8
 70
     0
102
RTVSPropertyOp9
 70
     0
102
RTVSPropertyOp10
 70
     0
102
RTVSPropertyOp11
 70
     0
102
RTVSPropertyOp12
 70
     0
102
RTVSPropertyOp13
 70
     0
102
RTVSPropertyOp14
 70
     2
102
RTVSPropertyOp15
 70
     0
102
RTVSPropertyOp16
 70
     0
102
RTVSPropertyOp17
 70
     0
102
RTVSPropertyOp18
 70
     0
102
RTVSPropertyOp19
 70
     0
102
RTVSPropertyOp20
 70
     0
102
RTVSPropertyOp21
 70
     0
102
RTVSPropertyOp22
 70
     0
102
RTVSPropertyOp23
 70
     0
102
RTVSPropertyOp24
 70
     0
102
RTVSPropertyOp25
 70
     0
102
RTVSPropertyOp26
 70
     0
102
RTVSPropertyOp27
 70
     0
102
RTVSPropertyOp28
 70
     1
102
RTVSPropertyOp29
 70
     1
102
RTVSPropertyOp30
 70
     1
102
RTVSPropertyOp31
 70
     1
102
RTVSPropertyOp32
 70
     1
102
RTVSPropertyOp33
 70
     1
102
RTVSPropertyOp34
 70
     1
102
RTVSPropertyOp35
 70
     1
102
RTVSPropertyOp36
 70
     1
102
RTVSPropertyOp37
 70
     1
102
RTVSPropertyOp38
 70
     1
102
RTVSPropertyOp39
 70
     1
102
RTVSPropertyOp40
 70
     1
102
RTVSPropertyOp41
 70
     1
102
RTVSPropertyOp42
 70
     1
102
RTVSPropertyOp43
 70
     1
102
RTVSPropertyOp44
 70
     1
102
RTVSPropertyOp45
 70
     1
102
RTVSPropertyOp46
 70
     1
102
RTVSPropertyOp47
 70
     1
102
RTVSPropertyOp48
 70
     1
102
RTVSPropertyOp49
 70
     1
102
RTVSPropertyOp50
 70
     1
102
RTVSPropertyOp51
 70
     0
102
RTVSPropertyOp52
 70
     0
102
RTVSPropertyOp53
 70
     1
102
RTVSPropertyOp54
 70
     1
102
RTVSPropertyOp55
 70
     1
102
RTVSPropertyOp56
 70
     1
102
RTVSPropertyOp57
 70
     1
102
RTVSPropertyOp58
 70
     1
102
RTVSPropertyOp59
 70
     1
102
RTVSPropertyOp60
 70
     1
102
RTVSPropertyOp61
 70
     1
102
RTVSPropertyOp62
 70
     1
  0
XRECORD
  5
A11
102
{ACAD_REACTORS
330
A10
102
}
330
A10
100
AcDbXrecord
280
     1
102
RTVSPost2010Prop28
280
     0
102
RTVSPost2010PropOp28
 70
     1
102
RTVSPost2010Prop29
280
     1
102
RTVSPost2010PropOp29
 70
     1
102
RTVSPost2010Prop30
280
     1
102
RTVSPost2010PropOp30
 70
     1
102
RTVSPost2010Prop31
280
     0
102
RTVSPost2010PropOp31
 70
     1
102
RTVSPost2010Prop32
280
     0
102
RTVSPost2010PropOp32
 70
     1
102
RTVSPost2010Prop33
280
     0
102
RTVSPost2010PropOp33
 70
     1
102
RTVSPost2010Prop34
280
     0
102
RTVSPost2010PropOp34
 70
     1
102
RTVSPost2010Prop35
280
     0
102
RTVSPost2010PropOp35
 70
     1
102
RTVSPost2010Prop36
280
     0
102
RTVSPost2010PropOp36
 70
     1
102
RTVSPost2010Prop37
 90
       50
102
RTVSPost2010PropOp37
 70
     1
102
RTVSPost2010Prop38
140
0.0
102
RTVSPost2010PropOp38
 70
     1
102
RTVSPost2010Prop39
140
1.0
102
RTVSPost2010PropOp39
 70
     1
102
RTVSPost2010Prop40
 90
        0
102
RTVSPost2010PropOp40
 70
     1
102
RTVSPost2010Prop41ColorIndex
 90
       18
102
RTVSPost2010Prop41ColorRGB
 90
        0
102
RTVSPost2010PropOp41
 70
     1
102
RTVSPost2010Prop42
 90
       50
102
RTVSPost2010PropOp42
 70
     1
102
RTVSPost2010Prop43
 90
        3
102
RTVSPost2010PropOp43
 70
     1
102
RTVSPost2010Prop44ColorIndex
 90
        5
102
RTVSPost2010Prop44ColorRGB
 90
      255
102
RTVSPost2010PropOp44
 70
     1
102
RTVSPost2010Prop45
280
     0
102
RTVSPost2010PropOp45
 70
     1
102
RTVSPost2010Prop46
 90
       50
102
RTVSPost2010PropOp46
 70
     1
102
RTVSPost2010Prop47
 90
       50
102
RTVSPost2010PropOp47
 70
     1
102
RTVSPost2010Prop48
 90
       50
102
RTVSPost2010PropOp48
 70
     1
102
RTVSPost2010Prop49
280
     0
102
RTVSPost2010PropOp49
 70
     1
102
RTVSPost2010Prop50
 90
       50
102
RTVSPost2010PropOp50
 70
     1
102
RTVSPost2010Prop51ColorIndex
 90
      256
102
RTVSPost2010Prop51ColorRGB
 90
-16777216
102
RTVSPost2010PropOp51
 70
     0
102
RTVSPost2010Prop52
140
1.0
102
RTVSPost2010PropOp52
 70
     0
102
RTVSPost2010Prop53
 90
        2
102
RTVSPost2010PropOp53
 70
     1
102
RTVSPost2010Prop54
  1
strokes_ogs.tif
102
RTVSPost2010PropOp54
 70
     1
102
RTVSPost2010Prop55
280
     0
102
RTVSPost2010PropOp55
 70
     1
102
RTVSPost2010Prop56
140
1.0
102
RTVSPost2010PropOp56
 70
     1
102
RTVSPost2010Prop57
140
1.0
102
RTVSPost2010PropOp57
 70
     1
102
RTVSPropertyOp0
 70
     1
102
RTVSPropertyOp1
 70
     1
102
RTVSPropertyOp2
 70
     1
102
RTVSPropertyOp3
 70
     1
102
RTVSPropertyOp4
 70
     1
102
RTVSPropertyOp5
 70
     1
102
RTVSPropertyOp6
 70
     1
102
RTVSPropertyOp7
 70
     1
102
RTVSPropertyOp8
 70
     1
102
RTVSPropertyOp9
 70
     1
102
RTVSPropertyOp10
 70
     1
102
RTVSPropertyOp11
 70
     1
102
RTVSPropertyOp12
 70
     1
102
RTVSPropertyOp13
 70
     1
102
RTVSPropertyOp14
 70
     1
102
RTVSPropertyOp15
 70
     1
102
RTVSPropertyOp16
 70
     1
102
RTVSPropertyOp17
 70
     1
102
RTVSPropertyOp18
 70
     1
102
RTVSPropertyOp19
 70
     1
102
RTVSPropertyOp20
 70
     1
102
RTVSPropertyOp21
 70
     1
102
RTVSPropertyOp22
 70
     1
102
RTVSPropertyOp23
 70
     1
102
RTVSPropertyOp24
 70
     1
102
RTVSPropertyOp25
 70
     1
102
RTVSPropertyOp26
 70
     1
102
RTVSPropertyOp27
 70
     1
102
RTVSPropertyOp28
 70
     1
102
RTVSPropertyOp29
 70
     1
102
RTVSPropertyOp30
 70
     1
102
RTVSPropertyOp31
 70
     1
102
RTVSPropertyOp32
 70
     1
102
RTVSPropertyOp33
 70
     1
102
RTVSPropertyOp34
 70
     1
102
RTVSPropertyOp35
 70
     1
102
RTVSPropertyOp36
 70
     1
102
RTVSPropertyOp37
 70
     1
102
RTVSPropertyOp38
 70
     1
102
RTVSPropertyOp39
 70
     1
102
RTVSPropertyOp40
 70
     1
102
RTVSPropertyOp41
 70
     1
102
RTVSPropertyOp42
 70
     1
102
RTVSPropertyOp43
 70
     1
102
RTVSPropertyOp44
 70
     1
102
RTVSPropertyOp45
 70
     1
102
RTVSPropertyOp46
 70
     1
102
RTVSPropertyOp47
 70
     1
102
RTVSPropertyOp48
 70
     1
102
RTVSPropertyOp49
 70
     1
102
RTVSPropertyOp50
 70
     1
102
RTVSPropertyOp51
 70
     0
102
RTVSPropertyOp52
 70
     0
102
RTVSPropertyOp53
 70
     1
102
RTVSPropertyOp54
 70
     1
102
RTVSPropertyOp55
 70
     1
102
RTVSPropertyOp56
 70
     1
102
RTVSPropertyOp57
 70
     1
102
RTVSPropertyOp58
 70
     1
102
RTVSPropertyOp59
 70
     1
102
RTVSPropertyOp60
 70
     1
102
RTVSPropertyOp61
 70
     1
102
RTVSPropertyOp62
 70
     1
  0
XRECORD
  5
9F5
102
{ACAD_REACTORS
330
9F4
102
}
330
9F4
100
AcDbXrecord
280
     1
102
RTVSPost2010Prop28
280
     0
102
RTVSPost2010PropOp28
 70
     1
102
RTVSPost2010Prop29
280
     1
102
RTVSPost2010PropOp29
 70
     1
102
RTVSPost2010Prop30
280
     1
102
RTVSPost2010PropOp30
 70
     1
102
RTVSPost2010Prop31
280
     0
102
RTVSPost2010PropOp31
 70
     1
102
RTVSPost2010Prop32
280
     0
102
RTVSPost2010PropOp32
 70
     1
102
RTVSPost2010Prop33
280
     0
102
RTVSPost2010PropOp33
 70
     1
102
RTVSPost2010Prop34
280
     0
102
RTVSPost2010PropOp34
 70
     1
102
RTVSPost2010Prop35
280
     0
102
RTVSPost2010PropOp35
 70
     1
102
RTVSPost2010Prop36
280
     0
102
RTVSPost2010PropOp36
 70
     1
102
RTVSPost2010Prop37
 90
       50
102
RTVSPost2010PropOp37
 70
     1
102
RTVSPost2010Prop38
140
0.0
102
RTVSPost2010PropOp38
 70
     1
102
RTVSPost2010Prop39
140
1.0
102
RTVSPost2010PropOp39
 70
     1
102
RTVSPost2010Prop40
 90
        0
102
RTVSPost2010PropOp40
 70
     1
102
RTVSPost2010Prop41ColorIndex
 90
       18
102
RTVSPost2010Prop41ColorRGB
 90
        0
102
RTVSPost2010PropOp41
 70
     1
102
RTVSPost2010Prop42
 90
       50
102
RTVSPost2010PropOp42
 70
     1
102
RTVSPost2010Prop43
 90
        3
102
RTVSPost2010PropOp43
 70
     1
102
RTVSPost2010Prop44ColorIndex
 90
        5
102
RTVSPost2010Prop44ColorRGB
 90
      255
102
RTVSPost2010PropOp44
 70
     1
102
RTVSPost2010Prop45
280
     0
102
RTVSPost2010PropOp45
 70
     1
102
RTVSPost2010Prop46
 90
       50
102
RTVSPost2010PropOp46
 70
     1
102
RTVSPost2010Prop47
 90
       50
102
RTVSPost2010PropOp47
 70
     1
102
RTVSPost2010Prop48
 90
       50
102
RTVSPost2010PropOp48
 70
     1
102
RTVSPost2010Prop49
280
     0
102
RTVSPost2010PropOp49
 70
     1
102
RTVSPost2010Prop50
 90
       50
102
RTVSPost2010PropOp50
 70
     1
102
RTVSPost2010Prop51ColorIndex
 90
      256
102
RTVSPost2010Prop51ColorRGB
 90
-16777216
102
RTVSPost2010PropOp51
 70
     0
102
RTVSPost2010Prop52
140
1.0
102
RTVSPost2010PropOp52
 70
     0
102
RTVSPost2010Prop53
 90
        2
102
RTVSPost2010PropOp53
 70
     1
102
RTVSPost2010Prop54
  1
strokes_ogs.tif
102
RTVSPost2010PropOp54
 70
     1
102
RTVSPost2010Prop55
280
     0
102
RTVSPost2010PropOp55
 70
     1
102
RTVSPost2010Prop56
140
1.0
102
RTVSPost2010PropOp56
 70
     1
102
RTVSPost2010Prop57
140
1.0
102
RTVSPost2010PropOp57
 70
     1
102
RTVSPropertyOp0
 70
     1
102
RTVSPropertyOp1
 70
     1
102
RTVSPropertyOp2
 70
     1
102
RTVSPropertyOp3
 70
     1
102
RTVSPropertyOp4
 70
     1
102
RTVSPropertyOp5
 70
     1
102
RTVSPropertyOp6
 70
     1
102
RTVSPropertyOp7
 70
     1
102
RTVSPropertyOp8
 70
     1
102
RTVSPropertyOp9
 70
     1
102
RTVSPropertyOp10
 70
     1
102
RTVSPropertyOp11
 70
     1
102
RTVSPropertyOp12
 70
     1
102
RTVSPropertyOp13
 70
     1
102
RTVSPropertyOp14
 70
     1
102
RTVSPropertyOp15
 70
     1
102
RTVSPropertyOp16
 70
     1
102
RTVSPropertyOp17
 70
     1
102
RTVSPropertyOp18
 70
     1
102
RTVSPropertyOp19
 70
     1
102
RTVSPropertyOp20
 70
     1
102
RTVSPropertyOp21
 70
     1
102
RTVSPropertyOp22
 70
     1
102
RTVSPropertyOp23
 70
     1
102
RTVSPropertyOp24
 70
     1
102
RTVSPropertyOp25
 70
     1
102
RTVSPropertyOp26
 70
     1
102
RTVSPropertyOp27
 70
     1
102
RTVSPropertyOp28
 70
     1
102
RTVSPropertyOp29
 70
     1
102
RTVSPropertyOp30
 70
     1
102
RTVSPropertyOp31
 70
     1
102
RTVSPropertyOp32
 70
     1
102
RTVSPropertyOp33
 70
     1
102
RTVSPropertyOp34
 70
     1
102
RTVSPropertyOp35
 70
     1
102
RTVSPropertyOp36
 70
     1
102
RTVSPropertyOp37
 70
     1
102
RTVSPropertyOp38
 70
     1
102
RTVSPropertyOp39
 70
     1
102
RTVSPropertyOp40
 70
     1
102
RTVSPropertyOp41
 70
     1
102
RTVSPropertyOp42
 70
     1
102
RTVSPropertyOp43
 70
     1
102
RTVSPropertyOp44
 70
     1
102
RTVSPropertyOp45
 70
     1
102
RTVSPropertyOp46
 70
     1
102
RTVSPropertyOp47
 70
     1
102
RTVSPropertyOp48
 70
     1
102
RTVSPropertyOp49
 70
     1
102
RTVSPropertyOp50
 70
     1
102
RTVSPropertyOp51
 70
     0
102
RTVSPropertyOp52
 70
     0
102
RTVSPropertyOp53
 70
     1
102
RTVSPropertyOp54
 70
     1
102
RTVSPropertyOp55
 70
     1
102
RTVSPropertyOp56
 70
     1
102
RTVSPropertyOp57
 70
     1
102
RTVSPropertyOp58
 70
     1
102
RTVSPropertyOp59
 70
     1
102
RTVSPropertyOp60
 70
     1
102
RTVSPropertyOp61
 70
     1
102
RTVSPropertyOp62
 70
     1
  0
XRECORD
  5
9F7
102
{ACAD_REACTORS
330
9F6
102
}
330
9F6
100
AcDbXrecord
280
     1
102
RTVSPost2010Prop28
280
     0
102
RTVSPost2010PropOp28
 70
     1
102
RTVSPost2010Prop29
280
     1
102
RTVSPost2010PropOp29
 70
     1
102
RTVSPost2010Prop30
280
     1
102
RTVSPost2010PropOp30
 70
     1
102
RTVSPost2010Prop31
280
     0
102
RTVSPost2010PropOp31
 70
     1
102
RTVSPost2010Prop32
280
     0
102
RTVSPost2010PropOp32
 70
     1
102
RTVSPost2010Prop33
280
     0
102
RTVSPost2010PropOp33
 70
     1
102
RTVSPost2010Prop34
280
     0
102
RTVSPost2010PropOp34
 70
     1
102
RTVSPost2010Prop35
280
     0
102
RTVSPost2010PropOp35
 70
     1
102
RTVSPost2010Prop36
280
     0
102
RTVSPost2010PropOp36
 70
     1
102
RTVSPost2010Prop37
 90
       50
102
RTVSPost2010PropOp37
 70
     1
102
RTVSPost2010Prop38
140
0.0
102
RTVSPost2010PropOp38
 70
     1
102
RTVSPost2010Prop39
140
1.0
102
RTVSPost2010PropOp39
 70
     1
102
RTVSPost2010Prop40
 90
        0
102
RTVSPost2010PropOp40
 70
     1
102
RTVSPost2010Prop41ColorIndex
 90
       18
102
RTVSPost2010Prop41ColorRGB
 90
        0
102
RTVSPost2010PropOp41
 70
     1
102
RTVSPost2010Prop42
 90
       50
102
RTVSPost2010PropOp42
 70
     1
102
RTVSPost2010Prop43
 90
        3
102
RTVSPost2010PropOp43
 70
     1
102
RTVSPost2010Prop44ColorIndex
 90
        5
102
RTVSPost2010Prop44ColorRGB
 90
      255
102
RTVSPost2010PropOp44
 70
     1
102
RTVSPost2010Prop45
280
     0
102
RTVSPost2010PropOp45
 70
     1
102
RTVSPost2010Prop46
 90
       50
102
RTVSPost2010PropOp46
 70
     1
102
RTVSPost2010Prop47
 90
       50
102
RTVSPost2010PropOp47
 70
     1
102
RTVSPost2010Prop48
 90
       50
102
RTVSPost2010PropOp48
 70
     1
102
RTVSPost2010Prop49
280
     0
102
RTVSPost2010PropOp49
 70
     1
102
RTVSPost2010Prop50
 90
       50
102
RTVSPost2010PropOp50
 70
     1
102
RTVSPost2010Prop51ColorIndex
 90
      256
102
RTVSPost2010Prop51ColorRGB
 90
-16777216
102
RTVSPost2010PropOp51
 70
     0
102
RTVSPost2010Prop52
140
1.0
102
RTVSPost2010PropOp52
 70
     0
102
RTVSPost2010Prop53
 90
        2
102
RTVSPost2010PropOp53
 70
     1
102
RTVSPost2010Prop54
  1
strokes_ogs.tif
102
RTVSPost2010PropOp54
 70
     1
102
RTVSPost2010Prop55
280
     0
102
RTVSPost2010PropOp55
 70
     1
102
RTVSPost2010Prop56
140
1.0
102
RTVSPost2010PropOp56
 70
     1
102
RTVSPost2010Prop57
140
1.0
102
RTVSPost2010PropOp57
 70
     1
102
RTVSPropertyOp0
 70
     1
102
RTVSPropertyOp1
 70
     1
102
RTVSPropertyOp2
 70
     1
102
RTVSPropertyOp3
 70
     1
102
RTVSPropertyOp4
 70
     1
102
RTVSPropertyOp5
 70
     1
102
RTVSPropertyOp6
 70
     1
102
RTVSPropertyOp7
 70
     1
102
RTVSPropertyOp8
 70
     1
102
RTVSPropertyOp9
 70
     1
102
RTVSPropertyOp10
 70
     1
102
RTVSPropertyOp11
 70
     1
102
RTVSPropertyOp12
 70
     1
102
RTVSPropertyOp13
 70
     1
102
RTVSPropertyOp14
 70
     1
102
RTVSPropertyOp15
 70
     1
102
RTVSPropertyOp16
 70
     1
102
RTVSPropertyOp17
 70
     1
102
RTVSPropertyOp18
 70
     1
102
RTVSPropertyOp19
 70
     1
102
RTVSPropertyOp20
 70
     1
102
RTVSPropertyOp21
 70
     1
102
RTVSPropertyOp22
 70
     1
102
RTVSPropertyOp23
 70
     1
102
RTVSPropertyOp24
 70
     1
102
RTVSPropertyOp25
 70
     1
102
RTVSPropertyOp26
 70
     1
102
RTVSPropertyOp27
 70
     1
102
RTVSPropertyOp28
 70
     1
102
RTVSPropertyOp29
 70
     1
102
RTVSPropertyOp30
 70
     1
102
RTVSPropertyOp31
 70
     1
102
RTVSPropertyOp32
 70
     1
102
RTVSPropertyOp33
 70
     1
102
RTVSPropertyOp34
 70
     1
102
RTVSPropertyOp35
 70
     1
102
RTVSPropertyOp36
 70
     1
102
RTVSPropertyOp37
 70
     1
102
RTVSPropertyOp38
 70
     1
102
RTVSPropertyOp39
 70
     1
102
RTVSPropertyOp40
 70
     1
102
RTVSPropertyOp41
 70
     1
102
RTVSPropertyOp42
 70
     1
102
RTVSPropertyOp43
 70
     1
102
RTVSPropertyOp44
 70
     1
102
RTVSPropertyOp45
 70
     1
102
RTVSPropertyOp46
 70
     1
102
RTVSPropertyOp47
 70
     1
102
RTVSPropertyOp48
 70
     1
102
RTVSPropertyOp49
 70
     1
102
RTVSPropertyOp50
 70
     1
102
RTVSPropertyOp51
 70
     0
102
RTVSPropertyOp52
 70
     0
102
RTVSPropertyOp53
 70
     1
102
RTVSPropertyOp54
 70
     1
102
RTVSPropertyOp55
 70
     1
102
RTVSPropertyOp56
 70
     1
102
RTVSPropertyOp57
 70
     1
102
RTVSPropertyOp58
 70
     1
102
RTVSPropertyOp59
 70
     1
102
RTVSPropertyOp60
 70
     1
102
RTVSPropertyOp61
 70
     1
102
RTVSPropertyOp62
 70
     1
  0
XRECORD
  5
9F9
102
{ACAD_REACTORS
330
9F8
102
}
330
9F8
100
AcDbXrecord
280
     1
102
RTVSPost2010Prop28
280
     0
102
RTVSPost2010PropOp28
 70
     1
102
RTVSPost2010Prop29
280
     1
102
RTVSPost2010PropOp29
 70
     1
102
RTVSPost2010Prop30
280
     1
102
RTVSPost2010PropOp30
 70
     1
102
RTVSPost2010Prop31
280
     0
102
RTVSPost2010PropOp31
 70
     1
102
RTVSPost2010Prop32
280
     0
102
RTVSPost2010PropOp32
 70
     1
102
RTVSPost2010Prop33
280
     0
102
RTVSPost2010PropOp33
 70
     1
102
RTVSPost2010Prop34
280
     0
102
RTVSPost2010PropOp34
 70
     1
102
RTVSPost2010Prop35
280
     0
102
RTVSPost2010PropOp35
 70
     1
102
RTVSPost2010Prop36
280
     0
102
RTVSPost2010PropOp36
 70
     1
102
RTVSPost2010Prop37
 90
       50
102
RTVSPost2010PropOp37
 70
     1
102
RTVSPost2010Prop38
140
0.0
102
RTVSPost2010PropOp38
 70
     1
102
RTVSPost2010Prop39
140
1.0
102
RTVSPost2010PropOp39
 70
     1
102
RTVSPost2010Prop40
 90
        0
102
RTVSPost2010PropOp40
 70
     1
102
RTVSPost2010Prop41ColorIndex
 90
       18
102
RTVSPost2010Prop41ColorRGB
 90
        0
102
RTVSPost2010PropOp41
 70
     1
102
RTVSPost2010Prop42
 90
       50
102
RTVSPost2010PropOp42
 70
     1
102
RTVSPost2010Prop43
 90
        3
102
RTVSPost2010PropOp43
 70
     1
102
RTVSPost2010Prop44ColorIndex
 90
        5
102
RTVSPost2010Prop44ColorRGB
 90
      255
102
RTVSPost2010PropOp44
 70
     1
102
RTVSPost2010Prop45
280
     0
102
RTVSPost2010PropOp45
 70
     1
102
RTVSPost2010Prop46
 90
       50
102
RTVSPost2010PropOp46
 70
     1
102
RTVSPost2010Prop47
 90
       50
102
RTVSPost2010PropOp47
 70
     1
102
RTVSPost2010Prop48
 90
       50
102
RTVSPost2010PropOp48
 70
     1
102
RTVSPost2010Prop49
280
     0
102
RTVSPost2010PropOp49
 70
     1
102
RTVSPost2010Prop50
 90
       50
102
RTVSPost2010PropOp50
 70
     1
102
RTVSPost2010Prop51ColorIndex
 90
      256
102
RTVSPost2010Prop51ColorRGB
 90
-16777216
102
RTVSPost2010PropOp51
 70
     0
102
RTVSPost2010Prop52
140
1.0
102
RTVSPost2010PropOp52
 70
     0
102
RTVSPost2010Prop53
 90
        2
102
RTVSPost2010PropOp53
 70
     1
102
RTVSPost2010Prop54
  1
strokes_ogs.tif
102
RTVSPost2010PropOp54
 70
     1
102
RTVSPost2010Prop55
280
     0
102
RTVSPost2010PropOp55
 70
     1
102
RTVSPost2010Prop56
140
1.0
102
RTVSPost2010PropOp56
 70
     1
102
RTVSPost2010Prop57
140
1.0
102
RTVSPost2010PropOp57
 70
     1
102
RTVSPropertyOp0
 70
     1
102
RTVSPropertyOp1
 70
     1
102
RTVSPropertyOp2
 70
     1
102
RTVSPropertyOp3
 70
     1
102
RTVSPropertyOp4
 70
     1
102
RTVSPropertyOp5
 70
     1
102
RTVSPropertyOp6
 70
     1
102
RTVSPropertyOp7
 70
     1
102
RTVSPropertyOp8
 70
     1
102
RTVSPropertyOp9
 70
     1
102
RTVSPropertyOp10
 70
     1
102
RTVSPropertyOp11
 70
     1
102
RTVSPropertyOp12
 70
     1
102
RTVSPropertyOp13
 70
     1
102
RTVSPropertyOp14
 70
     1
102
RTVSPropertyOp15
 70
     1
102
RTVSPropertyOp16
 70
     1
102
RTVSPropertyOp17
 70
     1
102
RTVSPropertyOp18
 70
     1
102
RTVSPropertyOp19
 70
     1
102
RTVSPropertyOp20
 70
     1
102
RTVSPropertyOp21
 70
     1
102
RTVSPropertyOp22
 70
     1
102
RTVSPropertyOp23
 70
     1
102
RTVSPropertyOp24
 70
     1
102
RTVSPropertyOp25
 70
     1
102
RTVSPropertyOp26
 70
     1
102
RTVSPropertyOp27
 70
     1
102
RTVSPropertyOp28
 70
     1
102
RTVSPropertyOp29
 70
     1
102
RTVSPropertyOp30
 70
     1
102
RTVSPropertyOp31
 70
     1
102
RTVSPropertyOp32
 70
     1
102
RTVSPropertyOp33
 70
     1
102
RTVSPropertyOp34
 70
     1
102
RTVSPropertyOp35
 70
     1
102
RTVSPropertyOp36
 70
     1
102
RTVSPropertyOp37
 70
     1
102
RTVSPropertyOp38
 70
     1
102
RTVSPropertyOp39
 70
     1
102
RTVSPropertyOp40
 70
     1
102
RTVSPropertyOp41
 70
     1
102
RTVSPropertyOp42
 70
     1
102
RTVSPropertyOp43
 70
     1
102
RTVSPropertyOp44
 70
     1
102
RTVSPropertyOp45
 70
     1
102
RTVSPropertyOp46
 70
     1
102
RTVSPropertyOp47
 70
     1
102
RTVSPropertyOp48
 70
     1
102
RTVSPropertyOp49
 70
     1
102
RTVSPropertyOp50
 70
     1
102
RTVSPropertyOp51
 70
     0
102
RTVSPropertyOp52
 70
     0
102
RTVSPropertyOp53
 70
     1
102
RTVSPropertyOp54
 70
     1
102
RTVSPropertyOp55
 70
     1
102
RTVSPropertyOp56
 70
     1
102
RTVSPropertyOp57
 70
     1
102
RTVSPropertyOp58
 70
     1
102
RTVSPropertyOp59
 70
     1
102
RTVSPropertyOp60
 70
     1
102
RTVSPropertyOp61
 70
     1
102
RTVSPropertyOp62
 70
     1
  0
XRECORD
  5
9FB
102
{ACAD_REACTORS
330
9FA
102
}
330
9FA
100
AcDbXrecord
280
     1
102
RTVSPost2010Prop28
280
     0
102
RTVSPost2010PropOp28
 70
     1
102
RTVSPost2010Prop29
280
     1
102
RTVSPost2010PropOp29
 70
     1
102
RTVSPost2010Prop30
280
     1
102
RTVSPost2010PropOp30
 70
     1
102
RTVSPost2010Prop31
280
     0
102
RTVSPost2010PropOp31
 70
     1
102
RTVSPost2010Prop32
280
     0
102
RTVSPost2010PropOp32
 70
     1
102
RTVSPost2010Prop33
280
     0
102
RTVSPost2010PropOp33
 70
     1
102
RTVSPost2010Prop34
280
     0
102
RTVSPost2010PropOp34
 70
     1
102
RTVSPost2010Prop35
280
     0
102
RTVSPost2010PropOp35
 70
     1
102
RTVSPost2010Prop36
280
     0
102
RTVSPost2010PropOp36
 70
     1
102
RTVSPost2010Prop37
 90
       50
102
RTVSPost2010PropOp37
 70
     1
102
RTVSPost2010Prop38
140
0.0
102
RTVSPost2010PropOp38
 70
     1
102
RTVSPost2010Prop39
140
1.0
102
RTVSPost2010PropOp39
 70
     1
102
RTVSPost2010Prop40
 90
        0
102
RTVSPost2010PropOp40
 70
     1
102
RTVSPost2010Prop41ColorIndex
 90
       18
102
RTVSPost2010Prop41ColorRGB
 90
        0
102
RTVSPost2010PropOp41
 70
     1
102
RTVSPost2010Prop42
 90
       50
102
RTVSPost2010PropOp42
 70
     1
102
RTVSPost2010Prop43
 90
        3
102
RTVSPost2010PropOp43
 70
     1
102
RTVSPost2010Prop44ColorIndex
 90
        5
102
RTVSPost2010Prop44ColorRGB
 90
      255
102
RTVSPost2010PropOp44
 70
     1
102
RTVSPost2010Prop45
280
     0
102
RTVSPost2010PropOp45
 70
     1
102
RTVSPost2010Prop46
 90
       50
102
RTVSPost2010PropOp46
 70
     1
102
RTVSPost2010Prop47
 90
       50
102
RTVSPost2010PropOp47
 70
     1
102
RTVSPost2010Prop48
 90
       50
102
RTVSPost2010PropOp48
 70
     1
102
RTVSPost2010Prop49
280
     0
102
RTVSPost2010PropOp49
 70
     1
102
RTVSPost2010Prop50
 90
       50
102
RTVSPost2010PropOp50
 70
     1
102
RTVSPost2010Prop51ColorIndex
 90
      256
102
RTVSPost2010Prop51ColorRGB
 90
-16777216
102
RTVSPost2010PropOp51
 70
     0
102
RTVSPost2010Prop52
140
1.0
102
RTVSPost2010PropOp52
 70
     0
102
RTVSPost2010Prop53
 90
        2
102
RTVSPost2010PropOp53
 70
     1
102
RTVSPost2010Prop54
  1
strokes_ogs.tif
102
RTVSPost2010PropOp54
 70
     1
102
RTVSPost2010Prop55
280
     0
102
RTVSPost2010PropOp55
 70
     1
102
RTVSPost2010Prop56
140
1.0
102
RTVSPost2010PropOp56
 70
     1
102
RTVSPost2010Prop57
140
1.0
102
RTVSPost2010PropOp57
 70
     1
102
RTVSPropertyOp0
 70
     1
102
RTVSPropertyOp1
 70
     1
102
RTVSPropertyOp2
 70
     1
102
RTVSPropertyOp3
 70
     1
102
RTVSPropertyOp4
 70
     1
102
RTVSPropertyOp5
 70
     1
102
RTVSPropertyOp6
 70
     1
102
RTVSPropertyOp7
 70
     1
102
RTVSPropertyOp8
 70
     1
102
RTVSPropertyOp9
 70
     1
102
RTVSPropertyOp10
 70
     1
102
RTVSPropertyOp11
 70
     1
102
RTVSPropertyOp12
 70
     1
102
RTVSPropertyOp13
 70
     1
102
RTVSPropertyOp14
 70
     1
102
RTVSPropertyOp15
 70
     1
102
RTVSPropertyOp16
 70
     1
102
RTVSPropertyOp17
 70
     1
102
RTVSPropertyOp18
 70
     1
102
RTVSPropertyOp19
 70
     1
102
RTVSPropertyOp20
 70
     1
102
RTVSPropertyOp21
 70
     1
102
RTVSPropertyOp22
 70
     1
102
RTVSPropertyOp23
 70
     1
102
RTVSPropertyOp24
 70
     1
102
RTVSPropertyOp25
 70
     1
102
RTVSPropertyOp26
 70
     1
102
RTVSPropertyOp27
 70
     1
102
RTVSPropertyOp28
 70
     1
102
RTVSPropertyOp29
 70
     1
102
RTVSPropertyOp30
 70
     1
102
RTVSPropertyOp31
 70
     1
102
RTVSPropertyOp32
 70
     1
102
RTVSPropertyOp33
 70
     1
102
RTVSPropertyOp34
 70
     1
102
RTVSPropertyOp35
 70
     1
102
RTVSPropertyOp36
 70
     1
102
RTVSPropertyOp37
 70
     1
102
RTVSPropertyOp38
 70
     1
102
RTVSPropertyOp39
 70
     1
102
RTVSPropertyOp40
 70
     1
102
RTVSPropertyOp41
 70
     1
102
RTVSPropertyOp42
 70
     1
102
RTVSPropertyOp43
 70
     1
102
RTVSPropertyOp44
 70
     1
102
RTVSPropertyOp45
 70
     1
102
RTVSPropertyOp46
 70
     1
102
RTVSPropertyOp47
 70
     1
102
RTVSPropertyOp48
 70
     1
102
RTVSPropertyOp49
 70
     1
102
RTVSPropertyOp50
 70
     1
102
RTVSPropertyOp51
 70
     0
102
RTVSPropertyOp52
 70
     0
102
RTVSPropertyOp53
 70
     1
102
RTVSPropertyOp54
 70
     1
102
RTVSPropertyOp55
 70
     1
102
RTVSPropertyOp56
 70
     1
102
RTVSPropertyOp57
 70
     1
102
RTVSPropertyOp58
 70
     1
102
RTVSPropertyOp59
 70
     1
102
RTVSPropertyOp60
 70
     1
102
RTVSPropertyOp61
 70
     1
102
RTVSPropertyOp62
 70
     1
  0
XRECORD
  5
A03
102
{ACAD_REACTORS
330
A02
102
}
330
A02
100
AcDbXrecord
280
     1
102
RTVSPost2010Prop28
280
     0
102
RTVSPost2010PropOp28
 70
     1
102
RTVSPost2010Prop29
280
     1
102
RTVSPost2010PropOp29
 70
     1
102
RTVSPost2010Prop30
280
     1
102
RTVSPost2010PropOp30
 70
     1
102
RTVSPost2010Prop31
280
     0
102
RTVSPost2010PropOp31
 70
     1
102
RTVSPost2010Prop32
280
     0
102
RTVSPost2010PropOp32
 70
     1
102
RTVSPost2010Prop33
280
     0
102
RTVSPost2010PropOp33
 70
     1
102
RTVSPost2010Prop34
280
     0
102
RTVSPost2010PropOp34
 70
     1
102
RTVSPost2010Prop35
280
     0
102
RTVSPost2010PropOp35
 70
     1
102
RTVSPost2010Prop36
280
     0
102
RTVSPost2010PropOp36
 70
     1
102
RTVSPost2010Prop37
 90
       50
102
RTVSPost2010PropOp37
 70
     1
102
RTVSPost2010Prop38
140
0.0
102
RTVSPost2010PropOp38
 70
     1
102
RTVSPost2010Prop39
140
1.0
102
RTVSPost2010PropOp39
 70
     1
102
RTVSPost2010Prop40
 90
        0
102
RTVSPost2010PropOp40
 70
     1
102
RTVSPost2010Prop41ColorIndex
 90
       18
102
RTVSPost2010Prop41ColorRGB
 90
        0
102
RTVSPost2010PropOp41
 70
     1
102
RTVSPost2010Prop42
 90
       50
102
RTVSPost2010PropOp42
 70
     1
102
RTVSPost2010Prop43
 90
        3
102
RTVSPost2010PropOp43
 70
     1
102
RTVSPost2010Prop44ColorIndex
 90
        5
102
RTVSPost2010Prop44ColorRGB
 90
      255
102
RTVSPost2010PropOp44
 70
     1
102
RTVSPost2010Prop45
280
     0
102
RTVSPost2010PropOp45
 70
     1
102
RTVSPost2010Prop46
 90
       50
102
RTVSPost2010PropOp46
 70
     1
102
RTVSPost2010Prop47
 90
       50
102
RTVSPost2010PropOp47
 70
     1
102
RTVSPost2010Prop48
 90
       50
102
RTVSPost2010PropOp48
 70
     1
102
RTVSPost2010Prop49
280
     0
102
RTVSPost2010PropOp49
 70
     1
102
RTVSPost2010Prop50
 90
       50
102
RTVSPost2010PropOp50
 70
     1
102
RTVSPost2010Prop51ColorIndex
 90
      256
102
RTVSPost2010Prop51ColorRGB
 90
-16777216
102
RTVSPost2010PropOp51
 70
     0
102
RTVSPost2010Prop52
140
1.0
102
RTVSPost2010PropOp52
 70
     0
102
RTVSPost2010Prop53
 90
        2
102
RTVSPost2010PropOp53
 70
     1
102
RTVSPost2010Prop54
  1
strokes_ogs.tif
102
RTVSPost2010PropOp54
 70
     1
102
RTVSPost2010Prop55
280
     0
102
RTVSPost2010PropOp55
 70
     1
102
RTVSPost2010Prop56
140
1.0
102
RTVSPost2010PropOp56
 70
     1
102
RTVSPost2010Prop57
140
1.0
102
RTVSPost2010PropOp57
 70
     1
102
RTVSPropertyOp0
 70
     1
102
RTVSPropertyOp1
 70
     1
102
RTVSPropertyOp2
 70
     1
102
RTVSPropertyOp3
 70
     1
102
RTVSPropertyOp4
 70
     1
102
RTVSPropertyOp5
 70
     1
102
RTVSPropertyOp6
 70
     1
102
RTVSPropertyOp7
 70
     1
102
RTVSPropertyOp8
 70
     1
102
RTVSPropertyOp9
 70
     1
102
RTVSPropertyOp10
 70
     1
102
RTVSPropertyOp11
 70
     1
102
RTVSPropertyOp12
 70
     1
102
RTVSPropertyOp13
 70
     1
102
RTVSPropertyOp14
 70
     1
102
RTVSPropertyOp15
 70
     1
102
RTVSPropertyOp16
 70
     1
102
RTVSPropertyOp17
 70
     1
102
RTVSPropertyOp18
 70
     1
102
RTVSPropertyOp19
 70
     1
102
RTVSPropertyOp20
 70
     1
102
RTVSPropertyOp21
 70
     1
102
RTVSPropertyOp22
 70
     1
102
RTVSPropertyOp23
 70
     1
102
RTVSPropertyOp24
 70
     1
102
RTVSPropertyOp25
 70
     1
102
RTVSPropertyOp26
 70
     1
102
RTVSPropertyOp27
 70
     1
102
RTVSPropertyOp28
 70
     1
102
RTVSPropertyOp29
 70
     1
102
RTVSPropertyOp30
 70
     1
102
RTVSPropertyOp31
 70
     1
102
RTVSPropertyOp32
 70
     1
102
RTVSPropertyOp33
 70
     1
102
RTVSPropertyOp34
 70
     1
102
RTVSPropertyOp35
 70
     1
102
RTVSPropertyOp36
 70
     1
102
RTVSPropertyOp37
 70
     1
102
RTVSPropertyOp38
 70
     1
102
RTVSPropertyOp39
 70
     1
102
RTVSPropertyOp40
 70
     1
102
RTVSPropertyOp41
 70
     1
102
RTVSPropertyOp42
 70
     1
102
RTVSPropertyOp43
 70
     1
102
RTVSPropertyOp44
 70
     1
102
RTVSPropertyOp45
 70
     1
102
RTVSPropertyOp46
 70
     1
102
RTVSPropertyOp47
 70
     1
102
RTVSPropertyOp48
 70
     1
102
RTVSPropertyOp49
 70
     1
102
RTVSPropertyOp50
 70
     1
102
RTVSPropertyOp51
 70
     0
102
RTVSPropertyOp52
 70
     0
102
RTVSPropertyOp53
 70
     1
102
RTVSPropertyOp54
 70
     1
102
RTVSPropertyOp55
 70
     1
102
RTVSPropertyOp56
 70
     1
102
RTVSPropertyOp57
 70
     1
102
RTVSPropertyOp58
 70
     1
102
RTVSPropertyOp59
 70
     1
102
RTVSPropertyOp60
 70
     1
102
RTVSPropertyOp61
 70
     1
102
RTVSPropertyOp62
 70
     1
  0
XRECORD
  5
A15
102
{ACAD_REACTORS
330
A14
102
}
330
A14
100
AcDbXrecord
280
     1
102
RTVSPost2010Prop28
280
     0
102
RTVSPost2010PropOp28
 70
     1
102
RTVSPost2010Prop29
280
     1
102
RTVSPost2010PropOp29
 70
     1
102
RTVSPost2010Prop30
280
     1
102
RTVSPost2010PropOp30
 70
     1
102
RTVSPost2010Prop31
280
     0
102
RTVSPost2010PropOp31
 70
     1
102
RTVSPost2010Prop32
280
     0
102
RTVSPost2010PropOp32
 70
     1
102
RTVSPost2010Prop33
280
     0
102
RTVSPost2010PropOp33
 70
     1
102
RTVSPost2010Prop34
280
     0
102
RTVSPost2010PropOp34
 70
     1
102
RTVSPost2010Prop35
280
     0
102
RTVSPost2010PropOp35
 70
     1
102
RTVSPost2010Prop36
280
     0
102
RTVSPost2010PropOp36
 70
     1
102
RTVSPost2010Prop37
 90
       50
102
RTVSPost2010PropOp37
 70
     1
102
RTVSPost2010Prop38
140
0.0
102
RTVSPost2010PropOp38
 70
     1
102
RTVSPost2010Prop39
140
1.0
102
RTVSPost2010PropOp39
 70
     1
102
RTVSPost2010Prop40
 90
        0
102
RTVSPost2010PropOp40
 70
     1
102
RTVSPost2010Prop41ColorIndex
 90
       18
102
RTVSPost2010Prop41ColorRGB
 90
        0
102
RTVSPost2010PropOp41
 70
     1
102
RTVSPost2010Prop42
 90
       50
102
RTVSPost2010PropOp42
 70
     1
102
RTVSPost2010Prop43
 90
        3
102
RTVSPost2010PropOp43
 70
     1
102
RTVSPost2010Prop44ColorIndex
 90
        5
102
RTVSPost2010Prop44ColorRGB
 90
      255
102
RTVSPost2010PropOp44
 70
     1
102
RTVSPost2010Prop45
280
     0
102
RTVSPost2010PropOp45
 70
     1
102
RTVSPost2010Prop46
 90
       50
102
RTVSPost2010PropOp46
 70
     1
102
RTVSPost2010Prop47
 90
       50
102
RTVSPost2010PropOp47
 70
     1
102
RTVSPost2010Prop48
 90
       50
102
RTVSPost2010PropOp48
 70
     1
102
RTVSPost2010Prop49
280
     0
102
RTVSPost2010PropOp49
 70
     1
102
RTVSPost2010Prop50
 90
       50
102
RTVSPost2010PropOp50
 70
     1
102
RTVSPost2010Prop51ColorIndex
 90
      256
102
RTVSPost2010Prop51ColorRGB
 90
-16777216
102
RTVSPost2010PropOp51
 70
     0
102
RTVSPost2010Prop52
140
1.0
102
RTVSPost2010PropOp52
 70
     0
102
RTVSPost2010Prop53
 90
        2
102
RTVSPost2010PropOp53
 70
     1
102
RTVSPost2010Prop54
  1
strokes_ogs.tif
102
RTVSPost2010PropOp54
 70
     1
102
RTVSPost2010Prop55
280
     0
102
RTVSPost2010PropOp55
 70
     1
102
RTVSPost2010Prop56
140
1.0
102
RTVSPost2010PropOp56
 70
     1
102
RTVSPost2010Prop57
140
1.0
102
RTVSPost2010PropOp57
 70
     1
102
RTVSPropertyOp0
 70
     0
102
RTVSPropertyOp1
 70
     0
102
RTVSPropertyOp2
 70
     0
102
RTVSPropertyOp3
 70
     0
102
RTVSPropertyOp4
 70
     0
102
RTVSPropertyOp5
 70
     0
102
RTVSPropertyOp6
 70
     0
102
RTVSPropertyOp7
 70
     0
102
RTVSPropertyOp8
 70
     0
102
RTVSPropertyOp9
 70
     0
102
RTVSPropertyOp10
 70
     0
102
RTVSPropertyOp11
 70
     0
102
RTVSPropertyOp12
 70
     0
102
RTVSPropertyOp13
 70
     0
102
RTVSPropertyOp14
 70
     2
102
RTVSPropertyOp15
 70
     0
102
RTVSPropertyOp16
 70
     0
102
RTVSPropertyOp17
 70
     0
102
RTVSPropertyOp18
 70
     0
102
RTVSPropertyOp19
 70
     0
102
RTVSPropertyOp20
 70
     0
102
RTVSPropertyOp21
 70
     0
102
RTVSPropertyOp22
 70
     0
102
RTVSPropertyOp23
 70
     0
102
RTVSPropertyOp24
 70
     0
102
RTVSPropertyOp25
 70
     0
102
RTVSPropertyOp26
 70
     0
102
RTVSPropertyOp27
 70
     0
102
RTVSPropertyOp28
 70
     1
102
RTVSPropertyOp29
 70
     1
102
RTVSPropertyOp30
 70
     1
102
RTVSPropertyOp31
 70
     1
102
RTVSPropertyOp32
 70
     1
102
RTVSPropertyOp33
 70
     1
102
RTVSPropertyOp34
 70
     1
102
RTVSPropertyOp35
 70
     1
102
RTVSPropertyOp36
 70
     1
102
RTVSPropertyOp37
 70
     1
102
RTVSPropertyOp38
 70
     1
102
RTVSPropertyOp39
 70
     1
102
RTVSPropertyOp40
 70
     1
102
RTVSPropertyOp41
 70
     1
102
RTVSPropertyOp42
 70
     1
102
RTVSPropertyOp43
 70
     1
102
RTVSPropertyOp44
 70
     1
102
RTVSPropertyOp45
 70
     1
102
RTVSPropertyOp46
 70
     1
102
RTVSPropertyOp47
 70
     1
102
RTVSPropertyOp48
 70
     1
102
RTVSPropertyOp49
 70
     1
102
RTVSPropertyOp50
 70
     1
102
RTVSPropertyOp51
 70
     0
102
RTVSPropertyOp52
 70
     0
102
RTVSPropertyOp53
 70
     1
102
RTVSPropertyOp54
 70
     1
102
RTVSPropertyOp55
 70
     1
102
RTVSPropertyOp56
 70
     1
102
RTVSPropertyOp57
 70
     1
102
RTVSPropertyOp58
 70
     1
102
RTVSPropertyOp59
 70
     1
102
RTVSPropertyOp60
 70
     1
102
RTVSPropertyOp61
 70
     1
102
RTVSPropertyOp62
 70
     1
  0
XRECORD
  5
A0F
102
{ACAD_REACTORS
330
A0E
102
}
330
A0E
100
AcDbXrecord
280
     1
102
RTVSPost2010Prop28
280
     0
102
RTVSPost2010PropOp28
 70
     1
102
RTVSPost2010Prop29
280
     1
102
RTVSPost2010PropOp29
 70
     1
102
RTVSPost2010Prop30
280
     1
102
RTVSPost2010PropOp30
 70
     1
102
RTVSPost2010Prop31
280
     0
102
RTVSPost2010PropOp31
 70
     1
102
RTVSPost2010Prop32
280
     0
102
RTVSPost2010PropOp32
 70
     1
102
RTVSPost2010Prop33
280
     0
102
RTVSPost2010PropOp33
 70
     1
102
RTVSPost2010Prop34
280
     0
102
RTVSPost2010PropOp34
 70
     1
102
RTVSPost2010Prop35
280
     0
102
RTVSPost2010PropOp35
 70
     1
102
RTVSPost2010Prop36
280
     0
102
RTVSPost2010PropOp36
 70
     1
102
RTVSPost2010Prop37
 90
       50
102
RTVSPost2010PropOp37
 70
     1
102
RTVSPost2010Prop38
140
0.0
102
RTVSPost2010PropOp38
 70
     1
102
RTVSPost2010Prop39
140
1.0
102
RTVSPost2010PropOp39
 70
     1
102
RTVSPost2010Prop40
 90
        0
102
RTVSPost2010PropOp40
 70
     1
102
RTVSPost2010Prop41ColorIndex
 90
       18
102
RTVSPost2010Prop41ColorRGB
 90
        0
102
RTVSPost2010PropOp41
 70
     1
102
RTVSPost2010Prop42
 90
       50
102
RTVSPost2010PropOp42
 70
     1
102
RTVSPost2010Prop43
 90
        3
102
RTVSPost2010PropOp43
 70
     1
102
RTVSPost2010Prop44ColorIndex
 90
        5
102
RTVSPost2010Prop44ColorRGB
 90
      255
102
RTVSPost2010PropOp44
 70
     1
102
RTVSPost2010Prop45
280
     0
102
RTVSPost2010PropOp45
 70
     1
102
RTVSPost2010Prop46
 90
       50
102
RTVSPost2010PropOp46
 70
     1
102
RTVSPost2010Prop47
 90
       50
102
RTVSPost2010PropOp47
 70
     1
102
RTVSPost2010Prop48
 90
       50
102
RTVSPost2010PropOp48
 70
     1
102
RTVSPost2010Prop49
280
     0
102
RTVSPost2010PropOp49
 70
     1
102
RTVSPost2010Prop50
 90
       50
102
RTVSPost2010PropOp50
 70
     1
102
RTVSPost2010Prop51ColorIndex
 90
      256
102
RTVSPost2010Prop51ColorRGB
 90
-16777216
102
RTVSPost2010PropOp51
 70
     0
102
RTVSPost2010Prop52
140
1.0
102
RTVSPost2010PropOp52
 70
     0
102
RTVSPost2010Prop53
 90
        2
102
RTVSPost2010PropOp53
 70
     1
102
RTVSPost2010Prop54
  1
strokes_ogs.tif
102
RTVSPost2010PropOp54
 70
     1
102
RTVSPost2010Prop55
280
     0
102
RTVSPost2010PropOp55
 70
     1
102
RTVSPost2010Prop56
140
1.0
102
RTVSPost2010PropOp56
 70
     1
102
RTVSPost2010Prop57
140
1.0
102
RTVSPost2010PropOp57
 70
     1
102
RTVSPropertyOp0
 70
     1
102
RTVSPropertyOp1
 70
     1
102
RTVSPropertyOp2
 70
     1
102
RTVSPropertyOp3
 70
     1
102
RTVSPropertyOp4
 70
     1
102
RTVSPropertyOp5
 70
     1
102
RTVSPropertyOp6
 70
     1
102
RTVSPropertyOp7
 70
     1
102
RTVSPropertyOp8
 70
     1
102
RTVSPropertyOp9
 70
     1
102
RTVSPropertyOp10
 70
     1
102
RTVSPropertyOp11
 70
     1
102
RTVSPropertyOp12
 70
     1
102
RTVSPropertyOp13
 70
     1
102
RTVSPropertyOp14
 70
     1
102
RTVSPropertyOp15
 70
     1
102
RTVSPropertyOp16
 70
     1
102
RTVSPropertyOp17
 70
     1
102
RTVSPropertyOp18
 70
     1
102
RTVSPropertyOp19
 70
     1
102
RTVSPropertyOp20
 70
     1
102
RTVSPropertyOp21
 70
     1
102
RTVSPropertyOp22
 70
     1
102
RTVSPropertyOp23
 70
     1
102
RTVSPropertyOp24
 70
     1
102
RTVSPropertyOp25
 70
     1
102
RTVSPropertyOp26
 70
     1
102
RTVSPropertyOp27
 70
     1
102
RTVSPropertyOp28
 70
     1
102
RTVSPropertyOp29
 70
     1
102
RTVSPropertyOp30
 70
     1
102
RTVSPropertyOp31
 70
     1
102
RTVSPropertyOp32
 70
     1
102
RTVSPropertyOp33
 70
     1
102
RTVSPropertyOp34
 70
     1
102
RTVSPropertyOp35
 70
     1
102
RTVSPropertyOp36
 70
     1
102
RTVSPropertyOp37
 70
     1
102
RTVSPropertyOp38
 70
     1
102
RTVSPropertyOp39
 70
     1
102
RTVSPropertyOp40
 70
     1
102
RTVSPropertyOp41
 70
     1
102
RTVSPropertyOp42
 70
     1
102
RTVSPropertyOp43
 70
     1
102
RTVSPropertyOp44
 70
     1
102
RTVSPropertyOp45
 70
     1
102
RTVSPropertyOp46
 70
     1
102
RTVSPropertyOp47
 70
     1
102
RTVSPropertyOp48
 70
     1
102
RTVSPropertyOp49
 70
     1
102
RTVSPropertyOp50
 70
     1
102
RTVSPropertyOp51
 70
     0
102
RTVSPropertyOp52
 70
     0
102
RTVSPropertyOp53
 70
     1
102
RTVSPropertyOp54
 70
     1
102
RTVSPropertyOp55
 70
     1
102
RTVSPropertyOp56
 70
     1
102
RTVSPropertyOp57
 70
     1
102
RTVSPropertyOp58
 70
     1
102
RTVSPropertyOp59
 70
     1
102
RTVSPropertyOp60
 70
     1
102
RTVSPropertyOp61
 70
     1
102
RTVSPropertyOp62
 70
     1
  0
XRECORD
  5
A17
102
{ACAD_REACTORS
330
A16
102
}
330
A16
100
AcDbXrecord
280
     1
102
RTVSPost2010Prop28
280
     0
102
RTVSPost2010PropOp28
 70
     1
102
RTVSPost2010Prop29
280
     1
102
RTVSPost2010PropOp29
 70
     1
102
RTVSPost2010Prop30
280
     1
102
RTVSPost2010PropOp30
 70
     1
102
RTVSPost2010Prop31
280
     0
102
RTVSPost2010PropOp31
 70
     1
102
RTVSPost2010Prop32
280
     0
102
RTVSPost2010PropOp32
 70
     1
102
RTVSPost2010Prop33
280
     0
102
RTVSPost2010PropOp33
 70
     1
102
RTVSPost2010Prop34
280
     0
102
RTVSPost2010PropOp34
 70
     1
102
RTVSPost2010Prop35
280
     0
102
RTVSPost2010PropOp35
 70
     1
102
RTVSPost2010Prop36
280
     0
102
RTVSPost2010PropOp36
 70
     1
102
RTVSPost2010Prop37
 90
       50
102
RTVSPost2010PropOp37
 70
     1
102
RTVSPost2010Prop38
140
0.0
102
RTVSPost2010PropOp38
 70
     1
102
RTVSPost2010Prop39
140
1.0
102
RTVSPost2010PropOp39
 70
     1
102
RTVSPost2010Prop40
 90
        0
102
RTVSPost2010PropOp40
 70
     1
102
RTVSPost2010Prop41ColorIndex
 90
       18
102
RTVSPost2010Prop41ColorRGB
 90
        0
102
RTVSPost2010PropOp41
 70
     1
102
RTVSPost2010Prop42
 90
       50
102
RTVSPost2010PropOp42
 70
     1
102
RTVSPost2010Prop43
 90
        3
102
RTVSPost2010PropOp43
 70
     1
102
RTVSPost2010Prop44ColorIndex
 90
        5
102
RTVSPost2010Prop44ColorRGB
 90
      255
102
RTVSPost2010PropOp44
 70
     1
102
RTVSPost2010Prop45
280
     0
102
RTVSPost2010PropOp45
 70
     1
102
RTVSPost2010Prop46
 90
       50
102
RTVSPost2010PropOp46
 70
     1
102
RTVSPost2010Prop47
 90
       50
102
RTVSPost2010PropOp47
 70
     1
102
RTVSPost2010Prop48
 90
       50
102
RTVSPost2010PropOp48
 70
     1
102
RTVSPost2010Prop49
280
     0
102
RTVSPost2010PropOp49
 70
     1
102
RTVSPost2010Prop50
 90
       50
102
RTVSPost2010PropOp50
 70
     1
102
RTVSPost2010Prop51ColorIndex
 90
      256
102
RTVSPost2010Prop51ColorRGB
 90
-16777216
102
RTVSPost2010PropOp51
 70
     0
102
RTVSPost2010Prop52
140
1.0
102
RTVSPost2010PropOp52
 70
     0
102
RTVSPost2010Prop53
 90
        2
102
RTVSPost2010PropOp53
 70
     1
102
RTVSPost2010Prop54
  1
strokes_ogs.tif
102
RTVSPost2010PropOp54
 70
     1
102
RTVSPost2010Prop55
280
     0
102
RTVSPost2010PropOp55
 70
     1
102
RTVSPost2010Prop56
140
1.0
102
RTVSPost2010PropOp56
 70
     1
102
RTVSPost2010Prop57
140
1.0
102
RTVSPost2010PropOp57
 70
     1
102
RTVSPropertyOp0
 70
     0
102
RTVSPropertyOp1
 70
     0
102
RTVSPropertyOp2
 70
     0
102
RTVSPropertyOp3
 70
     0
102
RTVSPropertyOp4
 70
     0
102
RTVSPropertyOp5
 70
     0
102
RTVSPropertyOp6
 70
     0
102
RTVSPropertyOp7
 70
     0
102
RTVSPropertyOp8
 70
     0
102
RTVSPropertyOp9
 70
     0
102
RTVSPropertyOp10
 70
     0
102
RTVSPropertyOp11
 70
     0
102
RTVSPropertyOp12
 70
     0
102
RTVSPropertyOp13
 70
     0
102
RTVSPropertyOp14
 70
     2
102
RTVSPropertyOp15
 70
     0
102
RTVSPropertyOp16
 70
     0
102
RTVSPropertyOp17
 70
     0
102
RTVSPropertyOp18
 70
     0
102
RTVSPropertyOp19
 70
     0
102
RTVSPropertyOp20
 70
     0
102
RTVSPropertyOp21
 70
     0
102
RTVSPropertyOp22
 70
     0
102
RTVSPropertyOp23
 70
     0
102
RTVSPropertyOp24
 70
     0
102
RTVSPropertyOp25
 70
     0
102
RTVSPropertyOp26
 70
     0
102
RTVSPropertyOp27
 70
     0
102
RTVSPropertyOp28
 70
     1
102
RTVSPropertyOp29
 70
     1
102
RTVSPropertyOp30
 70
     1
102
RTVSPropertyOp31
 70
     1
102
RTVSPropertyOp32
 70
     1
102
RTVSPropertyOp33
 70
     1
102
RTVSPropertyOp34
 70
     1
102
RTVSPropertyOp35
 70
     1
102
RTVSPropertyOp36
 70
     1
102
RTVSPropertyOp37
 70
     1
102
RTVSPropertyOp38
 70
     1
102
RTVSPropertyOp39
 70
     1
102
RTVSPropertyOp40
 70
     1
102
RTVSPropertyOp41
 70
     1
102
RTVSPropertyOp42
 70
     1
102
RTVSPropertyOp43
 70
     1
102
RTVSPropertyOp44
 70
     1
102
RTVSPropertyOp45
 70
     1
102
RTVSPropertyOp46
 70
     1
102
RTVSPropertyOp47
 70
     1
102
RTVSPropertyOp48
 70
     1
102
RTVSPropertyOp49
 70
     1
102
RTVSPropertyOp50
 70
     1
102
RTVSPropertyOp51
 70
     0
102
RTVSPropertyOp52
 70
     0
102
RTVSPropertyOp53
 70
     1
102
RTVSPropertyOp54
 70
     1
102
RTVSPropertyOp55
 70
     1
102
RTVSPropertyOp56
 70
     1
102
RTVSPropertyOp57
 70
     1
102
RTVSPropertyOp58
 70
     1
102
RTVSPropertyOp59
 70
     1
102
RTVSPropertyOp60
 70
     1
102
RTVSPropertyOp61
 70
     1
102
RTVSPropertyOp62
 70
     1
  0
XRECORD
  5
A07
102
{ACAD_REACTORS
330
A06
102
}
330
A06
100
AcDbXrecord
280
     1
102
RTVSPost2010Prop28
280
     0
102
RTVSPost2010PropOp28
 70
     1
102
RTVSPost2010Prop29
280
     1
102
RTVSPost2010PropOp29
 70
     1
102
RTVSPost2010Prop30
280
     1
102
RTVSPost2010PropOp30
 70
     1
102
RTVSPost2010Prop31
280
     0
102
RTVSPost2010PropOp31
 70
     1
102
RTVSPost2010Prop32
280
     0
102
RTVSPost2010PropOp32
 70
     1
102
RTVSPost2010Prop33
280
     0
102
RTVSPost2010PropOp33
 70
     1
102
RTVSPost2010Prop34
280
     0
102
RTVSPost2010PropOp34
 70
     1
102
RTVSPost2010Prop35
280
     0
102
RTVSPost2010PropOp35
 70
     1
102
RTVSPost2010Prop36
280
     0
102
RTVSPost2010PropOp36
 70
     1
102
RTVSPost2010Prop37
 90
       50
102
RTVSPost2010PropOp37
 70
     1
102
RTVSPost2010Prop38
140
0.0
102
RTVSPost2010PropOp38
 70
     1
102
RTVSPost2010Prop39
140
1.0
102
RTVSPost2010PropOp39
 70
     1
102
RTVSPost2010Prop40
 90
        0
102
RTVSPost2010PropOp40
 70
     1
102
RTVSPost2010Prop41ColorIndex
 90
       18
102
RTVSPost2010Prop41ColorRGB
 90
        0
102
RTVSPost2010PropOp41
 70
     1
102
RTVSPost2010Prop42
 90
       50
102
RTVSPost2010PropOp42
 70
     1
102
RTVSPost2010Prop43
 90
        3
102
RTVSPost2010PropOp43
 70
     1
102
RTVSPost2010Prop44ColorIndex
 90
        5
102
RTVSPost2010Prop44ColorRGB
 90
      255
102
RTVSPost2010PropOp44
 70
     1
102
RTVSPost2010Prop45
280
     0
102
RTVSPost2010PropOp45
 70
     1
102
RTVSPost2010Prop46
 90
       50
102
RTVSPost2010PropOp46
 70
     1
102
RTVSPost2010Prop47
 90
       50
102
RTVSPost2010PropOp47
 70
     1
102
RTVSPost2010Prop48
 90
       50
102
RTVSPost2010PropOp48
 70
     1
102
RTVSPost2010Prop49
280
     0
102
RTVSPost2010PropOp49
 70
     1
102
RTVSPost2010Prop50
 90
       50
102
RTVSPost2010PropOp50
 70
     1
102
RTVSPost2010Prop51ColorIndex
 90
      256
102
RTVSPost2010Prop51ColorRGB
 90
-16777216
102
RTVSPost2010PropOp51
 70
     0
102
RTVSPost2010Prop52
140
1.0
102
RTVSPost2010PropOp52
 70
     0
102
RTVSPost2010Prop53
 90
        2
102
RTVSPost2010PropOp53
 70
     1
102
RTVSPost2010Prop54
  1
strokes_ogs.tif
102
RTVSPost2010PropOp54
 70
     1
102
RTVSPost2010Prop55
280
     0
102
RTVSPost2010PropOp55
 70
     1
102
RTVSPost2010Prop56
140
1.0
102
RTVSPost2010PropOp56
 70
     1
102
RTVSPost2010Prop57
140
1.0
102
RTVSPost2010PropOp57
 70
     1
102
RTVSPropertyOp0
 70
     1
102
RTVSPropertyOp1
 70
     1
102
RTVSPropertyOp2
 70
     1
102
RTVSPropertyOp3
 70
     1
102
RTVSPropertyOp4
 70
     1
102
RTVSPropertyOp5
 70
     1
102
RTVSPropertyOp6
 70
     1
102
RTVSPropertyOp7
 70
     1
102
RTVSPropertyOp8
 70
     1
102
RTVSPropertyOp9
 70
     1
102
RTVSPropertyOp10
 70
     1
102
RTVSPropertyOp11
 70
     1
102
RTVSPropertyOp12
 70
     1
102
RTVSPropertyOp13
 70
     1
102
RTVSPropertyOp14
 70
     1
102
RTVSPropertyOp15
 70
     1
102
RTVSPropertyOp16
 70
     1
102
RTVSPropertyOp17
 70
     1
102
RTVSPropertyOp18
 70
     1
102
RTVSPropertyOp19
 70
     1
102
RTVSPropertyOp20
 70
     1
102
RTVSPropertyOp21
 70
     1
102
RTVSPropertyOp22
 70
     1
102
RTVSPropertyOp23
 70
     1
102
RTVSPropertyOp24
 70
     1
102
RTVSPropertyOp25
 70
     1
102
RTVSPropertyOp26
 70
     1
102
RTVSPropertyOp27
 70
     1
102
RTVSPropertyOp28
 70
     1
102
RTVSPropertyOp29
 70
     1
102
RTVSPropertyOp30
 70
     1
102
RTVSPropertyOp31
 70
     1
102
RTVSPropertyOp32
 70
     1
102
RTVSPropertyOp33
 70
     1
102
RTVSPropertyOp34
 70
     1
102
RTVSPropertyOp35
 70
     1
102
RTVSPropertyOp36
 70
     1
102
RTVSPropertyOp37
 70
     1
102
RTVSPropertyOp38
 70
     1
102
RTVSPropertyOp39
 70
     1
102
RTVSPropertyOp40
 70
     1
102
RTVSPropertyOp41
 70
     1
102
RTVSPropertyOp42
 70
     1
102
RTVSPropertyOp43
 70
     1
102
RTVSPropertyOp44
 70
     1
102
RTVSPropertyOp45
 70
     1
102
RTVSPropertyOp46
 70
     1
102
RTVSPropertyOp47
 70
     1
102
RTVSPropertyOp48
 70
     1
102
RTVSPropertyOp49
 70
     1
102
RTVSPropertyOp50
 70
     1
102
RTVSPropertyOp51
 70
     0
102
RTVSPropertyOp52
 70
     0
102
RTVSPropertyOp53
 70
     1
102
RTVSPropertyOp54
 70
     1
102
RTVSPropertyOp55
 70
     1
102
RTVSPropertyOp56
 70
     1
102
RTVSPropertyOp57
 70
     1
102
RTVSPropertyOp58
 70
     1
102
RTVSPropertyOp59
 70
     1
102
RTVSPropertyOp60
 70
     1
102
RTVSPropertyOp61
 70
     1
102
RTVSPropertyOp62
 70
     1
  0
XRECORD
  5
A23
102
{ACAD_REACTORS
330
A22
102
}
330
A22
100
AcDbXrecord
280
     1
102
RTVSPost2010Prop28
280
     0
102
RTVSPost2010PropOp28
 70
     1
102
RTVSPost2010Prop29
280
     1
102
RTVSPost2010PropOp29
 70
     1
102
RTVSPost2010Prop30
280
     1
102
RTVSPost2010PropOp30
 70
     1
102
RTVSPost2010Prop31
280
     0
102
RTVSPost2010PropOp31
 70
     1
102
RTVSPost2010Prop32
280
     0
102
RTVSPost2010PropOp32
 70
     1
102
RTVSPost2010Prop33
280
     0
102
RTVSPost2010PropOp33
 70
     1
102
RTVSPost2010Prop34
280
     0
102
RTVSPost2010PropOp34
 70
     1
102
RTVSPost2010Prop35
280
     0
102
RTVSPost2010PropOp35
 70
     1
102
RTVSPost2010Prop36
280
     0
102
RTVSPost2010PropOp36
 70
     1
102
RTVSPost2010Prop37
 90
       50
102
RTVSPost2010PropOp37
 70
     1
102
RTVSPost2010Prop38
140
0.0
102
RTVSPost2010PropOp38
 70
     1
102
RTVSPost2010Prop39
140
1.0
102
RTVSPost2010PropOp39
 70
     1
102
RTVSPost2010Prop40
 90
        0
102
RTVSPost2010PropOp40
 70
     1
102
RTVSPost2010Prop41ColorIndex
 90
       18
102
RTVSPost2010Prop41ColorRGB
 90
        0
102
RTVSPost2010PropOp41
 70
     1
102
RTVSPost2010Prop42
 90
       50
102
RTVSPost2010PropOp42
 70
     1
102
RTVSPost2010Prop43
 90
        3
102
RTVSPost2010PropOp43
 70
     1
102
RTVSPost2010Prop44ColorIndex
 90
        5
102
RTVSPost2010Prop44ColorRGB
 90
      255
102
RTVSPost2010PropOp44
 70
     1
102
RTVSPost2010Prop45
280
     0
102
RTVSPost2010PropOp45
 70
     1
102
RTVSPost2010Prop46
 90
       50
102
RTVSPost2010PropOp46
 70
     1
102
RTVSPost2010Prop47
 90
       50
102
RTVSPost2010PropOp47
 70
     1
102
RTVSPost2010Prop48
 90
       50
102
RTVSPost2010PropOp48
 70
     1
102
RTVSPost2010Prop49
280
     0
102
RTVSPost2010PropOp49
 70
     1
102
RTVSPost2010Prop50
 90
       50
102
RTVSPost2010PropOp50
 70
     1
102
RTVSPost2010Prop51ColorIndex
 90
      256
102
RTVSPost2010Prop51ColorRGB
 90
-16777216
102
RTVSPost2010PropOp51
 70
     0
102
RTVSPost2010Prop52
140
1.0
102
RTVSPost2010PropOp52
 70
     0
102
RTVSPost2010Prop53
 90
        2
102
RTVSPost2010PropOp53
 70
     1
102
RTVSPost2010Prop54
  1
strokes_ogs.tif
102
RTVSPost2010PropOp54
 70
     1
102
RTVSPost2010Prop55
280
     0
102
RTVSPost2010PropOp55
 70
     1
102
RTVSPost2010Prop56
140
1.0
102
RTVSPost2010PropOp56
 70
     1
102
RTVSPost2010Prop57
140
1.0
102
RTVSPost2010PropOp57
 70
     1
102
RTVSPropertyOp0
 70
     1
102
RTVSPropertyOp1
 70
     1
102
RTVSPropertyOp2
 70
     1
102
RTVSPropertyOp3
 70
     1
102
RTVSPropertyOp4
 70
     1
102
RTVSPropertyOp5
 70
     1
102
RTVSPropertyOp6
 70
     1
102
RTVSPropertyOp7
 70
     1
102
RTVSPropertyOp8
 70
     1
102
RTVSPropertyOp9
 70
     1
102
RTVSPropertyOp10
 70
     1
102
RTVSPropertyOp11
 70
     1
102
RTVSPropertyOp12
 70
     1
102
RTVSPropertyOp13
 70
     1
102
RTVSPropertyOp14
 70
     1
102
RTVSPropertyOp15
 70
     1
102
RTVSPropertyOp16
 70
     1
102
RTVSPropertyOp17
 70
     1
102
RTVSPropertyOp18
 70
     1
102
RTVSPropertyOp19
 70
     1
102
RTVSPropertyOp20
 70
     1
102
RTVSPropertyOp21
 70
     1
102
RTVSPropertyOp22
 70
     1
102
RTVSPropertyOp23
 70
     1
102
RTVSPropertyOp24
 70
     1
102
RTVSPropertyOp25
 70
     1
102
RTVSPropertyOp26
 70
     1
102
RTVSPropertyOp27
 70
     1
102
RTVSPropertyOp28
 70
     1
102
RTVSPropertyOp29
 70
     1
102
RTVSPropertyOp30
 70
     1
102
RTVSPropertyOp31
 70
     1
102
RTVSPropertyOp32
 70
     1
102
RTVSPropertyOp33
 70
     1
102
RTVSPropertyOp34
 70
     1
102
RTVSPropertyOp35
 70
     1
102
RTVSPropertyOp36
 70
     1
102
RTVSPropertyOp37
 70
     1
102
RTVSPropertyOp38
 70
     1
102
RTVSPropertyOp39
 70
     1
102
RTVSPropertyOp40
 70
     1
102
RTVSPropertyOp41
 70
     1
102
RTVSPropertyOp42
 70
     1
102
RTVSPropertyOp43
 70
     1
102
RTVSPropertyOp44
 70
     1
102
RTVSPropertyOp45
 70
     1
102
RTVSPropertyOp46
 70
     1
102
RTVSPropertyOp47
 70
     1
102
RTVSPropertyOp48
 70
     1
102
RTVSPropertyOp49
 70
     1
102
RTVSPropertyOp50
 70
     1
102
RTVSPropertyOp51
 70
     0
102
RTVSPropertyOp52
 70
     0
102
RTVSPropertyOp53
 70
     1
102
RTVSPropertyOp54
 70
     1
102
RTVSPropertyOp55
 70
     1
102
RTVSPropertyOp56
 70
     1
102
RTVSPropertyOp57
 70
     1
102
RTVSPropertyOp58
 70
     1
102
RTVSPropertyOp59
 70
     1
102
RTVSPropertyOp60
 70
     1
102
RTVSPropertyOp61
 70
     1
102
RTVSPropertyOp62
 70
     1
  0
XRECORD
  5
A21
102
{ACAD_REACTORS
330
A20
102
}
330
A20
100
AcDbXrecord
280
     1
102
RTVSPost2010Prop28
280
     0
102
RTVSPost2010PropOp28
 70
     1
102
RTVSPost2010Prop29
280
     1
102
RTVSPost2010PropOp29
 70
     1
102
RTVSPost2010Prop30
280
     1
102
RTVSPost2010PropOp30
 70
     1
102
RTVSPost2010Prop31
280
     0
102
RTVSPost2010PropOp31
 70
     1
102
RTVSPost2010Prop32
280
     0
102
RTVSPost2010PropOp32
 70
     1
102
RTVSPost2010Prop33
280
     0
102
RTVSPost2010PropOp33
 70
     1
102
RTVSPost2010Prop34
280
     0
102
RTVSPost2010PropOp34
 70
     1
102
RTVSPost2010Prop35
280
     0
102
RTVSPost2010PropOp35
 70
     1
102
RTVSPost2010Prop36
280
     0
102
RTVSPost2010PropOp36
 70
     1
102
RTVSPost2010Prop37
 90
       50
102
RTVSPost2010PropOp37
 70
     1
102
RTVSPost2010Prop38
140
0.0
102
RTVSPost2010PropOp38
 70
     1
102
RTVSPost2010Prop39
140
1.0
102
RTVSPost2010PropOp39
 70
     1
102
RTVSPost2010Prop40
 90
        0
102
RTVSPost2010PropOp40
 70
     1
102
RTVSPost2010Prop41ColorIndex
 90
       18
102
RTVSPost2010Prop41ColorRGB
 90
        0
102
RTVSPost2010PropOp41
 70
     1
102
RTVSPost2010Prop42
 90
       50
102
RTVSPost2010PropOp42
 70
     1
102
RTVSPost2010Prop43
 90
        3
102
RTVSPost2010PropOp43
 70
     1
102
RTVSPost2010Prop44ColorIndex
 90
        5
102
RTVSPost2010Prop44ColorRGB
 90
      255
102
RTVSPost2010PropOp44
 70
     1
102
RTVSPost2010Prop45
280
     0
102
RTVSPost2010PropOp45
 70
     1
102
RTVSPost2010Prop46
 90
       50
102
RTVSPost2010PropOp46
 70
     1
102
RTVSPost2010Prop47
 90
       50
102
RTVSPost2010PropOp47
 70
     1
102
RTVSPost2010Prop48
 90
       50
102
RTVSPost2010PropOp48
 70
     1
102
RTVSPost2010Prop49
280
     0
102
RTVSPost2010PropOp49
 70
     1
102
RTVSPost2010Prop50
 90
       50
102
RTVSPost2010PropOp50
 70
     1
102
RTVSPost2010Prop51ColorIndex
 90
      256
102
RTVSPost2010Prop51ColorRGB
 90
-16777216
102
RTVSPost2010PropOp51
 70
     0
102
RTVSPost2010Prop52
140
1.0
102
RTVSPost2010PropOp52
 70
     0
102
RTVSPost2010Prop53
 90
        2
102
RTVSPost2010PropOp53
 70
     1
102
RTVSPost2010Prop54
  1
strokes_ogs.tif
102
RTVSPost2010PropOp54
 70
     1
102
RTVSPost2010Prop55
280
     0
102
RTVSPost2010PropOp55
 70
     1
102
RTVSPost2010Prop56
140
1.0
102
RTVSPost2010PropOp56
 70
     1
102
RTVSPost2010Prop57
140
1.0
102
RTVSPost2010PropOp57
 70
     1
102
RTVSPropertyOp0
 70
     1
102
RTVSPropertyOp1
 70
     1
102
RTVSPropertyOp2
 70
     1
102
RTVSPropertyOp3
 70
     1
102
RTVSPropertyOp4
 70
     1
102
RTVSPropertyOp5
 70
     1
102
RTVSPropertyOp6
 70
     1
102
RTVSPropertyOp7
 70
     1
102
RTVSPropertyOp8
 70
     1
102
RTVSPropertyOp9
 70
     1
102
RTVSPropertyOp10
 70
     1
102
RTVSPropertyOp11
 70
     1
102
RTVSPropertyOp12
 70
     1
102
RTVSPropertyOp13
 70
     1
102
RTVSPropertyOp14
 70
     1
102
RTVSPropertyOp15
 70
     1
102
RTVSPropertyOp16
 70
     1
102
RTVSPropertyOp17
 70
     1
102
RTVSPropertyOp18
 70
     1
102
RTVSPropertyOp19
 70
     1
102
RTVSPropertyOp20
 70
     1
102
RTVSPropertyOp21
 70
     1
102
RTVSPropertyOp22
 70
     1
102
RTVSPropertyOp23
 70
     1
102
RTVSPropertyOp24
 70
     1
102
RTVSPropertyOp25
 70
     1
102
RTVSPropertyOp26
 70
     1
102
RTVSPropertyOp27
 70
     1
102
RTVSPropertyOp28
 70
     1
102
RTVSPropertyOp29
 70
     1
102
RTVSPropertyOp30
 70
     1
102
RTVSPropertyOp31
 70
     1
102
RTVSPropertyOp32
 70
     1
102
RTVSPropertyOp33
 70
     1
102
RTVSPropertyOp34
 70
     1
102
RTVSPropertyOp35
 70
     1
102
RTVSPropertyOp36
 70
     1
102
RTVSPropertyOp37
 70
     1
102
RTVSPropertyOp38
 70
     1
102
RTVSPropertyOp39
 70
     1
102
RTVSPropertyOp40
 70
     1
102
RTVSPropertyOp41
 70
     1
102
RTVSPropertyOp42
 70
     1
102
RTVSPropertyOp43
 70
     1
102
RTVSPropertyOp44
 70
     1
102
RTVSPropertyOp45
 70
     1
102
RTVSPropertyOp46
 70
     1
102
RTVSPropertyOp47
 70
     1
102
RTVSPropertyOp48
 70
     1
102
RTVSPropertyOp49
 70
     1
102
RTVSPropertyOp50
 70
     1
102
RTVSPropertyOp51
 70
     0
102
RTVSPropertyOp52
 70
     0
102
RTVSPropertyOp53
 70
     1
102
RTVSPropertyOp54
 70
     1
102
RTVSPropertyOp55
 70
     1
102
RTVSPropertyOp56
 70
     1
102
RTVSPropertyOp57
 70
     1
102
RTVSPropertyOp58
 70
     1
102
RTVSPropertyOp59
 70
     1
102
RTVSPropertyOp60
 70
     1
102
RTVSPropertyOp61
 70
     1
102
RTVSPropertyOp62
 70
     1
  0
XRECORD
  5
A1B
102
{ACAD_REACTORS
330
A1A
102
}
330
A1A
100
AcDbXrecord
280
     1
102
RTVSPost2010Prop28
280
     0
102
RTVSPost2010PropOp28
 70
     1
102
RTVSPost2010Prop29
280
     1
102
RTVSPost2010PropOp29
 70
     1
102
RTVSPost2010Prop30
280
     1
102
RTVSPost2010PropOp30
 70
     1
102
RTVSPost2010Prop31
280
     0
102
RTVSPost2010PropOp31
 70
     1
102
RTVSPost2010Prop32
280
     0
102
RTVSPost2010PropOp32
 70
     1
102
RTVSPost2010Prop33
280
     0
102
RTVSPost2010PropOp33
 70
     1
102
RTVSPost2010Prop34
280
     0
102
RTVSPost2010PropOp34
 70
     1
102
RTVSPost2010Prop35
280
     0
102
RTVSPost2010PropOp35
 70
     1
102
RTVSPost2010Prop36
280
     0
102
RTVSPost2010PropOp36
 70
     1
102
RTVSPost2010Prop37
 90
       50
102
RTVSPost2010PropOp37
 70
     1
102
RTVSPost2010Prop38
140
0.0
102
RTVSPost2010PropOp38
 70
     1
102
RTVSPost2010Prop39
140
1.0
102
RTVSPost2010PropOp39
 70
     1
102
RTVSPost2010Prop40
 90
        0
102
RTVSPost2010PropOp40
 70
     1
102
RTVSPost2010Prop41ColorIndex
 90
       18
102
RTVSPost2010Prop41ColorRGB
 90
        0
102
RTVSPost2010PropOp41
 70
     1
102
RTVSPost2010Prop42
 90
       50
102
RTVSPost2010PropOp42
 70
     1
102
RTVSPost2010Prop43
 90
        3
102
RTVSPost2010PropOp43
 70
     1
102
RTVSPost2010Prop44ColorIndex
 90
        5
102
RTVSPost2010Prop44ColorRGB
 90
      255
102
RTVSPost2010PropOp44
 70
     1
102
RTVSPost2010Prop45
280
     0
102
RTVSPost2010PropOp45
 70
     1
102
RTVSPost2010Prop46
 90
       50
102
RTVSPost2010PropOp46
 70
     1
102
RTVSPost2010Prop47
 90
       50
102
RTVSPost2010PropOp47
 70
     1
102
RTVSPost2010Prop48
 90
       50
102
RTVSPost2010PropOp48
 70
     1
102
RTVSPost2010Prop49
280
     0
102
RTVSPost2010PropOp49
 70
     1
102
RTVSPost2010Prop50
 90
       50
102
RTVSPost2010PropOp50
 70
     1
102
RTVSPost2010Prop51ColorIndex
 90
      256
102
RTVSPost2010Prop51ColorRGB
 90
-16777216
102
RTVSPost2010PropOp51
 70
     0
102
RTVSPost2010Prop52
140
1.0
102
RTVSPost2010PropOp52
 70
     0
102
RTVSPost2010Prop53
 90
        2
102
RTVSPost2010PropOp53
 70
     1
102
RTVSPost2010Prop54
  1
strokes_ogs.tif
102
RTVSPost2010PropOp54
 70
     1
102
RTVSPost2010Prop55
280
     0
102
RTVSPost2010PropOp55
 70
     1
102
RTVSPost2010Prop56
140
1.0
102
RTVSPost2010PropOp56
 70
     1
102
RTVSPost2010Prop57
140
1.0
102
RTVSPost2010PropOp57
 70
     1
102
RTVSPropertyOp0
 70
     1
102
RTVSPropertyOp1
 70
     1
102
RTVSPropertyOp2
 70
     1
102
RTVSPropertyOp3
 70
     1
102
RTVSPropertyOp4
 70
     1
102
RTVSPropertyOp5
 70
     1
102
RTVSPropertyOp6
 70
     1
102
RTVSPropertyOp7
 70
     1
102
RTVSPropertyOp8
 70
     1
102
RTVSPropertyOp9
 70
     1
102
RTVSPropertyOp10
 70
     1
102
RTVSPropertyOp11
 70
     1
102
RTVSPropertyOp12
 70
     1
102
RTVSPropertyOp13
 70
     1
102
RTVSPropertyOp14
 70
     1
102
RTVSPropertyOp15
 70
     1
102
RTVSPropertyOp16
 70
     1
102
RTVSPropertyOp17
 70
     1
102
RTVSPropertyOp18
 70
     1
102
RTVSPropertyOp19
 70
     1
102
RTVSPropertyOp20
 70
     1
102
RTVSPropertyOp21
 70
     1
102
RTVSPropertyOp22
 70
     1
102
RTVSPropertyOp23
 70
     1
102
RTVSPropertyOp24
 70
     1
102
RTVSPropertyOp25
 70
     1
102
RTVSPropertyOp26
 70
     1
102
RTVSPropertyOp27
 70
     1
102
RTVSPropertyOp28
 70
     1
102
RTVSPropertyOp29
 70
     1
102
RTVSPropertyOp30
 70
     1
102
RTVSPropertyOp31
 70
     1
102
RTVSPropertyOp32
 70
     1
102
RTVSPropertyOp33
 70
     1
102
RTVSPropertyOp34
 70
     1
102
RTVSPropertyOp35
 70
     1
102
RTVSPropertyOp36
 70
     1
102
RTVSPropertyOp37
 70
     1
102
RTVSPropertyOp38
 70
     1
102
RTVSPropertyOp39
 70
     1
102
RTVSPropertyOp40
 70
     1
102
RTVSPropertyOp41
 70
     1
102
RTVSPropertyOp42
 70
     1
102
RTVSPropertyOp43
 70
     1
102
RTVSPropertyOp44
 70
     1
102
RTVSPropertyOp45
 70
     1
102
RTVSPropertyOp46
 70
     1
102
RTVSPropertyOp47
 70
     1
102
RTVSPropertyOp48
 70
     1
102
RTVSPropertyOp49
 70
     1
102
RTVSPropertyOp50
 70
     1
102
RTVSPropertyOp51
 70
     0
102
RTVSPropertyOp52
 70
     0
102
RTVSPropertyOp53
 70
     1
102
RTVSPropertyOp54
 70
     1
102
RTVSPropertyOp55
 70
     1
102
RTVSPropertyOp56
 70
     1
102
RTVSPropertyOp57
 70
     1
102
RTVSPropertyOp58
 70
     1
102
RTVSPropertyOp59
 70
     1
102
RTVSPropertyOp60
 70
     1
102
RTVSPropertyOp61
 70
     1
102
RTVSPropertyOp62
 70
     1
  0
XRECORD
  5
A1D
102
{ACAD_REACTORS
330
A1C
102
}
330
A1C
100
AcDbXrecord
280
     1
102
RTVSPost2010Prop28
280
     0
102
RTVSPost2010PropOp28
 70
     1
102
RTVSPost2010Prop29
280
     1
102
RTVSPost2010PropOp29
 70
     1
102
RTVSPost2010Prop30
280
     1
102
RTVSPost2010PropOp30
 70
     1
102
RTVSPost2010Prop31
280
     0
102
RTVSPost2010PropOp31
 70
     1
102
RTVSPost2010Prop32
280
     0
102
RTVSPost2010PropOp32
 70
     1
102
RTVSPost2010Prop33
280
     0
102
RTVSPost2010PropOp33
 70
     1
102
RTVSPost2010Prop34
280
     0
102
RTVSPost2010PropOp34
 70
     1
102
RTVSPost2010Prop35
280
     0
102
RTVSPost2010PropOp35
 70
     1
102
RTVSPost2010Prop36
280
     0
102
RTVSPost2010PropOp36
 70
     1
102
RTVSPost2010Prop37
 90
       50
102
RTVSPost2010PropOp37
 70
     1
102
RTVSPost2010Prop38
140
0.0
102
RTVSPost2010PropOp38
 70
     1
102
RTVSPost2010Prop39
140
1.0
102
RTVSPost2010PropOp39
 70
     1
102
RTVSPost2010Prop40
 90
        0
102
RTVSPost2010PropOp40
 70
     1
102
RTVSPost2010Prop41ColorIndex
 90
       18
102
RTVSPost2010Prop41ColorRGB
 90
        0
102
RTVSPost2010PropOp41
 70
     1
102
RTVSPost2010Prop42
 90
       50
102
RTVSPost2010PropOp42
 70
     1
102
RTVSPost2010Prop43
 90
        3
102
RTVSPost2010PropOp43
 70
     1
102
RTVSPost2010Prop44ColorIndex
 90
        5
102
RTVSPost2010Prop44ColorRGB
 90
      255
102
RTVSPost2010PropOp44
 70
     1
102
RTVSPost2010Prop45
280
     0
102
RTVSPost2010PropOp45
 70
     1
102
RTVSPost2010Prop46
 90
       50
102
RTVSPost2010PropOp46
 70
     1
102
RTVSPost2010Prop47
 90
       50
102
RTVSPost2010PropOp47
 70
     1
102
RTVSPost2010Prop48
 90
       50
102
RTVSPost2010PropOp48
 70
     1
102
RTVSPost2010Prop49
280
     0
102
RTVSPost2010PropOp49
 70
     1
102
RTVSPost2010Prop50
 90
       50
102
RTVSPost2010PropOp50
 70
     1
102
RTVSPost2010Prop51ColorIndex
 90
      256
102
RTVSPost2010Prop51ColorRGB
 90
-16777216
102
RTVSPost2010PropOp51
 70
     0
102
RTVSPost2010Prop52
140
1.0
102
RTVSPost2010PropOp52
 70
     0
102
RTVSPost2010Prop53
 90
        2
102
RTVSPost2010PropOp53
 70
     1
102
RTVSPost2010Prop54
  1
strokes_ogs.tif
102
RTVSPost2010PropOp54
 70
     1
102
RTVSPost2010Prop55
280
     0
102
RTVSPost2010PropOp55
 70
     1
102
RTVSPost2010Prop56
140
1.0
102
RTVSPost2010PropOp56
 70
     1
102
RTVSPost2010Prop57
140
1.0
102
RTVSPost2010PropOp57
 70
     1
102
RTVSPropertyOp0
 70
     1
102
RTVSPropertyOp1
 70
     1
102
RTVSPropertyOp2
 70
     1
102
RTVSPropertyOp3
 70
     1
102
RTVSPropertyOp4
 70
     1
102
RTVSPropertyOp5
 70
     1
102
RTVSPropertyOp6
 70
     1
102
RTVSPropertyOp7
 70
     1
102
RTVSPropertyOp8
 70
     1
102
RTVSPropertyOp9
 70
     1
102
RTVSPropertyOp10
 70
     1
102
RTVSPropertyOp11
 70
     1
102
RTVSPropertyOp12
 70
     1
102
RTVSPropertyOp13
 70
     1
102
RTVSPropertyOp14
 70
     1
102
RTVSPropertyOp15
 70
     1
102
RTVSPropertyOp16
 70
     1
102
RTVSPropertyOp17
 70
     1
102
RTVSPropertyOp18
 70
     1
102
RTVSPropertyOp19
 70
     1
102
RTVSPropertyOp20
 70
     1
102
RTVSPropertyOp21
 70
     1
102
RTVSPropertyOp22
 70
     1
102
RTVSPropertyOp23
 70
     1
102
RTVSPropertyOp24
 70
     1
102
RTVSPropertyOp25
 70
     1
102
RTVSPropertyOp26
 70
     1
102
RTVSPropertyOp27
 70
     1
102
RTVSPropertyOp28
 70
     1
102
RTVSPropertyOp29
 70
     1
102
RTVSPropertyOp30
 70
     1
102
RTVSPropertyOp31
 70
     1
102
RTVSPropertyOp32
 70
     1
102
RTVSPropertyOp33
 70
     1
102
RTVSPropertyOp34
 70
     1
102
RTVSPropertyOp35
 70
     1
102
RTVSPropertyOp36
 70
     1
102
RTVSPropertyOp37
 70
     1
102
RTVSPropertyOp38
 70
     1
102
RTVSPropertyOp39
 70
     1
102
RTVSPropertyOp40
 70
     1
102
RTVSPropertyOp41
 70
     1
102
RTVSPropertyOp42
 70
     1
102
RTVSPropertyOp43
 70
     1
102
RTVSPropertyOp44
 70
     1
102
RTVSPropertyOp45
 70
     1
102
RTVSPropertyOp46
 70
     1
102
RTVSPropertyOp47
 70
     1
102
RTVSPropertyOp48
 70
     1
102
RTVSPropertyOp49
 70
     1
102
RTVSPropertyOp50
 70
     1
102
RTVSPropertyOp51
 70
     0
102
RTVSPropertyOp52
 70
     0
102
RTVSPropertyOp53
 70
     1
102
RTVSPropertyOp54
 70
     1
102
RTVSPropertyOp55
 70
     1
102
RTVSPropertyOp56
 70
     1
102
RTVSPropertyOp57
 70
     1
102
RTVSPropertyOp58
 70
     1
102
RTVSPropertyOp59
 70
     1
102
RTVSPropertyOp60
 70
     1
102
RTVSPropertyOp61
 70
     1
102
RTVSPropertyOp62
 70
     1
  0
XRECORD
  5
A0D
102
{ACAD_REACTORS
330
A0C
102
}
330
A0C
100
AcDbXrecord
280
     1
102
RTVSPost2010Prop28
280
     0
102
RTVSPost2010PropOp28
 70
     1
102
RTVSPost2010Prop29
280
     1
102
RTVSPost2010PropOp29
 70
     1
102
RTVSPost2010Prop30
280
     1
102
RTVSPost2010PropOp30
 70
     1
102
RTVSPost2010Prop31
280
     0
102
RTVSPost2010PropOp31
 70
     1
102
RTVSPost2010Prop32
280
     0
102
RTVSPost2010PropOp32
 70
     1
102
RTVSPost2010Prop33
280
     0
102
RTVSPost2010PropOp33
 70
     1
102
RTVSPost2010Prop34
280
     0
102
RTVSPost2010PropOp34
 70
     1
102
RTVSPost2010Prop35
280
     0
102
RTVSPost2010PropOp35
 70
     1
102
RTVSPost2010Prop36
280
     0
102
RTVSPost2010PropOp36
 70
     1
102
RTVSPost2010Prop37
 90
       50
102
RTVSPost2010PropOp37
 70
     1
102
RTVSPost2010Prop38
140
0.0
102
RTVSPost2010PropOp38
 70
     1
102
RTVSPost2010Prop39
140
1.0
102
RTVSPost2010PropOp39
 70
     1
102
RTVSPost2010Prop40
 90
        0
102
RTVSPost2010PropOp40
 70
     1
102
RTVSPost2010Prop41ColorIndex
 90
       18
102
RTVSPost2010Prop41ColorRGB
 90
        0
102
RTVSPost2010PropOp41
 70
     1
102
RTVSPost2010Prop42
 90
       50
102
RTVSPost2010PropOp42
 70
     1
102
RTVSPost2010Prop43
 90
        3
102
RTVSPost2010PropOp43
 70
     1
102
RTVSPost2010Prop44ColorIndex
 90
        5
102
RTVSPost2010Prop44ColorRGB
 90
      255
102
RTVSPost2010PropOp44
 70
     1
102
RTVSPost2010Prop45
280
     0
102
RTVSPost2010PropOp45
 70
     1
102
RTVSPost2010Prop46
 90
       50
102
RTVSPost2010PropOp46
 70
     1
102
RTVSPost2010Prop47
 90
       50
102
RTVSPost2010PropOp47
 70
     1
102
RTVSPost2010Prop48
 90
       50
102
RTVSPost2010PropOp48
 70
     1
102
RTVSPost2010Prop49
280
     0
102
RTVSPost2010PropOp49
 70
     1
102
RTVSPost2010Prop50
 90
       50
102
RTVSPost2010PropOp50
 70
     1
102
RTVSPost2010Prop51ColorIndex
 90
      256
102
RTVSPost2010Prop51ColorRGB
 90
-16777216
102
RTVSPost2010PropOp51
 70
     0
102
RTVSPost2010Prop52
140
1.0
102
RTVSPost2010PropOp52
 70
     0
102
RTVSPost2010Prop53
 90
        2
102
RTVSPost2010PropOp53
 70
     1
102
RTVSPost2010Prop54
  1
strokes_ogs.tif
102
RTVSPost2010PropOp54
 70
     1
102
RTVSPost2010Prop55
280
     0
102
RTVSPost2010PropOp55
 70
     1
102
RTVSPost2010Prop56
140
1.0
102
RTVSPost2010PropOp56
 70
     1
102
RTVSPost2010Prop57
140
1.0
102
RTVSPost2010PropOp57
 70
     1
102
RTVSPropertyOp0
 70
     1
102
RTVSPropertyOp1
 70
     1
102
RTVSPropertyOp2
 70
     1
102
RTVSPropertyOp3
 70
     1
102
RTVSPropertyOp4
 70
     1
102
RTVSPropertyOp5
 70
     1
102
RTVSPropertyOp6
 70
     1
102
RTVSPropertyOp7
 70
     1
102
RTVSPropertyOp8
 70
     1
102
RTVSPropertyOp9
 70
     1
102
RTVSPropertyOp10
 70
     1
102
RTVSPropertyOp11
 70
     1
102
RTVSPropertyOp12
 70
     1
102
RTVSPropertyOp13
 70
     1
102
RTVSPropertyOp14
 70
     1
102
RTVSPropertyOp15
 70
     1
102
RTVSPropertyOp16
 70
     1
102
RTVSPropertyOp17
 70
     1
102
RTVSPropertyOp18
 70
     1
102
RTVSPropertyOp19
 70
     1
102
RTVSPropertyOp20
 70
     1
102
RTVSPropertyOp21
 70
     1
102
RTVSPropertyOp22
 70
     1
102
RTVSPropertyOp23
 70
     1
102
RTVSPropertyOp24
 70
     1
102
RTVSPropertyOp25
 70
     1
102
RTVSPropertyOp26
 70
     1
102
RTVSPropertyOp27
 70
     1
102
RTVSPropertyOp28
 70
     1
102
RTVSPropertyOp29
 70
     1
102
RTVSPropertyOp30
 70
     1
102
RTVSPropertyOp31
 70
     1
102
RTVSPropertyOp32
 70
     1
102
RTVSPropertyOp33
 70
     1
102
RTVSPropertyOp34
 70
     1
102
RTVSPropertyOp35
 70
     1
102
RTVSPropertyOp36
 70
     1
102
RTVSPropertyOp37
 70
     1
102
RTVSPropertyOp38
 70
     1
102
RTVSPropertyOp39
 70
     1
102
RTVSPropertyOp40
 70
     1
102
RTVSPropertyOp41
 70
     1
102
RTVSPropertyOp42
 70
     1
102
RTVSPropertyOp43
 70
     1
102
RTVSPropertyOp44
 70
     1
102
RTVSPropertyOp45
 70
     1
102
RTVSPropertyOp46
 70
     1
102
RTVSPropertyOp47
 70
     1
102
RTVSPropertyOp48
 70
     1
102
RTVSPropertyOp49
 70
     1
102
RTVSPropertyOp50
 70
     1
102
RTVSPropertyOp51
 70
     0
102
RTVSPropertyOp52
 70
     0
102
RTVSPropertyOp53
 70
     1
102
RTVSPropertyOp54
 70
     1
102
RTVSPropertyOp55
 70
     1
102
RTVSPropertyOp56
 70
     1
102
RTVSPropertyOp57
 70
     1
102
RTVSPropertyOp58
 70
     1
102
RTVSPropertyOp59
 70
     1
102
RTVSPropertyOp60
 70
     1
102
RTVSPropertyOp61
 70
     1
102
RTVSPropertyOp62
 70
     1
  0
XRECORD
  5
A01
102
{ACAD_REACTORS
330
A00
102
}
330
A00
100
AcDbXrecord
280
     1
102
RTVSPost2010Prop28
280
     0
102
RTVSPost2010PropOp28
 70
     1
102
RTVSPost2010Prop29
280
     1
102
RTVSPost2010PropOp29
 70
     1
102
RTVSPost2010Prop30
280
     1
102
RTVSPost2010PropOp30
 70
     1
102
RTVSPost2010Prop31
280
     0
102
RTVSPost2010PropOp31
 70
     1
102
RTVSPost2010Prop32
280
     0
102
RTVSPost2010PropOp32
 70
     1
102
RTVSPost2010Prop33
280
     0
102
RTVSPost2010PropOp33
 70
     1
102
RTVSPost2010Prop34
280
     0
102
RTVSPost2010PropOp34
 70
     1
102
RTVSPost2010Prop35
280
     0
102
RTVSPost2010PropOp35
 70
     1
102
RTVSPost2010Prop36
280
     0
102
RTVSPost2010PropOp36
 70
     1
102
RTVSPost2010Prop37
 90
       50
102
RTVSPost2010PropOp37
 70
     1
102
RTVSPost2010Prop38
140
0.0
102
RTVSPost2010PropOp38
 70
     1
102
RTVSPost2010Prop39
140
1.0
102
RTVSPost2010PropOp39
 70
     1
102
RTVSPost2010Prop40
 90
        0
102
RTVSPost2010PropOp40
 70
     1
102
RTVSPost2010Prop41ColorIndex
 90
       18
102
RTVSPost2010Prop41ColorRGB
 90
        0
102
RTVSPost2010PropOp41
 70
     1
102
RTVSPost2010Prop42
 90
       50
102
RTVSPost2010PropOp42
 70
     1
102
RTVSPost2010Prop43
 90
        3
102
RTVSPost2010PropOp43
 70
     1
102
RTVSPost2010Prop44ColorIndex
 90
        5
102
RTVSPost2010Prop44ColorRGB
 90
      255
102
RTVSPost2010PropOp44
 70
     1
102
RTVSPost2010Prop45
280
     0
102
RTVSPost2010PropOp45
 70
     1
102
RTVSPost2010Prop46
 90
       50
102
RTVSPost2010PropOp46
 70
     1
102
RTVSPost2010Prop47
 90
       50
102
RTVSPost2010PropOp47
 70
     1
102
RTVSPost2010Prop48
 90
       50
102
RTVSPost2010PropOp48
 70
     1
102
RTVSPost2010Prop49
280
     0
102
RTVSPost2010PropOp49
 70
     1
102
RTVSPost2010Prop50
 90
       50
102
RTVSPost2010PropOp50
 70
     1
102
RTVSPost2010Prop51ColorIndex
 90
      256
102
RTVSPost2010Prop51ColorRGB
 90
-16777216
102
RTVSPost2010PropOp51
 70
     0
102
RTVSPost2010Prop52
140
1.0
102
RTVSPost2010PropOp52
 70
     0
102
RTVSPost2010Prop53
 90
        2
102
RTVSPost2010PropOp53
 70
     1
102
RTVSPost2010Prop54
  1
strokes_ogs.tif
102
RTVSPost2010PropOp54
 70
     1
102
RTVSPost2010Prop55
280
     0
102
RTVSPost2010PropOp55
 70
     1
102
RTVSPost2010Prop56
140
1.0
102
RTVSPost2010PropOp56
 70
     1
102
RTVSPost2010Prop57
140
1.0
102
RTVSPost2010PropOp57
 70
     1
102
RTVSPropertyOp0
 70
     1
102
RTVSPropertyOp1
 70
     1
102
RTVSPropertyOp2
 70
     1
102
RTVSPropertyOp3
 70
     1
102
RTVSPropertyOp4
 70
     1
102
RTVSPropertyOp5
 70
     1
102
RTVSPropertyOp6
 70
     1
102
RTVSPropertyOp7
 70
     1
102
RTVSPropertyOp8
 70
     1
102
RTVSPropertyOp9
 70
     1
102
RTVSPropertyOp10
 70
     1
102
RTVSPropertyOp11
 70
     1
102
RTVSPropertyOp12
 70
     1
102
RTVSPropertyOp13
 70
     1
102
RTVSPropertyOp14
 70
     1
102
RTVSPropertyOp15
 70
     1
102
RTVSPropertyOp16
 70
     1
102
RTVSPropertyOp17
 70
     1
102
RTVSPropertyOp18
 70
     1
102
RTVSPropertyOp19
 70
     1
102
RTVSPropertyOp20
 70
     1
102
RTVSPropertyOp21
 70
     1
102
RTVSPropertyOp22
 70
     1
102
RTVSPropertyOp23
 70
     1
102
RTVSPropertyOp24
 70
     1
102
RTVSPropertyOp25
 70
     1
102
RTVSPropertyOp26
 70
     1
102
RTVSPropertyOp27
 70
     1
102
RTVSPropertyOp28
 70
     1
102
RTVSPropertyOp29
 70
     1
102
RTVSPropertyOp30
 70
     1
102
RTVSPropertyOp31
 70
     1
102
RTVSPropertyOp32
 70
     1
102
RTVSPropertyOp33
 70
     1
102
RTVSPropertyOp34
 70
     1
102
RTVSPropertyOp35
 70
     1
102
RTVSPropertyOp36
 70
     1
102
RTVSPropertyOp37
 70
     1
102
RTVSPropertyOp38
 70
     1
102
RTVSPropertyOp39
 70
     1
102
RTVSPropertyOp40
 70
     1
102
RTVSPropertyOp41
 70
     1
102
RTVSPropertyOp42
 70
     1
102
RTVSPropertyOp43
 70
     1
102
RTVSPropertyOp44
 70
     1
102
RTVSPropertyOp45
 70
     1
102
RTVSPropertyOp46
 70
     1
102
RTVSPropertyOp47
 70
     1
102
RTVSPropertyOp48
 70
     1
102
RTVSPropertyOp49
 70
     1
102
RTVSPropertyOp50
 70
     1
102
RTVSPropertyOp51
 70
     0
102
RTVSPropertyOp52
 70
     0
102
RTVSPropertyOp53
 70
     1
102
RTVSPropertyOp54
 70
     1
102
RTVSPropertyOp55
 70
     1
102
RTVSPropertyOp56
 70
     1
102
RTVSPropertyOp57
 70
     1
102
RTVSPropertyOp58
 70
     1
102
RTVSPropertyOp59
 70
     1
102
RTVSPropertyOp60
 70
     1
102
RTVSPropertyOp61
 70
     1
102
RTVSPropertyOp62
 70
     1
  0
XRECORD
  5
A1F
102
{ACAD_REACTORS
330
A1E
102
}
330
A1E
100
AcDbXrecord
280
     1
102
RTVSPost2010Prop28
280
     0
102
RTVSPost2010PropOp28
 70
     1
102
RTVSPost2010Prop29
280
     1
102
RTVSPost2010PropOp29
 70
     1
102
RTVSPost2010Prop30
280
     1
102
RTVSPost2010PropOp30
 70
     1
102
RTVSPost2010Prop31
280
     0
102
RTVSPost2010PropOp31
 70
     1
102
RTVSPost2010Prop32
280
     0
102
RTVSPost2010PropOp32
 70
     1
102
RTVSPost2010Prop33
280
     0
102
RTVSPost2010PropOp33
 70
     1
102
RTVSPost2010Prop34
280
     0
102
RTVSPost2010PropOp34
 70
     1
102
RTVSPost2010Prop35
280
     0
102
RTVSPost2010PropOp35
 70
     1
102
RTVSPost2010Prop36
280
     0
102
RTVSPost2010PropOp36
 70
     1
102
RTVSPost2010Prop37
 90
       50
102
RTVSPost2010PropOp37
 70
     1
102
RTVSPost2010Prop38
140
0.0
102
RTVSPost2010PropOp38
 70
     1
102
RTVSPost2010Prop39
140
1.0
102
RTVSPost2010PropOp39
 70
     1
102
RTVSPost2010Prop40
 90
        0
102
RTVSPost2010PropOp40
 70
     1
102
RTVSPost2010Prop41ColorIndex
 90
       18
102
RTVSPost2010Prop41ColorRGB
 90
        0
102
RTVSPost2010PropOp41
 70
     1
102
RTVSPost2010Prop42
 90
       50
102
RTVSPost2010PropOp42
 70
     1
102
RTVSPost2010Prop43
 90
        3
102
RTVSPost2010PropOp43
 70
     1
102
RTVSPost2010Prop44ColorIndex
 90
        5
102
RTVSPost2010Prop44ColorRGB
 90
      255
102
RTVSPost2010PropOp44
 70
     1
102
RTVSPost2010Prop45
280
     0
102
RTVSPost2010PropOp45
 70
     1
102
RTVSPost2010Prop46
 90
       50
102
RTVSPost2010PropOp46
 70
     1
102
RTVSPost2010Prop47
 90
       50
102
RTVSPost2010PropOp47
 70
     1
102
RTVSPost2010Prop48
 90
       50
102
RTVSPost2010PropOp48
 70
     1
102
RTVSPost2010Prop49
280
     0
102
RTVSPost2010PropOp49
 70
     1
102
RTVSPost2010Prop50
 90
       50
102
RTVSPost2010PropOp50
 70
     1
102
RTVSPost2010Prop51ColorIndex
 90
      256
102
RTVSPost2010Prop51ColorRGB
 90
-16777216
102
RTVSPost2010PropOp51
 70
     0
102
RTVSPost2010Prop52
140
1.0
102
RTVSPost2010PropOp52
 70
     0
102
RTVSPost2010Prop53
 90
        2
102
RTVSPost2010PropOp53
 70
     1
102
RTVSPost2010Prop54
  1
strokes_ogs.tif
102
RTVSPost2010PropOp54
 70
     1
102
RTVSPost2010Prop55
280
     0
102
RTVSPost2010PropOp55
 70
     1
102
RTVSPost2010Prop56
140
1.0
102
RTVSPost2010PropOp56
 70
     1
102
RTVSPost2010Prop57
140
1.0
102
RTVSPost2010PropOp57
 70
     1
102
RTVSPropertyOp0
 70
     1
102
RTVSPropertyOp1
 70
     1
102
RTVSPropertyOp2
 70
     1
102
RTVSPropertyOp3
 70
     1
102
RTVSPropertyOp4
 70
     1
102
RTVSPropertyOp5
 70
     1
102
RTVSPropertyOp6
 70
     1
102
RTVSPropertyOp7
 70
     1
102
RTVSPropertyOp8
 70
     1
102
RTVSPropertyOp9
 70
     1
102
RTVSPropertyOp10
 70
     1
102
RTVSPropertyOp11
 70
     1
102
RTVSPropertyOp12
 70
     1
102
RTVSPropertyOp13
 70
     1
102
RTVSPropertyOp14
 70
     1
102
RTVSPropertyOp15
 70
     1
102
RTVSPropertyOp16
 70
     1
102
RTVSPropertyOp17
 70
     1
102
RTVSPropertyOp18
 70
     1
102
RTVSPropertyOp19
 70
     1
102
RTVSPropertyOp20
 70
     1
102
RTVSPropertyOp21
 70
     1
102
RTVSPropertyOp22
 70
     1
102
RTVSPropertyOp23
 70
     1
102
RTVSPropertyOp24
 70
     1
102
RTVSPropertyOp25
 70
     1
102
RTVSPropertyOp26
 70
     1
102
RTVSPropertyOp27
 70
     1
102
RTVSPropertyOp28
 70
     1
102
RTVSPropertyOp29
 70
     1
102
RTVSPropertyOp30
 70
     1
102
RTVSPropertyOp31
 70
     1
102
RTVSPropertyOp32
 70
     1
102
RTVSPropertyOp33
 70
     1
102
RTVSPropertyOp34
 70
     1
102
RTVSPropertyOp35
 70
     1
102
RTVSPropertyOp36
 70
     1
102
RTVSPropertyOp37
 70
     1
102
RTVSPropertyOp38
 70
     1
102
RTVSPropertyOp39
 70
     1
102
RTVSPropertyOp40
 70
     1
102
RTVSPropertyOp41
 70
     1
102
RTVSPropertyOp42
 70
     1
102
RTVSPropertyOp43
 70
     1
102
RTVSPropertyOp44
 70
     1
102
RTVSPropertyOp45
 70
     1
102
RTVSPropertyOp46
 70
     1
102
RTVSPropertyOp47
 70
     1
102
RTVSPropertyOp48
 70
     1
102
RTVSPropertyOp49
 70
     1
102
RTVSPropertyOp50
 70
     1
102
RTVSPropertyOp51
 70
     0
102
RTVSPropertyOp52
 70
     0
102
RTVSPropertyOp53
 70
     1
102
RTVSPropertyOp54
 70
     1
102
RTVSPropertyOp55
 70
     1
102
RTVSPropertyOp56
 70
     1
102
RTVSPropertyOp57
 70
     1
102
RTVSPropertyOp58
 70
     1
102
RTVSPropertyOp59
 70
     1
102
RTVSPropertyOp60
 70
     1
102
RTVSPropertyOp61
 70
     1
102
RTVSPropertyOp62
 70
     1
  0
ENDSEC
  0
EOF
