  0
SECTION
  2
HEADER
  9
$ACADVER
  1
AC1032
  9
$ACADMAINTVER
 90
       55
  9
$DWGCODEPAGE
  3
ANSI_1252
  9
$LASTSAVEDBY
  1
mariehp
  9
$REQUIREDVERSIONS
160
                 0
  9
$INSBASE
 10
0.0
 20
0.0
 30
0.0
  9
$EXTMIN
 10
10.959414768
 20
24.0951017769
 30
0.0
  9
$EXTMAX
 10
79.95941476800002
 20
48.0629578262
 30
0.0
  9
$LIMMIN
 10
0.0
 20
0.0
  9
$LIMMAX
 10
181.3333333333
 20
117.3333333333
  9
$ORTHOMODE
 70
     0
  9
$REGENMODE
 70
     1
  9
$FILLMODE
 70
     1
  9
$QTEXTMODE
 70
     0
  9
$MIRRTEXT
 70
     0
  9
$LTSCALE
 40
9.973333333300001
  9
$ATTMODE
 70
     1
  9
$TEXTSIZE
 40
0.2
  9
$TRACEWID
 40
0.05
  9
$TEXTSTYLE
  7
STANDARD
  9
$CLAYER
  8
0
  9
$CELTYPE
  6
BYLAYER
  9
$CECOLOR
 62
   256
  9
$CELTSCALE
 40
1.0
  9
$DISPSILH
 70
     0
  9
$DIMSCALE
 40
1.0
  9
$DIMASZ
 40
2.0
  9
$DIMEXO
 40
0.0625
  9
$DIMDLI
 40
6.890666666699999
  9
$DIMRND
 40
0.0
  9
$DIMDLE
 40
0.0
  9
$DIMEXE
 40
0.125
  9
$DIMTP
 40
0.001
  9
$DIMTM
 40
0.001
  9
$DIMTXT
 40
1.333333333299999
  9
$DIMCEN
 40
1.631999999999999
  9
$DIMTSZ
 40
0.0
  9
$DIMTOL
 70
     1
  9
$DIMLIM
 70
     0
  9
$DIMTIH
 70
     1
  9
$DIMTOH
 70
     1
  9
$DIMSE1
 70
     0
  9
$DIMSE2
 70
     0
  9
$DIMTAD
 70
     0
  9
$DIMZIN
 70
     0
  9
$DIMBLK
  1
_FILLED
  9
$DIMASO
 70
     1
  9
$DIMSHO
 70
     1
  9
$DIMPOST
  1

  9
$DIMAPOST
  1

  9
$DIMALT
 70
     1
  9
$DIMALTD
 70
     2
  9
$DIMALTF
 40
25.4
  9
$DIMLFAC
 40
1.0
  9
$DIMTOFL
 70
     0
  9
$DIMTVP
 40
0.0
  9
$DIMTIX
 70
     0
  9
$DIMSOXD
 70
     0
  9
$DIMSAH
 70
     0
  9
$DIMBLK1
  1

  9
$DIMBLK2
  1

  9
$DIMSTYLE
  2
STANDARD
  9
$DIMCLRD
 70
     0
  9
$DIMCLRE
 70
     0
  9
$DIMCLRT
 70
     0
  9
$DIMTFAC
 40
1.0
  9
$DIMGAP
 40
0.09
  9
$DIMJUST
 70
     0
  9
$DIMSD1
 70
     0
  9
$DIMSD2
 70
     0
  9
$DIMTOLJ
 70
     1
  9
$DIMTZIN
 70
     0
  9
$DIMALTZ
 70
     0
  9
$DIMALTTZ
 70
     0
  9
$DIMUPT
 70
     0
  9
$DIMDEC
 70
     4
  9
$DIMTDEC
 70
     4
  9
$DIMALTU
 70
     2
  9
$DIMALTTD
 70
     2
  9
$DIMTXSTY
  7
STANDARD
  9
$DIMAUNIT
 70
     0
  9
$DIMADEC
 70
     0
  9
$DIMALTRND
 40
0.0
  9
$DIMAZIN
 70
     0
  9
$DIMDSEP
 70
    46
  9
$DIMATFIT
 70
     3
  9
$DIMFRAC
 70
     0
  9
$DIMLDRBLK
  1

  9
$DIMLUNIT
 70
     2
  9
$DIMLWD
 70
    -2
  9
$DIMLWE
 70
    -2
  9
$DIMTMOVE
 70
     0
  9
$DIMFXL
 40
1.0
  9
$DIMFXLON
 70
     0
  9
$DIMJOGANG
 40
0.7853981633974483
  9
$DIMTFILL
 70
     0
  9
$DIMTFILLCLR
 70
     0
  9
$DIMARCSYM
 70
     0
  9
$DIMLTYPE
  6

  9
$DIMLTEX1
  6

  9
$DIMLTEX2
  6

  9
$DIMTXTDIRECTION
 70
     0
  9
$LUNITS
 70
     2
  9
$LUPREC
 70
     4
  9
$SKETCHINC
 40
0.1
  9
$FILLETRAD
 40
0.0
  9
$AUNITS
 70
     0
  9
$AUPREC
 70
     0
  9
$MENU
  1
.
  9
$ELEVATION
 40
0.0
  9
$PELEVATION
 40
0.0
  9
$THICKNESS
 40
0.0
  9
$LIMCHECK
 70
     0
  9
$CHAMFERA
 40
0.0
  9
$CHAMFERB
 40
0.0
  9
$CHAMFERC
 40
0.0
  9
$CHAMFERD
 40
0.0
  9
$SKPOLY
 70
     0
  9
$TDCREATE
 40
2459690.398032408
  9
$TDUCREATE
 40
2459690.564699074
  9
$TDUPDATE
 40
2459773.556469908
  9
$TDUUPDATE
 40
2459773.723136574
  9
$TDINDWG
 40
0.0009606481
  9
$TDUSRTIMER
 40
0.0009606481
  9
$USRTIMER
 70
     1
  9
$ANGBASE
 50
0.0
  9
$ANGDIR
 70
     0
  9
$PDMODE
 70
     3
  9
$PDSIZE
 40
0.03125
  9
$PLINEWID
 40
0.0
  9
$SPLFRAME
 70
     0
  9
$SPLINETYPE
 70
     6
  9
$SPLINESEGS
 70
     8
  9
$HANDSEED
  5
6937
  9
$SURFTAB1
 70
     6
  9
$SURFTAB2
 70
     6
  9
$SURFTYPE
 70
     6
  9
$SURFU
 70
     6
  9
$SURFV
 70
     6
  9
$UCSBASE
  2

  9
$UCSNAME
  2

  9
$UCSORG
 10
0.0
 20
0.0
 30
0.0
  9
$UCSXDIR
 10
1.0
 20
0.0
 30
0.0
  9
$UCSYDIR
 10
0.0
 20
1.0
 30
0.0
  9
$UCSORTHOREF
  2

  9
$UCSORTHOVIEW
 70
     0
  9
$UCSORGTOP
 10
0.0
 20
0.0
 30
0.0
  9
$UCSORGBOTTOM
 10
0.0
 20
0.0
 30
0.0
  9
$UCSORGLEFT
 10
0.0
 20
0.0
 30
0.0
  9
$UCSORGRIGHT
 10
0.0
 20
0.0
 30
0.0
  9
$UCSORGFRONT
 10
0.0
 20
0.0
 30
0.0
  9
$UCSORGBACK
 10
0.0
 20
0.0
 30
0.0
  9
$PUCSBASE
  2

  9
$PUCSNAME
  2

  9
$PUCSORG
 10
0.0
 20
0.0
 30
0.0
  9
$PUCSXDIR
 10
1.0
 20
0.0
 30
0.0
  9
$PUCSYDIR
 10
0.0
 20
1.0
 30
0.0
  9
$PUCSORTHOREF
  2

  9
$PUCSORTHOVIEW
 70
     0
  9
$PUCSORGTOP
 10
0.0
 20
0.0
 30
0.0
  9
$PUCSORGBOTTOM
 10
0.0
 20
0.0
 30
0.0
  9
$PUCSORGLEFT
 10
0.0
 20
0.0
 30
0.0
  9
$PUCSORGRIGHT
 10
0.0
 20
0.0
 30
0.0
  9
$PUCSORGFRONT
 10
0.0
 20
0.0
 30
0.0
  9
$PUCSORGBACK
 10
0.0
 20
0.0
 30
0.0
  9
$USERI1
 70
     0
  9
$USERI2
 70
     0
  9
$USERI3
 70
     0
  9
$USERI4
 70
     0
  9
$USERI5
 70
     0
  9
$USERR1
 40
0.0
  9
$USERR2
 40
0.0
  9
$USERR3
 40
0.0
  9
$USERR4
 40
0.0
  9
$USERR5
 40
0.0
  9
$WORLDVIEW
 70
     1
  9
$SHADEDGE
 70
     3
  9
$SHADEDIF
 70
    70
  9
$TILEMODE
 70
     1
  9
$MAXACTVP
 70
    64
  9
$PINSBASE
 10
0.0
 20
0.0
 30
0.0
  9
$PLIMCHECK
 70
     0
  9
$PEXTMIN
 10
1.000000000000000E+20
 20
1.000000000000000E+20
 30
1.000000000000000E+20
  9
$PEXTMAX
 10
-1.000000000000000E+20
 20
-1.000000000000000E+20
 30
-1.000000000000000E+20
  9
$PLIMMIN
 10
0.0
 20
0.0
  9
$PLIMMAX
 10
12.0
 20
9.0
  9
$UNITMODE
 70
     0
  9
$VISRETAIN
 70
     1
  9
$PLINEGEN
 70
     0
  9
$PSLTSCALE
 70
     1
  9
$TREEDEPTH
 70
  3020
  9
$CMLSTYLE
  2
Standard
  9
$CMLJUST
 70
     0
  9
$CMLSCALE
 40
1.0
  9
$PROXYGRAPHICS
 70
     1
  9
$MEASUREMENT
 70
     0
  9
$CELWEIGHT
370
    -1
  9
$ENDCAPS
280
     0
  9
$JOINSTYLE
280
     0
  9
$LWDISPLAY
290
     0
  9
$INSUNITS
 70
     1
  9
$HYPERLINKBASE
  1

  9
$STYLESHEET
  1

  9
$XEDIT
290
     1
  9
$CEPSNTYPE
380
     0
  9
$PSTYLEMODE
290
     1
  9
$FINGERPRINTGUID
  2
{AA65808A-8521-6A4F-AFD2-CA2EBABDC758}
  9
$VERSIONGUID
  2
{4149F673-ED74-5D46-A7AC-BC27F9706022}
  9
$EXTNAMES
290
     1
  9
$PSVPSCALE
 40
0.0
  9
$OLESTARTUP
290
     0
  9
$SORTENTS
280
   127
  9
$INDEXCTL
280
     0
  9
$HIDETEXT
280
     0
  9
$XCLIPFRAME
280
     2
  9
$HALOGAP
280
     0
  9
$OBSCOLOR
 70
   257
  9
$OBSLTYPE
280
     0
  9
$INTERSECTIONDISPLAY
280
     0
  9
$INTERSECTIONCOLOR
 70
   257
  9
$DIMASSOC
280
     1
  9
$PROJECTNAME
  1

  9
$CAMERADISPLAY
290
     0
  9
$LENSLENGTH
 40
50.0
  9
$CAMERAHEIGHT
 40
0.0
  9
$STEPSPERSEC
 40
2.0
  9
$STEPSIZE
 40
6.0
  9
$3DDWFPREC
 40
2.0
  9
$PSOLWIDTH
 40
0.25
  9
$PSOLHEIGHT
 40
4.0
  9
$LOFTANG1
 40
1.570796326794896
  9
$LOFTANG2
 40
1.570796326794896
  9
$LOFTMAG1
 40
0.0
  9
$LOFTMAG2
 40
0.0
  9
$LOFTPARAM
 70
     7
  9
$LOFTNORMALS
280
     1
  9
$LATITUDE
 40
37.795
  9
$LONGITUDE
 40
-122.394
  9
$NORTHDIRECTION
 40
0.0
  9
$TIMEZONE
 70
 -8000
  9
$LIGHTGLYPHDISPLAY
280
     1
  9
$TILEMODELIGHTSYNCH
280
     1
  9
$CMATERIAL
347
67C0
  9
$SOLIDHIST
280
     0
  9
$SHOWHIST
280
     1
  9
$DWFFRAME
280
     2
  9
$DGNFRAME
280
     0
  9
$REALWORLDSCALE
290
     1
  9
$INTERFERECOLOR
 62
     1
  9
$INTERFEREOBJVS
345
67E2
  9
$INTERFEREVPVS
346
67DF
  9
$CSHADOW
280
     0
  9
$SHADOWPLANELOCATION
 40
0.0
  0
ENDSEC
  0
SECTION
  2
CLASSES
  0
CLASS
  1
ACDBDICTIONARYWDFLT
  2
AcDbDictionaryWithDefault
  3
ObjectDBX Classes
 90
        0
 91
        1
280
     0
281
     0
  0
CLASS
  1
RASTERVARIABLES
  2
AcDbRasterVariables
  3
ISM
 90
        0
 91
        1
280
     0
281
     0
  0
CLASS
  1
IMAGEDEF
  2
AcDbRasterImageDef
  3
ISM
 90
        0
 91
        1
280
     0
281
     0
  0
CLASS
  1
IMAGEDEF_REACTOR
  2
AcDbRasterImageDefReactor
  3
ISM
 90
        1
 91
        0
280
     0
281
     0
  0
CLASS
  1
IMAGE
  2
AcDbRasterImage
  3
ISM
 90
     2175
 91
        0
280
     0
281
     1
  0
CLASS
  1
MATERIAL
  2
AcDbMaterial
  3
ObjectDBX Classes
 90
     1153
 91
        3
280
     0
281
     0
  0
CLASS
  1
VISUALSTYLE
  2
AcDbVisualStyle
  3
ObjectDBX Classes
 90
     4095
 91
       24
280
     0
281
     0
  0
CLASS
  1
TABLESTYLE
  2
AcDbTableStyle
  3
ObjectDBX Classes
 90
     4095
 91
        1
280
     0
281
     0
  0
CLASS
  1
SCALE
  2
AcDbScale
  3
ObjectDBX Classes
 90
     1153
 91
       17
280
     0
281
     0
  0
CLASS
  1
MLEADERSTYLE
  2
AcDbMLeaderStyle
  3
ACDB_MLEADERSTYLE_CLASS
 90
     4095
 91
        1
280
     0
281
     0
  0
CLASS
  1
ACDBSECTIONVIEWSTYLE
  2
AcDbSectionViewStyle
  3
ObjectDBX Classes
 90
     1025
 91
        1
280
     0
281
     0
  0
CLASS
  1
ACDBDETAILVIEWSTYLE
  2
AcDbDetailViewStyle
  3
ObjectDBX Classes
 90
     1025
 91
        1
280
     0
281
     0
  0
CLASS
  1
CELLSTYLEMAP
  2
AcDbCellStyleMap
  3
ObjectDBX Classes
 90
     1152
 91
        2
280
     0
281
     0
  0
CLASS
  1
DICTIONARYVAR
  2
AcDbDictionaryVar
  3
ObjectDBX Classes
 90
        0
 91
       21
280
     0
281
     0
  0
ENDSEC
  0
SECTION
  2
TABLES
  0
TABLE
  2
VPORT
  5
8
102
{ACAD_XDICTIONARY
360
680F
102
}
330
0
100
AcDbSymbolTable
 70
     1
  0
VPORT
  5
1F4
330
8
100
AcDbSymbolTableRecord
100
AcDbViewportTableRecord
  2
*ACTIVE
 70
     0
 10
0.0
 20
0.0
 11
1.0
 21
1.0
 12
47.35579587714592
 22
32.97255701018365
 13
0.0
 23
0.0
 14
1.0
 24
1.0
 15
0.0
 25
0.0
 16
0.0
 26
0.0
 36
1.0
 17
0.0
 27
0.0
 37
0.0
 40
47.64567718563031
 41
2.250975292587776
 42
50.0
 43
0.0
 44
0.0
 50
0.0
 51
0.0
 71
     0
 72
   100
 73
     1
 74
     1
 75
     0
 76
     0
 77
     0
 78
     0
281
     0
 65
     1
110
0.0
120
0.0
130
0.0
111
1.0
121
0.0
131
0.0
112
0.0
122
1.0
132
0.0
 79
     0
146
0.0
348
67DE
 60
     3
 61
     5
292
     1
282
     1
141
0.0
142
0.0
 63
   250
421
  3355443
1001
ACAD_NAV_VCDISPLAY
1070
     3
  0
ENDTAB
  0
TABLE
  2
LTYPE
  5
5
330
0
100
AcDbSymbolTable
 70
     6
  0
LTYPE
  5
14
330
5
100
AcDbSymbolTableRecord
100
AcDbLinetypeTableRecord
  2
BYBLOCK
 70
     0
  3

 72
    65
 73
     0
 40
0.0
  0
LTYPE
  5
15
330
5
100
AcDbSymbolTableRecord
100
AcDbLinetypeTableRecord
  2
BYLAYER
 70
     0
  3

 72
    65
 73
     0
 40
0.0
  0
LTYPE
  5
16
330
5
100
AcDbSymbolTableRecord
100
AcDbLinetypeTableRecord
  2
CONTINUOUS
 70
     0
  3
Solid line
 72
    65
 73
     0
 40
0.0
  0
LTYPE
  5
1F5
330
5
100
AcDbSymbolTableRecord
100
AcDbLinetypeTableRecord
  2
CENTER
 70
     0
  3
____ _ ____ _ ____ _ ____ _ ____ _ ____ _ ____
 72
    65
 73
     4
 40
0.6
 49
0.375
 74
     0
 49
-0.075
 74
     0
 49
0.075
 74
     0
 49
-0.075
 74
     0
  0
LTYPE
  5
1F6
330
5
100
AcDbSymbolTableRecord
100
AcDbLinetypeTableRecord
  2
HIDDEN
 70
     0
  3
- - - - - - - - - - - - - - - - - - - -
 72
    65
 73
     2
 40
0.2
 49
0.1
 74
     0
 49
-0.1
 74
     0
  0
LTYPE
  5
1F7
330
5
100
AcDbSymbolTableRecord
100
AcDbLinetypeTableRecord
  2
PHANTOM
 70
     0
  3
_____ _ _ _____ _ _ _____ _ _ _____
 72
    65
 73
     6
 40
0.8
 49
0.45
 74
     0
 49
-0.05
 74
     0
 49
0.1
 74
     0
 49
-0.05
 74
     0
 49
0.1
 74
     0
 49
-0.05
 74
     0
  0
LTYPE
  5
1F8
330
5
100
AcDbSymbolTableRecord
100
AcDbLinetypeTableRecord
  2
DOT
 70
     0
  3
. . . . . . . . . . . . . . . . . . . .
 72
    65
 73
     2
 40
0.2
 49
0.1
 74
     0
 49
-0.1
 74
     0
  0
LTYPE
  5
1F9
330
5
100
AcDbSymbolTableRecord
100
AcDbLinetypeTableRecord
  2
DASHED
 70
     0
  3
- - - - - - - - - - - - - - - - - - - -
 72
    65
 73
     2
 40
0.2
 49
0.1
 74
     0
 49
-0.1
 74
     0
  0
ENDTAB
  0
TABLE
  2
LAYER
  5
2
102
{ACAD_XDICTIONARY
360
6927
102
}
330
0
100
AcDbSymbolTable
 70
    28
  0
LAYER
  5
10
102
{ACAD_XDICTIONARY
360
685D
102
}
330
2
100
AcDbSymbolTableRecord
100
AcDbLayerTableRecord
  2
0
 70
     0
 62
     7
  6
CONTINUOUS
370
    -3
390
F
347
67D0
348
0
  0
LAYER
  5
1FA
102
{ACAD_XDICTIONARY
360
685F
102
}
330
2
100
AcDbSymbolTableRecord
100
AcDbLayerTableRecord
  2
DEFAULT_1
 70
     0
 62
     7
  6
CENTER
370
    -3
390
F
347
67D0
348
0
  0
LAYER
  5
1FB
102
{ACAD_XDICTIONARY
360
6861
102
}
330
2
100
AcDbSymbolTableRecord
100
AcDbLayerTableRecord
  2
DEFAULT_2
 70
     0
 62
     8
  6
HIDDEN
370
    -3
390
F
347
67D0
348
0
  0
LAYER
  5
1FC
102
{ACAD_XDICTIONARY
360
6863
102
}
330
2
100
AcDbSymbolTableRecord
100
AcDbLayerTableRecord
  2
DEFAULT_3
 70
     0
 62
     7
  6
PHANTOM
370
    -3
390
F
347
67D0
348
0
  0
LAYER
  5
1FD
102
{ACAD_XDICTIONARY
360
6865
102
}
330
2
100
AcDbSymbolTableRecord
100
AcDbLayerTableRecord
  2
0_DEFAULT
 70
     0
 62
     7
  6
CONTINUOUS
370
    -3
390
F
347
67D0
348
0
  0
LAYER
  5
1FE
102
{ACAD_XDICTIONARY
360
6867
102
}
330
2
100
AcDbSymbolTableRecord
100
AcDbLayerTableRecord
  2
1_CURVES
 70
     0
 62
     7
  6
CONTINUOUS
370
    -3
390
F
347
67D0
348
0
  0
LAYER
  5
1FF
102
{ACAD_XDICTIONARY
360
6869
102
}
330
2
100
AcDbSymbolTableRecord
100
AcDbLayerTableRecord
  2
1_CURVES_ILLUSIO
 70
     0
 62
     7
  6
CONTINUOUS
370
    -3
390
F
347
67D0
348
0
  0
LAYER
  5
200
102
{ACAD_XDICTIONARY
360
686B
102
}
330
2
100
AcDbSymbolTableRecord
100
AcDbLayerTableRecord
  2
1_CURVES_JETS
 70
     0
 62
     7
  6
CONTINUOUS
370
    -3
390
F
347
67D0
348
0
  0
LAYER
  5
201
102
{ACAD_XDICTIONARY
360
686D
102
}
330
2
100
AcDbSymbolTableRecord
100
AcDbLayerTableRecord
  2
1_CURVES_SPEC_FRONT
 70
     0
 62
     7
  6
CONTINUOUS
370
    -3
390
F
347
67D0
348
0
  0
LAYER
  5
202
102
{ACAD_XDICTIONARY
360
686F
102
}
330
2
100
AcDbSymbolTableRecord
100
AcDbLayerTableRecord
  2
1_CURVES_SPEC_RIGHT
 70
     0
 62
     7
  6
CONTINUOUS
370
    -3
390
F
347
67D0
348
0
  0
LAYER
  5
203
102
{ACAD_XDICTIONARY
360
6871
102
}
330
2
100
AcDbSymbolTableRecord
100
AcDbLayerTableRecord
  2
1_CURVES_TOLERANCES
 70
     0
 62
     7
  6
CONTINUOUS
370
    -3
390
F
347
67D0
348
0
  0
LAYER
  5
204
102
{ACAD_XDICTIONARY
360
6873
102
}
330
2
100
AcDbSymbolTableRecord
100
AcDbLayerTableRecord
  2
1_CURVES_ZONE_ROBINETERIE
 70
     0
 62
     7
  6
CONTINUOUS
370
    -3
390
F
347
67D0
348
0
  0
LAYER
  5
205
102
{ACAD_XDICTIONARY
360
6875
102
}
330
2
100
AcDbSymbolTableRecord
100
AcDbLayerTableRecord
  2
2_PLANES
 70
     0
 62
     7
  6
CONTINUOUS
370
    -3
390
F
347
67D0
348
0
  0
LAYER
  5
206
102
{ACAD_XDICTIONARY
360
6877
102
}
330
2
100
AcDbSymbolTableRecord
100
AcDbLayerTableRecord
  2
2_PLANES_ILLUSIO
 70
     0
 62
     7
  6
CONTINUOUS
370
    -3
390
F
347
67D0
348
0
  0
LAYER
  5
207
102
{ACAD_XDICTIONARY
360
6879
102
}
330
2
100
AcDbSymbolTableRecord
100
AcDbLayerTableRecord
  2
3_POINTS
 70
     0
 62
     7
  6
CONTINUOUS
370
    -3
390
F
347
67D0
348
0
  0
LAYER
  5
208
102
{ACAD_XDICTIONARY
360
687B
102
}
330
2
100
AcDbSymbolTableRecord
100
AcDbLayerTableRecord
  2
3_POINTS_JETS
 70
     0
 62
     7
  6
CONTINUOUS
370
    -3
390
F
347
67D0
348
0
  0
LAYER
  5
209
102
{ACAD_XDICTIONARY
360
687D
102
}
330
2
100
AcDbSymbolTableRecord
100
AcDbLayerTableRecord
  2
4_CSYS
 70
     0
 62
     7
  6
CONTINUOUS
370
    -3
390
F
347
67D0
348
0
  0
LAYER
  5
20A
102
{ACAD_XDICTIONARY
360
687F
102
}
330
2
100
AcDbSymbolTableRecord
100
AcDbLayerTableRecord
  2
5_AXIS
 70
     0
 62
     7
  6
CONTINUOUS
370
    -3
390
F
347
67D0
348
0
  0
LAYER
  5
20B
102
{ACAD_XDICTIONARY
360
6881
102
}
330
2
100
AcDbSymbolTableRecord
100
AcDbLayerTableRecord
  2
5_AXIS_ILLUSIO
 70
     0
 62
     7
  6
CONTINUOUS
370
    -3
390
F
347
67D0
348
0
  0
LAYER
  5
20C
102
{ACAD_XDICTIONARY
360
6883
102
}
330
2
100
AcDbSymbolTableRecord
100
AcDbLayerTableRecord
  2
5_AXIS_JETS
 70
     0
 62
     7
  6
CONTINUOUS
370
    -3
390
F
347
67D0
348
0
  0
LAYER
  5
20D
102
{ACAD_XDICTIONARY
360
6885
102
}
330
2
100
AcDbSymbolTableRecord
100
AcDbLayerTableRecord
  2
6_SURFACES
 70
     0
 62
     7
  6
CONTINUOUS
370
    -3
390
F
347
67D0
348
0
  0
LAYER
  5
20E
102
{ACAD_XDICTIONARY
360
6887
102
}
330
2
100
AcDbSymbolTableRecord
100
AcDbLayerTableRecord
  2
6_SURFACES_TOOLING
 70
     0
 62
     7
  6
CONTINUOUS
370
    -3
390
F
347
67D0
348
0
  0
LAYER
  5
20F
102
{ACAD_XDICTIONARY
360
6889
102
}
330
2
100
AcDbSymbolTableRecord
100
AcDbLayerTableRecord
  2
7_NOTES
 70
     0
 62
     7
  6
CONTINUOUS
370
    -3
390
F
347
67D0
348
0
  0
LAYER
  5
210
102
{ACAD_XDICTIONARY
360
688B
102
}
330
2
100
AcDbSymbolTableRecord
100
AcDbLayerTableRecord
  2
CURVE_ZONE_ROBINETTERIE
 70
     0
 62
     7
  6
CONTINUOUS
370
    -3
390
F
347
67D0
348
0
  0
LAYER
  5
211
102
{ACAD_XDICTIONARY
360
688D
102
}
330
2
100
AcDbSymbolTableRecord
100
AcDbLayerTableRecord
  2
DEGAGEMENT_SERIGRAPHIE
 70
     0
 62
     7
  6
CONTINUOUS
370
    -3
390
F
347
67D0
348
0
  0
LAYER
  5
212
102
{ACAD_XDICTIONARY
360
688F
102
}
330
2
100
AcDbSymbolTableRecord
100
AcDbLayerTableRecord
  2
MIA_PLUS_TROU
 70
     0
 62
     7
  6
CONTINUOUS
370
    -3
390
F
347
67D0
348
0
  0
LAYER
  5
213
102
{ACAD_XDICTIONARY
360
6891
102
}
330
2
100
AcDbSymbolTableRecord
100
AcDbLayerTableRecord
  2
MIA_TROU
 70
     0
 62
     7
  6
CONTINUOUS
370
    -3
390
F
347
67D0
348
0
  0
LAYER
  5
214
102
{ACAD_XDICTIONARY
360
6893
102
}
330
2
100
AcDbSymbolTableRecord
100
AcDbLayerTableRecord
  2
XSEC_DATUMS
 70
     0
 62
     7
  6
CONTINUOUS
370
    -3
390
F
347
67D0
348
0
  0
ENDTAB
  0
TABLE
  2
STYLE
  5
3
330
0
100
AcDbSymbolTable
 70
     8
  0
STYLE
  5
11
330
3
100
AcDbSymbolTableRecord
100
AcDbTextStyleTableRecord
  2
STANDARD
 70
     0
 40
0.0
 41
0.8
 50
0.0
 71
     0
 42
0.2
  3
txt
  4

  0
STYLE
  5
215
330
3
100
AcDbSymbolTableRecord
100
AcDbTextStyleTableRecord
  2
TEXTSTYLE_1
 70
     0
 40
0.0
 41
0.8
 50
0.0
 71
     0
 42
0.2
  3
gdt
  4

  0
STYLE
  5
216
330
3
100
AcDbSymbolTableRecord
100
AcDbTextStyleTableRecord
  2
TEXTSTYLE_2
 70
     0
 40
0.0
 41
1.0
 50
0.0
 71
     0
 42
0.2
  3

  4

1001
ACAD
1000
CG Triumvirate
1071
       34
  0
STYLE
  5
217
330
3
100
AcDbSymbolTableRecord
100
AcDbTextStyleTableRecord
  2
TEXTSTYLE_3
 70
     0
 40
0.0
 41
1.0
 50
0.0
 71
     0
 42
0.2
  3

  4

1001
ACAD
1000
CG Triumvirate
1071
       34
  0
STYLE
  5
218
330
3
100
AcDbSymbolTableRecord
100
AcDbTextStyleTableRecord
  2
TEXTSTYLE_4
 70
     0
 40
0.0
 41
1.0
 50
0.0
 71
     0
 42
0.2
  3
txt
  4

  0
STYLE
  5
219
330
3
100
AcDbSymbolTableRecord
100
AcDbTextStyleTableRecord
  2
TEXTSTYLE_5
 70
     0
 40
0.0
 41
1.0
 50
0.0
 71
     0
 42
0.2
  3
txt
  4

  0
STYLE
  5
21A
330
3
100
AcDbSymbolTableRecord
100
AcDbTextStyleTableRecord
  2
TEXTSTYLE_6
 70
     0
 40
0.0
 41
1.0
 50
0.0
 71
     0
 42
0.2
  3

  4

1001
ACAD
1000
CG Triumvirate
1071
       34
  0
STYLE
  5
21B
330
3
100
AcDbSymbolTableRecord
100
AcDbTextStyleTableRecord
  2
TEXTSTYLE_7
 70
     0
 40
0.0
 41
0.8
 50
0.0
 71
     0
 42
0.2
  3
txt
  4

  0
ENDTAB
  0
TABLE
  2
VIEW
  5
6
330
0
100
AcDbSymbolTable
 70
     1
  0
ENDTAB
  0
TABLE
  2
UCS
  5
7
330
0
100
AcDbSymbolTable
 70
     0
  0
ENDTAB
  0
TABLE
  2
APPID
  5
9
330
0
100
AcDbSymbolTable
 70
     3
  0
APPID
  5
21C
330
9
100
AcDbSymbolTableRecord
100
AcDbRegAppTableRecord
  2
ACAD
 70
     0
  0
APPID
  5
6849
330
9
100
AcDbSymbolTableRecord
100
AcDbRegAppTableRecord
  2
ACAD_MLEADERVER
 70
     0
  0
APPID
  5
6895
330
9
100
AcDbSymbolTableRecord
100
AcDbRegAppTableRecord
  2
ACAD_NAV_VCDISPLAY
 70
     0
  0
ENDTAB
  0
TABLE
  2
DIMSTYLE
  5
A
330
0
100
AcDbSymbolTable
 70
     3
100
AcDbDimStyleTable
 71
     0
  0
DIMSTYLE
105
226
330
A
100
AcDbSymbolTableRecord
100
AcDbDimStyleTableRecord
  2
STANDARD
 70
     0
 41
2.0
 44
0.125
 47
0.001
 48
0.001
 71
     1
 78
     4
 79
     1
140
1.333333333299999
143
2.54
170
     1
179
     3
271
     3
272
     3
284
     4
340
11
341
21F
342
21F
343
21F
344
21F
  0
DIMSTYLE
105
227
330
A
100
AcDbSymbolTableRecord
100
AcDbDimStyleTableRecord
  2
DIMSTYLE_1
 70
     0
 41
2.0
 44
0.125
 47
0.001
 48
0.001
 78
     4
 79
     1
140
1.333333333299999
143
2.54
147
0.0625
170
     1
171
     0
179
     3
272
    16
274
     0
284
     4
340
11
341
21F
342
21F
343
21F
344
21F
  0
DIMSTYLE
105
228
330
A
100
AcDbSymbolTableRecord
100
AcDbDimStyleTableRecord
  2
DIMSTYLE_2
 70
     0
 41
2.0
 44
0.125
 47
0.001
 48
0.001
 78
     4
 79
     1
140
1.333333333299999
143
2.54
147
0.0625
170
     1
171
     1
179
     3
271
     5
272
    32
274
     1
284
     4
340
11
341
21F
342
21F
343
21F
344
21F
  0
ENDTAB
  0
TABLE
  2
BLOCK_RECORD
  5
1
330
0
100
AcDbSymbolTable
 70
     7
  0
BLOCK_RECORD
  5
21D
330
1
100
AcDbSymbolTableRecord
100
AcDbBlockTableRecord
  2
*Model_Space
340
67B8
 70
     0
280
     1
281
     0
  0
BLOCK_RECORD
  5
21E
330
1
100
AcDbSymbolTableRecord
100
AcDbBlockTableRecord
  2
*Paper_Space
340
67B9
 70
     0
280
     1
281
     0
  0
BLOCK_RECORD
  5
21F
330
1
100
AcDbSymbolTableRecord
100
AcDbBlockTableRecord
  2
_FILLED
340
0
102
{BLKREFS
102
}
 70
     0
280
     1
281
     0
  0
BLOCK_RECORD
  5
223
330
1
100
AcDbSymbolTableRecord
100
AcDbBlockTableRecord
  2
L03-USAGE_INTERNE_SEULEM_BL2
340
0
 70
     0
280
     1
281
     0
  0
BLOCK_RECORD
  5
224
330
1
100
AcDbSymbolTableRecord
100
AcDbBlockTableRecord
  2
L03-MOTEUR-CONTROLE-LED_BL1
340
0
 70
     0
280
     1
281
     0
  0
BLOCK_RECORD
  5
225
330
1
100
AcDbSymbolTableRecord
100
AcDbBlockTableRecord
  2
L03-NOTE_SPECS_BAINS_BL0
340
0
 70
     0
280
     1
281
     0
  0
ENDTAB
  0
ENDSEC
  0
SECTION
  2
BLOCKS
  0
BLOCK
  5
20
330
21D
100
AcDbEntity
  8
0
100
AcDbBlockBegin
  2
*Model_Space
 70
     0
 10
0.0
 20
0.0
 30
0.0
  3
*Model_Space
  1

  0
ENDBLK
  5
21
330
21D
100
AcDbEntity
  8
0
100
AcDbBlockEnd
  0
BLOCK
  5
1C
330
21E
100
AcDbEntity
 67
     1
  8
0
100
AcDbBlockBegin
  2
*Paper_Space
 70
     0
 10
0.0
 20
0.0
 30
0.0
  3
*Paper_Space
  1

  0
ENDBLK
  5
1D
330
21E
100
AcDbEntity
 67
     1
  8
0
100
AcDbBlockEnd
  0
BLOCK
  5
2F8
330
21F
100
AcDbEntity
  8
0
100
AcDbBlockBegin
  2
_FILLED
 70
     0
 10
0.0
 20
0.0
 30
0.0
  3
_FILLED
  1

  0
SOLID
  5
2F9
330
21F
100
AcDbEntity
  8
0
  6
ByBlock
 62
     0
100
AcDbTrace
 10
0.0
 20
0.0
 30
0.0
 11
-1.0
 21
0.1666666667
 31
0.0
 12
-1.0
 22
-0.1666666667
 32
0.0
 13
-1.0
 23
-0.1666666667
 33
0.0
  0
ENDBLK
  5
2FA
330
21F
100
AcDbEntity
  8
0
  6
ByBlock
 62
     0
100
AcDbBlockEnd
  0
BLOCK
  5
229
330
223
100
AcDbEntity
  8
0
  6
Continuous
 62
     2
100
AcDbBlockBegin
  2
L03-USAGE_INTERNE_SEULEM_BL2
 70
     0
 10
126.1240373068
 20
54.0705541154
 30
0.0
  3
L03-USAGE_INTERNE_SEULEM_BL2
  1

  0
TEXT
  5
22A
330
223
100
AcDbEntity
  8
0
  6
Continuous
 62
     7
100
AcDbText
 10
119.8099770051
 20
56.3155881011
 30
0.0
 40
1.1626666667
  1
INTERNAL USE 
 50
10.00000000025733
 41
1.005097163396351
  7
TEXTSTYLE_3
 72
     5
 11
131.9597326258
 21
58.4579178261
 31
0.0
100
AcDbText
  0
TEXT
  5
22B
330
223
100
AcDbEntity
  8
0
  6
Continuous
 62
     7
100
AcDbText
 10
119.0662928011
 20
54.3140669235
 30
0.0
 40
1.1626666667
  1
DOCUMENT ONLY
 50
9.999999999672947
 41
1.004804631891021
  7
TEXTSTYLE_3
 72
     5
 11
133.1752760298
 21
56.801861337
 31
0.0
100
AcDbText
  0
TEXT
  5
22C
330
223
100
AcDbEntity
  8
0
  6
Continuous
 62
     7
100
AcDbText
 10
124.8510203643
 20
54.0656388729
 30
0.0
 40
1.1626666667
  1
 
 50
9.999999999981998
 41
0.9999999893449338
  7
TEXTSTYLE_5
 72
     5
 11
125.9960235118
 21
54.2675338208
 31
0.0
100
AcDbText
  0
TEXT
  5
22D
330
223
100
AcDbEntity
  8
0
  6
Continuous
 62
     7
100
AcDbText
 10
116.4063724813
 20
49.88854446659999
 30
0.0
 40
1.1626666667
  1
DOCUMENT POUR USAGE
 50
9.999999999970015
 41
1.000408784565937
  7
TEXTSTYLE_3
 72
     5
 11
136.7662247449
 21
53.47853574390001
 31
0.0
100
AcDbText
  0
TEXT
  5
22E
330
223
100
AcDbEntity
  8
0
  6
Continuous
 62
     7
100
AcDbText
 10
116.8354719273
 20
47.8717960062
 30
0.0
 40
1.1626666667
  1
A L'INTERNE SEULEMENT
 50
10.00000000000815
 41
1.011903875570898
  7
TEXTSTYLE_3
 72
     5
 11
137.0214533426
 21
51.4311291618
 31
0.0
100
AcDbText
  0
LINE
  5
22F
330
223
100
AcDbEntity
  8
0
  6
Continuous
 62
     1
100
AcDbLine
 10
139.9805890302
 20
49.7270204974
 30
0.0
 11
139.9873479628
 21
49.73377943
 31
0.0
  0
LINE
  5
230
330
223
100
AcDbEntity
  8
0
  6
Continuous
 62
     1
100
AcDbLine
 10
139.2480194638
 20
49.5978487176
 30
0.0
 11
139.8969009089
 21
50.2467301627
 31
0.0
  0
LINE
  5
231
330
223
100
AcDbEntity
  8
0
  6
Continuous
 62
     1
100
AcDbLine
 10
138.5154498973
 20
49.46867693779999
 30
0.0
 11
139.8064538549
 21
50.7596808954
 31
0.0
  0
LINE
  5
232
330
223
100
AcDbEntity
  8
0
  6
Continuous
 62
     1
100
AcDbLine
 10
137.7828803309
 20
49.339505158
 30
0.0
 11
139.716006801
 21
51.272631628
 31
0.0
  0
LINE
  5
233
330
223
100
AcDbEntity
  8
0
  6
Continuous
 62
     1
100
AcDbLine
 10
137.0503107645
 20
49.2103333781
 30
0.0
 11
139.6255597471
 21
51.78558236069999
 31
0.0
  0
LINE
  5
234
330
223
100
AcDbEntity
  8
0
  6
Continuous
 62
     1
100
AcDbLine
 10
136.3177411981
 20
49.0811615983
 30
0.0
 11
137.8587450129
 21
50.6221654131
 31
0.0
  0
LINE
  5
235
330
223
100
AcDbEntity
  8
0
  6
Continuous
 62
     1
100
AcDbLine
 10
138.4560902056
 20
51.21951060579999
 30
0.0
 11
139.5351126931
 21
52.29853309340001
 31
0.0
  0
LINE
  5
236
330
223
100
AcDbEntity
  8
0
  6
Continuous
 62
     1
100
AcDbLine
 10
135.5851716317
 20
48.95198981850001
 30
0.0
 11
137.1261754464
 21
50.4929936333
 31
0.0
  0
LINE
  5
237
330
223
100
AcDbEntity
  8
0
  6
Continuous
 62
     1
100
AcDbLine
 10
138.3656431516
 20
51.7324613385
 30
0.0
 11
139.4446656392
 21
52.81148382600001
 31
0.0
  0
LINE
  5
238
330
223
100
AcDbEntity
  8
0
  6
Continuous
 62
     1
100
AcDbLine
 10
134.8526020653
 20
48.8228180387
 30
0.0
 11
136.39360588
 21
50.3638218535
 31
0.0
  0
LINE
  5
239
330
223
100
AcDbEntity
  8
0
  6
Continuous
 62
     1
100
AcDbLine
 10
138.2751960977
 20
52.2454120712
 30
0.0
 11
139.3542185852
 21
53.3244345587
 31
0.0
  0
LINE
  5
23A
330
223
100
AcDbEntity
  8
0
  6
Continuous
 62
     1
100
AcDbLine
 10
134.1200324988
 20
48.6936462589
 30
0.0
 11
135.6610363136
 21
50.23465007369999
 31
0.0
  0
LINE
  5
23B
330
223
100
AcDbEntity
  8
0
  6
Continuous
 62
     1
100
AcDbLine
 10
138.1847490438
 20
52.7583628039
 30
0.0
 11
139.2637715313
 21
53.8373852914
 31
0.0
  0
LINE
  5
23C
330
223
100
AcDbEntity
  8
0
  6
Continuous
 62
     1
100
AcDbLine
 10
133.3874629324
 20
48.56447447909999
 30
0.0
 11
134.9284667472
 21
50.1054782939
 31
0.0
  0
LINE
  5
23D
330
223
100
AcDbEntity
  8
0
  6
Continuous
 62
     1
100
AcDbLine
 10
138.0943019898
 20
53.27131353649999
 30
0.0
 11
139.1733244773
 21
54.35033602399999
 31
0.0
  0
LINE
  5
23E
330
223
100
AcDbEntity
  8
0
  6
Continuous
 62
     1
100
AcDbLine
 10
132.654893366
 20
48.4353026993
 30
0.0
 11
134.1958971808
 21
49.97630651409999
 31
0.0
  0
LINE
  5
23F
330
223
100
AcDbEntity
  8
0
  6
Continuous
 62
     1
100
AcDbLine
 10
138.0038549359
 20
53.7842642692
 30
0.0
 11
139.0828774234
 21
54.8632867567
 31
0.0
  0
LINE
  5
240
330
223
100
AcDbEntity
  8
0
  6
Continuous
 62
     1
100
AcDbLine
 10
131.9223237996
 20
48.3061309195
 30
0.0
 11
133.4633276144
 21
49.84713473430001
 31
0.0
  0
LINE
  5
241
330
223
100
AcDbEntity
  8
0
  6
Continuous
 62
     1
100
AcDbLine
 10
137.9134078819
 20
54.29721500189999
 30
0.0
 11
138.9924303694
 21
55.37623748939999
 31
0.0
  0
LINE
  5
242
330
223
100
AcDbEntity
  8
0
  6
Continuous
 62
     1
100
AcDbLine
 10
131.1897542332
 20
48.1769591397
 30
0.0
 11
132.7307580479
 21
49.71796295449999
 31
0.0
  0
LINE
  5
243
330
223
100
AcDbEntity
  8
0
  6
Continuous
 62
     1
100
AcDbLine
 10
137.822960828
 20
54.81016573449999
 30
0.0
 11
138.9019833155
 21
55.889188222
 31
0.0
  0
LINE
  5
244
330
223
100
AcDbEntity
  8
0
  6
Continuous
 62
     1
100
AcDbLine
 10
130.4571846667
 20
48.0477873599
 30
0.0
 11
131.9981884815
 21
49.58879117470001
 31
0.0
  0
LINE
  5
245
330
223
100
AcDbEntity
  8
0
  6
Continuous
 62
     1
100
AcDbLine
 10
137.7325137739999
 20
55.3231164672
 30
0.0
 11
138.8115362616
 21
56.4021389547
 31
0.0
  0
LINE
  5
246
330
223
100
AcDbEntity
  8
0
  6
Continuous
 62
     1
100
AcDbLine
 10
129.7246151003
 20
47.9186155801
 30
0.0
 11
131.2656189151
 21
49.4596193949
 31
0.0
  0
LINE
  5
247
330
223
100
AcDbEntity
  8
0
  6
Continuous
 62
     1
100
AcDbLine
 10
137.4296341742
 20
55.62363465399999
 30
0.0
 11
138.7210892076
 21
56.9150896874
 31
0.0
  0
LINE
  5
248
330
223
100
AcDbEntity
  8
0
  6
Continuous
 62
     1
100
AcDbLine
 10
128.9920455339
 20
47.7894438003
 30
0.0
 11
130.5330493487
 21
49.3304476151
 31
0.0
  0
LINE
  5
249
330
223
100
AcDbEntity
  8
0
  6
Continuous
 62
     1
100
AcDbLine
 10
136.6970646078
 20
55.4944628742
 30
0.0
 11
138.6306421537
 21
57.4280404201
 31
0.0
  0
LINE
  5
24A
330
223
100
AcDbEntity
  8
0
  6
Continuous
 62
     1
100
AcDbLine
 10
128.2594759675
 20
47.6602720205
 30
0.0
 11
129.8004797823
 21
49.2012758353
 31
0.0
  0
LINE
  5
24B
330
223
100
AcDbEntity
  8
0
  6
Continuous
 62
     1
100
AcDbLine
 10
135.9644950414
 20
55.36529109439999
 30
0.0
 11
136.9918373396
 21
56.39263339260001
 31
0.0
  0
LINE
  5
24C
330
223
100
AcDbEntity
  8
0
  6
Continuous
 62
     1
100
AcDbLine
 10
137.4611726122
 20
56.8619686652
 30
0.0
 11
138.5401950997
 21
57.9409911527
 31
0.0
  0
LINE
  5
24D
330
223
100
AcDbEntity
  8
0
  6
Continuous
 62
     1
100
AcDbLine
 10
127.5269064011
 20
47.53110024069999
 30
0.0
 11
129.0679102159
 21
49.07210405549999
 31
0.0
  0
LINE
  5
24E
330
223
100
AcDbEntity
  8
0
  6
Continuous
 62
     1
100
AcDbLine
 10
135.231925475
 20
55.2361193146
 30
0.0
 11
136.2592675636
 21
56.26346140319999
 31
0.0
  0
LINE
  5
24F
330
223
100
AcDbEntity
  8
0
  6
Continuous
 62
     1
100
AcDbLine
 10
137.3707255583
 20
57.3749193979
 30
0.0
 11
138.4497480458
 21
58.4539418854
 31
0.0
  0
LINE
  5
250
330
223
100
AcDbEntity
  8
0
  6
Continuous
 62
     1
100
AcDbLine
 10
126.7943368347
 20
47.4019284609
 30
0.0
 11
128.3353406494
 21
48.94293227569999
 31
0.0
  0
LINE
  5
251
330
223
100
AcDbEntity
  8
0
  6
Continuous
 62
     1
100
AcDbLine
 10
134.4993559085
 20
55.10694753479999
 30
0.0
 11
135.5266977876
 21
56.1342894138
 31
0.0
  0
LINE
  5
252
330
223
100
AcDbEntity
  8
0
  6
Continuous
 62
     1
100
AcDbLine
 10
137.2802785043
 20
57.88787013050001
 30
0.0
 11
138.3593009918
 21
58.9668926181
 31
0.0
  0
LINE
  5
253
330
223
100
AcDbEntity
  8
0
  6
Continuous
 62
     1
100
AcDbLine
 10
126.0617672682
 20
47.27275668109999
 30
0.0
 11
127.602771083
 21
48.8137604958
 31
0.0
  0
LINE
  5
254
330
223
100
AcDbEntity
  8
0
  6
Continuous
 62
     1
100
AcDbLine
 10
133.7667863421
 20
54.977775755
 30
0.0
 11
134.7941280116
 21
56.0051174244
 31
0.0
  0
LINE
  5
255
330
223
100
AcDbEntity
  8
0
  6
Continuous
 62
     1
100
AcDbLine
 10
137.1898314504
 20
58.40082086319999
 30
0.0
 11
138.2688539379
 21
59.4798433507
 31
0.0
  0
LINE
  5
256
330
223
100
AcDbEntity
  8
0
  6
Continuous
 62
     1
100
AcDbLine
 10
125.3291977018
 20
47.1435849013
 30
0.0
 11
126.8702015166
 21
48.684588716
 31
0.0
  0
LINE
  5
257
330
223
100
AcDbEntity
  8
0
  6
Continuous
 62
     1
100
AcDbLine
 10
133.0342167757
 20
54.84860397510001
 30
0.0
 11
134.0615582355
 21
55.87594543499999
 31
0.0
  0
LINE
  5
258
330
223
100
AcDbEntity
  8
0
  6
Continuous
 62
     1
100
AcDbLine
 10
137.0993843964
 20
58.9137715959
 30
0.0
 11
138.178406884
 21
59.9927940834
 31
0.0
  0
LINE
  5
259
330
223
100
AcDbEntity
  8
0
  6
Continuous
 62
     1
100
AcDbLine
 10
124.5966281354
 20
47.0144131215
 30
0.0
 11
126.1376319502
 21
48.5554169362
 31
0.0
  0
LINE
  5
25A
330
223
100
AcDbEntity
  8
0
  6
Continuous
 62
     1
100
AcDbLine
 10
132.3016472093
 20
54.71943219529999
 30
0.0
 11
133.3289884595
 21
55.74677344560001
 31
0.0
  0
LINE
  5
25B
330
223
100
AcDbEntity
  8
0
  6
Continuous
 62
     1
100
AcDbLine
 10
137.0089373425
 20
59.4267223285
 30
0.0
 11
138.08795983
 21
60.50574481609999
 31
0.0
  0
LINE
  5
25C
330
223
100
AcDbEntity
  8
0
  6
Continuous
 62
     1
100
AcDbLine
 10
123.864058569
 20
46.8852413417
 30
0.0
 11
125.4050623838
 21
48.4262451564
 31
0.0
  0
LINE
  5
25D
330
223
100
AcDbEntity
  8
0
  6
Continuous
 62
     1
100
AcDbLine
 10
131.5690776429
 20
54.5902604155
 30
0.0
 11
132.5964186835
 21
55.6176014561
 31
0.0
  0
LINE
  5
25E
330
223
100
AcDbEntity
  8
0
  6
Continuous
 62
     1
100
AcDbLine
 10
136.9184902885
 20
59.9396730612
 30
0.0
 11
137.9975127761
 21
61.0186955487
 31
0.0
  0
LINE
  5
25F
330
223
100
AcDbEntity
  8
0
  6
Continuous
 62
     1
100
AcDbLine
 10
123.1314890026
 20
46.7560695618
 30
0.0
 11
124.6724928173
 21
48.2970733766
 31
0.0
  0
LINE
  5
260
330
223
100
AcDbEntity
  8
0
  6
Continuous
 62
     1
100
AcDbLine
 10
130.8365080765
 20
54.4610886357
 30
0.0
 11
131.8638489074
 21
55.48842946669999
 31
0.0
  0
LINE
  5
261
330
223
100
AcDbEntity
  8
0
  6
Continuous
 62
     1
100
AcDbLine
 10
136.8280432346
 20
60.4526237939
 30
0.0
 11
137.9070657221
 21
61.5316462814
 31
0.0
  0
LINE
  5
262
330
223
100
AcDbEntity
  8
0
  6
Continuous
 62
     1
100
AcDbLine
 10
122.3989194361
 20
46.62689778199999
 30
0.0
 11
123.9399232509
 21
48.1679015968
 31
0.0
  0
LINE
  5
263
330
223
100
AcDbEntity
  8
0
  6
Continuous
 62
     1
100
AcDbLine
 10
130.10393851
 20
54.3319168559
 30
0.0
 11
131.1312791314
 21
55.3592574773
 31
0.0
  0
LINE
  5
264
330
223
100
AcDbEntity
  8
0
  6
Continuous
 62
     1
100
AcDbLine
 10
136.7375961807
 20
60.9655745266
 30
0.0
 11
137.8166186682
 21
62.0445970141
 31
0.0
  0
LINE
  5
265
330
223
100
AcDbEntity
  8
0
  6
Continuous
 62
     1
100
AcDbLine
 10
121.6663498697
 20
46.4977260022
 30
0.0
 11
123.2073536845
 21
48.03872981699999
 31
0.0
  0
LINE
  5
266
330
223
100
AcDbEntity
  8
0
  6
Continuous
 62
     1
100
AcDbLine
 10
129.3713689436
 20
54.20274507609999
 30
0.0
 11
130.3987093554
 21
55.2300854879
 31
0.0
  0
LINE
  5
267
330
223
100
AcDbEntity
  8
0
  6
Continuous
 62
     1
100
AcDbLine
 10
136.5627200792
 20
61.3940962117
 30
0.0
 11
137.7261716142
 21
62.5575477467
 31
0.0
  0
LINE
  5
268
330
223
100
AcDbEntity
  8
0
  6
Continuous
 62
     1
100
AcDbLine
 10
120.9337803033
 20
46.3685542224
 30
0.0
 11
122.4747841181
 21
47.9095580372
 31
0.0
  0
LINE
  5
269
330
223
100
AcDbEntity
  8
0
  6
Continuous
 62
     1
100
AcDbLine
 10
128.6387993772
 20
54.0735732963
 30
0.0
 11
129.6661395794
 21
55.1009134985
 31
0.0
  0
LINE
  5
26A
330
223
100
AcDbEntity
  8
0
  6
Continuous
 62
     1
100
AcDbLine
 10
135.8301505128
 20
61.2649244319
 30
0.0
 11
137.3711543276
 21
62.8059282467
 31
0.0
  0
LINE
  5
26B
330
223
100
AcDbEntity
  8
0
  6
Continuous
 62
     1
100
AcDbLine
 10
120.2012107369
 20
46.2393824426
 30
0.0
 11
121.7422145517
 21
47.78038625739999
 31
0.0
  0
LINE
  5
26C
330
223
100
AcDbEntity
  8
0
  6
Continuous
 62
     1
100
AcDbLine
 10
127.9062298108
 20
53.94440151649999
 30
0.0
 11
128.9335698033
 21
54.9717415091
 31
0.0
  0
LINE
  5
26D
330
223
100
AcDbEntity
  8
0
  6
Continuous
 62
     1
100
AcDbLine
 10
135.0975809464
 20
61.1357526521
 30
0.0
 11
136.6385847612
 21
62.67675646689999
 31
0.0
  0
LINE
  5
26E
330
223
100
AcDbEntity
  8
0
  6
Continuous
 62
     1
100
AcDbLine
 10
119.4686411705
 20
46.1102106628
 30
0.0
 11
121.0096449853
 21
47.6512144776
 31
0.0
  0
LINE
  5
26F
330
223
100
AcDbEntity
  8
0
  6
Continuous
 62
     1
100
AcDbLine
 10
127.1736602444
 20
53.8152297367
 30
0.0
 11
128.2010000273
 21
54.84256951959999
 31
0.0
  0
LINE
  5
270
330
223
100
AcDbEntity
  8
0
  6
Continuous
 62
     1
100
AcDbLine
 10
134.36501138
 20
61.0065808723
 30
0.0
 11
135.9060151948
 21
62.5475846871
 31
0.0
  0
LINE
  5
271
330
223
100
AcDbEntity
  8
0
  6
Continuous
 62
     1
100
AcDbLine
 10
118.7360716041
 20
45.981038883
 30
0.0
 11
120.2770754188
 21
47.52204269779999
 31
0.0
  0
LINE
  5
272
330
223
100
AcDbEntity
  8
0
  6
Continuous
 62
     1
100
AcDbLine
 10
126.4410906779
 20
53.68605795689999
 30
0.0
 11
127.4684302513
 21
54.7133975302
 31
0.0
  0
LINE
  5
273
330
223
100
AcDbEntity
  8
0
  6
Continuous
 62
     1
100
AcDbLine
 10
133.6324418136
 20
60.8774090925
 30
0.0
 11
135.1734456283
 21
62.4184129073
 31
0.0
  0
LINE
  5
274
330
223
100
AcDbEntity
  8
0
  6
Continuous
 62
     1
100
AcDbLine
 10
118.0035020376
 20
45.8518671032
 30
0.0
 11
119.5445058524
 21
47.392870918
 31
0.0
  0
LINE
  5
275
330
223
100
AcDbEntity
  8
0
  6
Continuous
 62
     1
100
AcDbLine
 10
125.7085211115
 20
53.5568861771
 30
0.0
 11
126.7358604752
 21
54.5842255408
 31
0.0
  0
LINE
  5
276
330
223
100
AcDbEntity
  8
0
  6
Continuous
 62
     1
100
AcDbLine
 10
132.8998722472
 20
60.74823731270001
 30
0.0
 11
134.4408760619
 21
62.2892411275
 31
0.0
  0
LINE
  5
277
330
223
100
AcDbEntity
  8
0
  6
Continuous
 62
     1
100
AcDbLine
 10
117.2709324712
 20
45.7226953234
 30
0.0
 11
118.811936286
 21
47.2636991382
 31
0.0
  0
LINE
  5
278
330
223
100
AcDbEntity
  8
0
  6
Continuous
 62
     1
100
AcDbLine
 10
124.9759515451
 20
53.42771439729999
 30
0.0
 11
126.0032906992
 21
54.4550535514
 31
0.0
  0
LINE
  5
279
330
223
100
AcDbEntity
  8
0
  6
Continuous
 62
     1
100
AcDbLine
 10
132.1673026807
 20
60.6190655329
 30
0.0
 11
133.7083064955
 21
62.1600693477
 31
0.0
  0
LINE
  5
27A
330
223
100
AcDbEntity
  8
0
  6
Continuous
 62
     1
100
AcDbLine
 10
116.5383629048
 20
45.5935235436
 30
0.0
 11
118.0793667196
 21
47.13452735839999
 31
0.0
  0
LINE
  5
27B
330
223
100
AcDbEntity
  8
0
  6
Continuous
 62
     1
100
AcDbLine
 10
124.2433819787
 20
53.2985426175
 30
0.0
 11
125.2707209232
 21
54.325881562
 31
0.0
  0
LINE
  5
27C
330
223
100
AcDbEntity
  8
0
  6
Continuous
 62
     1
100
AcDbLine
 10
131.4347331143
 20
60.4898937531
 30
0.0
 11
132.9757369291
 21
62.03089756789999
 31
0.0
  0
LINE
  5
27D
330
223
100
AcDbEntity
  8
0
  6
Continuous
 62
     1
100
AcDbLine
 10
115.8057933384
 20
45.4643517638
 30
0.0
 11
117.3467971532
 21
47.00535557859999
 31
0.0
  0
LINE
  5
27E
330
223
100
AcDbEntity
  8
0
  6
Continuous
 62
     1
100
AcDbLine
 10
123.5108124123
 20
53.1693708377
 30
0.0
 11
124.5381511472
 21
54.1967095726
 31
0.0
  0
LINE
  5
27F
330
223
100
AcDbEntity
  8
0
  6
Continuous
 62
     1
100
AcDbLine
 10
130.7021635479
 20
60.3607219733
 30
0.0
 11
132.2431673627
 21
61.9017257881
 31
0.0
  0
LINE
  5
280
330
223
100
AcDbEntity
  8
0
  6
Continuous
 62
     1
100
AcDbLine
 10
115.073223772
 20
45.33517998399999
 30
0.0
 11
116.6142275867
 21
46.87618379879999
 31
0.0
  0
LINE
  5
281
330
223
100
AcDbEntity
  8
0
  6
Continuous
 62
     1
100
AcDbLine
 10
122.7782428459
 20
53.04019905789999
 30
0.0
 11
123.8055813711
 21
54.0675375831
 31
0.0
  0
LINE
  5
282
330
223
100
AcDbEntity
  8
0
  6
Continuous
 62
     1
100
AcDbLine
 10
129.9695939815
 20
60.2315501935
 30
0.0
 11
131.5105977963
 21
61.7725540083
 31
0.0
  0
LINE
  5
283
330
223
100
AcDbEntity
  8
0
  6
Continuous
 62
     1
100
AcDbLine
 10
114.5219029994
 20
45.3872569981
 30
0.0
 11
115.8816580203
 21
46.74701201899999
 31
0.0
  0
LINE
  5
284
330
223
100
AcDbEntity
  8
0
  6
Continuous
 62
     1
100
AcDbLine
 10
122.0456732794
 20
52.91102727810001
 30
0.0
 11
123.0730115951
 21
53.9383655937
 31
0.0
  0
LINE
  5
285
330
223
100
AcDbEntity
  8
0
  6
Continuous
 62
     1
100
AcDbLine
 10
129.2370244151
 20
60.1023784137
 30
0.0
 11
130.7780282298
 21
61.6433822285
 31
0.0
  0
LINE
  5
286
330
223
100
AcDbEntity
  8
0
  6
Continuous
 62
     1
100
AcDbLine
 10
114.4314559455
 20
45.9002077307
 30
0.0
 11
115.510478433
 21
46.97923021829999
 31
0.0
  0
LINE
  5
287
330
223
100
AcDbEntity
  8
0
  6
Continuous
 62
     1
100
AcDbLine
 10
121.313103713
 20
52.78185549829999
 30
0.0
 11
122.3404418191
 21
53.8091936043
 31
0.0
  0
LINE
  5
288
330
223
100
AcDbEntity
  8
0
  6
Continuous
 62
     1
100
AcDbLine
 10
128.5044548486
 20
59.9732066339
 30
0.0
 11
130.0454586634
 21
61.5142104487
 31
0.0
  0
LINE
  5
289
330
223
100
AcDbEntity
  8
0
  6
Continuous
 62
     1
100
AcDbLine
 10
114.3410088916
 20
46.4131584634
 30
0.0
 11
115.4200313791
 21
47.49218095089999
 31
0.0
  0
LINE
  5
28A
330
223
100
AcDbEntity
  8
0
  6
Continuous
 62
     1
100
AcDbLine
 10
120.5805341466
 20
52.6526837185
 30
0.0
 11
121.607872043
 21
53.6800216149
 31
0.0
  0
LINE
  5
28B
330
223
100
AcDbEntity
  8
0
  6
Continuous
 62
     1
100
AcDbLine
 10
127.7718852822
 20
59.8440348541
 30
0.0
 11
129.312889097
 21
61.3850386689
 31
0.0
  0
LINE
  5
28C
330
223
100
AcDbEntity
  8
0
  6
Continuous
 62
     1
100
AcDbLine
 10
114.2505618376
 20
46.92610919609999
 30
0.0
 11
115.3295843251
 21
48.0051316836
 31
0.0
  0
LINE
  5
28D
330
223
100
AcDbEntity
  8
0
  6
Continuous
 62
     1
100
AcDbLine
 10
119.8479645802
 20
52.5235119387
 30
0.0
 11
120.875302267
 21
53.5508496255
 31
0.0
  0
LINE
  5
28E
330
223
100
AcDbEntity
  8
0
  6
Continuous
 62
     1
100
AcDbLine
 10
127.0393157158
 20
59.71486307430001
 30
0.0
 11
128.5803195306
 21
61.2558668891
 31
0.0
  0
LINE
  5
28F
330
223
100
AcDbEntity
  8
0
  6
Continuous
 62
     1
100
AcDbLine
 10
114.1601147837
 20
47.4390599288
 30
0.0
 11
115.2391372712
 21
48.5180824163
 31
0.0
  0
LINE
  5
290
330
223
100
AcDbEntity
  8
0
  6
Continuous
 62
     1
100
AcDbLine
 10
119.1153950138
 20
52.3943401588
 30
0.0
 11
120.142732491
 21
53.4216776361
 31
0.0
  0
LINE
  5
291
330
223
100
AcDbEntity
  8
0
  6
Continuous
 62
     1
100
AcDbLine
 10
126.3067461494
 20
59.58569129449999
 30
0.0
 11
127.8477499642
 21
61.12669510919999
 31
0.0
  0
LINE
  5
292
330
223
100
AcDbEntity
  8
0
  6
Continuous
 62
     1
100
AcDbLine
 10
114.0696677297
 20
47.9520106614
 30
0.0
 11
115.1486902172
 21
49.0310331489
 31
0.0
  0
LINE
  5
293
330
223
100
AcDbEntity
  8
0
  6
Continuous
 62
     1
100
AcDbLine
 10
118.3828254473
 20
52.265168379
 30
0.0
 11
119.410162715
 21
53.2925056466
 31
0.0
  0
LINE
  5
294
330
223
100
AcDbEntity
  8
0
  6
Continuous
 62
     1
100
AcDbLine
 10
125.574176583
 20
59.45651951470001
 30
0.0
 11
127.1151803978
 21
60.99752332939999
 31
0.0
  0
LINE
  5
295
330
223
100
AcDbEntity
  8
0
  6
Continuous
 62
     1
100
AcDbLine
 10
113.9792206758
 20
48.4649613941
 30
0.0
 11
115.0582431633
 21
49.5439838816
 31
0.0
  0
LINE
  5
296
330
223
100
AcDbEntity
  8
0
  6
Continuous
 62
     1
100
AcDbLine
 10
117.6502558809
 20
52.13599659919999
 30
0.0
 11
118.6775929389
 21
53.16333365720001
 31
0.0
  0
LINE
  5
297
330
223
100
AcDbEntity
  8
0
  6
Continuous
 62
     1
100
AcDbLine
 10
124.8416070166
 20
59.3273477349
 30
0.0
 11
126.3826108313
 21
60.8683515496
 31
0.0
  0
LINE
  5
298
330
223
100
AcDbEntity
  8
0
  6
Continuous
 62
     1
100
AcDbLine
 10
113.8887736218
 20
48.9779121268
 30
0.0
 11
114.9677961094
 21
50.0569346143
 31
0.0
  0
LINE
  5
299
330
223
100
AcDbEntity
  8
0
  6
Continuous
 62
     1
100
AcDbLine
 10
116.9176863145
 20
52.00682481939999
 30
0.0
 11
117.9450231629
 21
53.03416166779999
 31
0.0
  0
LINE
  5
29A
330
223
100
AcDbEntity
  8
0
  6
Continuous
 62
     1
100
AcDbLine
 10
124.1090374501
 20
59.1981759551
 30
0.0
 11
125.6500412649
 21
60.73917976979999
 31
0.0
  0
LINE
  5
29B
330
223
100
AcDbEntity
  8
0
  6
Continuous
 62
     1
100
AcDbLine
 10
113.7983265679
 20
49.49086285939999
 30
0.0
 11
114.8773490554
 21
50.56988534689999
 31
0.0
  0
LINE
  5
29C
330
223
100
AcDbEntity
  8
0
  6
Continuous
 62
     1
100
AcDbLine
 10
116.1851167481
 20
51.8776530396
 30
0.0
 11
117.2124533869
 21
52.9049896784
 31
0.0
  0
LINE
  5
29D
330
223
100
AcDbEntity
  8
0
  6
Continuous
 62
     1
100
AcDbLine
 10
123.3764678837
 20
59.0690041753
 30
0.0
 11
124.9174716985
 21
60.61000799
 31
0.0
  0
LINE
  5
29E
330
223
100
AcDbEntity
  8
0
  6
Continuous
 62
     1
100
AcDbLine
 10
113.707879514
 20
50.0038135921
 30
0.0
 11
114.7869020015
 21
51.0828360796
 31
0.0
  0
LINE
  5
29F
330
223
100
AcDbEntity
  8
0
  6
Continuous
 62
     1
100
AcDbLine
 10
115.4525471817
 20
51.74848125979999
 30
0.0
 11
116.4798836108
 21
52.77581768899999
 31
0.0
  0
LINE
  5
2A0
330
223
100
AcDbEntity
  8
0
  6
Continuous
 62
     1
100
AcDbLine
 10
122.6438983173
 20
58.93983239539999
 30
0.0
 11
124.1849021321
 21
60.4808362102
 31
0.0
  0
LINE
  5
2A1
330
223
100
AcDbEntity
  8
0
  6
Continuous
 62
     1
100
AcDbLine
 10
113.61743246
 20
50.51676432479999
 30
0.0
 11
114.6964549475
 21
51.5957868123
 31
0.0
  0
LINE
  5
2A2
330
223
100
AcDbEntity
  8
0
  6
Continuous
 62
     1
100
AcDbLine
 10
114.7199776153
 20
51.61930948
 30
0.0
 11
115.7473138348
 21
52.6466456996
 31
0.0
  0
LINE
  5
2A3
330
223
100
AcDbEntity
  8
0
  6
Continuous
 62
     1
100
AcDbLine
 10
121.9113287509
 20
58.81066061560001
 30
0.0
 11
123.4523325657
 21
60.3516644304
 31
0.0
  0
LINE
  5
2A4
330
223
100
AcDbEntity
  8
0
  6
Continuous
 62
     1
100
AcDbLine
 10
113.5269854061
 20
51.0297150574
 30
0.0
 11
115.0147440588
 21
52.51747371020001
 31
0.0
  0
LINE
  5
2A5
330
223
100
AcDbEntity
  8
0
  6
Continuous
 62
     1
100
AcDbLine
 10
121.1787591845
 20
58.68148883579999
 30
0.0
 11
122.7197629992
 21
60.22249265060001
 31
0.0
  0
LINE
  5
2A6
330
223
100
AcDbEntity
  8
0
  6
Continuous
 62
     1
100
AcDbLine
 10
113.4365383521
 20
51.5426657901
 30
0.0
 11
114.5155608396
 21
52.6216882776
 31
0.0
  0
LINE
  5
2A7
330
223
100
AcDbEntity
  8
0
  6
Continuous
 62
     1
100
AcDbLine
 10
120.446189618
 20
58.55231705600001
 30
0.0
 11
121.9871934328
 21
60.0933208708
 31
0.0
  0
LINE
  5
2A8
330
223
100
AcDbEntity
  8
0
  6
Continuous
 62
     1
100
AcDbLine
 10
113.3460912982
 20
52.0556165228
 30
0.0
 11
114.4251137857
 21
53.1346390103
 31
0.0
  0
LINE
  5
2A9
330
223
100
AcDbEntity
  8
0
  6
Continuous
 62
     1
100
AcDbLine
 10
119.7136200516
 20
58.4231452762
 30
0.0
 11
121.2546238664
 21
59.964149091
 31
0.0
  0
LINE
  5
2AA
330
223
100
AcDbEntity
  8
0
  6
Continuous
 62
     1
100
AcDbLine
 10
113.2556442442
 20
52.5685672554
 30
0.0
 11
114.3346667318
 21
53.647589743
 31
0.0
  0
LINE
  5
2AB
330
223
100
AcDbEntity
  8
0
  6
Continuous
 62
     1
100
AcDbLine
 10
118.9810504852
 20
58.2939734964
 30
0.0
 11
120.5220543
 21
59.83497731119999
 31
0.0
  0
LINE
  5
2AC
330
223
100
AcDbEntity
  8
0
  6
Continuous
 62
     1
100
AcDbLine
 10
113.1651971903
 20
53.0815179881
 30
0.0
 11
114.2442196778
 21
54.1605404756
 31
0.0
  0
LINE
  5
2AD
330
223
100
AcDbEntity
  8
0
  6
Continuous
 62
     1
100
AcDbLine
 10
118.2484809188
 20
58.1648017166
 30
0.0
 11
119.7894847336
 21
59.7058055314
 31
0.0
  0
LINE
  5
2AE
330
223
100
AcDbEntity
  8
0
  6
Continuous
 62
     1
100
AcDbLine
 10
113.0747501364
 20
53.5944687208
 30
0.0
 11
114.1537726239
 21
54.6734912083
 31
0.0
  0
LINE
  5
2AF
330
223
100
AcDbEntity
  8
0
  6
Continuous
 62
     1
100
AcDbLine
 10
117.5159113524
 20
58.0356299368
 30
0.0
 11
119.0569151672
 21
59.5766337516
 31
0.0
  0
LINE
  5
2B0
330
223
100
AcDbEntity
  8
0
  6
Continuous
 62
     1
100
AcDbLine
 10
112.9843030824
 20
54.10741945339999
 30
0.0
 11
114.0633255699
 21
55.18644194100001
 31
0.0
  0
LINE
  5
2B1
330
223
100
AcDbEntity
  8
0
  6
Continuous
 62
     1
100
AcDbLine
 10
116.783341786
 20
57.90645815699999
 30
0.0
 11
118.3243456007
 21
59.4474619718
 31
0.0
  0
LINE
  5
2B2
330
223
100
AcDbEntity
  8
0
  6
Continuous
 62
     1
100
AcDbLine
 10
112.8938560285
 20
54.6203701861
 30
0.0
 11
113.972878516
 21
55.69939267359999
 31
0.0
  0
LINE
  5
2B3
330
223
100
AcDbEntity
  8
0
  6
Continuous
 62
     1
100
AcDbLine
 10
116.0507722195
 20
57.7772863772
 30
0.0
 11
117.5917760343
 21
59.318290192
 31
0.0
  0
LINE
  5
2B4
330
223
100
AcDbEntity
  8
0
  6
Continuous
 62
     1
100
AcDbLine
 10
112.8034089745
 20
55.1333209188
 30
0.0
 11
113.882431462
 21
56.2123434063
 31
0.0
  0
LINE
  5
2B5
330
223
100
AcDbEntity
  8
0
  6
Continuous
 62
     1
100
AcDbLine
 10
115.3182026531
 20
57.64811459739999
 30
0.0
 11
116.8592064679
 21
59.1891184122
 31
0.0
  0
LINE
  5
2B6
330
223
100
AcDbEntity
  8
0
  6
Continuous
 62
     1
100
AcDbLine
 10
112.7129619206
 20
55.6462716515
 30
0.0
 11
113.7919844081
 21
56.725294139
 31
0.0
  0
LINE
  5
2B7
330
223
100
AcDbEntity
  8
0
  6
Continuous
 62
     1
100
AcDbLine
 10
114.5856330867
 20
57.5189428176
 30
0.0
 11
116.1266369015
 21
59.0599466324
 31
0.0
  0
LINE
  5
2B8
330
223
100
AcDbEntity
  8
0
  6
Continuous
 62
     1
100
AcDbLine
 10
112.6225148666
 20
56.1592223841
 30
0.0
 11
113.7015373541
 21
57.23824487159999
 31
0.0
  0
LINE
  5
2B9
330
223
100
AcDbEntity
  8
0
  6
Continuous
 62
     1
100
AcDbLine
 10
113.8530635203
 20
57.38977103779999
 30
0.0
 11
115.3940673351
 21
58.9307748526
 31
0.0
  0
LINE
  5
2BA
330
223
100
AcDbEntity
  8
0
  6
Continuous
 62
     1
100
AcDbLine
 10
112.5320678127
 20
56.6721731168
 30
0.0
 11
114.6614977686
 21
58.8016030728
 31
0.0
  0
LINE
  5
2BB
330
223
100
AcDbEntity
  8
0
  6
Continuous
 62
     1
100
AcDbLine
 10
112.4416207587
 20
57.18512384949999
 30
0.0
 11
113.9289282022
 21
58.6724312929
 31
0.0
  0
LINE
  5
2BC
330
223
100
AcDbEntity
  8
0
  6
Continuous
 62
     1
100
AcDbLine
 10
112.3511737048
 20
57.69807458209999
 30
0.0
 11
113.1963586358
 21
58.5432595131
 31
0.0
  0
LINE
  5
2BD
330
223
100
AcDbEntity
  8
0
  6
Continuous
 62
     1
100
AcDbLine
 10
112.2607266509
 20
58.2110253148
 30
0.0
 11
112.4637890694
 21
58.4140877333
 31
0.0
  0
ENDBLK
  5
2BE
330
223
100
AcDbEntity
  8
0
  6
ByBlock
 62
     0
100
AcDbBlockEnd
  0
BLOCK
  5
2BF
330
224
100
AcDbEntity
  8
0
  6
Continuous
 62
     2
100
AcDbBlockBegin
  2
L03-MOTEUR-CONTROLE-LED_BL1
 70
     0
 10
10.6076643992
 20
85.39492952739999
 30
0.0
  3
L03-MOTEUR-CONTROLE-LED_BL1
  1

  0
TEXT
  5
2C0
330
224
100
AcDbEntity
  8
0
  6
Continuous
 62
     2
100
AcDbText
 10
10.0447012172
 20
84.72826260140001
 30
0.0
 40
1.333333852099999
  1
T
 41
0.9895727804593049
  7
TEXTSTYLE_2
 72
     5
 11
11.1706275812
 21
84.72826260140001
 31
0.0
100
AcDbText
  0
ELLIPSE
  5
2C1
330
224
100
AcDbEntity
  8
0
  6
Continuous
 62
     7
100
AcDbEllipse
 10
10.6076643992
 20
85.39492952739999
 30
0.0
 11
-1.942887567899999
 21
0.0
 31
0.0
210
0.0
220
0.0
230
1.0
 40
0.6606458385
 41
0.0
 42
6.283185307179586
  0
ENDBLK
  5
2C2
330
224
100
AcDbEntity
  8
0
  6
ByBlock
 62
     0
100
AcDbBlockEnd
  0
BLOCK
  5
2C3
330
225
100
AcDbEntity
  8
0
  6
Continuous
 62
     2
100
AcDbBlockBegin
  2
L03-NOTE_SPECS_BAINS_BL0
 70
     0
 10
160.6664470226
 20
55.3331174213
 30
0.0
  3
L03-NOTE_SPECS_BAINS_BL0
  1

  0
TEXT
  5
2C4
330
225
100
AcDbEntity
  8
0
  6
Continuous
 62
     2
100
AcDbText
 10
144.4186619465
 20
63.1065508124
 30
0.0
 40
0.5
  1
Infomations Techniques/Technical Infomations
 41
1.013057755184423
  7
TEXTSTYLE_2
 72
     5
 11
159.0112545391
 21
63.1065508124
 31
0.0
100
AcDbText
  0
TEXT
  5
2C5
330
225
100
AcDbEntity
  8
0
  6
Continuous
 62
     2
100
AcDbText
 10
144.6664470226
 20
61.66645075459999
 30
0.0
 40
0.6666666667
  1
NOMBRE DE JETS:     
 41
1.011916664627003
  7
TEXTSTYLE_2
 72
     5
 11
154.5108914671
 21
61.66645075459999
 31
0.0
100
AcDbText
  0
TEXT
  5
2C6
330
225
100
AcDbEntity
  8
0
  6
Continuous
 62
     2
100
AcDbText
 10
154.5108914671
 20
61.66645075459999
 30
0.0
 40
0.6666666667
  1
44
 41
0.9867720164271869
  7
TEXTSTYLE_2
 72
     5
 11
155.5331136893
 21
61.66645075459999
 31
0.0
100
AcDbText
  0
TEXT
  5
2C7
330
225
100
AcDbEntity
  8
0
  6
Continuous
 62
     2
100
AcDbText
 10
144.6664470226
 20
60.6664507546
 30
0.0
 40
0.6666666667
  1
 
 41
1.059207179978246
  7
TEXTSTYLE_2
 72
     5
 11
144.9405210967
 21
60.6664507546
 31
0.0
100
AcDbText
  0
TEXT
  5
2C8
330
225
100
AcDbEntity
  8
0
  6
Continuous
 62
     2
100
AcDbText
 10
144.6664470226
 20
59.6664507546
 30
0.0
 40
0.6666666667
  1
NIVEAU D'EAU              GALLONS(US)        LITRES        GALLONS(UK)
 41
1.013954636348306
  7
TEXTSTYLE_2
 72
     5
 11
175.2294099856
 21
59.6664507546
 31
0.0
100
AcDbText
  0
TEXT
  5
2C9
330
225
100
AcDbEntity
  8
0
  6
Continuous
 62
     2
100
AcDbText
 10
144.6664470226
 20
58.6664507546
 30
0.0
 40
0.6666666667
  1
PLEIN
 41
1.002633071523447
  7
TEXTSTYLE_2
 72
     5
 11
147.3652124546999
 21
58.6664507546
 31
0.0
100
AcDbText
  0
TEXT
  5
2CA
330
225
100
AcDbEntity
  8
0
  6
Continuous
 62
     2
100
AcDbText
 10
144.6664470226
 20
57.6664507546
 30
0.0
 40
0.6666666667
  1
HAUT T.PLEIN
 41
1.006689230333163
  7
TEXTSTYLE_2
 72
     5
 11
151.0220025782
 21
57.6664507546
 31
0.0
100
AcDbText
  0
TEXT
  5
2CB
330
225
100
AcDbEntity
  8
0
  6
Continuous
 62
     2
100
AcDbText
 10
144.6664470226
 20
56.66645075459999
 30
0.0
 40
0.6666666667
  1
MILIEU T.PLEIN
 41
1.0076525859032
  7
TEXTSTYLE_2
 72
     5
 11
151.6022494918
 21
56.66645075459999
 31
0.0
100
AcDbText
  0
TEXT
  5
2CC
330
225
100
AcDbEntity
  8
0
  6
Continuous
 62
     2
100
AcDbText
 10
144.6664470226
 20
55.6664507546
 30
0.0
 40
0.6666666667
  1
BAS T.PLEIN
 41
1.005308655981163
  7
TEXTSTYLE_2
 72
     5
 11
150.3380519609
 21
55.6664507546
 31
0.0
100
AcDbText
  0
TEXT
  5
2CD
330
225
100
AcDbEntity
  8
0
  6
Continuous
 62
     2
100
AcDbText
 10
144.6664470226
 20
54.6664507546
 30
0.0
 40
0.6666666667
  1
3" EN BAS T.PLEIN
 41
1.01870618309509
  7
TEXTSTYLE_2
 72
     5
 11
153.1232371461
 21
54.6664507546
 31
0.0
100
AcDbText
  0
TEXT
  5
2CE
330
225
100
AcDbEntity
  8
0
  6
Continuous
 62
     2
100
AcDbText
 10
144.6664470226
 20
53.6664507546
 30
0.0
 40
0.6666666667
  1
 
 41
1.059207179978246
  7
TEXTSTYLE_2
 72
     5
 11
144.9405210967
 21
53.6664507546
 31
0.0
100
AcDbText
  0
TEXT
  5
2CF
330
225
100
AcDbEntity
  8
0
  6
Continuous
 62
     2
100
AcDbText
 10
144.466285517
 20
53.11966382979999
 30
0.0
 40
0.5
  1
Legende/Legend
 41
1.009227457802888
  7
TEXTSTYLE_2
 72
     5
 11
149.7588781096
 21
53.11966382979999
 31
0.0
100
AcDbText
  0
TEXT
  5
2D0
330
225
100
AcDbEntity
  8
0
  6
Continuous
 62
     2
100
AcDbText
 10
150.9951204611
 20
51.6083988521
 30
0.0
 40
0.6666666667
  1
ZONE DE ROBINETTERIE
 41
0.9978908867311682
  7
TEXTSTYLE_2
 72
     5
 11
162.2519105846
 21
51.6083988521
 31
0.0
100
AcDbText
  0
TEXT
  5
2D1
330
225
100
AcDbEntity
  8
0
  6
Continuous
 62
     2
100
AcDbText
 10
145.9153958941
 20
50.1131543377
 30
0.0
 40
0.6666666667
  1
L   :  SYSTEME LED       DC   :  DOUBLE DOSSIER CHAUFFANT
 41
1.010592021546648
  7
TEXTSTYLE_2
 72
     5
 11
173.6857662645
 21
50.1131543377
 31
0.0
100
AcDbText
  0
TEXT
  5
2D2
330
225
100
AcDbEntity
  8
0
  6
Continuous
 62
     2
100
AcDbText
 10
145.9153958941
 20
48.7798210043
 30
0.0
 40
0.6666666667
  1
C   :  CONTROLE
 41
1.00904620843658
  7
TEXTSTYLE_2
 72
     5
 11
153.3820625608
 21
48.7798210043
 31
0.0
100
AcDbText
  0
TEXT
  5
2D3
330
225
100
AcDbEntity
  8
0
  6
Continuous
 62
     2
100
AcDbText
 10
145.9153958941
 20
47.44648767100001
 30
0.0
 40
0.6666666667
  1
T   :  MOTEUR
 41
1.013017531875613
  7
TEXTSTYLE_2
 72
     5
 11
152.1524329312
 21
47.44648767100001
 31
0.0
100
AcDbText
  0
TEXT
  5
2D4
330
225
100
AcDbEntity
  8
0
  6
Continuous
 62
     2
100
AcDbText
 10
157.2435881664
 20
58.6664507546
 30
0.0
 40
0.6666666667
  1
133
 41
0.9867720164271688
  7
TEXTSTYLE_2
 72
     5
 11
158.7769214997
 21
58.6664507546
 31
0.0
100
AcDbText
  0
TEXT
  5
2D5
330
225
100
AcDbEntity
  8
0
  6
Continuous
 62
     2
100
AcDbText
 10
157.2435881664
 20
57.6664507546
 30
0.0
 40
0.6666666667
  1
101
 41
0.9867720164271688
  7
TEXTSTYLE_2
 72
     5
 11
158.7769214997
 21
57.6664507546
 31
0.0
100
AcDbText
  0
TEXT
  5
2D6
330
225
100
AcDbEntity
  8
0
  6
Continuous
 62
     2
100
AcDbText
 10
157.2435881664
 20
56.66645075459999
 30
0.0
 40
0.6666666667
  1
100
 41
0.9867720164271688
  7
TEXTSTYLE_2
 72
     5
 11
158.7769214997
 21
56.66645075459999
 31
0.0
100
AcDbText
  0
TEXT
  5
2D7
330
225
100
AcDbEntity
  8
0
  6
Continuous
 62
     2
100
AcDbText
 10
157.4991437219
 20
55.6664507546
 30
0.0
 40
0.6666666667
  1
98
 41
0.986772016523707
  7
TEXTSTYLE_2
 72
     5
 11
158.5213659442
 21
55.6664507546
 31
0.0
100
AcDbText
  0
TEXT
  5
2D8
330
225
100
AcDbEntity
  8
0
  6
Continuous
 62
     2
100
AcDbText
 10
157.4991437219
 20
54.6664507546
 30
0.0
 40
0.6666666667
  1
78
 41
0.986772016523707
  7
TEXTSTYLE_2
 72
     5
 11
158.5213659442
 21
54.6664507546
 31
0.0
100
AcDbText
  0
TEXT
  5
2D9
330
225
100
AcDbEntity
  8
0
  6
Continuous
 62
     2
100
AcDbText
 10
164.4193496656
 20
58.6835301567
 30
0.0
 40
0.6666666667
  1
503
 41
0.9867720164915338
  7
TEXTSTYLE_2
 72
     5
 11
165.952682999
 21
58.6835301567
 31
0.0
100
AcDbText
  0
TEXT
  5
2DA
330
225
100
AcDbEntity
  8
0
  6
Continuous
 62
     2
100
AcDbText
 10
164.4193496656
 20
57.6835301567
 30
0.0
 40
0.6666666667
  1
383
 41
0.9867720164915338
  7
TEXTSTYLE_2
 72
     5
 11
165.952682999
 21
57.6835301567
 31
0.0
100
AcDbText
  0
TEXT
  5
2DB
330
225
100
AcDbEntity
  8
0
  6
Continuous
 62
     2
100
AcDbText
 10
164.4193496656
 20
56.6835301567
 30
0.0
 40
0.6666666667
  1
378
 41
0.9867720164915338
  7
TEXTSTYLE_2
 72
     5
 11
165.952682999
 21
56.6835301567
 31
0.0
100
AcDbText
  0
TEXT
  5
2DC
330
225
100
AcDbEntity
  8
0
  6
Continuous
 62
     2
100
AcDbText
 10
164.4193496656
 20
55.6835301567
 30
0.0
 40
0.6666666667
  1
372
 41
0.9867720164915338
  7
TEXTSTYLE_2
 72
     5
 11
165.952682999
 21
55.6835301567
 31
0.0
100
AcDbText
  0
TEXT
  5
2DD
330
225
100
AcDbEntity
  8
0
  6
Continuous
 62
     2
100
AcDbText
 10
164.4193496656
 20
54.6835301567
 30
0.0
 40
0.6666666667
  1
296
 41
0.9867720164915338
  7
TEXTSTYLE_2
 72
     5
 11
165.952682999
 21
54.6835301567
 31
0.0
100
AcDbText
  0
TEXT
  5
2DE
330
225
100
AcDbEntity
  8
0
  6
Continuous
 62
     2
100
AcDbText
 10
171.1084330476
 20
58.6664507546
 30
0.0
 40
0.6666666667
  1
111
 41
0.9867720164271688
  7
TEXTSTYLE_2
 72
     5
 11
172.6417663809
 21
58.6664507546
 31
0.0
100
AcDbText
  0
TEXT
  5
2DF
330
225
100
AcDbEntity
  8
0
  6
Continuous
 62
     2
100
AcDbText
 10
171.3639886031
 20
57.6664507546
 30
0.0
 40
0.6666666667
  1
84
 41
0.9867720165237344
  7
TEXTSTYLE_2
 72
     5
 11
172.3862108254
 21
57.6664507546
 31
0.0
100
AcDbText
  0
TEXT
  5
2E0
330
225
100
AcDbEntity
  8
0
  6
Continuous
 62
     2
100
AcDbText
 10
171.3639886031
 20
56.66645075459999
 30
0.0
 40
0.6666666667
  1
83
 41
0.9867720165237344
  7
TEXTSTYLE_2
 72
     5
 11
172.3862108254
 21
56.66645075459999
 31
0.0
100
AcDbText
  0
TEXT
  5
2E1
330
225
100
AcDbEntity
  8
0
  6
Continuous
 62
     2
100
AcDbText
 10
171.3639886031
 20
55.6664507546
 30
0.0
 40
0.6666666667
  1
82
 41
0.9867720165237344
  7
TEXTSTYLE_2
 72
     5
 11
172.3862108254
 21
55.6664507546
 31
0.0
100
AcDbText
  0
TEXT
  5
2E2
330
225
100
AcDbEntity
  8
0
  6
Continuous
 62
     2
100
AcDbText
 10
171.3639886031
 20
54.6664507546
 30
0.0
 40
0.6666666667
  1
65
 41
0.9867720165237344
  7
TEXTSTYLE_2
 72
     5
 11
172.3862108254
 21
54.6664507546
 31
0.0
100
AcDbText
  0
LINE
  5
2E3
330
225
100
AcDbEntity
  8
0
  6
Continuous
 62
     7
100
AcDbLine
 10
143.999780356
 20
63.9997840879
 30
0.0
 11
143.999780356
 21
46.66645075459999
 31
0.0
  0
LINE
  5
2E4
330
225
100
AcDbEntity
  8
0
  6
Continuous
 62
     7
100
AcDbLine
 10
143.999780356
 20
63.9997840879
 30
0.0
 11
177.3331136893
 21
63.9997840879
 31
0.0
  0
LINE
  5
2E5
330
225
100
AcDbEntity
  8
0
  6
Continuous
 62
     7
100
AcDbLine
 10
177.3331136893
 20
63.9997840879
 30
0.0
 11
177.3331136893
 21
46.66645075459999
 31
0.0
  0
LINE
  5
2E6
330
225
100
AcDbEntity
  8
0
  6
Continuous
 62
     7
100
AcDbLine
 10
143.999780356
 20
46.66645075459999
 30
0.0
 11
177.3331136893
 21
46.66645075459999
 31
0.0
  0
LINE
  5
2E7
330
225
100
AcDbEntity
  8
0
  6
Continuous
 62
     7
100
AcDbLine
 10
145.3331136893
 20
53.9997840879
 30
0.0
 11
175.9997803559999
 21
53.9997840879
 31
0.0
  0
LINE
  5
2E8
330
225
100
AcDbEntity
  8
0
  6
Continuous
 62
     7
100
AcDbLine
 10
145.3331136893
 20
60.9997840879
 30
0.0
 11
175.9997803559999
 21
60.9997840879
 31
0.0
  0
LINE
  5
2E9
330
225
100
AcDbEntity
  8
0
  6
Continuous
 62
     7
100
AcDbLine
 10
144.8086869152
 20
52.3779485923
 30
0.0
 11
144.4396661729
 21
52.00892785
 31
0.0
  0
LINE
  5
2EA
330
225
100
AcDbEntity
  8
0
  6
Continuous
 62
     7
100
AcDbLine
 10
145.4753535819
 20
52.3779485923
 30
0.0
 11
144.6773377915
 21
51.57993280189999
 31
0.0
  0
LINE
  5
2EB
330
225
100
AcDbEntity
  8
0
  6
Continuous
 62
     7
100
AcDbLine
 10
146.1420202486
 20
52.3779485923
 30
0.0
 11
145.3440044581
 21
51.57993280189999
 31
0.0
  0
LINE
  5
2EC
330
225
100
AcDbEntity
  8
0
  6
Continuous
 62
     7
100
AcDbLine
 10
146.8086869152
 20
52.3779485923
 30
0.0
 11
146.0106711248
 21
51.57993280189999
 31
0.0
  0
LINE
  5
2ED
330
225
100
AcDbEntity
  8
0
  6
Continuous
 62
     7
100
AcDbLine
 10
147.4753535819
 20
52.3779485923
 30
0.0
 11
146.6773377915
 21
51.57993280189999
 31
0.0
  0
LINE
  5
2EE
330
225
100
AcDbEntity
  8
0
  6
Continuous
 62
     7
100
AcDbLine
 10
148.1420202486
 20
52.3779485923
 30
0.0
 11
147.3440044581
 21
51.57993280189999
 31
0.0
  0
LINE
  5
2EF
330
225
100
AcDbEntity
  8
0
  6
Continuous
 62
     7
100
AcDbLine
 10
148.8086869152
 20
52.3779485923
 30
0.0
 11
148.0106711248
 21
51.57993280189999
 31
0.0
  0
LINE
  5
2F0
330
225
100
AcDbEntity
  8
0
  6
Continuous
 62
     7
100
AcDbLine
 10
149.4753535819
 20
52.3779485923
 30
0.0
 11
148.6773377915
 21
51.57993280189999
 31
0.0
  0
LINE
  5
2F1
330
225
100
AcDbEntity
  8
0
  6
Continuous
 62
     7
100
AcDbLine
 10
150.1420202486
 20
52.3779485923
 30
0.0
 11
149.3440044581
 21
51.57993280189999
 31
0.0
  0
LINE
  5
2F2
330
225
100
AcDbEntity
  8
0
  6
Continuous
 62
     7
100
AcDbLine
 10
150.5855076827
 20
52.15476935979999
 30
0.0
 11
150.0106711247999
 21
51.57993280189999
 31
0.0
  0
ELLIPSE
  5
2F3
330
225
100
AcDbEntity
  8
0
  6
Continuous
 62
     7
100
AcDbEllipse
 10
146.1451828382
 20
50.4307317949
 30
0.0
 11
1.0473539356
 21
0.0
 31
0.0
210
0.0
220
0.0
230
1.0
 40
0.4938647983
 41
0.0
 42
6.283185307179586
  0
ELLIPSE
  5
2F4
330
225
100
AcDbEntity
  8
0
  6
Continuous
 62
     7
100
AcDbEllipse
 10
146.1451828382
 20
49.09739846149999
 30
0.0
 11
1.0473539356
 21
0.0
 31
0.0
210
0.0
220
0.0
230
1.0
 40
0.4938647983
 41
0.0
 42
6.283185307179586
  0
ELLIPSE
  5
2F5
330
225
100
AcDbEntity
  8
0
  6
Continuous
 62
     7
100
AcDbEllipse
 10
146.1451828382
 20
47.76406512819999
 30
0.0
 11
1.0473539356
 21
0.0
 31
0.0
210
0.0
220
0.0
230
1.0
 40
0.4938647983
 41
0.0
 42
6.283185307179586
  0
ELLIPSE
  5
2F6
330
225
100
AcDbEntity
  8
0
  6
Continuous
 62
     7
100
AcDbEllipse
 10
157.1638184192
 20
50.45025315189999
 30
0.0
 11
1.0473539356
 21
0.0
 31
0.0
210
0.0
220
0.0
230
1.0
 40
0.4938647983
 41
0.0
 42
6.283185307179586
  0
ENDBLK
  5
2F7
330
225
100
AcDbEntity
  8
0
  6
ByBlock
 62
     0
100
AcDbBlockEnd
  0
ENDSEC
  0
SECTION
  2
ENTITIES
  0
TEXT
  5
356
330
21D
100
AcDbEntity
  8
0
  6
Continuous
 62
     2
100
AcDbText
 10
168.210790069
 20
31.1666666667
 30
0.0
 40
0.3333333333
  1
 
 41
1.059207179750927
  7
TEXTSTYLE_3
 72
     5
 11
168.347827106
 21
31.1666666667
 31
0.0
100
AcDbText
  0
LINE
  5
540
330
21D
100
AcDbEntity
  8
DEFAULT_2
  6
HIDDEN
 62
     8
100
AcDbLine
 10
10.959414768
 20
48.0625261384
 30
0.0
 11
12.6164434513
 21
48.01172530279999
 31
0.0
  0
LINE
  5
59C
330
21D
100
AcDbEntity
  8
DEFAULT_2
  6
HIDDEN
 62
     8
100
AcDbLine
 10
79.959414768
 20
48.0625261384
 30
0.0
 11
78.3023860846
 21
48.01172530279999
 31
0.0
  0
LINE
  5
141A
330
21D
100
AcDbEntity
  8
0
  6
Continuous
 62
     7
100
AcDbLine
 10
10.959414768
 20
24.0951017769
 30
0.0
 11
10.959414768
 21
48.0629578262
 31
0.0
  0
LINE
  5
141B
330
21D
100
AcDbEntity
  8
0
  6
Continuous
 62
     7
100
AcDbLine
 10
10.959414768
 20
24.0951017769
 30
0.0
 11
79.959414768
 21
24.0951017769
 31
0.0
  0
LINE
  5
18B5
330
21D
100
AcDbEntity
  8
DEFAULT_1
  6
CENTER
 62
     7
100
AcDbLine
 10
58.5023652895
 20
27.369742971
 30
0.0
 11
59.6918865967
 21
27.3985150025
 31
0.0
  0
LINE
  5
243E
330
21D
100
AcDbEntity
  8
0
  6
Continuous
 62
     7
100
AcDbLine
 10
79.959414768
 20
24.0951017769
 30
0.0
 11
79.959414768
 21
48.0629578262
 31
0.0
  0
ARC
  5
33AE
330
21D
100
AcDbEntity
  8
DEFAULT_2
  6
HIDDEN
 62
     8
100
AcDbCircle
 10
-58.3664257471
 20
3.3400148067
 30
0.0
 40
85.0
100
AcDbArc
 50
17.7846387188
 51
30.7428928945
  0
ARC
  5
33AF
330
21D
100
AcDbEntity
  8
DEFAULT_2
  6
HIDDEN
 62
     8
100
AcDbCircle
 10
149.285255283
 20
3.3400148067
 30
0.0
 40
85.0
100
AcDbArc
 50
149.2571071054999
 51
162.2153624497
  0
ARC
  5
33B0
330
21D
100
AcDbEntity
  8
DEFAULT_2
  6
HIDDEN
 62
     8
100
AcDbCircle
 10
12.5398349727
 20
45.51289935029999
 30
0.0
 40
2.5
100
AcDbArc
 50
30.7428928945
 51
88.2439880233
  0
ARC
  5
33B1
330
21D
100
AcDbEntity
  8
DEFAULT_2
  6
HIDDEN
 62
     8
100
AcDbCircle
 10
78.37899456319999
 20
45.51289935029999
 30
0.0
 40
2.5
100
AcDbArc
 50
91.7560118935
 51
149.2571071054999
  0
SPLINE
  5
40AB
330
21D
100
AcDbEntity
  8
DEFAULT_2
  6
HIDDEN
 62
     8
100
AcDbSpline
210
0.0
220
0.0
230
1.0
 70
     8
 71
     3
 72
    12
 73
     8
 74
     0
 42
0.0000001
 43
0.0000000001
 40
0.0
 40
0.0
 40
0.0
 40
0.0
 40
0.2
 40
0.4
 40
0.6
 40
0.8
 40
1.0
 40
1.0
 40
1.0
 40
1.0
 10
24.9096150931
 20
27.5660392122
 30
0.0
 10
24.6979153444
 20
27.5696531884
 30
0.0
 10
24.2900303979
 20
27.6288010248
 30
0.0
 10
23.7104177052
 20
27.8659028255
 30
0.0
 10
23.2054222597
 20
28.240917092
 30
0.0
 10
22.8108190317
 20
28.7272863006
 30
0.0
 10
22.6362282893
 20
29.1007431256
 30
0.0
 10
22.57153746510001
 20
29.3024172031
 30
0.0
  0
SPLINE
  5
40AC
330
21D
100
AcDbEntity
  8
DEFAULT_2
  6
HIDDEN
 62
     8
100
AcDbSpline
210
0.0
220
0.0
230
1.0
 70
     8
 71
     3
 72
     8
 73
     4
 74
     0
 42
0.0000001
 43
0.0000000001
 40
0.0
 40
0.0
 40
0.0
 40
0.0
 40
1.0
 40
1.0
 40
1.0
 40
1.0
 10
45.459414768
 20
27.260908706
 30
0.0
 10
38.6129180668
 20
27.260908706
 30
0.0
 10
31.7600630385
 20
27.4490926593
 30
0.0
 10
24.9096150931
 20
27.5660392122
 30
0.0
  0
SPLINE
  5
40AD
330
21D
100
AcDbEntity
  8
DEFAULT_2
  6
HIDDEN
 62
     8
100
AcDbSpline
210
0.0
220
0.0
230
1.0
 70
     8
 71
     3
 72
     8
 73
     4
 74
     0
 42
0.0000001
 43
0.0000000001
 40
0.0
 40
0.0
 40
0.0
 40
0.0
 40
1.0
 40
1.0
 40
1.0
 40
1.0
 10
66.0092144428
 20
27.5660392122
 30
0.0
 10
59.15876649739999
 20
27.4490926592
 30
0.0
 10
52.3059114691
 20
27.260908706
 30
0.0
 10
45.459414768
 20
27.260908706
 30
0.0
  0
SPLINE
  5
40AE
330
21D
100
AcDbEntity
  8
DEFAULT_2
  6
HIDDEN
 62
     8
100
AcDbSpline
210
0.0
220
0.0
230
1.0
 70
     8
 71
     3
 72
    12
 73
     8
 74
     0
 42
0.0000001
 43
0.0000000001
 40
0.0
 40
0.0
 40
0.0
 40
0.0
 40
0.2
 40
0.4
 40
0.6
 40
0.8
 40
1.0
 40
1.0
 40
1.0
 40
1.0
 10
68.34729167609999
 20
29.3024155091
 30
0.0
 10
68.28260089289999
 20
29.10074154550001
 30
0.0
 10
68.1080102791
 20
28.7272848846
 30
0.0
 10
67.7134071662
 20
28.2409155728
 30
0.0
 10
67.20841179979998
 20
27.865901433
 30
0.0
 10
66.6287985849
 20
27.628798385
 30
0.0
 10
66.2209142787
 20
27.5696531897
 30
0.0
 10
66.0092144428
 20
27.5660392122
 30
0.0
  0
SPLINE
  5
5767
330
21D
100
AcDbEntity
  8
0
  6
Continuous
 62
     7
100
AcDbSpline
210
0.0
220
0.0
230
1.0
 70
     8
 71
     3
 72
    22
 73
    18
 74
     0
 42
0.0000001
 43
0.0000000001
 40
0.0
 40
0.0
 40
0.0
 40
0.0
 40
0.1250000228
 40
0.2500000457
 40
0.3750000685
 40
0.5000000913
 40
0.6250001142000001
 40
0.750000137
 40
0.8125001484
 40
0.8437501540999999
 40
0.8750001598999999
 40
0.9062501652999999
 40
0.9218751604999999
 40
0.9375001439
 40
0.9531251439
 40
0.9687501422
 40
1.0
 40
1.0
 40
1.0
 40
1.0
 10
45.45940161649999
 20
48.01880592689999
 30
0.0
 10
46.8969190435
 20
48.01880592689999
 30
0.0
 10
49.7719538975
 20
48.0188059129
 30
0.0
 10
54.0845061781
 20
48.01880596210001
 30
0.0
 10
58.3970584605
 20
48.0188057506
 30
0.0
 10
62.70961073609999
 20
48.0188064971
 30
0.0
 10
67.02216303729999
 20
48.01880366569999
 30
0.0
 10
70.61595654199999
 20
48.0188124324
 30
0.0
 10
73.1316121512
 20
48.01879676270001
 30
0.0
 10
74.5691293988
 20
48.0188219034
 30
0.0
 10
75.6472680167
 20
48.0187446889
 30
0.0
 10
76.5457145933
 20
48.0189864704
 30
0.0
 10
77.26447650949999
 20
48.0184816709
 30
0.0
 10
77.80353317609999
 20
48.02290607439999
 30
0.0
 10
78.34255473039999
 20
48.0300659601
 30
0.0
 10
79.06122765800001
 20
48.0410499751
 30
0.0
 10
79.6001775717
 20
48.0529111349
 30
0.0
 10
79.959414768
 20
48.0629578262
 30
0.0
  0
SPLINE
  5
5768
330
21D
100
AcDbEntity
  8
0
  6
Continuous
 62
     7
100
AcDbSpline
210
0.0
220
0.0
230
1.0
 70
     8
 71
     3
 72
    22
 73
    18
 74
     0
 42
0.0000001
 43
0.0000000001
 40
0.0
 40
0.0
 40
0.0
 40
0.0
 40
0.0312498595
 40
0.0468748581
 40
0.0624998578
 40
0.0781248377
 40
0.0937498297
 40
0.1249998351
 40
0.156249841
 40
0.1874998469
 40
0.2499998587
 40
0.3749998822
 40
0.4999999058000001
 40
0.6249999293000001
 40
0.7499999529000001
 40
0.8749999764
 40
1.0
 40
1.0
 40
1.0
 40
1.0
 10
10.959414768
 20
48.0629578262
 30
0.0
 10
11.318651708
 20
48.0529111421
 30
0.0
 10
11.8576011257
 20
48.0410451421
 30
0.0
 10
12.5762736355
 20
48.03006677529999
 30
0.0
 10
13.1152950377
 20
48.02293067069999
 30
0.0
 10
13.6543511546
 20
48.01850493439999
 30
0.0
 10
14.3731124471
 20
48.019002673
 30
0.0
 10
15.2715582926
 20
48.0187393287
 30
0.0
 10
16.3496960857
 20
48.0188233009
 30
0.0
 10
17.7872122342
 20
48.0187959656
 30
0.0
 10
20.3028659206
 20
48.01881300489999
 30
0.0
 10
23.8966566781
 20
48.0188034712
 30
0.0
 10
28.2092056828
 20
48.0188065492
 30
0.0
 10
32.5217546619
 20
48.0188057366
 30
0.0
 10
36.8343036478
 20
48.0188059659
 30
0.0
 10
41.1468526319
 20
48.0188059118
 30
0.0
 10
44.0218852883
 20
48.01880592689999
 30
0.0
 10
45.45940161649999
 20
48.01880592689999
 30
0.0
  0
SPLINE
  5
5769
330
21D
100
AcDbEntity
  8
0
  6
Continuous
 62
     7
100
AcDbSpline
210
0.0
220
0.0
230
1.0
 70
     8
 71
     3
 72
    16
 73
    12
 74
     0
 42
0.0000001
 43
0.0000000001
 40
0.0
 40
0.0
 40
0.0
 40
0.0
 40
0.0624999594
 40
0.124999923
 40
0.1874999222
 40
0.2499998884
 40
0.3124997373
 40
0.3749997651
 40
0.4999998120000001
 40
0.7499999060000001
 40
1.0
 40
1.0
 40
1.0
 40
1.0
 10
79.959414768
 20
47.93790634189999
 30
0.0
 10
79.7633006758
 20
47.93243068229999
 30
0.0
 10
79.3710404505
 20
47.92257133239999
 30
0.0
 10
78.78256794409999
 20
47.9115972464
 30
0.0
 10
78.1940595714
 20
47.90298211649999
 30
0.0
 10
77.6055309246
 20
47.89558018109999
 30
0.0
 10
77.01695778529999
 20
47.89328047529999
 30
0.0
 10
76.23219598689999
 20
47.8940474407
 30
0.0
 10
74.85886058289999
 20
47.8935647056
 30
0.0
 10
72.8969535705
 20
47.8938407226
 30
0.0
 10
71.32742775050001
 20
47.89376709279999
 30
0.0
 10
70.54266486669999
 20
47.89376710079999
 30
0.0
  0
LINE
  5
576A
330
21D
100
AcDbEntity
  8
0
  6
Continuous
 62
     7
100
AcDbLine
 10
70.54266486669999
 20
47.89376710079999
 30
0.0
 11
45.45944387459999
 21
47.89376714350001
 31
0.0
  0
LINE
  5
576B
330
21D
100
AcDbEntity
  8
0
  6
Continuous
 62
     7
100
AcDbLine
 10
45.45944387459999
 20
47.89376714350001
 30
0.0
 11
20.3612053749
 21
47.89376710069999
 31
0.0
  0
SPLINE
  5
576C
330
21D
100
AcDbEntity
  8
0
  6
Continuous
 62
     7
100
AcDbSpline
210
0.0
220
0.0
230
1.0
 70
     8
 71
     3
 72
    16
 73
    12
 74
     0
 42
0.0000001
 43
0.0000000001
 40
0.0
 40
0.0
 40
0.0
 40
0.0
 40
0.2500000943
 40
0.5000001887
 40
0.6250002357
 40
0.6875002643000001
 40
0.7500001124
 40
0.8125000798
 40
0.8750000784999999
 40
0.9375000412
 40
1.0
 40
1.0
 40
1.0
 40
1.0
 10
20.3612053749
 20
47.89376710069999
 30
0.0
 10
19.577689098
 20
47.8937670927
 30
0.0
 10
18.0106564961
 20
47.8938404639
 30
0.0
 10
16.05186598369999
 20
47.8935654154
 30
0.0
 10
14.6807121695
 20
47.8940465388
 30
0.0
 10
13.8971969302
 20
47.8932810181
 30
0.0
 10
13.3095588882
 20
47.89561684319999
 30
0.0
 10
12.721965388
 20
47.9030228279
 30
0.0
 10
12.1343919257
 20
47.9116289328
 30
0.0
 10
11.5468543848
 20
47.92259403430001
 30
0.0
 10
11.1552173281
 20
47.93243938049999
 30
0.0
 10
10.959414768
 20
47.93790634189999
 30
0.0
  0
SPLINE
  5
576D
330
21D
100
AcDbEntity
  8
0
  6
Continuous
 62
     7
100
AcDbSpline
210
0.0
220
0.0
230
1.0
 70
     8
 71
     3
 72
    37
 73
    33
 74
     0
 42
0.0000001
 43
0.0000000001
 40
0.0
 40
0.0
 40
0.0
 40
0.0
 40
0.1250000043
 40
0.2500000086
 40
0.3750000129
 40
0.5000000173
 40
0.5625000194
 40
0.6250000216
 40
0.6875000237000001
 40
0.7187500248000001
 40
0.7500000259000001
 40
0.7812500270000001
 40
0.8125000281
 40
0.8437500290999999
 40
0.8593750296999999
 40
0.8750000302
 40
0.8906250308
 40
0.8984375309999999
 40
0.9062500312999999
 40
0.9101562814000001
 40
0.9140625315999999
 40
0.9179687812999999
 40
0.9218750306999998
 40
0.9257812804
 40
0.9296875302
 40
0.9375000269
 40
0.9453125262
 40
0.953125026
 40
0.9687500204
 40
0.9765625195
 40
0.9843750178
 40
1.0
 40
1.0
 40
1.0
 40
1.0
 10
45.4594267214
 20
47.89376714350001
 30
0.0
 10
44.0219093331
 20
47.89376714350001
 30
0.0
 10
41.1468745564
 20
47.8937671418
 30
0.0
 10
36.8343223914
 20
47.8937671356
 30
0.0
 10
32.5217702264
 20
47.8937671271
 30
0.0
 10
28.9279767555
 20
47.8937671187
 30
0.0
 10
26.0529419788
 20
47.8937671133
 30
0.0
 10
23.8966658963
 20
47.8937671071
 30
0.0
 10
22.0997691609
 20
47.8937671047
 30
0.0
 10
20.6622517726
 20
47.8937671059
 30
0.0
 10
19.5841137313
 20
47.8937670872
 30
0.0
 10
18.50597569
 20
47.8937671163
 30
0.0
 10
17.4278376488
 20
47.8937670431
 30
0.0
 10
16.529389281
 20
47.8937672856
 30
0.0
 10
15.810630587
 20
47.8937668077
 30
0.0
 10
15.2715615661
 20
47.8937679405
 30
0.0
 10
14.822337383
 20
47.89376498449999
 30
0.0
 10
14.4629580344
 20
47.8937705725
 30
0.0
 10
14.2383459463
 20
47.8937597687
 30
0.0
 10
14.0586562649
 20
47.8937749451
 30
0.0
 10
13.9238890391
 20
47.89374809979999
 30
0.0
 10
13.7891217077
 20
47.8937918293
 30
0.0
 10
13.6543550142
 20
47.8942261652
 30
0.0
 10
13.5195894369
 20
47.89490612789999
 30
0.0
 10
13.3399038712
 20
47.89612385909999
 30
0.0
 10
13.1153009027
 20
47.8981963097
 30
0.0
 10
12.8457872447
 20
47.9015604286
 30
0.0
 10
12.4864399051
 20
47.9063501789
 30
0.0
 10
12.1271038434
 20
47.9119683651
 30
0.0
 10
11.7677836637
 20
47.918500621
 30
0.0
 10
11.4084839286
 20
47.9260725364
 30
0.0
 10
11.1390341575
 20
47.93289085549999
 30
0.0
 10
10.959414768
 20
47.9379086038
 30
0.0
  0
SPLINE
  5
576E
330
21D
100
AcDbEntity
  8
0
  6
Continuous
 62
     7
100
AcDbSpline
210
0.0
220
0.0
230
1.0
 70
     8
 71
     3
 72
    37
 73
    33
 74
     0
 42
0.0000001
 43
0.0000000001
 40
0.0
 40
0.0
 40
0.0
 40
0.0
 40
0.0156249822
 40
0.0234374805
 40
0.0312499796
 40
0.046874974
 40
0.0546874738
 40
0.0624999731
 40
0.0703124698
 40
0.0742187196
 40
0.0781249693
 40
0.0820312187
 40
0.0859374684
 40
0.0898437186
 40
0.0937499687
 40
0.101562469
 40
0.1093749692
 40
0.1249999698
 40
0.1406249703
 40
0.1562499709
 40
0.1874999719
 40
0.218749973
 40
0.2499999741
 40
0.2812499752
 40
0.3124999763
 40
0.3749999784
 40
0.4374999806
 40
0.4999999827
 40
0.624999987
 40
0.7499999914
 40
0.8749999956999999
 40
1.0
 40
1.0
 40
1.0
 40
1.0
 10
79.959414768
 20
47.9379086038
 30
0.0
 10
79.7797955029
 20
47.93289085899999
 30
0.0
 10
79.510345919
 20
47.92607252959999
 30
0.0
 10
79.15104643229999
 20
47.9185006558
 30
0.0
 10
78.79172650300001
 20
47.9119683243
 30
0.0
 10
78.4323906892
 20
47.90635020319999
 30
0.0
 10
78.07304359869999
 20
47.90156044359999
 30
0.0
 10
77.8035301275
 20
47.8981963255
 30
0.0
 10
77.5789273147
 20
47.8961238728
 30
0.0
 10
77.3992418735
 20
47.89490613789999
 30
0.0
 10
77.2644763896
 20
47.89422617449999
 30
0.0
 10
77.1297097895
 20
47.89379182829999
 30
0.0
 10
76.9949425515
 20
47.8937480996
 30
0.0
 10
76.8601754191
 20
47.8937749458
 30
0.0
 10
76.6804858622
 20
47.8937597643
 30
0.0
 10
76.45587392979999
 20
47.8937705783
 30
0.0
 10
76.0964948302
 20
47.8937649868
 30
0.0
 10
75.6472709584
 20
47.89376793739999
 30
0.0
 10
75.1082023111
 20
47.8937668085
 30
0.0
 10
74.389444115
 20
47.8937672851
 30
0.0
 10
73.4909963698
 20
47.8937670432
 30
0.0
 10
72.4128590757
 20
47.8937671162
 30
0.0
 10
71.33472178149999
 20
47.8937670872
 30
0.0
 10
70.25658448729998
 20
47.8937671059
 30
0.0
 10
68.81906809510001
 20
47.8937671047
 30
0.0
 10
67.02217260479999
 20
47.8937671071
 30
0.0
 10
64.8658980165
 20
47.8937671133
 30
0.0
 10
61.990865232
 20
47.8937671187
 30
0.0
 10
58.39707425149999
 20
47.8937671271
 30
0.0
 10
54.08452507479999
 20
47.8937671356
 30
0.0
 10
49.7719758981
 20
47.8937671418
 30
0.0
 10
46.89694311359999
 20
47.89376714350001
 30
0.0
 10
45.4594267214
 20
47.89376714350001
 30
0.0
  0
ENDSEC
  0
SECTION
  2
OBJECTS
  0
DICTIONARY
  5
C
330
0
100
AcDbDictionary
281
     1
  3
ACAD_CIP_PREVIOUS_PRODUCT_INFO
350
685C
  3
ACAD_COLOR
350
67F1
  3
ACAD_DETAILVIEWSTYLE
350
680A
  3
ACAD_GROUP
350
D
  3
ACAD_IMAGE_DICT
350
67B6
  3
ACAD_IMAGE_VARS
350
67B7
  3
ACAD_LAYOUT
350
1A
  3
ACAD_MATERIAL
350
67BF
  3
ACAD_MLEADERSTYLE
350
6806
  3
ACAD_MLINESTYLE
350
17
  3
ACAD_PLOTSETTINGS
350
19
  3
ACAD_PLOTSTYLENAME
350
E
  3
ACAD_SCALELIST
350
67F4
  3
ACAD_SECTIONVIEWSTYLE
350
6808
  3
ACAD_TABLESTYLE
350
67F2
  3
ACAD_VISUALSTYLE
350
67D8
  3
ACDB_RECOMPOSE_DATA
350
6936
  3
AcDbVariableDictionary
350
684E
  0
DICTIONARY
  5
680F
330
8
100
AcDbDictionary
280
     1
281
     1
  0
DICTIONARY
  5
6927
330
2
100
AcDbDictionary
280
     1
281
     1
  3
ACAD_LAYERSTATES
360
6928
  0
DICTIONARY
  5
685D
330
10
100
AcDbDictionary
280
     1
281
     1
  3
ADSK_XREC_LAYER_RECONCILED
360
685E
  0
DICTIONARY
  5
685F
330
1FA
100
AcDbDictionary
280
     1
281
     1
  3
ADSK_XREC_LAYER_RECONCILED
360
6860
  0
DICTIONARY
  5
6861
330
1FB
100
AcDbDictionary
280
     1
281
     1
  3
ADSK_XREC_LAYER_RECONCILED
360
6862
  0
DICTIONARY
  5
6863
330
1FC
100
AcDbDictionary
280
     1
281
     1
  3
ADSK_XREC_LAYER_RECONCILED
360
6864
  0
DICTIONARY
  5
6865
330
1FD
100
AcDbDictionary
280
     1
281
     1
  3
ADSK_XREC_LAYER_RECONCILED
360
6866
  0
DICTIONARY
  5
6867
330
1FE
100
AcDbDictionary
280
     1
281
     1
  3
ADSK_XREC_LAYER_RECONCILED
360
6868
  0
DICTIONARY
  5
6869
330
1FF
100
AcDbDictionary
280
     1
281
     1
  3
ADSK_XREC_LAYER_RECONCILED
360
686A
  0
DICTIONARY
  5
686B
330
200
100
AcDbDictionary
280
     1
281
     1
  3
ADSK_XREC_LAYER_RECONCILED
360
686C
  0
DICTIONARY
  5
686D
330
201
100
AcDbDictionary
280
     1
281
     1
  3
ADSK_XREC_LAYER_RECONCILED
360
686E
  0
DICTIONARY
  5
686F
330
202
100
AcDbDictionary
280
     1
281
     1
  3
ADSK_XREC_LAYER_RECONCILED
360
6870
  0
DICTIONARY
  5
6871
330
203
100
AcDbDictionary
280
     1
281
     1
  3
ADSK_XREC_LAYER_RECONCILED
360
6872
  0
DICTIONARY
  5
6873
330
204
100
AcDbDictionary
280
     1
281
     1
  3
ADSK_XREC_LAYER_RECONCILED
360
6874
  0
DICTIONARY
  5
6875
330
205
100
AcDbDictionary
280
     1
281
     1
  3
ADSK_XREC_LAYER_RECONCILED
360
6876
  0
DICTIONARY
  5
6877
330
206
100
AcDbDictionary
280
     1
281
     1
  3
ADSK_XREC_LAYER_RECONCILED
360
6878
  0
DICTIONARY
  5
6879
330
207
100
AcDbDictionary
280
     1
281
     1
  3
ADSK_XREC_LAYER_RECONCILED
360
687A
  0
DICTIONARY
  5
687B
330
208
100
AcDbDictionary
280
     1
281
     1
  3
ADSK_XREC_LAYER_RECONCILED
360
687C
  0
DICTIONARY
  5
687D
330
209
100
AcDbDictionary
280
     1
281
     1
  3
ADSK_XREC_LAYER_RECONCILED
360
687E
  0
DICTIONARY
  5
687F
330
20A
100
AcDbDictionary
280
     1
281
     1
  3
ADSK_XREC_LAYER_RECONCILED
360
6880
  0
DICTIONARY
  5
6881
330
20B
100
AcDbDictionary
280
     1
281
     1
  3
ADSK_XREC_LAYER_RECONCILED
360
6882
  0
DICTIONARY
  5
6883
330
20C
100
AcDbDictionary
280
     1
281
     1
  3
ADSK_XREC_LAYER_RECONCILED
360
6884
  0
DICTIONARY
  5
6885
330
20D
100
AcDbDictionary
280
     1
281
     1
  3
ADSK_XREC_LAYER_RECONCILED
360
6886
  0
DICTIONARY
  5
6887
330
20E
100
AcDbDictionary
280
     1
281
     1
  3
ADSK_XREC_LAYER_RECONCILED
360
6888
  0
DICTIONARY
  5
6889
330
20F
100
AcDbDictionary
280
     1
281
     1
  3
ADSK_XREC_LAYER_RECONCILED
360
688A
  0
DICTIONARY
  5
688B
330
210
100
AcDbDictionary
280
     1
281
     1
  3
ADSK_XREC_LAYER_RECONCILED
360
688C
  0
DICTIONARY
  5
688D
330
211
100
AcDbDictionary
280
     1
281
     1
  3
ADSK_XREC_LAYER_RECONCILED
360
688E
  0
DICTIONARY
  5
688F
330
212
100
AcDbDictionary
280
     1
281
     1
  3
ADSK_XREC_LAYER_RECONCILED
360
6890
  0
DICTIONARY
  5
6891
330
213
100
AcDbDictionary
280
     1
281
     1
  3
ADSK_XREC_LAYER_RECONCILED
360
6892
  0
DICTIONARY
  5
6893
330
214
100
AcDbDictionary
280
     1
281
     1
  3
ADSK_XREC_LAYER_RECONCILED
360
6894
  0
XRECORD
  5
685C
102
{ACAD_REACTORS
330
C
102
}
330
C
100
AcDbXrecord
280
     1
300
ACDLT
300
2019
300
ACDLT_F_S
  0
DICTIONARY
  5
67F1
102
{ACAD_REACTORS
330
C
102
}
330
C
100
AcDbDictionary
281
     1
  0
DICTIONARY
  5
680A
102
{ACAD_REACTORS
330
C
102
}
330
C
100
AcDbDictionary
281
     1
  3
Imperial24
350
680B
  0
DICTIONARY
  5
D
102
{ACAD_REACTORS
330
C
102
}
330
C
100
AcDbDictionary
281
     1
  0
DICTIONARY
  5
67B6
330
C
100
AcDbDictionary
281
     1
  3
a0001312_2_img_1
350
67BA
  0
RASTERVARIABLES
  5
67B7
330
C
100
AcDbRasterVariables
 90
        0
 70
     0
 71
     1
 72
     5
  0
DICTIONARY
  5
1A
102
{ACAD_REACTORS
330
C
102
}
330
C
100
AcDbDictionary
281
     1
  3
Layout1
350
67B9
  3
Model
350
67B8
  0
DICTIONARY
  5
67BF
102
{ACAD_REACTORS
330
C
102
}
330
C
100
AcDbDictionary
281
     1
  3
ByBlock
350
67C8
  3
ByLayer
350
67C0
  3
Global
350
67D0
  0
DICTIONARY
  5
6806
102
{ACAD_REACTORS
330
C
102
}
330
C
100
AcDbDictionary
281
     1
  3
Standard
350
6807
  0
DICTIONARY
  5
17
102
{ACAD_REACTORS
330
C
102
}
330
C
100
AcDbDictionary
281
     1
  3
Standard
350
18
  0
DICTIONARY
  5
19
102
{ACAD_REACTORS
330
C
102
}
330
C
100
AcDbDictionary
281
     1
  0
ACDBDICTIONARYWDFLT
  5
E
102
{ACAD_REACTORS
330
C
102
}
330
C
100
AcDbDictionary
281
     1
  3
Normal
350
F
100
AcDbDictionaryWithDefault
340
F
  0
DICTIONARY
  5
67F4
102
{ACAD_REACTORS
330
C
102
}
330
C
100
AcDbDictionary
281
     1
  3
A0
350
67F5
  3
A1
350
67F6
  3
A2
350
67F7
  3
A3
350
67F8
  3
A4
350
67F9
  3
A5
350
67FA
  3
A6
350
67FB
  3
A7
350
67FC
  3
A8
350
67FD
  3
A9
350
67FE
  3
B0
350
67FF
  3
B1
350
6800
  3
B2
350
6801
  3
B3
350
6802
  3
B4
350
6803
  3
B5
350
6804
  3
B6
350
6805
  0
DICTIONARY
  5
6808
102
{ACAD_REACTORS
330
C
102
}
330
C
100
AcDbDictionary
281
     1
  3
Imperial24
350
6809
  0
DICTIONARY
  5
67F2
102
{ACAD_REACTORS
330
C
102
}
330
C
100
AcDbDictionary
281
     1
  3
Standard
350
67F3
  0
DICTIONARY
  5
67D8
102
{ACAD_REACTORS
330
C
102
}
330
C
100
AcDbDictionary
281
     1
  3
2dWireframe
350
67DE
  3
Basic
350
67DD
  3
Brighten
350
67E4
  3
ColorChange
350
67E8
  3
Conceptual
350
67E1
  3
Dim
350
67E3
  3
EdgeColorOff
350
67F0
  3
Facepattern
350
67E7
  3
Flat
350
67D9
  3
FlatWithEdges
350
67DA
  3
Gouraud
350
67DB
  3
GouraudWithEdges
350
67DC
  3
Hidden
350
67E0
  3
JitterOff
350
67EE
  3
Linepattern
350
67E6
  3
OverhangOff
350
67EF
  3
Realistic
350
67E2
  3
Shaded
350
67ED
  3
Shaded with edges
350
67EC
  3
Shades of Gray
350
67E9
  3
Sketchy
350
67EA
  3
Thicken
350
67E5
  3
Wireframe
350
67DF
  3
X-Ray
350
67EB
  0
XRECORD
  5
6936
102
{ACAD_REACTORS
330
C
102
}
330
C
100
AcDbXrecord
280
     1
 90
        1
330
67F3
  0
DICTIONARY
  5
684E
102
{ACAD_REACTORS
330
C
102
}
330
C
100
AcDbDictionary
281
     1
  3
CANNOSCALE
350
6853
  3
CMLEADERSTYLE
350
6850
  3
CTABLESTYLE
350
684F
  3
CVIEWDETAILSTYLE
350
6851
  3
CVIEWSECTIONSTYLE
350
6852
  3
DIMASSOC
350
6856
  3
INDEXCTL
350
6855
  3
LAYEREVAL
350
6933
  3
LAYERNOTIFY
350
6934
  3
LIGHTINGUNITS
350
6932
  3
MSLTSCALE
350
6931
  3
SORTENTS
350
6854
  0
DICTIONARY
  5
6928
102
{ACAD_REACTORS
330
6927
102
}
330
6927
100
AcDbDictionary
281
     1
  0
XRECORD
  5
685E
102
{ACAD_REACTORS
330
685D
102
}
330
685D
100
AcDbXrecord
280
     1
290
     1
  0
XRECORD
  5
6860
102
{ACAD_REACTORS
330
685F
102
}
330
685F
100
AcDbXrecord
280
     1
290
     1
  0
XRECORD
  5
6862
102
{ACAD_REACTORS
330
6861
102
}
330
6861
100
AcDbXrecord
280
     1
290
     1
  0
XRECORD
  5
6864
102
{ACAD_REACTORS
330
6863
102
}
330
6863
100
AcDbXrecord
280
     1
290
     1
  0
XRECORD
  5
6866
102
{ACAD_REACTORS
330
6865
102
}
330
6865
100
AcDbXrecord
280
     1
290
     1
  0
XRECORD
  5
6868
102
{ACAD_REACTORS
330
6867
102
}
330
6867
100
AcDbXrecord
280
     1
290
     1
  0
XRECORD
  5
686A
102
{ACAD_REACTORS
330
6869
102
}
330
6869
100
AcDbXrecord
280
     1
290
     1
  0
XRECORD
  5
686C
102
{ACAD_REACTORS
330
686B
102
}
330
686B
100
AcDbXrecord
280
     1
290
     1
  0
XRECORD
  5
686E
102
{ACAD_REACTORS
330
686D
102
}
330
686D
100
AcDbXrecord
280
     1
290
     1
  0
XRECORD
  5
6870
102
{ACAD_REACTORS
330
686F
102
}
330
686F
100
AcDbXrecord
280
     1
290
     1
  0
XRECORD
  5
6872
102
{ACAD_REACTORS
330
6871
102
}
330
6871
100
AcDbXrecord
280
     1
290
     1
  0
XRECORD
  5
6874
102
{ACAD_REACTORS
330
6873
102
}
330
6873
100
AcDbXrecord
280
     1
290
     1
  0
XRECORD
  5
6876
102
{ACAD_REACTORS
330
6875
102
}
330
6875
100
AcDbXrecord
280
     1
290
     1
  0
XRECORD
  5
6878
102
{ACAD_REACTORS
330
6877
102
}
330
6877
100
AcDbXrecord
280
     1
290
     1
  0
XRECORD
  5
687A
102
{ACAD_REACTORS
330
6879
102
}
330
6879
100
AcDbXrecord
280
     1
290
     1
  0
XRECORD
  5
687C
102
{ACAD_REACTORS
330
687B
102
}
330
687B
100
AcDbXrecord
280
     1
290
     1
  0
XRECORD
  5
687E
102
{ACAD_REACTORS
330
687D
102
}
330
687D
100
AcDbXrecord
280
     1
290
     1
  0
XRECORD
  5
6880
102
{ACAD_REACTORS
330
687F
102
}
330
687F
100
AcDbXrecord
280
     1
290
     1
  0
XRECORD
  5
6882
102
{ACAD_REACTORS
330
6881
102
}
330
6881
100
AcDbXrecord
280
     1
290
     1
  0
XRECORD
  5
6884
102
{ACAD_REACTORS
330
6883
102
}
330
6883
100
AcDbXrecord
280
     1
290
     1
  0
XRECORD
  5
6886
102
{ACAD_REACTORS
330
6885
102
}
330
6885
100
AcDbXrecord
280
     1
290
     1
  0
XRECORD
  5
6888
102
{ACAD_REACTORS
330
6887
102
}
330
6887
100
AcDbXrecord
280
     1
290
     1
  0
XRECORD
  5
688A
102
{ACAD_REACTORS
330
6889
102
}
330
6889
100
AcDbXrecord
280
     1
290
     1
  0
XRECORD
  5
688C
102
{ACAD_REACTORS
330
688B
102
}
330
688B
100
AcDbXrecord
280
     1
290
     1
  0
XRECORD
  5
688E
102
{ACAD_REACTORS
330
688D
102
}
330
688D
100
AcDbXrecord
280
     1
290
     1
  0
XRECORD
  5
6890
102
{ACAD_REACTORS
330
688F
102
}
330
688F
100
AcDbXrecord
280
     1
290
     1
  0
XRECORD
  5
6892
102
{ACAD_REACTORS
330
6891
102
}
330
6891
100
AcDbXrecord
280
     1
290
     1
  0
XRECORD
  5
6894
102
{ACAD_REACTORS
330
6893
102
}
330
6893
100
AcDbXrecord
280
     1
290
     1
  0
ACDBDETAILVIEWSTYLE
  5
680B
102
{ACAD_REACTORS
330
680A
102
}
330
680A
100
AcDbModelDocViewStyle
 70
     0
  3
Imperial24
290
     0
300
Imperial24
 90
        0
100
AcDbDetailViewStyle
 70
     0
 71
     0
 90
        3
 71
     1
340
11
 62
   256
 40
0.24
340
0
 62
   256
 40
0.24
300

 40
0.36
280
     3
 71
     2
340
16
 90
       25
 62
   256
 71
     3
340
11
 62
   256
 40
0.24
 90
        1
 40
0.75
 90
        1
300
%<\AcVar ViewType \f "%tc1">% %<\AcVar ViewDetailId>%\PSCALE %<\AcVar ViewScale \f "%sn">%
 71
     4
340
16
 90
       25
 62
   256
340
16
 90
       25
 62
   256
280
     0
  0
IMAGEDEF
  5
67BA
102
{ACAD_REACTORS
330
67B6
102
}
330
67B6
100
AcDbRasterImageDef
 90
        0
  1
a0001312_2_img_1.png
 10
8104.0
 20
6656.0
 11
0.0066666667
 21
0.0066666667
280
     1
281
     0
  0
LAYOUT
  5
67B9
102
{ACAD_REACTORS
330
1A
102
}
330
1A
100
AcDbPlotSettings
  1

  2
none_device
  4
ANSI_B_(17.00_x_11.00_Inches)
  6

 40
0.0
 41
0.0
 42
0.0
 43
0.0
 44
431.8
 45
279.4
 46
0.0
 47
0.0
 48
0.0
 49
0.0
140
0.0
141
0.0
142
1.0
143
1.0
 70
     0
 72
     0
 73
     0
 74
     0
  7

 75
     0
147
1.0
 76
     0
 77
     2
 78
   300
148
0.0
149
0.0
100
AcDbLayout
  1
Layout1
 70
     1
 71
     1
 10
0.0
 20
0.0
 11
12.0
 21
9.0
 12
0.0
 22
0.0
 32
0.0
 14
1.000000000000000E+20
 24
1.000000000000000E+20
 34
1.000000000000000E+20
 15
-1.000000000000000E+20
 25
-1.000000000000000E+20
 35
-1.000000000000000E+20
146
0.0
 13
0.0
 23
0.0
 33
0.0
 16
1.0
 26
0.0
 36
0.0
 17
0.0
 27
1.0
 37
0.0
 76
     0
330
21E
  0
LAYOUT
  5
67B8
102
{ACAD_REACTORS
330
1A
102
}
330
1A
100
AcDbPlotSettings
  1

  2
none_device
  4
ANSI_B_(17.00_x_11.00_Inches)
  6

 40
0.0
 41
0.0
 42
0.0
 43
0.0
 44
431.8
 45
279.4
 46
0.0
 47
0.0
 48
0.0
 49
0.0
140
0.0
141
0.0
142
1.0
143
1.0
 70
  1024
 72
     0
 73
     0
 74
     0
  7

 75
     0
147
1.0
 76
     0
 77
     2
 78
   300
148
0.0
149
0.0
100
AcDbLayout
  1
Model
 70
     0
 71
     0
 10
0.0
 20
0.0
 11
17.0
 21
11.0
 12
0.0
 22
0.0
 32
0.0
 14
0.0
 24
0.0
 34
0.0
 15
0.0
 25
0.0
 35
0.0
146
0.0
 13
0.0
 23
0.0
 33
0.0
 16
1.0
 26
0.0
 36
0.0
 17
0.0
 27
1.0
 37
0.0
 76
     0
330
21D
331
1F4
  0
MATERIAL
  5
67C8
102
{ACAD_XDICTIONARY
360
67C9
102
}
102
{ACAD_REACTORS
330
67BF
102
}
330
67BF
100
AcDbMaterial
  1
ByBlock
 72
     0
 43
0.0208333333333333
 43
0.0
 43
0.0
 43
0.0
 43
0.0
 43
0.0208333333333333
 43
0.0
 43
0.0
 43
0.0
 43
0.0
 43
1.0
 43
0.0
 43
0.0
 43
0.0
 43
0.0
 43
1.0
 77
     0
 47
0.0208333333333333
 47
0.0
 47
0.0
 47
0.0
 47
0.0
 47
0.0208333333333333
 47
0.0
 47
0.0
 47
0.0
 47
0.0
 47
1.0
 47
0.0
 47
0.0
 47
0.0
 47
0.0
 47
1.0
171
     0
 49
0.0208333333333333
 49
0.0
 49
0.0
 49
0.0
 49
0.0
 49
0.0208333333333333
 49
0.0
 49
0.0
 49
0.0
 49
0.0
 49
1.0
 49
0.0
 49
0.0
 49
0.0
 49
0.0
 49
1.0
175
     0
142
0.0208333333333333
142
0.0
142
0.0
142
0.0
142
0.0
142
0.0208333333333333
142
0.0
142
0.0
142
0.0
142
0.0
142
1.0
142
0.0
142
0.0
142
0.0
142
0.0
142
1.0
179
     0
144
0.0208333333333333
144
0.0
144
0.0
144
0.0
144
0.0
144
0.0208333333333333
144
0.0
144
0.0
144
0.0
144
0.0
144
1.0
144
0.0
144
0.0
144
0.0
144
0.0
144
1.0
147
0.0208333333333333
147
0.0
147
0.0
147
0.0
147
0.0
147
0.0208333333333333
147
0.0
147
0.0
147
0.0
147
0.0
147
1.0
147
0.0
147
0.0
147
0.0
147
0.0
147
1.0
  0
MATERIAL
  5
67C0
102
{ACAD_XDICTIONARY
360
67C1
102
}
102
{ACAD_REACTORS
330
67BF
102
}
330
67BF
100
AcDbMaterial
  1
ByLayer
 72
     0
 43
0.0208333333333333
 43
0.0
 43
0.0
 43
0.0
 43
0.0
 43
0.0208333333333333
 43
0.0
 43
0.0
 43
0.0
 43
0.0
 43
1.0
 43
0.0
 43
0.0
 43
0.0
 43
0.0
 43
1.0
 77
     0
 47
0.0208333333333333
 47
0.0
 47
0.0
 47
0.0
 47
0.0
 47
0.0208333333333333
 47
0.0
 47
0.0
 47
0.0
 47
0.0
 47
1.0
 47
0.0
 47
0.0
 47
0.0
 47
0.0
 47
1.0
171
     0
 49
0.0208333333333333
 49
0.0
 49
0.0
 49
0.0
 49
0.0
 49
0.0208333333333333
 49
0.0
 49
0.0
 49
0.0
 49
0.0
 49
1.0
 49
0.0
 49
0.0
 49
0.0
 49
0.0
 49
1.0
175
     0
142
0.0208333333333333
142
0.0
142
0.0
142
0.0
142
0.0
142
0.0208333333333333
142
0.0
142
0.0
142
0.0
142
0.0
142
1.0
142
0.0
142
0.0
142
0.0
142
0.0
142
1.0
179
     0
144
0.0208333333333333
144
0.0
144
0.0
144
0.0
144
0.0
144
0.0208333333333333
144
0.0
144
0.0
144
0.0
144
0.0
144
1.0
144
0.0
144
0.0
144
0.0
144
0.0
144
1.0
147
0.0208333333333333
147
0.0
147
0.0
147
0.0
147
0.0
147
0.0208333333333333
147
0.0
147
0.0
147
0.0
147
0.0
147
1.0
147
0.0
147
0.0
147
0.0
147
0.0
147
1.0
  0
MATERIAL
  5
67D0
102
{ACAD_XDICTIONARY
360
67D1
102
}
102
{ACAD_REACTORS
330
67BF
102
}
330
67BF
100
AcDbMaterial
  1
Global
 72
     0
 43
0.0208333333333333
 43
0.0
 43
0.0
 43
0.0
 43
0.0
 43
0.0208333333333333
 43
0.0
 43
0.0
 43
0.0
 43
0.0
 43
1.0
 43
0.0
 43
0.0
 43
0.0
 43
0.0
 43
1.0
 77
     0
 47
0.0208333333333333
 47
0.0
 47
0.0
 47
0.0
 47
0.0
 47
0.0208333333333333
 47
0.0
 47
0.0
 47
0.0
 47
0.0
 47
1.0
 47
0.0
 47
0.0
 47
0.0
 47
0.0
 47
1.0
171
     0
 49
0.0208333333333333
 49
0.0
 49
0.0
 49
0.0
 49
0.0
 49
0.0208333333333333
 49
0.0
 49
0.0
 49
0.0
 49
0.0
 49
1.0
 49
0.0
 49
0.0
 49
0.0
 49
0.0
 49
1.0
175
     0
142
0.0208333333333333
142
0.0
142
0.0
142
0.0
142
0.0
142
0.0208333333333333
142
0.0
142
0.0
142
0.0
142
0.0
142
1.0
142
0.0
142
0.0
142
0.0
142
0.0
142
1.0
179
     0
144
0.0208333333333333
144
0.0
144
0.0
144
0.0
144
0.0
144
0.0208333333333333
144
0.0
144
0.0
144
0.0
144
0.0
144
1.0
144
0.0
144
0.0
144
0.0
144
0.0
144
1.0
147
0.0208333333333333
147
0.0
147
0.0
147
0.0
147
0.0
147
0.0208333333333333
147
0.0
147
0.0
147
0.0
147
0.0
147
1.0
147
0.0
147
0.0
147
0.0
147
0.0
147
1.0
  0
MLEADERSTYLE
  5
6807
102
{ACAD_REACTORS
330
6806
102
}
330
6806
100
AcDbMLeaderStyle
179
     2
170
     2
171
     1
172
     0
 90
        2
 40
0.0
 41
0.0
173
     1
 91
-1056964608
340
14
 92
       -2
290
     1
 42
0.09
291
     1
 43
0.36
  3
Standard
 44
0.18
300

342
11
174
     1
178
     6
175
     1
176
     0
 93
-1056964608
 45
0.18
292
     0
297
     0
 46
0.18
 94
-1056964608
 47
1.0
 49
1.0
140
1.0
293
     1
141
0.0
294
     1
177
     0
142
1.0
295
     0
296
     0
143
0.125
271
     0
272
     9
273
     9
298
     0
  0
MLINESTYLE
  5
18
102
{ACAD_REACTORS
330
17
102
}
330
17
100
AcDbMlineStyle
  2
STANDARD
 70
     0
  3

 62
   256
 51
90.0
 52
90.0
 71
     2
 49
0.5
 62
   256
  6
BYLAYER
 49
-0.5
 62
   256
  6
BYLAYER
  0
ACDBPLACEHOLDER
  5
F
102
{ACAD_REACTORS
330
E
102
}
330
E
  0
SCALE
  5
67F5
102
{ACAD_REACTORS
330
67F4
102
}
330
67F4
100
AcDbScale
 70
     0
300
1:1
140
1.0
141
1.0
290
     1
  0
SCALE
  5
67F6
102
{ACAD_REACTORS
330
67F4
102
}
330
67F4
100
AcDbScale
 70
     0
300
1/128" = 1'-0"
140
0.0078125
141
12.0
290
     0
  0
SCALE
  5
67F7
102
{ACAD_REACTORS
330
67F4
102
}
330
67F4
100
AcDbScale
 70
     0
300
1/64" = 1'-0"
140
0.015625
141
12.0
290
     0
  0
SCALE
  5
67F8
102
{ACAD_REACTORS
330
67F4
102
}
330
67F4
100
AcDbScale
 70
     0
300
1/32" = 1'-0"
140
0.03125
141
12.0
290
     0
  0
SCALE
  5
67F9
102
{ACAD_REACTORS
330
67F4
102
}
330
67F4
100
AcDbScale
 70
     0
300
1/16" = 1'-0"
140
0.0625
141
12.0
290
     0
  0
SCALE
  5
67FA
102
{ACAD_REACTORS
330
67F4
102
}
330
67F4
100
AcDbScale
 70
     0
300
3/32" = 1'-0"
140
0.09375
141
12.0
290
     0
  0
SCALE
  5
67FB
102
{ACAD_REACTORS
330
67F4
102
}
330
67F4
100
AcDbScale
 70
     0
300
1/8" = 1'-0"
140
0.125
141
12.0
290
     0
  0
SCALE
  5
67FC
102
{ACAD_REACTORS
330
67F4
102
}
330
67F4
100
AcDbScale
 70
     0
300
3/16" = 1'-0"
140
0.1875
141
12.0
290
     0
  0
SCALE
  5
67FD
102
{ACAD_REACTORS
330
67F4
102
}
330
67F4
100
AcDbScale
 70
     0
300
1/4" = 1'-0"
140
0.25
141
12.0
290
     0
  0
SCALE
  5
67FE
102
{ACAD_REACTORS
330
67F4
102
}
330
67F4
100
AcDbScale
 70
     0
300
3/8" = 1'-0"
140
0.375
141
12.0
290
     0
  0
SCALE
  5
67FF
102
{ACAD_REACTORS
330
67F4
102
}
330
67F4
100
AcDbScale
 70
     0
300
1/2" = 1'-0"
140
0.5
141
12.0
290
     0
  0
SCALE
  5
6800
102
{ACAD_REACTORS
330
67F4
102
}
330
67F4
100
AcDbScale
 70
     0
300
3/4" = 1'-0"
140
0.75
141
12.0
290
     0
  0
SCALE
  5
6801
102
{ACAD_REACTORS
330
67F4
102
}
330
67F4
100
AcDbScale
 70
     0
300
1" = 1'-0"
140
1.0
141
12.0
290
     0
  0
SCALE
  5
6802
102
{ACAD_REACTORS
330
67F4
102
}
330
67F4
100
AcDbScale
 70
     0
300
1-1/2" = 1'-0"
140
1.5
141
12.0
290
     0
  0
SCALE
  5
6803
102
{ACAD_REACTORS
330
67F4
102
}
330
67F4
100
AcDbScale
 70
     0
300
3" = 1'-0"
140
3.0
141
12.0
290
     0
  0
SCALE
  5
6804
102
{ACAD_REACTORS
330
67F4
102
}
330
67F4
100
AcDbScale
 70
     0
300
6" = 1'-0"
140
6.0
141
12.0
290
     0
  0
SCALE
  5
6805
102
{ACAD_REACTORS
330
67F4
102
}
330
67F4
100
AcDbScale
 70
     0
300
1'-0" = 1'-0"
140
12.0
141
12.0
290
     0
  0
ACDBSECTIONVIEWSTYLE
  5
6809
102
{ACAD_REACTORS
330
6808
102
}
330
6808
100
AcDbModelDocViewStyle
 70
     0
  3
Imperial24
290
     0
300
Imperial24
 90
        0
100
AcDbSectionViewStyle
 70
     0
 71
     0
 90
       78
 71
     1
340
11
 62
   256
 40
0.24
340
0
340
0
 62
   256
 40
0.24
300
I, O, Q, S, X, Z
 40
0.48
 90
        3
 40
0.18
 90
        1
 71
     2
340
16
 90
       25
 62
   256
340
16
 90
       50
 62
   256
 40
0.24
 40
0.0
 40
0.24
 71
     3
340
11
 62
   256
 40
0.24
 90
        1
 40
0.75
 90
        1
300
%<\AcVar ViewType \f "%tc1">% %<\AcVar ViewSectionStartId>%-%<\AcVar ViewSectionEndId>%\PSCALE %<\AcVar ViewScale \f "%sn">%
 71
     4
 62
   256
 62
   257
300
ANSI31
 40
1.0
 90
        0
290
     0
290
     0
 90
        6
 40
0.0
 40
1.570796326794896
 40
0.2617993877991494
 40
1.308996938995747
 40
-0.2617993877991494
 40
1.832595714594046
  0
TABLESTYLE
  5
67F3
102
{ACAD_XDICTIONARY
360
680C
102
}
102
{ACAD_REACTORS
330
67F2
102
}
330
67F2
100
AcDbTableStyle
280
     0
  3
Standard
 70
     0
 71
     0
 40
0.06
 41
0.06
280
     0
281
     0
  7
STANDARD
140
0.18
170
     2
 62
     0
 63
     7
283
     0
 90
      512
 91
        0
  1

274
    -2
284
     1
 64
     0
275
    -2
285
     1
 65
     0
276
    -2
286
     1
 66
     0
277
    -2
287
     1
 67
     0
278
    -2
288
     1
 68
     0
279
    -2
289
     1
 69
     0
  7
STANDARD
140
0.25
170
     5
 62
     0
 63
     7
283
     0
 90
      512
 91
        0
  1

274
    -2
284
     1
 64
     0
275
    -2
285
     1
 65
     0
276
    -2
286
     1
 66
     0
277
    -2
287
     1
 67
     0
278
    -2
288
     1
 68
     0
279
    -2
289
     1
 69
     0
  7
STANDARD
140
0.18
170
     5
 62
     0
 63
     7
283
     0
 90
      512
 91
        0
  1

274
    -2
284
     1
 64
     0
275
    -2
285
     1
 65
     0
276
    -2
286
     1
 66
     0
277
    -2
287
     1
 67
     0
278
    -2
288
     1
 68
     0
279
    -2
289
     1
 69
     0
  0
VISUALSTYLE
  5
67DE
102
{ACAD_REACTORS
330
67D8
102
}
330
67D8
100
AcDbVisualStyle
  2
2dWireframe
 70
     4
177
     3
291
     0
 70
    58
 90
        0
176
     1
 90
        2
176
     1
 90
        0
176
     1
 90
        0
176
     1
 40
0.6
176
     1
 40
30.0
176
     1
 62
     7
176
     1
 90
        1
176
     1
 90
        4
176
     1
 62
     7
176
     1
 62
   257
176
     1
 90
        1
176
     1
 90
        1
176
     1
 40
1.0
176
     1
 90
        0
176
     1
 62
   257
176
     1
 40
1.0
176
     1
 90
        1
176
     1
 90
        6
176
     1
 90
        2
176
     1
 62
     7
176
     1
 90
        5
176
     1
 90
        0
176
     1
 90
        0
176
     1
290
     0
176
     1
 90
        1
176
     1
 40
0.0
176
     1
 90
        0
176
     1
290
     1
176
     1
290
     1
176
     1
290
     0
176
     1
290
     0
176
     1
290
     0
176
     1
290
     0
176
     1
290
     0
176
     1
290
     0
176
     1
290
     0
176
     1
 90
       50
176
     1
 40
0.0
176
     1
 40
1.0
176
     1
 90
        0
176
     1
 62
    18
420
        0
176
     1
 90
       50
176
     1
 90
        3
176
     1
 62
     5
420
      255
176
     1
290
     0
176
     1
 90
       50
176
     1
 90
       50
176
     1
 90
       50
176
     1
290
     0
176
     1
 90
       50
176
     1
 62
   256
176
     0
 40
1.0
176
     0
 90
        2
176
     1
  1
strokes_ogs.tif
176
     1
290
     0
176
     1
 40
1.0
176
     1
 40
1.0
176
     1
  0
VISUALSTYLE
  5
67DD
102
{ACAD_REACTORS
330
67D8
102
}
330
67D8
100
AcDbVisualStyle
  2
Basic
 70
     7
177
     3
291
     1
 70
    58
 90
        1
176
     1
 90
        0
176
     1
 90
        1
176
     1
 90
        0
176
     1
 40
0.6
176
     1
 40
30.0
176
     1
 62
     7
176
     1
 90
        0
176
     1
 90
        4
176
     1
 62
     7
176
     1
 62
   257
176
     1
 90
        1
176
     1
 90
        1
176
     1
 40
1.0
176
     1
 90
        8
176
     1
 62
     7
176
     1
 40
1.0
176
     1
 90
        1
176
     1
 90
        6
176
     1
 90
        2
176
     1
 62
     7
176
     1
 90
        5
176
     1
 90
        0
176
     1
 90
        0
176
     1
290
     0
176
     1
 90
        1
176
     1
 40
0.0
176
     1
 90
        0
176
     1
290
     0
176
     1
290
     1
176
     1
290
     1
176
     1
290
     0
176
     1
290
     0
176
     1
290
     0
176
     1
290
     0
176
     1
290
     0
176
     1
290
     0
176
     1
 90
       50
176
     1
 40
0.0
176
     1
 40
1.0
176
     1
 90
        0
176
     1
 62
    18
420
        0
176
     1
 90
       50
176
     1
 90
        3
176
     1
 62
     5
420
      255
176
     1
290
     0
176
     1
 90
       50
176
     1
 90
       50
176
     1
 90
       50
176
     1
290
     0
176
     1
 90
       50
176
     1
 62
   256
176
     0
 40
1.0
176
     0
 90
        2
176
     1
  1
strokes_ogs.tif
176
     1
290
     0
176
     1
 40
1.0
176
     1
 40
1.0
176
     1
  0
VISUALSTYLE
  5
67E4
102
{ACAD_REACTORS
330
67D8
102
}
330
67D8
100
AcDbVisualStyle
  2
Brighten
 70
    12
177
     3
291
     1
 70
    58
 90
        2
176
     1
 90
        2
176
     1
 90
        0
176
     1
 90
        0
176
     1
 40
0.6
176
     1
 40
30.0
176
     1
 62
     7
176
     1
 90
        1
176
     1
 90
        4
176
     1
 62
     7
176
     1
 62
   257
176
     1
 90
        1
176
     1
 90
        1
176
     1
 40
1.0
176
     1
 90
        8
176
     1
 62
     7
176
     1
 40
1.0
176
     1
 90
        1
176
     1
 90
        6
176
     1
 90
        2
176
     1
 62
     7
176
     1
 90
        5
176
     1
 90
        0
176
     1
 90
        0
176
     1
290
     0
176
     1
 90
        1
176
     1
 40
50.0
176
     1
 90
        0
176
     1
290
     0
176
     1
290
     1
176
     1
290
     1
176
     1
290
     0
176
     1
290
     0
176
     1
290
     0
176
     1
290
     0
176
     1
290
     0
176
     1
290
     0
176
     1
 90
       50
176
     1
 40
0.0
176
     1
 40
1.0
176
     1
 90
        0
176
     1
 62
    18
420
        0
176
     1
 90
       50
176
     1
 90
        3
176
     1
 62
     5
420
      255
176
     1
290
     0
176
     1
 90
       50
176
     1
 90
       50
176
     1
 90
       50
176
     1
290
     0
176
     1
 90
       50
176
     1
 62
   256
176
     0
 40
1.0
176
     0
 90
        2
176
     1
  1
strokes_ogs.tif
176
     1
290
     0
176
     1
 40
1.0
176
     1
 40
1.0
176
     1
  0
VISUALSTYLE
  5
67E8
102
{ACAD_REACTORS
330
67D8
102
}
330
67D8
100
AcDbVisualStyle
  2
ColorChange
 70
    16
177
     3
291
     1
 70
    58
 90
        2
176
     1
 90
        2
176
     1
 90
        3
176
     1
 90
        0
176
     1
 40
0.6
176
     1
 40
30.0
176
     1
 62
     8
176
     1
 90
        1
176
     1
 90
        4
176
     1
 62
     7
176
     1
 62
   257
176
     1
 90
        1
176
     1
 90
        1
176
     1
 40
1.0
176
     1
 90
        8
176
     1
 62
     8
176
     1
 40
1.0
176
     1
 90
        1
176
     1
 90
        6
176
     1
 90
        2
176
     1
 62
     7
176
     1
 90
        5
176
     1
 90
        0
176
     1
 90
        0
176
     1
290
     0
176
     1
 90
        1
176
     1
 40
0.0
176
     1
 90
        0
176
     1
290
     0
176
     1
290
     1
176
     1
290
     1
176
     1
290
     0
176
     1
290
     0
176
     1
290
     0
176
     1
290
     0
176
     1
290
     0
176
     1
290
     0
176
     1
 90
       50
176
     1
 40
0.0
176
     1
 40
1.0
176
     1
 90
        0
176
     1
 62
    18
420
        0
176
     1
 90
       50
176
     1
 90
        3
176
     1
 62
     5
420
      255
176
     1
290
     0
176
     1
 90
       50
176
     1
 90
       50
176
     1
 90
       50
176
     1
290
     0
176
     1
 90
       50
176
     1
 62
   256
176
     0
 40
1.0
176
     0
 90
        2
176
     1
  1
strokes_ogs.tif
176
     1
290
     0
176
     1
 40
1.0
176
     1
 40
1.0
176
     1
  0
VISUALSTYLE
  5
67E1
102
{ACAD_REACTORS
330
67D8
102
}
330
67D8
100
AcDbVisualStyle
  2
Conceptual
 70
     9
177
     3
291
     0
 70
    58
 90
        3
176
     1
 90
        2
176
     1
 90
        0
176
     1
 90
        0
176
     1
 40
0.6
176
     1
 40
30.0
176
     1
 62
     7
176
     1
 90
        2
176
     1
 90
        2
176
     1
 62
     7
176
     1
 62
   257
176
     1
 90
        1
176
     1
 90
        1
176
     1
 40
179.0
176
     1
 90
        8
176
     1
 62
     7
176
     1
 40
1.0
176
     1
 90
        1
176
     1
 90
        6
176
     1
 90
        2
176
     1
 62
     7
176
     1
 90
        3
176
     1
 90
        0
176
     1
 90
        0
176
     1
290
     0
176
     1
 90
        1
176
     1
 40
0.0
176
     1
 90
        0
176
     1
290
     0
176
     1
290
     1
176
     1
290
     1
176
     1
290
     0
176
     1
290
     0
176
     1
290
     0
176
     1
290
     0
176
     1
290
     0
176
     1
290
     0
176
     1
 90
       50
176
     1
 40
0.0
176
     1
 40
1.0
176
     1
 90
        0
176
     1
 62
    18
420
        0
176
     1
 90
       50
176
     1
 90
        3
176
     1
 62
     5
420
      255
176
     1
290
     0
176
     1
 90
       50
176
     1
 90
       50
176
     1
 90
       50
176
     1
290
     0
176
     1
 90
       50
176
     1
 62
   256
176
     0
 40
1.0
176
     0
 90
        2
176
     1
  1
strokes_ogs.tif
176
     1
290
     0
176
     1
 40
1.0
176
     1
 40
1.0
176
     1
  0
VISUALSTYLE
  5
67E3
102
{ACAD_REACTORS
330
67D8
102
}
330
67D8
100
AcDbVisualStyle
  2
Dim
 70
    11
177
     3
291
     1
 70
    58
 90
        2
176
     1
 90
        2
176
     1
 90
        0
176
     1
 90
        0
176
     1
 40
0.6
176
     1
 40
30.0
176
     1
 62
     7
176
     1
 90
        1
176
     1
 90
        4
176
     1
 62
     7
176
     1
 62
   257
176
     1
 90
        1
176
     1
 90
        1
176
     1
 40
1.0
176
     1
 90
        8
176
     1
 62
     7
176
     1
 40
1.0
176
     1
 90
        1
176
     1
 90
        6
176
     1
 90
        2
176
     1
 62
     7
176
     1
 90
        5
176
     1
 90
        0
176
     1
 90
        0
176
     1
290
     0
176
     1
 90
        1
176
     1
 40
-50.0
176
     1
 90
        0
176
     1
290
     0
176
     1
290
     1
176
     1
290
     1
176
     1
290
     0
176
     1
290
     0
176
     1
290
     0
176
     1
290
     0
176
     1
290
     0
176
     1
290
     0
176
     1
 90
       50
176
     1
 40
0.0
176
     1
 40
1.0
176
     1
 90
        0
176
     1
 62
    18
420
        0
176
     1
 90
       50
176
     1
 90
        3
176
     1
 62
     5
420
      255
176
     1
290
     0
176
     1
 90
       50
176
     1
 90
       50
176
     1
 90
       50
176
     1
290
     0
176
     1
 90
       50
176
     1
 62
   256
176
     0
 40
1.0
176
     0
 90
        2
176
     1
  1
strokes_ogs.tif
176
     1
290
     0
176
     1
 40
1.0
176
     1
 40
1.0
176
     1
  0
VISUALSTYLE
  5
67F0
102
{ACAD_REACTORS
330
67D8
102
}
330
67D8
100
AcDbVisualStyle
  2
EdgeColorOff
 70
    22
177
     3
291
     1
 70
    58
 90
        2
176
     0
 90
        2
176
     0
 90
        0
176
     0
 90
        0
176
     0
 40
0.6
176
     0
 40
30.0
176
     0
 62
     7
176
     0
 90
        1
176
     0
 90
        4
176
     0
 62
     7
176
     0
 62
   257
176
     0
 90
        1
176
     0
 90
        1
176
     0
 40
1.0
176
     0
 90
        8
176
     2
 62
     7
176
     0
 40
1.0
176
     0
 90
        1
176
     0
 90
        6
176
     0
 90
        2
176
     0
 62
     7
176
     0
 90
        5
176
     0
 90
        0
176
     0
 90
        0
176
     0
290
     0
176
     0
 90
        1
176
     0
 40
0.0
176
     0
 90
        0
176
     0
290
     0
176
     1
290
     1
176
     1
290
     1
176
     1
290
     0
176
     1
290
     0
176
     1
290
     0
176
     1
290
     0
176
     1
290
     0
176
     1
290
     0
176
     1
 90
       50
176
     0
 40
0.0
176
     0
 40
1.0
176
     0
 90
        0
176
     0
 62
    18
420
        0
176
     0
 90
       50
176
     0
 90
        3
176
     0
 62
     5
420
      255
176
     0
290
     0
176
     1
 90
       50
176
     0
 90
       50
176
     0
 90
       50
176
     0
290
     0
176
     1
 90
       50
176
     0
 62
   256
176
     0
 40
1.0
176
     0
 90
        2
176
     0
  1
strokes_ogs.tif
176
     0
290
     0
176
     1
 40
1.0
176
     0
 40
1.0
176
     0
  0
VISUALSTYLE
  5
67E7
102
{ACAD_REACTORS
330
67D8
102
}
330
67D8
100
AcDbVisualStyle
  2
Facepattern
 70
    15
177
     3
291
     1
 70
    58
 90
        2
176
     1
 90
        2
176
     1
 90
        0
176
     1
 90
        0
176
     1
 40
0.6
176
     1
 40
30.0
176
     1
 62
     7
176
     1
 90
        1
176
     1
 90
        4
176
     1
 62
     7
176
     1
 62
   257
176
     1
 90
        1
176
     1
 90
        1
176
     1
 40
1.0
176
     1
 90
        8
176
     1
 62
     7
176
     1
 40
1.0
176
     1
 90
        1
176
     1
 90
        6
176
     1
 90
        2
176
     1
 62
     7
176
     1
 90
        5
176
     1
 90
        0
176
     1
 90
        0
176
     1
290
     0
176
     1
 90
        1
176
     1
 40
0.0
176
     1
 90
        0
176
     1
290
     0
176
     1
290
     1
176
     1
290
     1
176
     1
290
     0
176
     1
290
     0
176
     1
290
     0
176
     1
290
     0
176
     1
290
     0
176
     1
290
     0
176
     1
 90
       50
176
     1
 40
0.0
176
     1
 40
1.0
176
     1
 90
        0
176
     1
 62
    18
420
        0
176
     1
 90
       50
176
     1
 90
        3
176
     1
 62
     5
420
      255
176
     1
290
     0
176
     1
 90
       50
176
     1
 90
       50
176
     1
 90
       50
176
     1
290
     0
176
     1
 90
       50
176
     1
 62
   256
176
     0
 40
1.0
176
     0
 90
        2
176
     1
  1
strokes_ogs.tif
176
     1
290
     0
176
     1
 40
1.0
176
     1
 40
1.0
176
     1
  0
VISUALSTYLE
  5
67D9
102
{ACAD_REACTORS
330
67D8
102
}
330
67D8
100
AcDbVisualStyle
  2
Flat
 70
     0
177
     3
291
     1
 70
    58
 90
        2
176
     1
 90
        1
176
     1
 90
        1
176
     1
 90
        2
176
     1
 40
0.6
176
     1
 40
30.0
176
     1
 62
     7
176
     1
 90
        0
176
     1
 90
        0
176
     1
 62
     7
176
     1
 62
   257
176
     1
 90
        1
176
     1
 90
        1
176
     1
 40
1.0
176
     1
 90
        8
176
     1
 62
     7
176
     1
 40
1.0
176
     1
 90
        1
176
     1
 90
        6
176
     1
 90
        2
176
     1
 62
     7
176
     1
 90
        5
176
     1
 90
        0
176
     1
 90
        0
176
     1
290
     0
176
     1
 90
       13
176
     1
 40
0.0
176
     1
 90
        0
176
     1
290
     0
176
     1
290
     1
176
     1
290
     1
176
     1
290
     0
176
     1
290
     0
176
     1
290
     0
176
     1
290
     0
176
     1
290
     0
176
     1
290
     0
176
     1
 90
       50
176
     1
 40
0.0
176
     1
 40
1.0
176
     1
 90
        0
176
     1
 62
    18
420
        0
176
     1
 90
       50
176
     1
 90
        3
176
     1
 62
     5
420
      255
176
     1
290
     0
176
     1
 90
       50
176
     1
 90
       50
176
     1
 90
       50
176
     1
290
     0
176
     1
 90
       50
176
     1
 62
   256
176
     0
 40
1.0
176
     0
 90
        2
176
     1
  1
strokes_ogs.tif
176
     1
290
     0
176
     1
 40
1.0
176
     1
 40
1.0
176
     1
  0
VISUALSTYLE
  5
67DA
102
{ACAD_REACTORS
330
67D8
102
}
330
67D8
100
AcDbVisualStyle
  2
FlatWithEdges
 70
     1
177
     3
291
     1
 70
    58
 90
        2
176
     1
 90
        1
176
     1
 90
        1
176
     1
 90
        2
176
     1
 40
0.6
176
     1
 40
30.0
176
     1
 62
     7
176
     1
 90
        1
176
     1
 90
        0
176
     1
 62
     7
176
     1
 62
   257
176
     1
 90
        1
176
     1
 90
        1
176
     1
 40
1.0
176
     1
 90
        0
176
     1
 62
   257
176
     1
 40
1.0
176
     1
 90
        1
176
     1
 90
        6
176
     1
 90
        2
176
     1
 62
     7
176
     1
 90
        5
176
     1
 90
        0
176
     1
 90
        0
176
     1
290
     0
176
     1
 90
       13
176
     1
 40
0.0
176
     1
 90
        0
176
     1
290
     0
176
     1
290
     1
176
     1
290
     1
176
     1
290
     0
176
     1
290
     0
176
     1
290
     0
176
     1
290
     0
176
     1
290
     0
176
     1
290
     0
176
     1
 90
       50
176
     1
 40
0.0
176
     1
 40
1.0
176
     1
 90
        0
176
     1
 62
    18
420
        0
176
     1
 90
       50
176
     1
 90
        3
176
     1
 62
     5
420
      255
176
     1
290
     0
176
     1
 90
       50
176
     1
 90
       50
176
     1
 90
       50
176
     1
290
     0
176
     1
 90
       50
176
     1
 62
   256
176
     0
 40
1.0
176
     0
 90
        2
176
     1
  1
strokes_ogs.tif
176
     1
290
     0
176
     1
 40
1.0
176
     1
 40
1.0
176
     1
  0
VISUALSTYLE
  5
67DB
102
{ACAD_REACTORS
330
67D8
102
}
330
67D8
100
AcDbVisualStyle
  2
Gouraud
 70
     2
177
     3
291
     1
 70
    58
 90
        2
176
     1
 90
        2
176
     1
 90
        1
176
     1
 90
        2
176
     1
 40
0.6
176
     1
 40
30.0
176
     1
 62
     7
176
     1
 90
        0
176
     1
 90
        0
176
     1
 62
     7
176
     1
 62
   257
176
     1
 90
        1
176
     1
 90
        1
176
     1
 40
1.0
176
     1
 90
        0
176
     1
 62
     7
176
     1
 40
1.0
176
     1
 90
        1
176
     1
 90
        6
176
     1
 90
        2
176
     1
 62
     7
176
     1
 90
        5
176
     1
 90
        0
176
     1
 90
        0
176
     1
290
     0
176
     1
 90
       13
176
     1
 40
0.0
176
     1
 90
        0
176
     1
290
     0
176
     1
290
     1
176
     1
290
     1
176
     1
290
     0
176
     1
290
     0
176
     1
290
     0
176
     1
290
     0
176
     1
290
     0
176
     1
290
     0
176
     1
 90
       50
176
     1
 40
0.0
176
     1
 40
1.0
176
     1
 90
        0
176
     1
 62
    18
420
        0
176
     1
 90
       50
176
     1
 90
        3
176
     1
 62
     5
420
      255
176
     1
290
     0
176
     1
 90
       50
176
     1
 90
       50
176
     1
 90
       50
176
     1
290
     0
176
     1
 90
       50
176
     1
 62
   256
176
     0
 40
1.0
176
     0
 90
        2
176
     1
  1
strokes_ogs.tif
176
     1
290
     0
176
     1
 40
1.0
176
     1
 40
1.0
176
     1
  0
VISUALSTYLE
  5
67DC
102
{ACAD_REACTORS
330
67D8
102
}
330
67D8
100
AcDbVisualStyle
  2
GouraudWithEdges
 70
     3
177
     3
291
     1
 70
    58
 90
        2
176
     1
 90
        2
176
     1
 90
        1
176
     1
 90
        2
176
     1
 40
0.6
176
     1
 40
30.0
176
     1
 62
     7
176
     1
 90
        1
176
     1
 90
        0
176
     1
 62
     7
176
     1
 62
   257
176
     1
 90
        1
176
     1
 90
        1
176
     1
 40
1.0
176
     1
 90
        0
176
     1
 62
   257
176
     1
 40
1.0
176
     1
 90
        1
176
     1
 90
        6
176
     1
 90
        2
176
     1
 62
     7
176
     1
 90
        5
176
     1
 90
        0
176
     1
 90
        0
176
     1
290
     0
176
     1
 90
       13
176
     1
 40
0.0
176
     1
 90
        0
176
     1
290
     0
176
     1
290
     1
176
     1
290
     1
176
     1
290
     0
176
     1
290
     0
176
     1
290
     0
176
     1
290
     0
176
     1
290
     0
176
     1
290
     0
176
     1
 90
       50
176
     1
 40
0.0
176
     1
 40
1.0
176
     1
 90
        0
176
     1
 62
    18
420
        0
176
     1
 90
       50
176
     1
 90
        3
176
     1
 62
     5
420
      255
176
     1
290
     0
176
     1
 90
       50
176
     1
 90
       50
176
     1
 90
       50
176
     1
290
     0
176
     1
 90
       50
176
     1
 62
   256
176
     0
 40
1.0
176
     0
 90
        2
176
     1
  1
strokes_ogs.tif
176
     1
290
     0
176
     1
 40
1.0
176
     1
 40
1.0
176
     1
  0
VISUALSTYLE
  5
67E0
102
{ACAD_REACTORS
330
67D8
102
}
330
67D8
100
AcDbVisualStyle
  2
Hidden
 70
     6
177
     3
291
     0
 70
    58
 90
        1
176
     1
 90
        2
176
     1
 90
        2
176
     1
 90
        0
176
     1
 40
0.6
176
     1
 40
30.0
176
     1
 62
     7
176
     1
 90
        2
176
     1
 90
        2
176
     1
 62
     7
176
     1
 62
   257
176
     1
 90
        2
176
     1
 90
        1
176
     1
 40
40.0
176
     1
 90
        0
176
     1
 62
   257
176
     1
 40
1.0
176
     1
 90
        1
176
     1
 90
        6
176
     1
 90
        2
176
     1
 62
     7
176
     1
 90
        3
176
     1
 90
        0
176
     1
 90
        0
176
     1
290
     0
176
     1
 90
        1
176
     1
 40
0.0
176
     1
 90
        0
176
     1
290
     0
176
     1
290
     1
176
     1
290
     1
176
     1
290
     0
176
     1
290
     0
176
     1
290
     0
176
     1
290
     0
176
     1
290
     0
176
     1
290
     0
176
     1
 90
       50
176
     1
 40
0.0
176
     1
 40
1.0
176
     1
 90
        0
176
     1
 62
    18
420
        0
176
     1
 90
       50
176
     1
 90
        3
176
     1
 62
     5
420
      255
176
     1
290
     0
176
     1
 90
       50
176
     1
 90
       50
176
     1
 90
       50
176
     1
290
     0
176
     1
 90
       50
176
     1
 62
   256
176
     0
 40
1.0
176
     0
 90
        2
176
     1
  1
strokes_ogs.tif
176
     1
290
     0
176
     1
 40
1.0
176
     1
 40
1.0
176
     1
  0
VISUALSTYLE
  5
67EE
102
{ACAD_REACTORS
330
67D8
102
}
330
67D8
100
AcDbVisualStyle
  2
JitterOff
 70
    20
177
     3
291
     1
 70
    58
 90
        2
176
     0
 90
        2
176
     0
 90
        0
176
     0
 90
        0
176
     0
 40
0.6
176
     0
 40
30.0
176
     0
 62
     7
176
     0
 90
        1
176
     0
 90
        4
176
     0
 62
     7
176
     0
 62
   257
176
     0
 90
        1
176
     0
 90
        1
176
     0
 40
1.0
176
     0
 90
       10
176
     2
 62
     7
176
     0
 40
1.0
176
     0
 90
        1
176
     0
 90
        6
176
     0
 90
        2
176
     0
 62
     7
176
     0
 90
        5
176
     0
 90
        0
176
     0
 90
        0
176
     0
290
     0
176
     0
 90
        1
176
     0
 40
0.0
176
     0
 90
        0
176
     0
290
     0
176
     1
290
     1
176
     1
290
     1
176
     1
290
     0
176
     1
290
     0
176
     1
290
     0
176
     1
290
     0
176
     1
290
     0
176
     1
290
     0
176
     1
 90
       50
176
     0
 40
0.0
176
     0
 40
1.0
176
     0
 90
        0
176
     0
 62
    18
420
        0
176
     0
 90
       50
176
     0
 90
        3
176
     0
 62
     5
420
      255
176
     0
290
     0
176
     1
 90
       50
176
     0
 90
       50
176
     0
 90
       50
176
     0
290
     0
176
     1
 90
       50
176
     0
 62
   256
176
     0
 40
1.0
176
     0
 90
        2
176
     0
  1
strokes_ogs.tif
176
     0
290
     0
176
     1
 40
1.0
176
     0
 40
1.0
176
     0
  0
VISUALSTYLE
  5
67E6
102
{ACAD_REACTORS
330
67D8
102
}
330
67D8
100
AcDbVisualStyle
  2
Linepattern
 70
    14
177
     3
291
     1
 70
    58
 90
        2
176
     1
 90
        2
176
     1
 90
        0
176
     1
 90
        0
176
     1
 40
0.6
176
     1
 40
30.0
176
     1
 62
     7
176
     1
 90
        1
176
     1
 90
        4
176
     1
 62
     7
176
     1
 62
   257
176
     1
 90
        7
176
     1
 90
        7
176
     1
 40
1.0
176
     1
 90
        8
176
     1
 62
     7
176
     1
 40
1.0
176
     1
 90
        1
176
     1
 90
        6
176
     1
 90
        2
176
     1
 62
     7
176
     1
 90
        5
176
     1
 90
        0
176
     1
 90
        0
176
     1
290
     0
176
     1
 90
        1
176
     1
 40
0.0
176
     1
 90
        0
176
     1
290
     0
176
     1
290
     1
176
     1
290
     1
176
     1
290
     0
176
     1
290
     0
176
     1
290
     0
176
     1
290
     0
176
     1
290
     0
176
     1
290
     0
176
     1
 90
       50
176
     1
 40
0.0
176
     1
 40
1.0
176
     1
 90
        0
176
     1
 62
    18
420
        0
176
     1
 90
       50
176
     1
 90
        3
176
     1
 62
     5
420
      255
176
     1
290
     0
176
     1
 90
       50
176
     1
 90
       50
176
     1
 90
       50
176
     1
290
     0
176
     1
 90
       50
176
     1
 62
   256
176
     0
 40
1.0
176
     0
 90
        2
176
     1
  1
strokes_ogs.tif
176
     1
290
     0
176
     1
 40
1.0
176
     1
 40
1.0
176
     1
  0
VISUALSTYLE
  5
67EF
102
{ACAD_REACTORS
330
67D8
102
}
330
67D8
100
AcDbVisualStyle
  2
OverhangOff
 70
    21
177
     3
291
     1
 70
    58
 90
        2
176
     0
 90
        2
176
     0
 90
        0
176
     0
 90
        0
176
     0
 40
0.6
176
     0
 40
30.0
176
     0
 62
     7
176
     0
 90
        1
176
     0
 90
        4
176
     0
 62
     7
176
     0
 62
   257
176
     0
 90
        1
176
     0
 90
        1
176
     0
 40
1.0
176
     0
 90
        9
176
     2
 62
     7
176
     0
 40
1.0
176
     0
 90
        1
176
     0
 90
        6
176
     0
 90
        2
176
     0
 62
     7
176
     0
 90
        5
176
     0
 90
        0
176
     0
 90
        0
176
     0
290
     0
176
     0
 90
        1
176
     0
 40
0.0
176
     0
 90
        0
176
     0
290
     0
176
     1
290
     1
176
     1
290
     1
176
     1
290
     0
176
     1
290
     0
176
     1
290
     0
176
     1
290
     0
176
     1
290
     0
176
     1
290
     0
176
     1
 90
       50
176
     0
 40
0.0
176
     0
 40
1.0
176
     0
 90
        0
176
     0
 62
    18
420
        0
176
     0
 90
       50
176
     0
 90
        3
176
     0
 62
     5
420
      255
176
     0
290
     0
176
     1
 90
       50
176
     0
 90
       50
176
     0
 90
       50
176
     0
290
     0
176
     1
 90
       50
176
     0
 62
   256
176
     0
 40
1.0
176
     0
 90
        2
176
     0
  1
strokes_ogs.tif
176
     0
290
     0
176
     1
 40
1.0
176
     0
 40
1.0
176
     0
  0
VISUALSTYLE
  5
67E2
102
{ACAD_REACTORS
330
67D8
102
}
330
67D8
100
AcDbVisualStyle
  2
Realistic
 70
     8
177
     3
291
     0
 70
    58
 90
        2
176
     1
 90
        2
176
     1
 90
        0
176
     1
 90
        2
176
     1
 40
0.6
176
     1
 40
30.0
176
     1
 62
     7
176
     1
 90
        0
176
     1
 90
        0
176
     1
 62
     7
176
     1
 62
   257
176
     1
 90
        1
176
     1
 90
        1
176
     1
 40
1.0
176
     1
 90
        8
176
     1
 62
   257
176
     1
 40
1.0
176
     1
 90
        1
176
     1
 90
        6
176
     1
 90
        2
176
     1
 62
     7
176
     1
 90
        3
176
     1
 90
        0
176
     1
 90
        0
176
     1
290
     0
176
     1
 90
       13
176
     1
 40
0.0
176
     1
 90
        0
176
     1
290
     0
176
     1
290
     1
176
     1
290
     1
176
     1
290
     0
176
     1
290
     0
176
     1
290
     0
176
     1
290
     0
176
     1
290
     0
176
     1
290
     0
176
     1
 90
       50
176
     1
 40
0.0
176
     1
 40
1.0
176
     1
 90
        0
176
     1
 62
    18
420
        0
176
     1
 90
       50
176
     1
 90
        3
176
     1
 62
     5
420
      255
176
     1
290
     0
176
     1
 90
       50
176
     1
 90
       50
176
     1
 90
       50
176
     1
290
     0
176
     1
 90
       50
176
     1
 62
   256
176
     0
 40
1.0
176
     0
 90
        2
176
     1
  1
strokes_ogs.tif
176
     1
290
     0
176
     1
 40
1.0
176
     1
 40
1.0
176
     1
  0
VISUALSTYLE
  5
67ED
102
{ACAD_REACTORS
330
67D8
102
}
330
67D8
100
AcDbVisualStyle
  2
Shaded
 70
    27
177
     3
291
     0
 70
    58
 90
        2
176
     1
 90
        2
176
     1
 90
        1
176
     1
 90
        2
176
     1
 40
0.6
176
     1
 40
30.0
176
     1
 62
     7
176
     1
 90
        0
176
     1
 90
        4
176
     1
 62
     7
176
     1
 62
   257
176
     1
 90
        1
176
     1
 90
        1
176
     1
 40
1.0
176
     1
 90
        8
176
     1
 62
   257
176
     1
 40
1.0
176
     1
 90
        1
176
     1
 90
        6
176
     1
 90
        2
176
     1
 62
     8
176
     1
 90
        3
176
     1
 90
        0
176
     1
 90
        0
176
     1
290
     0
176
     1
 90
        5
176
     1
 40
0.0
176
     1
 90
        0
176
     1
290
     0
176
     1
290
     1
176
     1
290
     1
176
     1
290
     0
176
     1
290
     0
176
     1
290
     0
176
     1
290
     0
176
     1
290
     0
176
     1
290
     0
176
     1
 90
       50
176
     1
 40
0.0
176
     1
 40
1.0
176
     1
 90
        0
176
     1
 62
    18
420
        0
176
     1
 90
       50
176
     1
 90
        3
176
     1
 62
     5
420
      255
176
     1
290
     0
176
     1
 90
       50
176
     1
 90
       50
176
     1
 90
       50
176
     1
290
     0
176
     1
 90
       50
176
     1
 62
   256
176
     0
 40
1.0
176
     0
 90
        2
176
     1
  1
strokes_ogs.tif
176
     1
290
     0
176
     1
 40
1.0
176
     1
 40
1.0
176
     1
  0
VISUALSTYLE
  5
67EC
102
{ACAD_REACTORS
330
67D8
102
}
330
67D8
100
AcDbVisualStyle
  2
Shaded with edges
 70
    26
177
     3
291
     0
 70
    58
 90
        2
176
     1
 90
        2
176
     1
 90
        1
176
     1
 90
        2
176
     1
 40
0.6
176
     1
 40
30.0
176
     1
 62
     7
176
     1
 90
        1
176
     1
 90
        2
176
     1
 62
     7
176
     1
 62
   257
176
     1
 90
        2
176
     1
 90
        1
176
     1
 40
1.0
176
     1
 90
        8
176
     1
 62
   257
176
     1
 40
1.0
176
     1
 90
        1
176
     1
 90
        6
176
     1
 90
        2
176
     1
 62
     7
176
     1
 90
        3
176
     1
 90
        0
176
     1
 90
        0
176
     1
290
     0
176
     1
 90
        5
176
     1
 40
0.0
176
     1
 90
        0
176
     1
290
     0
176
     1
290
     1
176
     1
290
     1
176
     1
290
     0
176
     1
290
     0
176
     1
290
     0
176
     1
290
     0
176
     1
290
     0
176
     1
290
     0
176
     1
 90
       50
176
     1
 40
0.0
176
     1
 40
1.0
176
     1
 90
        0
176
     1
 62
    18
420
        0
176
     1
 90
       50
176
     1
 90
        3
176
     1
 62
     5
420
      255
176
     1
290
     0
176
     1
 90
       50
176
     1
 90
       50
176
     1
 90
       50
176
     1
290
     0
176
     1
 90
       50
176
     1
 62
   256
176
     0
 40
1.0
176
     0
 90
        2
176
     1
  1
strokes_ogs.tif
176
     1
290
     0
176
     1
 40
1.0
176
     1
 40
1.0
176
     1
  0
VISUALSTYLE
  5
67E9
102
{ACAD_REACTORS
330
67D8
102
}
330
67D8
100
AcDbVisualStyle
  2
Shades of Gray
 70
    23
177
     3
291
     0
 70
    58
 90
        2
176
     1
 90
        2
176
     1
 90
        3
176
     1
 90
        0
176
     1
 40
0.6
176
     1
 40
30.0
176
     1
 62
     7
176
     1
 90
        2
176
     1
 90
        2
176
     1
 62
     7
176
     1
 62
     7
176
     1
 90
        1
176
     1
 90
        1
176
     1
 40
40.0
176
     1
 90
        8
176
     1
 62
     7
176
     1
 40
1.0
176
     1
 90
        1
176
     1
 90
        6
176
     1
 90
        2
176
     1
 62
     7
176
     1
 90
        3
176
     1
 90
        0
176
     1
 90
        0
176
     1
290
     0
176
     1
 90
        1
176
     1
 40
0.0
176
     1
 90
        0
176
     1
290
     0
176
     1
290
     1
176
     1
290
     1
176
     1
290
     0
176
     1
290
     0
176
     1
290
     0
176
     1
290
     0
176
     1
290
     0
176
     1
290
     0
176
     1
 90
       50
176
     1
 40
0.0
176
     1
 40
1.0
176
     1
 90
        0
176
     1
 62
    18
420
        0
176
     1
 90
       50
176
     1
 90
        3
176
     1
 62
     5
420
      255
176
     1
290
     0
176
     1
 90
       50
176
     1
 90
       50
176
     1
 90
       50
176
     1
290
     0
176
     1
 90
       50
176
     1
 62
   256
176
     0
 40
1.0
176
     0
 90
        2
176
     1
  1
strokes_ogs.tif
176
     1
290
     0
176
     1
 40
1.0
176
     1
 40
1.0
176
     1
  0
VISUALSTYLE
  5
67EA
102
{ACAD_REACTORS
330
67D8
102
}
330
67D8
100
AcDbVisualStyle
  2
Sketchy
 70
    24
177
     3
291
     0
 70
    58
 90
        1
176
     1
 90
        2
176
     1
 90
        2
176
     1
 90
        0
176
     1
 40
0.6
176
     1
 40
30.0
176
     1
 62
     7
176
     1
 90
        2
176
     1
 90
        2
176
     1
 62
     7
176
     1
 62
     7
176
     1
 90
        1
176
     1
 90
        1
176
     1
 40
40.0
176
     1
 90
       11
176
     1
 62
     7
176
     1
 40
1.0
176
     1
 90
        1
176
     1
 90
        6
176
     1
 90
        2
176
     1
 62
     7
176
     1
 90
        6
176
     1
 90
        0
176
     1
 90
        0
176
     1
290
     0
176
     1
 90
        1
176
     1
 40
0.0
176
     1
 90
        0
176
     1
290
     0
176
     1
290
     1
176
     1
290
     1
176
     1
290
     0
176
     1
290
     0
176
     1
290
     0
176
     1
290
     0
176
     1
290
     0
176
     1
290
     0
176
     1
 90
       50
176
     1
 40
0.0
176
     1
 40
1.0
176
     1
 90
        0
176
     1
 62
    18
420
        0
176
     1
 90
       50
176
     1
 90
        3
176
     1
 62
     5
420
      255
176
     1
290
     0
176
     1
 90
       50
176
     1
 90
       50
176
     1
 90
       50
176
     1
290
     0
176
     1
 90
       50
176
     1
 62
   256
176
     0
 40
1.0
176
     0
 90
        2
176
     1
  1
strokes_ogs.tif
176
     1
290
     0
176
     1
 40
1.0
176
     1
 40
1.0
176
     1
  0
VISUALSTYLE
  5
67E5
102
{ACAD_REACTORS
330
67D8
102
}
330
67D8
100
AcDbVisualStyle
  2
Thicken
 70
    13
177
     3
291
     1
 70
    58
 90
        2
176
     1
 90
        2
176
     1
 90
        0
176
     1
 90
        0
176
     1
 40
0.6
176
     1
 40
30.0
176
     1
 62
     7
176
     1
 90
        1
176
     1
 90
        4
176
     1
 62
     7
176
     1
 62
   257
176
     1
 90
        1
176
     1
 90
        1
176
     1
 40
1.0
176
     1
 90
       12
176
     1
 62
     7
176
     1
 40
1.0
176
     1
 90
        1
176
     1
 90
        6
176
     1
 90
        2
176
     1
 62
     7
176
     1
 90
        5
176
     1
 90
        0
176
     1
 90
        0
176
     1
290
     0
176
     1
 90
        1
176
     1
 40
0.0
176
     1
 90
        0
176
     1
290
     0
176
     1
290
     1
176
     1
290
     1
176
     1
290
     0
176
     1
290
     0
176
     1
290
     0
176
     1
290
     0
176
     1
290
     0
176
     1
290
     0
176
     1
 90
       50
176
     1
 40
0.0
176
     1
 40
1.0
176
     1
 90
        0
176
     1
 62
    18
420
        0
176
     1
 90
       50
176
     1
 90
        3
176
     1
 62
     5
420
      255
176
     1
290
     0
176
     1
 90
       50
176
     1
 90
       50
176
     1
 90
       50
176
     1
290
     0
176
     1
 90
       50
176
     1
 62
   256
176
     0
 40
1.0
176
     0
 90
        2
176
     1
  1
strokes_ogs.tif
176
     1
290
     0
176
     1
 40
1.0
176
     1
 40
1.0
176
     1
  0
VISUALSTYLE
  5
67DF
102
{ACAD_REACTORS
330
67D8
102
}
330
67D8
100
AcDbVisualStyle
  2
Wireframe
 70
     5
177
     3
291
     0
 70
    58
 90
        0
176
     1
 90
        2
176
     1
 90
        0
176
     1
 90
        0
176
     1
 40
0.6
176
     1
 40
30.0
176
     1
 62
     7
176
     1
 90
        1
176
     1
 90
        4
176
     1
 62
     7
176
     1
 62
   257
176
     1
 90
        1
176
     1
 90
        1
176
     1
 40
1.0
176
     1
 90
        0
176
     1
 62
   257
176
     1
 40
1.0
176
     1
 90
        1
176
     1
 90
        6
176
     1
 90
        2
176
     1
 62
     7
176
     1
 90
        3
176
     1
 90
        0
176
     1
 90
        0
176
     1
290
     0
176
     1
 90
        1
176
     1
 40
0.0
176
     1
 90
        0
176
     1
290
     0
176
     1
290
     1
176
     1
290
     1
176
     1
290
     0
176
     1
290
     0
176
     1
290
     0
176
     1
290
     0
176
     1
290
     0
176
     1
290
     0
176
     1
 90
       50
176
     1
 40
0.0
176
     1
 40
1.0
176
     1
 90
        0
176
     1
 62
    18
420
        0
176
     1
 90
       50
176
     1
 90
        3
176
     1
 62
     5
420
      255
176
     1
290
     0
176
     1
 90
       50
176
     1
 90
       50
176
     1
 90
       50
176
     1
290
     0
176
     1
 90
       50
176
     1
 62
   256
176
     0
 40
1.0
176
     0
 90
        2
176
     1
  1
strokes_ogs.tif
176
     1
290
     0
176
     1
 40
1.0
176
     1
 40
1.0
176
     1
  0
VISUALSTYLE
  5
67EB
102
{ACAD_REACTORS
330
67D8
102
}
330
67D8
100
AcDbVisualStyle
  2
X-Ray
 70
    25
177
     3
291
     0
 70
    58
 90
        2
176
     1
 90
        2
176
     1
 90
        1
176
     1
 90
        1
176
     1
 40
0.5
176
     1
 40
30.0
176
     1
 62
     7
176
     1
 90
        1
176
     1
 90
        0
176
     1
 62
     7
176
     1
 62
   257
176
     1
 90
        1
176
     1
 90
        1
176
     1
 40
1.0
176
     1
 90
        8
176
     1
 62
     7
176
     1
 40
1.0
176
     1
 90
        1
176
     1
 90
        6
176
     1
 90
        2
176
     1
 62
     7
176
     1
 90
        3
176
     1
 90
        0
176
     1
 90
        0
176
     1
290
     0
176
     1
 90
       13
176
     1
 40
0.0
176
     1
 90
        0
176
     1
290
     0
176
     1
290
     1
176
     1
290
     1
176
     1
290
     0
176
     1
290
     0
176
     1
290
     0
176
     1
290
     0
176
     1
290
     0
176
     1
290
     0
176
     1
 90
       50
176
     1
 40
0.0
176
     1
 40
1.0
176
     1
 90
        0
176
     1
 62
    18
420
        0
176
     1
 90
       50
176
     1
 90
        3
176
     1
 62
     5
420
      255
176
     1
290
     0
176
     1
 90
       50
176
     1
 90
       50
176
     1
 90
       50
176
     1
290
     0
176
     1
 90
       50
176
     1
 62
   256
176
     0
 40
1.0
176
     0
 90
        2
176
     1
  1
strokes_ogs.tif
176
     1
290
     0
176
     1
 40
1.0
176
     1
 40
1.0
176
     1
  0
DICTIONARYVAR
  5
6853
102
{ACAD_REACTORS
330
684E
102
}
330
684E
100
DictionaryVariables
280
     0
  1
1:1
  0
DICTIONARYVAR
  5
6850
102
{ACAD_REACTORS
330
684E
102
}
330
684E
100
DictionaryVariables
280
     0
  1
STANDARD
  0
DICTIONARYVAR
  5
684F
102
{ACAD_REACTORS
330
684E
102
}
330
684E
100
DictionaryVariables
280
     0
  1
STANDARD
  0
DICTIONARYVAR
  5
6851
102
{ACAD_REACTORS
330
684E
102
}
330
684E
100
DictionaryVariables
280
     0
  1
Imperial24
  0
DICTIONARYVAR
  5
6852
102
{ACAD_REACTORS
330
684E
102
}
330
684E
100
DictionaryVariables
280
     0
  1
Imperial24
  0
DICTIONARYVAR
  5
6856
102
{ACAD_REACTORS
330
684E
102
}
330
684E
100
DictionaryVariables
280
     0
  1
1
  0
DICTIONARYVAR
  5
6855
102
{ACAD_REACTORS
330
684E
102
}
330
684E
100
DictionaryVariables
280
     0
  1
0
  0
DICTIONARYVAR
  5
6933
102
{ACAD_REACTORS
330
684E
102
}
330
684E
100
DictionaryVariables
280
     0
  1
1
  0
DICTIONARYVAR
  5
6934
102
{ACAD_REACTORS
330
684E
102
}
330
684E
100
DictionaryVariables
280
     0
  1
15
  0
DICTIONARYVAR
  5
6932
102
{ACAD_REACTORS
330
684E
102
}
330
684E
100
DictionaryVariables
280
     0
  1
0
  0
DICTIONARYVAR
  5
6931
102
{ACAD_REACTORS
330
684E
102
}
330
684E
100
DictionaryVariables
280
     0
  1
0
  0
DICTIONARYVAR
  5
6854
102
{ACAD_REACTORS
330
684E
102
}
330
684E
100
DictionaryVariables
280
     0
  1
127
  0
DICTIONARY
  5
67C9
330
67C8
100
AcDbDictionary
280
     1
281
     1
  3
BUMPTILE
360
67CB
  3
DIFFUSETILE
360
67CA
  3
OPACITYTILE
360
67CE
  3
REFLECTIONTILE
360
67CD
  3
REFRACTIONTILE
360
67CF
  3
SPECULARTILE
360
67CC
  0
DICTIONARY
  5
67C1
330
67C0
100
AcDbDictionary
280
     1
281
     1
  3
BUMPTILE
360
67C3
  3
DIFFUSETILE
360
67C2
  3
OPACITYTILE
360
67C6
  3
REFLECTIONTILE
360
67C5
  3
REFRACTIONTILE
360
67C7
  3
SPECULARTILE
360
67C4
  0
DICTIONARY
  5
67D1
330
67D0
100
AcDbDictionary
280
     1
281
     1
  3
BUMPTILE
360
67D3
  3
DIFFUSETILE
360
67D2
  3
OPACITYTILE
360
67D6
  3
REFLECTIONTILE
360
67D5
  3
REFRACTIONTILE
360
67D7
  3
SPECULARTILE
360
67D4
  0
DICTIONARY
  5
680C
330
67F3
100
AcDbDictionary
280
     1
281
     1
  3
ACAD_ROUNDTRIP_2008_TABLESTYLE_CELLSTYLEMAP
360
6935
  0
XRECORD
  5
67CB
102
{ACAD_REACTORS
330
67C9
102
}
330
67C9
100
AcDbXrecord
280
     1
270
     1
271
     1
  0
XRECORD
  5
67CA
102
{ACAD_REACTORS
330
67C9
102
}
330
67C9
100
AcDbXrecord
280
     1
270
     1
271
     1
  0
XRECORD
  5
67CE
102
{ACAD_REACTORS
330
67C9
102
}
330
67C9
100
AcDbXrecord
280
     1
270
     1
271
     1
  0
XRECORD
  5
67CD
102
{ACAD_REACTORS
330
67C9
102
}
330
67C9
100
AcDbXrecord
280
     1
270
     1
271
     1
  0
XRECORD
  5
67CF
102
{ACAD_REACTORS
330
67C9
102
}
330
67C9
100
AcDbXrecord
280
     1
270
     1
271
     1
  0
XRECORD
  5
67CC
102
{ACAD_REACTORS
330
67C9
102
}
330
67C9
100
AcDbXrecord
280
     1
270
     1
271
     1
  0
XRECORD
  5
67C3
102
{ACAD_REACTORS
330
67C1
102
}
330
67C1
100
AcDbXrecord
280
     1
270
     1
271
     1
  0
XRECORD
  5
67C2
102
{ACAD_REACTORS
330
67C1
102
}
330
67C1
100
AcDbXrecord
280
     1
270
     1
271
     1
  0
XRECORD
  5
67C6
102
{ACAD_REACTORS
330
67C1
102
}
330
67C1
100
AcDbXrecord
280
     1
270
     1
271
     1
  0
XRECORD
  5
67C5
102
{ACAD_REACTORS
330
67C1
102
}
330
67C1
100
AcDbXrecord
280
     1
270
     1
271
     1
  0
XRECORD
  5
67C7
102
{ACAD_REACTORS
330
67C1
102
}
330
67C1
100
AcDbXrecord
280
     1
270
     1
271
     1
  0
XRECORD
  5
67C4
102
{ACAD_REACTORS
330
67C1
102
}
330
67C1
100
AcDbXrecord
280
     1
270
     1
271
     1
  0
XRECORD
  5
67D3
102
{ACAD_REACTORS
330
67D1
102
}
330
67D1
100
AcDbXrecord
280
     1
270
     1
271
     1
  0
XRECORD
  5
67D2
102
{ACAD_REACTORS
330
67D1
102
}
330
67D1
100
AcDbXrecord
280
     1
270
     1
271
     1
  0
XRECORD
  5
67D6
102
{ACAD_REACTORS
330
67D1
102
}
330
67D1
100
AcDbXrecord
280
     1
270
     1
271
     1
  0
XRECORD
  5
67D5
102
{ACAD_REACTORS
330
67D1
102
}
330
67D1
100
AcDbXrecord
280
     1
270
     1
271
     1
  0
XRECORD
  5
67D7
102
{ACAD_REACTORS
330
67D1
102
}
330
67D1
100
AcDbXrecord
280
     1
270
     1
271
     1
  0
XRECORD
  5
67D4
102
{ACAD_REACTORS
330
67D1
102
}
330
67D1
100
AcDbXrecord
280
     1
270
     1
271
     1
  0
CELLSTYLEMAP
  5
6935
102
{ACAD_REACTORS
330
680C
102
}
330
680C
100
AcDbCellStyleMap
 90
        3
300
CELLSTYLE
  1
TABLEFORMAT_BEGIN
 90
        5
170
     1
 91
        0
 92
    32768
 62
   257
 93
        1
300
CONTENTFORMAT
  1
CONTENTFORMAT_BEGIN
 90
        0
 91
        0
 92
      512
 93
        0
300

 40
0.0
140
1.0
 94
        5
 62
     0
340
11
144
0.25
309
CONTENTFORMAT_END
171
     0
 94
        0
309
TABLEFORMAT_END
  1
CELLSTYLE_BEGIN
 90
        1
 91
        1
300
_TITLE
309
CELLSTYLE_END
300
CELLSTYLE
  1
TABLEFORMAT_BEGIN
 90
        5
170
     1
 91
        0
 92
        0
 62
   257
 93
        1
300
CONTENTFORMAT
  1
CONTENTFORMAT_BEGIN
 90
        0
 91
        0
 92
      512
 93
        0
300

 40
0.0
140
1.0
 94
        5
 62
     0
340
11
144
0.18
309
CONTENTFORMAT_END
171
     0
 94
        0
309
TABLEFORMAT_END
  1
CELLSTYLE_BEGIN
 90
        2
 91
        1
300
_HEADER
309
CELLSTYLE_END
300
CELLSTYLE
  1
TABLEFORMAT_BEGIN
 90
        5
170
     1
 91
        0
 92
        0
 62
   257
 93
        1
300
CONTENTFORMAT
  1
CONTENTFORMAT_BEGIN
 90
        0
 91
        0
 92
      512
 93
        0
300

 40
0.0
140
1.0
 94
        2
 62
     0
340
11
144
0.18
309
CONTENTFORMAT_END
171
     0
 94
        0
309
TABLEFORMAT_END
  1
CELLSTYLE_BEGIN
 90
        3
 91
        2
300
_DATA
309
CELLSTYLE_END
  0
ENDSEC
  0
SECTION
  2
ACDSDATA
 70
     2
 71
     8
  0
ACDSSCHEMA
 90
        0
  1
AcDb_Thumbnail_Schema
  2
AcDbDs::ID
280
    10
 91
        8
  2
Thumbnail_Data
280
    15
 91
        0
101
ACDSRECORD
 95
        0
 90
        1
  2
AcDbDs::TreatedAsObjectData
280
     1
291
     1
101
ACDSRECORD
 95
        0
 90
        2
  2
AcDbDs::Legacy
280
     1
291
     1
101
ACDSRECORD
  1
AcDbDs::ID
 90
        3
  2
AcDs:Indexable
280
     1
291
     1
101
ACDSRECORD
  1
AcDbDs::ID
 90
        4
  2
AcDbDs::HandleAttribute
280
     7
282
     1
  0
ACDSSCHEMA
 90
        1
  1
AcDbDs::TreatedAsObjectDataSchema
  2
AcDbDs::TreatedAsObjectData
280
     1
 91
        0
  0
ACDSSCHEMA
 90
        2
  1
AcDbDs::LegacySchema
  2
AcDbDs::Legacy
280
     1
 91
        0
  0
ACDSSCHEMA
 90
        3
  1
AcDbDs::IndexedPropertySchema
  2
AcDs:Indexable
280
     1
 91
        0
  0
ACDSSCHEMA
 90
        4
  1
AcDbDs::HandleAttributeSchema
  2
AcDbDs::HandleAttribute
280
     7
 91
        1
284
     1
  0
ACDSRECORD
 90
        0
  2
AcDbDs::ID
280
    10
320
67B8
  2
Thumbnail_Data
280
    15
 94
     1136
310
89504E470D0A1A0A0000000D49484452000001000000007108030000000DA58D8400000300504C5445212830FFFFFF2128300000000000000000000000000000000000000000000000000000330000660000990000CC0000FF0033000033330033660033990033CC0033FF0066000066330066660066990066CC0066FF0099
310
000099330099660099990099CC0099FF00CC0000CC3300CC6600CC9900CCCC00CCFF00FF0000FF3300FF6600FF9900FFCC00FFFF3300003300333300663300993300CC3300FF3333003333333333663333993333CC3333FF3366003366333366663366993366CC3366FF3399003399333399663399993399CC3399FF33CC00
310
33CC3333CC6633CC9933CCCC33CCFF33FF0033FF3333FF6633FF9933FFCC33FFFF6600006600336600666600996600CC6600FF6633006633336633666633996633CC6633FF6666006666336666666666996666CC6666FF6699006699336699666699996699CC6699FF66CC0066CC3366CC6666CC9966CCCC66CCFF66FF0066
310
FF3366FF6666FF9966FFCC66FFFF9900009900339900669900999900CC9900FF9933009933339933669933999933CC9933FF9966009966339966669966999966CC9966FF9999009999339999669999999999CC9999FF99CC0099CC3399CC6699CC9999CCCC99CCFF99FF0099FF3399FF6699FF9999FFCC99FFFFCC0000CC00
310
33CC0066CC0099CC00CCCC00FFCC3300CC3333CC3366CC3399CC33CCCC33FFCC6600CC6633CC6666CC6699CC66CCCC66FFCC9900CC9933CC9966CC9999CC99CCCC99FFCCCC00CCCC33CCCC66CCCC99CCCCCCCCCCFFCCFF00CCFF33CCFF66CCFF99CCFFCCCCFFFFFF0000FF0033FF0066FF0099FF00CCFF00FFFF3300FF3333
310
FF3366FF3399FF33CCFF33FFFF6600FF6633FF6666FF6699FF66CCFF66FFFF9900FF9933FF9966FF9999FF99CCFF99FFFFCC00FFCC33FFCC66FFCC99FFCCCCFFCCFFFFFF00FFFF33FFFF66FFFF99FFFFCCFFFFFF0000000D0D0D1A1A1A2828283535354343435050505D5D5D6B6B6B787878868686939393A1A1A1AEAEAEBB
310
BBBBC9C9C9D6D6D6E4E4E4F1F1F1FFFFFF0000000000000000000000000000000000000000000000000000000000002E4550F10000012B4944415478DAEDDBC14A03411045D1FEFF6F7DDBEC8D125049C4D574BF50E7805904D1999BEA3282AE0500000000C00BB777706980FB477A5F9FE4718D9706E82D90EF6BBC34C03D
310
741A5FFDAC5D011AA720CFD7786980BA02D303644D9F80ED01BA0A4480FD015AEF7F5F800CDF01450522C099002D0572EA088CDF01A57B70EB04A4EF0408306D07E4E81168DC029B27206D0320C0AC1D90E347A06F0B6C9F80740D8000937640D6F0007640C704A4EA0408306707A4E508946D81131390E1132040D3FD7B23
310
7424407A06E0D004448096FB9FB203EA02A4E5FE8F4D40C607D859208501B68E405661808D05B22A036C3A06FF7D93B33F063FFF64393F1F7E3FB59E9FFAF373BF1E6EB7175FB139C0D4DF05041040000104181160FAFF0D0200000000000000C05BFA00767E37DD5EC1B1860000000049454E44AE426082
  0
ENDSEC
  0
EOF
