  0
SECTION
  2
HEADER
  9
$ACADVER
  1
AC1032
  9
$ACADMAINTVER
 90
       55
  9
$DWGCODEPAGE
  3
ANSI_1252
  9
$LASTSAVEDBY
  1
mariehp
  9
$REQUIREDVERSIONS
160
                 0
  9
$INSBASE
 10
0.0
 20
0.0
 30
0.0
  9
$EXTMIN
 10
102.7357811375
 20
21.8592421668
 30
0.0
  9
$EXTMAX
 10
133.7357811375
 20
45.84421531960001
 30
0.0
  9
$LIMMIN
 10
0.0
 20
0.0
  9
$LIMMAX
 10
181.3333333333
 20
117.3333333333
  9
$ORTHOMODE
 70
     0
  9
$REGENMODE
 70
     1
  9
$FILLMODE
 70
     1
  9
$QTEXTMODE
 70
     0
  9
$MIRRTEXT
 70
     0
  9
$LTSCALE
 40
9.973333333300001
  9
$ATTMODE
 70
     1
  9
$TEXTSIZE
 40
0.2
  9
$TRACEWID
 40
0.05
  9
$TEXTSTYLE
  7
STANDARD
  9
$CLAYER
  8
0
  9
$CELTYPE
  6
BYLAYER
  9
$CECOLOR
 62
   256
  9
$CELTSCALE
 40
1.0
  9
$DISPSILH
 70
     0
  9
$DIMSCALE
 40
1.0
  9
$DIMASZ
 40
2.0
  9
$DIMEXO
 40
0.0625
  9
$DIMDLI
 40
6.890666666699999
  9
$DIMRND
 40
0.0
  9
$DIMDLE
 40
0.0
  9
$DIMEXE
 40
0.125
  9
$DIMTP
 40
0.001
  9
$DIMTM
 40
0.001
  9
$DIMTXT
 40
1.333333333299999
  9
$DIMCEN
 40
1.631999999999999
  9
$DIMTSZ
 40
0.0
  9
$DIMTOL
 70
     1
  9
$DIMLIM
 70
     0
  9
$DIMTIH
 70
     1
  9
$DIMTOH
 70
     1
  9
$DIMSE1
 70
     0
  9
$DIMSE2
 70
     0
  9
$DIMTAD
 70
     0
  9
$DIMZIN
 70
     0
  9
$DIMBLK
  1
_FILLED
  9
$DIMASO
 70
     1
  9
$DIMSHO
 70
     1
  9
$DIMPOST
  1

  9
$DIMAPOST
  1

  9
$DIMALT
 70
     1
  9
$DIMALTD
 70
     2
  9
$DIMALTF
 40
25.4
  9
$DIMLFAC
 40
1.0
  9
$DIMTOFL
 70
     0
  9
$DIMTVP
 40
0.0
  9
$DIMTIX
 70
     0
  9
$DIMSOXD
 70
     0
  9
$DIMSAH
 70
     0
  9
$DIMBLK1
  1

  9
$DIMBLK2
  1

  9
$DIMSTYLE
  2
STANDARD
  9
$DIMCLRD
 70
     0
  9
$DIMCLRE
 70
     0
  9
$DIMCLRT
 70
     0
  9
$DIMTFAC
 40
1.0
  9
$DIMGAP
 40
0.09
  9
$DIMJUST
 70
     0
  9
$DIMSD1
 70
     0
  9
$DIMSD2
 70
     0
  9
$DIMTOLJ
 70
     1
  9
$DIMTZIN
 70
     0
  9
$DIMALTZ
 70
     0
  9
$DIMALTTZ
 70
     0
  9
$DIMUPT
 70
     0
  9
$DIMDEC
 70
     4
  9
$DIMTDEC
 70
     4
  9
$DIMALTU
 70
     2
  9
$DIMALTTD
 70
     2
  9
$DIMTXSTY
  7
STANDARD
  9
$DIMAUNIT
 70
     0
  9
$DIMADEC
 70
     0
  9
$DIMALTRND
 40
0.0
  9
$DIMAZIN
 70
     0
  9
$DIMDSEP
 70
    46
  9
$DIMATFIT
 70
     3
  9
$DIMFRAC
 70
     0
  9
$DIMLDRBLK
  1

  9
$DIMLUNIT
 70
     2
  9
$DIMLWD
 70
    -2
  9
$DIMLWE
 70
    -2
  9
$DIMTMOVE
 70
     0
  9
$DIMFXL
 40
1.0
  9
$DIMFXLON
 70
     0
  9
$DIMJOGANG
 40
0.7853981633974483
  9
$DIMTFILL
 70
     0
  9
$DIMTFILLCLR
 70
     0
  9
$DIMARCSYM
 70
     0
  9
$DIMLTYPE
  6

  9
$DIMLTEX1
  6

  9
$DIMLTEX2
  6

  9
$DIMTXTDIRECTION
 70
     0
  9
$LUNITS
 70
     2
  9
$LUPREC
 70
     4
  9
$SKETCHINC
 40
0.1
  9
$FILLETRAD
 40
0.0
  9
$AUNITS
 70
     0
  9
$AUPREC
 70
     0
  9
$MENU
  1
.
  9
$ELEVATION
 40
0.0
  9
$PELEVATION
 40
0.0
  9
$THICKNESS
 40
0.0
  9
$LIMCHECK
 70
     0
  9
$CHAMFERA
 40
0.0
  9
$CHAMFERB
 40
0.0
  9
$CHAMFERC
 40
0.0
  9
$CHAMFERD
 40
0.0
  9
$SKPOLY
 70
     0
  9
$TDCREATE
 40
2459690.446655093
  9
$TDUCREATE
 40
2459690.613321759
  9
$TDUPDATE
 40
2459773.563217593
  9
$TDUUPDATE
 40
2459773.729884259
  9
$TDINDWG
 40
0.0012268519
  9
$TDUSRTIMER
 40
0.0012268519
  9
$USRTIMER
 70
     1
  9
$ANGBASE
 50
0.0
  9
$ANGDIR
 70
     0
  9
$PDMODE
 70
     3
  9
$PDSIZE
 40
0.03125
  9
$PLINEWID
 40
0.0
  9
$SPLFRAME
 70
     0
  9
$SPLINETYPE
 70
     6
  9
$SPLINESEGS
 70
     8
  9
$HANDSEED
  5
7E22
  9
$SURFTAB1
 70
     6
  9
$SURFTAB2
 70
     6
  9
$SURFTYPE
 70
     6
  9
$SURFU
 70
     6
  9
$SURFV
 70
     6
  9
$UCSBASE
  2

  9
$UCSNAME
  2

  9
$UCSORG
 10
0.0
 20
0.0
 30
0.0
  9
$UCSXDIR
 10
1.0
 20
0.0
 30
0.0
  9
$UCSYDIR
 10
0.0
 20
1.0
 30
0.0
  9
$UCSORTHOREF
  2

  9
$UCSORTHOVIEW
 70
     0
  9
$UCSORGTOP
 10
0.0
 20
0.0
 30
0.0
  9
$UCSORGBOTTOM
 10
0.0
 20
0.0
 30
0.0
  9
$UCSORGLEFT
 10
0.0
 20
0.0
 30
0.0
  9
$UCSORGRIGHT
 10
0.0
 20
0.0
 30
0.0
  9
$UCSORGFRONT
 10
0.0
 20
0.0
 30
0.0
  9
$UCSORGBACK
 10
0.0
 20
0.0
 30
0.0
  9
$PUCSBASE
  2

  9
$PUCSNAME
  2

  9
$PUCSORG
 10
0.0
 20
0.0
 30
0.0
  9
$PUCSXDIR
 10
1.0
 20
0.0
 30
0.0
  9
$PUCSYDIR
 10
0.0
 20
1.0
 30
0.0
  9
$PUCSORTHOREF
  2

  9
$PUCSORTHOVIEW
 70
     0
  9
$PUCSORGTOP
 10
0.0
 20
0.0
 30
0.0
  9
$PUCSORGBOTTOM
 10
0.0
 20
0.0
 30
0.0
  9
$PUCSORGLEFT
 10
0.0
 20
0.0
 30
0.0
  9
$PUCSORGRIGHT
 10
0.0
 20
0.0
 30
0.0
  9
$PUCSORGFRONT
 10
0.0
 20
0.0
 30
0.0
  9
$PUCSORGBACK
 10
0.0
 20
0.0
 30
0.0
  9
$USERI1
 70
     0
  9
$USERI2
 70
     0
  9
$USERI3
 70
     0
  9
$USERI4
 70
     0
  9
$USERI5
 70
     0
  9
$USERR1
 40
0.0
  9
$USERR2
 40
0.0
  9
$USERR3
 40
0.0
  9
$USERR4
 40
0.0
  9
$USERR5
 40
0.0
  9
$WORLDVIEW
 70
     1
  9
$SHADEDGE
 70
     3
  9
$SHADEDIF
 70
    70
  9
$TILEMODE
 70
     1
  9
$MAXACTVP
 70
    64
  9
$PINSBASE
 10
0.0
 20
0.0
 30
0.0
  9
$PLIMCHECK
 70
     0
  9
$PEXTMIN
 10
1.000000000000000E+20
 20
1.000000000000000E+20
 30
1.000000000000000E+20
  9
$PEXTMAX
 10
-1.000000000000000E+20
 20
-1.000000000000000E+20
 30
-1.000000000000000E+20
  9
$PLIMMIN
 10
0.0
 20
0.0
  9
$PLIMMAX
 10
12.0
 20
9.0
  9
$UNITMODE
 70
     0
  9
$VISRETAIN
 70
     1
  9
$PLINEGEN
 70
     0
  9
$PSLTSCALE
 70
     1
  9
$TREEDEPTH
 70
  3020
  9
$CMLSTYLE
  2
Standard
  9
$CMLJUST
 70
     0
  9
$CMLSCALE
 40
1.0
  9
$PROXYGRAPHICS
 70
     1
  9
$MEASUREMENT
 70
     0
  9
$CELWEIGHT
370
    -1
  9
$ENDCAPS
280
     0
  9
$JOINSTYLE
280
     0
  9
$LWDISPLAY
290
     0
  9
$INSUNITS
 70
     1
  9
$HYPERLINKBASE
  1

  9
$STYLESHEET
  1

  9
$XEDIT
290
     1
  9
$CEPSNTYPE
380
     0
  9
$PSTYLEMODE
290
     1
  9
$FINGERPRINTGUID
  2
{0F43E6DC-0173-4845-B3F1-399B40346845}
  9
$VERSIONGUID
  2
{FCF7836E-E446-A641-989A-F29979F7B949}
  9
$EXTNAMES
290
     1
  9
$PSVPSCALE
 40
0.0
  9
$OLESTARTUP
290
     0
  9
$SORTENTS
280
   127
  9
$INDEXCTL
280
     0
  9
$HIDETEXT
280
     0
  9
$XCLIPFRAME
280
     2
  9
$HALOGAP
280
     0
  9
$OBSCOLOR
 70
   257
  9
$OBSLTYPE
280
     0
  9
$INTERSECTIONDISPLAY
280
     0
  9
$INTERSECTIONCOLOR
 70
   257
  9
$DIMASSOC
280
     1
  9
$PROJECTNAME
  1

  9
$CAMERADISPLAY
290
     0
  9
$LENSLENGTH
 40
50.0
  9
$CAMERAHEIGHT
 40
0.0
  9
$STEPSPERSEC
 40
2.0
  9
$STEPSIZE
 40
6.0
  9
$3DDWFPREC
 40
2.0
  9
$PSOLWIDTH
 40
0.25
  9
$PSOLHEIGHT
 40
4.0
  9
$LOFTANG1
 40
1.570796326794896
  9
$LOFTANG2
 40
1.570796326794896
  9
$LOFTMAG1
 40
0.0
  9
$LOFTMAG2
 40
0.0
  9
$LOFTPARAM
 70
     7
  9
$LOFTNORMALS
280
     1
  9
$LATITUDE
 40
37.795
  9
$LONGITUDE
 40
-122.394
  9
$NORTHDIRECTION
 40
0.0
  9
$TIMEZONE
 70
 -8000
  9
$LIGHTGLYPHDISPLAY
280
     1
  9
$TILEMODELIGHTSYNCH
280
     1
  9
$CMATERIAL
347
7C6C
  9
$SOLIDHIST
280
     0
  9
$SHOWHIST
280
     1
  9
$DWFFRAME
280
     2
  9
$DGNFRAME
280
     0
  9
$REALWORLDSCALE
290
     1
  9
$INTERFERECOLOR
 62
     1
  9
$INTERFEREOBJVS
345
7C8E
  9
$INTERFEREVPVS
346
7C8B
  9
$CSHADOW
280
     0
  9
$SHADOWPLANELOCATION
 40
0.0
  0
ENDSEC
  0
SECTION
  2
CLASSES
  0
CLASS
  1
ACDBDICTIONARYWDFLT
  2
AcDbDictionaryWithDefault
  3
ObjectDBX Classes
 90
        0
 91
        1
280
     0
281
     0
  0
CLASS
  1
RASTERVARIABLES
  2
AcDbRasterVariables
  3
ISM
 90
        0
 91
        1
280
     0
281
     0
  0
CLASS
  1
IMAGEDEF
  2
AcDbRasterImageDef
  3
ISM
 90
        0
 91
        1
280
     0
281
     0
  0
CLASS
  1
IMAGEDEF_REACTOR
  2
AcDbRasterImageDefReactor
  3
ISM
 90
        1
 91
        0
280
     0
281
     0
  0
CLASS
  1
IMAGE
  2
AcDbRasterImage
  3
ISM
 90
     2175
 91
        0
280
     0
281
     1
  0
CLASS
  1
MATERIAL
  2
AcDbMaterial
  3
ObjectDBX Classes
 90
     1153
 91
        3
280
     0
281
     0
  0
CLASS
  1
VISUALSTYLE
  2
AcDbVisualStyle
  3
ObjectDBX Classes
 90
     4095
 91
       24
280
     0
281
     0
  0
CLASS
  1
TABLESTYLE
  2
AcDbTableStyle
  3
ObjectDBX Classes
 90
     4095
 91
        1
280
     0
281
     0
  0
CLASS
  1
SCALE
  2
AcDbScale
  3
ObjectDBX Classes
 90
     1153
 91
       17
280
     0
281
     0
  0
CLASS
  1
MLEADERSTYLE
  2
AcDbMLeaderStyle
  3
ACDB_MLEADERSTYLE_CLASS
 90
     4095
 91
        1
280
     0
281
     0
  0
CLASS
  1
ACDBSECTIONVIEWSTYLE
  2
AcDbSectionViewStyle
  3
ObjectDBX Classes
 90
     1025
 91
        1
280
     0
281
     0
  0
CLASS
  1
ACDBDETAILVIEWSTYLE
  2
AcDbDetailViewStyle
  3
ObjectDBX Classes
 90
     1025
 91
        1
280
     0
281
     0
  0
CLASS
  1
CELLSTYLEMAP
  2
AcDbCellStyleMap
  3
ObjectDBX Classes
 90
     1152
 91
        2
280
     0
281
     0
  0
CLASS
  1
DICTIONARYVAR
  2
AcDbDictionaryVar
  3
ObjectDBX Classes
 90
        0
 91
       21
280
     0
281
     0
  0
ENDSEC
  0
SECTION
  2
TABLES
  0
TABLE
  2
VPORT
  5
8
102
{ACAD_XDICTIONARY
360
7CBB
102
}
330
0
100
AcDbSymbolTable
 70
     1
  0
VPORT
  5
1F4
330
8
100
AcDbSymbolTableRecord
100
AcDbViewportTableRecord
  2
*ACTIVE
 70
     0
 10
0.0
 20
0.0
 11
1.0
 21
1.0
 12
121.3851077431743
 22
34.11701351878864
 13
0.0
 23
0.0
 14
1.0
 24
1.0
 15
0.0
 25
0.0
 16
0.0
 26
0.0
 36
1.0
 17
0.0
 27
0.0
 37
0.0
 40
40.46353170998673
 41
2.250975292587776
 42
50.0
 43
0.0
 44
0.0
 50
0.0
 51
0.0
 71
     0
 72
   100
 73
     1
 74
     1
 75
     0
 76
     0
 77
     0
 78
     0
281
     0
 65
     1
110
0.0
120
0.0
130
0.0
111
1.0
121
0.0
131
0.0
112
0.0
122
1.0
132
0.0
 79
     0
146
0.0
348
7C8A
 60
     3
 61
     5
292
     1
282
     1
141
0.0
142
0.0
 63
   250
421
  3355443
1001
ACAD_NAV_VCDISPLAY
1070
     3
  0
ENDTAB
  0
TABLE
  2
LTYPE
  5
5
330
0
100
AcDbSymbolTable
 70
     6
  0
LTYPE
  5
14
330
5
100
AcDbSymbolTableRecord
100
AcDbLinetypeTableRecord
  2
BYBLOCK
 70
     0
  3

 72
    65
 73
     0
 40
0.0
  0
LTYPE
  5
15
330
5
100
AcDbSymbolTableRecord
100
AcDbLinetypeTableRecord
  2
BYLAYER
 70
     0
  3

 72
    65
 73
     0
 40
0.0
  0
LTYPE
  5
16
330
5
100
AcDbSymbolTableRecord
100
AcDbLinetypeTableRecord
  2
CONTINUOUS
 70
     0
  3
Solid line
 72
    65
 73
     0
 40
0.0
  0
LTYPE
  5
1F5
330
5
100
AcDbSymbolTableRecord
100
AcDbLinetypeTableRecord
  2
CENTER
 70
     0
  3
____ _ ____ _ ____ _ ____ _ ____ _ ____ _ ____
 72
    65
 73
     4
 40
0.6
 49
0.375
 74
     0
 49
-0.075
 74
     0
 49
0.075
 74
     0
 49
-0.075
 74
     0
  0
LTYPE
  5
1F6
330
5
100
AcDbSymbolTableRecord
100
AcDbLinetypeTableRecord
  2
HIDDEN
 70
     0
  3
- - - - - - - - - - - - - - - - - - - -
 72
    65
 73
     2
 40
0.2
 49
0.1
 74
     0
 49
-0.1
 74
     0
  0
LTYPE
  5
1F7
330
5
100
AcDbSymbolTableRecord
100
AcDbLinetypeTableRecord
  2
PHANTOM
 70
     0
  3
_____ _ _ _____ _ _ _____ _ _ _____
 72
    65
 73
     6
 40
0.8
 49
0.45
 74
     0
 49
-0.05
 74
     0
 49
0.1
 74
     0
 49
-0.05
 74
     0
 49
0.1
 74
     0
 49
-0.05
 74
     0
  0
LTYPE
  5
1F8
330
5
100
AcDbSymbolTableRecord
100
AcDbLinetypeTableRecord
  2
DOT
 70
     0
  3
. . . . . . . . . . . . . . . . . . . .
 72
    65
 73
     2
 40
0.2
 49
0.1
 74
     0
 49
-0.1
 74
     0
  0
LTYPE
  5
1F9
330
5
100
AcDbSymbolTableRecord
100
AcDbLinetypeTableRecord
  2
DASHED
 70
     0
  3
- - - - - - - - - - - - - - - - - - - -
 72
    65
 73
     2
 40
0.2
 49
0.1
 74
     0
 49
-0.1
 74
     0
  0
ENDTAB
  0
TABLE
  2
LAYER
  5
2
102
{ACAD_XDICTIONARY
360
7E12
102
}
330
0
100
AcDbSymbolTable
 70
    27
  0
LAYER
  5
10
102
{ACAD_XDICTIONARY
360
7D09
102
}
330
2
100
AcDbSymbolTableRecord
100
AcDbLayerTableRecord
  2
0
 70
     0
 62
     7
  6
CONTINUOUS
370
    -3
390
F
347
7C7C
348
0
  0
LAYER
  5
1FA
102
{ACAD_XDICTIONARY
360
7D0B
102
}
330
2
100
AcDbSymbolTableRecord
100
AcDbLayerTableRecord
  2
DEFAULT_1
 70
     0
 62
     7
  6
CENTER
370
    -3
390
F
347
7C7C
348
0
  0
LAYER
  5
1FB
102
{ACAD_XDICTIONARY
360
7D0D
102
}
330
2
100
AcDbSymbolTableRecord
100
AcDbLayerTableRecord
  2
DEFAULT_2
 70
     0
 62
     8
  6
HIDDEN
370
    -3
390
F
347
7C7C
348
0
  0
LAYER
  5
1FC
102
{ACAD_XDICTIONARY
360
7D0F
102
}
330
2
100
AcDbSymbolTableRecord
100
AcDbLayerTableRecord
  2
DEFAULT_3
 70
     0
 62
     7
  6
PHANTOM
370
    -3
390
F
347
7C7C
348
0
  0
LAYER
  5
1FD
102
{ACAD_XDICTIONARY
360
7D11
102
}
330
2
100
AcDbSymbolTableRecord
100
AcDbLayerTableRecord
  2
0_DEFAULT
 70
     0
 62
     7
  6
CONTINUOUS
370
    -3
390
F
347
7C7C
348
0
  0
LAYER
  5
1FE
102
{ACAD_XDICTIONARY
360
7D13
102
}
330
2
100
AcDbSymbolTableRecord
100
AcDbLayerTableRecord
  2
1_CURVES
 70
     0
 62
     7
  6
CONTINUOUS
370
    -3
390
F
347
7C7C
348
0
  0
LAYER
  5
1FF
102
{ACAD_XDICTIONARY
360
7D15
102
}
330
2
100
AcDbSymbolTableRecord
100
AcDbLayerTableRecord
  2
1_CURVES_ILLUSIO
 70
     0
 62
     7
  6
CONTINUOUS
370
    -3
390
F
347
7C7C
348
0
  0
LAYER
  5
200
102
{ACAD_XDICTIONARY
360
7D17
102
}
330
2
100
AcDbSymbolTableRecord
100
AcDbLayerTableRecord
  2
1_CURVES_JETS
 70
     0
 62
     7
  6
CONTINUOUS
370
    -3
390
F
347
7C7C
348
0
  0
LAYER
  5
201
102
{ACAD_XDICTIONARY
360
7D19
102
}
330
2
100
AcDbSymbolTableRecord
100
AcDbLayerTableRecord
  2
1_CURVES_SPEC_FRONT
 70
     0
 62
     7
  6
CONTINUOUS
370
    -3
390
F
347
7C7C
348
0
  0
LAYER
  5
202
102
{ACAD_XDICTIONARY
360
7D1B
102
}
330
2
100
AcDbSymbolTableRecord
100
AcDbLayerTableRecord
  2
1_CURVES_SPEC_RIGHT
 70
     0
 62
     7
  6
CONTINUOUS
370
    -3
390
F
347
7C7C
348
0
  0
LAYER
  5
203
102
{ACAD_XDICTIONARY
360
7D1D
102
}
330
2
100
AcDbSymbolTableRecord
100
AcDbLayerTableRecord
  2
2_PLANES
 70
     0
 62
     7
  6
CONTINUOUS
370
    -3
390
F
347
7C7C
348
0
  0
LAYER
  5
204
102
{ACAD_XDICTIONARY
360
7D1F
102
}
330
2
100
AcDbSymbolTableRecord
100
AcDbLayerTableRecord
  2
2_PLANES_ILLUSIO
 70
     0
 62
     7
  6
CONTINUOUS
370
    -3
390
F
347
7C7C
348
0
  0
LAYER
  5
205
102
{ACAD_XDICTIONARY
360
7D21
102
}
330
2
100
AcDbSymbolTableRecord
100
AcDbLayerTableRecord
  2
3_POINTS
 70
     0
 62
     7
  6
CONTINUOUS
370
    -3
390
F
347
7C7C
348
0
  0
LAYER
  5
206
102
{ACAD_XDICTIONARY
360
7D23
102
}
330
2
100
AcDbSymbolTableRecord
100
AcDbLayerTableRecord
  2
3_POINTS_JETS
 70
     0
 62
     7
  6
CONTINUOUS
370
    -3
390
F
347
7C7C
348
0
  0
LAYER
  5
207
102
{ACAD_XDICTIONARY
360
7D25
102
}
330
2
100
AcDbSymbolTableRecord
100
AcDbLayerTableRecord
  2
4_CSYS
 70
     0
 62
     7
  6
CONTINUOUS
370
    -3
390
F
347
7C7C
348
0
  0
LAYER
  5
208
102
{ACAD_XDICTIONARY
360
7D27
102
}
330
2
100
AcDbSymbolTableRecord
100
AcDbLayerTableRecord
  2
5_AXIS
 70
     0
 62
     7
  6
CONTINUOUS
370
    -3
390
F
347
7C7C
348
0
  0
LAYER
  5
209
102
{ACAD_XDICTIONARY
360
7D29
102
}
330
2
100
AcDbSymbolTableRecord
100
AcDbLayerTableRecord
  2
5_AXIS_ILLUSIO
 70
     0
 62
     7
  6
CONTINUOUS
370
    -3
390
F
347
7C7C
348
0
  0
LAYER
  5
20A
102
{ACAD_XDICTIONARY
360
7D2B
102
}
330
2
100
AcDbSymbolTableRecord
100
AcDbLayerTableRecord
  2
5_AXIS_JETS
 70
     0
 62
     7
  6
CONTINUOUS
370
    -3
390
F
347
7C7C
348
0
  0
LAYER
  5
20B
102
{ACAD_XDICTIONARY
360
7D2D
102
}
330
2
100
AcDbSymbolTableRecord
100
AcDbLayerTableRecord
  2
6_SURFACES
 70
     0
 62
     7
  6
CONTINUOUS
370
    -3
390
F
347
7C7C
348
0
  0
LAYER
  5
20C
102
{ACAD_XDICTIONARY
360
7D2F
102
}
330
2
100
AcDbSymbolTableRecord
100
AcDbLayerTableRecord
  2
6_SURFACES_ILLUSIO
 70
     0
 62
     7
  6
CONTINUOUS
370
    -3
390
F
347
7C7C
348
0
  0
LAYER
  5
20D
102
{ACAD_XDICTIONARY
360
7D31
102
}
330
2
100
AcDbSymbolTableRecord
100
AcDbLayerTableRecord
  2
6_SURFACES_TOOLING
 70
     0
 62
     7
  6
CONTINUOUS
370
    -3
390
F
347
7C7C
348
0
  0
LAYER
  5
20E
102
{ACAD_XDICTIONARY
360
7D33
102
}
330
2
100
AcDbSymbolTableRecord
100
AcDbLayerTableRecord
  2
7_NOTES
 70
     0
 62
     7
  6
CONTINUOUS
370
    -3
390
F
347
7C7C
348
0
  0
LAYER
  5
20F
102
{ACAD_XDICTIONARY
360
7D35
102
}
330
2
100
AcDbSymbolTableRecord
100
AcDbLayerTableRecord
  2
CURVE_ROBINETTERIE
 70
     0
 62
     7
  6
CONTINUOUS
370
    -3
390
F
347
7C7C
348
0
  0
LAYER
  5
210
102
{ACAD_XDICTIONARY
360
7D37
102
}
330
2
100
AcDbSymbolTableRecord
100
AcDbLayerTableRecord
  2
DEGAGEMENT_SERIGRAPHIE
 70
     0
 62
     7
  6
CONTINUOUS
370
    -3
390
F
347
7C7C
348
0
  0
LAYER
  5
211
102
{ACAD_XDICTIONARY
360
7D39
102
}
330
2
100
AcDbSymbolTableRecord
100
AcDbLayerTableRecord
  2
MIA_PLUS_TROU
 70
     0
 62
     7
  6
CONTINUOUS
370
    -3
390
F
347
7C7C
348
0
  0
LAYER
  5
212
102
{ACAD_XDICTIONARY
360
7D3B
102
}
330
2
100
AcDbSymbolTableRecord
100
AcDbLayerTableRecord
  2
MIA_TROU
 70
     0
 62
     7
  6
CONTINUOUS
370
    -3
390
F
347
7C7C
348
0
  0
LAYER
  5
213
102
{ACAD_XDICTIONARY
360
7D3D
102
}
330
2
100
AcDbSymbolTableRecord
100
AcDbLayerTableRecord
  2
XSEC_DATUMS
 70
     0
 62
     7
  6
CONTINUOUS
370
    -3
390
F
347
7C7C
348
0
  0
ENDTAB
  0
TABLE
  2
STYLE
  5
3
330
0
100
AcDbSymbolTable
 70
     8
  0
STYLE
  5
11
330
3
100
AcDbSymbolTableRecord
100
AcDbTextStyleTableRecord
  2
STANDARD
 70
     0
 40
0.0
 41
0.8
 50
0.0
 71
     0
 42
0.2
  3
txt
  4

  0
STYLE
  5
214
330
3
100
AcDbSymbolTableRecord
100
AcDbTextStyleTableRecord
  2
TEXTSTYLE_1
 70
     0
 40
0.0
 41
0.8
 50
0.0
 71
     0
 42
0.2
  3
gdt
  4

  0
STYLE
  5
215
330
3
100
AcDbSymbolTableRecord
100
AcDbTextStyleTableRecord
  2
TEXTSTYLE_2
 70
     0
 40
0.0
 41
1.0
 50
0.0
 71
     0
 42
0.2
  3

  4

1001
ACAD
1000
CG Triumvirate
1071
       34
  0
STYLE
  5
216
330
3
100
AcDbSymbolTableRecord
100
AcDbTextStyleTableRecord
  2
TEXTSTYLE_3
 70
     0
 40
0.0
 41
1.0
 50
0.0
 71
     0
 42
0.2
  3

  4

1001
ACAD
1000
CG Triumvirate
1071
       34
  0
STYLE
  5
217
330
3
100
AcDbSymbolTableRecord
100
AcDbTextStyleTableRecord
  2
TEXTSTYLE_4
 70
     0
 40
0.0
 41
1.0
 50
0.0
 71
     0
 42
0.2
  3
txt
  4

  0
STYLE
  5
218
330
3
100
AcDbSymbolTableRecord
100
AcDbTextStyleTableRecord
  2
TEXTSTYLE_5
 70
     0
 40
0.0
 41
1.0
 50
0.0
 71
     0
 42
0.2
  3
txt
  4

  0
STYLE
  5
219
330
3
100
AcDbSymbolTableRecord
100
AcDbTextStyleTableRecord
  2
TEXTSTYLE_6
 70
     0
 40
0.0
 41
1.0
 50
0.0
 71
     0
 42
0.2
  3

  4

1001
ACAD
1000
CG Triumvirate
1071
       34
  0
STYLE
  5
21A
330
3
100
AcDbSymbolTableRecord
100
AcDbTextStyleTableRecord
  2
TEXTSTYLE_7
 70
     0
 40
0.0
 41
0.8
 50
0.0
 71
     0
 42
0.2
  3
txt
  4

  0
ENDTAB
  0
TABLE
  2
VIEW
  5
6
330
0
100
AcDbSymbolTable
 70
     1
  0
ENDTAB
  0
TABLE
  2
UCS
  5
7
330
0
100
AcDbSymbolTable
 70
     0
  0
ENDTAB
  0
TABLE
  2
APPID
  5
9
330
0
100
AcDbSymbolTable
 70
     3
  0
APPID
  5
21B
330
9
100
AcDbSymbolTableRecord
100
AcDbRegAppTableRecord
  2
ACAD
 70
     0
  0
APPID
  5
7CF5
330
9
100
AcDbSymbolTableRecord
100
AcDbRegAppTableRecord
  2
ACAD_MLEADERVER
 70
     0
  0
APPID
  5
7D3F
330
9
100
AcDbSymbolTableRecord
100
AcDbRegAppTableRecord
  2
ACAD_NAV_VCDISPLAY
 70
     0
  0
ENDTAB
  0
TABLE
  2
DIMSTYLE
  5
A
330
0
100
AcDbSymbolTable
 70
     2
100
AcDbDimStyleTable
 71
     0
  0
DIMSTYLE
105
226
330
A
100
AcDbSymbolTableRecord
100
AcDbDimStyleTableRecord
  2
STANDARD
 70
     0
 41
2.0
 44
0.125
 47
0.001
 48
0.001
 71
     1
 78
     4
 79
     1
140
1.333333333299999
143
2.54
170
     1
179
     3
271
     3
272
     3
284
     4
340
11
341
21E
342
21E
343
21E
344
21E
  0
DIMSTYLE
105
227
330
A
100
AcDbSymbolTableRecord
100
AcDbDimStyleTableRecord
  2
DIMSTYLE_1
 70
     0
 41
2.0
 44
0.125
 47
0.001
 48
0.001
 78
     4
 79
     1
140
1.333333333299999
143
2.54
147
0.0625
170
     1
171
     0
179
     3
272
    16
274
     0
284
     4
340
11
341
21E
342
21E
343
21E
344
21E
  0
ENDTAB
  0
TABLE
  2
BLOCK_RECORD
  5
1
330
0
100
AcDbSymbolTable
 70
     8
  0
BLOCK_RECORD
  5
21C
330
1
100
AcDbSymbolTableRecord
100
AcDbBlockTableRecord
  2
*Model_Space
340
7C64
 70
     0
280
     1
281
     0
  0
BLOCK_RECORD
  5
21D
330
1
100
AcDbSymbolTableRecord
100
AcDbBlockTableRecord
  2
*Paper_Space
340
7C65
 70
     0
280
     1
281
     0
  0
BLOCK_RECORD
  5
21E
330
1
100
AcDbSymbolTableRecord
100
AcDbBlockTableRecord
  2
_FILLED
340
0
102
{BLKREFS
102
}
 70
     0
280
     1
281
     0
  0
BLOCK_RECORD
  5
222
330
1
100
AcDbSymbolTableRecord
100
AcDbBlockTableRecord
  2
L03-USAGE_INTERNE_SEULEM_BL3
340
0
 70
     0
280
     1
281
     0
  0
BLOCK_RECORD
  5
223
330
1
100
AcDbSymbolTableRecord
100
AcDbBlockTableRecord
  2
L03-NOTE_SPECS_BAINS_BL2
340
0
 70
     0
280
     1
281
     0
  0
BLOCK_RECORD
  5
224
330
1
100
AcDbSymbolTableRecord
100
AcDbBlockTableRecord
  2
L03-NOTE_SPECS_BAINS_BL1
340
0
 70
     0
280
     1
281
     0
  0
BLOCK_RECORD
  5
225
330
1
100
AcDbSymbolTableRecord
100
AcDbBlockTableRecord
  2
L03-MOTEUR-CONTROLE-LED_BL0
340
0
 70
     0
280
     1
281
     0
  0
ENDTAB
  0
ENDSEC
  0
SECTION
  2
BLOCKS
  0
BLOCK
  5
20
330
21C
100
AcDbEntity
  8
0
100
AcDbBlockBegin
  2
*Model_Space
 70
     0
 10
0.0
 20
0.0
 30
0.0
  3
*Model_Space
  1

  0
ENDBLK
  5
21
330
21C
100
AcDbEntity
  8
0
100
AcDbBlockEnd
  0
BLOCK
  5
1C
330
21D
100
AcDbEntity
 67
     1
  8
0
100
AcDbBlockBegin
  2
*Paper_Space
 70
     0
 10
0.0
 20
0.0
 30
0.0
  3
*Paper_Space
  1

  0
ENDBLK
  5
1D
330
21D
100
AcDbEntity
 67
     1
  8
0
100
AcDbBlockEnd
  0
BLOCK
  5
32C
330
21E
100
AcDbEntity
  8
0
100
AcDbBlockBegin
  2
_FILLED
 70
     0
 10
0.0
 20
0.0
 30
0.0
  3
_FILLED
  1

  0
SOLID
  5
32D
330
21E
100
AcDbEntity
  8
0
  6
ByBlock
 62
     0
100
AcDbTrace
 10
0.0
 20
0.0
 30
0.0
 11
-1.0
 21
0.1666666667
 31
0.0
 12
-1.0
 22
-0.1666666667
 32
0.0
 13
-1.0
 23
-0.1666666667
 33
0.0
  0
ENDBLK
  5
32E
330
21E
100
AcDbEntity
  8
0
  6
ByBlock
 62
     0
100
AcDbBlockEnd
  0
BLOCK
  5
228
330
222
100
AcDbEntity
  8
0
  6
Continuous
 62
     2
100
AcDbBlockBegin
  2
L03-USAGE_INTERNE_SEULEM_BL3
 70
     0
 10
124.7597431908
 20
54.25934444600001
 30
0.0
  3
L03-USAGE_INTERNE_SEULEM_BL3
  1

  0
TEXT
  5
229
330
222
100
AcDbEntity
  8
0
  6
Continuous
 62
     7
100
AcDbText
 10
118.445682889
 20
56.5043784318
 30
0.0
 40
1.1626666667
  1
INTERNAL USE 
 50
9.999999999799964
 41
1.005097163394936
  7
TEXTSTYLE_3
 72
     5
 11
130.5954385097
 21
58.6467081567
 31
0.0
100
AcDbText
  0
TEXT
  5
22A
330
222
100
AcDbEntity
  8
0
  6
Continuous
 62
     7
100
AcDbText
 10
117.7019986851
 20
54.5028572541
 30
0.0
 40
1.1626666667
  1
DOCUMENT ONLY
 50
10.00000000013627
 41
1.004804631885333
  7
TEXTSTYLE_3
 72
     5
 11
131.8109819137
 21
56.99065166770001
 31
0.0
100
AcDbText
  0
TEXT
  5
22B
330
222
100
AcDbEntity
  8
0
  6
Continuous
 62
     7
100
AcDbText
 10
123.4867262483
 20
54.2544292035
 30
0.0
 40
1.1626666667
  1
 
 50
9.999999999982465
 41
0.9999999893449121
  7
TEXTSTYLE_5
 72
     5
 11
124.6317293958
 21
54.4563241514
 31
0.0
100
AcDbText
  0
TEXT
  5
22C
330
222
100
AcDbEntity
  8
0
  6
Continuous
 62
     7
100
AcDbText
 10
115.0420783653
 20
50.0773347972
 30
0.0
 40
1.1626666667
  1
DOCUMENT POUR USAGE
 50
10.0000000000181
 41
1.00040878456117
  7
TEXTSTYLE_3
 72
     5
 11
135.4019306288
 21
53.6673260745
 31
0.0
100
AcDbText
  0
TEXT
  5
22D
330
222
100
AcDbEntity
  8
0
  6
Continuous
 62
     7
100
AcDbText
 10
115.4711778113
 20
48.0605863368
 30
0.0
 40
1.1626666667
  1
A L'INTERNE SEULEMENT
 50
10.0000000000567
 41
1.011903875566035
  7
TEXTSTYLE_3
 72
     5
 11
135.6571592265
 21
51.6199194924
 31
0.0
100
AcDbText
  0
LINE
  5
22E
330
222
100
AcDbEntity
  8
0
  6
Continuous
 62
     1
100
AcDbLine
 10
138.6162949141
 20
49.915810828
 30
0.0
 11
138.6230538468
 21
49.92256976060001
 31
0.0
  0
LINE
  5
22F
330
222
100
AcDbEntity
  8
0
  6
Continuous
 62
     1
100
AcDbLine
 10
137.8837253477
 20
49.78663904819999
 30
0.0
 11
138.5326067928
 21
50.43552049329999
 31
0.0
  0
LINE
  5
230
330
222
100
AcDbEntity
  8
0
  6
Continuous
 62
     1
100
AcDbLine
 10
137.1511557813
 20
49.6574672684
 30
0.0
 11
138.4421597389
 21
50.948471226
 31
0.0
  0
LINE
  5
231
330
222
100
AcDbEntity
  8
0
  6
Continuous
 62
     1
100
AcDbLine
 10
136.4185862149
 20
49.52829548859999
 30
0.0
 11
138.351712685
 21
51.4614219586
 31
0.0
  0
LINE
  5
232
330
222
100
AcDbEntity
  8
0
  6
Continuous
 62
     1
100
AcDbLine
 10
135.6860166485
 20
49.3991237088
 30
0.0
 11
138.261265631
 21
51.9743726913
 31
0.0
  0
LINE
  5
233
330
222
100
AcDbEntity
  8
0
  6
Continuous
 62
     1
100
AcDbLine
 10
134.9534470821
 20
49.26995192899999
 30
0.0
 11
136.4944508968
 21
50.81095574369999
 31
0.0
  0
LINE
  5
234
330
222
100
AcDbEntity
  8
0
  6
Continuous
 62
     1
100
AcDbLine
 10
137.0917960896
 20
51.40830093649999
 30
0.0
 11
138.1708185771
 21
52.487323424
 31
0.0
  0
LINE
  5
235
330
222
100
AcDbEntity
  8
0
  6
Continuous
 62
     1
100
AcDbLine
 10
134.2208775156
 20
49.1407801492
 30
0.0
 11
135.7618813304
 21
50.6817839639
 31
0.0
  0
LINE
  5
236
330
222
100
AcDbEntity
  8
0
  6
Continuous
 62
     1
100
AcDbLine
 10
137.0013490356
 20
51.9212516691
 30
0.0
 11
138.0803715230999
 21
53.0002741567
 31
0.0
  0
LINE
  5
237
330
222
100
AcDbEntity
  8
0
  6
Continuous
 62
     1
100
AcDbLine
 10
133.4883079492
 20
49.01160836939999
 30
0.0
 11
135.029311764
 21
50.5526121841
 31
0.0
  0
LINE
  5
238
330
222
100
AcDbEntity
  8
0
  6
Continuous
 62
     1
100
AcDbLine
 10
136.9109019817
 20
52.4342024018
 30
0.0
 11
137.9899244692
 21
53.51322488930001
 31
0.0
  0
LINE
  5
239
330
222
100
AcDbEntity
  8
0
  6
Continuous
 62
     1
100
AcDbLine
 10
132.7557383828
 20
48.8824365896
 30
0.0
 11
134.2967421976
 21
50.4234404043
 31
0.0
  0
LINE
  5
23A
330
222
100
AcDbEntity
  8
0
  6
Continuous
 62
     1
100
AcDbLine
 10
136.8204549277
 20
52.9471531345
 30
0.0
 11
137.8994774152
 21
54.02617562199999
 31
0.0
  0
LINE
  5
23B
330
222
100
AcDbEntity
  8
0
  6
Continuous
 62
     1
100
AcDbLine
 10
132.0231688164
 20
48.7532648097
 30
0.0
 11
133.5641726312
 21
50.2942686245
 31
0.0
  0
LINE
  5
23C
330
222
100
AcDbEntity
  8
0
  6
Continuous
 62
     1
100
AcDbLine
 10
136.7300078738
 20
53.4601038671
 30
0.0
 11
137.8090303613
 21
54.5391263547
 31
0.0
  0
LINE
  5
23D
330
222
100
AcDbEntity
  8
0
  6
Continuous
 62
     1
100
AcDbLine
 10
131.29059925
 20
48.62409302989999
 30
0.0
 11
132.8316030647
 21
50.1650968447
 31
0.0
  0
LINE
  5
23E
330
222
100
AcDbEntity
  8
0
  6
Continuous
 62
     1
100
AcDbLine
 10
136.6395608197999
 20
53.9730545998
 30
0.0
 11
137.7185833074
 21
55.0520770873
 31
0.0
  0
LINE
  5
23F
330
222
100
AcDbEntity
  8
0
  6
Continuous
 62
     1
100
AcDbLine
 10
130.5580296835
 20
48.4949212501
 30
0.0
 11
132.0990334983
 21
50.0359250649
 31
0.0
  0
LINE
  5
240
330
222
100
AcDbEntity
  8
0
  6
Continuous
 62
     1
100
AcDbLine
 10
136.5491137659
 20
54.4860053325
 30
0.0
 11
137.6281362534
 21
55.56502781999999
 31
0.0
  0
LINE
  5
241
330
222
100
AcDbEntity
  8
0
  6
Continuous
 62
     1
100
AcDbLine
 10
129.8254601171
 20
48.36574947029999
 30
0.0
 11
131.3664639319
 21
49.9067532851
 31
0.0
  0
LINE
  5
242
330
222
100
AcDbEntity
  8
0
  6
Continuous
 62
     1
100
AcDbLine
 10
136.4586667119
 20
54.9989560652
 30
0.0
 11
137.5376891995
 21
56.0779785527
 31
0.0
  0
LINE
  5
243
330
222
100
AcDbEntity
  8
0
  6
Continuous
 62
     1
100
AcDbLine
 10
129.0928905507
 20
48.2365776905
 30
0.0
 11
130.6338943655
 21
49.7775815053
 31
0.0
  0
LINE
  5
244
330
222
100
AcDbEntity
  8
0
  6
Continuous
 62
     1
100
AcDbLine
 10
136.368219658
 20
55.51190679779999
 30
0.0
 11
137.4472421455
 21
56.5909292853
 31
0.0
  0
LINE
  5
245
330
222
100
AcDbEntity
  8
0
  6
Continuous
 62
     1
100
AcDbLine
 10
128.3603209843
 20
48.1074059107
 30
0.0
 11
129.9013247991
 21
49.6484097255
 31
0.0
  0
LINE
  5
246
330
222
100
AcDbEntity
  8
0
  6
Continuous
 62
     1
100
AcDbLine
 10
136.0653400582
 20
55.81242498459999
 30
0.0
 11
137.3567950916
 21
57.10388001800001
 31
0.0
  0
LINE
  5
247
330
222
100
AcDbEntity
  8
0
  6
Continuous
 62
     1
100
AcDbLine
 10
127.6277514179
 20
47.97823413089999
 30
0.0
 11
129.1687552327
 21
49.51923794569999
 31
0.0
  0
LINE
  5
248
330
222
100
AcDbEntity
  8
0
  6
Continuous
 62
     1
100
AcDbLine
 10
135.3327704918
 20
55.68325320479999
 30
0.0
 11
137.2663480376
 21
57.61683075069999
 31
0.0
  0
LINE
  5
249
330
222
100
AcDbEntity
  8
0
  6
Continuous
 62
     1
100
AcDbLine
 10
126.8951818515
 20
47.84906235109999
 30
0.0
 11
128.4361856662
 21
49.3900661659
 31
0.0
  0
LINE
  5
24A
330
222
100
AcDbEntity
  8
0
  6
Continuous
 62
     1
100
AcDbLine
 10
134.6002009253
 20
55.554081425
 30
0.0
 11
135.6275432236
 21
56.5814237233
 31
0.0
  0
LINE
  5
24B
330
222
100
AcDbEntity
  8
0
  6
Continuous
 62
     1
100
AcDbLine
 10
136.0968784962
 20
57.0507589958
 30
0.0
 11
137.1759009837
 21
58.1297814833
 31
0.0
  0
LINE
  5
24C
330
222
100
AcDbEntity
  8
0
  6
Continuous
 62
     1
100
AcDbLine
 10
126.162612285
 20
47.71989057129999
 30
0.0
 11
127.7036160998
 21
49.2608943861
 31
0.0
  0
LINE
  5
24D
330
222
100
AcDbEntity
  8
0
  6
Continuous
 62
     1
100
AcDbLine
 10
133.8676313589
 20
55.4249096452
 30
0.0
 11
134.8949734476
 21
56.4522517338
 31
0.0
  0
LINE
  5
24E
330
222
100
AcDbEntity
  8
0
  6
Continuous
 62
     1
100
AcDbLine
 10
136.0064314422
 20
57.5637097285
 30
0.0
 11
137.0854539296999
 21
58.64273221600001
 31
0.0
  0
LINE
  5
24F
330
222
100
AcDbEntity
  8
0
  6
Continuous
 62
     1
100
AcDbLine
 10
125.4300427186
 20
47.59071879149999
 30
0.0
 11
126.9710465334
 21
49.1317226063
 31
0.0
  0
LINE
  5
250
330
222
100
AcDbEntity
  8
0
  6
Continuous
 62
     1
100
AcDbLine
 10
133.1350617925
 20
55.2957378654
 30
0.0
 11
134.1624036715
 21
56.32307974439999
 31
0.0
  0
LINE
  5
251
330
222
100
AcDbEntity
  8
0
  6
Continuous
 62
     1
100
AcDbLine
 10
135.9159843883
 20
58.0766604612
 30
0.0
 11
136.9950068758
 21
59.15568294869999
 31
0.0
  0
LINE
  5
252
330
222
100
AcDbEntity
  8
0
  6
Continuous
 62
     1
100
AcDbLine
 10
124.6974731522
 20
47.4615470117
 30
0.0
 11
126.238476967
 21
49.0025508265
 31
0.0
  0
LINE
  5
253
330
222
100
AcDbEntity
  8
0
  6
Continuous
 62
     1
100
AcDbLine
 10
132.4024922261
 20
55.1665660856
 30
0.0
 11
133.4298338955
 21
56.193907755
 31
0.0
  0
LINE
  5
254
330
222
100
AcDbEntity
  8
0
  6
Continuous
 62
     1
100
AcDbLine
 10
135.8255373343
 20
58.5896111938
 30
0.0
 11
136.9045598219
 21
59.6686336813
 31
0.0
  0
LINE
  5
255
330
222
100
AcDbEntity
  8
0
  6
Continuous
 62
     1
100
AcDbLine
 10
123.9649035858
 20
47.33237523189999
 30
0.0
 11
125.5059074006
 21
48.8733790467
 31
0.0
  0
LINE
  5
256
330
222
100
AcDbEntity
  8
0
  6
Continuous
 62
     1
100
AcDbLine
 10
131.6699226597
 20
55.0373943058
 30
0.0
 11
132.6972641195
 21
56.0647357656
 31
0.0
  0
LINE
  5
257
330
222
100
AcDbEntity
  8
0
  6
Continuous
 62
     1
100
AcDbLine
 10
135.7350902804
 20
59.10256192649999
 30
0.0
 11
136.8141127679
 21
60.181584414
 31
0.0
  0
LINE
  5
258
330
222
100
AcDbEntity
  8
0
  6
Continuous
 62
     1
100
AcDbLine
 10
123.2323340194
 20
47.2032034521
 30
0.0
 11
124.7733378341
 21
48.7442072669
 31
0.0
  0
LINE
  5
259
330
222
100
AcDbEntity
  8
0
  6
Continuous
 62
     1
100
AcDbLine
 10
130.9373530933
 20
54.90822252600001
 30
0.0
 11
131.9646943435
 21
55.9355637762
 31
0.0
  0
LINE
  5
25A
330
222
100
AcDbEntity
  8
0
  6
Continuous
 62
     1
100
AcDbLine
 10
135.6446432265
 20
59.6155126592
 30
0.0
 11
136.723665714
 21
60.6945351467
 31
0.0
  0
LINE
  5
25B
330
222
100
AcDbEntity
  8
0
  6
Continuous
 62
     1
100
AcDbLine
 10
122.4997644529
 20
47.07403167229999
 30
0.0
 11
124.0407682677
 21
48.6150354871
 31
0.0
  0
LINE
  5
25C
330
222
100
AcDbEntity
  8
0
  6
Continuous
 62
     1
100
AcDbLine
 10
130.2047835268
 20
54.7790507462
 30
0.0
 11
131.2321245674
 21
55.80639178680001
 31
0.0
  0
LINE
  5
25D
330
222
100
AcDbEntity
  8
0
  6
Continuous
 62
     1
100
AcDbLine
 10
135.5541961725
 20
60.12846339180001
 30
0.0
 11
136.63321866
 21
61.20748587939999
 31
0.0
  0
LINE
  5
25E
330
222
100
AcDbEntity
  8
0
  6
Continuous
 62
     1
100
AcDbLine
 10
121.7671948865
 20
46.9448598925
 30
0.0
 11
123.3081987013
 21
48.4858637072
 31
0.0
  0
LINE
  5
25F
330
222
100
AcDbEntity
  8
0
  6
Continuous
 62
     1
100
AcDbLine
 10
129.4722139604
 20
54.6498789664
 30
0.0
 11
130.4995547914
 21
55.67721979729999
 31
0.0
  0
LINE
  5
260
330
222
100
AcDbEntity
  8
0
  6
Continuous
 62
     1
100
AcDbLine
 10
135.4637491186
 20
60.64141412449999
 30
0.0
 11
136.5427716061
 21
61.720436612
 31
0.0
  0
LINE
  5
261
330
222
100
AcDbEntity
  8
0
  6
Continuous
 62
     1
100
AcDbLine
 10
121.0346253201
 20
46.8156881127
 30
0.0
 11
122.5756291349
 21
48.3566919274
 31
0.0
  0
LINE
  5
262
330
222
100
AcDbEntity
  8
0
  6
Continuous
 62
     1
100
AcDbLine
 10
128.739644394
 20
54.52070718659999
 30
0.0
 11
129.7669850154
 21
55.5480478079
 31
0.0
  0
LINE
  5
263
330
222
100
AcDbEntity
  8
0
  6
Continuous
 62
     1
100
AcDbLine
 10
135.3733020646
 20
61.1543648572
 30
0.0
 11
136.4523245521
 21
62.23338734470001
 31
0.0
  0
LINE
  5
264
330
222
100
AcDbEntity
  8
0
  6
Continuous
 62
     1
100
AcDbLine
 10
120.3020557537
 20
46.68651633289999
 30
0.0
 11
121.8430595685
 21
48.2275201476
 31
0.0
  0
LINE
  5
265
330
222
100
AcDbEntity
  8
0
  6
Continuous
 62
     1
100
AcDbLine
 10
128.0070748276
 20
54.3915354067
 30
0.0
 11
129.0344152393
 21
55.41887581850001
 31
0.0
  0
LINE
  5
266
330
222
100
AcDbEntity
  8
0
  6
Continuous
 62
     1
100
AcDbLine
 10
135.1984259632
 20
61.58288654239999
 30
0.0
 11
136.3618774982
 21
62.74633807739999
 31
0.0
  0
LINE
  5
267
330
222
100
AcDbEntity
  8
0
  6
Continuous
 62
     1
100
AcDbLine
 10
119.5694861873
 20
46.5573445531
 30
0.0
 11
121.1104900021
 21
48.0983483678
 31
0.0
  0
LINE
  5
268
330
222
100
AcDbEntity
  8
0
  6
Continuous
 62
     1
100
AcDbLine
 10
127.2745052612
 20
54.2623636269
 30
0.0
 11
128.3018454633
 21
55.28970382909999
 31
0.0
  0
LINE
  5
269
330
222
100
AcDbEntity
  8
0
  6
Continuous
 62
     1
100
AcDbLine
 10
134.4658563968
 20
61.4537147626
 30
0.0
 11
136.0068602116
 21
62.9947185773
 31
0.0
  0
LINE
  5
26A
330
222
100
AcDbEntity
  8
0
  6
Continuous
 62
     1
100
AcDbLine
 10
118.8369166209
 20
46.42817277319999
 30
0.0
 11
120.3779204356
 21
47.969176588
 31
0.0
  0
LINE
  5
26B
330
222
100
AcDbEntity
  8
0
  6
Continuous
 62
     1
100
AcDbLine
 10
126.5419356947
 20
54.1331918471
 30
0.0
 11
127.5692756873
 21
55.16053183970001
 31
0.0
  0
LINE
  5
26C
330
222
100
AcDbEntity
  8
0
  6
Continuous
 62
     1
100
AcDbLine
 10
133.7332868304
 20
61.32454298279999
 30
0.0
 11
135.2742906451
 21
62.8655467975
 31
0.0
  0
LINE
  5
26D
330
222
100
AcDbEntity
  8
0
  6
Continuous
 62
     1
100
AcDbLine
 10
118.1043470544
 20
46.2990009934
 30
0.0
 11
119.6453508692
 21
47.8400048082
 31
0.0
  0
LINE
  5
26E
330
222
100
AcDbEntity
  8
0
  6
Continuous
 62
     1
100
AcDbLine
 10
125.8093661283
 20
54.0040200673
 30
0.0
 11
126.8367059113
 21
55.0313598503
 31
0.0
  0
LINE
  5
26F
330
222
100
AcDbEntity
  8
0
  6
Continuous
 62
     1
100
AcDbLine
 10
133.000717264
 20
61.195371203
 30
0.0
 11
134.5417210787
 21
62.7363750177
 31
0.0
  0
LINE
  5
270
330
222
100
AcDbEntity
  8
0
  6
Continuous
 62
     1
100
AcDbLine
 10
117.371777488
 20
46.16982921359999
 30
0.0
 11
118.9127813028
 21
47.7108330284
 31
0.0
  0
LINE
  5
271
330
222
100
AcDbEntity
  8
0
  6
Continuous
 62
     1
100
AcDbLine
 10
125.0767965619
 20
53.8748482875
 30
0.0
 11
126.1041361352
 21
54.90218786079999
 31
0.0
  0
LINE
  5
272
330
222
100
AcDbEntity
  8
0
  6
Continuous
 62
     1
100
AcDbLine
 10
132.2681476975
 20
61.0661994231
 30
0.0
 11
133.8091515123
 21
62.6072032379
 31
0.0
  0
LINE
  5
273
330
222
100
AcDbEntity
  8
0
  6
Continuous
 62
     1
100
AcDbLine
 10
116.6392079216
 20
46.0406574338
 30
0.0
 11
118.1802117364
 21
47.58166124859999
 31
0.0
  0
LINE
  5
274
330
222
100
AcDbEntity
  8
0
  6
Continuous
 62
     1
100
AcDbLine
 10
124.3442269955
 20
53.7456765077
 30
0.0
 11
125.3715663592
 21
54.77301587140001
 31
0.0
  0
LINE
  5
275
330
222
100
AcDbEntity
  8
0
  6
Continuous
 62
     1
100
AcDbLine
 10
131.5355781311
 20
60.9370276433
 30
0.0
 11
133.0765819459
 21
62.4780314581
 31
0.0
  0
LINE
  5
276
330
222
100
AcDbEntity
  8
0
  6
Continuous
 62
     1
100
AcDbLine
 10
115.9066383552
 20
45.911485654
 30
0.0
 11
117.44764217
 21
47.4524894688
 31
0.0
  0
LINE
  5
277
330
222
100
AcDbEntity
  8
0
  6
Continuous
 62
     1
100
AcDbLine
 10
123.6116574291
 20
53.6165047279
 30
0.0
 11
124.6389965832
 21
54.643843882
 31
0.0
  0
LINE
  5
278
330
222
100
AcDbEntity
  8
0
  6
Continuous
 62
     1
100
AcDbLine
 10
130.8030085646999
 20
60.8078558635
 30
0.0
 11
132.3440123795
 21
62.3488596783
 31
0.0
  0
LINE
  5
279
330
222
100
AcDbEntity
  8
0
  6
Continuous
 62
     1
100
AcDbLine
 10
115.1740687888
 20
45.78231387419999
 30
0.0
 11
116.7150726035
 21
47.32331768899999
 31
0.0
  0
LINE
  5
27A
330
222
100
AcDbEntity
  8
0
  6
Continuous
 62
     1
100
AcDbLine
 10
122.8790878627
 20
53.4873329481
 30
0.0
 11
123.9064268071
 21
54.5146718926
 31
0.0
  0
LINE
  5
27B
330
222
100
AcDbEntity
  8
0
  6
Continuous
 62
     1
100
AcDbLine
 10
130.0704389983
 20
60.67868408369999
 30
0.0
 11
131.6114428130999
 21
62.2196878985
 31
0.0
  0
LINE
  5
27C
330
222
100
AcDbEntity
  8
0
  6
Continuous
 62
     1
100
AcDbLine
 10
114.4414992224
 20
45.65314209439999
 30
0.0
 11
115.9825030371
 21
47.1941459092
 31
0.0
  0
LINE
  5
27D
330
222
100
AcDbEntity
  8
0
  6
Continuous
 62
     1
100
AcDbLine
 10
122.1465182962
 20
53.3581611683
 30
0.0
 11
123.1738570311
 21
54.3854999032
 31
0.0
  0
LINE
  5
27E
330
222
100
AcDbEntity
  8
0
  6
Continuous
 62
     1
100
AcDbLine
 10
129.3378694319
 20
60.5495123039
 30
0.0
 11
130.8788732466
 21
62.0905161187
 31
0.0
  0
LINE
  5
27F
330
222
100
AcDbEntity
  8
0
  6
Continuous
 62
     1
100
AcDbLine
 10
113.7089296559
 20
45.52397031459999
 30
0.0
 11
115.2499334707
 21
47.06497412939999
 31
0.0
  0
LINE
  5
280
330
222
100
AcDbEntity
  8
0
  6
Continuous
 62
     1
100
AcDbLine
 10
121.4139487298
 20
53.2289893885
 30
0.0
 11
122.4412872551
 21
54.25632791379999
 31
0.0
  0
LINE
  5
281
330
222
100
AcDbEntity
  8
0
  6
Continuous
 62
     1
100
AcDbLine
 10
128.6052998654
 20
60.4203405241
 30
0.0
 11
130.1463036802
 21
61.96134433890001
 31
0.0
  0
LINE
  5
282
330
222
100
AcDbEntity
  8
0
  6
Continuous
 62
     1
100
AcDbLine
 10
113.1576088834
 20
45.57604732869999
 30
0.0
 11
114.5173639043
 21
46.9358023496
 31
0.0
  0
LINE
  5
283
330
222
100
AcDbEntity
  8
0
  6
Continuous
 62
     1
100
AcDbLine
 10
120.6813791634
 20
53.0998176087
 30
0.0
 11
121.7087174791
 21
54.12715592439999
 31
0.0
  0
LINE
  5
284
330
222
100
AcDbEntity
  8
0
  6
Continuous
 62
     1
100
AcDbLine
 10
127.872730299
 20
60.2911687443
 30
0.0
 11
129.4137341138
 21
61.8321725591
 31
0.0
  0
LINE
  5
285
330
222
100
AcDbEntity
  8
0
  6
Continuous
 62
     1
100
AcDbLine
 10
113.0671618295
 20
46.08899806140001
 30
0.0
 11
114.146184317
 21
47.1680205489
 31
0.0
  0
LINE
  5
286
330
222
100
AcDbEntity
  8
0
  6
Continuous
 62
     1
100
AcDbLine
 10
119.948809597
 20
52.9706458289
 30
0.0
 11
120.976147703
 21
53.9979839349
 31
0.0
  0
LINE
  5
287
330
222
100
AcDbEntity
  8
0
  6
Continuous
 62
     1
100
AcDbLine
 10
127.1401607326
 20
60.1619969645
 30
0.0
 11
128.6811645474
 21
61.70300077930001
 31
0.0
  0
LINE
  5
288
330
222
100
AcDbEntity
  8
0
  6
Continuous
 62
     1
100
AcDbLine
 10
112.9767147755
 20
46.60194879399999
 30
0.0
 11
114.055737263
 21
47.68097128159999
 31
0.0
  0
LINE
  5
289
330
222
100
AcDbEntity
  8
0
  6
Continuous
 62
     1
100
AcDbLine
 10
119.2162400306
 20
52.8414740491
 30
0.0
 11
120.243577927
 21
53.86881194549999
 31
0.0
  0
LINE
  5
28A
330
222
100
AcDbEntity
  8
0
  6
Continuous
 62
     1
100
AcDbLine
 10
126.4075911662
 20
60.0328251847
 30
0.0
 11
127.948594981
 21
61.57382899949999
 31
0.0
  0
LINE
  5
28B
330
222
100
AcDbEntity
  8
0
  6
Continuous
 62
     1
100
AcDbLine
 10
112.8862677216
 20
47.1148995267
 30
0.0
 11
113.9652902091
 21
48.1939220142
 31
0.0
  0
LINE
  5
28C
330
222
100
AcDbEntity
  8
0
  6
Continuous
 62
     1
100
AcDbLine
 10
118.4836704641
 20
52.71230226930001
 30
0.0
 11
119.511008151
 21
53.7396399561
 31
0.0
  0
LINE
  5
28D
330
222
100
AcDbEntity
  8
0
  6
Continuous
 62
     1
100
AcDbLine
 10
125.6750215998
 20
59.9036534049
 30
0.0
 11
127.2160254146
 21
61.4446572197
 31
0.0
  0
LINE
  5
28E
330
222
100
AcDbEntity
  8
0
  6
Continuous
 62
     1
100
AcDbLine
 10
112.7958206676
 20
47.6278502594
 30
0.0
 11
113.8748431552
 21
48.70687274689999
 31
0.0
  0
LINE
  5
28F
330
222
100
AcDbEntity
  8
0
  6
Continuous
 62
     1
100
AcDbLine
 10
117.7511008977
 20
52.5831304895
 30
0.0
 11
118.7784383749
 21
53.6104679667
 31
0.0
  0
LINE
  5
290
330
222
100
AcDbEntity
  8
0
  6
Continuous
 62
     1
100
AcDbLine
 10
124.9424520334
 20
59.7744816251
 30
0.0
 11
126.4834558481
 21
61.3154854399
 31
0.0
  0
LINE
  5
291
330
222
100
AcDbEntity
  8
0
  6
Continuous
 62
     1
100
AcDbLine
 10
112.7053736137
 20
48.14080099199999
 30
0.0
 11
113.7843961012
 21
49.2198234796
 31
0.0
  0
LINE
  5
292
330
222
100
AcDbEntity
  8
0
  6
Continuous
 62
     1
100
AcDbLine
 10
117.0185313313
 20
52.4539587097
 30
0.0
 11
118.0458685989
 21
53.48129597729999
 31
0.0
  0
LINE
  5
293
330
222
100
AcDbEntity
  8
0
  6
Continuous
 62
     1
100
AcDbLine
 10
124.2098824669
 20
59.6453098453
 30
0.0
 11
125.7508862817
 21
61.1863136601
 31
0.0
  0
LINE
  5
294
330
222
100
AcDbEntity
  8
0
  6
Continuous
 62
     1
100
AcDbLine
 10
112.6149265598
 20
48.6537517247
 30
0.0
 11
113.6939490473
 21
49.7327742122
 31
0.0
  0
LINE
  5
295
330
222
100
AcDbEntity
  8
0
  6
Continuous
 62
     1
100
AcDbLine
 10
116.2859617649
 20
52.3247869299
 30
0.0
 11
117.3132988229
 21
53.3521239879
 31
0.0
  0
LINE
  5
296
330
222
100
AcDbEntity
  8
0
  6
Continuous
 62
     1
100
AcDbLine
 10
123.4773129005
 20
59.5161380655
 30
0.0
 11
125.0183167153
 21
61.05714188029999
 31
0.0
  0
LINE
  5
297
330
222
100
AcDbEntity
  8
0
  6
Continuous
 62
     1
100
AcDbLine
 10
112.5244795058
 20
49.1667024574
 30
0.0
 11
113.6035019933
 21
50.2457249449
 31
0.0
  0
LINE
  5
298
330
222
100
AcDbEntity
  8
0
  6
Continuous
 62
     1
100
AcDbLine
 10
115.5533921985
 20
52.1956151501
 30
0.0
 11
116.5807290469
 21
53.2229519984
 31
0.0
  0
LINE
  5
299
330
222
100
AcDbEntity
  8
0
  6
Continuous
 62
     1
100
AcDbLine
 10
122.7447433341
 20
59.38696628569999
 30
0.0
 11
124.2857471489
 21
60.9279701005
 31
0.0
  0
LINE
  5
29A
330
222
100
AcDbEntity
  8
0
  6
Continuous
 62
     1
100
AcDbLine
 10
112.4340324519
 20
49.67965319010001
 30
0.0
 11
113.5130549394
 21
50.7586756776
 31
0.0
  0
LINE
  5
29B
330
222
100
AcDbEntity
  8
0
  6
Continuous
 62
     1
100
AcDbLine
 10
114.8208226321
 20
52.06644337020001
 30
0.0
 11
115.8481592708
 21
53.093780009
 31
0.0
  0
LINE
  5
29C
330
222
100
AcDbEntity
  8
0
  6
Continuous
 62
     1
100
AcDbLine
 10
122.0121737677
 20
59.2577945059
 30
0.0
 11
123.5531775825
 21
60.79879832069999
 31
0.0
  0
LINE
  5
29D
330
222
100
AcDbEntity
  8
0
  6
Continuous
 62
     1
100
AcDbLine
 10
112.3435853979
 20
50.1926039227
 30
0.0
 11
113.4226078854
 21
51.2716264102
 31
0.0
  0
LINE
  5
29E
330
222
100
AcDbEntity
  8
0
  6
Continuous
 62
     1
100
AcDbLine
 10
114.0882530656
 20
51.9372715904
 30
0.0
 11
115.1155894948
 21
52.9646080196
 31
0.0
  0
LINE
  5
29F
330
222
100
AcDbEntity
  8
0
  6
Continuous
 62
     1
100
AcDbLine
 10
121.2796042013
 20
59.12862272609999
 30
0.0
 11
122.820608016
 21
60.6696265408
 31
0.0
  0
LINE
  5
2A0
330
222
100
AcDbEntity
  8
0
  6
Continuous
 62
     1
100
AcDbLine
 10
112.253138344
 20
50.7055546554
 30
0.0
 11
113.3321608315
 21
51.7845771429
 31
0.0
  0
LINE
  5
2A1
330
222
100
AcDbEntity
  8
0
  6
Continuous
 62
     1
100
AcDbLine
 10
113.3556834992
 20
51.80809981060001
 30
0.0
 11
114.3830197188
 21
52.8354360302
 31
0.0
  0
LINE
  5
2A2
330
222
100
AcDbEntity
  8
0
  6
Continuous
 62
     1
100
AcDbLine
 10
120.5470346348
 20
58.9994509463
 30
0.0
 11
122.0880384496
 21
60.540454761
 31
0.0
  0
LINE
  5
2A3
330
222
100
AcDbEntity
  8
0
  6
Continuous
 62
     1
100
AcDbLine
 10
112.16269129
 20
51.21850538810001
 30
0.0
 11
113.6504499427
 21
52.7062640408
 31
0.0
  0
LINE
  5
2A4
330
222
100
AcDbEntity
  8
0
  6
Continuous
 62
     1
100
AcDbLine
 10
119.8144650684
 20
58.8702791665
 30
0.0
 11
121.3554688832
 21
60.4112829812
 31
0.0
  0
LINE
  5
2A5
330
222
100
AcDbEntity
  8
0
  6
Continuous
 62
     1
100
AcDbLine
 10
112.0722442361
 20
51.73145612069999
 30
0.0
 11
113.1512667236
 21
52.8104786082
 31
0.0
  0
LINE
  5
2A6
330
222
100
AcDbEntity
  8
0
  6
Continuous
 62
     1
100
AcDbLine
 10
119.081895502
 20
58.7411073867
 30
0.0
 11
120.6228993168
 21
60.2821112014
 31
0.0
  0
LINE
  5
2A7
330
222
100
AcDbEntity
  8
0
  6
Continuous
 62
     1
100
AcDbLine
 10
111.9817971821
 20
52.2444068534
 30
0.0
 11
113.0608196697
 21
53.3234293409
 31
0.0
  0
LINE
  5
2A8
330
222
100
AcDbEntity
  8
0
  6
Continuous
 62
     1
100
AcDbLine
 10
118.3493259356
 20
58.6119356068
 30
0.0
 11
119.8903297504
 21
60.15293942159999
 31
0.0
  0
LINE
  5
2A9
330
222
100
AcDbEntity
  8
0
  6
Continuous
 62
     1
100
AcDbLine
 10
111.8913501282
 20
52.7573575861
 30
0.0
 11
112.9703726157
 21
53.8363800736
 31
0.0
  0
LINE
  5
2AA
330
222
100
AcDbEntity
  8
0
  6
Continuous
 62
     1
100
AcDbLine
 10
117.6167563692
 20
58.48276382699999
 30
0.0
 11
119.157760184
 21
60.0237676418
 31
0.0
  0
LINE
  5
2AB
330
222
100
AcDbEntity
  8
0
  6
Continuous
 62
     1
100
AcDbLine
 10
111.8009030743
 20
53.2703083187
 30
0.0
 11
112.8799255618
 21
54.3493308063
 31
0.0
  0
LINE
  5
2AC
330
222
100
AcDbEntity
  8
0
  6
Continuous
 62
     1
100
AcDbLine
 10
116.8841868028
 20
58.3535920472
 30
0.0
 11
118.4251906175
 21
59.89459586199999
 31
0.0
  0
LINE
  5
2AD
330
222
100
AcDbEntity
  8
0
  6
Continuous
 62
     1
100
AcDbLine
 10
111.7104560203
 20
53.7832590514
 30
0.0
 11
112.7894785078
 21
54.8622815389
 31
0.0
  0
LINE
  5
2AE
330
222
100
AcDbEntity
  8
0
  6
Continuous
 62
     1
100
AcDbLine
 10
116.1516172363
 20
58.2244202674
 30
0.0
 11
117.6926210511
 21
59.7654240822
 31
0.0
  0
LINE
  5
2AF
330
222
100
AcDbEntity
  8
0
  6
Continuous
 62
     1
100
AcDbLine
 10
111.6200089664
 20
54.2962097841
 30
0.0
 11
112.6990314539
 21
55.3752322716
 31
0.0
  0
LINE
  5
2B0
330
222
100
AcDbEntity
  8
0
  6
Continuous
 62
     1
100
AcDbLine
 10
115.4190476699
 20
58.0952484876
 30
0.0
 11
116.9600514847
 21
59.63625230239999
 31
0.0
  0
LINE
  5
2B1
330
222
100
AcDbEntity
  8
0
  6
Continuous
 62
     1
100
AcDbLine
 10
111.5295619124
 20
54.8091605167
 30
0.0
 11
112.6085843999
 21
55.8881830043
 31
0.0
  0
LINE
  5
2B2
330
222
100
AcDbEntity
  8
0
  6
Continuous
 62
     1
100
AcDbLine
 10
114.6864781035
 20
57.9660767078
 30
0.0
 11
116.2274819183
 21
59.5070805226
 31
0.0
  0
LINE
  5
2B3
330
222
100
AcDbEntity
  8
0
  6
Continuous
 62
     1
100
AcDbLine
 10
111.4391148585
 20
55.32211124939999
 30
0.0
 11
112.518137346
 21
56.40113373689999
 31
0.0
  0
LINE
  5
2B4
330
222
100
AcDbEntity
  8
0
  6
Continuous
 62
     1
100
AcDbLine
 10
113.9539085371
 20
57.836904928
 30
0.0
 11
115.4949123519
 21
59.3779087428
 31
0.0
  0
LINE
  5
2B5
330
222
100
AcDbEntity
  8
0
  6
Continuous
 62
     1
100
AcDbLine
 10
111.3486678045
 20
55.8350619821
 30
0.0
 11
112.4276902921
 21
56.9140844696
 31
0.0
  0
LINE
  5
2B6
330
222
100
AcDbEntity
  8
0
  6
Continuous
 62
     1
100
AcDbLine
 10
113.2213389707
 20
57.7077331482
 30
0.0
 11
114.7623427854
 21
59.248736963
 31
0.0
  0
LINE
  5
2B7
330
222
100
AcDbEntity
  8
0
  6
Continuous
 62
     1
100
AcDbLine
 10
111.2582207506
 20
56.3480127147
 30
0.0
 11
112.3372432381
 21
57.4270352023
 31
0.0
  0
LINE
  5
2B8
330
222
100
AcDbEntity
  8
0
  6
Continuous
 62
     1
100
AcDbLine
 10
112.4887694043
 20
57.5785613684
 30
0.0
 11
114.029773219
 21
59.1195651832
 31
0.0
  0
LINE
  5
2B9
330
222
100
AcDbEntity
  8
0
  6
Continuous
 62
     1
100
AcDbLine
 10
111.1677736967
 20
56.8609634474
 30
0.0
 11
113.2972036526
 21
58.99039340339999
 31
0.0
  0
LINE
  5
2BA
330
222
100
AcDbEntity
  8
0
  6
Continuous
 62
     1
100
AcDbLine
 10
111.0773266427
 20
57.3739141801
 30
0.0
 11
112.5646340862
 21
58.86122162359999
 31
0.0
  0
LINE
  5
2BB
330
222
100
AcDbEntity
  8
0
  6
Continuous
 62
     1
100
AcDbLine
 10
110.9868795888
 20
57.8868649128
 30
0.0
 11
111.8320645198
 21
58.7320498438
 31
0.0
  0
LINE
  5
2BC
330
222
100
AcDbEntity
  8
0
  6
Continuous
 62
     1
100
AcDbLine
 10
110.8964325348
 20
58.3998156454
 30
0.0
 11
111.0994949534
 21
58.60287806399999
 31
0.0
  0
ENDBLK
  5
2BD
330
222
100
AcDbEntity
  8
0
  6
ByBlock
 62
     0
100
AcDbBlockEnd
  0
BLOCK
  5
2BE
330
223
100
AcDbEntity
  8
0
  6
Continuous
 62
     2
100
AcDbBlockBegin
  2
L03-NOTE_SPECS_BAINS_BL2
 70
     0
 10
160.666676853
 20
55.33332735310001
 30
0.0
  3
L03-NOTE_SPECS_BAINS_BL2
  1

  0
TEXT
  5
2BF
330
223
100
AcDbEntity
  8
0
  6
Continuous
 62
     2
100
AcDbText
 10
144.4188917769
 20
63.1067607442
 30
0.0
 40
0.5
  1
Infomations Techniques/Technical Infomations
 41
1.013057755184423
  7
TEXTSTYLE_2
 72
     5
 11
159.0114843695
 21
63.1067607442
 31
0.0
100
AcDbText
  0
TEXT
  5
2C0
330
223
100
AcDbEntity
  8
0
  6
Continuous
 62
     2
100
AcDbText
 10
144.666676853
 20
61.6666606864
 30
0.0
 40
0.6666666667
  1
NOMBRE DE JETS:     
 41
1.011916664627009
  7
TEXTSTYLE_2
 72
     5
 11
154.5111212975
 21
61.6666606864
 31
0.0
100
AcDbText
  0
TEXT
  5
2C1
330
223
100
AcDbEntity
  8
0
  6
Continuous
 62
     2
100
AcDbText
 10
154.5111212975
 20
61.6666606864
 30
0.0
 40
0.6666666667
  1
42
 41
0.9867720164271595
  7
TEXTSTYLE_2
 72
     5
 11
155.5333435197
 21
61.6666606864
 31
0.0
100
AcDbText
  0
TEXT
  5
2C2
330
223
100
AcDbEntity
  8
0
  6
Continuous
 62
     2
100
AcDbText
 10
144.666676853
 20
60.6666606864
 30
0.0
 40
0.6666666667
  1
 
 41
1.059207179978356
  7
TEXTSTYLE_2
 72
     5
 11
144.9407509271
 21
60.6666606864
 31
0.0
100
AcDbText
  0
TEXT
  5
2C3
330
223
100
AcDbEntity
  8
0
  6
Continuous
 62
     2
100
AcDbText
 10
144.666676853
 20
59.6666606864
 30
0.0
 40
0.6666666667
  1
NIVEAU D'EAU              GALLONS(US)        LITRES        GALLONS(UK)
 41
1.013954636348306
  7
TEXTSTYLE_2
 72
     5
 11
175.2296398159999
 21
59.6666606864
 31
0.0
100
AcDbText
  0
TEXT
  5
2C4
330
223
100
AcDbEntity
  8
0
  6
Continuous
 62
     2
100
AcDbText
 10
144.666676853
 20
58.6666606864
 30
0.0
 40
0.6666666667
  1
PLEIN
 41
1.002633071523468
  7
TEXTSTYLE_2
 72
     5
 11
147.3654422851
 21
58.6666606864
 31
0.0
100
AcDbText
  0
TEXT
  5
2C5
330
223
100
AcDbEntity
  8
0
  6
Continuous
 62
     2
100
AcDbText
 10
144.666676853
 20
57.6666606864
 30
0.0
 40
0.6666666667
  1
HAUT T.PLEIN
 41
1.006689230333172
  7
TEXTSTYLE_2
 72
     5
 11
151.0222324086
 21
57.6666606864
 31
0.0
100
AcDbText
  0
TEXT
  5
2C6
330
223
100
AcDbEntity
  8
0
  6
Continuous
 62
     2
100
AcDbText
 10
144.666676853
 20
56.6666606864
 30
0.0
 40
0.6666666667
  1
MILIEU T.PLEIN
 41
1.007652585903204
  7
TEXTSTYLE_2
 72
     5
 11
151.6024793222
 21
56.6666606864
 31
0.0
100
AcDbText
  0
TEXT
  5
2C7
330
223
100
AcDbEntity
  8
0
  6
Continuous
 62
     2
100
AcDbText
 10
144.666676853
 20
55.6666606864
 30
0.0
 40
0.6666666667
  1
BAS T.PLEIN
 41
1.005308655981168
  7
TEXTSTYLE_2
 72
     5
 11
150.3382817913
 21
55.6666606864
 31
0.0
100
AcDbText
  0
TEXT
  5
2C8
330
223
100
AcDbEntity
  8
0
  6
Continuous
 62
     2
100
AcDbText
 10
144.666676853
 20
54.6666606864
 30
0.0
 40
0.6666666667
  1
3" EN BAS T.PLEIN
 41
1.018706183095093
  7
TEXTSTYLE_2
 72
     5
 11
153.1234669765
 21
54.6666606864
 31
0.0
100
AcDbText
  0
TEXT
  5
2C9
330
223
100
AcDbEntity
  8
0
  6
Continuous
 62
     2
100
AcDbText
 10
144.666676853
 20
53.6666606864
 30
0.0
 40
0.6666666667
  1
 
 41
1.059207179978356
  7
TEXTSTYLE_2
 72
     5
 11
144.9407509271
 21
53.6666606864
 31
0.0
100
AcDbText
  0
TEXT
  5
2CA
330
223
100
AcDbEntity
  8
0
  6
Continuous
 62
     2
100
AcDbText
 10
144.4665153474
 20
53.1198737616
 30
0.0
 40
0.5
  1
Legende/Legend
 41
1.009227457802893
  7
TEXTSTYLE_2
 72
     5
 11
149.75910794
 21
53.1198737616
 31
0.0
100
AcDbText
  0
TEXT
  5
2CB
330
223
100
AcDbEntity
  8
0
  6
Continuous
 62
     2
100
AcDbText
 10
150.9953502915
 20
51.6086087839
 30
0.0
 40
0.6666666667
  1
ZONE DE ROBINETTERIE
 41
0.9978908867311734
  7
TEXTSTYLE_2
 72
     5
 11
162.252140415
 21
51.6086087839
 31
0.0
100
AcDbText
  0
TEXT
  5
2CC
330
223
100
AcDbEntity
  8
0
  6
Continuous
 62
     2
100
AcDbText
 10
145.9156257245
 20
50.11336426949999
 30
0.0
 40
0.6666666667
  1
L   :  SYSTEME LED       DC   :  DOUBLE DOSSIER CHAUFFANT
 41
1.010592021546647
  7
TEXTSTYLE_2
 72
     5
 11
173.6859960949
 21
50.11336426949999
 31
0.0
100
AcDbText
  0
TEXT
  5
2CD
330
223
100
AcDbEntity
  8
0
  6
Continuous
 62
     2
100
AcDbText
 10
145.9156257245
 20
48.7800309361
 30
0.0
 40
0.6666666667
  1
C   :  CONTROLE
 41
1.009046208436576
  7
TEXTSTYLE_2
 72
     5
 11
153.3822923912
 21
48.7800309361
 31
0.0
100
AcDbText
  0
TEXT
  5
2CE
330
223
100
AcDbEntity
  8
0
  6
Continuous
 62
     2
100
AcDbText
 10
145.9156257245
 20
47.44669760279999
 30
0.0
 40
0.6666666667
  1
T   :  MOTEUR
 41
1.013017531875608
  7
TEXTSTYLE_2
 72
     5
 11
152.1526627616
 21
47.44669760279999
 31
0.0
100
AcDbText
  0
TEXT
  5
2CF
330
223
100
AcDbEntity
  8
0
  6
Continuous
 62
     2
100
AcDbText
 10
157.2438179968
 20
58.6666606864
 30
0.0
 40
0.6666666667
  1
120
 41
0.9867720164271688
  7
TEXTSTYLE_2
 72
     5
 11
158.7771513301
 21
58.6666606864
 31
0.0
100
AcDbText
  0
TEXT
  5
2D0
330
223
100
AcDbEntity
  8
0
  6
Continuous
 62
     2
100
AcDbText
 10
157.4993735523
 20
57.6666606864
 30
0.0
 40
0.6666666667
  1
92
 41
0.986772016523707
  7
TEXTSTYLE_2
 72
     5
 11
158.5215957746
 21
57.6666606864
 31
0.0
100
AcDbText
  0
TEXT
  5
2D1
330
223
100
AcDbEntity
  8
0
  6
Continuous
 62
     2
100
AcDbText
 10
157.4993735523
 20
56.6666606864
 30
0.0
 40
0.6666666667
  1
91
 41
0.986772016523707
  7
TEXTSTYLE_2
 72
     5
 11
158.5215957746
 21
56.6666606864
 31
0.0
100
AcDbText
  0
TEXT
  5
2D2
330
223
100
AcDbEntity
  8
0
  6
Continuous
 62
     2
100
AcDbText
 10
157.4993735523
 20
55.6666606864
 30
0.0
 40
0.6666666667
  1
89
 41
0.986772016523707
  7
TEXTSTYLE_2
 72
     5
 11
158.5215957746
 21
55.6666606864
 31
0.0
100
AcDbText
  0
TEXT
  5
2D3
330
223
100
AcDbEntity
  8
0
  6
Continuous
 62
     2
100
AcDbText
 10
157.4993735523
 20
54.6666606864
 30
0.0
 40
0.6666666667
  1
71
 41
0.986772016523707
  7
TEXTSTYLE_2
 72
     5
 11
158.5215957746
 21
54.6666606864
 31
0.0
100
AcDbText
  0
TEXT
  5
2D4
330
223
100
AcDbEntity
  8
0
  6
Continuous
 62
     2
100
AcDbText
 10
164.4195794961
 20
58.6837400885
 30
0.0
 40
0.6666666667
  1
453
 41
0.9867720164271688
  7
TEXTSTYLE_2
 72
     5
 11
165.9529128294
 21
58.6837400885
 31
0.0
100
AcDbText
  0
TEXT
  5
2D5
330
223
100
AcDbEntity
  8
0
  6
Continuous
 62
     2
100
AcDbText
 10
164.4195794961
 20
57.6837400885
 30
0.0
 40
0.6666666667
  1
348
 41
0.9867720164271688
  7
TEXTSTYLE_2
 72
     5
 11
165.9529128294
 21
57.6837400885
 31
0.0
100
AcDbText
  0
TEXT
  5
2D6
330
223
100
AcDbEntity
  8
0
  6
Continuous
 62
     2
100
AcDbText
 10
164.4195794961
 20
56.6837400885
 30
0.0
 40
0.6666666667
  1
343
 41
0.9867720164271688
  7
TEXTSTYLE_2
 72
     5
 11
165.9529128294
 21
56.6837400885
 31
0.0
100
AcDbText
  0
TEXT
  5
2D7
330
223
100
AcDbEntity
  8
0
  6
Continuous
 62
     2
100
AcDbText
 10
164.4195794961
 20
55.6837400885
 30
0.0
 40
0.6666666667
  1
338
 41
0.9867720164271688
  7
TEXTSTYLE_2
 72
     5
 11
165.9529128294
 21
55.6837400885
 31
0.0
100
AcDbText
  0
TEXT
  5
2D8
330
223
100
AcDbEntity
  8
0
  6
Continuous
 62
     2
100
AcDbText
 10
164.4195794961
 20
54.6837400885
 30
0.0
 40
0.6666666667
  1
268
 41
0.9867720164271688
  7
TEXTSTYLE_2
 72
     5
 11
165.9529128294
 21
54.6837400885
 31
0.0
100
AcDbText
  0
TEXT
  5
2D9
330
223
100
AcDbEntity
  8
0
  6
Continuous
 62
     2
100
AcDbText
 10
171.108662878
 20
58.6666606864
 30
0.0
 40
0.6666666667
  1
100
 41
0.9867720164271871
  7
TEXTSTYLE_2
 72
     5
 11
172.6419962113
 21
58.6666606864
 31
0.0
100
AcDbText
  0
TEXT
  5
2DA
330
223
100
AcDbEntity
  8
0
  6
Continuous
 62
     2
100
AcDbText
 10
171.3642184336
 20
57.6666606864
 30
0.0
 40
0.6666666667
  1
76
 41
0.9867720164271869
  7
TEXTSTYLE_2
 72
     5
 11
172.3864406558
 21
57.6666606864
 31
0.0
100
AcDbText
  0
TEXT
  5
2DB
330
223
100
AcDbEntity
  8
0
  6
Continuous
 62
     2
100
AcDbText
 10
171.3642184336
 20
56.6666606864
 30
0.0
 40
0.6666666667
  1
75
 41
0.9867720164271869
  7
TEXTSTYLE_2
 72
     5
 11
172.3864406558
 21
56.6666606864
 31
0.0
100
AcDbText
  0
TEXT
  5
2DC
330
223
100
AcDbEntity
  8
0
  6
Continuous
 62
     2
100
AcDbText
 10
171.3642184336
 20
55.6666606864
 30
0.0
 40
0.6666666667
  1
74
 41
0.9867720164271869
  7
TEXTSTYLE_2
 72
     5
 11
172.3864406558
 21
55.6666606864
 31
0.0
100
AcDbText
  0
TEXT
  5
2DD
330
223
100
AcDbEntity
  8
0
  6
Continuous
 62
     2
100
AcDbText
 10
171.3642184336
 20
54.6666606864
 30
0.0
 40
0.6666666667
  1
59
 41
0.9867720164271869
  7
TEXTSTYLE_2
 72
     5
 11
172.3864406558
 21
54.6666606864
 31
0.0
100
AcDbText
  0
LINE
  5
2DE
330
223
100
AcDbEntity
  8
0
  6
Continuous
 62
     7
100
AcDbLine
 10
144.0000101864
 20
63.9999940197
 30
0.0
 11
144.0000101864
 21
46.6666606864
 31
0.0
  0
LINE
  5
2DF
330
223
100
AcDbEntity
  8
0
  6
Continuous
 62
     7
100
AcDbLine
 10
144.0000101864
 20
63.9999940197
 30
0.0
 11
177.3333435197
 21
63.9999940197
 31
0.0
  0
LINE
  5
2E0
330
223
100
AcDbEntity
  8
0
  6
Continuous
 62
     7
100
AcDbLine
 10
177.3333435197
 20
63.9999940197
 30
0.0
 11
177.3333435197
 21
46.6666606864
 31
0.0
  0
LINE
  5
2E1
330
223
100
AcDbEntity
  8
0
  6
Continuous
 62
     7
100
AcDbLine
 10
144.0000101864
 20
46.6666606864
 30
0.0
 11
177.3333435197
 21
46.6666606864
 31
0.0
  0
LINE
  5
2E2
330
223
100
AcDbEntity
  8
0
  6
Continuous
 62
     7
100
AcDbLine
 10
145.3333435196999
 20
53.9999940197
 30
0.0
 11
176.0000101864
 21
53.9999940197
 31
0.0
  0
LINE
  5
2E3
330
223
100
AcDbEntity
  8
0
  6
Continuous
 62
     7
100
AcDbLine
 10
145.3333435196999
 20
60.9999940197
 30
0.0
 11
176.0000101864
 21
60.9999940197
 31
0.0
  0
LINE
  5
2E4
330
223
100
AcDbEntity
  8
0
  6
Continuous
 62
     7
100
AcDbLine
 10
144.8089167457
 20
52.3781585241
 30
0.0
 11
144.4398960033
 21
52.0091377818
 31
0.0
  0
LINE
  5
2E5
330
223
100
AcDbEntity
  8
0
  6
Continuous
 62
     7
100
AcDbLine
 10
145.4755834123
 20
52.3781585241
 30
0.0
 11
144.6775676219
 21
51.5801427337
 31
0.0
  0
LINE
  5
2E6
330
223
100
AcDbEntity
  8
0
  6
Continuous
 62
     7
100
AcDbLine
 10
146.142250079
 20
52.3781585241
 30
0.0
 11
145.3442342886
 21
51.5801427337
 31
0.0
  0
LINE
  5
2E7
330
223
100
AcDbEntity
  8
0
  6
Continuous
 62
     7
100
AcDbLine
 10
146.8089167457
 20
52.3781585241
 30
0.0
 11
146.0109009552
 21
51.5801427337
 31
0.0
  0
LINE
  5
2E8
330
223
100
AcDbEntity
  8
0
  6
Continuous
 62
     7
100
AcDbLine
 10
147.4755834123
 20
52.3781585241
 30
0.0
 11
146.6775676219
 21
51.5801427337
 31
0.0
  0
LINE
  5
2E9
330
223
100
AcDbEntity
  8
0
  6
Continuous
 62
     7
100
AcDbLine
 10
148.142250079
 20
52.3781585241
 30
0.0
 11
147.3442342886
 21
51.5801427337
 31
0.0
  0
LINE
  5
2EA
330
223
100
AcDbEntity
  8
0
  6
Continuous
 62
     7
100
AcDbLine
 10
148.8089167457
 20
52.3781585241
 30
0.0
 11
148.0109009552
 21
51.5801427337
 31
0.0
  0
LINE
  5
2EB
330
223
100
AcDbEntity
  8
0
  6
Continuous
 62
     7
100
AcDbLine
 10
149.4755834123
 20
52.3781585241
 30
0.0
 11
148.6775676219
 21
51.5801427337
 31
0.0
  0
LINE
  5
2EC
330
223
100
AcDbEntity
  8
0
  6
Continuous
 62
     7
100
AcDbLine
 10
150.142250079
 20
52.3781585241
 30
0.0
 11
149.3442342886
 21
51.5801427337
 31
0.0
  0
LINE
  5
2ED
330
223
100
AcDbEntity
  8
0
  6
Continuous
 62
     7
100
AcDbLine
 10
150.5857375130999
 20
52.1549792916
 30
0.0
 11
150.0109009552
 21
51.5801427337
 31
0.0
  0
ELLIPSE
  5
2EE
330
223
100
AcDbEntity
  8
0
  6
Continuous
 62
     7
100
AcDbEllipse
 10
146.1454126686
 20
50.4309417267
 30
0.0
 11
1.0473539356
 21
0.0
 31
0.0
210
0.0
220
0.0
230
1.0
 40
0.4938647983
 41
0.0
 42
6.283185307179586
  0
ELLIPSE
  5
2EF
330
223
100
AcDbEntity
  8
0
  6
Continuous
 62
     7
100
AcDbEllipse
 10
146.1454126686
 20
49.0976083933
 30
0.0
 11
1.0473539356
 21
0.0
 31
0.0
210
0.0
220
0.0
230
1.0
 40
0.4938647983
 41
0.0
 42
6.283185307179586
  0
ELLIPSE
  5
2F0
330
223
100
AcDbEntity
  8
0
  6
Continuous
 62
     7
100
AcDbEllipse
 10
146.1454126686
 20
47.76427506
 30
0.0
 11
1.0473539356
 21
0.0
 31
0.0
210
0.0
220
0.0
230
1.0
 40
0.4938647983
 41
0.0
 42
6.283185307179586
  0
ELLIPSE
  5
2F1
330
223
100
AcDbEntity
  8
0
  6
Continuous
 62
     7
100
AcDbEllipse
 10
157.1640482497
 20
50.4504630838
 30
0.0
 11
1.0473539356
 21
0.0
 31
0.0
210
0.0
220
0.0
230
1.0
 40
0.4938647983
 41
0.0
 42
6.283185307179586
  0
ENDBLK
  5
2F2
330
223
100
AcDbEntity
  8
0
  6
ByBlock
 62
     0
100
AcDbBlockEnd
  0
BLOCK
  5
2F3
330
224
100
AcDbEntity
  8
0
  6
Continuous
 62
     2
100
AcDbBlockBegin
  2
L03-NOTE_SPECS_BAINS_BL1
 70
     0
 10
160.6668013371
 20
55.33328330649999
 30
0.0
  3
L03-NOTE_SPECS_BAINS_BL1
  1

  0
TEXT
  5
2F4
330
224
100
AcDbEntity
  8
0
  6
Continuous
 62
     2
100
AcDbText
 10
144.419016261
 20
63.1067166976
 30
0.0
 40
0.5
  1
Infomations Techniques/Technical Infomations
 41
1.013057755184423
  7
TEXTSTYLE_2
 72
     5
 11
159.0116088536
 21
63.1067166976
 31
0.0
100
AcDbText
  0
TEXT
  5
2F5
330
224
100
AcDbEntity
  8
0
  6
Continuous
 62
     2
100
AcDbText
 10
144.6668013371
 20
61.6666166399
 30
0.0
 40
0.6666666667
  1
NOMBRE DE JETS:     
 41
1.011916664627006
  7
TEXTSTYLE_2
 72
     5
 11
154.5112457816
 21
61.6666166399
 31
0.0
100
AcDbText
  0
TEXT
  5
2F6
330
224
100
AcDbEntity
  8
0
  6
Continuous
 62
     2
100
AcDbText
 10
154.5112457816
 20
61.6666166399
 30
0.0
 40
0.6666666667
  1
42
 41
0.9867720164271595
  7
TEXTSTYLE_2
 72
     5
 11
155.5334680038
 21
61.6666166399
 31
0.0
100
AcDbText
  0
TEXT
  5
2F7
330
224
100
AcDbEntity
  8
0
  6
Continuous
 62
     2
100
AcDbText
 10
144.6668013371
 20
60.6666166399
 30
0.0
 40
0.6666666667
  1
 
 41
1.059207179978356
  7
TEXTSTYLE_2
 72
     5
 11
144.9408754112
 21
60.6666166399
 31
0.0
100
AcDbText
  0
TEXT
  5
2F8
330
224
100
AcDbEntity
  8
0
  6
Continuous
 62
     2
100
AcDbText
 10
144.6668013371
 20
59.6666166399
 30
0.0
 40
0.6666666667
  1
NIVEAU D'EAU              GALLONS(US)        LITRES        GALLONS(UK)
 41
1.013954636348306
  7
TEXTSTYLE_2
 72
     5
 11
175.2297643001
 21
59.6666166399
 31
0.0
100
AcDbText
  0
TEXT
  5
2F9
330
224
100
AcDbEntity
  8
0
  6
Continuous
 62
     2
100
AcDbText
 10
144.6668013371
 20
58.6666166399
 30
0.0
 40
0.6666666667
  1
PLEIN
 41
1.002633071523457
  7
TEXTSTYLE_2
 72
     5
 11
147.3655667692
 21
58.6666166399
 31
0.0
100
AcDbText
  0
TEXT
  5
2FA
330
224
100
AcDbEntity
  8
0
  6
Continuous
 62
     2
100
AcDbText
 10
144.6668013371
 20
57.66661663989999
 30
0.0
 40
0.6666666667
  1
HAUT T.PLEIN
 41
1.006689230333168
  7
TEXTSTYLE_2
 72
     5
 11
151.0223568927
 21
57.66661663989999
 31
0.0
100
AcDbText
  0
TEXT
  5
2FB
330
224
100
AcDbEntity
  8
0
  6
Continuous
 62
     2
100
AcDbText
 10
144.6668013371
 20
56.6666166399
 30
0.0
 40
0.6666666667
  1
MILIEU T.PLEIN
 41
1.0076525859032
  7
TEXTSTYLE_2
 72
     5
 11
151.6026038063
 21
56.6666166399
 31
0.0
100
AcDbText
  0
TEXT
  5
2FC
330
224
100
AcDbEntity
  8
0
  6
Continuous
 62
     2
100
AcDbText
 10
144.6668013371
 20
55.6666166399
 30
0.0
 40
0.6666666667
  1
BAS T.PLEIN
 41
1.005308655981168
  7
TEXTSTYLE_2
 72
     5
 11
150.3384062754
 21
55.6666166399
 31
0.0
100
AcDbText
  0
TEXT
  5
2FD
330
224
100
AcDbEntity
  8
0
  6
Continuous
 62
     2
100
AcDbText
 10
144.6668013371
 20
54.6666166399
 30
0.0
 40
0.6666666667
  1
3" EN BAS T.PLEIN
 41
1.01870618309509
  7
TEXTSTYLE_2
 72
     5
 11
153.1235914606
 21
54.6666166399
 31
0.0
100
AcDbText
  0
TEXT
  5
2FE
330
224
100
AcDbEntity
  8
0
  6
Continuous
 62
     2
100
AcDbText
 10
144.6668013371
 20
53.6666166399
 30
0.0
 40
0.6666666667
  1
 
 41
1.059207179978356
  7
TEXTSTYLE_2
 72
     5
 11
144.9408754112
 21
53.6666166399
 31
0.0
100
AcDbText
  0
TEXT
  5
2FF
330
224
100
AcDbEntity
  8
0
  6
Continuous
 62
     2
100
AcDbText
 10
144.4666398315
 20
53.119829715
 30
0.0
 40
0.5
  1
Legende/Legend
 41
1.009227457802888
  7
TEXTSTYLE_2
 72
     5
 11
149.7592324241
 21
53.119829715
 31
0.0
100
AcDbText
  0
TEXT
  5
300
330
224
100
AcDbEntity
  8
0
  6
Continuous
 62
     2
100
AcDbText
 10
150.9954747756
 20
51.6085647373
 30
0.0
 40
0.6666666667
  1
ZONE DE ROBINETTERIE
 41
0.9978908867311707
  7
TEXTSTYLE_2
 72
     5
 11
162.2522648991
 21
51.6085647373
 31
0.0
100
AcDbText
  0
TEXT
  5
301
330
224
100
AcDbEntity
  8
0
  6
Continuous
 62
     2
100
AcDbText
 10
145.9157502086
 20
50.1133202229
 30
0.0
 40
0.6666666667
  1
L   :  SYSTEME LED       DC   :  DOUBLE DOSSIER CHAUFFANT
 41
1.010592021546647
  7
TEXTSTYLE_2
 72
     5
 11
173.686120579
 21
50.1133202229
 31
0.0
100
AcDbText
  0
TEXT
  5
302
330
224
100
AcDbEntity
  8
0
  6
Continuous
 62
     2
100
AcDbText
 10
145.9157502086
 20
48.7799868896
 30
0.0
 40
0.6666666667
  1
C   :  CONTROLE
 41
1.00904620843658
  7
TEXTSTYLE_2
 72
     5
 11
153.3824168753
 21
48.7799868896
 31
0.0
100
AcDbText
  0
TEXT
  5
303
330
224
100
AcDbEntity
  8
0
  6
Continuous
 62
     2
100
AcDbText
 10
145.9157502086
 20
47.4466535563
 30
0.0
 40
0.6666666667
  1
T   :  MOTEUR
 41
1.013017531875608
  7
TEXTSTYLE_2
 72
     5
 11
152.1527872457
 21
47.4466535563
 31
0.0
100
AcDbText
  0
TEXT
  5
304
330
224
100
AcDbEntity
  8
0
  6
Continuous
 62
     2
100
AcDbText
 10
157.2439424809
 20
58.6666166399
 30
0.0
 40
0.6666666667
  1
120
 41
0.9867720164271871
  7
TEXTSTYLE_2
 72
     5
 11
158.7772758142
 21
58.6666166399
 31
0.0
100
AcDbText
  0
TEXT
  5
305
330
224
100
AcDbEntity
  8
0
  6
Continuous
 62
     2
100
AcDbText
 10
157.4994980364
 20
57.66661663989999
 30
0.0
 40
0.6666666667
  1
92
 41
0.9867720164271869
  7
TEXTSTYLE_2
 72
     5
 11
158.5217202586
 21
57.66661663989999
 31
0.0
100
AcDbText
  0
TEXT
  5
306
330
224
100
AcDbEntity
  8
0
  6
Continuous
 62
     2
100
AcDbText
 10
157.4994980364
 20
56.6666166399
 30
0.0
 40
0.6666666667
  1
91
 41
0.9867720164271869
  7
TEXTSTYLE_2
 72
     5
 11
158.5217202586
 21
56.6666166399
 31
0.0
100
AcDbText
  0
TEXT
  5
307
330
224
100
AcDbEntity
  8
0
  6
Continuous
 62
     2
100
AcDbText
 10
157.4994980364
 20
55.6666166399
 30
0.0
 40
0.6666666667
  1
89
 41
0.9867720164271869
  7
TEXTSTYLE_2
 72
     5
 11
158.5217202586
 21
55.6666166399
 31
0.0
100
AcDbText
  0
TEXT
  5
308
330
224
100
AcDbEntity
  8
0
  6
Continuous
 62
     2
100
AcDbText
 10
157.4994980364
 20
54.6666166399
 30
0.0
 40
0.6666666667
  1
71
 41
0.9867720164271869
  7
TEXTSTYLE_2
 72
     5
 11
158.5217202586
 21
54.6666166399
 31
0.0
100
AcDbText
  0
TEXT
  5
309
330
224
100
AcDbEntity
  8
0
  6
Continuous
 62
     2
100
AcDbText
 10
164.4197039801
 20
58.683696042
 30
0.0
 40
0.6666666667
  1
453
 41
0.9867720164915338
  7
TEXTSTYLE_2
 72
     5
 11
165.9530373135
 21
58.683696042
 31
0.0
100
AcDbText
  0
TEXT
  5
30A
330
224
100
AcDbEntity
  8
0
  6
Continuous
 62
     2
100
AcDbText
 10
164.4197039801
 20
57.683696042
 30
0.0
 40
0.6666666667
  1
348
 41
0.9867720164915338
  7
TEXTSTYLE_2
 72
     5
 11
165.9530373135
 21
57.683696042
 31
0.0
100
AcDbText
  0
TEXT
  5
30B
330
224
100
AcDbEntity
  8
0
  6
Continuous
 62
     2
100
AcDbText
 10
164.4197039801
 20
56.683696042
 30
0.0
 40
0.6666666667
  1
343
 41
0.9867720164915338
  7
TEXTSTYLE_2
 72
     5
 11
165.9530373135
 21
56.683696042
 31
0.0
100
AcDbText
  0
TEXT
  5
30C
330
224
100
AcDbEntity
  8
0
  6
Continuous
 62
     2
100
AcDbText
 10
164.4197039801
 20
55.683696042
 30
0.0
 40
0.6666666667
  1
338
 41
0.9867720164915338
  7
TEXTSTYLE_2
 72
     5
 11
165.9530373135
 21
55.683696042
 31
0.0
100
AcDbText
  0
TEXT
  5
30D
330
224
100
AcDbEntity
  8
0
  6
Continuous
 62
     2
100
AcDbText
 10
164.4197039801
 20
54.683696042
 30
0.0
 40
0.6666666667
  1
268
 41
0.9867720164915338
  7
TEXTSTYLE_2
 72
     5
 11
165.9530373135
 21
54.683696042
 31
0.0
100
AcDbText
  0
TEXT
  5
30E
330
224
100
AcDbEntity
  8
0
  6
Continuous
 62
     2
100
AcDbText
 10
171.1087873621
 20
58.6666166399
 30
0.0
 40
0.6666666667
  1
100
 41
0.9867720164271688
  7
TEXTSTYLE_2
 72
     5
 11
172.6421206954
 21
58.6666166399
 31
0.0
100
AcDbText
  0
TEXT
  5
30F
330
224
100
AcDbEntity
  8
0
  6
Continuous
 62
     2
100
AcDbText
 10
171.3643429176
 20
57.66661663989999
 30
0.0
 40
0.6666666667
  1
76
 41
0.9867720165237344
  7
TEXTSTYLE_2
 72
     5
 11
172.3865651399
 21
57.66661663989999
 31
0.0
100
AcDbText
  0
TEXT
  5
310
330
224
100
AcDbEntity
  8
0
  6
Continuous
 62
     2
100
AcDbText
 10
171.3643429176
 20
56.6666166399
 30
0.0
 40
0.6666666667
  1
75
 41
0.9867720165237344
  7
TEXTSTYLE_2
 72
     5
 11
172.3865651399
 21
56.6666166399
 31
0.0
100
AcDbText
  0
TEXT
  5
311
330
224
100
AcDbEntity
  8
0
  6
Continuous
 62
     2
100
AcDbText
 10
171.3643429176
 20
55.6666166399
 30
0.0
 40
0.6666666667
  1
74
 41
0.9867720165237344
  7
TEXTSTYLE_2
 72
     5
 11
172.3865651399
 21
55.6666166399
 31
0.0
100
AcDbText
  0
TEXT
  5
312
330
224
100
AcDbEntity
  8
0
  6
Continuous
 62
     2
100
AcDbText
 10
171.3643429176
 20
54.6666166399
 30
0.0
 40
0.6666666667
  1
59
 41
0.9867720165237344
  7
TEXTSTYLE_2
 72
     5
 11
172.3865651399
 21
54.6666166399
 31
0.0
100
AcDbText
  0
LINE
  5
313
330
224
100
AcDbEntity
  8
0
  6
Continuous
 62
     7
100
AcDbLine
 10
144.0001346705
 20
63.9999499732
 30
0.0
 11
144.0001346705
 21
46.6666166399
 31
0.0
  0
LINE
  5
314
330
224
100
AcDbEntity
  8
0
  6
Continuous
 62
     7
100
AcDbLine
 10
144.0001346705
 20
63.9999499732
 30
0.0
 11
177.3334680038
 21
63.9999499732
 31
0.0
  0
LINE
  5
315
330
224
100
AcDbEntity
  8
0
  6
Continuous
 62
     7
100
AcDbLine
 10
177.3334680038
 20
63.9999499732
 30
0.0
 11
177.3334680038
 21
46.6666166399
 31
0.0
  0
LINE
  5
316
330
224
100
AcDbEntity
  8
0
  6
Continuous
 62
     7
100
AcDbLine
 10
144.0001346705
 20
46.6666166399
 30
0.0
 11
177.3334680038
 21
46.6666166399
 31
0.0
  0
LINE
  5
317
330
224
100
AcDbEntity
  8
0
  6
Continuous
 62
     7
100
AcDbLine
 10
145.3334680038
 20
53.9999499732
 30
0.0
 11
176.0001346705
 21
53.9999499732
 31
0.0
  0
LINE
  5
318
330
224
100
AcDbEntity
  8
0
  6
Continuous
 62
     7
100
AcDbLine
 10
145.3334680038
 20
60.99994997319999
 30
0.0
 11
176.0001346705
 21
60.99994997319999
 31
0.0
  0
LINE
  5
319
330
224
100
AcDbEntity
  8
0
  6
Continuous
 62
     7
100
AcDbLine
 10
144.8090412297
 20
52.3781144775
 30
0.0
 11
144.4400204874
 21
52.0090937352
 31
0.0
  0
LINE
  5
31A
330
224
100
AcDbEntity
  8
0
  6
Continuous
 62
     7
100
AcDbLine
 10
145.4757078964
 20
52.3781144775
 30
0.0
 11
144.677692106
 21
51.58009868709999
 31
0.0
  0
LINE
  5
31B
330
224
100
AcDbEntity
  8
0
  6
Continuous
 62
     7
100
AcDbLine
 10
146.1423745631
 20
52.3781144775
 30
0.0
 11
145.3443587726
 21
51.58009868709999
 31
0.0
  0
LINE
  5
31C
330
224
100
AcDbEntity
  8
0
  6
Continuous
 62
     7
100
AcDbLine
 10
146.8090412297
 20
52.3781144775
 30
0.0
 11
146.0110254393
 21
51.58009868709999
 31
0.0
  0
LINE
  5
31D
330
224
100
AcDbEntity
  8
0
  6
Continuous
 62
     7
100
AcDbLine
 10
147.4757078964
 20
52.3781144775
 30
0.0
 11
146.677692106
 21
51.58009868709999
 31
0.0
  0
LINE
  5
31E
330
224
100
AcDbEntity
  8
0
  6
Continuous
 62
     7
100
AcDbLine
 10
148.1423745631
 20
52.3781144775
 30
0.0
 11
147.3443587726
 21
51.58009868709999
 31
0.0
  0
LINE
  5
31F
330
224
100
AcDbEntity
  8
0
  6
Continuous
 62
     7
100
AcDbLine
 10
148.8090412297
 20
52.3781144775
 30
0.0
 11
148.0110254393
 21
51.58009868709999
 31
0.0
  0
LINE
  5
320
330
224
100
AcDbEntity
  8
0
  6
Continuous
 62
     7
100
AcDbLine
 10
149.4757078964
 20
52.3781144775
 30
0.0
 11
148.677692106
 21
51.58009868709999
 31
0.0
  0
LINE
  5
321
330
224
100
AcDbEntity
  8
0
  6
Continuous
 62
     7
100
AcDbLine
 10
150.1423745631
 20
52.3781144775
 30
0.0
 11
149.3443587726
 21
51.58009868709999
 31
0.0
  0
LINE
  5
322
330
224
100
AcDbEntity
  8
0
  6
Continuous
 62
     7
100
AcDbLine
 10
150.5858619972
 20
52.154935245
 30
0.0
 11
150.0110254393
 21
51.58009868709999
 31
0.0
  0
ELLIPSE
  5
323
330
224
100
AcDbEntity
  8
0
  6
Continuous
 62
     7
100
AcDbEllipse
 10
146.1455371527
 20
50.4308976801
 30
0.0
 11
1.0473539356
 21
0.0
 31
0.0
210
0.0
220
0.0
230
1.0
 40
0.4938647983
 41
0.0
 42
6.283185307179586
  0
ELLIPSE
  5
324
330
224
100
AcDbEntity
  8
0
  6
Continuous
 62
     7
100
AcDbEllipse
 10
146.1455371527
 20
49.09756434680001
 30
0.0
 11
1.0473539356
 21
0.0
 31
0.0
210
0.0
220
0.0
230
1.0
 40
0.4938647983
 41
0.0
 42
6.283185307179586
  0
ELLIPSE
  5
325
330
224
100
AcDbEntity
  8
0
  6
Continuous
 62
     7
100
AcDbEllipse
 10
146.1455371527
 20
47.7642310135
 30
0.0
 11
1.0473539356
 21
0.0
 31
0.0
210
0.0
220
0.0
230
1.0
 40
0.4938647983
 41
0.0
 42
6.283185307179586
  0
ELLIPSE
  5
326
330
224
100
AcDbEntity
  8
0
  6
Continuous
 62
     7
100
AcDbEllipse
 10
157.1641727337
 20
50.4504190372
 30
0.0
 11
1.0473539356
 21
0.0
 31
0.0
210
0.0
220
0.0
230
1.0
 40
0.4938647983
 41
0.0
 42
6.283185307179586
  0
ENDBLK
  5
327
330
224
100
AcDbEntity
  8
0
  6
ByBlock
 62
     0
100
AcDbBlockEnd
  0
BLOCK
  5
328
330
225
100
AcDbEntity
  8
0
  6
Continuous
 62
     2
100
AcDbBlockBegin
  2
L03-MOTEUR-CONTROLE-LED_BL0
 70
     0
 10
15.3220064725
 20
80.3705501618
 30
0.0
  3
L03-MOTEUR-CONTROLE-LED_BL0
  1

  0
TEXT
  5
329
330
225
100
AcDbEntity
  8
0
  6
Continuous
 62
     2
100
AcDbText
 10
14.7590432905
 20
79.70388323579999
 30
0.0
 40
1.333333852099999
  1
T
 41
0.9895727804593079
  7
TEXTSTYLE_2
 72
     5
 11
15.8849696545
 21
79.70388323579999
 31
0.0
100
AcDbText
  0
ELLIPSE
  5
32A
330
225
100
AcDbEntity
  8
0
  6
Continuous
 62
     7
100
AcDbEllipse
 10
15.3220064725
 20
80.3705501618
 30
0.0
 11
-1.942887567899999
 21
0.0
 31
0.0
210
0.0
220
0.0
230
1.0
 40
0.6606458385
 41
0.0
 42
6.283185307179586
  0
ENDBLK
  5
32B
330
225
100
AcDbEntity
  8
0
  6
ByBlock
 62
     0
100
AcDbBlockEnd
  0
ENDSEC
  0
SECTION
  2
ENTITIES
  0
TEXT
  5
38A
330
21C
100
AcDbEntity
  8
0
  6
Continuous
 62
     2
100
AcDbText
 10
168.210790069
 20
31.1666666667
 30
0.0
 40
0.3333333333
  1
 
 41
1.059207179750927
  7
TEXTSTYLE_3
 72
     5
 11
168.347827106
 21
31.1666666667
 31
0.0
100
AcDbText
  0
LINE
  5
393B
330
21C
100
AcDbEntity
  8
0
  6
Continuous
 62
     7
100
AcDbLine
 10
102.7357811375
 20
21.8592421668
 30
0.0
 11
102.7357811375
 21
45.71913699369999
 31
0.0
  0
LINE
  5
396C
330
21C
100
AcDbEntity
  8
DEFAULT_2
  6
HIDDEN
 62
     8
100
AcDbLine
 10
104.6615198189
 20
45.3200107937
 30
0.0
 11
107.4401905128
 21
25.5487414701
 31
0.0
  0
LINE
  5
3B42
330
21C
100
AcDbEntity
  8
0
  6
Continuous
 62
     7
100
AcDbLine
 10
102.7357811375
 20
21.8592421668
 30
0.0
 11
133.7357811375
 21
21.8592421668
 31
0.0
  0
LINE
  5
47AF
330
21C
100
AcDbEntity
  8
DEFAULT_2
  6
HIDDEN
 62
     8
100
AcDbLine
 10
131.8100423987
 20
45.320010385
 30
0.0
 11
129.0822765987
 21
25.9109482021
 31
0.0
  0
LINE
  5
47B1
330
21C
100
AcDbEntity
  8
DEFAULT_2
  6
HIDDEN
 62
     8
100
AcDbLine
 10
131.810038917
 20
45.32001128930001
 30
0.0
 11
131.8245216014
 21
45.388553807
 31
0.0
  0
LINE
  5
4851
330
21C
100
AcDbEntity
  8
DEFAULT_1
  6
CENTER
 62
     7
100
AcDbLine
 10
103.0158298323
 20
41.559599368
 30
0.0
 11
107.2799684286
 21
42.1588849657
 31
0.0
  0
LINE
  5
485D
330
21C
100
AcDbEntity
  8
0
  6
Continuous
 62
     7
100
AcDbLine
 10
133.7357811375
 20
21.8592421668
 30
0.0
 11
133.7357811375
 21
45.71913699369999
 31
0.0
  0
ARC
  5
54C2
330
21C
100
AcDbEntity
  8
DEFAULT_2
  6
HIDDEN
 62
     8
100
AcDbCircle
 10
107.9406075473
 20
25.5807375214
 30
0.0
 40
0.5
100
AcDbArc
 50
188.0000057965
 51
265.8514987502
  0
ARC
  5
54C3
330
21C
100
AcDbEntity
  8
DEFAULT_2
  6
HIDDEN
 62
     8
100
AcDbCircle
 10
107.9353240882
 20
25.6183260895
 30
0.0
 40
0.4999992768000001
100
AcDbArc
 50
187.9997881907
 51
271.14736497
  0
ARC
  5
54C4
330
21C
100
AcDbEntity
  8
DEFAULT_2
  6
HIDDEN
 62
     8
100
AcDbCircle
 10
107.9353177072
 20
25.6183535349
 30
0.0
 40
0.4999967777000001
100
AcDbArc
 50
188.0030222578
 51
271.1480053181
  0
ARC
  5
54E8
330
21C
100
AcDbEntity
  8
DEFAULT_2
  6
HIDDEN
 62
     8
100
AcDbCircle
 10
104.075947535
 20
45.165954397
 30
0.0
 40
0.6287077184000001
100
AcDbArc
 50
72.5466545707
 51
82.1782962243
  0
ARC
  5
54E9
330
21C
100
AcDbEntity
  8
DEFAULT_2
  6
HIDDEN
 62
     8
100
AcDbCircle
 10
104.0777864112
 20
45.17317936029999
 30
0.0
 40
0.6212639862
100
AcDbArc
 50
61.27532689519999
 51
72.5085879993
  0
ARC
  5
54EA
330
21C
100
AcDbEntity
  8
DEFAULT_2
  6
HIDDEN
 62
     8
100
AcDbCircle
 10
104.1568896001
 20
45.2494252056
 30
0.0
 40
0.5095392187
100
AcDbArc
 50
7.962570746900001
 51
16.9668081593
  0
ARC
  5
54EB
330
21C
100
AcDbEntity
  8
DEFAULT_2
  6
HIDDEN
 62
     8
100
AcDbCircle
 10
104.1584018328
 20
45.24972338609999
 30
0.0
 40
0.508003816
100
AcDbArc
 50
7.952953195599999
 51
17.1875561561
  0
ARC
  5
54EC
330
21C
100
AcDbEntity
  8
DEFAULT_2
  6
HIDDEN
 62
     8
100
AcDbCircle
 10
104.1667852698
 20
45.2475817579
 30
0.0
 40
0.5
100
AcDbArc
 50
8.0
 51
88.2179110699
  0
ARC
  5
5511
330
21C
100
AcDbEntity
  8
DEFAULT_2
  6
HIDDEN
 62
     8
100
AcDbCircle
 10
154.8114074417
 20
-1859.3730409789
 30
0.0
 40
1885.0580655324
100
AcDbArc
 50
91.1117775575
 51
91.3154869635
  0
ARC
  5
5512
330
21C
100
AcDbEntity
  8
DEFAULT_2
  6
HIDDEN
 62
     8
100
AcDbCircle
 10
154.8113844941
 20
-1859.3719271674
 30
0.0
 40
1885.0569514874
100
AcDbArc
 50
91.111777816
 51
91.31548701360001
  0
ARC
  5
5513
330
21C
100
AcDbEntity
  8
DEFAULT_2
  6
HIDDEN
 62
     8
100
AcDbCircle
 10
137.9514515241
 20
-976.5510192329999
 30
0.0
 40
1002.0752894555
100
AcDbArc
 50
90.53517895979998
 51
91.1273634315
  0
ARC
  5
5514
330
21C
100
AcDbEntity
  8
DEFAULT_2
  6
HIDDEN
 62
     8
100
AcDbCircle
 10
137.9414954586
 20
-976.1004089053001
 30
0.0
 40
1001.6246020414
100
AcDbArc
 50
90.53485020889999
 51
91.12730060770001
  0
ARC
  5
5515
330
21C
100
AcDbEntity
  8
DEFAULT_2
  6
HIDDEN
 62
     8
100
AcDbCircle
 10
128.5871452219
 20
25.9805536623
 30
0.0
 40
0.5
100
AcDbArc
 50
270.5068684594
 51
351.9975936768
  0
ARC
  5
5516
330
21C
100
AcDbEntity
  8
DEFAULT_2
  6
HIDDEN
 62
     8
100
AcDbCircle
 10
128.5871423059
 20
25.9805329137
 30
0.0
 40
0.5
100
AcDbArc
 50
270.5070429182
 51
352.0002127894001
  0
ARC
  5
5517
330
21C
100
AcDbEntity
  8
DEFAULT_2
  6
HIDDEN
 62
     8
100
AcDbCircle
 10
128.5854650734
 20
25.9685987845
 30
0.0
 40
0.5
100
AcDbArc
 50
272.1412595819
 51
351.9999999297001
  0
ARC
  5
555B
330
21C
100
AcDbEntity
  8
DEFAULT_2
  6
HIDDEN
 62
     8
100
AcDbCircle
 10
132.3960504784
 20
45.16316527989999
 30
0.0
 40
0.6315295689
100
AcDbArc
 50
97.82644421790001
 51
99.3065138933
  0
ARC
  5
555C
330
21C
100
AcDbEntity
  8
DEFAULT_2
  6
HIDDEN
 62
     8
100
AcDbCircle
 10
132.3938108276
 20
45.17323501659999
 30
0.0
 40
0.6212304617000001
100
AcDbArc
 50
99.25286090770001
 51
118.7172486267
  0
ARC
  5
555D
330
21C
100
AcDbEntity
  8
DEFAULT_2
  6
HIDDEN
 62
     8
100
AcDbCircle
 10
132.3133642841
 20
45.24977230020001
 30
0.0
 40
0.5081974532000001
100
AcDbArc
 50
163.5675928317
 51
172.0557353862
  0
ARC
  5
555E
330
21C
100
AcDbEntity
  8
DEFAULT_2
  6
HIDDEN
 62
     8
100
AcDbCircle
 10
132.3047770052
 20
45.2475817579
 30
0.0
 40
0.5
100
AcDbArc
 50
91.78208893009999
 51
172.0
  0
SPLINE
  5
742D
330
21C
100
AcDbEntity
  8
DEFAULT_2
  6
HIDDEN
 62
     8
100
AcDbSpline
210
0.0
220
0.0
230
1.0
 70
     8
 71
     3
 72
     8
 73
     4
 74
     0
 42
0.0000001
 43
0.0000000001
 40
0.0
 40
0.0
 40
0.0
 40
0.0
 40
1.0
 40
1.0
 40
1.0
 40
1.0
 10
111.5350716194
 20
25.1881997512
 30
0.0
 10
110.3385765196
 20
25.1609831149
 30
0.0
 10
109.1418994623
 20
25.1424415897
 30
0.0
 10
107.9453357242
 20
25.11843138510001
 30
0.0
  0
SPLINE
  5
742E
330
21C
100
AcDbEntity
  8
DEFAULT_2
  6
HIDDEN
 62
     8
100
AcDbSpline
210
0.0
220
0.0
230
1.0
 70
     8
 71
     3
 72
    11
 73
     7
 74
     0
 42
0.0000001
 43
0.0000000001
 40
0.0
 40
0.0
 40
0.0
 40
0.0
 40
0.2228259206
 40
0.4573813506000001
 40
0.7103739224
 40
1.0
 40
1.0
 40
1.0
 40
1.0
 10
132.3100566847
 20
45.7887921844
 30
0.0
 10
132.2616358867
 20
45.7822789996
 30
0.0
 10
132.1634973336
 20
45.7567632683
 30
0.0
 10
132.0251808298
 20
45.68191654119999
 30
0.0
 10
131.8996960095
 20
45.5632866851
 30
0.0
 10
131.8438937164
 20
45.45444141629999
 30
0.0
 10
131.8259246003
 20
45.3935332341
 30
0.0
  0
SPLINE
  5
742F
330
21C
100
AcDbEntity
  8
DEFAULT_2
  6
HIDDEN
 62
     8
100
AcDbSpline
210
0.0
220
0.0
230
1.0
 70
     8
 71
     3
 72
    11
 73
     7
 74
     0
 42
0.0000001
 43
0.0000000001
 40
0.0
 40
0.0
 40
0.0
 40
0.0
 40
0.2890521713
 40
0.5419354568000001
 40
0.7767696038
 40
1.0
 40
1.0
 40
1.0
 40
1.0
 10
104.6442505988
 20
45.39811774899999
 30
0.0
 10
104.62587359
 20
45.4582954077
 30
0.0
 10
104.569785889
 20
45.56575851859999
 30
0.0
 10
104.4447824584
 20
45.682875166
 30
0.0
 10
104.3072537352
 20
45.75706409399999
 30
0.0
 10
104.2096515403
 20
45.7822170317
 30
0.0
 10
104.1615091251
 20
45.7888188701
 30
0.0
  0
SPLINE
  5
7C4C
330
21C
100
AcDbEntity
  8
DEFAULT_2
  6
HIDDEN
 62
     8
100
AcDbSpline
210
0.0
220
0.0
230
1.0
 70
     8
 71
     3
 72
    10
 73
     6
 74
     0
 42
0.0000001
 43
0.0000000001
 40
0.0
 40
0.0
 40
0.0
 40
0.0
 40
0.4625339952000001
 40
0.7180000882
 40
1.0
 40
1.0
 40
1.0
 40
1.0
 10
104.3763666134
 20
45.7179901563
 30
0.0
 10
104.4337834849
 20
45.686494554
 30
0.0
 10
104.5161805364
 20
45.6227996479
 30
0.0
 10
104.6008559346
 20
45.5083995712
 30
0.0
 10
104.6319220859
 20
45.43798308209999
 30
0.0
 10
104.6437195005
 20
45.3998388032
 30
0.0
  0
SPLINE
  5
7C4D
330
21C
100
AcDbEntity
  8
DEFAULT_2
  6
HIDDEN
 62
     8
100
AcDbSpline
210
0.0
220
0.0
230
1.0
 70
     8
 71
     3
 72
    10
 73
     6
 74
     0
 42
0.0000001
 43
0.0000000001
 40
0.0
 40
0.0
 40
0.0
 40
0.0
 40
0.2835098661
 40
0.5389955993
 40
1.0
 40
1.0
 40
1.0
 40
1.0
 10
131.8245696234
 20
45.388832455
 30
0.0
 10
131.8358550203
 20
45.42848608839999
 30
0.0
 10
131.866554652
 20
45.5016447627
 30
0.0
 10
131.952200912
 20
45.6201689546
 30
0.0
 10
132.0365298266
 20
45.68583164689999
 30
0.0
 10
132.0953173335
 20
45.71805509749999
 30
0.0
  0
SPLINE
  5
7C4E
330
21C
100
AcDbEntity
  8
DEFAULT_2
  6
HIDDEN
 62
     8
100
AcDbSpline
210
0.0
220
0.0
230
1.0
 70
     8
 71
     3
 72
     8
 73
     4
 74
     0
 42
0.0000001
 43
0.0000000001
 40
0.0
 40
0.0
 40
0.0
 40
0.0
 40
1.0
 40
1.0
 40
1.0
 40
1.0
 10
107.94533624
 20
25.1184317047
 30
0.0
 10
109.1418994577
 20
25.1424428705
 30
0.0
 10
110.3385760768
 20
25.16098152610001
 30
0.0
 10
111.5350706316
 20
25.1882000961
 30
0.0
  0
SPLINE
  5
7C4F
330
21C
100
AcDbEntity
  8
0
  6
Continuous
 62
     7
100
AcDbSpline
210
0.0
220
0.0
230
1.0
 70
     8
 71
     3
 72
    15
 73
    11
 74
     0
 42
0.0000001
 43
0.0000000001
 40
0.0
 40
0.0
 40
0.0
 40
0.0
 40
0.2500000018
 40
0.5000000036
 40
0.6250000046000001
 40
0.7500000055
 40
0.8750000063999999
 40
0.9375000068000002
 40
0.9687500067
 40
1.0
 40
1.0
 40
1.0
 40
1.0
 10
118.2357811375
 20
45.8429921426
 30
0.0
 10
119.527447935
 20
45.8429921426
 30
0.0
 10
122.1107815316
 20
45.8429903077
 30
0.0
 10
125.3399485192
 20
45.84299718829999
 30
0.0
 10
127.9232821264
 20
45.8429834281
 30
0.0
 10
129.8607822852
 20
45.843025403
 30
0.0
 10
131.4753658989
 20
45.84289410159999
 30
0.0
 10
132.6055741355
 20
45.8431285316
 30
0.0
 10
133.2514078319
 20
45.8427575684
 30
0.0
 10
133.5743238026
 20
45.8436530319
 30
0.0
 10
133.7357811375
 20
45.8442153196
 30
0.0
  0
SPLINE
  5
7C50
330
21C
100
AcDbEntity
  8
0
  6
Continuous
 62
     7
100
AcDbSpline
210
0.0
220
0.0
230
1.0
 70
     8
 71
     3
 72
    14
 73
    10
 74
     0
 42
0.0000001
 43
0.0000000001
 40
0.0
 40
0.0
 40
0.0
 40
0.0
 40
0.0624999591
 40
0.124999962
 40
0.2499999675
 40
0.3749999729
 40
0.4999999783
 40
0.7499999892
 40
1.0
 40
1.0
 40
1.0
 40
1.0
 10
102.7357811375
 20
45.8442153196
 30
0.0
 10
103.058695651
 20
45.8430907447
 30
0.0
 10
103.7045305339
 20
45.8429390339
 30
0.0
 10
104.9961962559
 20
45.8430214944
 30
0.0
 10
106.610780154
 20
45.8429821167
 30
0.0
 10
108.5482802037
 20
45.8429947722
 30
0.0
 10
111.131613822
 20
45.84299062109999
 30
0.0
 10
114.3607807692
 20
45.84299269579999
 30
0.0
 10
116.94411435
 20
45.8429921426
 30
0.0
 10
118.2357811375
 20
45.8429921426
 30
0.0
  0
SPLINE
  5
7C51
330
21C
100
AcDbEntity
  8
0
  6
Continuous
 62
     7
100
AcDbSpline
210
0.0
220
0.0
230
1.0
 70
     8
 71
     3
 72
    13
 73
     9
 74
     0
 42
0.0000001
 43
0.0000000001
 40
0.0
 40
0.0
 40
0.0
 40
0.0
 40
0.1249999197
 40
0.2499999312
 40
0.3749999427
 40
0.4999999541
 40
0.7499999770999999
 40
1.0
 40
1.0
 40
1.0
 40
1.0
 10
133.7357811375
 20
45.7191370473
 30
0.0
 10
133.238427468
 20
45.7173796817
 30
0.0
 10
132.2437097736
 20
45.718125012
 30
0.0
 10
130.7516402402
 20
45.7178258533
 30
0.0
 10
129.2595684181
 20
45.7179056039
 30
0.0
 10
127.2701399942
 20
45.71787948679999
 30
0.0
 10
124.7833542321
 20
45.7178925388
 30
0.0
 10
122.7939256931
 20
45.7178890587
 30
0.0
 10
121.7992114148
 20
45.7178890587
 30
0.0
  0
SPLINE
  5
7C52
330
21C
100
AcDbEntity
  8
0
  6
Continuous
 62
     7
100
AcDbSpline
210
0.0
220
0.0
230
1.0
 70
     8
 71
     3
 72
    13
 73
     9
 74
     0
 42
0.0000001
 43
0.0000000001
 40
0.0
 40
0.0
 40
0.0
 40
0.0
 40
0.2500000228
 40
0.5000000457000001
 40
0.6250000571000001
 40
0.7500000684999999
 40
0.8750000798999998
 40
1.0
 40
1.0
 40
1.0
 40
1.0
 10
114.7198322854
 20
45.7178890587
 30
0.0
 10
113.7211612218
 20
45.7178890587
 30
0.0
 10
111.7238191125
 20
45.7178925868
 30
0.0
 10
109.2271413868
 20
45.7178793547
 30
0.0
 10
107.2297993931
 20
45.7179058326
 30
0.0
 10
105.7317923909
 20
45.71782497970001
 30
0.0
 10
104.2337876881
 20
45.71812829289999
 30
0.0
 10
103.2351131872
 20
45.71737269119999
 30
0.0
 10
102.7357811375
 20
45.7191370473
 30
0.0
  0
SPLINE
  5
7C53
330
21C
100
AcDbEntity
  8
0
  6
Continuous
 62
     7
100
AcDbSpline
210
0.0
220
0.0
230
1.0
 70
     8
 71
     3
 72
    23
 73
    19
 74
     0
 42
0.0000001
 43
0.0000000001
 40
0.0
 40
0.0
 40
0.0
 40
0.0
 40
0.1250000003
 40
0.2500000006
 40
0.375000001
 40
0.5000000013000001
 40
0.6250000016
 40
0.6875000018000001
 40
0.7500000019
 40
0.8125000020999999
 40
0.8750000023
 40
0.9062500023
 40
0.9218750024
 40
0.9375000024
 40
0.9531250025
 40
0.9687500022
 40
0.9843750003
 40
1.0
 40
1.0
 40
1.0
 40
1.0
 10
118.2357811375
 20
45.7178890587
 30
0.0
 10
117.5899477347
 20
45.7178890587
 30
0.0
 10
116.2982809291
 20
45.7178890587
 30
0.0
 10
114.3607807208
 20
45.71788905859999
 30
0.0
 10
112.4232805124
 20
45.7178890596
 30
0.0
 10
110.485780304
 20
45.7178890531
 30
0.0
 10
108.8711967971
 20
45.717889081
 30
0.0
 10
107.5795299915
 20
45.71788902419999
 30
0.0
 10
106.6107798874
 20
45.7178891636
 30
0.0
 10
105.642029783
 20
45.7178887231
 30
0.0
 10
104.8347380301
 20
45.7178899353
 30
0.0
 10
104.2696338016
 20
45.7178878883
 30
0.0
 10
103.9467171018
 20
45.71789126899999
 30
0.0
 10
103.7045295709
 20
45.71788387499999
 30
0.0
 10
103.4623420651
 20
45.7179038552
 30
0.0
 10
103.2201544808
 20
45.71783727399999
 30
0.0
 10
102.9779672455
 20
45.7183098783
 30
0.0
 10
102.8165098088
 20
45.7188522816
 30
0.0
 10
102.7357811375
 20
45.71913699369999
 30
0.0
  0
SPLINE
  5
7C54
330
21C
100
AcDbEntity
  8
0
  6
Continuous
 62
     7
100
AcDbSpline
210
0.0
220
0.0
230
1.0
 70
     8
 71
     3
 72
    23
 73
    19
 74
     0
 42
0.0000001
 43
0.0000000001
 40
0.0
 40
0.0
 40
0.0
 40
0.0
 40
0.0156249997
 40
0.0312499978
 40
0.0468749975
 40
0.0624999976
 40
0.0781249976
 40
0.0937499976
 40
0.1249999977
 40
0.1874999979
 40
0.2499999981
 40
0.3124999982
 40
0.3749999984
 40
0.4999999987
 40
0.624999999
 40
0.7499999994
 40
0.8749999996999999
 40
1.0
 40
1.0
 40
1.0
 40
1.0
 10
133.7357811375
 20
45.71913699369999
 30
0.0
 10
133.6550524662
 20
45.7188522816
 30
0.0
 10
133.4935950292
 20
45.7183100078
 30
0.0
 10
133.2514077949
 20
45.7178366987
 30
0.0
 10
133.0092202102
 20
45.71790424369999
 30
0.0
 10
132.7670327047
 20
45.7178837727
 30
0.0
 10
132.5248451737
 20
45.7178911629
 30
0.0
 10
132.2019284738999
 20
45.7178879807
 30
0.0
 10
131.6368242455
 20
45.7178898724
 30
0.0
 10
130.8295324925
 20
45.7178887445
 30
0.0
 10
129.8607823881
 20
45.7178891578
 30
0.0
 10
128.8920322839
 20
45.71788902569999
 30
0.0
 10
127.6003654783
 20
45.7178890802
 30
0.0
 10
125.9857819713
 20
45.7178890533
 30
0.0
 10
124.0482817628
 20
45.7178890595
 30
0.0
 10
122.1107815544
 20
45.71788905859999
 30
0.0
 10
120.1732813459
 20
45.7178890587
 30
0.0
 10
118.8816145403
 20
45.7178890587
 30
0.0
 10
118.2357811375
 20
45.7178890587
 30
0.0
  0
ENDSEC
  0
SECTION
  2
OBJECTS
  0
DICTIONARY
  5
C
330
0
100
AcDbDictionary
281
     1
  3
ACAD_CIP_PREVIOUS_PRODUCT_INFO
350
7D08
  3
ACAD_COLOR
350
7C9D
  3
ACAD_DETAILVIEWSTYLE
350
7CB6
  3
ACAD_GROUP
350
D
  3
ACAD_IMAGE_DICT
350
7C62
  3
ACAD_IMAGE_VARS
350
7C63
  3
ACAD_LAYOUT
350
1A
  3
ACAD_MATERIAL
350
7C6B
  3
ACAD_MLEADERSTYLE
350
7CB2
  3
ACAD_MLINESTYLE
350
17
  3
ACAD_PLOTSETTINGS
350
19
  3
ACAD_PLOTSTYLENAME
350
E
  3
ACAD_SCALELIST
350
7CA0
  3
ACAD_SECTIONVIEWSTYLE
350
7CB4
  3
ACAD_TABLESTYLE
350
7C9E
  3
ACAD_VISUALSTYLE
350
7C84
  3
ACDB_RECOMPOSE_DATA
350
7E21
  3
AcDbVariableDictionary
350
7CFA
  0
DICTIONARY
  5
7CBB
330
8
100
AcDbDictionary
280
     1
281
     1
  0
DICTIONARY
  5
7E12
330
2
100
AcDbDictionary
280
     1
281
     1
  3
ACAD_LAYERSTATES
360
7E13
  0
DICTIONARY
  5
7D09
330
10
100
AcDbDictionary
280
     1
281
     1
  3
ADSK_XREC_LAYER_RECONCILED
360
7D0A
  0
DICTIONARY
  5
7D0B
330
1FA
100
AcDbDictionary
280
     1
281
     1
  3
ADSK_XREC_LAYER_RECONCILED
360
7D0C
  0
DICTIONARY
  5
7D0D
330
1FB
100
AcDbDictionary
280
     1
281
     1
  3
ADSK_XREC_LAYER_RECONCILED
360
7D0E
  0
DICTIONARY
  5
7D0F
330
1FC
100
AcDbDictionary
280
     1
281
     1
  3
ADSK_XREC_LAYER_RECONCILED
360
7D10
  0
DICTIONARY
  5
7D11
330
1FD
100
AcDbDictionary
280
     1
281
     1
  3
ADSK_XREC_LAYER_RECONCILED
360
7D12
  0
DICTIONARY
  5
7D13
330
1FE
100
AcDbDictionary
280
     1
281
     1
  3
ADSK_XREC_LAYER_RECONCILED
360
7D14
  0
DICTIONARY
  5
7D15
330
1FF
100
AcDbDictionary
280
     1
281
     1
  3
ADSK_XREC_LAYER_RECONCILED
360
7D16
  0
DICTIONARY
  5
7D17
330
200
100
AcDbDictionary
280
     1
281
     1
  3
ADSK_XREC_LAYER_RECONCILED
360
7D18
  0
DICTIONARY
  5
7D19
330
201
100
AcDbDictionary
280
     1
281
     1
  3
ADSK_XREC_LAYER_RECONCILED
360
7D1A
  0
DICTIONARY
  5
7D1B
330
202
100
AcDbDictionary
280
     1
281
     1
  3
ADSK_XREC_LAYER_RECONCILED
360
7D1C
  0
DICTIONARY
  5
7D1D
330
203
100
AcDbDictionary
280
     1
281
     1
  3
ADSK_XREC_LAYER_RECONCILED
360
7D1E
  0
DICTIONARY
  5
7D1F
330
204
100
AcDbDictionary
280
     1
281
     1
  3
ADSK_XREC_LAYER_RECONCILED
360
7D20
  0
DICTIONARY
  5
7D21
330
205
100
AcDbDictionary
280
     1
281
     1
  3
ADSK_XREC_LAYER_RECONCILED
360
7D22
  0
DICTIONARY
  5
7D23
330
206
100
AcDbDictionary
280
     1
281
     1
  3
ADSK_XREC_LAYER_RECONCILED
360
7D24
  0
DICTIONARY
  5
7D25
330
207
100
AcDbDictionary
280
     1
281
     1
  3
ADSK_XREC_LAYER_RECONCILED
360
7D26
  0
DICTIONARY
  5
7D27
330
208
100
AcDbDictionary
280
     1
281
     1
  3
ADSK_XREC_LAYER_RECONCILED
360
7D28
  0
DICTIONARY
  5
7D29
330
209
100
AcDbDictionary
280
     1
281
     1
  3
ADSK_XREC_LAYER_RECONCILED
360
7D2A
  0
DICTIONARY
  5
7D2B
330
20A
100
AcDbDictionary
280
     1
281
     1
  3
ADSK_XREC_LAYER_RECONCILED
360
7D2C
  0
DICTIONARY
  5
7D2D
330
20B
100
AcDbDictionary
280
     1
281
     1
  3
ADSK_XREC_LAYER_RECONCILED
360
7D2E
  0
DICTIONARY
  5
7D2F
330
20C
100
AcDbDictionary
280
     1
281
     1
  3
ADSK_XREC_LAYER_RECONCILED
360
7D30
  0
DICTIONARY
  5
7D31
330
20D
100
AcDbDictionary
280
     1
281
     1
  3
ADSK_XREC_LAYER_RECONCILED
360
7D32
  0
DICTIONARY
  5
7D33
330
20E
100
AcDbDictionary
280
     1
281
     1
  3
ADSK_XREC_LAYER_RECONCILED
360
7D34
  0
DICTIONARY
  5
7D35
330
20F
100
AcDbDictionary
280
     1
281
     1
  3
ADSK_XREC_LAYER_RECONCILED
360
7D36
  0
DICTIONARY
  5
7D37
330
210
100
AcDbDictionary
280
     1
281
     1
  3
ADSK_XREC_LAYER_RECONCILED
360
7D38
  0
DICTIONARY
  5
7D39
330
211
100
AcDbDictionary
280
     1
281
     1
  3
ADSK_XREC_LAYER_RECONCILED
360
7D3A
  0
DICTIONARY
  5
7D3B
330
212
100
AcDbDictionary
280
     1
281
     1
  3
ADSK_XREC_LAYER_RECONCILED
360
7D3C
  0
DICTIONARY
  5
7D3D
330
213
100
AcDbDictionary
280
     1
281
     1
  3
ADSK_XREC_LAYER_RECONCILED
360
7D3E
  0
XRECORD
  5
7D08
102
{ACAD_REACTORS
330
C
102
}
330
C
100
AcDbXrecord
280
     1
300
ACDLT
300
2019
300
ACDLT_F_S
  0
DICTIONARY
  5
7C9D
102
{ACAD_REACTORS
330
C
102
}
330
C
100
AcDbDictionary
281
     1
  0
DICTIONARY
  5
7CB6
102
{ACAD_REACTORS
330
C
102
}
330
C
100
AcDbDictionary
281
     1
  3
Imperial24
350
7CB7
  0
DICTIONARY
  5
D
102
{ACAD_REACTORS
330
C
102
}
330
C
100
AcDbDictionary
281
     1
  0
DICTIONARY
  5
7C62
330
C
100
AcDbDictionary
281
     1
  3
a0001311_2_img_1
350
7C66
  0
RASTERVARIABLES
  5
7C63
330
C
100
AcDbRasterVariables
 90
        0
 70
     0
 71
     1
 72
     5
  0
DICTIONARY
  5
1A
102
{ACAD_REACTORS
330
C
102
}
330
C
100
AcDbDictionary
281
     1
  3
Layout1
350
7C65
  3
Model
350
7C64
  0
DICTIONARY
  5
7C6B
102
{ACAD_REACTORS
330
C
102
}
330
C
100
AcDbDictionary
281
     1
  3
ByBlock
350
7C74
  3
ByLayer
350
7C6C
  3
Global
350
7C7C
  0
DICTIONARY
  5
7CB2
102
{ACAD_REACTORS
330
C
102
}
330
C
100
AcDbDictionary
281
     1
  3
Standard
350
7CB3
  0
DICTIONARY
  5
17
102
{ACAD_REACTORS
330
C
102
}
330
C
100
AcDbDictionary
281
     1
  3
Standard
350
18
  0
DICTIONARY
  5
19
102
{ACAD_REACTORS
330
C
102
}
330
C
100
AcDbDictionary
281
     1
  0
ACDBDICTIONARYWDFLT
  5
E
102
{ACAD_REACTORS
330
C
102
}
330
C
100
AcDbDictionary
281
     1
  3
Normal
350
F
100
AcDbDictionaryWithDefault
340
F
  0
DICTIONARY
  5
7CA0
102
{ACAD_REACTORS
330
C
102
}
330
C
100
AcDbDictionary
281
     1
  3
A0
350
7CA1
  3
A1
350
7CA2
  3
A2
350
7CA3
  3
A3
350
7CA4
  3
A4
350
7CA5
  3
A5
350
7CA6
  3
A6
350
7CA7
  3
A7
350
7CA8
  3
A8
350
7CA9
  3
A9
350
7CAA
  3
B0
350
7CAB
  3
B1
350
7CAC
  3
B2
350
7CAD
  3
B3
350
7CAE
  3
B4
350
7CAF
  3
B5
350
7CB0
  3
B6
350
7CB1
  0
DICTIONARY
  5
7CB4
102
{ACAD_REACTORS
330
C
102
}
330
C
100
AcDbDictionary
281
     1
  3
Imperial24
350
7CB5
  0
DICTIONARY
  5
7C9E
102
{ACAD_REACTORS
330
C
102
}
330
C
100
AcDbDictionary
281
     1
  3
Standard
350
7C9F
  0
DICTIONARY
  5
7C84
102
{ACAD_REACTORS
330
C
102
}
330
C
100
AcDbDictionary
281
     1
  3
2dWireframe
350
7C8A
  3
Basic
350
7C89
  3
Brighten
350
7C90
  3
ColorChange
350
7C94
  3
Conceptual
350
7C8D
  3
Dim
350
7C8F
  3
EdgeColorOff
350
7C9C
  3
Facepattern
350
7C93
  3
Flat
350
7C85
  3
FlatWithEdges
350
7C86
  3
Gouraud
350
7C87
  3
GouraudWithEdges
350
7C88
  3
Hidden
350
7C8C
  3
JitterOff
350
7C9A
  3
Linepattern
350
7C92
  3
OverhangOff
350
7C9B
  3
Realistic
350
7C8E
  3
Shaded
350
7C99
  3
Shaded with edges
350
7C98
  3
Shades of Gray
350
7C95
  3
Sketchy
350
7C96
  3
Thicken
350
7C91
  3
Wireframe
350
7C8B
  3
X-Ray
350
7C97
  0
XRECORD
  5
7E21
102
{ACAD_REACTORS
330
C
102
}
330
C
100
AcDbXrecord
280
     1
 90
        1
330
7C9F
  0
DICTIONARY
  5
7CFA
102
{ACAD_REACTORS
330
C
102
}
330
C
100
AcDbDictionary
281
     1
  3
CANNOSCALE
350
7CFF
  3
CMLEADERSTYLE
350
7CFC
  3
CTABLESTYLE
350
7CFB
  3
CVIEWDETAILSTYLE
350
7CFD
  3
CVIEWSECTIONSTYLE
350
7CFE
  3
DIMASSOC
350
7D02
  3
INDEXCTL
350
7D01
  3
LAYEREVAL
350
7E1E
  3
LAYERNOTIFY
350
7E1F
  3
LIGHTINGUNITS
350
7E1D
  3
MSLTSCALE
350
7E1C
  3
SORTENTS
350
7D00
  0
DICTIONARY
  5
7E13
102
{ACAD_REACTORS
330
7E12
102
}
330
7E12
100
AcDbDictionary
281
     1
  0
XRECORD
  5
7D0A
102
{ACAD_REACTORS
330
7D09
102
}
330
7D09
100
AcDbXrecord
280
     1
290
     1
  0
XRECORD
  5
7D0C
102
{ACAD_REACTORS
330
7D0B
102
}
330
7D0B
100
AcDbXrecord
280
     1
290
     1
  0
XRECORD
  5
7D0E
102
{ACAD_REACTORS
330
7D0D
102
}
330
7D0D
100
AcDbXrecord
280
     1
290
     1
  0
XRECORD
  5
7D10
102
{ACAD_REACTORS
330
7D0F
102
}
330
7D0F
100
AcDbXrecord
280
     1
290
     1
  0
XRECORD
  5
7D12
102
{ACAD_REACTORS
330
7D11
102
}
330
7D11
100
AcDbXrecord
280
     1
290
     1
  0
XRECORD
  5
7D14
102
{ACAD_REACTORS
330
7D13
102
}
330
7D13
100
AcDbXrecord
280
     1
290
     1
  0
XRECORD
  5
7D16
102
{ACAD_REACTORS
330
7D15
102
}
330
7D15
100
AcDbXrecord
280
     1
290
     1
  0
XRECORD
  5
7D18
102
{ACAD_REACTORS
330
7D17
102
}
330
7D17
100
AcDbXrecord
280
     1
290
     1
  0
XRECORD
  5
7D1A
102
{ACAD_REACTORS
330
7D19
102
}
330
7D19
100
AcDbXrecord
280
     1
290
     1
  0
XRECORD
  5
7D1C
102
{ACAD_REACTORS
330
7D1B
102
}
330
7D1B
100
AcDbXrecord
280
     1
290
     1
  0
XRECORD
  5
7D1E
102
{ACAD_REACTORS
330
7D1D
102
}
330
7D1D
100
AcDbXrecord
280
     1
290
     1
  0
XRECORD
  5
7D20
102
{ACAD_REACTORS
330
7D1F
102
}
330
7D1F
100
AcDbXrecord
280
     1
290
     1
  0
XRECORD
  5
7D22
102
{ACAD_REACTORS
330
7D21
102
}
330
7D21
100
AcDbXrecord
280
     1
290
     1
  0
XRECORD
  5
7D24
102
{ACAD_REACTORS
330
7D23
102
}
330
7D23
100
AcDbXrecord
280
     1
290
     1
  0
XRECORD
  5
7D26
102
{ACAD_REACTORS
330
7D25
102
}
330
7D25
100
AcDbXrecord
280
     1
290
     1
  0
XRECORD
  5
7D28
102
{ACAD_REACTORS
330
7D27
102
}
330
7D27
100
AcDbXrecord
280
     1
290
     1
  0
XRECORD
  5
7D2A
102
{ACAD_REACTORS
330
7D29
102
}
330
7D29
100
AcDbXrecord
280
     1
290
     1
  0
XRECORD
  5
7D2C
102
{ACAD_REACTORS
330
7D2B
102
}
330
7D2B
100
AcDbXrecord
280
     1
290
     1
  0
XRECORD
  5
7D2E
102
{ACAD_REACTORS
330
7D2D
102
}
330
7D2D
100
AcDbXrecord
280
     1
290
     1
  0
XRECORD
  5
7D30
102
{ACAD_REACTORS
330
7D2F
102
}
330
7D2F
100
AcDbXrecord
280
     1
290
     1
  0
XRECORD
  5
7D32
102
{ACAD_REACTORS
330
7D31
102
}
330
7D31
100
AcDbXrecord
280
     1
290
     1
  0
XRECORD
  5
7D34
102
{ACAD_REACTORS
330
7D33
102
}
330
7D33
100
AcDbXrecord
280
     1
290
     1
  0
XRECORD
  5
7D36
102
{ACAD_REACTORS
330
7D35
102
}
330
7D35
100
AcDbXrecord
280
     1
290
     1
  0
XRECORD
  5
7D38
102
{ACAD_REACTORS
330
7D37
102
}
330
7D37
100
AcDbXrecord
280
     1
290
     1
  0
XRECORD
  5
7D3A
102
{ACAD_REACTORS
330
7D39
102
}
330
7D39
100
AcDbXrecord
280
     1
290
     1
  0
XRECORD
  5
7D3C
102
{ACAD_REACTORS
330
7D3B
102
}
330
7D3B
100
AcDbXrecord
280
     1
290
     1
  0
XRECORD
  5
7D3E
102
{ACAD_REACTORS
330
7D3D
102
}
330
7D3D
100
AcDbXrecord
280
     1
290
     1
  0
ACDBDETAILVIEWSTYLE
  5
7CB7
102
{ACAD_REACTORS
330
7CB6
102
}
330
7CB6
100
AcDbModelDocViewStyle
 70
     0
  3
Imperial24
290
     0
300
Imperial24
 90
        0
100
AcDbDetailViewStyle
 70
     0
 71
     0
 90
        3
 71
     1
340
11
 62
   256
 40
0.24
340
0
 62
   256
 40
0.24
300

 40
0.36
280
     3
 71
     2
340
16
 90
       25
 62
   256
 71
     3
340
11
 62
   256
 40
0.24
 90
        1
 40
0.75
 90
        1
300
%<\AcVar ViewType \f "%tc1">% %<\AcVar ViewDetailId>%\PSCALE %<\AcVar ViewScale \f "%sn">%
 71
     4
340
16
 90
       25
 62
   256
340
16
 90
       25
 62
   256
280
     0
  0
IMAGEDEF
  5
7C66
102
{ACAD_REACTORS
330
7C62
102
}
330
7C62
100
AcDbRasterImageDef
 90
        0
  1
a0001311_2_img_1.png
 10
7679.0
 20
6411.0
 11
0.0066666667
 21
0.0066666667
280
     1
281
     0
  0
LAYOUT
  5
7C65
102
{ACAD_REACTORS
330
1A
102
}
330
1A
100
AcDbPlotSettings
  1

  2
none_device
  4
ANSI_B_(17.00_x_11.00_Inches)
  6

 40
0.0
 41
0.0
 42
0.0
 43
0.0
 44
431.8
 45
279.4
 46
0.0
 47
0.0
 48
0.0
 49
0.0
140
0.0
141
0.0
142
1.0
143
1.0
 70
     0
 72
     0
 73
     0
 74
     0
  7

 75
     0
147
1.0
 76
     0
 77
     2
 78
   300
148
0.0
149
0.0
100
AcDbLayout
  1
Layout1
 70
     1
 71
     1
 10
0.0
 20
0.0
 11
12.0
 21
9.0
 12
0.0
 22
0.0
 32
0.0
 14
1.000000000000000E+20
 24
1.000000000000000E+20
 34
1.000000000000000E+20
 15
-1.000000000000000E+20
 25
-1.000000000000000E+20
 35
-1.000000000000000E+20
146
0.0
 13
0.0
 23
0.0
 33
0.0
 16
1.0
 26
0.0
 36
0.0
 17
0.0
 27
1.0
 37
0.0
 76
     0
330
21D
  0
LAYOUT
  5
7C64
102
{ACAD_REACTORS
330
1A
102
}
330
1A
100
AcDbPlotSettings
  1

  2
none_device
  4
ANSI_B_(17.00_x_11.00_Inches)
  6

 40
0.0
 41
0.0
 42
0.0
 43
0.0
 44
431.8
 45
279.4
 46
0.0
 47
0.0
 48
0.0
 49
0.0
140
0.0
141
0.0
142
1.0
143
1.0
 70
  1024
 72
     0
 73
     0
 74
     0
  7

 75
     0
147
1.0
 76
     0
 77
     2
 78
   300
148
0.0
149
0.0
100
AcDbLayout
  1
Model
 70
     0
 71
     0
 10
0.0
 20
0.0
 11
17.0
 21
11.0
 12
0.0
 22
0.0
 32
0.0
 14
0.0
 24
0.0
 34
0.0
 15
0.0
 25
0.0
 35
0.0
146
0.0
 13
0.0
 23
0.0
 33
0.0
 16
1.0
 26
0.0
 36
0.0
 17
0.0
 27
1.0
 37
0.0
 76
     0
330
21C
331
1F4
  0
MATERIAL
  5
7C74
102
{ACAD_XDICTIONARY
360
7C75
102
}
102
{ACAD_REACTORS
330
7C6B
102
}
330
7C6B
100
AcDbMaterial
  1
ByBlock
 72
     0
 43
0.0208333333333333
 43
0.0
 43
0.0
 43
0.0
 43
0.0
 43
0.0208333333333333
 43
0.0
 43
0.0
 43
0.0
 43
0.0
 43
1.0
 43
0.0
 43
0.0
 43
0.0
 43
0.0
 43
1.0
 77
     0
 47
0.0208333333333333
 47
0.0
 47
0.0
 47
0.0
 47
0.0
 47
0.0208333333333333
 47
0.0
 47
0.0
 47
0.0
 47
0.0
 47
1.0
 47
0.0
 47
0.0
 47
0.0
 47
0.0
 47
1.0
171
     0
 49
0.0208333333333333
 49
0.0
 49
0.0
 49
0.0
 49
0.0
 49
0.0208333333333333
 49
0.0
 49
0.0
 49
0.0
 49
0.0
 49
1.0
 49
0.0
 49
0.0
 49
0.0
 49
0.0
 49
1.0
175
     0
142
0.0208333333333333
142
0.0
142
0.0
142
0.0
142
0.0
142
0.0208333333333333
142
0.0
142
0.0
142
0.0
142
0.0
142
1.0
142
0.0
142
0.0
142
0.0
142
0.0
142
1.0
179
     0
144
0.0208333333333333
144
0.0
144
0.0
144
0.0
144
0.0
144
0.0208333333333333
144
0.0
144
0.0
144
0.0
144
0.0
144
1.0
144
0.0
144
0.0
144
0.0
144
0.0
144
1.0
147
0.0208333333333333
147
0.0
147
0.0
147
0.0
147
0.0
147
0.0208333333333333
147
0.0
147
0.0
147
0.0
147
0.0
147
1.0
147
0.0
147
0.0
147
0.0
147
0.0
147
1.0
  0
MATERIAL
  5
7C6C
102
{ACAD_XDICTIONARY
360
7C6D
102
}
102
{ACAD_REACTORS
330
7C6B
102
}
330
7C6B
100
AcDbMaterial
  1
ByLayer
 72
     0
 43
0.0208333333333333
 43
0.0
 43
0.0
 43
0.0
 43
0.0
 43
0.0208333333333333
 43
0.0
 43
0.0
 43
0.0
 43
0.0
 43
1.0
 43
0.0
 43
0.0
 43
0.0
 43
0.0
 43
1.0
 77
     0
 47
0.0208333333333333
 47
0.0
 47
0.0
 47
0.0
 47
0.0
 47
0.0208333333333333
 47
0.0
 47
0.0
 47
0.0
 47
0.0
 47
1.0
 47
0.0
 47
0.0
 47
0.0
 47
0.0
 47
1.0
171
     0
 49
0.0208333333333333
 49
0.0
 49
0.0
 49
0.0
 49
0.0
 49
0.0208333333333333
 49
0.0
 49
0.0
 49
0.0
 49
0.0
 49
1.0
 49
0.0
 49
0.0
 49
0.0
 49
0.0
 49
1.0
175
     0
142
0.0208333333333333
142
0.0
142
0.0
142
0.0
142
0.0
142
0.0208333333333333
142
0.0
142
0.0
142
0.0
142
0.0
142
1.0
142
0.0
142
0.0
142
0.0
142
0.0
142
1.0
179
     0
144
0.0208333333333333
144
0.0
144
0.0
144
0.0
144
0.0
144
0.0208333333333333
144
0.0
144
0.0
144
0.0
144
0.0
144
1.0
144
0.0
144
0.0
144
0.0
144
0.0
144
1.0
147
0.0208333333333333
147
0.0
147
0.0
147
0.0
147
0.0
147
0.0208333333333333
147
0.0
147
0.0
147
0.0
147
0.0
147
1.0
147
0.0
147
0.0
147
0.0
147
0.0
147
1.0
  0
MATERIAL
  5
7C7C
102
{ACAD_XDICTIONARY
360
7C7D
102
}
102
{ACAD_REACTORS
330
7C6B
102
}
330
7C6B
100
AcDbMaterial
  1
Global
 72
     0
 43
0.0208333333333333
 43
0.0
 43
0.0
 43
0.0
 43
0.0
 43
0.0208333333333333
 43
0.0
 43
0.0
 43
0.0
 43
0.0
 43
1.0
 43
0.0
 43
0.0
 43
0.0
 43
0.0
 43
1.0
 77
     0
 47
0.0208333333333333
 47
0.0
 47
0.0
 47
0.0
 47
0.0
 47
0.0208333333333333
 47
0.0
 47
0.0
 47
0.0
 47
0.0
 47
1.0
 47
0.0
 47
0.0
 47
0.0
 47
0.0
 47
1.0
171
     0
 49
0.0208333333333333
 49
0.0
 49
0.0
 49
0.0
 49
0.0
 49
0.0208333333333333
 49
0.0
 49
0.0
 49
0.0
 49
0.0
 49
1.0
 49
0.0
 49
0.0
 49
0.0
 49
0.0
 49
1.0
175
     0
142
0.0208333333333333
142
0.0
142
0.0
142
0.0
142
0.0
142
0.0208333333333333
142
0.0
142
0.0
142
0.0
142
0.0
142
1.0
142
0.0
142
0.0
142
0.0
142
0.0
142
1.0
179
     0
144
0.0208333333333333
144
0.0
144
0.0
144
0.0
144
0.0
144
0.0208333333333333
144
0.0
144
0.0
144
0.0
144
0.0
144
1.0
144
0.0
144
0.0
144
0.0
144
0.0
144
1.0
147
0.0208333333333333
147
0.0
147
0.0
147
0.0
147
0.0
147
0.0208333333333333
147
0.0
147
0.0
147
0.0
147
0.0
147
1.0
147
0.0
147
0.0
147
0.0
147
0.0
147
1.0
  0
MLEADERSTYLE
  5
7CB3
102
{ACAD_REACTORS
330
7CB2
102
}
330
7CB2
100
AcDbMLeaderStyle
179
     2
170
     2
171
     1
172
     0
 90
        2
 40
0.0
 41
0.0
173
     1
 91
-1056964608
340
14
 92
       -2
290
     1
 42
0.09
291
     1
 43
0.36
  3
Standard
 44
0.18
300

342
11
174
     1
178
     6
175
     1
176
     0
 93
-1056964608
 45
0.18
292
     0
297
     0
 46
0.18
 94
-1056964608
 47
1.0
 49
1.0
140
1.0
293
     1
141
0.0
294
     1
177
     0
142
1.0
295
     0
296
     0
143
0.125
271
     0
272
     9
273
     9
298
     0
  0
MLINESTYLE
  5
18
102
{ACAD_REACTORS
330
17
102
}
330
17
100
AcDbMlineStyle
  2
STANDARD
 70
     0
  3

 62
   256
 51
90.0
 52
90.0
 71
     2
 49
0.5
 62
   256
  6
BYLAYER
 49
-0.5
 62
   256
  6
BYLAYER
  0
ACDBPLACEHOLDER
  5
F
102
{ACAD_REACTORS
330
E
102
}
330
E
  0
SCALE
  5
7CA1
102
{ACAD_REACTORS
330
7CA0
102
}
330
7CA0
100
AcDbScale
 70
     0
300
1:1
140
1.0
141
1.0
290
     1
  0
SCALE
  5
7CA2
102
{ACAD_REACTORS
330
7CA0
102
}
330
7CA0
100
AcDbScale
 70
     0
300
1/128" = 1'-0"
140
0.0078125
141
12.0
290
     0
  0
SCALE
  5
7CA3
102
{ACAD_REACTORS
330
7CA0
102
}
330
7CA0
100
AcDbScale
 70
     0
300
1/64" = 1'-0"
140
0.015625
141
12.0
290
     0
  0
SCALE
  5
7CA4
102
{ACAD_REACTORS
330
7CA0
102
}
330
7CA0
100
AcDbScale
 70
     0
300
1/32" = 1'-0"
140
0.03125
141
12.0
290
     0
  0
SCALE
  5
7CA5
102
{ACAD_REACTORS
330
7CA0
102
}
330
7CA0
100
AcDbScale
 70
     0
300
1/16" = 1'-0"
140
0.0625
141
12.0
290
     0
  0
SCALE
  5
7CA6
102
{ACAD_REACTORS
330
7CA0
102
}
330
7CA0
100
AcDbScale
 70
     0
300
3/32" = 1'-0"
140
0.09375
141
12.0
290
     0
  0
SCALE
  5
7CA7
102
{ACAD_REACTORS
330
7CA0
102
}
330
7CA0
100
AcDbScale
 70
     0
300
1/8" = 1'-0"
140
0.125
141
12.0
290
     0
  0
SCALE
  5
7CA8
102
{ACAD_REACTORS
330
7CA0
102
}
330
7CA0
100
AcDbScale
 70
     0
300
3/16" = 1'-0"
140
0.1875
141
12.0
290
     0
  0
SCALE
  5
7CA9
102
{ACAD_REACTORS
330
7CA0
102
}
330
7CA0
100
AcDbScale
 70
     0
300
1/4" = 1'-0"
140
0.25
141
12.0
290
     0
  0
SCALE
  5
7CAA
102
{ACAD_REACTORS
330
7CA0
102
}
330
7CA0
100
AcDbScale
 70
     0
300
3/8" = 1'-0"
140
0.375
141
12.0
290
     0
  0
SCALE
  5
7CAB
102
{ACAD_REACTORS
330
7CA0
102
}
330
7CA0
100
AcDbScale
 70
     0
300
1/2" = 1'-0"
140
0.5
141
12.0
290
     0
  0
SCALE
  5
7CAC
102
{ACAD_REACTORS
330
7CA0
102
}
330
7CA0
100
AcDbScale
 70
     0
300
3/4" = 1'-0"
140
0.75
141
12.0
290
     0
  0
SCALE
  5
7CAD
102
{ACAD_REACTORS
330
7CA0
102
}
330
7CA0
100
AcDbScale
 70
     0
300
1" = 1'-0"
140
1.0
141
12.0
290
     0
  0
SCALE
  5
7CAE
102
{ACAD_REACTORS
330
7CA0
102
}
330
7CA0
100
AcDbScale
 70
     0
300
1-1/2" = 1'-0"
140
1.5
141
12.0
290
     0
  0
SCALE
  5
7CAF
102
{ACAD_REACTORS
330
7CA0
102
}
330
7CA0
100
AcDbScale
 70
     0
300
3" = 1'-0"
140
3.0
141
12.0
290
     0
  0
SCALE
  5
7CB0
102
{ACAD_REACTORS
330
7CA0
102
}
330
7CA0
100
AcDbScale
 70
     0
300
6" = 1'-0"
140
6.0
141
12.0
290
     0
  0
SCALE
  5
7CB1
102
{ACAD_REACTORS
330
7CA0
102
}
330
7CA0
100
AcDbScale
 70
     0
300
1'-0" = 1'-0"
140
12.0
141
12.0
290
     0
  0
ACDBSECTIONVIEWSTYLE
  5
7CB5
102
{ACAD_REACTORS
330
7CB4
102
}
330
7CB4
100
AcDbModelDocViewStyle
 70
     0
  3
Imperial24
290
     0
300
Imperial24
 90
        0
100
AcDbSectionViewStyle
 70
     0
 71
     0
 90
       78
 71
     1
340
11
 62
   256
 40
0.24
340
0
340
0
 62
   256
 40
0.24
300
I, O, Q, S, X, Z
 40
0.48
 90
        3
 40
0.18
 90
        1
 71
     2
340
16
 90
       25
 62
   256
340
16
 90
       50
 62
   256
 40
0.24
 40
0.0
 40
0.24
 71
     3
340
11
 62
   256
 40
0.24
 90
        1
 40
0.75
 90
        1
300
%<\AcVar ViewType \f "%tc1">% %<\AcVar ViewSectionStartId>%-%<\AcVar ViewSectionEndId>%\PSCALE %<\AcVar ViewScale \f "%sn">%
 71
     4
 62
   256
 62
   257
300
ANSI31
 40
1.0
 90
        0
290
     0
290
     0
 90
        6
 40
0.0
 40
1.570796326794896
 40
0.2617993877991494
 40
1.308996938995747
 40
-0.2617993877991494
 40
1.832595714594046
  0
TABLESTYLE
  5
7C9F
102
{ACAD_XDICTIONARY
360
7CB8
102
}
102
{ACAD_REACTORS
330
7C9E
102
}
330
7C9E
100
AcDbTableStyle
280
     0
  3
Standard
 70
     0
 71
     0
 40
0.06
 41
0.06
280
     0
281
     0
  7
STANDARD
140
0.18
170
     2
 62
     0
 63
     7
283
     0
 90
      512
 91
        0
  1

274
    -2
284
     1
 64
     0
275
    -2
285
     1
 65
     0
276
    -2
286
     1
 66
     0
277
    -2
287
     1
 67
     0
278
    -2
288
     1
 68
     0
279
    -2
289
     1
 69
     0
  7
STANDARD
140
0.25
170
     5
 62
     0
 63
     7
283
     0
 90
      512
 91
        0
  1

274
    -2
284
     1
 64
     0
275
    -2
285
     1
 65
     0
276
    -2
286
     1
 66
     0
277
    -2
287
     1
 67
     0
278
    -2
288
     1
 68
     0
279
    -2
289
     1
 69
     0
  7
STANDARD
140
0.18
170
     5
 62
     0
 63
     7
283
     0
 90
      512
 91
        0
  1

274
    -2
284
     1
 64
     0
275
    -2
285
     1
 65
     0
276
    -2
286
     1
 66
     0
277
    -2
287
     1
 67
     0
278
    -2
288
     1
 68
     0
279
    -2
289
     1
 69
     0
  0
VISUALSTYLE
  5
7C8A
102
{ACAD_REACTORS
330
7C84
102
}
330
7C84
100
AcDbVisualStyle
  2
2dWireframe
 70
     4
177
     3
291
     0
 70
    58
 90
        0
176
     1
 90
        2
176
     1
 90
        0
176
     1
 90
        0
176
     1
 40
0.6
176
     1
 40
30.0
176
     1
 62
     7
176
     1
 90
        1
176
     1
 90
        4
176
     1
 62
     7
176
     1
 62
   257
176
     1
 90
        1
176
     1
 90
        1
176
     1
 40
1.0
176
     1
 90
        0
176
     1
 62
   257
176
     1
 40
1.0
176
     1
 90
        1
176
     1
 90
        6
176
     1
 90
        2
176
     1
 62
     7
176
     1
 90
        5
176
     1
 90
        0
176
     1
 90
        0
176
     1
290
     0
176
     1
 90
        1
176
     1
 40
0.0
176
     1
 90
        0
176
     1
290
     1
176
     1
290
     1
176
     1
290
     0
176
     1
290
     0
176
     1
290
     0
176
     1
290
     0
176
     1
290
     0
176
     1
290
     0
176
     1
290
     0
176
     1
 90
       50
176
     1
 40
0.0
176
     1
 40
1.0
176
     1
 90
        0
176
     1
 62
    18
420
        0
176
     1
 90
       50
176
     1
 90
        3
176
     1
 62
     5
420
      255
176
     1
290
     0
176
     1
 90
       50
176
     1
 90
       50
176
     1
 90
       50
176
     1
290
     0
176
     1
 90
       50
176
     1
 62
   256
176
     0
 40
1.0
176
     0
 90
        2
176
     1
  1
strokes_ogs.tif
176
     1
290
     0
176
     1
 40
1.0
176
     1
 40
1.0
176
     1
  0
VISUALSTYLE
  5
7C89
102
{ACAD_REACTORS
330
7C84
102
}
330
7C84
100
AcDbVisualStyle
  2
Basic
 70
     7
177
     3
291
     1
 70
    58
 90
        1
176
     1
 90
        0
176
     1
 90
        1
176
     1
 90
        0
176
     1
 40
0.6
176
     1
 40
30.0
176
     1
 62
     7
176
     1
 90
        0
176
     1
 90
        4
176
     1
 62
     7
176
     1
 62
   257
176
     1
 90
        1
176
     1
 90
        1
176
     1
 40
1.0
176
     1
 90
        8
176
     1
 62
     7
176
     1
 40
1.0
176
     1
 90
        1
176
     1
 90
        6
176
     1
 90
        2
176
     1
 62
     7
176
     1
 90
        5
176
     1
 90
        0
176
     1
 90
        0
176
     1
290
     0
176
     1
 90
        1
176
     1
 40
0.0
176
     1
 90
        0
176
     1
290
     0
176
     1
290
     1
176
     1
290
     1
176
     1
290
     0
176
     1
290
     0
176
     1
290
     0
176
     1
290
     0
176
     1
290
     0
176
     1
290
     0
176
     1
 90
       50
176
     1
 40
0.0
176
     1
 40
1.0
176
     1
 90
        0
176
     1
 62
    18
420
        0
176
     1
 90
       50
176
     1
 90
        3
176
     1
 62
     5
420
      255
176
     1
290
     0
176
     1
 90
       50
176
     1
 90
       50
176
     1
 90
       50
176
     1
290
     0
176
     1
 90
       50
176
     1
 62
   256
176
     0
 40
1.0
176
     0
 90
        2
176
     1
  1
strokes_ogs.tif
176
     1
290
     0
176
     1
 40
1.0
176
     1
 40
1.0
176
     1
  0
VISUALSTYLE
  5
7C90
102
{ACAD_REACTORS
330
7C84
102
}
330
7C84
100
AcDbVisualStyle
  2
Brighten
 70
    12
177
     3
291
     1
 70
    58
 90
        2
176
     1
 90
        2
176
     1
 90
        0
176
     1
 90
        0
176
     1
 40
0.6
176
     1
 40
30.0
176
     1
 62
     7
176
     1
 90
        1
176
     1
 90
        4
176
     1
 62
     7
176
     1
 62
   257
176
     1
 90
        1
176
     1
 90
        1
176
     1
 40
1.0
176
     1
 90
        8
176
     1
 62
     7
176
     1
 40
1.0
176
     1
 90
        1
176
     1
 90
        6
176
     1
 90
        2
176
     1
 62
     7
176
     1
 90
        5
176
     1
 90
        0
176
     1
 90
        0
176
     1
290
     0
176
     1
 90
        1
176
     1
 40
50.0
176
     1
 90
        0
176
     1
290
     0
176
     1
290
     1
176
     1
290
     1
176
     1
290
     0
176
     1
290
     0
176
     1
290
     0
176
     1
290
     0
176
     1
290
     0
176
     1
290
     0
176
     1
 90
       50
176
     1
 40
0.0
176
     1
 40
1.0
176
     1
 90
        0
176
     1
 62
    18
420
        0
176
     1
 90
       50
176
     1
 90
        3
176
     1
 62
     5
420
      255
176
     1
290
     0
176
     1
 90
       50
176
     1
 90
       50
176
     1
 90
       50
176
     1
290
     0
176
     1
 90
       50
176
     1
 62
   256
176
     0
 40
1.0
176
     0
 90
        2
176
     1
  1
strokes_ogs.tif
176
     1
290
     0
176
     1
 40
1.0
176
     1
 40
1.0
176
     1
  0
VISUALSTYLE
  5
7C94
102
{ACAD_REACTORS
330
7C84
102
}
330
7C84
100
AcDbVisualStyle
  2
ColorChange
 70
    16
177
     3
291
     1
 70
    58
 90
        2
176
     1
 90
        2
176
     1
 90
        3
176
     1
 90
        0
176
     1
 40
0.6
176
     1
 40
30.0
176
     1
 62
     8
176
     1
 90
        1
176
     1
 90
        4
176
     1
 62
     7
176
     1
 62
   257
176
     1
 90
        1
176
     1
 90
        1
176
     1
 40
1.0
176
     1
 90
        8
176
     1
 62
     8
176
     1
 40
1.0
176
     1
 90
        1
176
     1
 90
        6
176
     1
 90
        2
176
     1
 62
     7
176
     1
 90
        5
176
     1
 90
        0
176
     1
 90
        0
176
     1
290
     0
176
     1
 90
        1
176
     1
 40
0.0
176
     1
 90
        0
176
     1
290
     0
176
     1
290
     1
176
     1
290
     1
176
     1
290
     0
176
     1
290
     0
176
     1
290
     0
176
     1
290
     0
176
     1
290
     0
176
     1
290
     0
176
     1
 90
       50
176
     1
 40
0.0
176
     1
 40
1.0
176
     1
 90
        0
176
     1
 62
    18
420
        0
176
     1
 90
       50
176
     1
 90
        3
176
     1
 62
     5
420
      255
176
     1
290
     0
176
     1
 90
       50
176
     1
 90
       50
176
     1
 90
       50
176
     1
290
     0
176
     1
 90
       50
176
     1
 62
   256
176
     0
 40
1.0
176
     0
 90
        2
176
     1
  1
strokes_ogs.tif
176
     1
290
     0
176
     1
 40
1.0
176
     1
 40
1.0
176
     1
  0
VISUALSTYLE
  5
7C8D
102
{ACAD_REACTORS
330
7C84
102
}
330
7C84
100
AcDbVisualStyle
  2
Conceptual
 70
     9
177
     3
291
     0
 70
    58
 90
        3
176
     1
 90
        2
176
     1
 90
        0
176
     1
 90
        0
176
     1
 40
0.6
176
     1
 40
30.0
176
     1
 62
     7
176
     1
 90
        2
176
     1
 90
        2
176
     1
 62
     7
176
     1
 62
   257
176
     1
 90
        1
176
     1
 90
        1
176
     1
 40
179.0
176
     1
 90
        8
176
     1
 62
     7
176
     1
 40
1.0
176
     1
 90
        1
176
     1
 90
        6
176
     1
 90
        2
176
     1
 62
     7
176
     1
 90
        3
176
     1
 90
        0
176
     1
 90
        0
176
     1
290
     0
176
     1
 90
        1
176
     1
 40
0.0
176
     1
 90
        0
176
     1
290
     0
176
     1
290
     1
176
     1
290
     1
176
     1
290
     0
176
     1
290
     0
176
     1
290
     0
176
     1
290
     0
176
     1
290
     0
176
     1
290
     0
176
     1
 90
       50
176
     1
 40
0.0
176
     1
 40
1.0
176
     1
 90
        0
176
     1
 62
    18
420
        0
176
     1
 90
       50
176
     1
 90
        3
176
     1
 62
     5
420
      255
176
     1
290
     0
176
     1
 90
       50
176
     1
 90
       50
176
     1
 90
       50
176
     1
290
     0
176
     1
 90
       50
176
     1
 62
   256
176
     0
 40
1.0
176
     0
 90
        2
176
     1
  1
strokes_ogs.tif
176
     1
290
     0
176
     1
 40
1.0
176
     1
 40
1.0
176
     1
  0
VISUALSTYLE
  5
7C8F
102
{ACAD_REACTORS
330
7C84
102
}
330
7C84
100
AcDbVisualStyle
  2
Dim
 70
    11
177
     3
291
     1
 70
    58
 90
        2
176
     1
 90
        2
176
     1
 90
        0
176
     1
 90
        0
176
     1
 40
0.6
176
     1
 40
30.0
176
     1
 62
     7
176
     1
 90
        1
176
     1
 90
        4
176
     1
 62
     7
176
     1
 62
   257
176
     1
 90
        1
176
     1
 90
        1
176
     1
 40
1.0
176
     1
 90
        8
176
     1
 62
     7
176
     1
 40
1.0
176
     1
 90
        1
176
     1
 90
        6
176
     1
 90
        2
176
     1
 62
     7
176
     1
 90
        5
176
     1
 90
        0
176
     1
 90
        0
176
     1
290
     0
176
     1
 90
        1
176
     1
 40
-50.0
176
     1
 90
        0
176
     1
290
     0
176
     1
290
     1
176
     1
290
     1
176
     1
290
     0
176
     1
290
     0
176
     1
290
     0
176
     1
290
     0
176
     1
290
     0
176
     1
290
     0
176
     1
 90
       50
176
     1
 40
0.0
176
     1
 40
1.0
176
     1
 90
        0
176
     1
 62
    18
420
        0
176
     1
 90
       50
176
     1
 90
        3
176
     1
 62
     5
420
      255
176
     1
290
     0
176
     1
 90
       50
176
     1
 90
       50
176
     1
 90
       50
176
     1
290
     0
176
     1
 90
       50
176
     1
 62
   256
176
     0
 40
1.0
176
     0
 90
        2
176
     1
  1
strokes_ogs.tif
176
     1
290
     0
176
     1
 40
1.0
176
     1
 40
1.0
176
     1
  0
VISUALSTYLE
  5
7C9C
102
{ACAD_REACTORS
330
7C84
102
}
330
7C84
100
AcDbVisualStyle
  2
EdgeColorOff
 70
    22
177
     3
291
     1
 70
    58
 90
        2
176
     0
 90
        2
176
     0
 90
        0
176
     0
 90
        0
176
     0
 40
0.6
176
     0
 40
30.0
176
     0
 62
     7
176
     0
 90
        1
176
     0
 90
        4
176
     0
 62
     7
176
     0
 62
   257
176
     0
 90
        1
176
     0
 90
        1
176
     0
 40
1.0
176
     0
 90
        8
176
     2
 62
     7
176
     0
 40
1.0
176
     0
 90
        1
176
     0
 90
        6
176
     0
 90
        2
176
     0
 62
     7
176
     0
 90
        5
176
     0
 90
        0
176
     0
 90
        0
176
     0
290
     0
176
     0
 90
        1
176
     0
 40
0.0
176
     0
 90
        0
176
     0
290
     0
176
     1
290
     1
176
     1
290
     1
176
     1
290
     0
176
     1
290
     0
176
     1
290
     0
176
     1
290
     0
176
     1
290
     0
176
     1
290
     0
176
     1
 90
       50
176
     0
 40
0.0
176
     0
 40
1.0
176
     0
 90
        0
176
     0
 62
    18
420
        0
176
     0
 90
       50
176
     0
 90
        3
176
     0
 62
     5
420
      255
176
     0
290
     0
176
     1
 90
       50
176
     0
 90
       50
176
     0
 90
       50
176
     0
290
     0
176
     1
 90
       50
176
     0
 62
   256
176
     0
 40
1.0
176
     0
 90
        2
176
     0
  1
strokes_ogs.tif
176
     0
290
     0
176
     1
 40
1.0
176
     0
 40
1.0
176
     0
  0
VISUALSTYLE
  5
7C93
102
{ACAD_REACTORS
330
7C84
102
}
330
7C84
100
AcDbVisualStyle
  2
Facepattern
 70
    15
177
     3
291
     1
 70
    58
 90
        2
176
     1
 90
        2
176
     1
 90
        0
176
     1
 90
        0
176
     1
 40
0.6
176
     1
 40
30.0
176
     1
 62
     7
176
     1
 90
        1
176
     1
 90
        4
176
     1
 62
     7
176
     1
 62
   257
176
     1
 90
        1
176
     1
 90
        1
176
     1
 40
1.0
176
     1
 90
        8
176
     1
 62
     7
176
     1
 40
1.0
176
     1
 90
        1
176
     1
 90
        6
176
     1
 90
        2
176
     1
 62
     7
176
     1
 90
        5
176
     1
 90
        0
176
     1
 90
        0
176
     1
290
     0
176
     1
 90
        1
176
     1
 40
0.0
176
     1
 90
        0
176
     1
290
     0
176
     1
290
     1
176
     1
290
     1
176
     1
290
     0
176
     1
290
     0
176
     1
290
     0
176
     1
290
     0
176
     1
290
     0
176
     1
290
     0
176
     1
 90
       50
176
     1
 40
0.0
176
     1
 40
1.0
176
     1
 90
        0
176
     1
 62
    18
420
        0
176
     1
 90
       50
176
     1
 90
        3
176
     1
 62
     5
420
      255
176
     1
290
     0
176
     1
 90
       50
176
     1
 90
       50
176
     1
 90
       50
176
     1
290
     0
176
     1
 90
       50
176
     1
 62
   256
176
     0
 40
1.0
176
     0
 90
        2
176
     1
  1
strokes_ogs.tif
176
     1
290
     0
176
     1
 40
1.0
176
     1
 40
1.0
176
     1
  0
VISUALSTYLE
  5
7C85
102
{ACAD_REACTORS
330
7C84
102
}
330
7C84
100
AcDbVisualStyle
  2
Flat
 70
     0
177
     3
291
     1
 70
    58
 90
        2
176
     1
 90
        1
176
     1
 90
        1
176
     1
 90
        2
176
     1
 40
0.6
176
     1
 40
30.0
176
     1
 62
     7
176
     1
 90
        0
176
     1
 90
        0
176
     1
 62
     7
176
     1
 62
   257
176
     1
 90
        1
176
     1
 90
        1
176
     1
 40
1.0
176
     1
 90
        8
176
     1
 62
     7
176
     1
 40
1.0
176
     1
 90
        1
176
     1
 90
        6
176
     1
 90
        2
176
     1
 62
     7
176
     1
 90
        5
176
     1
 90
        0
176
     1
 90
        0
176
     1
290
     0
176
     1
 90
       13
176
     1
 40
0.0
176
     1
 90
        0
176
     1
290
     0
176
     1
290
     1
176
     1
290
     1
176
     1
290
     0
176
     1
290
     0
176
     1
290
     0
176
     1
290
     0
176
     1
290
     0
176
     1
290
     0
176
     1
 90
       50
176
     1
 40
0.0
176
     1
 40
1.0
176
     1
 90
        0
176
     1
 62
    18
420
        0
176
     1
 90
       50
176
     1
 90
        3
176
     1
 62
     5
420
      255
176
     1
290
     0
176
     1
 90
       50
176
     1
 90
       50
176
     1
 90
       50
176
     1
290
     0
176
     1
 90
       50
176
     1
 62
   256
176
     0
 40
1.0
176
     0
 90
        2
176
     1
  1
strokes_ogs.tif
176
     1
290
     0
176
     1
 40
1.0
176
     1
 40
1.0
176
     1
  0
VISUALSTYLE
  5
7C86
102
{ACAD_REACTORS
330
7C84
102
}
330
7C84
100
AcDbVisualStyle
  2
FlatWithEdges
 70
     1
177
     3
291
     1
 70
    58
 90
        2
176
     1
 90
        1
176
     1
 90
        1
176
     1
 90
        2
176
     1
 40
0.6
176
     1
 40
30.0
176
     1
 62
     7
176
     1
 90
        1
176
     1
 90
        0
176
     1
 62
     7
176
     1
 62
   257
176
     1
 90
        1
176
     1
 90
        1
176
     1
 40
1.0
176
     1
 90
        0
176
     1
 62
   257
176
     1
 40
1.0
176
     1
 90
        1
176
     1
 90
        6
176
     1
 90
        2
176
     1
 62
     7
176
     1
 90
        5
176
     1
 90
        0
176
     1
 90
        0
176
     1
290
     0
176
     1
 90
       13
176
     1
 40
0.0
176
     1
 90
        0
176
     1
290
     0
176
     1
290
     1
176
     1
290
     1
176
     1
290
     0
176
     1
290
     0
176
     1
290
     0
176
     1
290
     0
176
     1
290
     0
176
     1
290
     0
176
     1
 90
       50
176
     1
 40
0.0
176
     1
 40
1.0
176
     1
 90
        0
176
     1
 62
    18
420
        0
176
     1
 90
       50
176
     1
 90
        3
176
     1
 62
     5
420
      255
176
     1
290
     0
176
     1
 90
       50
176
     1
 90
       50
176
     1
 90
       50
176
     1
290
     0
176
     1
 90
       50
176
     1
 62
   256
176
     0
 40
1.0
176
     0
 90
        2
176
     1
  1
strokes_ogs.tif
176
     1
290
     0
176
     1
 40
1.0
176
     1
 40
1.0
176
     1
  0
VISUALSTYLE
  5
7C87
102
{ACAD_REACTORS
330
7C84
102
}
330
7C84
100
AcDbVisualStyle
  2
Gouraud
 70
     2
177
     3
291
     1
 70
    58
 90
        2
176
     1
 90
        2
176
     1
 90
        1
176
     1
 90
        2
176
     1
 40
0.6
176
     1
 40
30.0
176
     1
 62
     7
176
     1
 90
        0
176
     1
 90
        0
176
     1
 62
     7
176
     1
 62
   257
176
     1
 90
        1
176
     1
 90
        1
176
     1
 40
1.0
176
     1
 90
        0
176
     1
 62
     7
176
     1
 40
1.0
176
     1
 90
        1
176
     1
 90
        6
176
     1
 90
        2
176
     1
 62
     7
176
     1
 90
        5
176
     1
 90
        0
176
     1
 90
        0
176
     1
290
     0
176
     1
 90
       13
176
     1
 40
0.0
176
     1
 90
        0
176
     1
290
     0
176
     1
290
     1
176
     1
290
     1
176
     1
290
     0
176
     1
290
     0
176
     1
290
     0
176
     1
290
     0
176
     1
290
     0
176
     1
290
     0
176
     1
 90
       50
176
     1
 40
0.0
176
     1
 40
1.0
176
     1
 90
        0
176
     1
 62
    18
420
        0
176
     1
 90
       50
176
     1
 90
        3
176
     1
 62
     5
420
      255
176
     1
290
     0
176
     1
 90
       50
176
     1
 90
       50
176
     1
 90
       50
176
     1
290
     0
176
     1
 90
       50
176
     1
 62
   256
176
     0
 40
1.0
176
     0
 90
        2
176
     1
  1
strokes_ogs.tif
176
     1
290
     0
176
     1
 40
1.0
176
     1
 40
1.0
176
     1
  0
VISUALSTYLE
  5
7C88
102
{ACAD_REACTORS
330
7C84
102
}
330
7C84
100
AcDbVisualStyle
  2
GouraudWithEdges
 70
     3
177
     3
291
     1
 70
    58
 90
        2
176
     1
 90
        2
176
     1
 90
        1
176
     1
 90
        2
176
     1
 40
0.6
176
     1
 40
30.0
176
     1
 62
     7
176
     1
 90
        1
176
     1
 90
        0
176
     1
 62
     7
176
     1
 62
   257
176
     1
 90
        1
176
     1
 90
        1
176
     1
 40
1.0
176
     1
 90
        0
176
     1
 62
   257
176
     1
 40
1.0
176
     1
 90
        1
176
     1
 90
        6
176
     1
 90
        2
176
     1
 62
     7
176
     1
 90
        5
176
     1
 90
        0
176
     1
 90
        0
176
     1
290
     0
176
     1
 90
       13
176
     1
 40
0.0
176
     1
 90
        0
176
     1
290
     0
176
     1
290
     1
176
     1
290
     1
176
     1
290
     0
176
     1
290
     0
176
     1
290
     0
176
     1
290
     0
176
     1
290
     0
176
     1
290
     0
176
     1
 90
       50
176
     1
 40
0.0
176
     1
 40
1.0
176
     1
 90
        0
176
     1
 62
    18
420
        0
176
     1
 90
       50
176
     1
 90
        3
176
     1
 62
     5
420
      255
176
     1
290
     0
176
     1
 90
       50
176
     1
 90
       50
176
     1
 90
       50
176
     1
290
     0
176
     1
 90
       50
176
     1
 62
   256
176
     0
 40
1.0
176
     0
 90
        2
176
     1
  1
strokes_ogs.tif
176
     1
290
     0
176
     1
 40
1.0
176
     1
 40
1.0
176
     1
  0
VISUALSTYLE
  5
7C8C
102
{ACAD_REACTORS
330
7C84
102
}
330
7C84
100
AcDbVisualStyle
  2
Hidden
 70
     6
177
     3
291
     0
 70
    58
 90
        1
176
     1
 90
        2
176
     1
 90
        2
176
     1
 90
        0
176
     1
 40
0.6
176
     1
 40
30.0
176
     1
 62
     7
176
     1
 90
        2
176
     1
 90
        2
176
     1
 62
     7
176
     1
 62
   257
176
     1
 90
        2
176
     1
 90
        1
176
     1
 40
40.0
176
     1
 90
        0
176
     1
 62
   257
176
     1
 40
1.0
176
     1
 90
        1
176
     1
 90
        6
176
     1
 90
        2
176
     1
 62
     7
176
     1
 90
        3
176
     1
 90
        0
176
     1
 90
        0
176
     1
290
     0
176
     1
 90
        1
176
     1
 40
0.0
176
     1
 90
        0
176
     1
290
     0
176
     1
290
     1
176
     1
290
     1
176
     1
290
     0
176
     1
290
     0
176
     1
290
     0
176
     1
290
     0
176
     1
290
     0
176
     1
290
     0
176
     1
 90
       50
176
     1
 40
0.0
176
     1
 40
1.0
176
     1
 90
        0
176
     1
 62
    18
420
        0
176
     1
 90
       50
176
     1
 90
        3
176
     1
 62
     5
420
      255
176
     1
290
     0
176
     1
 90
       50
176
     1
 90
       50
176
     1
 90
       50
176
     1
290
     0
176
     1
 90
       50
176
     1
 62
   256
176
     0
 40
1.0
176
     0
 90
        2
176
     1
  1
strokes_ogs.tif
176
     1
290
     0
176
     1
 40
1.0
176
     1
 40
1.0
176
     1
  0
VISUALSTYLE
  5
7C9A
102
{ACAD_REACTORS
330
7C84
102
}
330
7C84
100
AcDbVisualStyle
  2
JitterOff
 70
    20
177
     3
291
     1
 70
    58
 90
        2
176
     0
 90
        2
176
     0
 90
        0
176
     0
 90
        0
176
     0
 40
0.6
176
     0
 40
30.0
176
     0
 62
     7
176
     0
 90
        1
176
     0
 90
        4
176
     0
 62
     7
176
     0
 62
   257
176
     0
 90
        1
176
     0
 90
        1
176
     0
 40
1.0
176
     0
 90
       10
176
     2
 62
     7
176
     0
 40
1.0
176
     0
 90
        1
176
     0
 90
        6
176
     0
 90
        2
176
     0
 62
     7
176
     0
 90
        5
176
     0
 90
        0
176
     0
 90
        0
176
     0
290
     0
176
     0
 90
        1
176
     0
 40
0.0
176
     0
 90
        0
176
     0
290
     0
176
     1
290
     1
176
     1
290
     1
176
     1
290
     0
176
     1
290
     0
176
     1
290
     0
176
     1
290
     0
176
     1
290
     0
176
     1
290
     0
176
     1
 90
       50
176
     0
 40
0.0
176
     0
 40
1.0
176
     0
 90
        0
176
     0
 62
    18
420
        0
176
     0
 90
       50
176
     0
 90
        3
176
     0
 62
     5
420
      255
176
     0
290
     0
176
     1
 90
       50
176
     0
 90
       50
176
     0
 90
       50
176
     0
290
     0
176
     1
 90
       50
176
     0
 62
   256
176
     0
 40
1.0
176
     0
 90
        2
176
     0
  1
strokes_ogs.tif
176
     0
290
     0
176
     1
 40
1.0
176
     0
 40
1.0
176
     0
  0
VISUALSTYLE
  5
7C92
102
{ACAD_REACTORS
330
7C84
102
}
330
7C84
100
AcDbVisualStyle
  2
Linepattern
 70
    14
177
     3
291
     1
 70
    58
 90
        2
176
     1
 90
        2
176
     1
 90
        0
176
     1
 90
        0
176
     1
 40
0.6
176
     1
 40
30.0
176
     1
 62
     7
176
     1
 90
        1
176
     1
 90
        4
176
     1
 62
     7
176
     1
 62
   257
176
     1
 90
        7
176
     1
 90
        7
176
     1
 40
1.0
176
     1
 90
        8
176
     1
 62
     7
176
     1
 40
1.0
176
     1
 90
        1
176
     1
 90
        6
176
     1
 90
        2
176
     1
 62
     7
176
     1
 90
        5
176
     1
 90
        0
176
     1
 90
        0
176
     1
290
     0
176
     1
 90
        1
176
     1
 40
0.0
176
     1
 90
        0
176
     1
290
     0
176
     1
290
     1
176
     1
290
     1
176
     1
290
     0
176
     1
290
     0
176
     1
290
     0
176
     1
290
     0
176
     1
290
     0
176
     1
290
     0
176
     1
 90
       50
176
     1
 40
0.0
176
     1
 40
1.0
176
     1
 90
        0
176
     1
 62
    18
420
        0
176
     1
 90
       50
176
     1
 90
        3
176
     1
 62
     5
420
      255
176
     1
290
     0
176
     1
 90
       50
176
     1
 90
       50
176
     1
 90
       50
176
     1
290
     0
176
     1
 90
       50
176
     1
 62
   256
176
     0
 40
1.0
176
     0
 90
        2
176
     1
  1
strokes_ogs.tif
176
     1
290
     0
176
     1
 40
1.0
176
     1
 40
1.0
176
     1
  0
VISUALSTYLE
  5
7C9B
102
{ACAD_REACTORS
330
7C84
102
}
330
7C84
100
AcDbVisualStyle
  2
OverhangOff
 70
    21
177
     3
291
     1
 70
    58
 90
        2
176
     0
 90
        2
176
     0
 90
        0
176
     0
 90
        0
176
     0
 40
0.6
176
     0
 40
30.0
176
     0
 62
     7
176
     0
 90
        1
176
     0
 90
        4
176
     0
 62
     7
176
     0
 62
   257
176
     0
 90
        1
176
     0
 90
        1
176
     0
 40
1.0
176
     0
 90
        9
176
     2
 62
     7
176
     0
 40
1.0
176
     0
 90
        1
176
     0
 90
        6
176
     0
 90
        2
176
     0
 62
     7
176
     0
 90
        5
176
     0
 90
        0
176
     0
 90
        0
176
     0
290
     0
176
     0
 90
        1
176
     0
 40
0.0
176
     0
 90
        0
176
     0
290
     0
176
     1
290
     1
176
     1
290
     1
176
     1
290
     0
176
     1
290
     0
176
     1
290
     0
176
     1
290
     0
176
     1
290
     0
176
     1
290
     0
176
     1
 90
       50
176
     0
 40
0.0
176
     0
 40
1.0
176
     0
 90
        0
176
     0
 62
    18
420
        0
176
     0
 90
       50
176
     0
 90
        3
176
     0
 62
     5
420
      255
176
     0
290
     0
176
     1
 90
       50
176
     0
 90
       50
176
     0
 90
       50
176
     0
290
     0
176
     1
 90
       50
176
     0
 62
   256
176
     0
 40
1.0
176
     0
 90
        2
176
     0
  1
strokes_ogs.tif
176
     0
290
     0
176
     1
 40
1.0
176
     0
 40
1.0
176
     0
  0
VISUALSTYLE
  5
7C8E
102
{ACAD_REACTORS
330
7C84
102
}
330
7C84
100
AcDbVisualStyle
  2
Realistic
 70
     8
177
     3
291
     0
 70
    58
 90
        2
176
     1
 90
        2
176
     1
 90
        0
176
     1
 90
        2
176
     1
 40
0.6
176
     1
 40
30.0
176
     1
 62
     7
176
     1
 90
        0
176
     1
 90
        0
176
     1
 62
     7
176
     1
 62
   257
176
     1
 90
        1
176
     1
 90
        1
176
     1
 40
1.0
176
     1
 90
        8
176
     1
 62
   257
176
     1
 40
1.0
176
     1
 90
        1
176
     1
 90
        6
176
     1
 90
        2
176
     1
 62
     7
176
     1
 90
        3
176
     1
 90
        0
176
     1
 90
        0
176
     1
290
     0
176
     1
 90
       13
176
     1
 40
0.0
176
     1
 90
        0
176
     1
290
     0
176
     1
290
     1
176
     1
290
     1
176
     1
290
     0
176
     1
290
     0
176
     1
290
     0
176
     1
290
     0
176
     1
290
     0
176
     1
290
     0
176
     1
 90
       50
176
     1
 40
0.0
176
     1
 40
1.0
176
     1
 90
        0
176
     1
 62
    18
420
        0
176
     1
 90
       50
176
     1
 90
        3
176
     1
 62
     5
420
      255
176
     1
290
     0
176
     1
 90
       50
176
     1
 90
       50
176
     1
 90
       50
176
     1
290
     0
176
     1
 90
       50
176
     1
 62
   256
176
     0
 40
1.0
176
     0
 90
        2
176
     1
  1
strokes_ogs.tif
176
     1
290
     0
176
     1
 40
1.0
176
     1
 40
1.0
176
     1
  0
VISUALSTYLE
  5
7C99
102
{ACAD_REACTORS
330
7C84
102
}
330
7C84
100
AcDbVisualStyle
  2
Shaded
 70
    27
177
     3
291
     0
 70
    58
 90
        2
176
     1
 90
        2
176
     1
 90
        1
176
     1
 90
        2
176
     1
 40
0.6
176
     1
 40
30.0
176
     1
 62
     7
176
     1
 90
        0
176
     1
 90
        4
176
     1
 62
     7
176
     1
 62
   257
176
     1
 90
        1
176
     1
 90
        1
176
     1
 40
1.0
176
     1
 90
        8
176
     1
 62
   257
176
     1
 40
1.0
176
     1
 90
        1
176
     1
 90
        6
176
     1
 90
        2
176
     1
 62
     8
176
     1
 90
        3
176
     1
 90
        0
176
     1
 90
        0
176
     1
290
     0
176
     1
 90
        5
176
     1
 40
0.0
176
     1
 90
        0
176
     1
290
     0
176
     1
290
     1
176
     1
290
     1
176
     1
290
     0
176
     1
290
     0
176
     1
290
     0
176
     1
290
     0
176
     1
290
     0
176
     1
290
     0
176
     1
 90
       50
176
     1
 40
0.0
176
     1
 40
1.0
176
     1
 90
        0
176
     1
 62
    18
420
        0
176
     1
 90
       50
176
     1
 90
        3
176
     1
 62
     5
420
      255
176
     1
290
     0
176
     1
 90
       50
176
     1
 90
       50
176
     1
 90
       50
176
     1
290
     0
176
     1
 90
       50
176
     1
 62
   256
176
     0
 40
1.0
176
     0
 90
        2
176
     1
  1
strokes_ogs.tif
176
     1
290
     0
176
     1
 40
1.0
176
     1
 40
1.0
176
     1
  0
VISUALSTYLE
  5
7C98
102
{ACAD_REACTORS
330
7C84
102
}
330
7C84
100
AcDbVisualStyle
  2
Shaded with edges
 70
    26
177
     3
291
     0
 70
    58
 90
        2
176
     1
 90
        2
176
     1
 90
        1
176
     1
 90
        2
176
     1
 40
0.6
176
     1
 40
30.0
176
     1
 62
     7
176
     1
 90
        1
176
     1
 90
        2
176
     1
 62
     7
176
     1
 62
   257
176
     1
 90
        2
176
     1
 90
        1
176
     1
 40
1.0
176
     1
 90
        8
176
     1
 62
   257
176
     1
 40
1.0
176
     1
 90
        1
176
     1
 90
        6
176
     1
 90
        2
176
     1
 62
     7
176
     1
 90
        3
176
     1
 90
        0
176
     1
 90
        0
176
     1
290
     0
176
     1
 90
        5
176
     1
 40
0.0
176
     1
 90
        0
176
     1
290
     0
176
     1
290
     1
176
     1
290
     1
176
     1
290
     0
176
     1
290
     0
176
     1
290
     0
176
     1
290
     0
176
     1
290
     0
176
     1
290
     0
176
     1
 90
       50
176
     1
 40
0.0
176
     1
 40
1.0
176
     1
 90
        0
176
     1
 62
    18
420
        0
176
     1
 90
       50
176
     1
 90
        3
176
     1
 62
     5
420
      255
176
     1
290
     0
176
     1
 90
       50
176
     1
 90
       50
176
     1
 90
       50
176
     1
290
     0
176
     1
 90
       50
176
     1
 62
   256
176
     0
 40
1.0
176
     0
 90
        2
176
     1
  1
strokes_ogs.tif
176
     1
290
     0
176
     1
 40
1.0
176
     1
 40
1.0
176
     1
  0
VISUALSTYLE
  5
7C95
102
{ACAD_REACTORS
330
7C84
102
}
330
7C84
100
AcDbVisualStyle
  2
Shades of Gray
 70
    23
177
     3
291
     0
 70
    58
 90
        2
176
     1
 90
        2
176
     1
 90
        3
176
     1
 90
        0
176
     1
 40
0.6
176
     1
 40
30.0
176
     1
 62
     7
176
     1
 90
        2
176
     1
 90
        2
176
     1
 62
     7
176
     1
 62
     7
176
     1
 90
        1
176
     1
 90
        1
176
     1
 40
40.0
176
     1
 90
        8
176
     1
 62
     7
176
     1
 40
1.0
176
     1
 90
        1
176
     1
 90
        6
176
     1
 90
        2
176
     1
 62
     7
176
     1
 90
        3
176
     1
 90
        0
176
     1
 90
        0
176
     1
290
     0
176
     1
 90
        1
176
     1
 40
0.0
176
     1
 90
        0
176
     1
290
     0
176
     1
290
     1
176
     1
290
     1
176
     1
290
     0
176
     1
290
     0
176
     1
290
     0
176
     1
290
     0
176
     1
290
     0
176
     1
290
     0
176
     1
 90
       50
176
     1
 40
0.0
176
     1
 40
1.0
176
     1
 90
        0
176
     1
 62
    18
420
        0
176
     1
 90
       50
176
     1
 90
        3
176
     1
 62
     5
420
      255
176
     1
290
     0
176
     1
 90
       50
176
     1
 90
       50
176
     1
 90
       50
176
     1
290
     0
176
     1
 90
       50
176
     1
 62
   256
176
     0
 40
1.0
176
     0
 90
        2
176
     1
  1
strokes_ogs.tif
176
     1
290
     0
176
     1
 40
1.0
176
     1
 40
1.0
176
     1
  0
VISUALSTYLE
  5
7C96
102
{ACAD_REACTORS
330
7C84
102
}
330
7C84
100
AcDbVisualStyle
  2
Sketchy
 70
    24
177
     3
291
     0
 70
    58
 90
        1
176
     1
 90
        2
176
     1
 90
        2
176
     1
 90
        0
176
     1
 40
0.6
176
     1
 40
30.0
176
     1
 62
     7
176
     1
 90
        2
176
     1
 90
        2
176
     1
 62
     7
176
     1
 62
     7
176
     1
 90
        1
176
     1
 90
        1
176
     1
 40
40.0
176
     1
 90
       11
176
     1
 62
     7
176
     1
 40
1.0
176
     1
 90
        1
176
     1
 90
        6
176
     1
 90
        2
176
     1
 62
     7
176
     1
 90
        6
176
     1
 90
        0
176
     1
 90
        0
176
     1
290
     0
176
     1
 90
        1
176
     1
 40
0.0
176
     1
 90
        0
176
     1
290
     0
176
     1
290
     1
176
     1
290
     1
176
     1
290
     0
176
     1
290
     0
176
     1
290
     0
176
     1
290
     0
176
     1
290
     0
176
     1
290
     0
176
     1
 90
       50
176
     1
 40
0.0
176
     1
 40
1.0
176
     1
 90
        0
176
     1
 62
    18
420
        0
176
     1
 90
       50
176
     1
 90
        3
176
     1
 62
     5
420
      255
176
     1
290
     0
176
     1
 90
       50
176
     1
 90
       50
176
     1
 90
       50
176
     1
290
     0
176
     1
 90
       50
176
     1
 62
   256
176
     0
 40
1.0
176
     0
 90
        2
176
     1
  1
strokes_ogs.tif
176
     1
290
     0
176
     1
 40
1.0
176
     1
 40
1.0
176
     1
  0
VISUALSTYLE
  5
7C91
102
{ACAD_REACTORS
330
7C84
102
}
330
7C84
100
AcDbVisualStyle
  2
Thicken
 70
    13
177
     3
291
     1
 70
    58
 90
        2
176
     1
 90
        2
176
     1
 90
        0
176
     1
 90
        0
176
     1
 40
0.6
176
     1
 40
30.0
176
     1
 62
     7
176
     1
 90
        1
176
     1
 90
        4
176
     1
 62
     7
176
     1
 62
   257
176
     1
 90
        1
176
     1
 90
        1
176
     1
 40
1.0
176
     1
 90
       12
176
     1
 62
     7
176
     1
 40
1.0
176
     1
 90
        1
176
     1
 90
        6
176
     1
 90
        2
176
     1
 62
     7
176
     1
 90
        5
176
     1
 90
        0
176
     1
 90
        0
176
     1
290
     0
176
     1
 90
        1
176
     1
 40
0.0
176
     1
 90
        0
176
     1
290
     0
176
     1
290
     1
176
     1
290
     1
176
     1
290
     0
176
     1
290
     0
176
     1
290
     0
176
     1
290
     0
176
     1
290
     0
176
     1
290
     0
176
     1
 90
       50
176
     1
 40
0.0
176
     1
 40
1.0
176
     1
 90
        0
176
     1
 62
    18
420
        0
176
     1
 90
       50
176
     1
 90
        3
176
     1
 62
     5
420
      255
176
     1
290
     0
176
     1
 90
       50
176
     1
 90
       50
176
     1
 90
       50
176
     1
290
     0
176
     1
 90
       50
176
     1
 62
   256
176
     0
 40
1.0
176
     0
 90
        2
176
     1
  1
strokes_ogs.tif
176
     1
290
     0
176
     1
 40
1.0
176
     1
 40
1.0
176
     1
  0
VISUALSTYLE
  5
7C8B
102
{ACAD_REACTORS
330
7C84
102
}
330
7C84
100
AcDbVisualStyle
  2
Wireframe
 70
     5
177
     3
291
     0
 70
    58
 90
        0
176
     1
 90
        2
176
     1
 90
        0
176
     1
 90
        0
176
     1
 40
0.6
176
     1
 40
30.0
176
     1
 62
     7
176
     1
 90
        1
176
     1
 90
        4
176
     1
 62
     7
176
     1
 62
   257
176
     1
 90
        1
176
     1
 90
        1
176
     1
 40
1.0
176
     1
 90
        0
176
     1
 62
   257
176
     1
 40
1.0
176
     1
 90
        1
176
     1
 90
        6
176
     1
 90
        2
176
     1
 62
     7
176
     1
 90
        3
176
     1
 90
        0
176
     1
 90
        0
176
     1
290
     0
176
     1
 90
        1
176
     1
 40
0.0
176
     1
 90
        0
176
     1
290
     0
176
     1
290
     1
176
     1
290
     1
176
     1
290
     0
176
     1
290
     0
176
     1
290
     0
176
     1
290
     0
176
     1
290
     0
176
     1
290
     0
176
     1
 90
       50
176
     1
 40
0.0
176
     1
 40
1.0
176
     1
 90
        0
176
     1
 62
    18
420
        0
176
     1
 90
       50
176
     1
 90
        3
176
     1
 62
     5
420
      255
176
     1
290
     0
176
     1
 90
       50
176
     1
 90
       50
176
     1
 90
       50
176
     1
290
     0
176
     1
 90
       50
176
     1
 62
   256
176
     0
 40
1.0
176
     0
 90
        2
176
     1
  1
strokes_ogs.tif
176
     1
290
     0
176
     1
 40
1.0
176
     1
 40
1.0
176
     1
  0
VISUALSTYLE
  5
7C97
102
{ACAD_REACTORS
330
7C84
102
}
330
7C84
100
AcDbVisualStyle
  2
X-Ray
 70
    25
177
     3
291
     0
 70
    58
 90
        2
176
     1
 90
        2
176
     1
 90
        1
176
     1
 90
        1
176
     1
 40
0.5
176
     1
 40
30.0
176
     1
 62
     7
176
     1
 90
        1
176
     1
 90
        0
176
     1
 62
     7
176
     1
 62
   257
176
     1
 90
        1
176
     1
 90
        1
176
     1
 40
1.0
176
     1
 90
        8
176
     1
 62
     7
176
     1
 40
1.0
176
     1
 90
        1
176
     1
 90
        6
176
     1
 90
        2
176
     1
 62
     7
176
     1
 90
        3
176
     1
 90
        0
176
     1
 90
        0
176
     1
290
     0
176
     1
 90
       13
176
     1
 40
0.0
176
     1
 90
        0
176
     1
290
     0
176
     1
290
     1
176
     1
290
     1
176
     1
290
     0
176
     1
290
     0
176
     1
290
     0
176
     1
290
     0
176
     1
290
     0
176
     1
290
     0
176
     1
 90
       50
176
     1
 40
0.0
176
     1
 40
1.0
176
     1
 90
        0
176
     1
 62
    18
420
        0
176
     1
 90
       50
176
     1
 90
        3
176
     1
 62
     5
420
      255
176
     1
290
     0
176
     1
 90
       50
176
     1
 90
       50
176
     1
 90
       50
176
     1
290
     0
176
     1
 90
       50
176
     1
 62
   256
176
     0
 40
1.0
176
     0
 90
        2
176
     1
  1
strokes_ogs.tif
176
     1
290
     0
176
     1
 40
1.0
176
     1
 40
1.0
176
     1
  0
DICTIONARYVAR
  5
7CFF
102
{ACAD_REACTORS
330
7CFA
102
}
330
7CFA
100
DictionaryVariables
280
     0
  1
1:1
  0
DICTIONARYVAR
  5
7CFC
102
{ACAD_REACTORS
330
7CFA
102
}
330
7CFA
100
DictionaryVariables
280
     0
  1
STANDARD
  0
DICTIONARYVAR
  5
7CFB
102
{ACAD_REACTORS
330
7CFA
102
}
330
7CFA
100
DictionaryVariables
280
     0
  1
STANDARD
  0
DICTIONARYVAR
  5
7CFD
102
{ACAD_REACTORS
330
7CFA
102
}
330
7CFA
100
DictionaryVariables
280
     0
  1
Imperial24
  0
DICTIONARYVAR
  5
7CFE
102
{ACAD_REACTORS
330
7CFA
102
}
330
7CFA
100
DictionaryVariables
280
     0
  1
Imperial24
  0
DICTIONARYVAR
  5
7D02
102
{ACAD_REACTORS
330
7CFA
102
}
330
7CFA
100
DictionaryVariables
280
     0
  1
1
  0
DICTIONARYVAR
  5
7D01
102
{ACAD_REACTORS
330
7CFA
102
}
330
7CFA
100
DictionaryVariables
280
     0
  1
0
  0
DICTIONARYVAR
  5
7E1E
102
{ACAD_REACTORS
330
7CFA
102
}
330
7CFA
100
DictionaryVariables
280
     0
  1
1
  0
DICTIONARYVAR
  5
7E1F
102
{ACAD_REACTORS
330
7CFA
102
}
330
7CFA
100
DictionaryVariables
280
     0
  1
15
  0
DICTIONARYVAR
  5
7E1D
102
{ACAD_REACTORS
330
7CFA
102
}
330
7CFA
100
DictionaryVariables
280
     0
  1
0
  0
DICTIONARYVAR
  5
7E1C
102
{ACAD_REACTORS
330
7CFA
102
}
330
7CFA
100
DictionaryVariables
280
     0
  1
0
  0
DICTIONARYVAR
  5
7D00
102
{ACAD_REACTORS
330
7CFA
102
}
330
7CFA
100
DictionaryVariables
280
     0
  1
127
  0
DICTIONARY
  5
7C75
330
7C74
100
AcDbDictionary
280
     1
281
     1
  3
BUMPTILE
360
7C77
  3
DIFFUSETILE
360
7C76
  3
OPACITYTILE
360
7C7A
  3
REFLECTIONTILE
360
7C79
  3
REFRACTIONTILE
360
7C7B
  3
SPECULARTILE
360
7C78
  0
DICTIONARY
  5
7C6D
330
7C6C
100
AcDbDictionary
280
     1
281
     1
  3
BUMPTILE
360
7C6F
  3
DIFFUSETILE
360
7C6E
  3
OPACITYTILE
360
7C72
  3
REFLECTIONTILE
360
7C71
  3
REFRACTIONTILE
360
7C73
  3
SPECULARTILE
360
7C70
  0
DICTIONARY
  5
7C7D
330
7C7C
100
AcDbDictionary
280
     1
281
     1
  3
BUMPTILE
360
7C7F
  3
DIFFUSETILE
360
7C7E
  3
OPACITYTILE
360
7C82
  3
REFLECTIONTILE
360
7C81
  3
REFRACTIONTILE
360
7C83
  3
SPECULARTILE
360
7C80
  0
DICTIONARY
  5
7CB8
330
7C9F
100
AcDbDictionary
280
     1
281
     1
  3
ACAD_ROUNDTRIP_2008_TABLESTYLE_CELLSTYLEMAP
360
7E20
  0
XRECORD
  5
7C77
102
{ACAD_REACTORS
330
7C75
102
}
330
7C75
100
AcDbXrecord
280
     1
270
     1
271
     1
  0
XRECORD
  5
7C76
102
{ACAD_REACTORS
330
7C75
102
}
330
7C75
100
AcDbXrecord
280
     1
270
     1
271
     1
  0
XRECORD
  5
7C7A
102
{ACAD_REACTORS
330
7C75
102
}
330
7C75
100
AcDbXrecord
280
     1
270
     1
271
     1
  0
XRECORD
  5
7C79
102
{ACAD_REACTORS
330
7C75
102
}
330
7C75
100
AcDbXrecord
280
     1
270
     1
271
     1
  0
XRECORD
  5
7C7B
102
{ACAD_REACTORS
330
7C75
102
}
330
7C75
100
AcDbXrecord
280
     1
270
     1
271
     1
  0
XRECORD
  5
7C78
102
{ACAD_REACTORS
330
7C75
102
}
330
7C75
100
AcDbXrecord
280
     1
270
     1
271
     1
  0
XRECORD
  5
7C6F
102
{ACAD_REACTORS
330
7C6D
102
}
330
7C6D
100
AcDbXrecord
280
     1
270
     1
271
     1
  0
XRECORD
  5
7C6E
102
{ACAD_REACTORS
330
7C6D
102
}
330
7C6D
100
AcDbXrecord
280
     1
270
     1
271
     1
  0
XRECORD
  5
7C72
102
{ACAD_REACTORS
330
7C6D
102
}
330
7C6D
100
AcDbXrecord
280
     1
270
     1
271
     1
  0
XRECORD
  5
7C71
102
{ACAD_REACTORS
330
7C6D
102
}
330
7C6D
100
AcDbXrecord
280
     1
270
     1
271
     1
  0
XRECORD
  5
7C73
102
{ACAD_REACTORS
330
7C6D
102
}
330
7C6D
100
AcDbXrecord
280
     1
270
     1
271
     1
  0
XRECORD
  5
7C70
102
{ACAD_REACTORS
330
7C6D
102
}
330
7C6D
100
AcDbXrecord
280
     1
270
     1
271
     1
  0
XRECORD
  5
7C7F
102
{ACAD_REACTORS
330
7C7D
102
}
330
7C7D
100
AcDbXrecord
280
     1
270
     1
271
     1
  0
XRECORD
  5
7C7E
102
{ACAD_REACTORS
330
7C7D
102
}
330
7C7D
100
AcDbXrecord
280
     1
270
     1
271
     1
  0
XRECORD
  5
7C82
102
{ACAD_REACTORS
330
7C7D
102
}
330
7C7D
100
AcDbXrecord
280
     1
270
     1
271
     1
  0
XRECORD
  5
7C81
102
{ACAD_REACTORS
330
7C7D
102
}
330
7C7D
100
AcDbXrecord
280
     1
270
     1
271
     1
  0
XRECORD
  5
7C83
102
{ACAD_REACTORS
330
7C7D
102
}
330
7C7D
100
AcDbXrecord
280
     1
270
     1
271
     1
  0
XRECORD
  5
7C80
102
{ACAD_REACTORS
330
7C7D
102
}
330
7C7D
100
AcDbXrecord
280
     1
270
     1
271
     1
  0
CELLSTYLEMAP
  5
7E20
102
{ACAD_REACTORS
330
7CB8
102
}
330
7CB8
100
AcDbCellStyleMap
 90
        3
300
CELLSTYLE
  1
TABLEFORMAT_BEGIN
 90
        5
170
     1
 91
        0
 92
    32768
 62
   257
 93
        1
300
CONTENTFORMAT
  1
CONTENTFORMAT_BEGIN
 90
        0
 91
        0
 92
      512
 93
        0
300

 40
0.0
140
1.0
 94
        5
 62
     0
340
11
144
0.25
309
CONTENTFORMAT_END
171
     0
 94
        0
309
TABLEFORMAT_END
  1
CELLSTYLE_BEGIN
 90
        1
 91
        1
300
_TITLE
309
CELLSTYLE_END
300
CELLSTYLE
  1
TABLEFORMAT_BEGIN
 90
        5
170
     1
 91
        0
 92
        0
 62
   257
 93
        1
300
CONTENTFORMAT
  1
CONTENTFORMAT_BEGIN
 90
        0
 91
        0
 92
      512
 93
        0
300

 40
0.0
140
1.0
 94
        5
 62
     0
340
11
144
0.18
309
CONTENTFORMAT_END
171
     0
 94
        0
309
TABLEFORMAT_END
  1
CELLSTYLE_BEGIN
 90
        2
 91
        1
300
_HEADER
309
CELLSTYLE_END
300
CELLSTYLE
  1
TABLEFORMAT_BEGIN
 90
        5
170
     1
 91
        0
 92
        0
 62
   257
 93
        1
300
CONTENTFORMAT
  1
CONTENTFORMAT_BEGIN
 90
        0
 91
        0
 92
      512
 93
        0
300

 40
0.0
140
1.0
 94
        2
 62
     0
340
11
144
0.18
309
CONTENTFORMAT_END
171
     0
 94
        0
309
TABLEFORMAT_END
  1
CELLSTYLE_BEGIN
 90
        3
 91
        2
300
_DATA
309
CELLSTYLE_END
  0
ENDSEC
  0
SECTION
  2
ACDSDATA
 70
     2
 71
     8
  0
ACDSSCHEMA
 90
        0
  1
AcDb_Thumbnail_Schema
  2
AcDbDs::ID
280
    10
 91
        8
  2
Thumbnail_Data
280
    15
 91
        0
101
ACDSRECORD
 95
        0
 90
        1
  2
AcDbDs::TreatedAsObjectData
280
     1
291
     1
101
ACDSRECORD
 95
        0
 90
        2
  2
AcDbDs::Legacy
280
     1
291
     1
101
ACDSRECORD
  1
AcDbDs::ID
 90
        3
  2
AcDs:Indexable
280
     1
291
     1
101
ACDSRECORD
  1
AcDbDs::ID
 90
        4
  2
AcDbDs::HandleAttribute
280
     7
282
     1
  0
ACDSSCHEMA
 90
        1
  1
AcDbDs::TreatedAsObjectDataSchema
  2
AcDbDs::TreatedAsObjectData
280
     1
 91
        0
  0
ACDSSCHEMA
 90
        2
  1
AcDbDs::LegacySchema
  2
AcDbDs::Legacy
280
     1
 91
        0
  0
ACDSSCHEMA
 90
        3
  1
AcDbDs::IndexedPropertySchema
  2
AcDs:Indexable
280
     1
 91
        0
  0
ACDSSCHEMA
 90
        4
  1
AcDbDs::HandleAttributeSchema
  2
AcDbDs::HandleAttribute
280
     7
 91
        1
284
     1
  0
ACDSRECORD
 90
        0
  2
AcDbDs::ID
280
    10
320
7C64
  2
Thumbnail_Data
280
    15
 94
     1089
310
89504E470D0A1A0A0000000D49484452000001000000007108030000000DA58D8400000300504C5445212830FFFFFF2128300000000000000000000000000000000000000000000000000000330000660000990000CC0000FF0033000033330033660033990033CC0033FF0066000066330066660066990066CC0066FF0099
310
000099330099660099990099CC0099FF00CC0000CC3300CC6600CC9900CCCC00CCFF00FF0000FF3300FF6600FF9900FFCC00FFFF3300003300333300663300993300CC3300FF3333003333333333663333993333CC3333FF3366003366333366663366993366CC3366FF3399003399333399663399993399CC3399FF33CC00
310
33CC3333CC6633CC9933CCCC33CCFF33FF0033FF3333FF6633FF9933FFCC33FFFF6600006600336600666600996600CC6600FF6633006633336633666633996633CC6633FF6666006666336666666666996666CC6666FF6699006699336699666699996699CC6699FF66CC0066CC3366CC6666CC9966CCCC66CCFF66FF0066
310
FF3366FF6666FF9966FFCC66FFFF9900009900339900669900999900CC9900FF9933009933339933669933999933CC9933FF9966009966339966669966999966CC9966FF9999009999339999669999999999CC9999FF99CC0099CC3399CC6699CC9999CCCC99CCFF99FF0099FF3399FF6699FF9999FFCC99FFFFCC0000CC00
310
33CC0066CC0099CC00CCCC00FFCC3300CC3333CC3366CC3399CC33CCCC33FFCC6600CC6633CC6666CC6699CC66CCCC66FFCC9900CC9933CC9966CC9999CC99CCCC99FFCCCC00CCCC33CCCC66CCCC99CCCCCCCCCCFFCCFF00CCFF33CCFF66CCFF99CCFFCCCCFFFFFF0000FF0033FF0066FF0099FF00CCFF00FFFF3300FF3333
310
FF3366FF3399FF33CCFF33FFFF6600FF6633FF6666FF6699FF66CCFF66FFFF9900FF9933FF9966FF9999FF99CCFF99FFFFCC00FFCC33FFCC66FFCC99FFCCCCFFCCFFFFFF00FFFF33FFFF66FFFF99FFFFCCFFFFFF0000000D0D0D1A1A1A2828283535354343435050505D5D5D6B6B6B787878868686939393A1A1A1AEAEAEBB
310
BBBBC9C9C9D6D6D6E4E4E4F1F1F1FFFFFF0000000000000000000000000000000000000000000000000000000000002E4550F1000000FC4944415478DAEDDCBB8A42411045D1FEFF6F3DA9B9F8E06A6220B470CBB356E0CC1808BDE92A9DC4B5000000000000BE77F99139016E0FC9C657CCF1B273022C01DA03EC3EBF00CD
310
23204079003B6066806D9FDF326E041EB2F702CCBB0139FB648D091001BADF05B204B0040518390269DF01F501961B208025B8EF0208D0BA0405181C2027EE2AC0940011A07C09CE0E1001BA97A000D93801A54B50003B4080D12390F61D501F60E3F93B6F407D004BD0085882D501327E04762E01010A034480EE2598F611
310
C85F8C403E9C2DF787DBCF1C7FBC3DFFFCF51F6EC0EB946FA7AB791768FF5F4000010410400001EA02B47F8304000000000067770523CAA583C694CA6F0000000049454E44AE426082
  0
ENDSEC
  0
EOF
