  0
SECTION
  2
HEADER
  9
$ACADVER
  1
AC1018
  9
$ACADMAINTVER
 70
   104
  9
$DWGCODEPAGE
  3
ANSI_1252
  9
$LASTSAVEDBY
  1
francoisbu
  9
$INSBASE
 10
0.0
 20
0.0
 30
0.0
  9
$EXTMIN
 10
11.380371529196
 20
63.59016961803195
 30
-0.0015258207003583
  9
$EXTMAX
 10
81.89550811892372
 20
97.07893905166452
 30
0.0000000349246037
  9
$LIMMIN
 10
0.0
 20
0.0
  9
$LIMMAX
 10
181.3333333333
 20
117.3333333333
  9
$ORTHOMODE
 70
     0
  9
$REGENMODE
 70
     1
  9
$FILLMODE
 70
     1
  9
$QTEXTMODE
 70
     0
  9
$MIRRTEXT
 70
     0
  9
$LTSCALE
 40
9.973333333300001
  9
$ATTMODE
 70
     1
  9
$TEXTSIZE
 40
0.2
  9
$TRACEWID
 40
0.05
  9
$TEXTSTYLE
  7
STANDARD
  9
$CLAYER
  8
0
  9
$CELTYPE
  6
BYLAYER
  9
$CECOLOR
 62
   256
  9
$CELTSCALE
 40
1.0
  9
$DISPSILH
 70
     0
  9
$DIMSCALE
 40
1.0
  9
$DIMASZ
 40
2.0
  9
$DIMEXO
 40
0.0625
  9
$DIMDLI
 40
6.890666666699999
  9
$DIMRND
 40
0.0
  9
$DIMDLE
 40
0.0
  9
$DIMEXE
 40
0.125
  9
$DIMTP
 40
0.00001
  9
$DIMTM
 40
0.00001
  9
$DIMTXT
 40
1.333333333299999
  9
$DIMCEN
 40
1.631999999999999
  9
$DIMTSZ
 40
0.0
  9
$DIMTOL
 70
     1
  9
$DIMLIM
 70
     0
  9
$DIMTIH
 70
     1
  9
$DIMTOH
 70
     1
  9
$DIMSE1
 70
     0
  9
$DIMSE2
 70
     0
  9
$DIMTAD
 70
     0
  9
$DIMZIN
 70
     0
  9
$DIMBLK
  1
_FILLED
  9
$DIMASO
 70
     1
  9
$DIMSHO
 70
     1
  9
$DIMPOST
  1

  9
$DIMAPOST
  1

  9
$DIMALT
 70
     0
  9
$DIMALTD
 70
     2
  9
$DIMALTF
 40
25.4
  9
$DIMLFAC
 40
1.0
  9
$DIMTOFL
 70
     0
  9
$DIMTVP
 40
0.0
  9
$DIMTIX
 70
     0
  9
$DIMSOXD
 70
     0
  9
$DIMSAH
 70
     0
  9
$DIMBLK1
  1

  9
$DIMBLK2
  1

  9
$DIMSTYLE
  2
STANDARD
  9
$DIMCLRD
 70
     0
  9
$DIMCLRE
 70
     0
  9
$DIMCLRT
 70
     0
  9
$DIMTFAC
 40
1.0
  9
$DIMGAP
 40
0.09
  9
$DIMJUST
 70
     0
  9
$DIMSD1
 70
     0
  9
$DIMSD2
 70
     0
  9
$DIMTOLJ
 70
     1
  9
$DIMTZIN
 70
     0
  9
$DIMALTZ
 70
     0
  9
$DIMALTTZ
 70
     0
  9
$DIMUPT
 70
     0
  9
$DIMDEC
 70
     4
  9
$DIMTDEC
 70
     4
  9
$DIMALTU
 70
     2
  9
$DIMALTTD
 70
     2
  9
$DIMTXSTY
  7
STANDARD
  9
$DIMAUNIT
 70
     0
  9
$DIMADEC
 70
     0
  9
$DIMALTRND
 40
0.0
  9
$DIMAZIN
 70
     0
  9
$DIMDSEP
 70
    46
  9
$DIMATFIT
 70
     3
  9
$DIMFRAC
 70
     0
  9
$DIMLDRBLK
  1

  9
$DIMLUNIT
 70
     2
  9
$DIMLWD
 70
    -2
  9
$DIMLWE
 70
    -2
  9
$DIMTMOVE
 70
     0
  9
$LUNITS
 70
     2
  9
$LUPREC
 70
     4
  9
$SKETCHINC
 40
0.1
  9
$FILLETRAD
 40
0.0
  9
$AUNITS
 70
     0
  9
$AUPREC
 70
     0
  9
$MENU
  1
.
  9
$ELEVATION
 40
0.0
  9
$PELEVATION
 40
0.0
  9
$THICKNESS
 40
0.0
  9
$LIMCHECK
 70
     0
  9
$CHAMFERA
 40
0.0
  9
$CHAMFERB
 40
0.0
  9
$CHAMFERC
 40
0.0
  9
$CHAMFERD
 40
0.0
  9
$SKPOLY
 70
     0
  9
$TDCREATE
 40
2457343.413374525
  9
$TDUCREATE
 40
2457343.621707859
  9
$TDUPDATE
 40
2457345.459072026
  9
$TDUUPDATE
 40
2457345.667405359
  9
$TDINDWG
 40
0.0005949421
  9
$TDUSRTIMER
 40
0.0005949421
  9
$USRTIMER
 70
     1
  9
$ANGBASE
 50
0.0
  9
$ANGDIR
 70
     0
  9
$PDMODE
 70
     3
  9
$PDSIZE
 40
0.03125
  9
$PLINEWID
 40
0.0
  9
$SPLFRAME
 70
     0
  9
$SPLINETYPE
 70
     6
  9
$SPLINESEGS
 70
     8
  9
$HANDSEED
  5
16B1
  9
$SURFTAB1
 70
     6
  9
$SURFTAB2
 70
     6
  9
$SURFTYPE
 70
     6
  9
$SURFU
 70
     6
  9
$SURFV
 70
     6
  9
$UCSBASE
  2

  9
$UCSNAME
  2

  9
$UCSORG
 10
0.0
 20
0.0
 30
0.0
  9
$UCSXDIR
 10
1.0
 20
0.0
 30
0.0
  9
$UCSYDIR
 10
0.0
 20
1.0
 30
0.0
  9
$UCSORTHOREF
  2

  9
$UCSORTHOVIEW
 70
     0
  9
$UCSORGTOP
 10
0.0
 20
0.0
 30
0.0
  9
$UCSORGBOTTOM
 10
0.0
 20
0.0
 30
0.0
  9
$UCSORGLEFT
 10
0.0
 20
0.0
 30
0.0
  9
$UCSORGRIGHT
 10
0.0
 20
0.0
 30
0.0
  9
$UCSORGFRONT
 10
0.0
 20
0.0
 30
0.0
  9
$UCSORGBACK
 10
0.0
 20
0.0
 30
0.0
  9
$PUCSBASE
  2

  9
$PUCSNAME
  2

  9
$PUCSORG
 10
0.0
 20
0.0
 30
0.0
  9
$PUCSXDIR
 10
1.0
 20
0.0
 30
0.0
  9
$PUCSYDIR
 10
0.0
 20
1.0
 30
0.0
  9
$PUCSORTHOREF
  2

  9
$PUCSORTHOVIEW
 70
     0
  9
$PUCSORGTOP
 10
0.0
 20
0.0
 30
0.0
  9
$PUCSORGBOTTOM
 10
0.0
 20
0.0
 30
0.0
  9
$PUCSORGLEFT
 10
0.0
 20
0.0
 30
0.0
  9
$PUCSORGRIGHT
 10
0.0
 20
0.0
 30
0.0
  9
$PUCSORGFRONT
 10
0.0
 20
0.0
 30
0.0
  9
$PUCSORGBACK
 10
0.0
 20
0.0
 30
0.0
  9
$USERI1
 70
     0
  9
$USERI2
 70
     0
  9
$USERI3
 70
     0
  9
$USERI4
 70
     0
  9
$USERI5
 70
     0
  9
$USERR1
 40
0.0
  9
$USERR2
 40
0.0
  9
$USERR3
 40
0.0
  9
$USERR4
 40
0.0
  9
$USERR5
 40
0.0
  9
$WORLDVIEW
 70
     1
  9
$SHADEDGE
 70
     3
  9
$SHADEDIF
 70
    70
  9
$TILEMODE
 70
     1
  9
$MAXACTVP
 70
    64
  9
$PINSBASE
 10
0.0
 20
0.0
 30
0.0
  9
$PLIMCHECK
 70
     0
  9
$PEXTMIN
 10
1.000000000000000E+20
 20
1.000000000000000E+20
 30
1.000000000000000E+20
  9
$PEXTMAX
 10
-1.000000000000000E+20
 20
-1.000000000000000E+20
 30
-1.000000000000000E+20
  9
$PLIMMIN
 10
0.0
 20
0.0
  9
$PLIMMAX
 10
12.0
 20
9.0
  9
$UNITMODE
 70
     0
  9
$VISRETAIN
 70
     1
  9
$PLINEGEN
 70
     0
  9
$PSLTSCALE
 70
     1
  9
$TREEDEPTH
 70
  3020
  9
$CMLSTYLE
  2
Standard
  9
$CMLJUST
 70
     0
  9
$CMLSCALE
 40
1.0
  9
$PROXYGRAPHICS
 70
     1
  9
$MEASUREMENT
 70
     0
  9
$CELWEIGHT
370
    -1
  9
$ENDCAPS
280
     0
  9
$JOINSTYLE
280
     0
  9
$LWDISPLAY
290
     0
  9
$INSUNITS
 70
     1
  9
$HYPERLINKBASE
  1

  9
$STYLESHEET
  1

  9
$XEDIT
290
     1
  9
$CEPSNTYPE
380
     0
  9
$PSTYLEMODE
290
     1
  9
$FINGERPRINTGUID
  2
{A4B60C29-F785-4E6E-8D79-3131B203CAEC}
  9
$VERSIONGUID
  2
{56EBB9FA-F2A9-436A-8AA8-E4A099F6C29F}
  9
$EXTNAMES
290
     1
  9
$PSVPSCALE
 40
0.0
  9
$OLESTARTUP
290
     0
  9
$SORTENTS
280
   127
  9
$INDEXCTL
280
     0
  9
$HIDETEXT
280
     0
  9
$XCLIPFRAME
290
     0
  9
$HALOGAP
280
     0
  9
$OBSCOLOR
 70
   257
  9
$OBSLTYPE
280
     0
  9
$INTERSECTIONDISPLAY
280
     0
  9
$INTERSECTIONCOLOR
 70
   257
  9
$DIMASSOC
280
     1
  9
$PROJECTNAME
  1

  0
ENDSEC
  0
SECTION
  2
CLASSES
  0
CLASS
  1
ACDBDICTIONARYWDFLT
  2
AcDbDictionaryWithDefault
  3
ObjectDBX Classes
 90
        0
 91
        1
280
     0
281
     0
  0
CLASS
  1
ACDBPLACEHOLDER
  2
AcDbPlaceHolder
  3
ObjectDBX Classes
 90
        0
 91
        1
280
     0
281
     0
  0
CLASS
  1
LAYOUT
  2
AcDbLayout
  3
ObjectDBX Classes
 90
        0
 91
        2
280
     0
281
     0
  0
CLASS
  1
MATERIAL
  2
AcDbMaterial
  3
ObjectDBX Classes
 90
     1153
 91
        3
280
     0
281
     0
  0
CLASS
  1
VISUALSTYLE
  2
AcDbVisualStyle
  3
ObjectDBX Classes
 90
     4095
 91
       26
280
     0
281
     0
  0
CLASS
  1
TABLESTYLE
  2
AcDbTableStyle
  3
ObjectDBX Classes
 90
     4095
 91
        1
280
     0
281
     0
  0
CLASS
  1
SCALE
  2
AcDbScale
  3
ObjectDBX Classes
 90
     1153
 91
       17
280
     0
281
     0
  0
CLASS
  1
MLEADERSTYLE
  2
AcDbMLeaderStyle
  3
ACDB_MLEADERSTYLE_CLASS
 90
     4095
 91
        1
280
     0
281
     0
  0
CLASS
  1
ACDBSECTIONVIEWSTYLE
  2
AcDbSectionViewStyle
  3
ObjectDBX Classes
 90
     1025
 91
        1
280
     0
281
     0
  0
CLASS
  1
ACDBDETAILVIEWSTYLE
  2
AcDbDetailViewStyle
  3
ObjectDBX Classes
 90
     1025
 91
        1
280
     0
281
     0
  0
CLASS
  1
CELLSTYLEMAP
  2
AcDbCellStyleMap
  3
ObjectDBX Classes
 90
     1152
 91
        3
280
     0
281
     0
  0
CLASS
  1
DICTIONARYVAR
  2
AcDbDictionaryVar
  3
ObjectDBX Classes
 90
        0
 91
        9
280
     0
281
     0
  0
ENDSEC
  0
SECTION
  2
TABLES
  0
TABLE
  2
VPORT
  5
8
102
{ACAD_XDICTIONARY
360
1619
102
}
330
0
100
AcDbSymbolTable
 70
     1
  0
VPORT
  5
1F4
330
8
100
AcDbSymbolTableRecord
100
AcDbViewportTableRecord
  2
*ACTIVE
 70
     0
 10
0.0
 20
0.0
 11
1.0
 21
1.0
 12
46.63793982405985
 22
80.33455433484823
 13
0.0
 23
0.0
 14
1.0
 24
1.0
 15
0.0
 25
0.0
 16
0.0
 26
0.0
 36
1.0
 17
0.0
 27
0.0
 37
0.0
 40
40.11546064313665
 41
1.765217391304347
 42
50.0
 43
0.0
 44
0.0
 50
0.0
 51
0.0
 71
     0
 72
   100
 73
     1
 74
     1
 75
     0
 76
     0
 77
     0
 78
     0
281
     0
 65
     1
110
0.0
120
0.0
130
0.0
111
1.0
121
0.0
131
0.0
112
0.0
122
1.0
132
0.0
 79
     0
146
0.0
  0
ENDTAB
  0
TABLE
  2
LTYPE
  5
5
330
0
100
AcDbSymbolTable
 70
     7
  0
LTYPE
  5
14
330
5
100
AcDbSymbolTableRecord
100
AcDbLinetypeTableRecord
  2
BYBLOCK
 70
     0
  3

 72
    65
 73
     0
 40
0.0
  0
LTYPE
  5
15
330
5
100
AcDbSymbolTableRecord
100
AcDbLinetypeTableRecord
  2
BYLAYER
 70
     0
  3

 72
    65
 73
     0
 40
0.0
  0
LTYPE
  5
16
330
5
100
AcDbSymbolTableRecord
100
AcDbLinetypeTableRecord
  2
CONTINUOUS
 70
     0
  3
Solid line
 72
    65
 73
     0
 40
0.0
  0
LTYPE
  5
1F5
330
5
100
AcDbSymbolTableRecord
100
AcDbLinetypeTableRecord
  2
CENTER
 70
     0
  3
____ _ ____ _ ____ _ ____ _ ____ _ ____ _ ____
 72
    65
 73
     4
 40
0.6
 49
0.375
 74
     0
 49
-0.075
 74
     0
 49
0.075
 74
     0
 49
-0.075
 74
     0
  0
LTYPE
  5
1F6
330
5
100
AcDbSymbolTableRecord
100
AcDbLinetypeTableRecord
  2
HIDDEN
 70
     0
  3
- - - - - - - - - - - - - - - - - - - -
 72
    65
 73
     2
 40
0.2
 49
0.1
 74
     0
 49
-0.1
 74
     0
  0
LTYPE
  5
1F7
330
5
100
AcDbSymbolTableRecord
100
AcDbLinetypeTableRecord
  2
PHANTOM
 70
     0
  3
_____ _ _ _____ _ _ _____ _ _ _____
 72
    65
 73
     6
 40
0.8
 49
0.45
 74
     0
 49
-0.05
 74
     0
 49
0.1
 74
     0
 49
-0.05
 74
     0
 49
0.1
 74
     0
 49
-0.05
 74
     0
  0
LTYPE
  5
1F8
330
5
100
AcDbSymbolTableRecord
100
AcDbLinetypeTableRecord
  2
DOT
 70
     0
  3
. . . . . . . . . . . . . . . . . . . .
 72
    65
 73
     2
 40
0.2
 49
0.1
 74
     0
 49
-0.1
 74
     0
  0
LTYPE
  5
1F9
330
5
100
AcDbSymbolTableRecord
100
AcDbLinetypeTableRecord
  2
DASHED
 70
     0
  3
- - - - - - - - - - - - - - - - - - - -
 72
    65
 73
     2
 40
0.2
 49
0.1
 74
     0
 49
-0.1
 74
     0
  0
LTYPE
  5
1612
330
5
100
AcDbSymbolTableRecord
100
AcDbLinetypeTableRecord
  2
PHANTOM2
 70
     0
  3
___ _ _ ___ _ _ ___ _ _ ___ _ _
 72
    65
 73
     6
 40
1.25
 49
0.625
 74
     0
 49
-0.125
 74
     0
 49
0.125
 74
     0
 49
-0.125
 74
     0
 49
0.125
 74
     0
 49
-0.125
 74
     0
  0
ENDTAB
  0
TABLE
  2
LAYER
  5
2
330
0
100
AcDbSymbolTable
 70
    31
  0
LAYER
  5
10
102
{ACAD_XDICTIONARY
360
1668
102
}
330
2
100
AcDbSymbolTableRecord
100
AcDbLayerTableRecord
  2
0
 70
     0
 62
     7
  6
CONTINUOUS
370
    -3
390
F
  0
LAYER
  5
1FA
102
{ACAD_XDICTIONARY
360
166A
102
}
330
2
100
AcDbSymbolTableRecord
100
AcDbLayerTableRecord
  2
DEFAULT_1
 70
     0
 62
     7
  6
CENTER
370
    -3
390
F
  0
LAYER
  5
1FB
102
{ACAD_XDICTIONARY
360
166C
102
}
330
2
100
AcDbSymbolTableRecord
100
AcDbLayerTableRecord
  2
DEFAULT_2
 70
     0
 62
     8
  6
HIDDEN
370
    -3
390
F
  0
LAYER
  5
1FC
102
{ACAD_XDICTIONARY
360
166E
102
}
330
2
100
AcDbSymbolTableRecord
100
AcDbLayerTableRecord
  2
DEFAULT_3
 70
     0
 62
     7
  6
PHANTOM
370
    -3
390
F
  0
LAYER
  5
1FD
102
{ACAD_XDICTIONARY
360
1670
102
}
330
2
100
AcDbSymbolTableRecord
100
AcDbLayerTableRecord
  2
1_CURVES
 70
     0
 62
     7
  6
CONTINUOUS
370
    -3
390
F
  0
LAYER
  5
1FE
102
{ACAD_XDICTIONARY
360
1672
102
}
330
2
100
AcDbSymbolTableRecord
100
AcDbLayerTableRecord
  2
1_CURVES-DEGAGEMENT-COIL
 70
     0
 62
     7
  6
CONTINUOUS
370
    -3
390
F
  0
LAYER
  5
1FF
102
{ACAD_XDICTIONARY
360
1674
102
}
330
2
100
AcDbSymbolTableRecord
100
AcDbLayerTableRecord
  2
1_CURVES-TRAJECTOIRE-COIL
 70
     0
 62
     7
  6
CONTINUOUS
370
    -3
390
F
  0
LAYER
  5
200
102
{ACAD_XDICTIONARY
360
1676
102
}
330
2
100
AcDbSymbolTableRecord
100
AcDbLayerTableRecord
  2
1_CURVES_COINS_CONDUITS
 70
     0
 62
     7
  6
CONTINUOUS
370
    -3
390
F
  0
LAYER
  5
201
102
{ACAD_XDICTIONARY
360
1678
102
}
330
2
100
AcDbSymbolTableRecord
100
AcDbLayerTableRecord
  2
1_CURVES_IMPORT
 70
     0
 62
     7
  6
CONTINUOUS
370
    -3
390
F
  0
LAYER
  5
202
102
{ACAD_XDICTIONARY
360
167A
102
}
330
2
100
AcDbSymbolTableRecord
100
AcDbLayerTableRecord
  2
1_CURVES_JETS
 70
     0
 62
     7
  6
CONTINUOUS
370
    -3
390
F
  0
LAYER
  5
203
102
{ACAD_XDICTIONARY
360
167C
102
}
330
2
100
AcDbSymbolTableRecord
100
AcDbLayerTableRecord
  2
1_CURVES_SPEC_FRONT
 70
     0
 62
     7
  6
CONTINUOUS
370
    -3
390
F
  0
LAYER
  5
204
102
{ACAD_XDICTIONARY
360
167E
102
}
330
2
100
AcDbSymbolTableRecord
100
AcDbLayerTableRecord
  2
1_CURVES_SPEC_RIGHT
 70
     0
 62
     7
  6
CONTINUOUS
370
    -3
390
F
  0
LAYER
  5
205
102
{ACAD_XDICTIONARY
360
1680
102
}
330
2
100
AcDbSymbolTableRecord
100
AcDbLayerTableRecord
  2
1_CURVES_TETE
 70
     0
 62
     7
  6
CONTINUOUS
370
    -3
390
F
  0
LAYER
  5
206
102
{ACAD_XDICTIONARY
360
1682
102
}
330
2
100
AcDbSymbolTableRecord
100
AcDbLayerTableRecord
  2
2_PLANES
 70
     0
 62
     7
  6
CONTINUOUS
370
    -3
390
F
  0
LAYER
  5
207
102
{ACAD_XDICTIONARY
360
1684
102
}
330
2
100
AcDbSymbolTableRecord
100
AcDbLayerTableRecord
  2
3_POINTS
 70
     0
 62
     7
  6
CONTINUOUS
370
    -3
390
F
  0
LAYER
  5
208
102
{ACAD_XDICTIONARY
360
1686
102
}
330
2
100
AcDbSymbolTableRecord
100
AcDbLayerTableRecord
  2
3_POINTS_JETS
 70
     0
 62
     7
  6
CONTINUOUS
370
    -3
390
F
  0
LAYER
  5
209
102
{ACAD_XDICTIONARY
360
1688
102
}
330
2
100
AcDbSymbolTableRecord
100
AcDbLayerTableRecord
  2
4_CSYS
 70
     0
 62
     7
  6
CONTINUOUS
370
    -3
390
F
  0
LAYER
  5
20A
102
{ACAD_XDICTIONARY
360
168A
102
}
330
2
100
AcDbSymbolTableRecord
100
AcDbLayerTableRecord
  2
5_AXIS
 70
     0
 62
     7
  6
CONTINUOUS
370
    -3
390
F
  0
LAYER
  5
20B
102
{ACAD_XDICTIONARY
360
168C
102
}
330
2
100
AcDbSymbolTableRecord
100
AcDbLayerTableRecord
  2
5_AXIS_JETS
 70
     0
 62
     7
  6
CONTINUOUS
370
    -3
390
F
  0
LAYER
  5
20C
102
{ACAD_XDICTIONARY
360
168E
102
}
330
2
100
AcDbSymbolTableRecord
100
AcDbLayerTableRecord
  2
6_SURFACES
 70
     0
 62
     7
  6
CONTINUOUS
370
    -3
390
F
  0
LAYER
  5
20D
102
{ACAD_XDICTIONARY
360
1690
102
}
330
2
100
AcDbSymbolTableRecord
100
AcDbLayerTableRecord
  2
6_SURFACES-OFFSET-FIBRE-ACRYLIQ
 70
     0
 62
     7
  6
CONTINUOUS
370
    -3
390
F
  0
LAYER
  5
20E
102
{ACAD_XDICTIONARY
360
1692
102
}
330
2
100
AcDbSymbolTableRecord
100
AcDbLayerTableRecord
  2
6_SURFACES_AIRE
 70
     0
 62
     7
  6
CONTINUOUS
370
    -3
390
F
  0
LAYER
  5
20F
102
{ACAD_XDICTIONARY
360
1694
102
}
330
2
100
AcDbSymbolTableRecord
100
AcDbLayerTableRecord
  2
6_SURFACES_OFFSET_FIBRE
 70
     0
 62
     7
  6
CONTINUOUS
370
    -3
390
F
  0
LAYER
  5
210
102
{ACAD_XDICTIONARY
360
1696
102
}
330
2
100
AcDbSymbolTableRecord
100
AcDbLayerTableRecord
  2
6_SURFACES_TOOLING
 70
     0
 62
     7
  6
CONTINUOUS
370
    -3
390
F
  0
LAYER
  5
211
102
{ACAD_XDICTIONARY
360
1698
102
}
330
2
100
AcDbSymbolTableRecord
100
AcDbLayerTableRecord
  2
7_NOTES
 70
     0
 62
     7
  6
CONTINUOUS
370
    -3
390
F
  0
LAYER
  5
212
102
{ACAD_XDICTIONARY
360
169A
102
}
330
2
100
AcDbSymbolTableRecord
100
AcDbLayerTableRecord
  2
8_TOL_GEOM
 70
     0
 62
     7
  6
CONTINUOUS
370
    -3
390
F
  0
LAYER
  5
213
102
{ACAD_XDICTIONARY
360
169C
102
}
330
2
100
AcDbSymbolTableRecord
100
AcDbLayerTableRecord
  2
CURVE_ROBINETTERIE
 70
     0
 62
     7
  6
CONTINUOUS
370
    -3
390
F
  0
LAYER
  5
214
102
{ACAD_XDICTIONARY
360
169E
102
}
330
2
100
AcDbSymbolTableRecord
100
AcDbLayerTableRecord
  2
MIA_PLUS_TROU
 70
     0
 62
     7
  6
CONTINUOUS
370
    -3
390
F
  0
LAYER
  5
215
102
{ACAD_XDICTIONARY
360
16A0
102
}
330
2
100
AcDbSymbolTableRecord
100
AcDbLayerTableRecord
  2
MIA_TROU
 70
     0
 62
     7
  6
CONTINUOUS
370
    -3
390
F
  0
LAYER
  5
216
102
{ACAD_XDICTIONARY
360
16A2
102
}
330
2
100
AcDbSymbolTableRecord
100
AcDbLayerTableRecord
  2
NONE
 70
     0
 62
     7
  6
CONTINUOUS
370
    -3
390
F
  0
LAYER
  5
217
102
{ACAD_XDICTIONARY
360
16A4
102
}
330
2
100
AcDbSymbolTableRecord
100
AcDbLayerTableRecord
  2
XSEC_DATUMS
 70
     0
 62
     7
  6
CONTINUOUS
370
    -3
390
F
  0
ENDTAB
  0
TABLE
  2
STYLE
  5
3
330
0
100
AcDbSymbolTable
 70
     8
  0
STYLE
  5
11
330
3
100
AcDbSymbolTableRecord
100
AcDbTextStyleTableRecord
  2
STANDARD
 70
     0
 40
0.0
 41
0.8
 50
0.0
 71
     0
 42
0.2
  3
txt
  4

  0
STYLE
  5
218
330
3
100
AcDbSymbolTableRecord
100
AcDbTextStyleTableRecord
  2
TEXTSTYLE_1
 70
     0
 40
0.0
 41
0.8
 50
0.0
 71
     0
 42
0.2
  3
gdt
  4

  0
STYLE
  5
219
330
3
100
AcDbSymbolTableRecord
100
AcDbTextStyleTableRecord
  2
TEXTSTYLE_2
 70
     0
 40
0.0
 41
1.0
 50
0.0
 71
     0
 42
0.2
  3
trium.ttf
  4

  0
STYLE
  5
21A
330
3
100
AcDbSymbolTableRecord
100
AcDbTextStyleTableRecord
  2
TEXTSTYLE_3
 70
     0
 40
0.0
 41
1.0
 50
0.0
 71
     0
 42
0.2
  3
trium.ttf
  4

  0
STYLE
  5
21B
330
3
100
AcDbSymbolTableRecord
100
AcDbTextStyleTableRecord
  2
TEXTSTYLE_4
 70
     0
 40
0.0
 41
1.0
 50
0.0
 71
     0
 42
0.2
  3
txt
  4

1001
ACAD
1000
txt
1071
        2
  0
STYLE
  5
21C
330
3
100
AcDbSymbolTableRecord
100
AcDbTextStyleTableRecord
  2
TEXTSTYLE_5
 70
     0
 40
0.0
 41
1.0
 50
0.0
 71
     0
 42
0.2
  3
txt
  4

  0
STYLE
  5
21D
330
3
100
AcDbSymbolTableRecord
100
AcDbTextStyleTableRecord
  2
TEXTSTYLE_6
 70
     0
 40
0.0
 41
1.0
 50
0.0
 71
     0
 42
0.2
  3
trium.ttf
  4

  0
STYLE
  5
21E
330
3
100
AcDbSymbolTableRecord
100
AcDbTextStyleTableRecord
  2
TEXTSTYLE_7
 70
     0
 40
0.0
 41
0.8
 50
0.0
 71
     0
 42
0.2
  3
txt
  4

  0
ENDTAB
  0
TABLE
  2
VIEW
  5
6
330
0
100
AcDbSymbolTable
 70
     0
  0
ENDTAB
  0
TABLE
  2
UCS
  5
7
330
0
100
AcDbSymbolTable
 70
     0
  0
ENDTAB
  0
TABLE
  2
APPID
  5
9
330
0
100
AcDbSymbolTable
 70
     2
  0
APPID
  5
21F
330
9
100
AcDbSymbolTableRecord
100
AcDbRegAppTableRecord
  2
ACAD
 70
     0
  0
APPID
  5
1654
330
9
100
AcDbSymbolTableRecord
100
AcDbRegAppTableRecord
  2
ACAD_MLEADERVER
 70
     0
  0
ENDTAB
  0
TABLE
  2
DIMSTYLE
  5
A
330
0
100
AcDbSymbolTable
 70
     5
100
AcDbDimStyleTable
 71
     0
  0
DIMSTYLE
105
23A
330
A
100
AcDbSymbolTableRecord
100
AcDbDimStyleTableRecord
  2
STANDARD
 70
     0
 41
2.0
 44
0.125
 47
0.00001
 48
0.00001
 71
     1
 78
     4
140
1.333333333299999
271
     5
272
     5
284
     4
340
11
341
222
342
222
343
222
344
222
  0
DIMSTYLE
105
23B
330
A
100
AcDbSymbolTableRecord
100
AcDbDimStyleTableRecord
  2
DIMSTYLE_1
 70
     0
 41
2.0
 44
0.125
 47
0.00001
 48
0.00001
 78
     4
140
1.333333333299999
147
0.0625
271
     6
272
     6
284
     4
340
11
341
222
342
222
343
222
344
222
  0
DIMSTYLE
105
23C
330
A
100
AcDbSymbolTableRecord
100
AcDbDimStyleTableRecord
  2
DIMSTYLE_2
 70
     0
 41
2.0
 44
0.125
 47
0.00001
 48
0.00001
 78
     4
140
1.333333333299999
147
0.0625
271
     3
272
     3
284
     4
340
11
341
222
342
222
343
222
344
222
  0
DIMSTYLE
105
23D
330
A
100
AcDbSymbolTableRecord
100
AcDbDimStyleTableRecord
  2
DIMSTYLE_3
 70
     0
 41
2.0
 44
0.125
 47
1.0
 48
1.0
 78
     4
140
1.333333333299999
147
0.0625
271
     0
272
     0
284
     4
340
11
341
222
342
222
343
222
344
222
  0
DIMSTYLE
105
23E
330
A
100
AcDbSymbolTableRecord
100
AcDbDimStyleTableRecord
  2
DIMSTYLE_4
 70
     0
 41
2.0
 44
0.125
 47
0.5
 48
0.5
 78
     4
140
1.333333333299999
147
0.0625
271
     6
272
     6
284
     4
340
11
341
222
342
222
343
222
344
222
  0
ENDTAB
  0
TABLE
  2
BLOCK_RECORD
  5
1
330
0
100
AcDbSymbolTable
 70
    24
  0
BLOCK_RECORD
  5
220
330
1
100
AcDbSymbolTableRecord
100
AcDbBlockTableRecord
  2
*Model_Space
340
15C4
  0
BLOCK_RECORD
  5
221
330
1
100
AcDbSymbolTableRecord
100
AcDbBlockTableRecord
  2
*Paper_Space
340
15C5
  0
BLOCK_RECORD
  5
222
330
1
100
AcDbSymbolTableRecord
100
AcDbBlockTableRecord
  2
_FILLED
340
0
102
{BLKREFS
331
35E
331
35F
331
367
331
368
331
370
331
371
331
379
331
37A
331
383
331
384
331
38C
331
38D
331
395
331
396
331
3A0
331
3A1
331
3AB
331
3AC
331
3B4
331
3B5
331
3C6
331
3C7
331
3CF
331
3D0
102
}
  0
BLOCK_RECORD
  5
223
330
1
100
AcDbSymbolTableRecord
100
AcDbBlockTableRecord
  2
*D1
340
0
  0
BLOCK_RECORD
  5
224
330
1
100
AcDbSymbolTableRecord
100
AcDbBlockTableRecord
  2
*D2
340
0
  0
BLOCK_RECORD
  5
225
330
1
100
AcDbSymbolTableRecord
100
AcDbBlockTableRecord
  2
*D3
340
0
  0
BLOCK_RECORD
  5
226
330
1
100
AcDbSymbolTableRecord
100
AcDbBlockTableRecord
  2
*D4
340
0
  0
BLOCK_RECORD
  5
227
330
1
100
AcDbSymbolTableRecord
100
AcDbBlockTableRecord
  2
*D5
340
0
  0
BLOCK_RECORD
  5
228
330
1
100
AcDbSymbolTableRecord
100
AcDbBlockTableRecord
  2
*D6
340
0
  0
BLOCK_RECORD
  5
229
330
1
100
AcDbSymbolTableRecord
100
AcDbBlockTableRecord
  2
*D7
340
0
  0
BLOCK_RECORD
  5
22A
330
1
100
AcDbSymbolTableRecord
100
AcDbBlockTableRecord
  2
*D8
340
0
  0
BLOCK_RECORD
  5
22B
330
1
100
AcDbSymbolTableRecord
100
AcDbBlockTableRecord
  2
*D9
340
0
  0
BLOCK_RECORD
  5
22C
330
1
100
AcDbSymbolTableRecord
100
AcDbBlockTableRecord
  2
*D10
340
0
  0
BLOCK_RECORD
  5
22D
330
1
100
AcDbSymbolTableRecord
100
AcDbBlockTableRecord
  2
*D11
340
0
  0
BLOCK_RECORD
  5
22E
330
1
100
AcDbSymbolTableRecord
100
AcDbBlockTableRecord
  2
*D12
340
0
  0
BLOCK_RECORD
  5
22F
330
1
100
AcDbSymbolTableRecord
100
AcDbBlockTableRecord
  2
*D13
340
0
  0
BLOCK_RECORD
  5
230
330
1
100
AcDbSymbolTableRecord
100
AcDbBlockTableRecord
  2
*D14
340
0
  0
BLOCK_RECORD
  5
231
330
1
100
AcDbSymbolTableRecord
100
AcDbBlockTableRecord
  2
*D15
340
0
  0
BLOCK_RECORD
  5
232
330
1
100
AcDbSymbolTableRecord
100
AcDbBlockTableRecord
  2
*D16
340
0
  0
BLOCK_RECORD
  5
233
330
1
100
AcDbSymbolTableRecord
100
AcDbBlockTableRecord
  2
L03-USAGE_INTERNE_SEULEM_BL6
340
0
  0
BLOCK_RECORD
  5
234
330
1
100
AcDbSymbolTableRecord
100
AcDbBlockTableRecord
  2
L03-NOTE_SPECS_BAINS_BL5
340
0
  0
BLOCK_RECORD
  5
235
330
1
100
AcDbSymbolTableRecord
100
AcDbBlockTableRecord
  2
L03-NOTE_SPECS_BAINS_BL4
340
0
  0
BLOCK_RECORD
  5
236
330
1
100
AcDbSymbolTableRecord
100
AcDbBlockTableRecord
  2
L03-MOTEUR-CONTROLE-LED_BL3
340
0
  0
BLOCK_RECORD
  5
237
330
1
100
AcDbSymbolTableRecord
100
AcDbBlockTableRecord
  2
L03-MOTEUR-CONTROLE-LED_BL2
340
0
  0
BLOCK_RECORD
  5
238
330
1
100
AcDbSymbolTableRecord
100
AcDbBlockTableRecord
  2
L03-MOTEUR-CONTROLE-LED_BL1
340
0
  0
BLOCK_RECORD
  5
239
330
1
100
AcDbSymbolTableRecord
100
AcDbBlockTableRecord
  2
L03-MOTEUR-CONTROLE-LED_BL0
340
0
  0
ENDTAB
  0
ENDSEC
  0
SECTION
  2
BLOCKS
  0
BLOCK
  5
20
330
220
100
AcDbEntity
  8
0
100
AcDbBlockBegin
  2
*Model_Space
 70
     0
 10
0.0
 20
0.0
 30
0.0
  3
*Model_Space
  1

  0
ENDBLK
  5
21
330
220
100
AcDbEntity
  8
0
100
AcDbBlockEnd
  0
BLOCK
  5
1C
330
221
100
AcDbEntity
 67
     1
  8
0
100
AcDbBlockBegin
  2
*Paper_Space
 70
     0
 10
0.0
 20
0.0
 30
0.0
  3
*Paper_Space
  1

  0
ENDBLK
  5
1D
330
221
100
AcDbEntity
 67
     1
  8
0
100
AcDbBlockEnd
  0
BLOCK
  5
355
330
222
100
AcDbEntity
  8
0
100
AcDbBlockBegin
  2
_FILLED
 70
     0
 10
0.0
 20
0.0
 30
0.0
  3
_FILLED
  1

  0
SOLID
  5
356
330
222
100
AcDbEntity
  8
0
  6
ByBlock
 62
     0
100
AcDbTrace
 10
0.0
 20
0.0
 30
0.0
 11
-1.0
 21
0.1666666667
 31
0.0
 12
-1.0
 22
-0.1666666667
 32
0.0
 13
-1.0
 23
-0.1666666667
 33
0.0
  0
ENDBLK
  5
357
330
222
100
AcDbEntity
  8
0
  6
ByBlock
 62
     0
100
AcDbBlockEnd
  0
BLOCK
  5
358
330
223
100
AcDbEntity
  8
0
  6
Continuous
 62
     2
100
AcDbBlockBegin
  2
*D1
 70
     1
 10
0.0
 20
0.0
 30
0.0
  3
*D1
  1

  0
MTEXT
  5
359
330
223
100
AcDbEntity
  8
0
  6
Continuous
 62
     2
100
AcDbMText
 10
137.6718112708
 20
36.1971588335
 30
0.0
 40
1.333333333299999
 41
6.4
 71
     2
 72
     1
  1
22\P[55,9]
 73
     1
 44
0.9
  0
LINE
  5
35A
330
223
100
AcDbEntity
  8
0
  6
Continuous
 62
     2
100
AcDbLine
 10
133.9024478042
 20
24.5304921668
 30
0.0
 11
141.1384779375
 21
24.5304921668
 31
0.0
  0
LINE
  5
35B
330
223
100
AcDbEntity
  8
0
  6
Continuous
 62
     2
100
AcDbLine
 10
133.9024478042
 20
46.5304921668
 30
0.0
 11
141.1384779375
 21
46.5304921668
 31
0.0
  0
LINE
  5
35C
330
223
100
AcDbEntity
  8
0
  6
Continuous
 62
     2
100
AcDbLine
 10
139.8051446042
 20
24.5304921668
 30
0.0
 11
139.8051446042
 21
32.1971588335
 31
0.0
  0
LINE
  5
35D
330
223
100
AcDbEntity
  8
0
  6
Continuous
 62
     2
100
AcDbLine
 10
139.8051446042
 20
46.5304921668
 30
0.0
 11
139.8051446042
 21
36.8638255002
 31
0.0
  0
INSERT
  5
35E
330
223
100
AcDbEntity
  8
0
  6
Continuous
 62
     2
100
AcDbBlockReference
  2
_FILLED
 10
139.8051446042
 20
24.5304921668
 30
0.0
 41
2.0
 42
2.0
 43
2.0
 50
270.0
  0
INSERT
  5
35F
330
223
100
AcDbEntity
  8
0
  6
Continuous
 62
     2
100
AcDbBlockReference
  2
_FILLED
 10
139.8051446042
 20
46.5304921668
 30
0.0
 41
2.0
 42
2.0
 43
2.0
 50
90.0
  0
ENDBLK
  5
360
330
223
100
AcDbEntity
  8
0
  6
ByBlock
 62
     0
100
AcDbBlockEnd
  0
BLOCK
  5
361
330
224
100
AcDbEntity
  8
0
  6
Continuous
 62
     2
100
AcDbBlockBegin
  2
*D2
 70
     1
 10
0.0
 20
0.0
 30
0.0
  3
*D2
  1

  0
MTEXT
  5
362
330
224
100
AcDbEntity
  8
0
  6
Continuous
 62
     2
100
AcDbMText
 10
96.3949850716
 20
35.1527948814
 30
0.0
 40
1.333333333299999
 41
6.4
 71
     2
 72
     1
  1
17\P[43,2]
 73
     1
 44
0.9
  0
LINE
  5
363
330
224
100
AcDbEntity
  8
0
  6
Continuous
 62
     2
100
AcDbLine
 10
107.534748524
 20
25.5304921668
 30
0.0
 11
97.1949850716
 21
25.5304921668
 31
0.0
  0
LINE
  5
364
330
224
100
AcDbEntity
  8
0
  6
Continuous
 62
     2
100
AcDbLine
 10
103.9812324638
 20
42.5304921668
 30
0.0
 11
97.1949850716
 21
42.5304921668
 31
0.0
  0
LINE
  5
365
330
224
100
AcDbEntity
  8
0
  6
Continuous
 62
     2
100
AcDbLine
 10
98.528318405
 20
25.5304921668
 30
0.0
 11
98.528318405
 21
31.1527948814
 31
0.0
  0
LINE
  5
366
330
224
100
AcDbEntity
  8
0
  6
Continuous
 62
     2
100
AcDbLine
 10
98.528318405
 20
42.5304921668
 30
0.0
 11
98.528318405
 21
35.8194615481
 31
0.0
  0
INSERT
  5
367
330
224
100
AcDbEntity
  8
0
  6
Continuous
 62
     2
100
AcDbBlockReference
  2
_FILLED
 10
98.528318405
 20
25.5304921668
 30
0.0
 41
2.0
 42
2.0
 43
2.0
 50
270.0
  0
INSERT
  5
368
330
224
100
AcDbEntity
  8
0
  6
Continuous
 62
     2
100
AcDbBlockReference
  2
_FILLED
 10
98.528318405
 20
42.5304921668
 30
0.0
 41
2.0
 42
2.0
 43
2.0
 50
90.0
  0
ENDBLK
  5
369
330
224
100
AcDbEntity
  8
0
  6
ByBlock
 62
     0
100
AcDbBlockEnd
  0
BLOCK
  5
36A
330
225
100
AcDbEntity
  8
0
  6
Continuous
 62
     2
100
AcDbBlockBegin
  2
*D3
 70
     1
 10
0.0
 20
0.0
 30
0.0
  3
*D3
  1

  0
MTEXT
  5
36B
330
225
100
AcDbEntity
  8
0
  6
Continuous
 62
     2
100
AcDbMText
 10
89.1648624535
 20
36.6971588335
 30
0.0
 40
1.333333333299999
 41
6.4
 71
     2
 72
     1
  1
21\P[53,3]
 73
     1
 44
0.9
  0
LINE
  5
36C
330
225
100
AcDbEntity
  8
0
  6
Continuous
 62
     2
100
AcDbLine
 10
101.6181189504
 20
46.5304921668
 30
0.0
 11
89.9648624535
 21
46.5304921668
 31
0.0
  0
LINE
  5
36D
330
225
100
AcDbEntity
  8
0
  6
Continuous
 62
     2
100
AcDbLine
 10
107.7194389784
 20
25.5304921668
 30
0.0
 11
89.9648624535
 21
25.5304921668
 31
0.0
  0
LINE
  5
36E
330
225
100
AcDbEntity
  8
0
  6
Continuous
 62
     2
100
AcDbLine
 10
91.29819578680001
 20
46.5304921668
 30
0.0
 11
91.29819578680001
 21
37.3638255002
 31
0.0
  0
LINE
  5
36F
330
225
100
AcDbEntity
  8
0
  6
Continuous
 62
     2
100
AcDbLine
 10
91.29819578680001
 20
25.5304921668
 30
0.0
 11
91.29819578680001
 21
32.6971588335
 31
0.0
  0
INSERT
  5
370
330
225
100
AcDbEntity
  8
0
  6
Continuous
 62
     2
100
AcDbBlockReference
  2
_FILLED
 10
91.29819578680001
 20
46.5304921668
 30
0.0
 41
2.0
 42
2.0
 43
2.0
 50
90.0
  0
INSERT
  5
371
330
225
100
AcDbEntity
  8
0
  6
Continuous
 62
     2
100
AcDbBlockReference
  2
_FILLED
 10
91.29819578680001
 20
25.5304921668
 30
0.0
 41
2.0
 42
2.0
 43
2.0
 50
270.0
  0
ENDBLK
  5
372
330
225
100
AcDbEntity
  8
0
  6
ByBlock
 62
     0
100
AcDbBlockEnd
  0
BLOCK
  5
373
330
226
100
AcDbEntity
  8
0
  6
Continuous
 62
     2
100
AcDbBlockBegin
  2
*D4
 70
     1
 10
0.0
 20
0.0
 30
0.0
  3
*D4
  1

  0
MTEXT
  5
374
330
226
100
AcDbEntity
  8
0
  6
Continuous
 62
     2
100
AcDbMText
 10
97.4691616391
 20
82.43706273029999
 30
0.0
 40
1.333333333299999
 41
4.266666666699999
 71
     2
 72
     1
  1
31\P[79]
 73
     1
 44
0.9
  0
LINE
  5
375
330
226
100
AcDbEntity
  8
0
  6
Continuous
 62
     2
100
AcDbLine
 10
82.5546806624
 20
95.86591072709998
 30
0.0
 11
99.86916163910001
 21
95.86591072709998
 31
0.0
  0
LINE
  5
376
330
226
100
AcDbEntity
  8
0
  6
Continuous
 62
     2
100
AcDbLine
 10
82.5546806624
 20
64.8659107271
 30
0.0
 11
99.86916163910001
 21
64.8659107271
 31
0.0
  0
LINE
  5
377
330
226
100
AcDbEntity
  8
0
  6
Continuous
 62
     2
100
AcDbLine
 10
98.5358283058
 20
95.86591072709998
 30
0.0
 11
98.5358283058
 21
83.103729397
 31
0.0
  0
LINE
  5
378
330
226
100
AcDbEntity
  8
0
  6
Continuous
 62
     2
100
AcDbLine
 10
98.5358283058
 20
64.8659107271
 30
0.0
 11
98.5358283058
 21
78.4370627303
 31
0.0
  0
INSERT
  5
379
330
226
100
AcDbEntity
  8
0
  6
Continuous
 62
     2
100
AcDbBlockReference
  2
_FILLED
 10
98.5358283058
 20
95.86591072709998
 30
0.0
 41
2.0
 42
2.0
 43
2.0
 50
90.0
  0
INSERT
  5
37A
330
226
100
AcDbEntity
  8
0
  6
Continuous
 62
     2
100
AcDbBlockReference
  2
_FILLED
 10
98.5358283058
 20
64.8659107271
 30
0.0
 41
2.0
 42
2.0
 43
2.0
 50
270.0
  0
ENDBLK
  5
37B
330
226
100
AcDbEntity
  8
0
  6
ByBlock
 62
     0
100
AcDbBlockEnd
  0
BLOCK
  5
37C
330
227
100
AcDbEntity
  8
0
  6
Continuous
 62
     2
100
AcDbBlockBegin
  2
*D5
 70
     1
 10
0.0
 20
0.0
 30
0.0
  3
*D5
  1

  0
MTEXT
  5
37D
330
227
100
AcDbEntity
  8
0
  6
Continuous
 62
     2
100
AcDbMText
 10
94.6791418911
 20
61.4958760158
 30
0.0
 40
1.333333333299999
 41
5.333333333299999
 71
     1
 72
     1
  1
1-7/8\P[5]
 73
     1
 44
0.9
  0
LINE
  5
37E
330
227
100
AcDbEntity
  8
0
  6
Continuous
 62
     2
100
AcDbLine
 10
82.5546806624
 20
64.8659107271
 30
0.0
 11
93.34580855780002
 21
64.8659107271
 31
0.0
  0
LINE
  5
37F
330
227
100
AcDbEntity
  8
0
  6
Continuous
 62
     2
100
AcDbLine
 10
82.89063775809999
 20
66.7916494872
 30
0.0
 11
93.34580855780002
 21
66.7916494872
 31
0.0
  0
LINE
  5
380
330
227
100
AcDbEntity
  8
0
  6
Continuous
 62
     2
100
AcDbLine
 10
92.01247522450001
 20
64.8659107271
 30
0.0
 11
92.01247522450001
 21
60.82920934909999
 31
0.0
  0
LINE
  5
381
330
227
100
AcDbEntity
  8
0
  6
Continuous
 62
     2
100
AcDbLine
 10
92.01247522450001
 20
60.82920934909999
 30
0.0
 11
94.01247522450001
 21
60.82920934909999
 31
0.0
  0
LINE
  5
382
330
227
100
AcDbEntity
  8
0
  6
Continuous
 62
     2
100
AcDbLine
 10
92.01247522450001
 20
66.7916494872
 30
0.0
 11
92.01247522450001
 21
72.12498282050001
 31
0.0
  0
INSERT
  5
383
330
227
100
AcDbEntity
  8
0
  6
Continuous
 62
     2
100
AcDbBlockReference
  2
_FILLED
 10
92.01247522450001
 20
64.8659107271
 30
0.0
 41
2.0
 42
2.0
 43
2.0
 50
90.0
  0
INSERT
  5
384
330
227
100
AcDbEntity
  8
0
  6
Continuous
 62
     2
100
AcDbBlockReference
  2
_FILLED
 10
92.01247522450001
 20
66.7916494872
 30
0.0
 41
2.0
 42
2.0
 43
2.0
 50
270.0
  0
ENDBLK
  5
385
330
227
100
AcDbEntity
  8
0
  6
ByBlock
 62
     0
100
AcDbBlockEnd
  0
BLOCK
  5
386
330
228
100
AcDbEntity
  8
0
  6
Continuous
 62
     2
100
AcDbBlockBegin
  2
*D6
 70
     1
 10
0.0
 20
0.0
 30
0.0
  3
*D6
  1

  0
MTEXT
  5
387
330
228
100
AcDbEntity
  8
0
  6
Continuous
 62
     2
100
AcDbMText
 10
87.92701121950001
 20
101.76115537
 30
0.0
 40
1.333333333299999
 41
5.333333333299999
 71
     1
 72
     1
  1
3-3/8\P[9]
 73
     1
 44
0.9
  0
LINE
  5
388
330
228
100
AcDbEntity
  8
0
  6
Continuous
 62
     2
100
AcDbLine
 10
81.88801399569999
 20
96.5325773938
 30
0.0
 11
81.88801399569999
 21
102.4278220367
 31
0.0
  0
LINE
  5
389
330
228
100
AcDbEntity
  8
0
  6
Continuous
 62
     2
100
AcDbLine
 10
78.50482148729999
 20
96.7776830915
 30
0.0
 11
78.50482148729999
 21
102.4278220367
 31
0.0
  0
LINE
  5
38A
330
228
100
AcDbEntity
  8
0
  6
Continuous
 62
     2
100
AcDbLine
 10
81.88801399569999
 20
101.0944887034
 30
0.0
 11
87.2603445528
 21
101.0944887034
 31
0.0
  0
LINE
  5
38B
330
228
100
AcDbEntity
  8
0
  6
Continuous
 62
     2
100
AcDbLine
 10
78.50482148729999
 20
101.0944887034
 30
0.0
 11
73.171488154
 21
101.0944887034
 31
0.0
  0
INSERT
  5
38C
330
228
100
AcDbEntity
  8
0
  6
Continuous
 62
     2
100
AcDbBlockReference
  2
_FILLED
 10
81.88801399569999
 20
101.0944887034
 30
0.0
 41
2.0
 42
2.0
 43
2.0
 50
180.0
  0
INSERT
  5
38D
330
228
100
AcDbEntity
  8
0
  6
Continuous
 62
     2
100
AcDbBlockReference
  2
_FILLED
 10
78.50482148729999
 20
101.0944887034
 30
0.0
 41
2.0
 42
2.0
 43
2.0
  0
ENDBLK
  5
38E
330
228
100
AcDbEntity
  8
0
  6
ByBlock
 62
     0
100
AcDbBlockEnd
  0
BLOCK
  5
38F
330
229
100
AcDbEntity
  8
0
  6
Continuous
 62
     2
100
AcDbBlockBegin
  2
*D7
 70
     1
 10
0.0
 20
0.0
 30
0.0
  3
*D7
  1

  0
MTEXT
  5
390
330
229
100
AcDbEntity
  8
0
  6
Continuous
 62
     2
100
AcDbMText
 10
46.6380139957
 20
56.9444061984
 30
0.0
 40
1.333333333299999
 41
6.4
 71
     2
 72
     1
  1
70-1/2\P[179]
 73
     1
 44
0.9
  0
LINE
  5
391
330
229
100
AcDbEntity
  8
0
  6
Continuous
 62
     2
100
AcDbLine
 10
81.88801399569999
 20
64.1992440605
 30
0.0
 11
81.88801399569999
 21
54.9444061984
 31
0.0
  0
LINE
  5
392
330
229
100
AcDbEntity
  8
0
  6
Continuous
 62
     2
100
AcDbLine
 10
11.3880139957
 20
64.1992440605
 30
0.0
 11
11.3880139957
 21
54.9444061984
 31
0.0
  0
LINE
  5
393
330
229
100
AcDbEntity
  8
0
  6
Continuous
 62
     2
100
AcDbLine
 10
81.88801399569999
 20
56.2777395318
 30
0.0
 11
50.5046806624
 21
56.2777395318
 31
0.0
  0
LINE
  5
394
330
229
100
AcDbEntity
  8
0
  6
Continuous
 62
     2
100
AcDbLine
 10
11.3880139957
 20
56.2777395318
 30
0.0
 11
42.771347329
 21
56.2777395318
 31
0.0
  0
INSERT
  5
395
330
229
100
AcDbEntity
  8
0
  6
Continuous
 62
     2
100
AcDbBlockReference
  2
_FILLED
 10
81.88801399569999
 20
56.2777395318
 30
0.0
 41
2.0
 42
2.0
 43
2.0
  0
INSERT
  5
396
330
229
100
AcDbEntity
  8
0
  6
Continuous
 62
     2
100
AcDbBlockReference
  2
_FILLED
 10
11.3880139957
 20
56.2777395318
 30
0.0
 41
2.0
 42
2.0
 43
2.0
 50
180.0
  0
ENDBLK
  5
397
330
229
100
AcDbEntity
  8
0
  6
ByBlock
 62
     0
100
AcDbBlockEnd
  0
BLOCK
  5
398
330
22A
100
AcDbEntity
  8
0
  6
Continuous
 62
     2
100
AcDbBlockBegin
  2
*D8
 70
     1
 10
0.0
 20
0.0
 30
0.0
  3
*D8
  1

  0
MTEXT
  5
399
330
22A
100
AcDbEntity
  8
0
  6
Continuous
 62
     2
100
AcDbMText
 10
87.1665995833
 20
81.05983302609999
 30
0.0
 40
1.333333333299999
 41
6.4
 71
     2
 72
     1
  1
22\P[55,9]
 73
     1
 44
0.9
  0
LINE
  5
39A
330
22A
100
AcDbEntity
  8
0
  6
Continuous
 62
     2
100
AcDbLine
 10
82.78509156050001
 20
91.51269089610002
 30
0.0
 11
86.0999329166
 21
91.51269089610002
 31
0.0
  0
LINE
  5
39B
330
22A
100
AcDbEntity
  8
0
  6
Continuous
 62
     2
100
AcDbLine
 10
86.0999329166
 20
91.51269089610002
 30
0.0
 11
88.4999329166
 21
91.51269089610002
 31
0.0
  0
LINE
  5
39C
330
22A
100
AcDbEntity
  8
0
  6
Continuous
 62
     2
100
AcDbLine
 10
82.9798899697
 20
69.2736418228
 30
0.0
 11
86.0999329166
 21
69.2736418228
 31
0.0
  0
LINE
  5
39D
330
22A
100
AcDbEntity
  8
0
  6
Continuous
 62
     2
100
AcDbLine
 10
86.0999329166
 20
69.2736418228
 30
0.0
 11
88.4999329166
 21
69.2736418228
 31
0.0
  0
LINE
  5
39E
330
22A
100
AcDbEntity
  8
0
  6
Continuous
 62
     2
100
AcDbLine
 10
87.1665995833
 20
91.51269089610002
 30
0.0
 11
87.1665995833
 21
81.7264996928
 31
0.0
  0
LINE
  5
39F
330
22A
100
AcDbEntity
  8
0
  6
Continuous
 62
     2
100
AcDbLine
 10
87.1665995833
 20
69.2736418228
 30
0.0
 11
87.1665995833
 21
77.05983302609999
 31
0.0
  0
INSERT
  5
3A0
330
22A
100
AcDbEntity
  8
0
  6
Continuous
 62
     2
100
AcDbBlockReference
  2
_FILLED
 10
87.1665995833
 20
91.51269089610002
 30
0.0
 41
2.0
 42
2.0
 43
2.0
 50
90.0
  0
INSERT
  5
3A1
330
22A
100
AcDbEntity
  8
0
  6
Continuous
 62
     2
100
AcDbBlockReference
  2
_FILLED
 10
87.1665995833
 20
69.2736418228
 30
0.0
 41
2.0
 42
2.0
 43
2.0
 50
270.0
  0
ENDBLK
  5
3A2
330
22A
100
AcDbEntity
  8
0
  6
ByBlock
 62
     0
100
AcDbBlockEnd
  0
BLOCK
  5
3A3
330
22B
100
AcDbEntity
  8
0
  6
Continuous
 62
     2
100
AcDbBlockBegin
  2
*D9
 70
     1
 10
0.0
 20
0.0
 30
0.0
  3
*D9
  1

  0
MTEXT
  5
3A4
330
22B
100
AcDbEntity
  8
0
  6
Continuous
 62
     2
100
AcDbMText
 10
47.8389002581
 20
101.6950855355
 30
0.0
 40
1.333333333299999
 41
7.466666666699999
 71
     2
 72
     1
  1
48-1/8\P[122,2]
 73
     1
 44
0.9
  0
LINE
  5
3A5
330
22B
100
AcDbEntity
  8
0
  6
Continuous
 62
     2
100
AcDbLine
 10
70.9190793984
 20
96.83971867750001
 30
0.0
 11
70.9190793984
 21
100.3617522021
 31
0.0
  0
LINE
  5
3A6
330
22B
100
AcDbEntity
  8
0
  6
Continuous
 62
     2
100
AcDbLine
 10
70.9190793984
 20
100.3617522021
 30
0.0
 11
70.9190793984
 21
102.3617522021
 31
0.0
  0
LINE
  5
3A7
330
22B
100
AcDbEntity
  8
0
  6
Continuous
 62
     2
100
AcDbLine
 10
22.3569485929
 20
97.001209969
 30
0.0
 11
22.3569485929
 21
100.3617522021
 31
0.0
  0
LINE
  5
3A8
330
22B
100
AcDbEntity
  8
0
  6
Continuous
 62
     2
100
AcDbLine
 10
22.3569485929
 20
100.3617522021
 30
0.0
 11
22.3569485929
 21
102.3617522021
 31
0.0
  0
LINE
  5
3A9
330
22B
100
AcDbEntity
  8
0
  6
Continuous
 62
     2
100
AcDbLine
 10
70.9190793984
 20
101.0284188688
 30
0.0
 11
51.70556692479999
 21
101.0284188688
 31
0.0
  0
LINE
  5
3AA
330
22B
100
AcDbEntity
  8
0
  6
Continuous
 62
     2
100
AcDbLine
 10
22.3569485929
 20
101.0284188688
 30
0.0
 11
43.97223359149999
 21
101.0284188688
 31
0.0
  0
INSERT
  5
3AB
330
22B
100
AcDbEntity
  8
0
  6
Continuous
 62
     2
100
AcDbBlockReference
  2
_FILLED
 10
70.9190793984
 20
101.0284188688
 30
0.0
 41
2.0
 42
2.0
 43
2.0
  0
INSERT
  5
3AC
330
22B
100
AcDbEntity
  8
0
  6
Continuous
 62
     2
100
AcDbBlockReference
  2
_FILLED
 10
22.3569485929
 20
101.0284188688
 30
0.0
 41
2.0
 42
2.0
 43
2.0
 50
180.0
  0
ENDBLK
  5
3AD
330
22B
100
AcDbEntity
  8
0
  6
ByBlock
 62
     0
100
AcDbBlockEnd
  0
BLOCK
  5
3AE
330
22C
100
AcDbEntity
  8
0
  6
Continuous
 62
     2
100
AcDbBlockBegin
  2
*D10
 70
     1
 10
0.0
 20
0.0
 30
0.0
  3
*D10
  1

  0
MTEXT
  5
3AF
330
22C
100
AcDbEntity
  8
0
  6
Continuous
 62
     2
100
AcDbMText
 10
75.0485658873
 20
61.65914898989999
 30
0.0
 40
1.333333333299999
 41
5.333333333299999
 71
     3
 72
     1
  1
1-3/8\P[3]
 73
     1
 44
0.9
  0
LINE
  5
3B0
330
22C
100
AcDbEntity
  8
0
  6
Continuous
 62
     2
100
AcDbLine
 10
80.5540224545
 20
64.0101040862
 30
0.0
 11
80.554617435
 21
59.6599020444
 31
0.0
  0
LINE
  5
3B1
330
22C
100
AcDbEntity
  8
0
  6
Continuous
 62
     2
100
AcDbLine
 10
81.8881051762
 20
64.1992440667
 30
0.0
 11
81.88872600059999
 21
59.66008451149999
 31
0.0
  0
LINE
  5
3B2
330
22C
100
AcDbEntity
  8
0
  6
Continuous
 62
     2
100
AcDbLine
 10
80.55443507399999
 20
60.9932353653
 30
0.0
 11
75.71523255390001
 21
60.9925735038
 31
0.0
  0
LINE
  5
3B3
330
22C
100
AcDbEntity
  8
0
  6
Continuous
 62
     2
100
AcDbLine
 10
81.8885436396
 20
60.99341783239999
 30
0.0
 11
87.221876923
 21
60.9941472766
 31
0.0
  0
INSERT
  5
3B4
330
22C
100
AcDbEntity
  8
0
  6
Continuous
 62
     2
100
AcDbBlockReference
  2
_FILLED
 10
80.55443507399999
 20
60.9932353653
 30
0.0
 41
2.0
 42
2.0
 43
2.0
 50
0.0078363888
  0
INSERT
  5
3B5
330
22C
100
AcDbEntity
  8
0
  6
Continuous
 62
     2
100
AcDbBlockReference
  2
_FILLED
 10
81.8885436396
 20
60.99341783239999
 30
0.0
 41
2.0
 42
2.0
 43
2.0
 50
180.0078363887999
  0
ENDBLK
  5
3B6
330
22C
100
AcDbEntity
  8
0
  6
ByBlock
 62
     0
100
AcDbBlockEnd
  0
BLOCK
  5
3B7
330
22D
100
AcDbEntity
  8
0
  6
Continuous
 62
     2
100
AcDbBlockBegin
  2
*D11
 70
     1
 10
0.0
 20
0.0
 30
0.0
  3
*D11
  1

  0
MTEXT
  5
3B8
330
22D
100
AcDbEntity
  8
0
  6
Continuous
 62
     2
100
AcDbMText
 10
59.07463794369999
 20
20.0722923839
 30
0.0
 40
1.333333333299999
 41
1.955555555599999
 71
     2
 72
     1
  1
1\Fgdt;{\Fgdt;~}
 73
     1
 44
0.9
  0
LINE
  5
3B9
330
22D
100
AcDbEntity
  8
0
  6
Continuous
 62
     2
100
AcDbLine
 10
48.9909020056
 20
25.5304921668
 30
0.0
 11
62.03032686069999
 21
25.5304921668
 31
0.0
  0
ARC
  5
3BA
330
22D
100
AcDbEntity
  8
0
  6
Continuous
 62
     2
100
AcDbCircle
 10
48.32423533890001
 20
25.5304921668
 30
0.0
 40
12.3727581884
100
AcDbArc
 50
330.3283781963
 51
360.0
  0
ARC
  5
3BB
330
22D
100
AcDbEntity
  8
0
  6
Continuous
 62
     2
100
AcDbCircle
 10
48.32423533890001
 20
25.5304921668
 30
0.0
 40
12.3727581884
100
AcDbArc
 50
1.316233603499999
 51
26.0138382995
  0
SOLID
  5
3BC
330
22D
100
AcDbEntity
  8
0
  6
Continuous
 62
     2
100
AcDbTrace
 10
60.8677692187
 20
23.5101093382
 30
0.0
 11
60.69699352739999
 21
25.5304921668
 31
0.0
 12
60.2032788045
 22
23.5639325101
 32
0.0
 13
60.2032788045
 23
23.5639325101
 33
0.0
  0
SOLID
  5
3BD
330
22D
100
AcDbEntity
  8
0
  6
Continuous
 62
     2
100
AcDbTrace
 10
60.1549713796
 20
27.7694015614
 30
0.0
 11
60.6937288662
 21
25.814701717
 31
0.0
 12
60.81805011210001
 22
27.8384742681
 32
0.0
 13
60.81805011210001
 23
27.8384742681
 33
0.0
  0
ENDBLK
  5
3BE
330
22D
100
AcDbEntity
  8
0
  6
ByBlock
 62
     0
100
AcDbBlockEnd
  0
BLOCK
  5
3BF
330
22E
100
AcDbEntity
  8
0
  6
Continuous
 62
     2
100
AcDbBlockBegin
  2
*D12
 70
     1
 10
0.0
 20
0.0
 30
0.0
  3
*D12
  1

  0
MTEXT
  5
3C0
330
22E
100
AcDbEntity
  8
0
  6
Continuous
 62
     2
100
AcDbMText
 10
113.5481416199
 20
18.6411762161
 30
0.0
 40
1.333333333299999
 41
5.333333333299999
 71
     1
 72
     1
  1
6-1/8\P[16]
 73
     1
 44
0.9
  0
LINE
  5
3C1
330
22E
100
AcDbEntity
  8
0
  6
Continuous
 62
     2
100
AcDbLine
 10
111.0350711375
 20
23.1721588335
 30
0.0
 11
111.0350711375
 21
16.6411762161
 31
0.0
  0
LINE
  5
3C2
330
22E
100
AcDbEntity
  8
0
  6
Continuous
 62
     2
100
AcDbLine
 10
104.9325711375
 20
19.45465883349999
 30
0.0
 11
104.9325711375
 21
16.6411762161
 31
0.0
  0
LINE
  5
3C3
330
22E
100
AcDbEntity
  8
0
  6
Continuous
 62
     2
100
AcDbLine
 10
111.0350711375
 20
17.9745095494
 30
0.0
 11
107.9838211375
 21
17.9745095494
 31
0.0
  0
LINE
  5
3C4
330
22E
100
AcDbEntity
  8
0
  6
Continuous
 62
     2
100
AcDbLine
 10
107.9838211375
 20
17.9745095494
 30
0.0
 11
112.8814749532
 21
17.9745095494
 31
0.0
  0
LINE
  5
3C5
330
22E
100
AcDbEntity
  8
0
  6
Continuous
 62
     2
100
AcDbLine
 10
104.9325711375
 20
17.9745095494
 30
0.0
 11
107.9838211375
 21
17.9745095494
 31
0.0
  0
INSERT
  5
3C6
330
22E
100
AcDbEntity
  8
0
  6
Continuous
 62
     2
100
AcDbBlockReference
  2
_FILLED
 10
111.0350711375
 20
17.9745095494
 30
0.0
 41
2.0
 42
2.0
 43
2.0
  0
INSERT
  5
3C7
330
22E
100
AcDbEntity
  8
0
  6
Continuous
 62
     2
100
AcDbBlockReference
  2
_FILLED
 10
104.9325711375
 20
17.9745095494
 30
0.0
 41
2.0
 42
2.0
 43
2.0
 50
180.0
  0
ENDBLK
  5
3C8
330
22E
100
AcDbEntity
  8
0
  6
ByBlock
 62
     0
100
AcDbBlockEnd
  0
BLOCK
  5
3C9
330
22F
100
AcDbEntity
  8
0
  6
Continuous
 62
     2
100
AcDbBlockBegin
  2
*D13
 70
     1
 10
0.0
 20
0.0
 30
0.0
  3
*D13
  1

  0
MTEXT
  5
3CA
330
22F
100
AcDbEntity
  8
0
  6
Continuous
 62
     2
100
AcDbMText
 10
97.55466423000001
 20
15.1229915346
 30
0.0
 40
1.333333333299999
 41
5.333333333299999
 71
     3
 72
     1
  1
2-3/4\P[7]
 73
     1
 44
0.9
  0
LINE
  5
3CB
330
22F
100
AcDbEntity
  8
0
  6
Continuous
 62
     2
100
AcDbLine
 10
102.2357811375
 20
23.8638255002
 30
0.0
 11
102.2357811375
 21
13.1229915346
 31
0.0
  0
LINE
  5
3CC
330
22F
100
AcDbEntity
  8
0
  6
Continuous
 62
     2
100
AcDbLine
 10
104.9325711375
 20
19.45465883349999
 30
0.0
 11
104.9325711375
 21
13.1229915346
 31
0.0
  0
LINE
  5
3CD
330
22F
100
AcDbEntity
  8
0
  6
Continuous
 62
     2
100
AcDbLine
 10
102.2357811375
 20
14.4563248679
 30
0.0
 11
98.2213308967
 21
14.4563248679
 31
0.0
  0
LINE
  5
3CE
330
22F
100
AcDbEntity
  8
0
  6
Continuous
 62
     2
100
AcDbLine
 10
104.9325711375
 20
14.4563248679
 30
0.0
 11
110.2659044708
 21
14.4563248679
 31
0.0
  0
INSERT
  5
3CF
330
22F
100
AcDbEntity
  8
0
  6
Continuous
 62
     2
100
AcDbBlockReference
  2
_FILLED
 10
102.2357811375
 20
14.4563248679
 30
0.0
 41
2.0
 42
2.0
 43
2.0
  0
INSERT
  5
3D0
330
22F
100
AcDbEntity
  8
0
  6
Continuous
 62
     2
100
AcDbBlockReference
  2
_FILLED
 10
104.9325711375
 20
14.4563248679
 30
0.0
 41
2.0
 42
2.0
 43
2.0
 50
180.0
  0
ENDBLK
  5
3D1
330
22F
100
AcDbEntity
  8
0
  6
ByBlock
 62
     0
100
AcDbBlockEnd
  0
BLOCK
  5
3D2
330
230
100
AcDbEntity
  8
0
  6
Continuous
 62
     2
100
AcDbBlockBegin
  2
*D14
 70
     1
 10
0.0
 20
0.0
 30
0.0
  3
*D14
  1

  0
MTEXT
  5
3D3
330
230
100
AcDbEntity
  8
0
  6
Continuous
 62
     2
100
AcDbMText
 10
86.2981471332
 20
39.2470429351
 30
0.0
 40
1.333333333299999
 41
3.0222222222
 71
     2
 72
     1
  1
24\Fgdt;{\Fgdt;~}
 73
     1
 44
0.9
  0
LINE
  5
3D4
330
230
100
AcDbEntity
  8
0
  6
Continuous
 62
     2
100
AcDbLine
 10
75.5192413189
 20
38.0655882937
 30
0.0
 11
74.3063440749
 21
35.34137648090001
 31
0.0
  0
LINE
  5
3D5
330
230
100
AcDbEntity
  8
0
  6
Continuous
 62
     2
100
AcDbLine
 10
79.2880593416
 20
45.8638255002
 30
0.0
 11
79.2880593416
 21
34.5978346265
 31
0.0
  0
ARC
  5
3D6
330
230
100
AcDbEntity
  8
0
  6
Continuous
 62
     2
100
AcDbCircle
 10
79.2880593416
 20
46.5304921668
 30
0.0
 40
10.599324207
100
AcDbArc
 50
217.1700968129
 51
246.0
  0
ARC
  5
3D7
330
230
100
AcDbEntity
  8
0
  6
Continuous
 62
     2
100
AcDbCircle
 10
79.2880593416
 20
46.5304921668
 30
0.0
 40
10.599324207
100
AcDbArc
 50
270.0
 51
311.4045324783
  0
SOLID
  5
3D8
330
230
100
AcDbEntity
  8
0
  6
Continuous
 62
     2
100
AcDbTrace
 10
73.0709312564
 20
37.539117107
 30
0.0
 11
74.97692579479999
 21
36.8475276835
 31
0.0
 12
73.39825726069999
 22
38.1198942858
 32
0.0
 13
73.39825726069999
 23
38.1198942858
 33
0.0
  0
SOLID
  5
3D9
330
230
100
AcDbEntity
  8
0
  6
Continuous
 62
     2
100
AcDbTrace
 10
81.2477629306
 20
36.4514303498
 30
0.0
 11
79.2880593416
 21
35.93116795989999
 31
0.0
 12
81.31056675489999
 22
35.787728516
 32
0.0
 13
81.31056675489999
 23
35.787728516
 33
0.0
  0
ENDBLK
  5
3DA
330
230
100
AcDbEntity
  8
0
  6
ByBlock
 62
     0
100
AcDbBlockEnd
  0
BLOCK
  5
3DB
330
231
100
AcDbEntity
  8
0
  6
Continuous
 62
     2
100
AcDbBlockBegin
  2
*D15
 70
     1
 10
0.0
 20
0.0
 30
0.0
  3
*D15
  1

  0
MTEXT
  5
3DC
330
231
100
AcDbEntity
  8
0
  6
Continuous
 62
     2
100
AcDbMText
 10
6.5600672484
 20
38.18784388520001
 30
0.0
 40
1.333333333299999
 41
3.0222222222
 71
     2
 72
     1
  1
24\Fgdt;{\Fgdt;~}
 73
     1
 44
0.9
  0
LINE
  5
3DD
330
231
100
AcDbEntity
  8
0
  6
Continuous
 62
     2
100
AcDbLine
 10
13.9879686498
 20
45.8638255002
 30
0.0
 11
13.9879686498
 21
33.5206235997
 31
0.0
  0
LINE
  5
3DE
330
231
100
AcDbEntity
  8
0
  6
Continuous
 62
     2
100
AcDbLine
 10
18.1949278695
 20
37.0815070532
 30
0.0
 11
19.2485223224
 21
34.7150951672
 31
0.0
  0
ARC
  5
3DF
330
231
100
AcDbEntity
  8
0
  6
Continuous
 62
     2
100
AcDbCircle
 10
13.9879686498
 20
46.5304921668
 30
0.0
 40
11.6765352338
100
AcDbArc
 50
230.4954743218
 51
270.0
  0
ARC
  5
3E0
330
231
100
AcDbEntity
  8
0
  6
Continuous
 62
     2
100
AcDbCircle
 10
13.9879686498
 20
46.5304921668
 30
0.0
 40
11.6765352338
100
AcDbArc
 50
294.0
 51
320.1702195572
  0
SOLID
  5
3E1
330
231
100
AcDbEntity
  8
0
  6
Continuous
 62
     2
100
AcDbTrace
 10
11.9667862962
 20
34.6929196561
 30
0.0
 11
13.9879686498
 21
34.853956933
 31
0.0
 12
12.0238110903
 22
35.3571429749
 32
0.0
 13
12.0238110903
 23
35.3571429749
 33
0.0
  0
SOLID
  5
3E2
330
231
100
AcDbEntity
  8
0
  6
Continuous
 62
     2
100
AcDbTrace
 10
20.3269264086
 20
37.1220246181
 30
0.0
 11
18.7372433936
 21
35.863446443
 31
0.0
 12
20.6491851132
 22
36.53842049570001
 32
0.0
 13
20.6491851132
 23
36.53842049570001
 33
0.0
  0
ENDBLK
  5
3E3
330
231
100
AcDbEntity
  8
0
  6
ByBlock
 62
     0
100
AcDbBlockEnd
  0
BLOCK
  5
3E4
330
232
100
AcDbEntity
  8
0
  6
Continuous
 62
     2
100
AcDbBlockBegin
  2
*D16
 70
     1
 10
0.0
 20
0.0
 30
0.0
  3
*D16
  1

  0
MTEXT
  5
3E5
330
232
100
AcDbEntity
  8
0
  6
Continuous
 62
     2
100
AcDbMText
 10
137.8368913655
 20
40.59019182340001
 30
0.0
 40
1.333333333299999
 41
1.955555555599999
 71
     2
 72
     1
  1
8\Fgdt;{\Fgdt;~}
 73
     1
 44
0.9
  0
LINE
  5
3E6
330
232
100
AcDbEntity
  8
0
  6
Continuous
 62
     2
100
AcDbLine
 10
130.2862549362
 20
38.7066340725
 30
0.0
 11
129.8970579457
 21
35.9373535898
 31
0.0
  0
LINE
  5
3E7
330
232
100
AcDbEntity
  8
0
  6
Continuous
 62
     2
100
AcDbLine
 10
131.3858264834
 20
45.8638255002
 30
0.0
 11
131.3858264834
 21
35.96307787300001
 31
0.0
  0
ARC
  5
3E8
330
232
100
AcDbEntity
  8
0
  6
Continuous
 62
     2
100
AcDbCircle
 10
131.3858264834
 20
46.5304921668
 30
0.0
 40
9.2340809605
100
AcDbArc
 50
228.9076444052
 51
262.0
  0
ARC
  5
3E9
330
232
100
AcDbEntity
  8
0
  6
Continuous
 62
     2
100
AcDbCircle
 10
131.3858264834
 20
46.5304921668
 30
0.0
 40
9.2340809605
100
AcDbArc
 50
270.0
 51
314.3159681617
  0
SOLID
  5
3EA
330
232
100
AcDbEntity
  8
0
  6
Continuous
 62
     2
100
AcDbTrace
 10
128.0800450587
 20
37.5539128391
 30
0.0
 11
130.1006908016
 21
37.3862766475
 31
0.0
 12
128.2436376475
 22
38.2001959886
 32
0.0
 13
128.2436376475
 23
38.2001959886
 33
0.0
  0
SOLID
  5
3EB
330
232
100
AcDbEntity
  8
0
  6
Continuous
 62
     2
100
AcDbTrace
 10
133.3380826025
 20
37.8439576943
 30
0.0
 11
131.3858264834
 21
37.2964112063
 31
0.0
 12
133.4101378895
 22
37.18119644010001
 32
0.0
 13
133.4101378895
 23
37.18119644010001
 33
0.0
  0
ENDBLK
  5
3EC
330
232
100
AcDbEntity
  8
0
  6
ByBlock
 62
     0
100
AcDbBlockEnd
  0
BLOCK
  5
23F
330
233
100
AcDbEntity
  8
0
  6
Continuous
 62
     2
100
AcDbBlockBegin
  2
L03-USAGE_INTERNE_SEULEM_BL6
 70
     0
 10
122.7619589286
 20
52.5145421266
 30
0.0
  3
L03-USAGE_INTERNE_SEULEM_BL6
  1

  0
TEXT
  5
240
330
233
100
AcDbEntity
  8
0
  6
Continuous
 62
     7
100
AcDbText
 10
116.4478986268
 20
54.7595761124
 30
0.0
 40
1.1626666667
  1
INTERNAL USE 
 50
10.0
  7
TEXTSTYLE_3
100
AcDbText
  0
TEXT
  5
241
330
233
100
AcDbEntity
  8
0
  6
Continuous
 62
     7
100
AcDbText
 10
115.7042144228
 20
52.7580549348
 30
0.0
 40
1.1626666667
  1
DOCUMENT ONLY
 50
10.0
  7
TEXTSTYLE_3
100
AcDbText
  0
TEXT
  5
242
330
233
100
AcDbEntity
  8
0
  6
Continuous
 62
     7
100
AcDbText
 10
121.488941986
 20
52.5096268842
 30
0.0
 40
1.1626666667
  1
 
 50
10.0
  7
TEXTSTYLE_5
100
AcDbText
  0
TEXT
  5
243
330
233
100
AcDbEntity
  8
0
  6
Continuous
 62
     7
100
AcDbText
 10
113.044294103
 20
48.3325324779
 30
0.0
 40
1.1626666667
  1
DOCUMENT POUR USAGE
 50
10.0
  7
TEXTSTYLE_3
100
AcDbText
  0
TEXT
  5
244
330
233
100
AcDbEntity
  8
0
  6
Continuous
 62
     7
100
AcDbText
 10
113.473393549
 20
46.3157840175
 30
0.0
 40
1.1626666667
  1
A L'INTERNE SEULEMENT
 50
10.0
  7
TEXTSTYLE_3
100
AcDbText
  0
LINE
  5
245
330
233
100
AcDbEntity
  8
0
  6
Continuous
 62
     1
100
AcDbLine
 10
136.6185106519
 20
48.1710085087
 30
0.0
 11
136.6252695845
 21
48.1777674413
 31
0.0
  0
LINE
  5
246
330
233
100
AcDbEntity
  8
0
  6
Continuous
 62
     1
100
AcDbLine
 10
135.8859410855
 20
48.0418367289
 30
0.0
 11
136.5348225306
 21
48.690718174
 31
0.0
  0
LINE
  5
247
330
233
100
AcDbEntity
  8
0
  6
Continuous
 62
     1
100
AcDbLine
 10
135.1533715191
 20
47.91266494899999
 30
0.0
 11
136.4443754767
 21
49.2036689066
 31
0.0
  0
LINE
  5
248
330
233
100
AcDbEntity
  8
0
  6
Continuous
 62
     1
100
AcDbLine
 10
134.4208019526
 20
47.78349316919999
 30
0.0
 11
136.3539284227
 21
49.7166196393
 31
0.0
  0
LINE
  5
249
330
233
100
AcDbEntity
  8
0
  6
Continuous
 62
     1
100
AcDbLine
 10
133.6882323862
 20
47.65432138939999
 30
0.0
 11
136.2634813688
 21
50.229570372
 31
0.0
  0
LINE
  5
24A
330
233
100
AcDbEntity
  8
0
  6
Continuous
 62
     1
100
AcDbLine
 10
132.9556628198
 20
47.5251496096
 30
0.0
 11
134.4966666346
 21
49.06615342439999
 31
0.0
  0
LINE
  5
24B
330
233
100
AcDbEntity
  8
0
  6
Continuous
 62
     1
100
AcDbLine
 10
135.0940118273
 20
49.6634986171
 30
0.0
 11
136.1730343148
 21
50.7425211046
 31
0.0
  0
LINE
  5
24C
330
233
100
AcDbEntity
  8
0
  6
Continuous
 62
     1
100
AcDbLine
 10
132.2230932534
 20
47.39597782979999
 30
0.0
 11
133.7640970682
 21
48.9369816446
 31
0.0
  0
LINE
  5
24D
330
233
100
AcDbEntity
  8
0
  6
Continuous
 62
     1
100
AcDbLine
 10
135.0035647734
 20
50.17644934979999
 30
0.0
 11
136.0825872609
 21
51.25547183729999
 31
0.0
  0
LINE
  5
24E
330
233
100
AcDbEntity
  8
0
  6
Continuous
 62
     1
100
AcDbLine
 10
131.490523687
 20
47.26680605
 30
0.0
 11
133.0315275017
 21
48.80780986479999
 31
0.0
  0
LINE
  5
24F
330
233
100
AcDbEntity
  8
0
  6
Continuous
 62
     1
100
AcDbLine
 10
134.9131177194
 20
50.6894000825
 30
0.0
 11
135.9921402069
 21
51.76842257
 31
0.0
  0
LINE
  5
250
330
233
100
AcDbEntity
  8
0
  6
Continuous
 62
     1
100
AcDbLine
 10
130.7579541205
 20
47.1376342702
 30
0.0
 11
132.2989579353
 21
48.678638085
 31
0.0
  0
LINE
  5
251
330
233
100
AcDbEntity
  8
0
  6
Continuous
 62
     1
100
AcDbLine
 10
134.8226706655
 20
51.2023508151
 30
0.0
 11
135.901693153
 21
52.2813733027
 31
0.0
  0
LINE
  5
252
330
233
100
AcDbEntity
  8
0
  6
Continuous
 62
     1
100
AcDbLine
 10
130.0253845541
 20
47.0084624904
 30
0.0
 11
131.5663883689
 21
48.5494663052
 31
0.0
  0
LINE
  5
253
330
233
100
AcDbEntity
  8
0
  6
Continuous
 62
     1
100
AcDbLine
 10
134.7322236115
 20
51.7153015478
 30
0.0
 11
135.811246099
 21
52.7943240353
 31
0.0
  0
LINE
  5
254
330
233
100
AcDbEntity
  8
0
  6
Continuous
 62
     1
100
AcDbLine
 10
129.2928149877
 20
46.8792907106
 30
0.0
 11
130.8338188025
 21
48.4202945254
 31
0.0
  0
LINE
  5
255
330
233
100
AcDbEntity
  8
0
  6
Continuous
 62
     1
100
AcDbLine
 10
134.6417765576
 20
52.2282522805
 30
0.0
 11
135.7207990451
 21
53.30727476799999
 31
0.0
  0
LINE
  5
256
330
233
100
AcDbEntity
  8
0
  6
Continuous
 62
     1
100
AcDbLine
 10
128.5602454213
 20
46.75011893079999
 30
0.0
 11
130.1012492361
 21
48.2911227456
 31
0.0
  0
LINE
  5
257
330
233
100
AcDbEntity
  8
0
  6
Continuous
 62
     1
100
AcDbLine
 10
134.5513295036
 20
52.7412030131
 30
0.0
 11
135.6303519912
 21
53.8202255007
 31
0.0
  0
LINE
  5
258
330
233
100
AcDbEntity
  8
0
  6
Continuous
 62
     1
100
AcDbLine
 10
127.8276758549
 20
46.620947151
 30
0.0
 11
129.3686796697
 21
48.1619509658
 31
0.0
  0
LINE
  5
259
330
233
100
AcDbEntity
  8
0
  6
Continuous
 62
     1
100
AcDbLine
 10
134.4608824497
 20
53.2541537458
 30
0.0
 11
135.5399049372
 21
54.3331762333
 31
0.0
  0
LINE
  5
25A
330
233
100
AcDbEntity
  8
0
  6
Continuous
 62
     1
100
AcDbLine
 10
127.0951062885
 20
46.49177537119999
 30
0.0
 11
128.6361101032
 21
48.032779186
 31
0.0
  0
LINE
  5
25B
330
233
100
AcDbEntity
  8
0
  6
Continuous
 62
     1
100
AcDbLine
 10
134.3704353958
 20
53.7671044785
 30
0.0
 11
135.4494578833
 21
54.84612696600001
 31
0.0
  0
LINE
  5
25C
330
233
100
AcDbEntity
  8
0
  6
Continuous
 62
     1
100
AcDbLine
 10
126.362536722
 20
46.3626035914
 30
0.0
 11
127.9035405368
 21
47.90360740619999
 31
0.0
  0
LINE
  5
25D
330
233
100
AcDbEntity
  8
0
  6
Continuous
 62
     1
100
AcDbLine
 10
134.0675557959
 20
54.0676226653
 30
0.0
 11
135.3590108293
 21
55.3590776987
 31
0.0
  0
LINE
  5
25E
330
233
100
AcDbEntity
  8
0
  6
Continuous
 62
     1
100
AcDbLine
 10
125.6299671556
 20
46.2334318116
 30
0.0
 11
127.1709709704
 21
47.77443562640001
 31
0.0
  0
LINE
  5
25F
330
233
100
AcDbEntity
  8
0
  6
Continuous
 62
     1
100
AcDbLine
 10
133.3349862295
 20
53.9384508855
 30
0.0
 11
135.2685637754
 21
55.8720284313
 31
0.0
  0
LINE
  5
260
330
233
100
AcDbEntity
  8
0
  6
Continuous
 62
     1
100
AcDbLine
 10
124.8973975892
 20
46.1042600318
 30
0.0
 11
126.438401404
 21
47.64526384649999
 31
0.0
  0
LINE
  5
261
330
233
100
AcDbEntity
  8
0
  6
Continuous
 62
     1
100
AcDbLine
 10
132.6024166631
 20
53.8092791057
 30
0.0
 11
133.6297589614
 21
54.8366214039
 31
0.0
  0
LINE
  5
262
330
233
100
AcDbEntity
  8
0
  6
Continuous
 62
     1
100
AcDbLine
 10
134.0990942339
 20
55.3059566765
 30
0.0
 11
135.1781167214
 21
56.38497916399999
 31
0.0
  0
LINE
  5
263
330
233
100
AcDbEntity
  8
0
  6
Continuous
 62
     1
100
AcDbLine
 10
124.1648280228
 20
45.975088252
 30
0.0
 11
125.7058318376
 21
47.5160920667
 31
0.0
  0
LINE
  5
264
330
233
100
AcDbEntity
  8
0
  6
Continuous
 62
     1
100
AcDbLine
 10
131.8698470967
 20
53.68010732590001
 30
0.0
 11
132.8971891853
 21
54.7074494145
 31
0.0
  0
LINE
  5
265
330
233
100
AcDbEntity
  8
0
  6
Continuous
 62
     1
100
AcDbLine
 10
134.00864718
 20
55.8189074092
 30
0.0
 11
135.0876696675
 21
56.89792989669999
 31
0.0
  0
LINE
  5
266
330
233
100
AcDbEntity
  8
0
  6
Continuous
 62
     1
100
AcDbLine
 10
123.4322584564
 20
45.8459164722
 30
0.0
 11
124.9732622711
 21
47.38692028689999
 31
0.0
  0
LINE
  5
267
330
233
100
AcDbEntity
  8
0
  6
Continuous
 62
     1
100
AcDbLine
 10
131.1372775303
 20
53.550935546
 30
0.0
 11
132.1646194093
 21
54.57827742510001
 31
0.0
  0
LINE
  5
268
330
233
100
AcDbEntity
  8
0
  6
Continuous
 62
     1
100
AcDbLine
 10
133.918200126
 20
56.3318581418
 30
0.0
 11
134.9972226136
 21
57.4108806293
 31
0.0
  0
LINE
  5
269
330
233
100
AcDbEntity
  8
0
  6
Continuous
 62
     1
100
AcDbLine
 10
122.69968889
 20
45.7167446924
 30
0.0
 11
124.2406927047
 21
47.25774850709999
 31
0.0
  0
LINE
  5
26A
330
233
100
AcDbEntity
  8
0
  6
Continuous
 62
     1
100
AcDbLine
 10
130.4047079637999
 20
53.4217637662
 30
0.0
 11
131.4320496333
 21
54.44910543569999
 31
0.0
  0
LINE
  5
26B
330
233
100
AcDbEntity
  8
0
  6
Continuous
 62
     1
100
AcDbLine
 10
133.8277530721
 20
56.8448088745
 30
0.0
 11
134.9067755596
 21
57.923831362
 31
0.0
  0
LINE
  5
26C
330
233
100
AcDbEntity
  8
0
  6
Continuous
 62
     1
100
AcDbLine
 10
121.9671193235
 20
45.5875729126
 30
0.0
 11
123.5081231383
 21
47.12857672729999
 31
0.0
  0
LINE
  5
26D
330
233
100
AcDbEntity
  8
0
  6
Continuous
 62
     1
100
AcDbLine
 10
129.6721383974
 20
53.2925919864
 30
0.0
 11
130.6994798572
 21
54.3199334463
 31
0.0
  0
LINE
  5
26E
330
233
100
AcDbEntity
  8
0
  6
Continuous
 62
     1
100
AcDbLine
 10
133.7373060181
 20
57.3577596072
 30
0.0
 11
134.8163285057
 21
58.4367820947
 31
0.0
  0
LINE
  5
26F
330
233
100
AcDbEntity
  8
0
  6
Continuous
 62
     1
100
AcDbLine
 10
121.2345497571
 20
45.4584011327
 30
0.0
 11
122.7755535719
 21
46.99940494749999
 31
0.0
  0
LINE
  5
270
330
233
100
AcDbEntity
  8
0
  6
Continuous
 62
     1
100
AcDbLine
 10
128.939568831
 20
53.1634202066
 30
0.0
 11
129.9669100812
 21
54.1907614568
 31
0.0
  0
LINE
  5
271
330
233
100
AcDbEntity
  8
0
  6
Continuous
 62
     1
100
AcDbLine
 10
133.6468589642
 20
57.8707103398
 30
0.0
 11
134.7258814517
 21
58.9497328274
 31
0.0
  0
LINE
  5
272
330
233
100
AcDbEntity
  8
0
  6
Continuous
 62
     1
100
AcDbLine
 10
120.5019801907
 20
45.3292293529
 30
0.0
 11
122.0429840055
 21
46.87023316770001
 31
0.0
  0
LINE
  5
273
330
233
100
AcDbEntity
  8
0
  6
Continuous
 62
     1
100
AcDbLine
 10
128.2069992646
 20
53.03424842680001
 30
0.0
 11
129.2343403052
 21
54.06158946739999
 31
0.0
  0
LINE
  5
274
330
233
100
AcDbEntity
  8
0
  6
Continuous
 62
     1
100
AcDbLine
 10
133.5564119103
 20
58.38366107249999
 30
0.0
 11
134.6354343978
 21
59.46268356
 31
0.0
  0
LINE
  5
275
330
233
100
AcDbEntity
  8
0
  6
Continuous
 62
     1
100
AcDbLine
 10
119.7694106243
 20
45.2000575731
 30
0.0
 11
121.3104144391
 21
46.7410613879
 31
0.0
  0
LINE
  5
276
330
233
100
AcDbEntity
  8
0
  6
Continuous
 62
     1
100
AcDbLine
 10
127.4744296982
 20
52.905076647
 30
0.0
 11
128.5017705292
 21
53.93241747800001
 31
0.0
  0
LINE
  5
277
330
233
100
AcDbEntity
  8
0
  6
Continuous
 62
     1
100
AcDbLine
 10
133.4659648563
 20
58.8966118052
 30
0.0
 11
134.5449873438
 21
59.97563429270001
 31
0.0
  0
LINE
  5
278
330
233
100
AcDbEntity
  8
0
  6
Continuous
 62
     1
100
AcDbLine
 10
119.0368410579
 20
45.0708857933
 30
0.0
 11
120.5778448726
 21
46.6118896081
 31
0.0
  0
LINE
  5
279
330
233
100
AcDbEntity
  8
0
  6
Continuous
 62
     1
100
AcDbLine
 10
126.7418601317
 20
52.77590486720001
 30
0.0
 11
127.7692007531
 21
53.8032454886
 31
0.0
  0
LINE
  5
27A
330
233
100
AcDbEntity
  8
0
  6
Continuous
 62
     1
100
AcDbLine
 10
133.3755178024
 20
59.4095625378
 30
0.0
 11
134.4545402899
 21
60.48858502539999
 31
0.0
  0
LINE
  5
27B
330
233
100
AcDbEntity
  8
0
  6
Continuous
 62
     1
100
AcDbLine
 10
118.3042714914
 20
44.9417140135
 30
0.0
 11
119.8452753062
 21
46.4827178283
 31
0.0
  0
LINE
  5
27C
330
233
100
AcDbEntity
  8
0
  6
Continuous
 62
     1
100
AcDbLine
 10
126.0092905653
 20
52.6467330874
 30
0.0
 11
127.0366309771
 21
53.6740734992
 31
0.0
  0
LINE
  5
27D
330
233
100
AcDbEntity
  8
0
  6
Continuous
 62
     1
100
AcDbLine
 10
133.200641701
 20
59.838084223
 30
0.0
 11
134.3640932359
 21
61.001535758
 31
0.0
  0
LINE
  5
27E
330
233
100
AcDbEntity
  8
0
  6
Continuous
 62
     1
100
AcDbLine
 10
117.571701925
 20
44.8125422337
 30
0.0
 11
119.1127057398
 21
46.3535460485
 31
0.0
  0
LINE
  5
27F
330
233
100
AcDbEntity
  8
0
  6
Continuous
 62
     1
100
AcDbLine
 10
125.2767209989
 20
52.5175613076
 30
0.0
 11
126.3040612011
 21
53.5449015098
 31
0.0
  0
LINE
  5
280
330
233
100
AcDbEntity
  8
0
  6
Continuous
 62
     1
100
AcDbLine
 10
132.4680721345
 20
59.7089124432
 30
0.0
 11
134.0090759493
 21
61.24991625799999
 31
0.0
  0
LINE
  5
281
330
233
100
AcDbEntity
  8
0
  6
Continuous
 62
     1
100
AcDbLine
 10
116.8391323586
 20
44.6833704539
 30
0.0
 11
118.3801361734
 21
46.22437426869999
 31
0.0
  0
LINE
  5
282
330
233
100
AcDbEntity
  8
0
  6
Continuous
 62
     1
100
AcDbLine
 10
124.5441514325
 20
52.3883895278
 30
0.0
 11
125.571491425
 21
53.41572952029999
 31
0.0
  0
LINE
  5
283
330
233
100
AcDbEntity
  8
0
  6
Continuous
 62
     1
100
AcDbLine
 10
131.7355025681
 20
59.5797406634
 30
0.0
 11
133.2765063829
 21
61.12074447819999
 31
0.0
  0
LINE
  5
284
330
233
100
AcDbEntity
  8
0
  6
Continuous
 62
     1
100
AcDbLine
 10
116.1065627922
 20
44.55419867409999
 30
0.0
 11
117.647566607
 21
46.0952024889
 31
0.0
  0
LINE
  5
285
330
233
100
AcDbEntity
  8
0
  6
Continuous
 62
     1
100
AcDbLine
 10
123.8115818661
 20
52.259217748
 30
0.0
 11
124.838921649
 21
53.2865575309
 31
0.0
  0
LINE
  5
286
330
233
100
AcDbEntity
  8
0
  6
Continuous
 62
     1
100
AcDbLine
 10
131.0029330017
 20
59.45056888359999
 30
0.0
 11
132.5439368165
 21
60.9915726984
 31
0.0
  0
LINE
  5
287
330
233
100
AcDbEntity
  8
0
  6
Continuous
 62
     1
100
AcDbLine
 10
115.3739932258
 20
44.4250268943
 30
0.0
 11
116.9149970405
 21
45.96603070909999
 31
0.0
  0
LINE
  5
288
330
233
100
AcDbEntity
  8
0
  6
Continuous
 62
     1
100
AcDbLine
 10
123.0790122997
 20
52.13004596819999
 30
0.0
 11
124.106351873
 21
53.1573855415
 31
0.0
  0
LINE
  5
289
330
233
100
AcDbEntity
  8
0
  6
Continuous
 62
     1
100
AcDbLine
 10
130.2703634353
 20
59.3213971038
 30
0.0
 11
131.8113672501
 21
60.86240091859999
 31
0.0
  0
LINE
  5
28A
330
233
100
AcDbEntity
  8
0
  6
Continuous
 62
     1
100
AcDbLine
 10
114.6414236594
 20
44.2958551145
 30
0.0
 11
116.1824274741
 21
45.8368589293
 31
0.0
  0
LINE
  5
28B
330
233
100
AcDbEntity
  8
0
  6
Continuous
 62
     1
100
AcDbLine
 10
122.3464427332
 20
52.0008741884
 30
0.0
 11
123.373782097
 21
53.02821355209999
 31
0.0
  0
LINE
  5
28C
330
233
100
AcDbEntity
  8
0
  6
Continuous
 62
     1
100
AcDbLine
 10
129.5377938689
 20
59.192225324
 30
0.0
 11
131.0787976836
 21
60.7332291388
 31
0.0
  0
LINE
  5
28D
330
233
100
AcDbEntity
  8
0
  6
Continuous
 62
     1
100
AcDbLine
 10
113.9088540929
 20
44.1666833347
 30
0.0
 11
115.4498579077
 21
45.70768714949999
 31
0.0
  0
LINE
  5
28E
330
233
100
AcDbEntity
  8
0
  6
Continuous
 62
     1
100
AcDbLine
 10
121.6138731668
 20
51.87170240859999
 30
0.0
 11
122.6412123209
 21
52.89904156270001
 31
0.0
  0
LINE
  5
28F
330
233
100
AcDbEntity
  8
0
  6
Continuous
 62
     1
100
AcDbLine
 10
128.8052243024
 20
59.0630535442
 30
0.0
 11
130.3462281172
 21
60.60405735899999
 31
0.0
  0
LINE
  5
290
330
233
100
AcDbEntity
  8
0
  6
Continuous
 62
     1
100
AcDbLine
 10
113.1762845265
 20
44.0375115549
 30
0.0
 11
114.7172883413
 21
45.5785153697
 31
0.0
  0
LINE
  5
291
330
233
100
AcDbEntity
  8
0
  6
Continuous
 62
     1
100
AcDbLine
 10
120.8813036004
 20
51.7425306288
 30
0.0
 11
121.9086425449
 21
52.7698695733
 31
0.0
  0
LINE
  5
292
330
233
100
AcDbEntity
  8
0
  6
Continuous
 62
     1
100
AcDbLine
 10
128.072654736
 20
58.9338817644
 30
0.0
 11
129.6136585508
 21
60.4748855792
 31
0.0
  0
LINE
  5
293
330
233
100
AcDbEntity
  8
0
  6
Continuous
 62
     1
100
AcDbLine
 10
112.4437149601
 20
43.9083397751
 30
0.0
 11
113.9847187749
 21
45.44934358989999
 31
0.0
  0
LINE
  5
294
330
233
100
AcDbEntity
  8
0
  6
Continuous
 62
     1
100
AcDbLine
 10
120.148734034
 20
51.61335884899999
 30
0.0
 11
121.1760727689
 21
52.64069758379999
 31
0.0
  0
LINE
  5
295
330
233
100
AcDbEntity
  8
0
  6
Continuous
 62
     1
100
AcDbLine
 10
127.3400851696
 20
58.8047099846
 30
0.0
 11
128.8810889844
 21
60.3457137994
 31
0.0
  0
LINE
  5
296
330
233
100
AcDbEntity
  8
0
  6
Continuous
 62
     1
100
AcDbLine
 10
111.7111453937
 20
43.7791679953
 30
0.0
 11
113.2521492085
 21
45.3201718101
 31
0.0
  0
LINE
  5
297
330
233
100
AcDbEntity
  8
0
  6
Continuous
 62
     1
100
AcDbLine
 10
119.4161644676
 20
51.4841870692
 30
0.0
 11
120.4435029928
 21
52.5115255944
 31
0.0
  0
LINE
  5
298
330
233
100
AcDbEntity
  8
0
  6
Continuous
 62
     1
100
AcDbLine
 10
126.6075156032
 20
58.6755382048
 30
0.0
 11
128.148519418
 21
60.2165420196
 31
0.0
  0
LINE
  5
299
330
233
100
AcDbEntity
  8
0
  6
Continuous
 62
     1
100
AcDbLine
 10
111.1598246212
 20
43.83124500939999
 30
0.0
 11
112.519579642
 21
45.1910000302
 31
0.0
  0
LINE
  5
29A
330
233
100
AcDbEntity
  8
0
  6
Continuous
 62
     1
100
AcDbLine
 10
118.6835949012
 20
51.35501528939999
 30
0.0
 11
119.7109332168
 21
52.382353605
 31
0.0
  0
LINE
  5
29B
330
233
100
AcDbEntity
  8
0
  6
Continuous
 62
     1
100
AcDbLine
 10
125.8749460368
 20
58.546366425
 30
0.0
 11
127.4159498516
 21
60.0873702398
 31
0.0
  0
LINE
  5
29C
330
233
100
AcDbEntity
  8
0
  6
Continuous
 62
     1
100
AcDbLine
 10
111.0693775672
 20
44.34419574199999
 30
0.0
 11
112.1484000547
 21
45.4232182296
 31
0.0
  0
LINE
  5
29D
330
233
100
AcDbEntity
  8
0
  6
Continuous
 62
     1
100
AcDbLine
 10
117.9510253347
 20
51.22584350949999
 30
0.0
 11
118.9783634408
 21
52.2531816156
 31
0.0
  0
LINE
  5
29E
330
233
100
AcDbEntity
  8
0
  6
Continuous
 62
     1
100
AcDbLine
 10
125.1423764704
 20
58.4171946452
 30
0.0
 11
126.6833802851
 21
59.95819845999999
 31
0.0
  0
LINE
  5
29F
330
233
100
AcDbEntity
  8
0
  6
Continuous
 62
     1
100
AcDbLine
 10
110.9789305133
 20
44.8571464747
 30
0.0
 11
112.0579530008
 21
45.9361689622
 31
0.0
  0
LINE
  5
2A0
330
233
100
AcDbEntity
  8
0
  6
Continuous
 62
     1
100
AcDbLine
 10
117.2184557683
 20
51.0966717297
 30
0.0
 11
118.2457936648
 21
52.1240096262
 31
0.0
  0
LINE
  5
2A1
330
233
100
AcDbEntity
  8
0
  6
Continuous
 62
     1
100
AcDbLine
 10
124.4098069039
 20
58.2880228654
 30
0.0
 11
125.9508107187
 21
59.8290266801
 31
0.0
  0
LINE
  5
2A2
330
233
100
AcDbEntity
  8
0
  6
Continuous
 62
     1
100
AcDbLine
 10
110.8884834593
 20
45.3700972074
 30
0.0
 11
111.9675059468
 21
46.44911969489999
 31
0.0
  0
LINE
  5
2A3
330
233
100
AcDbEntity
  8
0
  6
Continuous
 62
     1
100
AcDbLine
 10
116.4858862019
 20
50.96749994989999
 30
0.0
 11
117.5132238887
 21
51.99483763679999
 31
0.0
  0
LINE
  5
2A4
330
233
100
AcDbEntity
  8
0
  6
Continuous
 62
     1
100
AcDbLine
 10
123.6772373375
 20
58.1588510856
 30
0.0
 11
125.2182411523
 21
59.6998549003
 31
0.0
  0
LINE
  5
2A5
330
233
100
AcDbEntity
  8
0
  6
Continuous
 62
     1
100
AcDbLine
 10
110.7980364054
 20
45.88304793999999
 30
0.0
 11
111.8770588929
 21
46.9620704276
 31
0.0
  0
LINE
  5
2A6
330
233
100
AcDbEntity
  8
0
  6
Continuous
 62
     1
100
AcDbLine
 10
115.7533166355
 20
50.83832817010001
 30
0.0
 11
116.7806541127
 21
51.8656656474
 31
0.0
  0
LINE
  5
2A7
330
233
100
AcDbEntity
  8
0
  6
Continuous
 62
     1
100
AcDbLine
 10
122.9446677711
 20
58.0296793058
 30
0.0
 11
124.4856715859
 21
59.5706831205
 31
0.0
  0
LINE
  5
2A8
330
233
100
AcDbEntity
  8
0
  6
Continuous
 62
     1
100
AcDbLine
 10
110.7075893514
 20
46.3959986727
 30
0.0
 11
111.786611839
 21
47.4750211602
 31
0.0
  0
LINE
  5
2A9
330
233
100
AcDbEntity
  8
0
  6
Continuous
 62
     1
100
AcDbLine
 10
115.0207470691
 20
50.70915639029999
 30
0.0
 11
116.0480843367
 21
51.7364936579
 31
0.0
  0
LINE
  5
2AA
330
233
100
AcDbEntity
  8
0
  6
Continuous
 62
     1
100
AcDbLine
 10
122.2120982047
 20
57.900507526
 30
0.0
 11
123.7531020195
 21
59.4415113407
 31
0.0
  0
LINE
  5
2AB
330
233
100
AcDbEntity
  8
0
  6
Continuous
 62
     1
100
AcDbLine
 10
110.6171422975
 20
46.9089494054
 30
0.0
 11
111.696164785
 21
47.9879718929
 31
0.0
  0
LINE
  5
2AC
330
233
100
AcDbEntity
  8
0
  6
Continuous
 62
     1
100
AcDbLine
 10
114.2881775026
 20
50.5799846105
 30
0.0
 11
115.3155145606
 21
51.6073216685
 31
0.0
  0
LINE
  5
2AD
330
233
100
AcDbEntity
  8
0
  6
Continuous
 62
     1
100
AcDbLine
 10
121.4795286383
 20
57.7713357461
 30
0.0
 11
123.020532453
 21
59.3123395609
 31
0.0
  0
LINE
  5
2AE
330
233
100
AcDbEntity
  8
0
  6
Continuous
 62
     1
100
AcDbLine
 10
110.5266952436
 20
47.42190013800001
 30
0.0
 11
111.6057177311
 21
48.5009226256
 31
0.0
  0
LINE
  5
2AF
330
233
100
AcDbEntity
  8
0
  6
Continuous
 62
     1
100
AcDbLine
 10
113.5556079362
 20
50.4508128307
 30
0.0
 11
114.5829447846
 21
51.4781496791
 31
0.0
  0
LINE
  5
2B0
330
233
100
AcDbEntity
  8
0
  6
Continuous
 62
     1
100
AcDbLine
 10
120.7469590719
 20
57.64216396630001
 30
0.0
 11
122.2879628866
 21
59.1831677811
 31
0.0
  0
LINE
  5
2B1
330
233
100
AcDbEntity
  8
0
  6
Continuous
 62
     1
100
AcDbLine
 10
110.4362481896
 20
47.93485087069999
 30
0.0
 11
111.5152706771
 21
49.01387335819999
 31
0.0
  0
LINE
  5
2B2
330
233
100
AcDbEntity
  8
0
  6
Continuous
 62
     1
100
AcDbLine
 10
112.8230383698
 20
50.3216410509
 30
0.0
 11
113.8503750086
 21
51.3489776897
 31
0.0
  0
LINE
  5
2B3
330
233
100
AcDbEntity
  8
0
  6
Continuous
 62
     1
100
AcDbLine
 10
120.0143895054
 20
57.51299218649999
 30
0.0
 11
121.5553933202
 21
59.05399600129999
 31
0.0
  0
LINE
  5
2B4
330
233
100
AcDbEntity
  8
0
  6
Continuous
 62
     1
100
AcDbLine
 10
110.3458011357
 20
48.4478016034
 30
0.0
 11
111.4248236232
 21
49.5268240909
 31
0.0
  0
LINE
  5
2B5
330
233
100
AcDbEntity
  8
0
  6
Continuous
 62
     1
100
AcDbLine
 10
112.0904688034
 20
50.1924692711
 30
0.0
 11
113.1178052326
 21
51.2198057003
 31
0.0
  0
LINE
  5
2B6
330
233
100
AcDbEntity
  8
0
  6
Continuous
 62
     1
100
AcDbLine
 10
119.281819939
 20
57.3838204067
 30
0.0
 11
120.8228237538
 21
58.92482422149999
 31
0.0
  0
LINE
  5
2B7
330
233
100
AcDbEntity
  8
0
  6
Continuous
 62
     1
100
AcDbLine
 10
110.2553540817
 20
48.96075233609999
 30
0.0
 11
111.3343765692
 21
50.03977482359999
 31
0.0
  0
LINE
  5
2B8
330
233
100
AcDbEntity
  8
0
  6
Continuous
 62
     1
100
AcDbLine
 10
111.357899237
 20
50.06329749129999
 30
0.0
 11
112.3852354565
 21
51.0906337109
 31
0.0
  0
LINE
  5
2B9
330
233
100
AcDbEntity
  8
0
  6
Continuous
 62
     1
100
AcDbLine
 10
118.5492503726
 20
57.25464862689999
 30
0.0
 11
120.0902541874
 21
58.7956524417
 31
0.0
  0
LINE
  5
2BA
330
233
100
AcDbEntity
  8
0
  6
Continuous
 62
     1
100
AcDbLine
 10
110.1649070278
 20
49.47370306869999
 30
0.0
 11
111.6526656805
 21
50.9614617214
 31
0.0
  0
LINE
  5
2BB
330
233
100
AcDbEntity
  8
0
  6
Continuous
 62
     1
100
AcDbLine
 10
117.8166808062
 20
57.1254768471
 30
0.0
 11
119.357684621
 21
58.66648066189999
 31
0.0
  0
LINE
  5
2BC
330
233
100
AcDbEntity
  8
0
  6
Continuous
 62
     1
100
AcDbLine
 10
110.0744599738
 20
49.9866538014
 30
0.0
 11
111.1534824614
 21
51.0656762889
 31
0.0
  0
LINE
  5
2BD
330
233
100
AcDbEntity
  8
0
  6
Continuous
 62
     1
100
AcDbLine
 10
117.0841112398
 20
56.99630506729999
 30
0.0
 11
118.6251150545
 21
58.5373088821
 31
0.0
  0
LINE
  5
2BE
330
233
100
AcDbEntity
  8
0
  6
Continuous
 62
     1
100
AcDbLine
 10
109.9840129199
 20
50.4996045341
 30
0.0
 11
111.0630354074
 21
51.5786270216
 31
0.0
  0
LINE
  5
2BF
330
233
100
AcDbEntity
  8
0
  6
Continuous
 62
     1
100
AcDbLine
 10
116.3515416733
 20
56.8671332875
 30
0.0
 11
117.8925454881
 21
58.40813710229999
 31
0.0
  0
LINE
  5
2C0
330
233
100
AcDbEntity
  8
0
  6
Continuous
 62
     1
100
AcDbLine
 10
109.893565866
 20
51.0125552667
 30
0.0
 11
110.9725883535
 21
52.0915777542
 31
0.0
  0
LINE
  5
2C1
330
233
100
AcDbEntity
  8
0
  6
Continuous
 62
     1
100
AcDbLine
 10
115.6189721069
 20
56.73796150770001
 30
0.0
 11
117.1599759217
 21
58.2789653225
 31
0.0
  0
LINE
  5
2C2
330
233
100
AcDbEntity
  8
0
  6
Continuous
 62
     1
100
AcDbLine
 10
109.803118812
 20
51.52550599939999
 30
0.0
 11
110.8821412995
 21
52.60452848689999
 31
0.0
  0
LINE
  5
2C3
330
233
100
AcDbEntity
  8
0
  6
Continuous
 62
     1
100
AcDbLine
 10
114.8864025405
 20
56.60878972789999
 30
0.0
 11
116.4274063553
 21
58.14979354270001
 31
0.0
  0
LINE
  5
2C4
330
233
100
AcDbEntity
  8
0
  6
Continuous
 62
     1
100
AcDbLine
 10
109.7126717581
 20
52.0384567321
 30
0.0
 11
110.7916942456
 21
53.1174792196
 31
0.0
  0
LINE
  5
2C5
330
233
100
AcDbEntity
  8
0
  6
Continuous
 62
     1
100
AcDbLine
 10
114.1538329741
 20
56.47961794810001
 30
0.0
 11
115.6948367889
 21
58.0206217629
 31
0.0
  0
LINE
  5
2C6
330
233
100
AcDbEntity
  8
0
  6
Continuous
 62
     1
100
AcDbLine
 10
109.6222247041
 20
52.55140746470001
 30
0.0
 11
110.7012471916
 21
53.63042995229999
 31
0.0
  0
LINE
  5
2C7
330
233
100
AcDbEntity
  8
0
  6
Continuous
 62
     1
100
AcDbLine
 10
113.4212634077
 20
56.3504461683
 30
0.0
 11
114.9622672224
 21
57.8914499831
 31
0.0
  0
LINE
  5
2C8
330
233
100
AcDbEntity
  8
0
  6
Continuous
 62
     1
100
AcDbLine
 10
109.5317776502
 20
53.06435819739999
 30
0.0
 11
110.6108001377
 21
54.1433806849
 31
0.0
  0
LINE
  5
2C9
330
233
100
AcDbEntity
  8
0
  6
Continuous
 62
     1
100
AcDbLine
 10
112.6886938413
 20
56.2212743885
 30
0.0
 11
114.229697656
 21
57.76227820329999
 31
0.0
  0
LINE
  5
2CA
330
233
100
AcDbEntity
  8
0
  6
Continuous
 62
     1
100
AcDbLine
 10
109.4413305962
 20
53.5773089301
 30
0.0
 11
110.5203530837
 21
54.6563314176
 31
0.0
  0
LINE
  5
2CB
330
233
100
AcDbEntity
  8
0
  6
Continuous
 62
     1
100
AcDbLine
 10
111.9561242748
 20
56.0921026087
 30
0.0
 11
113.4971280896
 21
57.6331064235
 31
0.0
  0
LINE
  5
2CC
330
233
100
AcDbEntity
  8
0
  6
Continuous
 62
     1
100
AcDbLine
 10
109.3508835423
 20
54.0902596627
 30
0.0
 11
110.4299060298
 21
55.1692821503
 31
0.0
  0
LINE
  5
2CD
330
233
100
AcDbEntity
  8
0
  6
Continuous
 62
     1
100
AcDbLine
 10
111.2235547084
 20
55.9629308289
 30
0.0
 11
112.7645585232
 21
57.5039346437
 31
0.0
  0
LINE
  5
2CE
330
233
100
AcDbEntity
  8
0
  6
Continuous
 62
     1
100
AcDbLine
 10
109.2604364883
 20
54.6032103954
 30
0.0
 11
110.3394589759
 21
55.6822328829
 31
0.0
  0
LINE
  5
2CF
330
233
100
AcDbEntity
  8
0
  6
Continuous
 62
     1
100
AcDbLine
 10
110.490985142
 20
55.83375904909999
 30
0.0
 11
112.0319889568
 21
57.3747628638
 31
0.0
  0
LINE
  5
2D0
330
233
100
AcDbEntity
  8
0
  6
Continuous
 62
     1
100
AcDbLine
 10
109.1699894344
 20
55.1161611281
 30
0.0
 11
111.2994193904
 21
57.245591084
 31
0.0
  0
LINE
  5
2D1
330
233
100
AcDbEntity
  8
0
  6
Continuous
 62
     1
100
AcDbLine
 10
109.0795423805
 20
55.6291118607
 30
0.0
 11
110.5668498239
 21
57.1164193042
 31
0.0
  0
LINE
  5
2D2
330
233
100
AcDbEntity
  8
0
  6
Continuous
 62
     1
100
AcDbLine
 10
108.9890953265
 20
56.1420625934
 30
0.0
 11
109.8342802575
 21
56.9872475244
 31
0.0
  0
LINE
  5
2D3
330
233
100
AcDbEntity
  8
0
  6
Continuous
 62
     1
100
AcDbLine
 10
108.8986482726
 20
56.65501332609999
 30
0.0
 11
109.1017106911
 21
56.8580757446
 31
0.0
  0
ENDBLK
  5
2D4
330
233
100
AcDbEntity
  8
0
  6
ByBlock
 62
     0
100
AcDbBlockEnd
  0
BLOCK
  5
2D5
330
234
100
AcDbEntity
  8
0
  6
Continuous
 62
     2
100
AcDbBlockBegin
  2
L03-NOTE_SPECS_BAINS_BL5
 70
     0
 10
160.666676853
 20
55.33332735310001
 30
0.0
  3
L03-NOTE_SPECS_BAINS_BL5
  1

  0
TEXT
  5
2D6
330
234
100
AcDbEntity
  8
0
  6
Continuous
 62
     2
100
AcDbText
 10
144.4188917769
 20
63.1067607442
 30
0.0
 40
0.5
  1
Infomations Techniques/Technical Infomations
  7
TEXTSTYLE_2
100
AcDbText
  0
TEXT
  5
2D7
330
234
100
AcDbEntity
  8
0
  6
Continuous
 62
     2
100
AcDbText
 10
144.666676853
 20
61.6666606864
 30
0.0
 40
0.6666666667
  1
NOMBRE DE JETS:     
  7
TEXTSTYLE_2
100
AcDbText
  0
TEXT
  5
2D8
330
234
100
AcDbEntity
  8
0
  6
Continuous
 62
     2
100
AcDbText
 10
154.5111212975
 20
61.6666606864
 30
0.0
 40
0.6666666667
  1
42
  7
TEXTSTYLE_2
100
AcDbText
  0
TEXT
  5
2D9
330
234
100
AcDbEntity
  8
0
  6
Continuous
 62
     2
100
AcDbText
 10
144.666676853
 20
60.6666606864
 30
0.0
 40
0.6666666667
  1
 
  7
TEXTSTYLE_2
100
AcDbText
  0
TEXT
  5
2DA
330
234
100
AcDbEntity
  8
0
  6
Continuous
 62
     2
100
AcDbText
 10
144.666676853
 20
59.6666606864
 30
0.0
 40
0.6666666667
  1
NIVEAU D'EAU              GALLONS(US)        LITRES        GALLONS(UK)
  7
TEXTSTYLE_2
100
AcDbText
  0
TEXT
  5
2DB
330
234
100
AcDbEntity
  8
0
  6
Continuous
 62
     2
100
AcDbText
 10
144.666676853
 20
58.6666606864
 30
0.0
 40
0.6666666667
  1
PLEIN
  7
TEXTSTYLE_2
100
AcDbText
  0
TEXT
  5
2DC
330
234
100
AcDbEntity
  8
0
  6
Continuous
 62
     2
100
AcDbText
 10
144.666676853
 20
57.6666606864
 30
0.0
 40
0.6666666667
  1
HAUT T.PLEIN
  7
TEXTSTYLE_2
100
AcDbText
  0
TEXT
  5
2DD
330
234
100
AcDbEntity
  8
0
  6
Continuous
 62
     2
100
AcDbText
 10
144.666676853
 20
56.6666606864
 30
0.0
 40
0.6666666667
  1
MILIEU T.PLEIN
  7
TEXTSTYLE_2
100
AcDbText
  0
TEXT
  5
2DE
330
234
100
AcDbEntity
  8
0
  6
Continuous
 62
     2
100
AcDbText
 10
144.666676853
 20
55.6666606864
 30
0.0
 40
0.6666666667
  1
BAS T.PLEIN
  7
TEXTSTYLE_2
100
AcDbText
  0
TEXT
  5
2DF
330
234
100
AcDbEntity
  8
0
  6
Continuous
 62
     2
100
AcDbText
 10
144.666676853
 20
54.6666606864
 30
0.0
 40
0.6666666667
  1
3" EN BAS T.PLEIN
  7
TEXTSTYLE_2
100
AcDbText
  0
TEXT
  5
2E0
330
234
100
AcDbEntity
  8
0
  6
Continuous
 62
     2
100
AcDbText
 10
144.666676853
 20
53.6666606864
 30
0.0
 40
0.6666666667
  1
 
  7
TEXTSTYLE_2
100
AcDbText
  0
TEXT
  5
2E1
330
234
100
AcDbEntity
  8
0
  6
Continuous
 62
     2
100
AcDbText
 10
144.4665153474
 20
53.1198737616
 30
0.0
 40
0.5
  1
Legende/Legend
  7
TEXTSTYLE_2
100
AcDbText
  0
TEXT
  5
2E2
330
234
100
AcDbEntity
  8
0
  6
Continuous
 62
     2
100
AcDbText
 10
150.9953502915
 20
51.6086087839
 30
0.0
 40
0.6666666667
  1
ZONE DE ROBINETTERIE
  7
TEXTSTYLE_2
100
AcDbText
  0
TEXT
  5
2E3
330
234
100
AcDbEntity
  8
0
  6
Continuous
 62
     2
100
AcDbText
 10
145.9156257245
 20
50.11336426949999
 30
0.0
 40
0.6666666667
  1
L   :  SYSTEME LED       DC   :  DOUBLE DOSSIER CHAUFFANT
  7
TEXTSTYLE_2
100
AcDbText
  0
TEXT
  5
2E4
330
234
100
AcDbEntity
  8
0
  6
Continuous
 62
     2
100
AcDbText
 10
145.9156257245
 20
48.7800309361
 30
0.0
 40
0.6666666667
  1
C   :  CONTROLE
  7
TEXTSTYLE_2
100
AcDbText
  0
TEXT
  5
2E5
330
234
100
AcDbEntity
  8
0
  6
Continuous
 62
     2
100
AcDbText
 10
145.9156257245
 20
47.44669760279999
 30
0.0
 40
0.6666666667
  1
T   :  MOTEUR
  7
TEXTSTYLE_2
100
AcDbText
  0
TEXT
  5
2E6
330
234
100
AcDbEntity
  8
0
  6
Continuous
 62
     2
100
AcDbText
 10
157.2438179968
 20
58.6666606864
 30
0.0
 40
0.6666666667
  1
120
  7
TEXTSTYLE_2
100
AcDbText
  0
TEXT
  5
2E7
330
234
100
AcDbEntity
  8
0
  6
Continuous
 62
     2
100
AcDbText
 10
157.4993735523
 20
57.6666606864
 30
0.0
 40
0.6666666667
  1
92
  7
TEXTSTYLE_2
100
AcDbText
  0
TEXT
  5
2E8
330
234
100
AcDbEntity
  8
0
  6
Continuous
 62
     2
100
AcDbText
 10
157.4993735523
 20
56.6666606864
 30
0.0
 40
0.6666666667
  1
91
  7
TEXTSTYLE_2
100
AcDbText
  0
TEXT
  5
2E9
330
234
100
AcDbEntity
  8
0
  6
Continuous
 62
     2
100
AcDbText
 10
157.4993735523
 20
55.6666606864
 30
0.0
 40
0.6666666667
  1
89
  7
TEXTSTYLE_2
100
AcDbText
  0
TEXT
  5
2EA
330
234
100
AcDbEntity
  8
0
  6
Continuous
 62
     2
100
AcDbText
 10
157.4993735523
 20
54.6666606864
 30
0.0
 40
0.6666666667
  1
71
  7
TEXTSTYLE_2
100
AcDbText
  0
TEXT
  5
2EB
330
234
100
AcDbEntity
  8
0
  6
Continuous
 62
     2
100
AcDbText
 10
164.4195794961
 20
58.6837400885
 30
0.0
 40
0.6666666667
  1
453
  7
TEXTSTYLE_2
100
AcDbText
  0
TEXT
  5
2EC
330
234
100
AcDbEntity
  8
0
  6
Continuous
 62
     2
100
AcDbText
 10
164.4195794961
 20
57.6837400885
 30
0.0
 40
0.6666666667
  1
348
  7
TEXTSTYLE_2
100
AcDbText
  0
TEXT
  5
2ED
330
234
100
AcDbEntity
  8
0
  6
Continuous
 62
     2
100
AcDbText
 10
164.4195794961
 20
56.6837400885
 30
0.0
 40
0.6666666667
  1
343
  7
TEXTSTYLE_2
100
AcDbText
  0
TEXT
  5
2EE
330
234
100
AcDbEntity
  8
0
  6
Continuous
 62
     2
100
AcDbText
 10
164.4195794961
 20
55.6837400885
 30
0.0
 40
0.6666666667
  1
338
  7
TEXTSTYLE_2
100
AcDbText
  0
TEXT
  5
2EF
330
234
100
AcDbEntity
  8
0
  6
Continuous
 62
     2
100
AcDbText
 10
164.4195794961
 20
54.6837400885
 30
0.0
 40
0.6666666667
  1
268
  7
TEXTSTYLE_2
100
AcDbText
  0
TEXT
  5
2F0
330
234
100
AcDbEntity
  8
0
  6
Continuous
 62
     2
100
AcDbText
 10
171.108662878
 20
58.6666606864
 30
0.0
 40
0.6666666667
  1
100
  7
TEXTSTYLE_2
100
AcDbText
  0
TEXT
  5
2F1
330
234
100
AcDbEntity
  8
0
  6
Continuous
 62
     2
100
AcDbText
 10
171.3642184336
 20
57.6666606864
 30
0.0
 40
0.6666666667
  1
76
  7
TEXTSTYLE_2
100
AcDbText
  0
TEXT
  5
2F2
330
234
100
AcDbEntity
  8
0
  6
Continuous
 62
     2
100
AcDbText
 10
171.3642184336
 20
56.6666606864
 30
0.0
 40
0.6666666667
  1
75
  7
TEXTSTYLE_2
100
AcDbText
  0
TEXT
  5
2F3
330
234
100
AcDbEntity
  8
0
  6
Continuous
 62
     2
100
AcDbText
 10
171.3642184336
 20
55.6666606864
 30
0.0
 40
0.6666666667
  1
74
  7
TEXTSTYLE_2
100
AcDbText
  0
TEXT
  5
2F4
330
234
100
AcDbEntity
  8
0
  6
Continuous
 62
     2
100
AcDbText
 10
171.3642184336
 20
54.6666606864
 30
0.0
 40
0.6666666667
  1
59
  7
TEXTSTYLE_2
100
AcDbText
  0
LINE
  5
2F5
330
234
100
AcDbEntity
  8
0
  6
Continuous
 62
     7
100
AcDbLine
 10
144.0000101864
 20
63.9999940197
 30
0.0
 11
144.0000101864
 21
46.6666606864
 31
0.0
  0
LINE
  5
2F6
330
234
100
AcDbEntity
  8
0
  6
Continuous
 62
     7
100
AcDbLine
 10
144.0000101864
 20
63.9999940197
 30
0.0
 11
177.3333435197
 21
63.9999940197
 31
0.0
  0
LINE
  5
2F7
330
234
100
AcDbEntity
  8
0
  6
Continuous
 62
     7
100
AcDbLine
 10
177.3333435197
 20
63.9999940197
 30
0.0
 11
177.3333435197
 21
46.6666606864
 31
0.0
  0
LINE
  5
2F8
330
234
100
AcDbEntity
  8
0
  6
Continuous
 62
     7
100
AcDbLine
 10
144.0000101864
 20
46.6666606864
 30
0.0
 11
177.3333435197
 21
46.6666606864
 31
0.0
  0
LINE
  5
2F9
330
234
100
AcDbEntity
  8
0
  6
Continuous
 62
     7
100
AcDbLine
 10
145.3333435196999
 20
53.9999940197
 30
0.0
 11
176.0000101864
 21
53.9999940197
 31
0.0
  0
LINE
  5
2FA
330
234
100
AcDbEntity
  8
0
  6
Continuous
 62
     7
100
AcDbLine
 10
145.3333435196999
 20
60.9999940197
 30
0.0
 11
176.0000101864
 21
60.9999940197
 31
0.0
  0
LINE
  5
2FB
330
234
100
AcDbEntity
  8
0
  6
Continuous
 62
     7
100
AcDbLine
 10
144.8089167457
 20
52.3781585241
 30
0.0
 11
144.4398960033
 21
52.0091377818
 31
0.0
  0
LINE
  5
2FC
330
234
100
AcDbEntity
  8
0
  6
Continuous
 62
     7
100
AcDbLine
 10
145.4755834123
 20
52.3781585241
 30
0.0
 11
144.6775676219
 21
51.5801427337
 31
0.0
  0
LINE
  5
2FD
330
234
100
AcDbEntity
  8
0
  6
Continuous
 62
     7
100
AcDbLine
 10
146.142250079
 20
52.3781585241
 30
0.0
 11
145.3442342886
 21
51.5801427337
 31
0.0
  0
LINE
  5
2FE
330
234
100
AcDbEntity
  8
0
  6
Continuous
 62
     7
100
AcDbLine
 10
146.8089167457
 20
52.3781585241
 30
0.0
 11
146.0109009552
 21
51.5801427337
 31
0.0
  0
LINE
  5
2FF
330
234
100
AcDbEntity
  8
0
  6
Continuous
 62
     7
100
AcDbLine
 10
147.4755834123
 20
52.3781585241
 30
0.0
 11
146.6775676219
 21
51.5801427337
 31
0.0
  0
LINE
  5
300
330
234
100
AcDbEntity
  8
0
  6
Continuous
 62
     7
100
AcDbLine
 10
148.142250079
 20
52.3781585241
 30
0.0
 11
147.3442342886
 21
51.5801427337
 31
0.0
  0
LINE
  5
301
330
234
100
AcDbEntity
  8
0
  6
Continuous
 62
     7
100
AcDbLine
 10
148.8089167457
 20
52.3781585241
 30
0.0
 11
148.0109009552
 21
51.5801427337
 31
0.0
  0
LINE
  5
302
330
234
100
AcDbEntity
  8
0
  6
Continuous
 62
     7
100
AcDbLine
 10
149.4755834123
 20
52.3781585241
 30
0.0
 11
148.6775676219
 21
51.5801427337
 31
0.0
  0
LINE
  5
303
330
234
100
AcDbEntity
  8
0
  6
Continuous
 62
     7
100
AcDbLine
 10
150.142250079
 20
52.3781585241
 30
0.0
 11
149.3442342886
 21
51.5801427337
 31
0.0
  0
LINE
  5
304
330
234
100
AcDbEntity
  8
0
  6
Continuous
 62
     7
100
AcDbLine
 10
150.5857375130999
 20
52.1549792916
 30
0.0
 11
150.0109009552
 21
51.5801427337
 31
0.0
  0
ELLIPSE
  5
305
330
234
100
AcDbEntity
  8
0
  6
Continuous
 62
     7
100
AcDbEllipse
 10
146.1454126686
 20
50.4309417267
 30
0.0
 11
1.0473539356
 21
0.0
 31
0.0
210
0.0
220
0.0
230
1.0
 40
0.4938647983
 41
0.0
 42
6.283185307179586
  0
ELLIPSE
  5
306
330
234
100
AcDbEntity
  8
0
  6
Continuous
 62
     7
100
AcDbEllipse
 10
146.1454126686
 20
49.0976083933
 30
0.0
 11
1.0473539356
 21
0.0
 31
0.0
210
0.0
220
0.0
230
1.0
 40
0.4938647983
 41
0.0
 42
6.283185307179586
  0
ELLIPSE
  5
307
330
234
100
AcDbEntity
  8
0
  6
Continuous
 62
     7
100
AcDbEllipse
 10
146.1454126686
 20
47.76427506
 30
0.0
 11
1.0473539356
 21
0.0
 31
0.0
210
0.0
220
0.0
230
1.0
 40
0.4938647983
 41
0.0
 42
6.283185307179586
  0
ELLIPSE
  5
308
330
234
100
AcDbEntity
  8
0
  6
Continuous
 62
     7
100
AcDbEllipse
 10
157.1640482497
 20
50.4504630838
 30
0.0
 11
1.0473539356
 21
0.0
 31
0.0
210
0.0
220
0.0
230
1.0
 40
0.4938647983
 41
0.0
 42
6.283185307179586
  0
ENDBLK
  5
309
330
234
100
AcDbEntity
  8
0
  6
ByBlock
 62
     0
100
AcDbBlockEnd
  0
BLOCK
  5
30A
330
235
100
AcDbEntity
  8
0
  6
Continuous
 62
     2
100
AcDbBlockBegin
  2
L03-NOTE_SPECS_BAINS_BL4
 70
     0
 10
160.6668013371
 20
55.33328330649999
 30
0.0
  3
L03-NOTE_SPECS_BAINS_BL4
  1

  0
TEXT
  5
30B
330
235
100
AcDbEntity
  8
0
  6
Continuous
 62
     2
100
AcDbText
 10
144.419016261
 20
63.1067166976
 30
0.0
 40
0.5
  1
Infomations Techniques/Technical Infomations
  7
TEXTSTYLE_2
100
AcDbText
  0
TEXT
  5
30C
330
235
100
AcDbEntity
  8
0
  6
Continuous
 62
     2
100
AcDbText
 10
144.6668013371
 20
61.6666166399
 30
0.0
 40
0.6666666667
  1
NOMBRE DE JETS:     
  7
TEXTSTYLE_2
100
AcDbText
  0
TEXT
  5
30D
330
235
100
AcDbEntity
  8
0
  6
Continuous
 62
     2
100
AcDbText
 10
154.5112457816
 20
61.6666166399
 30
0.0
 40
0.6666666667
  1
42
  7
TEXTSTYLE_2
100
AcDbText
  0
TEXT
  5
30E
330
235
100
AcDbEntity
  8
0
  6
Continuous
 62
     2
100
AcDbText
 10
144.6668013371
 20
60.6666166399
 30
0.0
 40
0.6666666667
  1
 
  7
TEXTSTYLE_2
100
AcDbText
  0
TEXT
  5
30F
330
235
100
AcDbEntity
  8
0
  6
Continuous
 62
     2
100
AcDbText
 10
144.6668013371
 20
59.6666166399
 30
0.0
 40
0.6666666667
  1
NIVEAU D'EAU              GALLONS(US)        LITRES        GALLONS(UK)
  7
TEXTSTYLE_2
100
AcDbText
  0
TEXT
  5
310
330
235
100
AcDbEntity
  8
0
  6
Continuous
 62
     2
100
AcDbText
 10
144.6668013371
 20
58.6666166399
 30
0.0
 40
0.6666666667
  1
PLEIN
  7
TEXTSTYLE_2
100
AcDbText
  0
TEXT
  5
311
330
235
100
AcDbEntity
  8
0
  6
Continuous
 62
     2
100
AcDbText
 10
144.6668013371
 20
57.66661663989999
 30
0.0
 40
0.6666666667
  1
HAUT T.PLEIN
  7
TEXTSTYLE_2
100
AcDbText
  0
TEXT
  5
312
330
235
100
AcDbEntity
  8
0
  6
Continuous
 62
     2
100
AcDbText
 10
144.6668013371
 20
56.6666166399
 30
0.0
 40
0.6666666667
  1
MILIEU T.PLEIN
  7
TEXTSTYLE_2
100
AcDbText
  0
TEXT
  5
313
330
235
100
AcDbEntity
  8
0
  6
Continuous
 62
     2
100
AcDbText
 10
144.6668013371
 20
55.6666166399
 30
0.0
 40
0.6666666667
  1
BAS T.PLEIN
  7
TEXTSTYLE_2
100
AcDbText
  0
TEXT
  5
314
330
235
100
AcDbEntity
  8
0
  6
Continuous
 62
     2
100
AcDbText
 10
144.6668013371
 20
54.6666166399
 30
0.0
 40
0.6666666667
  1
3" EN BAS T.PLEIN
  7
TEXTSTYLE_2
100
AcDbText
  0
TEXT
  5
315
330
235
100
AcDbEntity
  8
0
  6
Continuous
 62
     2
100
AcDbText
 10
144.6668013371
 20
53.6666166399
 30
0.0
 40
0.6666666667
  1
 
  7
TEXTSTYLE_2
100
AcDbText
  0
TEXT
  5
316
330
235
100
AcDbEntity
  8
0
  6
Continuous
 62
     2
100
AcDbText
 10
144.4666398315
 20
53.119829715
 30
0.0
 40
0.5
  1
Legende/Legend
  7
TEXTSTYLE_2
100
AcDbText
  0
TEXT
  5
317
330
235
100
AcDbEntity
  8
0
  6
Continuous
 62
     2
100
AcDbText
 10
150.9954747756
 20
51.6085647373
 30
0.0
 40
0.6666666667
  1
ZONE DE ROBINETTERIE
  7
TEXTSTYLE_2
100
AcDbText
  0
TEXT
  5
318
330
235
100
AcDbEntity
  8
0
  6
Continuous
 62
     2
100
AcDbText
 10
145.9157502086
 20
50.1133202229
 30
0.0
 40
0.6666666667
  1
L   :  SYSTEME LED       DC   :  DOUBLE DOSSIER CHAUFFANT
  7
TEXTSTYLE_2
100
AcDbText
  0
TEXT
  5
319
330
235
100
AcDbEntity
  8
0
  6
Continuous
 62
     2
100
AcDbText
 10
145.9157502086
 20
48.7799868896
 30
0.0
 40
0.6666666667
  1
C   :  CONTROLE
  7
TEXTSTYLE_2
100
AcDbText
  0
TEXT
  5
31A
330
235
100
AcDbEntity
  8
0
  6
Continuous
 62
     2
100
AcDbText
 10
145.9157502086
 20
47.4466535563
 30
0.0
 40
0.6666666667
  1
T   :  MOTEUR
  7
TEXTSTYLE_2
100
AcDbText
  0
TEXT
  5
31B
330
235
100
AcDbEntity
  8
0
  6
Continuous
 62
     2
100
AcDbText
 10
157.2439424809
 20
58.6666166399
 30
0.0
 40
0.6666666667
  1
120
  7
TEXTSTYLE_2
100
AcDbText
  0
TEXT
  5
31C
330
235
100
AcDbEntity
  8
0
  6
Continuous
 62
     2
100
AcDbText
 10
157.4994980364
 20
57.66661663989999
 30
0.0
 40
0.6666666667
  1
92
  7
TEXTSTYLE_2
100
AcDbText
  0
TEXT
  5
31D
330
235
100
AcDbEntity
  8
0
  6
Continuous
 62
     2
100
AcDbText
 10
157.4994980364
 20
56.6666166399
 30
0.0
 40
0.6666666667
  1
91
  7
TEXTSTYLE_2
100
AcDbText
  0
TEXT
  5
31E
330
235
100
AcDbEntity
  8
0
  6
Continuous
 62
     2
100
AcDbText
 10
157.4994980364
 20
55.6666166399
 30
0.0
 40
0.6666666667
  1
89
  7
TEXTSTYLE_2
100
AcDbText
  0
TEXT
  5
31F
330
235
100
AcDbEntity
  8
0
  6
Continuous
 62
     2
100
AcDbText
 10
157.4994980364
 20
54.6666166399
 30
0.0
 40
0.6666666667
  1
71
  7
TEXTSTYLE_2
100
AcDbText
  0
TEXT
  5
320
330
235
100
AcDbEntity
  8
0
  6
Continuous
 62
     2
100
AcDbText
 10
164.4197039801
 20
58.683696042
 30
0.0
 40
0.6666666667
  1
453
  7
TEXTSTYLE_2
100
AcDbText
  0
TEXT
  5
321
330
235
100
AcDbEntity
  8
0
  6
Continuous
 62
     2
100
AcDbText
 10
164.4197039801
 20
57.683696042
 30
0.0
 40
0.6666666667
  1
348
  7
TEXTSTYLE_2
100
AcDbText
  0
TEXT
  5
322
330
235
100
AcDbEntity
  8
0
  6
Continuous
 62
     2
100
AcDbText
 10
164.4197039801
 20
56.683696042
 30
0.0
 40
0.6666666667
  1
343
  7
TEXTSTYLE_2
100
AcDbText
  0
TEXT
  5
323
330
235
100
AcDbEntity
  8
0
  6
Continuous
 62
     2
100
AcDbText
 10
164.4197039801
 20
55.683696042
 30
0.0
 40
0.6666666667
  1
338
  7
TEXTSTYLE_2
100
AcDbText
  0
TEXT
  5
324
330
235
100
AcDbEntity
  8
0
  6
Continuous
 62
     2
100
AcDbText
 10
164.4197039801
 20
54.683696042
 30
0.0
 40
0.6666666667
  1
268
  7
TEXTSTYLE_2
100
AcDbText
  0
TEXT
  5
325
330
235
100
AcDbEntity
  8
0
  6
Continuous
 62
     2
100
AcDbText
 10
171.1087873621
 20
58.6666166399
 30
0.0
 40
0.6666666667
  1
100
  7
TEXTSTYLE_2
100
AcDbText
  0
TEXT
  5
326
330
235
100
AcDbEntity
  8
0
  6
Continuous
 62
     2
100
AcDbText
 10
171.3643429176
 20
57.66661663989999
 30
0.0
 40
0.6666666667
  1
76
  7
TEXTSTYLE_2
100
AcDbText
  0
TEXT
  5
327
330
235
100
AcDbEntity
  8
0
  6
Continuous
 62
     2
100
AcDbText
 10
171.3643429176
 20
56.6666166399
 30
0.0
 40
0.6666666667
  1
75
  7
TEXTSTYLE_2
100
AcDbText
  0
TEXT
  5
328
330
235
100
AcDbEntity
  8
0
  6
Continuous
 62
     2
100
AcDbText
 10
171.3643429176
 20
55.6666166399
 30
0.0
 40
0.6666666667
  1
74
  7
TEXTSTYLE_2
100
AcDbText
  0
TEXT
  5
329
330
235
100
AcDbEntity
  8
0
  6
Continuous
 62
     2
100
AcDbText
 10
171.3643429176
 20
54.6666166399
 30
0.0
 40
0.6666666667
  1
59
  7
TEXTSTYLE_2
100
AcDbText
  0
LINE
  5
32A
330
235
100
AcDbEntity
  8
0
  6
Continuous
 62
     7
100
AcDbLine
 10
144.0001346705
 20
63.9999499732
 30
0.0
 11
144.0001346705
 21
46.6666166399
 31
0.0
  0
LINE
  5
32B
330
235
100
AcDbEntity
  8
0
  6
Continuous
 62
     7
100
AcDbLine
 10
144.0001346705
 20
63.9999499732
 30
0.0
 11
177.3334680038
 21
63.9999499732
 31
0.0
  0
LINE
  5
32C
330
235
100
AcDbEntity
  8
0
  6
Continuous
 62
     7
100
AcDbLine
 10
177.3334680038
 20
63.9999499732
 30
0.0
 11
177.3334680038
 21
46.6666166399
 31
0.0
  0
LINE
  5
32D
330
235
100
AcDbEntity
  8
0
  6
Continuous
 62
     7
100
AcDbLine
 10
144.0001346705
 20
46.6666166399
 30
0.0
 11
177.3334680038
 21
46.6666166399
 31
0.0
  0
LINE
  5
32E
330
235
100
AcDbEntity
  8
0
  6
Continuous
 62
     7
100
AcDbLine
 10
145.3334680038
 20
53.9999499732
 30
0.0
 11
176.0001346705
 21
53.9999499732
 31
0.0
  0
LINE
  5
32F
330
235
100
AcDbEntity
  8
0
  6
Continuous
 62
     7
100
AcDbLine
 10
145.3334680038
 20
60.99994997319999
 30
0.0
 11
176.0001346705
 21
60.99994997319999
 31
0.0
  0
LINE
  5
330
330
235
100
AcDbEntity
  8
0
  6
Continuous
 62
     7
100
AcDbLine
 10
144.8090412297
 20
52.3781144775
 30
0.0
 11
144.4400204874
 21
52.0090937352
 31
0.0
  0
LINE
  5
331
330
235
100
AcDbEntity
  8
0
  6
Continuous
 62
     7
100
AcDbLine
 10
145.4757078964
 20
52.3781144775
 30
0.0
 11
144.677692106
 21
51.58009868709999
 31
0.0
  0
LINE
  5
332
330
235
100
AcDbEntity
  8
0
  6
Continuous
 62
     7
100
AcDbLine
 10
146.1423745631
 20
52.3781144775
 30
0.0
 11
145.3443587726
 21
51.58009868709999
 31
0.0
  0
LINE
  5
333
330
235
100
AcDbEntity
  8
0
  6
Continuous
 62
     7
100
AcDbLine
 10
146.8090412297
 20
52.3781144775
 30
0.0
 11
146.0110254393
 21
51.58009868709999
 31
0.0
  0
LINE
  5
334
330
235
100
AcDbEntity
  8
0
  6
Continuous
 62
     7
100
AcDbLine
 10
147.4757078964
 20
52.3781144775
 30
0.0
 11
146.677692106
 21
51.58009868709999
 31
0.0
  0
LINE
  5
335
330
235
100
AcDbEntity
  8
0
  6
Continuous
 62
     7
100
AcDbLine
 10
148.1423745631
 20
52.3781144775
 30
0.0
 11
147.3443587726
 21
51.58009868709999
 31
0.0
  0
LINE
  5
336
330
235
100
AcDbEntity
  8
0
  6
Continuous
 62
     7
100
AcDbLine
 10
148.8090412297
 20
52.3781144775
 30
0.0
 11
148.0110254393
 21
51.58009868709999
 31
0.0
  0
LINE
  5
337
330
235
100
AcDbEntity
  8
0
  6
Continuous
 62
     7
100
AcDbLine
 10
149.4757078964
 20
52.3781144775
 30
0.0
 11
148.677692106
 21
51.58009868709999
 31
0.0
  0
LINE
  5
338
330
235
100
AcDbEntity
  8
0
  6
Continuous
 62
     7
100
AcDbLine
 10
150.1423745631
 20
52.3781144775
 30
0.0
 11
149.3443587726
 21
51.58009868709999
 31
0.0
  0
LINE
  5
339
330
235
100
AcDbEntity
  8
0
  6
Continuous
 62
     7
100
AcDbLine
 10
150.5858619972
 20
52.154935245
 30
0.0
 11
150.0110254393
 21
51.58009868709999
 31
0.0
  0
ELLIPSE
  5
33A
330
235
100
AcDbEntity
  8
0
  6
Continuous
 62
     7
100
AcDbEllipse
 10
146.1455371527
 20
50.4308976801
 30
0.0
 11
1.0473539356
 21
0.0
 31
0.0
210
0.0
220
0.0
230
1.0
 40
0.4938647983
 41
0.0
 42
6.283185307179586
  0
ELLIPSE
  5
33B
330
235
100
AcDbEntity
  8
0
  6
Continuous
 62
     7
100
AcDbEllipse
 10
146.1455371527
 20
49.09756434680001
 30
0.0
 11
1.0473539356
 21
0.0
 31
0.0
210
0.0
220
0.0
230
1.0
 40
0.4938647983
 41
0.0
 42
6.283185307179586
  0
ELLIPSE
  5
33C
330
235
100
AcDbEntity
  8
0
  6
Continuous
 62
     7
100
AcDbEllipse
 10
146.1455371527
 20
47.7642310135
 30
0.0
 11
1.0473539356
 21
0.0
 31
0.0
210
0.0
220
0.0
230
1.0
 40
0.4938647983
 41
0.0
 42
6.283185307179586
  0
ELLIPSE
  5
33D
330
235
100
AcDbEntity
  8
0
  6
Continuous
 62
     7
100
AcDbEllipse
 10
157.1641727337
 20
50.4504190372
 30
0.0
 11
1.0473539356
 21
0.0
 31
0.0
210
0.0
220
0.0
230
1.0
 40
0.4938647983
 41
0.0
 42
6.283185307179586
  0
ENDBLK
  5
33E
330
235
100
AcDbEntity
  8
0
  6
ByBlock
 62
     0
100
AcDbBlockEnd
  0
BLOCK
  5
33F
330
236
100
AcDbEntity
  8
0
  6
Continuous
 62
     2
100
AcDbBlockBegin
  2
L03-MOTEUR-CONTROLE-LED_BL3
 70
     0
 10
46.68122977350001
 20
92.5244608414
 30
0.0
  3
L03-MOTEUR-CONTROLE-LED_BL3
  1

  0
TEXT
  5
340
330
236
100
AcDbEntity
  8
0
  6
Continuous
 62
     2
100
AcDbText
 10
46.1528345062
 20
91.8577939154
 30
0.0
 40
1.333333852099999
  1
L
  7
TEXTSTYLE_2
100
AcDbText
  0
ELLIPSE
  5
341
330
236
100
AcDbEntity
  8
0
  6
Continuous
 62
     7
100
AcDbEllipse
 10
46.68122977350001
 20
92.5244608414
 30
0.0
 11
-1.942887567899999
 21
0.0
 31
0.0
210
0.0
220
0.0
230
1.0
 40
0.6606458385
 41
0.0
 42
6.283185307179586
  0
ENDBLK
  5
342
330
236
100
AcDbEntity
  8
0
  6
ByBlock
 62
     0
100
AcDbBlockEnd
  0
BLOCK
  5
343
330
237
100
AcDbEntity
  8
0
  6
Continuous
 62
     2
100
AcDbBlockBegin
  2
L03-MOTEUR-CONTROLE-LED_BL2
 70
     0
 10
35.3784388816
 20
69.53624175929999
 30
0.0
  3
L03-MOTEUR-CONTROLE-LED_BL2
  1

  0
TEXT
  5
344
330
237
100
AcDbEntity
  8
0
  6
Continuous
 62
     2
100
AcDbText
 10
34.8289636816
 20
67.49120672939999
 30
0.0
 40
1.333333852099999
  1
L
  7
TEXTSTYLE_2
100
AcDbText
  0
TEXT
  5
345
330
237
100
AcDbEntity
  8
0
  6
Continuous
 62
     2
100
AcDbText
 10
31.1443774033
 20
67.50361755749999
 30
0.0
 40
1.333333852099999
  1
5
  7
TEXTSTYLE_2
100
AcDbText
  0
TEXT
  5
346
330
237
100
AcDbEntity
  8
0
  6
Continuous
 62
     2
100
AcDbText
 10
38.59027774
 20
67.50361755749999
 30
0.0
 40
1.333333852099999
  1
3
  7
TEXTSTYLE_2
100
AcDbText
  0
TEXT
  5
347
330
237
100
AcDbEntity
  8
0
  6
Continuous
 62
     2
100
AcDbText
 10
34.7719487431
 20
70.24794293720001
 30
0.0
 40
1.333333852099999
  1
4
  7
TEXTSTYLE_2
100
AcDbText
  0
ELLIPSE
  5
348
330
237
100
AcDbEntity
  8
0
  6
Continuous
 62
     7
100
AcDbEllipse
 10
35.3573589489
 20
68.1578736555
 30
0.0
 11
-1.942887567899999
 21
0.0
 31
0.0
210
0.0
220
0.0
230
1.0
 40
0.6606458385
 41
0.0
 42
6.283185307179586
  0
ENDBLK
  5
349
330
237
100
AcDbEntity
  8
0
  6
ByBlock
 62
     0
100
AcDbBlockEnd
  0
BLOCK
  5
34A
330
238
100
AcDbEntity
  8
0
  6
Continuous
 62
     2
100
AcDbBlockBegin
  2
L03-MOTEUR-CONTROLE-LED_BL1
 70
     0
 10
57.99851981899999
 20
69.3435325039
 30
0.0
  3
L03-MOTEUR-CONTROLE-LED_BL1
  1

  0
TEXT
  5
34B
330
238
100
AcDbEntity
  8
0
  6
Continuous
 62
     2
100
AcDbText
 10
57.449044619
 20
67.298497474
 30
0.0
 40
1.333333852099999
  1
L
  7
TEXTSTYLE_2
100
AcDbText
  0
TEXT
  5
34C
330
238
100
AcDbEntity
  8
0
  6
Continuous
 62
     2
100
AcDbText
 10
53.7644583407
 20
67.310908302
 30
0.0
 40
1.333333852099999
  1
3
  7
TEXTSTYLE_2
100
AcDbText
  0
TEXT
  5
34D
330
238
100
AcDbEntity
  8
0
  6
Continuous
 62
     2
100
AcDbText
 10
61.21035867739999
 20
67.310908302
 30
0.0
 40
1.333333852099999
  1
5
  7
TEXTSTYLE_2
100
AcDbText
  0
TEXT
  5
34E
330
238
100
AcDbEntity
  8
0
  6
Continuous
 62
     2
100
AcDbText
 10
57.3920296805
 20
70.0552336818
 30
0.0
 40
1.333333852099999
  1
4
  7
TEXTSTYLE_2
100
AcDbText
  0
ELLIPSE
  5
34F
330
238
100
AcDbEntity
  8
0
  6
Continuous
 62
     7
100
AcDbEllipse
 10
57.9774398863
 20
67.96516440000001
 30
0.0
 11
-1.942887567899999
 21
0.0
 31
0.0
210
0.0
220
0.0
230
1.0
 40
0.6606458385
 41
0.0
 42
6.283185307179586
  0
ENDBLK
  5
350
330
238
100
AcDbEntity
  8
0
  6
ByBlock
 62
     0
100
AcDbBlockEnd
  0
BLOCK
  5
351
330
239
100
AcDbEntity
  8
0
  6
Continuous
 62
     2
100
AcDbBlockBegin
  2
L03-MOTEUR-CONTROLE-LED_BL0
 70
     0
 10
15.3220064725
 20
80.3705501618
 30
0.0
  3
L03-MOTEUR-CONTROLE-LED_BL0
  1

  0
TEXT
  5
352
330
239
100
AcDbEntity
  8
0
  6
Continuous
 62
     2
100
AcDbText
 10
14.7590432905
 20
79.70388323579999
 30
0.0
 40
1.333333852099999
  1
T
  7
TEXTSTYLE_2
100
AcDbText
  0
ELLIPSE
  5
353
330
239
100
AcDbEntity
  8
0
  6
Continuous
 62
     7
100
AcDbEllipse
 10
15.3220064725
 20
80.3705501618
 30
0.0
 11
-1.942887567899999
 21
0.0
 31
0.0
210
0.0
220
0.0
230
1.0
 40
0.6606458385
 41
0.0
 42
6.283185307179586
  0
ENDBLK
  5
354
330
239
100
AcDbEntity
  8
0
  6
ByBlock
 62
     0
100
AcDbBlockEnd
  0
ENDSEC
  0
SECTION
  2
ENTITIES
  0
LINE
  5
1514
330
220
100
AcDbEntity
  8
0
  6
Continuous
 62
     7
100
AcDbLine
 10
11.3880139957
 20
95.86591072709998
 30
0.0
 11
11.3880139957
 21
64.8659107271
 31
0.0
  0
LWPOLYLINE
  5
1515
330
220
100
AcDbEntity
  8
0
  6
Continuous
 62
     9
100
AcDbPolyline
 90
        3
 70
     0
 43
0.0
 10
12.7242454153
 20
67.6758535918
 10
12.7242425707
 20
90.53357473250001
 10
12.7242453344
 20
93.05168803509999
  0
LWPOLYLINE
  5
1516
330
220
100
AcDbEntity
  8
0
  6
Continuous
 62
     9
100
AcDbPolyline
 90
        3
 70
     0
 43
0.0
 10
12.7242453344
 20
93.05168803509999
 10
12.7242218528
 20
93.77412568049999
 10
12.7223066494
 20
94.44018260909999
  0
LWPOLYLINE
  5
1517
330
220
100
AcDbEntity
  8
0
  6
Continuous
 62
     9
100
AcDbPolyline
 90
        3
 70
     0
 43
0.0
 10
12.7223061599
 20
66.2916384972
 10
12.7242219549
 20
66.95557678189999
 10
12.7242454153
 20
67.6758535918
  0
LWPOLYLINE
  5
1518
330
220
100
AcDbEntity
  8
0
  6
Continuous
 62
     9
100
AcDbPolyline
 90
        4
 70
     0
 43
0.0
 10
22.7070665692
 20
73.6087944554
 10
22.6916788906
 20
75.83452723159999
 10
22.6768849924
 20
78.0709218187
 10
22.6629039147
 20
80.31799998449999
  0
LWPOLYLINE
  5
1519
330
220
100
AcDbEntity
  8
0
  6
Continuous
 62
     9
100
AcDbPolyline
 90
        3
 70
     0
 43
0.0
 10
22.7294615505
 20
69.8700329916
 10
22.718170647
 20
71.8144848455
 10
22.7070665692
 20
73.6087944554
  0
LWPOLYLINE
  5
151A
330
220
100
AcDbEntity
  8
0
  6
Continuous
 62
     9
100
AcDbPolyline
 90
        3
 70
     0
 43
0.0
 10
22.6629039147
 20
80.31799998449999
 10
22.6351347193
 20
85.5035642292
 10
22.6150894019
 20
90.91225956629999
  0
LWPOLYLINE
  5
151B
330
220
100
AcDbEntity
  8
0
  6
Continuous
 62
     9
100
AcDbPolyline
 90
        5
 70
     0
 43
0.0
 10
70.07006787579999
 20
69.3748988877
 10
70.2479221907
 20
69.4184088536
 10
70.4001169196
 20
69.5270761453
 10
70.50469441689999
 20
69.68522296729999
 10
70.54656693390001
 20
69.8700329462
  0
LINE
  5
151C
330
220
100
AcDbEntity
  8
0
  6
Continuous
 62
     7
100
AcDbLine
 10
11.3880139957
 20
64.8659107271
 30
0.0
 11
81.88801399569999
 21
64.8659107271
 31
0.0
  0
LWPOLYLINE
  5
151D
330
220
100
AcDbEntity
  8
0
  6
Continuous
 62
     9
100
AcDbPolyline
 90
        5
 70
     0
 43
0.0
 10
23.2059602125
 20
69.37489893670001
 10
23.0281157144
 20
69.41841669449999
 10
22.8759315554
 20
69.5270858041
 10
22.7713622801
 20
69.685229331
 10
22.72949336739999
 20
69.87003301189999
  0
LWPOLYLINE
  5
151E
330
220
100
AcDbEntity
  8
0
  6
Continuous
 62
     9
100
AcDbPolyline
 90
       13
 70
     0
 43
0.0
 10
12.7223063043
 20
66.29163850170001
 10
12.8023583291
 20
66.2931308262
 10
12.8896277549
 20
66.2949593741
 10
12.9847177713
 20
66.29675382149999
 10
13.0882001663
 20
66.29865206729999
 10
13.2010361207
 20
66.30065609409999
 10
13.324571947
 20
66.30274961880001
 10
13.4605540039
 20
66.3049737858
 10
13.6121925673
 20
66.307444386
 10
13.775896714
 20
66.31013617939998
 10
13.9331060151
 20
66.3131938168
 10
14.0773921741
 20
66.3143781258
 10
14.2171822971
 20
66.3137284
  0
LWPOLYLINE
  5
151F
330
220
100
AcDbEntity
  8
0
  6
Continuous
 62
     7
100
AcDbPolyline
 90
       25
 70
     0
 43
0.0
 10
47.9505139957
 20
67.34088816
 10
47.9637824374
 20
67.3409456447
 10
47.97699345909999
 20
67.34111778419999
 10
47.9900895057
 20
67.34140362339999
 10
48.00301327909999
 20
67.34180155279999
 10
48.0157078579
 20
67.34230928630001
 10
48.0281168026
 20
67.3429238273
 10
48.04018424609999
 20
67.3436414187
 10
48.0518549626
 20
67.34445747009999
 10
48.0630744133
 20
67.3453664554
 10
48.0737887714
 20
67.34636176790001
 10
48.08394493239999
 20
67.3474355163
 10
48.0934905325
 20
67.34857824159999
 10
48.1023741174
 20
67.34977853949999
 10
48.1105456287
 20
67.3510225846
 10
48.1179558682
 20
67.35229328449999
 10
48.12455881069999
 20
67.3535696042
 10
48.1303135655
 20
67.35482564359999
 10
48.1351891098
 20
67.3560301574
 10
48.1391692226
 20
67.35714636029999
 10
48.1422600721
 20
67.3581332032
 10
48.14450011579999
 20
67.35894948069999
 10
48.14596014420001
 20
67.35955767410001
 10
48.14674102
 20
67.3599293733
 10
48.1468705817
 20
67.35999742279999
  0
LWPOLYLINE
  5
1520
330
220
100
AcDbEntity
  8
0
  6
Continuous
 62
     7
100
AcDbPolyline
 90
       38
 70
     0
 43
0.0
 10
45.0755139957
 20
67.4226937013
 10
45.05439648270001
 20
67.42261137799999
 10
45.0333349467
 20
67.42236452580001
 10
45.01238435869999
 20
67.4219534742
 10
44.9915989959
 20
67.42137873539999
 10
44.9710327462
 20
67.4206409885
 10
44.9507368889
 20
67.41974095350001
 10
44.9307611246
 20
67.41867933199999
 10
44.9111526276
 20
67.4174566553
 10
44.89195659489999
 20
67.41607317359999
 10
44.8732122138
 20
67.4145283439
 10
44.8549541077
 20
67.4128205418
 10
44.837210156
 20
67.4109463522
 10
44.81999930919999
 20
67.4088995213
 10
44.8033282539
 20
67.40666924670001
 10
44.7871814908
 20
67.4042365211
 10
44.7715130618
 20
67.40156848659999
 10
44.7562209259
 20
67.39860549879999
 10
44.74108973669999
 20
67.39523018549999
 10
44.7264320931
 20
67.39140486450001
 10
44.71407742159999
 20
67.38760367720001
 10
44.70369114239999
 20
67.38384905550001
 10
44.6948000448
 20
67.3800874394
 10
44.6870823613
 20
67.3762807097
 10
44.6803336773
 20
67.37241750539999
 10
44.67433463169999
 20
67.36845000629999
 10
44.66889263249999
 20
67.3643024348
 10
44.6638865838
 20
67.35990426239999
 10
44.659240766
 20
67.3551819454
 10
44.65512903319999
 20
67.3503288779
 10
44.6513333909
 20
67.345088608
 10
44.64803302149999
 20
67.3396942456
 10
44.645050103
 20
67.33380574289999
 10
44.64264297829999
 20
67.3279024326
 10
44.64065205539999
 20
67.3215619539
 10
44.63920481319999
 20
67.3150523786
 10
44.63831889709999
 20
67.30839903589999
 10
44.6380139957
 20
67.3015475867
  0
LINE
  5
1521
330
220
100
AcDbEntity
  8
0
  6
Continuous
 62
     7
100
AcDbLine
 10
48.22341097649999
 20
67.2172239336
 30
0.0
 11
48.2005139957
 21
67.2171404884
 31
0.0
  0
LINE
  5
1522
330
220
100
AcDbEntity
  8
0
  6
Continuous
 62
     9
100
AcDbLine
 10
48.2237986972
 20
67.2407456522
 30
0.0
 11
48.2005139957
 21
67.240659355
 31
0.0
  0
LINE
  5
1523
330
220
100
AcDbEntity
  8
0
  6
Continuous
 62
     9
100
AcDbLine
 10
78.6395391875
 20
66.31240083899999
 30
0.0
 11
78.7984557539
 21
66.31291866409999
 31
0.0
  0
LWPOLYLINE
  5
1524
330
220
100
AcDbEntity
  8
0
  6
Continuous
 62
     9
100
AcDbPolyline
 90
       13
 70
     0
 43
0.0
 10
78.7984557539
 20
66.31291866409999
 10
78.9296093352
 20
66.3133230707
 10
78.9905663803
 20
66.3134998077
 10
79.0513005836
 20
66.31369852819999
 10
79.11192780010001
 20
66.314005083
 10
79.1712246227
 20
66.31433113279999
 10
79.2289881884
 20
66.3143288306
 10
79.2858995633
 20
66.31397983800001
 10
79.3425545709
 20
66.313200638
 10
79.39921884020001
 20
66.3120823018
 10
79.45549638909999
 20
66.31094866499999
 10
79.51149770649999
 20
66.3099398145
 10
79.7018366624
 20
66.3068229617
  0
LWPOLYLINE
  5
1525
330
220
100
AcDbEntity
  8
0
  6
Continuous
 62
     9
100
AcDbPolyline
 90
       13
 70
     0
 43
0.0
 10
76.07485483859999
 20
66.31246384939998
 10
76.44630623569999
 20
66.31246438569999
 10
76.7730123219
 20
66.31246373749999
 10
77.0596873508
 20
66.3124650633
 10
77.3124497014
 20
66.31245767020001
 10
77.5360244828
 20
66.3124646982
 10
77.7339081484
 20
66.3118559291
 10
77.90951473359999
 20
66.3114320108
 10
78.06589027369999
 20
66.3112586923
 10
78.2056074766
 20
66.311270431
 10
78.330909711
 20
66.3114741987
 10
78.4439269843
 20
66.3117952229
 10
78.6395391875
 20
66.31240083899999
  0
LINE
  5
1526
330
220
100
AcDbEntity
  8
0
  6
Continuous
 62
     7
100
AcDbLine
 10
48.2005139957
 20
67.2171404884
 30
0.0
 11
45.0755139957
 21
67.2171404884
 31
0.0
  0
LINE
  5
1527
330
220
100
AcDbEntity
  8
0
  6
Continuous
 62
     9
100
AcDbLine
 10
48.2005139957
 20
67.240659355
 30
0.0
 11
45.0755139957
 21
67.240659355
 31
0.0
  0
LINE
  5
1528
330
220
100
AcDbEntity
  8
0
  6
Continuous
 62
     9
100
AcDbLine
 10
48.2005139957
 20
67.3197202369
 30
0.0
 11
45.0755139957
 21
67.3197202369
 31
0.0
  0
LINE
  5
1529
330
220
100
AcDbEntity
  8
0
  6
Continuous
 62
     9
100
AcDbLine
 10
47.9505139957
 20
67.340596202
 30
0.0
 11
45.32551399569999
 21
67.340596202
 31
0.0
  0
LINE
  5
152A
330
220
100
AcDbEntity
  8
0
  6
Continuous
 62
     7
100
AcDbLine
 10
47.9505139957
 20
67.34088816
 30
0.0
 11
45.32551399569999
 21
67.34088816
 31
0.0
  0
LINE
  5
152B
330
220
100
AcDbEntity
  8
0
  6
Continuous
 62
     9
100
AcDbLine
 10
45.32551399569999
 20
67.36725326590001
 30
0.0
 11
47.9505139957
 21
67.36725326590001
 31
0.0
  0
LINE
  5
152C
330
220
100
AcDbEntity
  8
0
  6
Continuous
 62
     9
100
AcDbLine
 10
45.32551399569999
 20
67.40113650100001
 30
0.0
 11
47.9505139957
 21
67.40113650100001
 31
0.0
  0
LINE
  5
152D
330
220
100
AcDbEntity
  8
0
  6
Continuous
 62
     9
100
AcDbLine
 10
45.0755139957
 20
67.4220124661
 30
0.0
 11
48.2005139957
 21
67.4220124661
 31
0.0
  0
LINE
  5
152E
330
220
100
AcDbEntity
  8
0
  6
Continuous
 62
     7
100
AcDbLine
 10
45.0755139957
 20
67.4226937013
 30
0.0
 11
48.2005139957
 21
67.4226937013
 31
0.0
  0
LWPOLYLINE
  5
152F
330
220
100
AcDbEntity
  8
0
  6
Continuous
 62
     9
100
AcDbPolyline
 90
        8
 70
     0
 43
0.0
 10
14.2171822971
 20
66.3137284
 10
14.7077393489
 20
66.3121769743
 10
14.91546005
 20
66.31155421809999
 10
15.1495094131
 20
66.31124431589999
 10
15.4112505765
 20
66.3115191838
 10
15.7063254292
 20
66.31242026699999
 10
16.0367555841
 20
66.3124627678
 10
76.07485483859999
 20
66.31246384939998
  0
LINE
  5
1530
330
220
100
AcDbEntity
  8
0
  6
Continuous
 62
     7
100
AcDbLine
 10
45.05261701479999
 20
67.2172239336
 30
0.0
 11
45.0755139957
 21
67.2171404884
 31
0.0
  0
LWPOLYLINE
  5
1531
330
220
100
AcDbEntity
  8
0
  6
Continuous
 62
     9
100
AcDbPolyline
 90
        6
 70
     0
 43
0.0
 10
45.0755139957
 20
67.240659355
 10
45.0522292942
 20
67.2407456522
 10
45.02901059569999
 20
67.241004299
 10
45.0059237162
 20
67.2414345624
 10
44.9830340979
 20
67.24203522270001
 10
44.9604066238
 20
67.2428045772
  0
LWPOLYLINE
  5
1532
330
220
100
AcDbEntity
  8
0
  6
Continuous
 62
     9
100
AcDbPolyline
 90
       57
 70
     0
 43
0.0
 10
45.0755139957
 20
67.3197202369
 10
45.0549190224
 20
67.3198006139
 10
45.0343765639
 20
67.3200416838
 10
45.0139652953
 20
67.3204426468
 10
44.9937466266
 20
67.3210022885
 10
44.97378560619999
 20
67.3217188168
 10
44.9541445487
 20
67.32258999169999
 10
44.9348854189
 20
67.3236130658
 10
44.91606876319999
 20
67.32478482260001
 10
44.8977538037
 20
67.32610157419999
 10
44.8799981638
 20
67.32755917770001
 10
44.8628577126
 20
67.3291530468
 10
44.84638638199999
 20
67.3308781663
 10
44.83063599899999
 20
67.3327291083
 10
44.8156561221
 20
67.3347000487
 10
44.8014938851
 20
67.3367847859
 10
44.78819384949999
 20
67.3389767604
 10
44.77579786359999
 20
67.3412690752
 10
44.7643449313
 20
67.3436545175
 10
44.75387108909999
 20
67.34612558149999
 10
44.7444092929
 20
67.3486744921
 10
44.73598931399999
 20
67.35129322919999
 10
44.7286376459
 20
67.3539735529
 10
44.7223774205
 20
67.3567070295
 10
44.7172283355
 20
67.35948505839999
 10
44.7132065926
 20
67.36229889829999
 10
44.7103248459
 20
67.36513969569999
 10
44.708592163
 20
67.36799851189999
 10
44.7080139957
 20
67.3708663517
 10
44.7085921632
 20
67.37373419159999
 10
44.7103248463
 20
67.37659300779999
 10
44.7132065931
 20
67.3794338051
 10
44.7172283363
 20
67.3822476451
 10
44.7223774214
 20
67.3850256739
 10
44.728637647
 20
67.3877591506
 10
44.7359893152
 20
67.39043947419999
 10
44.7444092943
 20
67.3930582113
 10
44.75387109069999
 20
67.3956071219
 10
44.764344933
 20
67.3980781859
 10
44.7757978654
 20
67.4004636282
 10
44.78819385149999
 20
67.4027559429
 10
44.8014938872
 20
67.40494791739999
 10
44.8156561243
 20
67.4070326547
 10
44.8306360014
 20
67.409003595
 10
44.84638638449999
 20
67.41085453689999
 10
44.86285771520001
 20
67.4125796565
 10
44.87999816649999
 20
67.4141735255
 10
44.8977538065
 20
67.41563112899999
 10
44.91606876609999
 20
67.41694788060001
 10
44.9348854218
 20
67.4181196373
 10
44.9541445518
 20
67.4191427115
 10
44.97378560909999
 20
67.4200138863
 10
44.99374662989999
 20
67.4207304146
 10
45.0139652982
 20
67.42129005619999
 10
45.0343765672
 20
67.4216910193
 10
45.0549190268
 20
67.42193208909999
 10
45.0755139957
 20
67.4220124661
  0
LWPOLYLINE
  5
1533
330
220
100
AcDbEntity
  8
0
  6
Continuous
 62
     9
100
AcDbPolyline
 90
       57
 70
     0
 43
0.0
 10
48.2005139957
 20
67.4220124661
 10
48.22110896459999
 20
67.42193208909999
 10
48.2416514241
 20
67.4216910193
 10
48.2620626932
 20
67.42129005619999
 10
48.2822813614
 20
67.4207304146
 10
48.3022423822
 20
67.4200138863
 10
48.3218834396
 20
67.4191427115
 10
48.3411425695
 20
67.4181196373
 10
48.35995922529999
 20
67.41694788060001
 10
48.3782741849
 20
67.41563112899999
 10
48.39602982489999
 20
67.4141735255
 10
48.4131702762
 20
67.4125796565
 10
48.4296416069
 20
67.41085453689999
 10
48.44539198989999
 20
67.409003595
 10
48.460371867
 20
67.4070326547
 10
48.4745341041
 20
67.40494791739999
 10
48.48783413989999
 20
67.4027559429
 10
48.5002301259
 20
67.4004636282
 10
48.5116830584
 20
67.3980781859
 10
48.5221569007
 20
67.3956071219
 10
48.5316186971
 20
67.3930582113
 10
48.5400386761
 20
67.39043947419999
 10
48.54739034439999
 20
67.3877591506
 10
48.55365057
 20
67.3850256739
 10
48.5587996551
 20
67.3822476451
 10
48.5628213983
 20
67.3794338051
 10
48.5657031451
 20
67.37659300779999
 10
48.5674358282
 20
67.37373419159999
 10
48.5680139957
 20
67.3708663517
 10
48.5674358284
 20
67.36799851189999
 10
48.5657031455
 20
67.36513969569999
 10
48.56282139880001
 20
67.36229889829999
 10
48.5587996558
 20
67.35948505839999
 10
48.55365057090001
 20
67.3567070295
 10
48.5473903455
 20
67.3539735529
 10
48.5400386774
 20
67.35129322919999
 10
48.5316186985
 20
67.3486744921
 10
48.5221569023
 20
67.34612558149999
 10
48.5116830601
 20
67.3436545175
 10
48.50023012779999
 20
67.3412690752
 10
48.48783414189999
 20
67.3389767604
 10
48.4745341063
 20
67.3367847859
 10
48.46037186930001
 20
67.3347000487
 10
48.44539199229999
 20
67.3327291083
 10
48.42964160939999
 20
67.3308781663
 10
48.4131702788
 20
67.3291530468
 10
48.3960298276
 20
67.32755917770001
 10
48.3782741877
 20
67.32610157419999
 10
48.3599592282
 20
67.32478482260001
 10
48.3411425725
 20
67.3236130658
 10
48.3218834426
 20
67.32258999169999
 10
48.3022423852
 20
67.3217188168
 10
48.28228136479999
 20
67.3210022885
 10
48.2620626961
 20
67.3204426468
 10
48.2416514274
 20
67.3200416838
 10
48.2211089689
 20
67.3198006139
 10
48.2005139957
 20
67.3197202369
  0
LWPOLYLINE
  5
1534
330
220
100
AcDbEntity
  8
0
  6
Continuous
 62
     7
100
AcDbPolyline
 90
       38
 70
     0
 43
0.0
 10
48.2005139957
 20
67.4226937013
 10
48.22163150859999
 20
67.42261137799999
 10
48.2426930447
 20
67.42236452580001
 10
48.2636436327
 20
67.4219534742
 10
48.2844289955
 20
67.42137873539999
 10
48.3049952452
 20
67.4206409885
 10
48.3252911025
 20
67.41974095350001
 10
48.3452668667
 20
67.41867933199999
 10
48.3648753638
 20
67.4174566553
 10
48.38407139640001
 20
67.41607317359999
 10
48.4028157775
 20
67.4145283439
 10
48.42107388369999
 20
67.4128205418
 10
48.4388178354
 20
67.4109463522
 10
48.4560286822
 20
67.4088995213
 10
48.4726997375
 20
67.40666924670001
 10
48.4888465005
 20
67.4042365211
 10
48.5045149296
 20
67.40156848659999
 10
48.5198070654
 20
67.39860549879999
 10
48.5349382546
 20
67.39523018549999
 10
48.54959589819999
 20
67.39140486450001
 10
48.56195056979999
 20
67.38760367720001
 10
48.57233684899999
 20
67.38384905550001
 10
48.58122794659999
 20
67.3800874394
 10
48.58894562999999
 20
67.3762807097
 10
48.595694314
 20
67.37241750539999
 10
48.6016933597
 20
67.36845000629999
 10
48.6071353589
 20
67.3643024348
 10
48.6121414076
 20
67.35990426239999
 10
48.61678722529999
 20
67.3551819454
 10
48.62089895819999
 20
67.3503288779
 10
48.6246946005
 20
67.345088608
 10
48.6279949699
 20
67.3396942456
 10
48.63097788840001
 20
67.33380574289999
 10
48.633385013
 20
67.3279024326
 10
48.635375936
 20
67.3215619539
 10
48.6368231782
 20
67.3150523786
 10
48.6377090943
 20
67.30839903589999
 10
48.6380139957
 20
67.3015475867
  0
LWPOLYLINE
  5
1535
330
220
100
AcDbEntity
  8
0
  6
Continuous
 62
     9
100
AcDbPolyline
 90
       51
 70
     0
 43
0.0
 10
45.32551399569999
 20
67.340596202
 10
45.3118674213
 20
67.3406558426
 10
45.2982630868
 20
67.3408347318
 10
45.28476776859999
 20
67.3411321252
 10
45.2714324627
 20
67.34154689010001
 10
45.25831080449999
 20
67.3420773666
 10
45.2454543281
 20
67.3427214693
 10
45.23291384270001
 20
67.3434766533
 10
45.22073883
 20
67.3443399385
 10
45.2089773434
 20
67.3453079177
 10
45.19767580089999
 20
67.34637677069999
 10
45.18687880829999
 20
67.3475422789
 10
45.17662897939999
 20
67.3487998422
 10
45.1669667679
 20
67.35014449720001
 10
45.1579303084
 20
67.35157093699999
 10
45.14955526579999
 20
67.3530735316
 10
45.1418746947
 20
67.35464635069999
 10
45.1349189086
 20
67.35628318669999
 10
45.1287153607
 20
67.3579775793
 10
45.12328853479999
 20
67.35972284119999
 10
45.1186598496
 20
67.36151208409999
 10
45.11484757349999
 20
67.3633382463
 10
45.1118667528
 20
67.3651941203
 10
45.10972915199999
 20
67.36707238140001
 10
45.1084432078
 20
67.36896561649999
 10
45.1080139957
 20
67.3708663534
 10
45.10844320949999
 20
67.3727670902
 10
45.1097291553
 20
67.3746603253
 10
45.11186675779999
 20
67.3765385864
 10
45.1148475802
 20
67.3783944603
 10
45.1186598579
 20
67.3802206225
 10
45.1232885447
 20
67.38200986529999
 10
45.1287153721
 20
67.383755127
 10
45.1349189216
 20
67.3854495195
 10
45.141874709
 20
67.3870863554
 10
45.14955528149999
 20
67.38865917439999
 10
45.1579303255
 20
67.3901617689
 10
45.1669667863
 20
67.39158820850001
 10
45.1766289989
 20
67.3929328634
 10
45.18687882899999
 20
67.39419042649998
 10
45.1976758227
 20
67.3953559345
 10
45.20897736609999
 20
67.39642478729999
 10
45.2207388536
 20
67.3973927663
 10
45.2329138669
 20
67.3982560513
 10
45.2454543534
 20
67.39901123510001
 10
45.25831082929999
 20
67.39965533749999
 10
45.2714324905
 20
67.40018581390001
 10
45.284767792
 20
67.4006005785
 10
45.29826311579999
 20
67.4008979717
 10
45.3118674579
 20
67.4010768608
 10
45.32551399569999
 20
67.40113650100001
  0
LWPOLYLINE
  5
1536
330
220
100
AcDbEntity
  8
0
  6
Continuous
 62
     7
100
AcDbPolyline
 90
       25
 70
     0
 43
0.0
 10
45.32551399569999
 20
67.34088816
 10
45.3122455539
 20
67.3409456447
 10
45.2990345322
 20
67.34111778419999
 10
45.28593848569999
 20
67.34140362339999
 10
45.2730147122
 20
67.34180155279999
 10
45.2603201335
 20
67.34230928630001
 10
45.2479111888
 20
67.3429238273
 10
45.23584374520001
 20
67.3436414187
 10
45.2241730288
 20
67.34445747009999
 10
45.2129535781
 20
67.3453664554
 10
45.20223922
 20
67.34636176790001
 10
45.192083059
 20
67.3474355163
 10
45.1825374589
 20
67.34857824159999
 10
45.17365387399999
 20
67.34977853949999
 10
45.1654823627
 20
67.3510225846
 10
45.1580721231
 20
67.35229328449999
 10
45.1514691807
 20
67.3535696042
 10
45.1457144259
 20
67.35482564359999
 10
45.1408388816
 20
67.3560301574
 10
45.1368587688
 20
67.35714636029999
 10
45.1337679192
 20
67.3581332032
 10
45.13152787560001
 20
67.35894948069999
 10
45.1300678472
 20
67.35955767410001
 10
45.1292869714
 20
67.3599293733
 10
45.1291574097
 20
67.35999742279999
  0
LWPOLYLINE
  5
1537
330
220
100
AcDbEntity
  8
0
  6
Continuous
 62
     9
100
AcDbPolyline
 90
       51
 70
     0
 43
0.0
 10
47.9505139957
 20
67.40113650100001
 10
47.9641605334
 20
67.4010768608
 10
47.9777648756
 20
67.4008979717
 10
47.9912601993
 20
67.4006005785
 10
48.0045955008
 20
67.40018581390001
 10
48.017717162
 20
67.39965533749999
 10
48.03057363789999
 20
67.39901123510001
 10
48.0431141244
 20
67.3982560513
 10
48.0552891377
 20
67.3973927663
 10
48.06705062529999
 20
67.39642478729999
 10
48.0783521687
 20
67.3953559345
 10
48.0891491624
 20
67.39419042649998
 10
48.09939899239999
 20
67.3929328634
 10
48.10906120510001
 20
67.39158820850001
 10
48.1180976659
 20
67.3901617689
 10
48.1264727098
 20
67.38865917439999
 10
48.1341532823
 20
67.3870863554
 10
48.14110906979999
 20
67.3854495195
 10
48.1473126193
 20
67.383755127
 10
48.1527394467
 20
67.38200986529999
 10
48.1573681334
 20
67.3802206225
 10
48.1611804111
 20
67.3783944603
 10
48.16416123359999
 20
67.3765385864
 10
48.166298836
 20
67.3746603253
 10
48.1675847818
 20
67.3727670902
 10
48.1680139957
 20
67.3708663534
 10
48.1675847835
 20
67.36896561649999
 10
48.16629883939999
 20
67.36707238140001
 10
48.16416123859999
 20
67.3651941203
 10
48.1611804178
 20
67.3633382463
 10
48.1573681417
 20
67.36151208409999
 10
48.15273945659999
 20
67.35972284119999
 10
48.1473126307
 20
67.3579775794
 10
48.14110908279999
 20
67.35628318669999
 10
48.1341532967
 20
67.35464635069999
 10
48.1264727256
 20
67.3530735316
 10
48.118097683
 20
67.35157093699999
 10
48.10906122350001
 20
67.35014449720001
 10
48.09939901199999
 20
67.3487998422
 10
48.08914918310001
 20
67.3475422789
 10
48.0783521905
 20
67.34637677069999
 10
48.067050648
 20
67.3453079177
 10
48.0552891614
 20
67.3443399385
 10
48.04311414869999
 20
67.3434766533
 10
48.0305736633
 20
67.3427214693
 10
48.01771718689999
 20
67.3420773666
 10
48.0045955288
 20
67.34154689010001
 10
47.99126022279999
 20
67.3411321252
 10
47.9777649046
 20
67.3408347318
 10
47.9641605702
 20
67.3406558426
 10
47.9505139957
 20
67.340596202
  0
LWPOLYLINE
  5
1538
330
220
100
AcDbEntity
  8
0
  6
Continuous
 62
     9
100
AcDbPolyline
 90
       19
 70
     0
 43
0.0
 10
47.9505139957
 20
67.36725326590001
 10
47.96277708279999
 20
67.36719739459999
 10
47.9749876576
 20
67.3670300199
 10
47.98709343229999
 20
67.3667518586
 10
47.99904256829999
 20
67.3663641017
 10
48.0107838968
 20
67.3658684098
 10
48.02226714020001
 20
67.3652669055
 10
48.033443126
 20
67.3645621645
 10
48.0442639967
 20
67.3637572045
 10
48.05468341520001
 20
67.3628554727
 10
48.0646567644
 20
67.3618608302
 10
48.0741413367
 20
67.3607775364
 10
48.08309651770001
 20
67.35961023
 10
48.0914839601
 20
67.3583639097
 10
48.0992677474
 20
67.3570439123
 10
48.1064145483
 20
67.3556558904
 10
48.1128937592
 20
67.35420578760001
 10
48.11867763489999
 20
67.3526998135
 10
48.11921117629999
 20
67.3525359301
  0
LINE
  5
1539
330
220
100
AcDbEntity
  8
0
  6
Continuous
 62
     9
100
AcDbLine
 10
79.7018366624
 20
66.3068229617
 30
0.0
 11
79.86826356899999
 21
66.30411590999999
 31
0.0
  0
LWPOLYLINE
  5
153A
330
220
100
AcDbEntity
  8
0
  6
Continuous
 62
     9
100
AcDbPolyline
 90
        7
 70
     0
 43
0.0
 10
79.86826356899999
 20
66.30411590999999
 10
79.9660003826
 20
66.3025077762
 10
80.0772899929
 20
66.3006162225
 10
80.20200138209998
 20
66.2983941038
 10
80.3298531407
 20
66.2960382404
 10
80.44737958069999
 20
66.2937017707
 10
80.55371069699999
 20
66.2916387059
  0
LWPOLYLINE
  5
153B
330
220
100
AcDbEntity
  8
0
  6
Continuous
 62
     9
100
AcDbPolyline
 90
       26
 70
     0
 43
0.0
 10
44.9604066238
 20
67.2428045772
 10
44.9381054342
 20
67.24374044520001
 10
44.91619374399999
 20
67.2448401738
 10
44.89473366439999
 20
67.2461006457
 10
44.8737860263
 20
67.24751828799999
 10
44.85341020799999
 20
67.2490890822
 10
44.8336639671
 20
67.25080857569999
 10
44.81460327629999
 20
67.2526718945
 10
44.7962821653
 20
67.2546737568
 10
44.77875256729999
 20
67.256808488
 10
44.76206417180001
 20
67.259070037
 10
44.7462642839
 20
67.2614519933
 10
44.73139769
 20
67.26394760489999
 10
44.71750653119999
 20
67.26654979770001
 10
44.7046301835
 20
67.2692511956
 10
44.6928051462
 20
67.272044141
 10
44.6820649387
 20
67.2749207172
 10
44.6724400054
 20
67.2778727702
 10
44.66395762899999
 20
67.280891932
 10
44.6566418539
 20
67.2839696445
 10
44.65051341739999
 20
67.2870971836
 10
44.6455896912
 20
67.29026568390001
 10
44.6418846321
 20
67.29346616399999
 10
44.6394087426
 20
67.2966895518
 10
44.6381690408
 20
67.29992671019999
 10
44.6380139957
 20
67.3015475867
  0
LWPOLYLINE
  5
153C
330
220
100
AcDbEntity
  8
0
  6
Continuous
 62
     9
100
AcDbPolyline
 90
        4
 70
     0
 43
0.0
 10
25.1067627063
 20
69.5703201024
 10
32.4339029996
 20
69.572694483
 10
39.6114673829
 20
69.57474998020001
 10
46.6380139957
 20
69.57560310959999
  0
LWPOLYLINE
  5
153D
330
220
100
AcDbEntity
  8
0
  6
Continuous
 62
     9
100
AcDbPolyline
 90
        4
 70
     0
 43
0.0
 10
46.6380139957
 20
69.57560310959999
 10
53.6756160953
 20
69.5747475126
 10
60.8575944965
 20
69.57268940199999
 10
68.1692650065
 20
69.5703201241
  0
LWPOLYLINE
  5
153E
330
220
100
AcDbEntity
  8
0
  6
Continuous
 62
     9
100
AcDbPolyline
 90
        7
 70
     0
 43
0.0
 10
68.1692650065
 20
69.5703201241
 10
68.5837516232
 20
69.5641084217
 10
68.981890007
 20
69.5458661972
 10
69.34595996510001
 20
69.5162074904
 10
69.65782644979999
 20
69.4764738057
 10
69.9026090957
 20
69.4286256015
 10
70.07006787579999
 20
69.3748988861
  0
LWPOLYLINE
  5
153F
330
220
100
AcDbEntity
  8
0
  6
Continuous
 62
     9
100
AcDbPolyline
 90
       13
 70
     0
 43
0.0
 10
78.5096713866
 20
66.7916458258
 10
78.7660282298
 20
66.76075802639999
 10
79.00324991739999
 20
66.7163478985
 10
79.2203176406
 20
66.6670296839
 10
79.42024013939999
 20
66.61680608170001
 10
79.6046006568
 20
66.56759152020001
 10
79.7754820818
 20
66.5200478882
 10
79.93355076729999
 20
66.47481364349999
 10
80.07855940469999
 20
66.4325149106
 10
80.2115774814
 20
66.3932371021
 10
80.33408466359999
 20
66.35680237539999
 10
80.4476304726
 20
66.3230094405
 10
80.5537104323
 20
66.2916387148
  0
LWPOLYLINE
  5
1540
330
220
100
AcDbEntity
  8
0
  6
Continuous
 62
     9
100
AcDbPolyline
 90
        3
 70
     0
 43
0.0
 10
14.7663561257
 20
66.7916494085
 10
15.0004569645
 20
66.8295170925
 10
15.200887572
 20
66.87102192330001
  0
LINE
  5
1541
330
220
100
AcDbEntity
  8
0
  6
Continuous
 62
     9
100
AcDbLine
 10
44.6557457168
 20
73.66520064939999
 30
0.0
 11
44.8313070974
 21
73.6652773994
 31
0.0
  0
LINE
  5
1542
330
220
100
AcDbEntity
  8
DEFAULT_1
  6
CENTER
 62
     7
100
AcDbLine
 10
46.6380139957
 20
73.6652007271
 30
0.0
 11
43.69634732899999
 21
73.6652007271
 31
0.0
  0
LINE
  5
1543
330
220
100
AcDbEntity
  8
DEFAULT_1
  6
CENTER
 62
     7
100
AcDbLine
 10
46.6380139957
 20
73.6652007271
 30
0.0
 11
49.57968066239999
 21
73.6652007271
 31
0.0
  0
LINE
  5
1544
330
220
100
AcDbEntity
  8
0
  6
Continuous
 62
     9
100
AcDbLine
 10
48.62028227439999
 20
73.66520080589999
 30
0.0
 11
48.4447208733
 21
73.6652773994
 31
0.0
  0
LWPOLYLINE
  5
1545
330
220
100
AcDbEntity
  8
0
  6
Continuous
 62
     9
100
AcDbPolyline
 90
       16
 70
     0
 43
0.0
 10
46.6380139957
 20
71.60856176520001
 10
46.4469715888
 20
71.6180584345
 10
46.2237317247
 20
71.65362069689999
 10
45.9825173584
 20
71.72338253959999
 10
45.7376311013
 20
71.83135112489999
 10
45.5029504697
 20
71.9766623014
 10
45.2916648222
 20
72.15248130149999
 10
45.1138317422
 20
72.3464454743
 10
44.97322053069999
 20
72.5446773275
 10
44.8664146834
 20
72.7384535026
 10
44.78774612419999
 20
72.9234554378
 10
44.7319753435
 20
73.09709764119999
 10
44.6944882337
 20
73.25807335350001
 10
44.6713451488
 20
73.4060855521
 10
44.6593038135
 20
73.5414219293
 10
44.6557457171
 20
73.6652006493
  0
LWPOLYLINE
  5
1546
330
220
100
AcDbEntity
  8
0
  6
Continuous
 62
     9
100
AcDbPolyline
 90
        3
 70
     0
 43
0.0
 10
78.0751399745
 20
66.87102202220001
 10
78.2755704364
 20
66.82951721159999
 10
78.5096713855
 20
66.7916494872
  0
LWPOLYLINE
  5
1547
330
220
100
AcDbEntity
  8
0
  6
Continuous
 62
     9
100
AcDbPolyline
 90
        4
 70
     0
 43
0.0
 10
15.200887572
 20
66.87102192330001
 10
18.3191698615
 20
67.67587086270001
 10
20.993505698
 20
68.5123214833
 10
23.2059602125
 20
69.37489893590001
  0
LWPOLYLINE
  5
1548
330
220
100
AcDbEntity
  8
0
  6
Continuous
 62
     9
100
AcDbPolyline
 90
        4
 70
     0
 43
0.0
 10
70.07006787579999
 20
69.3748988861
 10
72.2825223415
 20
68.5123214667
 10
74.9568579619
 20
67.67587091029999
 10
78.0751399745
 20
66.87102202220001
  0
LWPOLYLINE
  5
1549
330
220
100
AcDbEntity
  8
0
  6
Continuous
 62
     7
100
AcDbPolyline
 90
       30
 70
     0
 43
0.0
 10
44.6380139957
 20
67.27802872009999
 10
44.63861357419999
 20
67.2748420762
 10
44.6404106665
 20
67.27166416680001
 10
44.6434003467
 20
67.26850370210001
 10
44.64757442039999
 20
67.26536934489999
 10
44.6529214467
 20
67.26226968609999
 10
44.65942676979999
 20
67.25921322169999
 10
44.6670725591
 20
67.25620832930001
 10
44.675837858
 20
67.2532632451
 10
44.6856986414
 20
67.2503860413
 10
44.69662788149999
 20
67.2475846042
 10
44.7085956222
 20
67.2448666123
 10
44.7215690606
 20
67.2422395154
 10
44.7355126375
 20
67.2397105143
 10
44.7503881345
 20
67.2372865407
 10
44.7661547789
 20
67.2349742385
 10
44.7827693554
 20
67.2327799458
 10
44.8001863246
 20
67.2307096767
 10
44.81835794779999
 20
67.2287691059
 10
44.8372344179
 20
67.2269635522
 10
44.85676399569999
 20
67.2252979646
 10
44.87689315199999
 20
67.2237769084
 10
44.8975667143
 20
67.22240455259999
 10
44.9187280178
 20
67.2211846588
 10
44.9403190606
 20
67.2201205706
 10
44.9622806635
 20
67.2192152046
 10
44.98455263100001
 20
67.2184710423
 10
45.0070739172
 20
67.2178901236
 10
45.029782793
 20
67.21747404050001
 10
45.05261701479999
 20
67.2172239336
  0
LINE
  5
154A
330
220
100
AcDbEntity
  8
0
  6
Continuous
 62
     7
100
AcDbLine
 10
44.6380139957
 20
67.27802872009999
 30
0.0
 11
44.6380139957
 21
67.3015475867
 31
0.0
  0
LINE
  5
154B
330
220
100
AcDbEntity
  8
0
  6
Continuous
 62
     9
100
AcDbLine
 10
45.0755139957
 20
67.4226937013
 30
0.0
 11
45.0755139957
 21
67.4220124661
 31
0.0
  0
LINE
  5
154C
330
220
100
AcDbEntity
  8
0
  6
Continuous
 62
     9
100
AcDbLine
 10
45.0755139957
 20
67.2171404884
 30
0.0
 11
45.0755139957
 21
67.3197202369
 31
0.0
  0
LINE
  5
154D
330
220
100
AcDbEntity
  8
0
  6
Continuous
 62
     9
100
AcDbLine
 10
45.32551399569999
 20
67.340596202
 30
0.0
 11
45.32551399569999
 21
67.40113650100001
 31
0.0
  0
LINE
  5
154E
330
220
100
AcDbEntity
  8
DEFAULT_1
  6
CENTER
 62
     7
100
AcDbLine
 10
46.6380139957
 20
73.6652007271
 30
0.0
 11
46.6380139957
 21
63.592322589
 31
0.0
  0
LINE
  5
154F
330
220
100
AcDbEntity
  8
DEFAULT_1
  6
CENTER
 62
     7
100
AcDbLine
 10
46.6380139957
 20
73.6652007271
 30
0.0
 11
46.6380139957
 21
97.07737113270001
 31
0.0
  0
LWPOLYLINE
  5
1550
330
220
100
AcDbEntity
  8
0
  6
Continuous
 62
     9
100
AcDbPolyline
 90
       15
 70
     0
 43
0.0
 10
44.6557457168
 20
73.66520064939999
 10
44.6590244383
 20
73.78006844969999
 10
44.6699834517
 20
73.903767173
 10
44.69066547029999
 20
74.03758554460001
 10
44.72360276789999
 20
74.1819407105
 10
44.77190232789999
 20
74.33692289879999
 10
44.83922346409999
 20
74.5018746612
 10
44.92972317529999
 20
74.6751654078
 10
45.0479379735
 20
74.8539323187
 10
45.1986319767
 20
75.033849257
 10
45.38728832989999
 20
75.2094219581
 10
45.62075469329999
 20
75.3734531001
 10
45.90483160949999
 20
75.5142721558
 10
46.24308649729999
 20
75.6154546833
 10
46.6380139956
 20
75.6553181964
  0
LWPOLYLINE
  5
1551
330
220
100
AcDbEntity
  8
0
  6
Continuous
 62
     9
100
AcDbPolyline
 90
        7
 70
     0
 43
0.0
 10
70.18510775919999
 20
91.4073940241
 10
70.0156877415
 20
91.35361415910001
 10
69.7694648975
 20
91.30579091139999
 10
69.4568853368
 20
91.26615096340001
 10
69.09292662449999
 20
91.2366240052
 10
68.69563092439999
 20
91.21851370260001
 10
68.28248479439999
 20
91.21240618829999
  0
LWPOLYLINE
  5
1552
330
220
100
AcDbEntity
  8
0
  6
Continuous
 62
     9
100
AcDbPolyline
 90
        8
 70
     0
 43
0.0
 10
80.55398911560001
 20
94.4401862744
 10
80.3048685455
 20
94.36626518149999
 10
80.02906488810001
 20
94.28477722610001
 10
79.73013800290001
 20
94.1990108088
 10
79.41451746359999
 20
94.1134868542
 10
79.09367835569999
 20
94.03519229690001
 10
78.78503800629999
 20
93.9741644591
 10
78.5096743161
 20
93.9401736001
  0
LWPOLYLINE
  5
1553
330
220
100
AcDbEntity
  8
0
  6
Continuous
 62
     9
100
AcDbPolyline
 90
        4
 70
     0
 43
0.0
 10
23.0909193931
 20
91.4073938481
 10
20.8991800526
 20
92.2521578459
 10
18.2633925556
 20
93.0717244418
 10
15.2008875709
 20
93.86079953120001
  0
LWPOLYLINE
  5
1554
330
220
100
AcDbEntity
  8
0
  6
Continuous
 62
     9
100
AcDbPolyline
 90
       15
 70
     0
 43
0.0
 10
48.6202822746
 20
73.66520080589999
 10
48.61700355069999
 20
73.78006847209999
 10
48.6060445236
 20
73.90376731249999
 10
48.5853624743
 20
74.0375857896
 10
48.5524251231
 20
74.1819410859
 10
48.50412547859999
 20
74.3369234168
 10
48.436804217
 20
74.5018753337
 10
48.3463043293
 20
74.6751662379
 10
48.22808929149999
 20
74.85393329770001
 10
48.0773949726
 20
75.0338503616
 10
47.88873821489999
 20
75.20942314189999
 10
47.6552712996
 20
75.373454281
 10
47.3711939534
 20
75.51427319439999
 10
47.0329373003
 20
75.61545537659999
 10
46.6380139956
 20
75.6553181961
  0
LINE
  5
1555
330
220
100
AcDbEntity
  8
0
  6
Continuous
 62
     9
100
AcDbLine
 10
47.9505139957
 20
67.340596202
 30
0.0
 11
47.9505139957
 21
67.40113650100001
 31
0.0
  0
LINE
  5
1556
330
220
100
AcDbEntity
  8
0
  6
Continuous
 62
     9
100
AcDbLine
 10
48.2005139957
 20
67.4226937013
 30
0.0
 11
48.2005139957
 21
67.4220124661
 31
0.0
  0
LINE
  5
1557
330
220
100
AcDbEntity
  8
0
  6
Continuous
 62
     9
100
AcDbLine
 10
48.2005139957
 20
67.2171404884
 30
0.0
 11
48.2005139957
 21
67.3197202369
 31
0.0
  0
LINE
  5
1558
330
220
100
AcDbEntity
  8
0
  6
Continuous
 62
     7
100
AcDbLine
 10
48.6380139957
 20
67.3015475867
 30
0.0
 11
48.6380139957
 21
67.27802872009999
 31
0.0
  0
LWPOLYLINE
  5
1559
330
220
100
AcDbEntity
  8
0
  6
Continuous
 62
     9
100
AcDbPolyline
 90
       15
 70
     0
 43
0.0
 10
48.62028227439999
 20
73.66520080589999
 10
48.61622293659999
 20
73.5329726664
 10
48.6025148477
 20
73.3887337175
 10
48.5761122324
 20
73.23081593319999
 10
48.5331319147
 20
73.0586955774
 10
48.4687377443
 20
72.87261651439999
 10
48.3771638633
 20
72.67419343600001
 10
48.2517233463
 20
72.4667397514
 10
48.0858109228
 20
72.25683007729999
 10
47.87738578739999
 20
72.0572771753
 10
47.63329872779999
 20
71.88465697789999
 10
47.3666146473
 20
71.7514481205
 10
47.0963741559
 20
71.66386165689999
 10
46.84563043229999
 20
71.6197825739
 10
46.6380139957
 20
71.6085617661
  0
LWPOLYLINE
  5
155A
330
220
100
AcDbEntity
  8
0
  6
Continuous
 62
     9
100
AcDbPolyline
 90
       30
 70
     0
 43
0.0
 10
48.6380139957
 20
67.3015475867
 10
48.63785895060001
 20
67.29992671019999
 10
48.6366192488
 20
67.2966895518
 10
48.6341433592
 20
67.29346616399999
 10
48.6304383002
 20
67.29026568390001
 10
48.62551457399999
 20
67.2870971836
 10
48.6193861375
 20
67.2839696445
 10
48.61207036239999
 20
67.280891932
 10
48.603587986
 20
67.2778727702
 10
48.5939630526
 20
67.2749207172
 10
48.5832228452
 20
67.272044141
 10
48.57139780789999
 20
67.2692511956
 10
48.55852146010001
 20
67.26654979770001
 10
48.5446303013
 20
67.26394760489999
 10
48.5297637075
 20
67.2614519933
 10
48.5139638196
 20
67.259070037
 10
48.497275424
 20
67.256808488
 10
48.479745826
 20
67.2546737568
 10
48.461424715
 20
67.2526718945
 10
48.4423640243
 20
67.25080857569999
 10
48.4226177833
 20
67.2490890822
 10
48.4022419651
 20
67.24751828799999
 10
48.381294327
 20
67.2461006457
 10
48.3598342474
 20
67.2448401738
 10
48.3379225572
 20
67.24374044520001
 10
48.3156213675
 20
67.2428045772
 10
48.2929938935
 20
67.24203522270001
 10
48.27010427520001
 20
67.2414345624
 10
48.2470173956
 20
67.241004299
 10
48.2237986972
 20
67.2407456522
  0
LWPOLYLINE
  5
155B
330
220
100
AcDbEntity
  8
0
  6
Continuous
 62
     9
100
AcDbPolyline
 90
        4
 70
     0
 43
0.0
 10
78.0751360656
 20
93.86079850260001
 10
75.0126330719
 20
93.07172377449999
 10
72.37684715520001
 20
92.2521575758
 10
70.18510775919999
 20
91.4073940241
  0
LWPOLYLINE
  5
155C
330
220
100
AcDbEntity
  8
0
  6
Continuous
 62
     7
100
AcDbPolyline
 90
       30
 70
     0
 43
0.0
 10
48.6380139957
 20
67.27802872009999
 10
48.6374144171
 20
67.2748420762
 10
48.6356173249
 20
67.27166416680001
 10
48.6326276447
 20
67.26850370210001
 10
48.628453571
 20
67.26536934489999
 10
48.6231065447
 20
67.26226968609999
 10
48.61660122159999
 20
67.25921322169999
 10
48.60895543229999
 20
67.25620832930001
 10
48.6001901334
 20
67.2532632451
 10
48.59032935
 20
67.2503860413
 10
48.5794001098
 20
67.2475846042
 10
48.56743236919999
 20
67.2448666123
 10
48.55445893069999
 20
67.2422395154
 10
48.5405153538
 20
67.2397105143
 10
48.5256398568
 20
67.2372865407
 10
48.50987321249999
 20
67.2349742385
 10
48.493258636
 20
67.2327799458
 10
48.4758416668
 20
67.2307096767
 10
48.45767004359999
 20
67.2287691059
 10
48.43879357350001
 20
67.2269635522
 10
48.4192639957
 20
67.2252979646
 10
48.39913483930001
 20
67.2237769084
 10
48.378461277
 20
67.22240455259999
 10
48.3572999736
 20
67.2211846588
 10
48.3357089307
 20
67.2201205706
 10
48.31374732789999
 20
67.2192152046
 10
48.2914753604
 20
67.2184710423
 10
48.2689540741
 20
67.2178901236
 10
48.2462451984
 20
67.21747404050001
 10
48.22341097649999
 20
67.2172239336
  0
LWPOLYLINE
  5
155D
330
220
100
AcDbEntity
  8
0
  6
Continuous
 62
     9
100
AcDbPolyline
 90
        7
 70
     0
 43
0.0
 10
23.2059602125
 20
69.37489893590001
 10
23.3734188874
 20
69.42862561770001
 10
23.6182013961
 20
69.47647378890001
 10
23.9300676432
 20
69.51620744119999
 10
24.2941373765
 20
69.5458661355
 10
24.6922757138
 20
69.5641083664
 10
25.1067627063
 20
69.5703201024
  0
LWPOLYLINE
  5
155E
330
220
100
AcDbEntity
  8
0
  6
Continuous
 62
     9
100
AcDbPolyline
 90
        3
 70
     0
 43
0.0
 10
78.50967429579999
 20
93.94017198829999
 10
78.2755696311
 20
93.90230387709999
 10
78.0751360656
 20
93.86079850260001
  0
LWPOLYLINE
  5
155F
330
220
100
AcDbEntity
  8
0
  6
Continuous
 62
     9
100
AcDbPolyline
 90
       12
 70
     0
 43
0.0
 10
14.7663561666
 20
93.94016850659999
 10
14.4989707827
 20
93.9728425284
 10
14.2365994219
 20
94.0232130072
 10
14.0011334892
 20
94.07811522770002
 10
13.7881900514
 20
94.13278201530001
 10
13.5933350157
 20
94.1857583608
 10
13.4125140801
 20
94.23683836049999
 10
13.2474677461
 20
94.284641309
 10
13.0970243156
 20
94.32892127129999
 10
12.9596819747
 20
94.36971564770001
 10
12.8349650623
 20
94.40688043159999
 10
12.7223066207
 20
94.44018290169999
  0
LWPOLYLINE
  5
1560
330
220
100
AcDbEntity
  8
0
  6
Continuous
 62
     9
100
AcDbPolyline
 90
        3
 70
     0
 43
0.0
 10
15.2008875709
 20
93.86079953120001
 10
15.0004569746
 20
93.9023043593
 10
14.7663561733
 20
93.9401720454
  0
LWPOLYLINE
  5
1561
330
220
100
AcDbEntity
  8
0
  6
Continuous
 62
     9
100
AcDbPolyline
 90
       13
 70
     0
 43
0.0
 10
12.7223061623
 20
66.2916384989
 10
12.8269816854
 20
66.32256648790001
 10
12.9425518836
 20
66.357000591
 10
13.0691567044
 20
66.39464487479999
 10
13.2069104499
 20
66.4352971727
 10
13.3560143071
 20
66.47873012709999
 10
13.5168506914
 20
66.5246459914
 10
13.6893217998
 20
66.5724764964
 10
13.8742070391
 20
66.621566813
 10
14.0730433328
 20
66.6712037466
 10
14.2868818624
 20
66.7192967453
 10
14.5180449918
 20
66.76204198589999
 10
14.7663561085
 20
66.79164926430001
  0
LINE
  5
1562
330
220
100
AcDbEntity
  8
0
  6
Continuous
 62
     9
100
AcDbLine
 10
68.28248479439999
 20
91.21240618829999
 30
0.0
 11
57.3815568984
 21
91.2113156642
 31
0.0
  0
LWPOLYLINE
  5
1563
330
220
100
AcDbEntity
  8
0
  6
Continuous
 62
     9
100
AcDbPolyline
 90
        3
 70
     0
 43
0.0
 10
57.3815568984
 20
91.2113156642
 10
51.9900999954
 20
91.2108955869
 10
46.6380139957
 20
91.21072869729999
  0
LWPOLYLINE
  5
1564
330
220
100
AcDbEntity
  8
0
  6
Continuous
 62
     9
100
AcDbPolyline
 90
        3
 70
     0
 43
0.0
 10
46.6380139957
 20
91.21072869729999
 10
41.2853279057
 20
91.21089562200001
 10
35.8936710036
 20
91.2113157389
  0
LINE
  5
1565
330
220
100
AcDbEntity
  8
0
  6
Continuous
 62
     9
100
AcDbLine
 10
35.8936710036
 20
91.2113157389
 30
0.0
 11
24.9935434182
 21
91.21240592339999
 31
0.0
  0
LWPOLYLINE
  5
1566
330
220
100
AcDbEntity
  8
0
  6
Continuous
 62
     9
100
AcDbPolyline
 90
        7
 70
     0
 43
0.0
 10
24.9935434182
 20
91.21240592339999
 10
24.5803963898
 20
91.2185131929
 10
24.1831002721
 20
91.2366235314
 10
23.819141342
 20
91.2661505252
 10
23.5065615675
 20
91.30579051709998
 10
23.2603384743
 20
91.3536138319
 10
23.0909193931
 20
91.4073938481
  0
LWPOLYLINE
  5
1567
330
220
100
AcDbEntity
  8
0
  6
Continuous
 62
     9
100
AcDbPolyline
 90
       20
 70
     0
 43
0.0
 10
80.55367286600001
 20
94.4401826019
 10
80.3038365289
 20
94.4352992784
 10
80.1609529058
 20
94.4326835702
 10
80.004042901
 20
94.42995168219999
 10
79.8296254253
 20
94.42707745019999
 10
79.64002460199999
 20
94.42398713100001
 10
79.458566367
 20
94.4209324174
 10
79.2996306327
 20
94.4179870944
 10
79.151771798
 20
94.41757404360002
 10
79.0018497722
 20
94.41828807230001
 10
78.84017044810001
 20
94.4187679442
 10
78.658011734
 20
94.4193617106
 10
78.4509349784
 20
94.420004528
 10
78.21899733009999
 20
94.42054221259999
 10
77.96292927589999
 20
94.42046959139998
 10
77.67756605149999
 20
94.41974611579999
 10
77.3547301812
 20
94.41936545110001
 10
76.99873305439999
 20
94.41935735219999
 10
76.61282843069999
 20
94.41935697359999
 10
16.5810514153
 20
94.41935719709999
  0
LWPOLYLINE
  5
1568
330
220
100
AcDbEntity
  8
0
  6
Continuous
 62
     9
100
AcDbPolyline
 90
       15
 70
     0
 43
0.0
 10
16.5810514153
 20
94.41935719709999
 10
16.3047770297
 20
94.4193577813
 10
16.061425023
 20
94.41935630939999
 10
15.8459158133
 20
94.4193522065
 10
15.6409440691
 20
94.4195681873
 10
15.4221132976
 20
94.42027925780001
 10
15.1863783305
 20
94.42057199389999
 10
14.9554521919
 20
94.4203740226
 10
14.7266400841
 20
94.41970279790002
 10
14.4880786978
 20
94.418936676
 10
14.2545195493
 20
94.41822785920001
 10
14.0432590906
 20
94.41750175740001
 10
13.8543710121
 20
94.42020692209998
 10
13.6844980243
 20
94.4231969736
 10
13.3945617315
 20
94.4279207293
  0
LINE
  5
1569
330
220
100
AcDbEntity
  8
0
  6
Continuous
 62
     7
100
AcDbLine
 10
81.88801399569999
 20
95.86591072709998
 30
0.0
 11
11.3880139957
 21
95.86591072709998
 31
0.0
  0
LWPOLYLINE
  5
156A
330
220
100
AcDbEntity
  8
0
  6
Continuous
 62
     9
100
AcDbPolyline
 90
        8
 70
     0
 43
0.0
 10
13.3945617315
 20
94.4279207293
 10
13.2701868263
 20
94.42998210809999
 10
13.1571394147
 20
94.4319335327
 10
13.054090419
 20
94.4337917844
 10
12.9599216109
 20
94.43552694839999
 10
12.873786089
 20
94.43717642100001
 10
12.7949082389
 20
94.43885044549999
 10
12.7223066559
 20
94.4401828902
  0
LWPOLYLINE
  5
156B
330
220
100
AcDbEntity
  8
0
  6
Continuous
 62
     9
100
AcDbPolyline
 90
       19
 70
     0
 43
0.0
 10
45.156816815
 20
67.3525359301
 10
45.1573503564
 20
67.3526998135
 10
45.1631342322
 20
67.35420578760001
 10
45.169613443
 20
67.3556558904
 10
45.17676024399999
 20
67.3570439123
 10
45.18454403129999
 20
67.3583639097
 10
45.19293147359999
 20
67.35961023
 10
45.2018866547
 20
67.3607775364
 10
45.21137122699999
 20
67.3618608302
 10
45.22134457609999
 20
67.3628554727
 10
45.2317639947
 20
67.3637572045
 10
45.24258486539999
 20
67.3645621645
 10
45.25376085109999
 20
67.3652669055
 10
45.2652440945
 20
67.3658684098
 10
45.2769854231
 20
67.3663641017
 10
45.28893455899999
 20
67.3667518586
 10
45.3010403338
 20
67.3670300199
 10
45.3132509085
 20
67.36719739459999
 10
45.32551399569999
 20
67.36725326590001
  0
LWPOLYLINE
  5
156C
330
220
100
AcDbEntity
  8
0
  6
Continuous
 62
     9
100
AcDbPolyline
 90
        5
 70
     0
 43
0.0
 10
23.0909193931
 20
91.40739383299999
 10
22.9133747129
 20
91.36380708750001
 10
22.7614251567
 20
91.25512231889999
 10
22.6569767588
 20
91.0970082278
 10
22.6150874797
 20
90.91225956649999
  0
LWPOLYLINE
  5
156D
330
220
100
AcDbEntity
  8
0
  6
Continuous
 62
     9
100
AcDbPolyline
 90
        5
 70
     0
 43
0.0
 10
70.18510775919999
 20
91.4073940229
 10
70.3626399538
 20
91.3637964982
 10
70.5145758067
 20
91.2551089893
 10
70.619013362
 20
91.0969990919
 10
70.66089766810001
 20
90.91225877030002
  0
LWPOLYLINE
  5
156E
330
220
100
AcDbEntity
  8
0
  6
Continuous
 62
     9
100
AcDbPolyline
 90
        3
 70
     0
 43
0.0
 10
70.6609388741
 20
90.91225937959999
 10
70.6407224295
 20
85.4677205365
 10
70.6131240767
 20
80.31799998449999
  0
LWPOLYLINE
  5
156F
330
220
100
AcDbEntity
  8
0
  6
Continuous
 62
     9
100
AcDbPolyline
 90
        3
 70
     0
 43
0.0
 10
70.56896142220001
 20
73.6087944554
 10
70.557813951
 20
71.8068199411
 10
70.54656655149999
 20
69.8700329463
  0
LWPOLYLINE
  5
1570
330
220
100
AcDbEntity
  8
0
  6
Continuous
 62
     9
100
AcDbPolyline
 90
        4
 70
     0
 43
0.0
 10
70.6131240767
 20
80.31799998449999
 10
70.5991429268
 20
78.0709106054
 10
70.58434902470001
 20
75.83451601989999
 10
70.56896142220001
 20
73.6087944554
  0
LWPOLYLINE
  5
1571
330
220
100
AcDbEntity
  8
0
  6
Continuous
 62
     9
100
AcDbPolyline
 90
        4
 70
     0
 43
0.0
 10
80.55178306649999
 20
93.43677644389998
 10
80.55178278609998
 20
67.68389847
 10
80.5518064129
 20
66.95868299149999
 10
80.55371040709999
 20
66.2916394575
  0
LINE
  5
1572
330
220
100
AcDbEntity
  8
0
  6
Continuous
 62
     7
100
AcDbLine
 10
81.88801399569999
 20
64.8659107271
 30
0.0
 11
81.88801399569999
 21
95.86591072709998
 31
0.0
  0
LWPOLYLINE
  5
1573
330
220
100
AcDbEntity
  8
0
  6
Continuous
 62
     9
100
AcDbPolyline
 90
        3
 70
     0
 43
0.0
 10
80.5536865056
 20
94.4399668974
 10
80.5517338878
 20
93.95726517200001
 10
80.55178306649999
 20
93.43677644389998
  0
CIRCLE
  5
15C0
330
220
100
AcDbEntity
  8
0
  6
Continuous
 62
     9
100
AcDbCircle
 10
46.6380139957
 20
73.6652007271
 30
0.0
 40
1.411609594599999
  0
ENDSEC
  0
SECTION
  2
OBJECTS
  0
DICTIONARY
  5
C
330
0
100
AcDbDictionary
281
     1
  3
ACAD_COLOR
350
15FA
  3
ACAD_DETAILVIEWSTYLE
350
1614
  3
ACAD_GROUP
350
D
  3
ACAD_LAYOUT
350
1A
  3
ACAD_MATERIAL
350
15C8
  3
ACAD_MLEADERSTYLE
350
160F
  3
ACAD_MLINESTYLE
350
17
  3
ACAD_PLOTSETTINGS
350
19
  3
ACAD_PLOTSTYLENAME
350
E
  3
ACAD_SCALELIST
350
15FD
  3
ACAD_SECTIONVIEWSTYLE
350
1611
  3
ACAD_TABLESTYLE
350
15FB
  3
ACAD_VISUALSTYLE
350
15E1
  3
ACDB_RECOMPOSE_DATA
350
1618
  3
AcDbVariableDictionary
350
1655
  0
DICTIONARY
  5
1619
330
8
100
AcDbDictionary
280
     1
281
     1
  0
DICTIONARY
  5
1668
330
10
100
AcDbDictionary
280
     1
281
     1
  3
ADSK_XREC_LAYER_RECONCILED
360
1669
  0
DICTIONARY
  5
166A
330
1FA
100
AcDbDictionary
280
     1
281
     1
  3
ADSK_XREC_LAYER_RECONCILED
360
166B
  0
DICTIONARY
  5
166C
330
1FB
100
AcDbDictionary
280
     1
281
     1
  3
ADSK_XREC_LAYER_RECONCILED
360
166D
  0
DICTIONARY
  5
166E
330
1FC
100
AcDbDictionary
280
     1
281
     1
  3
ADSK_XREC_LAYER_RECONCILED
360
166F
  0
DICTIONARY
  5
1670
330
1FD
100
AcDbDictionary
280
     1
281
     1
  3
ADSK_XREC_LAYER_RECONCILED
360
1671
  0
DICTIONARY
  5
1672
330
1FE
100
AcDbDictionary
280
     1
281
     1
  3
ADSK_XREC_LAYER_RECONCILED
360
1673
  0
DICTIONARY
  5
1674
330
1FF
100
AcDbDictionary
280
     1
281
     1
  3
ADSK_XREC_LAYER_RECONCILED
360
1675
  0
DICTIONARY
  5
1676
330
200
100
AcDbDictionary
280
     1
281
     1
  3
ADSK_XREC_LAYER_RECONCILED
360
1677
  0
DICTIONARY
  5
1678
330
201
100
AcDbDictionary
280
     1
281
     1
  3
ADSK_XREC_LAYER_RECONCILED
360
1679
  0
DICTIONARY
  5
167A
330
202
100
AcDbDictionary
280
     1
281
     1
  3
ADSK_XREC_LAYER_RECONCILED
360
167B
  0
DICTIONARY
  5
167C
330
203
100
AcDbDictionary
280
     1
281
     1
  3
ADSK_XREC_LAYER_RECONCILED
360
167D
  0
DICTIONARY
  5
167E
330
204
100
AcDbDictionary
280
     1
281
     1
  3
ADSK_XREC_LAYER_RECONCILED
360
167F
  0
DICTIONARY
  5
1680
330
205
100
AcDbDictionary
280
     1
281
     1
  3
ADSK_XREC_LAYER_RECONCILED
360
1681
  0
DICTIONARY
  5
1682
330
206
100
AcDbDictionary
280
     1
281
     1
  3
ADSK_XREC_LAYER_RECONCILED
360
1683
  0
DICTIONARY
  5
1684
330
207
100
AcDbDictionary
280
     1
281
     1
  3
ADSK_XREC_LAYER_RECONCILED
360
1685
  0
DICTIONARY
  5
1686
330
208
100
AcDbDictionary
280
     1
281
     1
  3
ADSK_XREC_LAYER_RECONCILED
360
1687
  0
DICTIONARY
  5
1688
330
209
100
AcDbDictionary
280
     1
281
     1
  3
ADSK_XREC_LAYER_RECONCILED
360
1689
  0
DICTIONARY
  5
168A
330
20A
100
AcDbDictionary
280
     1
281
     1
  3
ADSK_XREC_LAYER_RECONCILED
360
168B
  0
DICTIONARY
  5
168C
330
20B
100
AcDbDictionary
280
     1
281
     1
  3
ADSK_XREC_LAYER_RECONCILED
360
168D
  0
DICTIONARY
  5
168E
330
20C
100
AcDbDictionary
280
     1
281
     1
  3
ADSK_XREC_LAYER_RECONCILED
360
168F
  0
DICTIONARY
  5
1690
330
20D
100
AcDbDictionary
280
     1
281
     1
  3
ADSK_XREC_LAYER_RECONCILED
360
1691
  0
DICTIONARY
  5
1692
330
20E
100
AcDbDictionary
280
     1
281
     1
  3
ADSK_XREC_LAYER_RECONCILED
360
1693
  0
DICTIONARY
  5
1694
330
20F
100
AcDbDictionary
280
     1
281
     1
  3
ADSK_XREC_LAYER_RECONCILED
360
1695
  0
DICTIONARY
  5
1696
330
210
100
AcDbDictionary
280
     1
281
     1
  3
ADSK_XREC_LAYER_RECONCILED
360
1697
  0
DICTIONARY
  5
1698
330
211
100
AcDbDictionary
280
     1
281
     1
  3
ADSK_XREC_LAYER_RECONCILED
360
1699
  0
DICTIONARY
  5
169A
330
212
100
AcDbDictionary
280
     1
281
     1
  3
ADSK_XREC_LAYER_RECONCILED
360
169B
  0
DICTIONARY
  5
169C
330
213
100
AcDbDictionary
280
     1
281
     1
  3
ADSK_XREC_LAYER_RECONCILED
360
169D
  0
DICTIONARY
  5
169E
330
214
100
AcDbDictionary
280
     1
281
     1
  3
ADSK_XREC_LAYER_RECONCILED
360
169F
  0
DICTIONARY
  5
16A0
330
215
100
AcDbDictionary
280
     1
281
     1
  3
ADSK_XREC_LAYER_RECONCILED
360
16A1
  0
DICTIONARY
  5
16A2
330
216
100
AcDbDictionary
280
     1
281
     1
  3
ADSK_XREC_LAYER_RECONCILED
360
16A3
  0
DICTIONARY
  5
16A4
330
217
100
AcDbDictionary
280
     1
281
     1
  3
ADSK_XREC_LAYER_RECONCILED
360
16A5
  0
DICTIONARY
  5
15FA
102
{ACAD_REACTORS
330
C
102
}
330
C
100
AcDbDictionary
281
     1
  0
DICTIONARY
  5
1614
102
{ACAD_REACTORS
330
C
102
}
330
C
100
AcDbDictionary
281
     1
  3
Imperial24
350
1615
  0
DICTIONARY
  5
D
102
{ACAD_REACTORS
330
C
102
}
330
C
100
AcDbDictionary
281
     1
  0
DICTIONARY
  5
1A
102
{ACAD_REACTORS
330
C
102
}
330
C
100
AcDbDictionary
281
     1
  3
Layout1
350
15C5
  3
Model
350
15C4
  0
DICTIONARY
  5
15C8
102
{ACAD_REACTORS
330
C
102
}
330
C
100
AcDbDictionary
281
     1
  3
ByBlock
350
15D1
  3
ByLayer
350
15C9
  3
Global
350
15D9
  0
DICTIONARY
  5
160F
102
{ACAD_REACTORS
330
C
102
}
330
C
100
AcDbDictionary
281
     1
  3
Standard
350
1610
  0
DICTIONARY
  5
17
102
{ACAD_REACTORS
330
C
102
}
330
C
100
AcDbDictionary
281
     1
  3
Standard
350
18
  0
DICTIONARY
  5
19
102
{ACAD_REACTORS
330
C
102
}
330
C
100
AcDbDictionary
281
     1
  0
ACDBDICTIONARYWDFLT
  5
E
102
{ACAD_REACTORS
330
C
102
}
330
C
100
AcDbDictionary
281
     1
  3
Normal
350
F
100
AcDbDictionaryWithDefault
340
F
  0
DICTIONARY
  5
15FD
102
{ACAD_REACTORS
330
C
102
}
330
C
100
AcDbDictionary
281
     1
  3
A0
350
15FE
  3
A1
350
15FF
  3
A2
350
1600
  3
A3
350
1601
  3
A4
350
1602
  3
A5
350
1603
  3
A6
350
1604
  3
A7
350
1605
  3
A8
350
1606
  3
A9
350
1607
  3
B0
350
1608
  3
B1
350
1609
  3
B2
350
160A
  3
B3
350
160B
  3
B4
350
160C
  3
B5
350
160D
  3
B6
350
160E
  0
DICTIONARY
  5
1611
102
{ACAD_REACTORS
330
C
102
}
330
C
100
AcDbDictionary
281
     1
  3
Imperial24
350
1613
  0
DICTIONARY
  5
15FB
102
{ACAD_REACTORS
330
C
102
}
330
C
100
AcDbDictionary
281
     1
  3
Standard
350
15FC
  0
DICTIONARY
  5
15E1
102
{ACAD_REACTORS
330
C
102
}
330
C
100
AcDbDictionary
281
     1
  3
2dWireframe
350
15E7
  3
3D Hidden
350
1661
  3
3dWireframe
350
1660
  3
Basic
350
15E6
  3
Brighten
350
15ED
  3
ColorChange
350
15F1
  3
Conceptual
350
15EA
  3
Dim
350
15EC
  3
EdgeColorOff
350
15F9
  3
Facepattern
350
15F0
  3
Flat
350
15E2
  3
FlatWithEdges
350
15E3
  3
Gouraud
350
15E4
  3
GouraudWithEdges
350
15E5
  3
Hidden
350
15E9
  3
JitterOff
350
15F7
  3
Linepattern
350
15EF
  3
OverhangOff
350
15F8
  3
Realistic
350
15EB
  3
Shaded
350
15F6
  3
Shaded with edges
350
15F5
  3
Shades of Gray
350
15F2
  3
Sketchy
350
15F3
  3
Thicken
350
15EE
  3
Wireframe
350
15E8
  3
X-Ray
350
15F4
  0
XRECORD
  5
1618
102
{ACAD_REACTORS
330
C
102
}
330
C
100
AcDbXrecord
280
     1
 90
        1
330
15FC
  0
DICTIONARY
  5
1655
102
{ACAD_REACTORS
330
C
102
}
330
C
100
AcDbDictionary
281
     1
  3
CANNOSCALE
350
165A
  3
CMLEADERSTYLE
350
1657
  3
CTABLESTYLE
350
1656
  3
CVIEWDETAILSTYLE
350
1658
  3
CVIEWSECTIONSTYLE
350
1659
  3
DIMASSOC
350
165D
  3
INDEXCTL
350
165C
  3
SORTENTS
350
165B
  3
XCLIPFRAME
350
165E
  0
XRECORD
  5
1669
102
{ACAD_REACTORS
330
1668
102
}
330
1668
100
AcDbXrecord
280
     1
290
     1
  0
XRECORD
  5
166B
102
{ACAD_REACTORS
330
166A
102
}
330
166A
100
AcDbXrecord
280
     1
290
     1
  0
XRECORD
  5
166D
102
{ACAD_REACTORS
330
166C
102
}
330
166C
100
AcDbXrecord
280
     1
290
     1
  0
XRECORD
  5
166F
102
{ACAD_REACTORS
330
166E
102
}
330
166E
100
AcDbXrecord
280
     1
290
     1
  0
XRECORD
  5
1671
102
{ACAD_REACTORS
330
1670
102
}
330
1670
100
AcDbXrecord
280
     1
290
     1
  0
XRECORD
  5
1673
102
{ACAD_REACTORS
330
1672
102
}
330
1672
100
AcDbXrecord
280
     1
290
     1
  0
XRECORD
  5
1675
102
{ACAD_REACTORS
330
1674
102
}
330
1674
100
AcDbXrecord
280
     1
290
     1
  0
XRECORD
  5
1677
102
{ACAD_REACTORS
330
1676
102
}
330
1676
100
AcDbXrecord
280
     1
290
     1
  0
XRECORD
  5
1679
102
{ACAD_REACTORS
330
1678
102
}
330
1678
100
AcDbXrecord
280
     1
290
     1
  0
XRECORD
  5
167B
102
{ACAD_REACTORS
330
167A
102
}
330
167A
100
AcDbXrecord
280
     1
290
     1
  0
XRECORD
  5
167D
102
{ACAD_REACTORS
330
167C
102
}
330
167C
100
AcDbXrecord
280
     1
290
     1
  0
XRECORD
  5
167F
102
{ACAD_REACTORS
330
167E
102
}
330
167E
100
AcDbXrecord
280
     1
290
     1
  0
XRECORD
  5
1681
102
{ACAD_REACTORS
330
1680
102
}
330
1680
100
AcDbXrecord
280
     1
290
     1
  0
XRECORD
  5
1683
102
{ACAD_REACTORS
330
1682
102
}
330
1682
100
AcDbXrecord
280
     1
290
     1
  0
XRECORD
  5
1685
102
{ACAD_REACTORS
330
1684
102
}
330
1684
100
AcDbXrecord
280
     1
290
     1
  0
XRECORD
  5
1687
102
{ACAD_REACTORS
330
1686
102
}
330
1686
100
AcDbXrecord
280
     1
290
     1
  0
XRECORD
  5
1689
102
{ACAD_REACTORS
330
1688
102
}
330
1688
100
AcDbXrecord
280
     1
290
     1
  0
XRECORD
  5
168B
102
{ACAD_REACTORS
330
168A
102
}
330
168A
100
AcDbXrecord
280
     1
290
     1
  0
XRECORD
  5
168D
102
{ACAD_REACTORS
330
168C
102
}
330
168C
100
AcDbXrecord
280
     1
290
     1
  0
XRECORD
  5
168F
102
{ACAD_REACTORS
330
168E
102
}
330
168E
100
AcDbXrecord
280
     1
290
     1
  0
XRECORD
  5
1691
102
{ACAD_REACTORS
330
1690
102
}
330
1690
100
AcDbXrecord
280
     1
290
     1
  0
XRECORD
  5
1693
102
{ACAD_REACTORS
330
1692
102
}
330
1692
100
AcDbXrecord
280
     1
290
     1
  0
XRECORD
  5
1695
102
{ACAD_REACTORS
330
1694
102
}
330
1694
100
AcDbXrecord
280
     1
290
     1
  0
XRECORD
  5
1697
102
{ACAD_REACTORS
330
1696
102
}
330
1696
100
AcDbXrecord
280
     1
290
     1
  0
XRECORD
  5
1699
102
{ACAD_REACTORS
330
1698
102
}
330
1698
100
AcDbXrecord
280
     1
290
     1
  0
XRECORD
  5
169B
102
{ACAD_REACTORS
330
169A
102
}
330
169A
100
AcDbXrecord
280
     1
290
     1
  0
XRECORD
  5
169D
102
{ACAD_REACTORS
330
169C
102
}
330
169C
100
AcDbXrecord
280
     1
290
     1
  0
XRECORD
  5
169F
102
{ACAD_REACTORS
330
169E
102
}
330
169E
100
AcDbXrecord
280
     1
290
     1
  0
XRECORD
  5
16A1
102
{ACAD_REACTORS
330
16A0
102
}
330
16A0
100
AcDbXrecord
280
     1
290
     1
  0
XRECORD
  5
16A3
102
{ACAD_REACTORS
330
16A2
102
}
330
16A2
100
AcDbXrecord
280
     1
290
     1
  0
XRECORD
  5
16A5
102
{ACAD_REACTORS
330
16A4
102
}
330
16A4
100
AcDbXrecord
280
     1
290
     1
  0
ACAD_PROXY_OBJECT
  5
1615
102
{ACAD_REACTORS
330
1614
102
}
330
1614
100
AcDbProxyObject
 90
      499
 91
      509
 95
   983063
 70
     0
 93
     1261
310
90B496D70657269616C323400481E5C0F42F5A8DC671FC056BD1B81E856B9F81E5C0F42F5A8DC671FA33E5C0F42F5A8DC671FA02000000000000741FA02AD929E2E20B1AB30B9102B34B2BBAA3CB832902E33101112BA3198911F1290129E2E20B1AB30B9102B34B2BBA232BA30B4B624B21F12AE2829A1A0A62290129E2E2
310
0B1AB30B9102B34B2BBA9B1B0B632902E33101112B9B7111F1280233A33804
340
11
340
0
340
16
340
11
340
16
340
16
 94
        0
  0
LAYOUT
  5
15C5
102
{ACAD_REACTORS
330
1A
102
}
330
1A
100
AcDbPlotSettings
  1

  2
none_device
  4
ANSI_B_(17.00_x_11.00_Inches)
  6

 40
0.0
 41
0.0
 42
0.0
 43
0.0
 44
431.8
 45
279.4
 46
0.0
 47
0.0
 48
0.0
 49
0.0
140
0.0
141
0.0
142
1.0
143
1.0
 70
     0
 72
     0
 73
     0
 74
     0
  7

 75
     0
147
1.0
 76
     0
 77
     2
 78
   300
148
0.0
149
0.0
100
AcDbLayout
  1
Layout1
 70
     1
 71
     1
 10
0.0
 20
0.0
 11
12.0
 21
9.0
 12
0.0
 22
0.0
 32
0.0
 14
1.000000000000000E+20
 24
1.000000000000000E+20
 34
1.000000000000000E+20
 15
-1.000000000000000E+20
 25
-1.000000000000000E+20
 35
-1.000000000000000E+20
146
0.0
 13
0.0
 23
0.0
 33
0.0
 16
1.0
 26
0.0
 36
0.0
 17
0.0
 27
1.0
 37
0.0
 76
     0
330
221
  0
LAYOUT
  5
15C4
102
{ACAD_REACTORS
330
1A
102
}
330
1A
100
AcDbPlotSettings
  1

  2
none_device
  4
ANSI_B_(17.00_x_11.00_Inches)
  6

 40
0.0
 41
0.0
 42
0.0
 43
0.0
 44
431.8
 45
279.4
 46
0.0
 47
0.0
 48
0.0
 49
0.0
140
0.0
141
0.0
142
1.0
143
1.0
 70
  1024
 72
     0
 73
     0
 74
     0
  7

 75
     0
147
1.0
 76
     0
 77
     2
 78
   300
148
0.0
149
0.0
100
AcDbLayout
  1
Model
 70
     0
 71
     0
 10
0.0
 20
0.0
 11
17.0
 21
11.0
 12
0.0
 22
0.0
 32
0.0
 14
0.0
 24
0.0
 34
0.0
 15
0.0
 25
0.0
 35
0.0
146
0.0
 13
0.0
 23
0.0
 33
0.0
 16
1.0
 26
0.0
 36
0.0
 17
0.0
 27
1.0
 37
0.0
 76
     0
330
220
331
1F4
  0
MATERIAL
  5
15D1
102
{ACAD_XDICTIONARY
360
15D2
102
}
102
{ACAD_REACTORS
330
15C8
102
}
330
15C8
100
AcDbMaterial
  1
ByBlock
 72
     0
 43
0.0208333333333333
 43
0.0
 43
0.0
 43
0.0
 43
0.0
 43
0.0208333333333333
 43
0.0
 43
0.0
 43
0.0
 43
0.0
 43
1.0
 43
0.0
 43
0.0
 43
0.0
 43
0.0
 43
1.0
 77
     0
 47
0.0208333333333333
 47
0.0
 47
0.0
 47
0.0
 47
0.0
 47
0.0208333333333333
 47
0.0
 47
0.0
 47
0.0
 47
0.0
 47
1.0
 47
0.0
 47
0.0
 47
0.0
 47
0.0
 47
1.0
171
     0
 49
0.0208333333333333
 49
0.0
 49
0.0
 49
0.0
 49
0.0
 49
0.0208333333333333
 49
0.0
 49
0.0
 49
0.0
 49
0.0
 49
1.0
 49
0.0
 49
0.0
 49
0.0
 49
0.0
 49
1.0
175
     0
142
0.0208333333333333
142
0.0
142
0.0
142
0.0
142
0.0
142
0.0208333333333333
142
0.0
142
0.0
142
0.0
142
0.0
142
1.0
142
0.0
142
0.0
142
0.0
142
0.0
142
1.0
179
     0
144
0.0208333333333333
144
0.0
144
0.0
144
0.0
144
0.0
144
0.0208333333333333
144
0.0
144
0.0
144
0.0
144
0.0
144
1.0
144
0.0
144
0.0
144
0.0
144
0.0
144
1.0
147
0.0208333333333333
147
0.0
147
0.0
147
0.0
147
0.0
147
0.0208333333333333
147
0.0
147
0.0
147
0.0
147
0.0
147
1.0
147
0.0
147
0.0
147
0.0
147
0.0
147
1.0
  0
MATERIAL
  5
15C9
102
{ACAD_XDICTIONARY
360
15CA
102
}
102
{ACAD_REACTORS
330
15C8
102
}
330
15C8
100
AcDbMaterial
  1
ByLayer
 72
     0
 43
0.0208333333333333
 43
0.0
 43
0.0
 43
0.0
 43
0.0
 43
0.0208333333333333
 43
0.0
 43
0.0
 43
0.0
 43
0.0
 43
1.0
 43
0.0
 43
0.0
 43
0.0
 43
0.0
 43
1.0
 77
     0
 47
0.0208333333333333
 47
0.0
 47
0.0
 47
0.0
 47
0.0
 47
0.0208333333333333
 47
0.0
 47
0.0
 47
0.0
 47
0.0
 47
1.0
 47
0.0
 47
0.0
 47
0.0
 47
0.0
 47
1.0
171
     0
 49
0.0208333333333333
 49
0.0
 49
0.0
 49
0.0
 49
0.0
 49
0.0208333333333333
 49
0.0
 49
0.0
 49
0.0
 49
0.0
 49
1.0
 49
0.0
 49
0.0
 49
0.0
 49
0.0
 49
1.0
175
     0
142
0.0208333333333333
142
0.0
142
0.0
142
0.0
142
0.0
142
0.0208333333333333
142
0.0
142
0.0
142
0.0
142
0.0
142
1.0
142
0.0
142
0.0
142
0.0
142
0.0
142
1.0
179
     0
144
0.0208333333333333
144
0.0
144
0.0
144
0.0
144
0.0
144
0.0208333333333333
144
0.0
144
0.0
144
0.0
144
0.0
144
1.0
144
0.0
144
0.0
144
0.0
144
0.0
144
1.0
147
0.0208333333333333
147
0.0
147
0.0
147
0.0
147
0.0
147
0.0208333333333333
147
0.0
147
0.0
147
0.0
147
0.0
147
1.0
147
0.0
147
0.0
147
0.0
147
0.0
147
1.0
  0
MATERIAL
  5
15D9
102
{ACAD_XDICTIONARY
360
15DA
102
}
102
{ACAD_REACTORS
330
15C8
102
}
330
15C8
100
AcDbMaterial
  1
Global
 72
     0
 43
0.0208333333333333
 43
0.0
 43
0.0
 43
0.0
 43
0.0
 43
0.0208333333333333
 43
0.0
 43
0.0
 43
0.0
 43
0.0
 43
1.0
 43
0.0
 43
0.0
 43
0.0
 43
0.0
 43
1.0
 77
     0
 47
0.0208333333333333
 47
0.0
 47
0.0
 47
0.0
 47
0.0
 47
0.0208333333333333
 47
0.0
 47
0.0
 47
0.0
 47
0.0
 47
1.0
 47
0.0
 47
0.0
 47
0.0
 47
0.0
 47
1.0
171
     0
 49
0.0208333333333333
 49
0.0
 49
0.0
 49
0.0
 49
0.0
 49
0.0208333333333333
 49
0.0
 49
0.0
 49
0.0
 49
0.0
 49
1.0
 49
0.0
 49
0.0
 49
0.0
 49
0.0
 49
1.0
175
     0
142
0.0208333333333333
142
0.0
142
0.0
142
0.0
142
0.0
142
0.0208333333333333
142
0.0
142
0.0
142
0.0
142
0.0
142
1.0
142
0.0
142
0.0
142
0.0
142
0.0
142
1.0
179
     0
144
0.0208333333333333
144
0.0
144
0.0
144
0.0
144
0.0
144
0.0208333333333333
144
0.0
144
0.0
144
0.0
144
0.0
144
1.0
144
0.0
144
0.0
144
0.0
144
0.0
144
1.0
147
0.0208333333333333
147
0.0
147
0.0
147
0.0
147
0.0
147
0.0208333333333333
147
0.0
147
0.0
147
0.0
147
0.0
147
1.0
147
0.0
147
0.0
147
0.0
147
0.0
147
1.0
  0
MLEADERSTYLE
  5
1610
102
{ACAD_REACTORS
330
160F
102
}
330
160F
100
AcDbMLeaderStyle
170
     2
171
     1
172
     0
 90
        2
 40
0.0
 41
0.0
173
     1
 91
-1056964608
340
14
 92
       -2
290
     1
 42
0.09
291
     1
 43
0.36
  3
Standard
 44
0.18
300

342
11
174
     1
178
     6
175
     1
176
     0
 93
-1056964608
 45
0.18
292
     0
297
     0
 46
0.18
 94
-1056964608
 47
1.0
 49
1.0
140
1.0
293
     1
141
0.0
294
     1
177
     0
142
1.0
295
     0
296
     0
143
0.125
1001
ACAD_MLEADERVER
1070
     2
  0
MLINESTYLE
  5
18
102
{ACAD_REACTORS
330
17
102
}
330
17
100
AcDbMlineStyle
  2
STANDARD
 70
     0
  3

 62
   256
 51
90.0
 52
90.0
 71
     2
 49
0.5
 62
   256
  6
BYLAYER
 49
-0.5
 62
   256
  6
BYLAYER
  0
ACDBPLACEHOLDER
  5
F
102
{ACAD_REACTORS
330
E
102
}
330
E
  0
SCALE
  5
15FE
102
{ACAD_REACTORS
330
15FD
102
}
330
15FD
100
AcDbScale
 70
     0
300
1:1
140
1.0
141
1.0
290
     1
  0
SCALE
  5
15FF
102
{ACAD_REACTORS
330
15FD
102
}
330
15FD
100
AcDbScale
 70
     0
300
1/128" = 1'-0"
140
0.0078125
141
12.0
290
     0
  0
SCALE
  5
1600
102
{ACAD_REACTORS
330
15FD
102
}
330
15FD
100
AcDbScale
 70
     0
300
1/64" = 1'-0"
140
0.015625
141
12.0
290
     0
  0
SCALE
  5
1601
102
{ACAD_REACTORS
330
15FD
102
}
330
15FD
100
AcDbScale
 70
     0
300
1/32" = 1'-0"
140
0.03125
141
12.0
290
     0
  0
SCALE
  5
1602
102
{ACAD_REACTORS
330
15FD
102
}
330
15FD
100
AcDbScale
 70
     0
300
1/16" = 1'-0"
140
0.0625
141
12.0
290
     0
  0
SCALE
  5
1603
102
{ACAD_REACTORS
330
15FD
102
}
330
15FD
100
AcDbScale
 70
     0
300
3/32" = 1'-0"
140
0.09375
141
12.0
290
     0
  0
SCALE
  5
1604
102
{ACAD_REACTORS
330
15FD
102
}
330
15FD
100
AcDbScale
 70
     0
300
1/8" = 1'-0"
140
0.125
141
12.0
290
     0
  0
SCALE
  5
1605
102
{ACAD_REACTORS
330
15FD
102
}
330
15FD
100
AcDbScale
 70
     0
300
3/16" = 1'-0"
140
0.1875
141
12.0
290
     0
  0
SCALE
  5
1606
102
{ACAD_REACTORS
330
15FD
102
}
330
15FD
100
AcDbScale
 70
     0
300
1/4" = 1'-0"
140
0.25
141
12.0
290
     0
  0
SCALE
  5
1607
102
{ACAD_REACTORS
330
15FD
102
}
330
15FD
100
AcDbScale
 70
     0
300
3/8" = 1'-0"
140
0.375
141
12.0
290
     0
  0
SCALE
  5
1608
102
{ACAD_REACTORS
330
15FD
102
}
330
15FD
100
AcDbScale
 70
     0
300
1/2" = 1'-0"
140
0.5
141
12.0
290
     0
  0
SCALE
  5
1609
102
{ACAD_REACTORS
330
15FD
102
}
330
15FD
100
AcDbScale
 70
     0
300
3/4" = 1'-0"
140
0.75
141
12.0
290
     0
  0
SCALE
  5
160A
102
{ACAD_REACTORS
330
15FD
102
}
330
15FD
100
AcDbScale
 70
     0
300
1" = 1'-0"
140
1.0
141
12.0
290
     0
  0
SCALE
  5
160B
102
{ACAD_REACTORS
330
15FD
102
}
330
15FD
100
AcDbScale
 70
     0
300
1-1/2" = 1'-0"
140
1.5
141
12.0
290
     0
  0
SCALE
  5
160C
102
{ACAD_REACTORS
330
15FD
102
}
330
15FD
100
AcDbScale
 70
     0
300
3" = 1'-0"
140
3.0
141
12.0
290
     0
  0
SCALE
  5
160D
102
{ACAD_REACTORS
330
15FD
102
}
330
15FD
100
AcDbScale
 70
     0
300
6" = 1'-0"
140
6.0
141
12.0
290
     0
  0
SCALE
  5
160E
102
{ACAD_REACTORS
330
15FD
102
}
330
15FD
100
AcDbScale
 70
     0
300
1'-0" = 1'-0"
140
12.0
141
12.0
290
     0
  0
ACAD_PROXY_OBJECT
  5
1613
102
{ACAD_REACTORS
330
1611
102
}
330
1611
100
AcDbProxyObject
 90
      499
 91
      508
 95
   983063
 70
     0
 93
     2303
310
90B496D70657269616C3234004A765C0F42F5A8DC671FE5C0F42F5A8DC671FA229258409E5840A25840A65840B05840B4005C0F42F5A8DC6F1FA33A659703D0BD6A3719C7E5C0F42F5A8DC671FE5C0F42F5A8DC671FA02000000000000741FA02BE929E2E20B1AB30B9102B34B2BBAA3CB832902E33101112BA3198911F129
310
0129E2E20B1AB30B9102B34B2BBA9B2B1BA34B7B729BA30B93A24B21F1296929E2E20B1AB30B9102B34B2BBA9B2B1BA34B7B722B73224B21F12AE2829A1A0A62290129E2E20B1AB30B9102B34B2BBA9B1B0B632902E33101112B9B7111F128060080A0E829CA692666200C206056BD1B81E85639FA0320D0305A88A9F643F2
310
7E32B9969C2960E81F87FA0718D4DE3E87E32B9969C2960E85F9E5129FC49EA5FA7E
340
11
340
0
340
0
340
1612
340
16
340
11
 94
        0
  0
TABLESTYLE
  5
15FC
102
{ACAD_XDICTIONARY
360
1616
102
}
102
{ACAD_REACTORS
330
15FB
102
}
330
15FB
100
AcDbTableStyle
  3
Standard
 70
     0
 71
     0
 40
0.06
 41
0.06
280
     0
281
     0
  7
STANDARD
140
0.18
170
     2
 62
     0
 63
     7
283
     0
274
    -2
284
     1
 64
     0
275
    -2
285
     1
 65
     0
276
    -2
286
     1
 66
     0
277
    -2
287
     1
 67
     0
278
    -2
288
     1
 68
     0
279
    -2
289
     1
 69
     0
  7
STANDARD
140
0.25
170
     5
 62
     0
 63
     7
283
     0
274
    -2
284
     1
 64
     0
275
    -2
285
     1
 65
     0
276
    -2
286
     1
 66
     0
277
    -2
287
     1
 67
     0
278
    -2
288
     1
 68
     0
279
    -2
289
     1
 69
     0
  7
STANDARD
140
0.18
170
     5
 62
     0
 63
     7
283
     0
274
    -2
284
     1
 64
     0
275
    -2
285
     1
 65
     0
276
    -2
286
     1
 66
     0
277
    -2
287
     1
 67
     0
278
    -2
288
     1
 68
     0
279
    -2
289
     1
 69
     0
  0
VISUALSTYLE
  5
15E7
102
{ACAD_XDICTIONARY
360
162D
102
}
102
{ACAD_REACTORS
330
15E1
102
}
330
15E1
100
AcDbVisualStyle
  2
2dWireframe
 70
     4
 71
     0
 72
     2
 73
     0
 90
        0
 40
-0.6
 41
-30.0
 62
     5
 63
     7
 74
     1
 91
        4
 64
     7
 65
   257
 75
     1
175
     1
 42
1.0
 92
        0
 66
   257
 43
1.0
 76
     1
 77
     6
 78
     2
 67
     7
 79
     5
170
     0
171
     0
290
     0
174
     0
 93
        1
 44
0.0
173
     0
291
     0
 45
0.0
1001
ACAD
1000
AcDbSavedByObjectVersion
1070
     0
  0
VISUALSTYLE
  5
1661
102
{ACAD_REACTORS
330
15E1
102
}
330
15E1
100
AcDbVisualStyle
  2
3D Hidden
 70
     6
 71
     1
 72
     2
 73
     2
 90
        0
 40
-0.6
 41
-30.0
 62
     5
 63
     7
421
 16777215
 74
     2
 91
        2
 64
     7
 65
   257
 75
     2
175
     1
 42
40.0
 92
        0
 66
   257
 43
1.0
 76
     1
 77
     6
 78
     2
 67
     7
 79
     3
170
     0
171
     0
290
     0
174
     0
 93
        1
 44
0.0
173
     0
291
     0
 45
0.0
1001
ACAD
1000
AcDbSavedByObjectVersion
1070
     0
  0
VISUALSTYLE
  5
1660
102
{ACAD_REACTORS
330
15E1
102
}
330
15E1
100
AcDbVisualStyle
  2
3dWireframe
 70
     5
 71
     0
 72
     2
 73
     0
 90
        0
 40
-0.6
 41
-30.0
 62
     5
 63
     7
421
 16777215
 74
     1
 91
        4
 64
     7
 65
   257
 75
     1
175
     1
 42
1.0
 92
        0
 66
   257
 43
1.0
 76
     1
 77
     6
 78
     2
 67
     7
 79
     5
170
     0
171
     0
290
     0
174
     0
 93
        1
 44
0.0
173
     0
291
     0
 45
0.0
1001
ACAD
1000
AcDbSavedByObjectVersion
1070
     0
  0
VISUALSTYLE
  5
15E6
102
{ACAD_XDICTIONARY
360
162B
102
}
102
{ACAD_REACTORS
330
15E1
102
}
330
15E1
100
AcDbVisualStyle
  2
Basic
 70
     7
 71
     1
 72
     0
 73
     1
 90
        0
 40
-0.6
 41
-30.0
 62
     5
 63
     7
 74
     0
 91
        4
 64
     7
 65
   257
 75
     1
175
     1
 42
1.0
 92
        8
 66
     7
 43
1.0
 76
     1
 77
     6
 78
     2
 67
     7
 79
     5
170
     0
171
     0
290
     0
174
     0
 93
        1
 44
0.0
173
     0
291
     1
 45
0.0
1001
ACAD
1000
AcDbSavedByObjectVersion
1070
     0
  0
VISUALSTYLE
  5
15ED
102
{ACAD_XDICTIONARY
360
1639
102
}
102
{ACAD_REACTORS
330
15E1
102
}
330
15E1
100
AcDbVisualStyle
  2
Brighten
 70
    12
 71
     2
 72
     2
 73
     0
 90
        0
 40
-0.6
 41
-30.0
 62
     5
 63
     7
 74
     1
 91
        4
 64
     7
 65
   257
 75
     1
175
     1
 42
1.0
 92
        8
 66
     7
 43
1.0
 76
     1
 77
     6
 78
     2
 67
     7
 79
     5
170
     0
171
     0
290
     0
174
     0
 93
        1
 44
50.0
173
     0
291
     1
 45
0.0
1001
ACAD
1000
AcDbSavedByObjectVersion
1070
     0
  0
VISUALSTYLE
  5
15F1
102
{ACAD_XDICTIONARY
360
1641
102
}
102
{ACAD_REACTORS
330
15E1
102
}
330
15E1
100
AcDbVisualStyle
  2
ColorChange
 70
    16
 71
     2
 72
     2
 73
     3
 90
        0
 40
-0.6
 41
-30.0
 62
     5
 63
     8
 74
     1
 91
        4
 64
     7
 65
   257
 75
     1
175
     1
 42
1.0
 92
        8
 66
     8
 43
1.0
 76
     1
 77
     6
 78
     2
 67
     7
 79
     5
170
     0
171
     0
290
     0
174
     0
 93
        1
 44
0.0
173
     0
291
     1
 45
0.0
1001
ACAD
1000
AcDbSavedByObjectVersion
1070
     0
  0
VISUALSTYLE
  5
15EA
102
{ACAD_XDICTIONARY
360
1633
102
}
102
{ACAD_REACTORS
330
15E1
102
}
330
15E1
100
AcDbVisualStyle
  2
Conceptual
 70
     9
 71
     3
 72
     2
 73
     0
 90
        0
 40
-0.6
 41
-30.0
 62
     5
 63
     7
 74
     2
 91
        2
 64
     7
 65
   257
 75
     1
175
     1
 42
179.0
 92
        8
 66
     7
 43
1.0
 76
     1
 77
     6
 78
     2
 67
     7
 79
     3
170
     0
171
     0
290
     0
174
     0
 93
        1
 44
0.0
173
     0
291
     0
 45
0.0
1001
ACAD
1000
AcDbSavedByObjectVersion
1070
     0
  0
VISUALSTYLE
  5
15EC
102
{ACAD_XDICTIONARY
360
1637
102
}
102
{ACAD_REACTORS
330
15E1
102
}
330
15E1
100
AcDbVisualStyle
  2
Dim
 70
    11
 71
     2
 72
     2
 73
     0
 90
        0
 40
-0.6
 41
-30.0
 62
     5
 63
     7
 74
     1
 91
        4
 64
     7
 65
   257
 75
     1
175
     1
 42
1.0
 92
        8
 66
     7
 43
1.0
 76
     1
 77
     6
 78
     2
 67
     7
 79
     5
170
     0
171
     0
290
     0
174
     0
 93
        1
 44
-50.0
173
     0
291
     1
 45
0.0
1001
ACAD
1000
AcDbSavedByObjectVersion
1070
     0
  0
VISUALSTYLE
  5
15F9
102
{ACAD_XDICTIONARY
360
1651
102
}
102
{ACAD_REACTORS
330
15E1
102
}
330
15E1
100
AcDbVisualStyle
  2
EdgeColorOff
 70
    22
 71
     2
 72
     2
 73
     0
 90
        0
 40
-0.6
 41
-30.0
 62
     5
 63
     7
 74
     1
 91
        4
 64
     7
 65
   257
 75
     1
175
     1
 42
1.0
 92
        8
 66
     7
 43
1.0
 76
     1
 77
     6
 78
     2
 67
     7
 79
     5
170
     0
171
     0
290
     0
174
     0
 93
        1
 44
0.0
173
     0
291
     1
 45
0.0
1001
ACAD
1000
AcDbSavedByObjectVersion
1070
     0
  0
VISUALSTYLE
  5
15F0
102
{ACAD_XDICTIONARY
360
163F
102
}
102
{ACAD_REACTORS
330
15E1
102
}
330
15E1
100
AcDbVisualStyle
  2
Facepattern
 70
    15
 71
     2
 72
     2
 73
     0
 90
        0
 40
-0.6
 41
-30.0
 62
     5
 63
     7
 74
     1
 91
        4
 64
     7
 65
   257
 75
     1
175
     1
 42
1.0
 92
        8
 66
     7
 43
1.0
 76
     1
 77
     6
 78
     2
 67
     7
 79
     5
170
     0
171
     0
290
     0
174
     0
 93
        1
 44
0.0
173
     0
291
     1
 45
0.0
1001
ACAD
1000
AcDbSavedByObjectVersion
1070
     0
  0
VISUALSTYLE
  5
15E2
102
{ACAD_XDICTIONARY
360
1623
102
}
102
{ACAD_REACTORS
330
15E1
102
}
330
15E1
100
AcDbVisualStyle
  2
Flat
 70
     0
 71
     2
 72
     1
 73
     1
 90
        2
 40
-0.6
 41
30.0
 62
     5
 63
     7
 74
     0
 91
        0
 64
     7
 65
   257
 75
     1
175
     1
 42
1.0
 92
        8
 66
     7
 43
1.0
 76
     1
 77
     6
 78
     2
 67
     7
 79
     5
170
     0
171
     0
290
     0
174
     0
 93
       13
 44
0.0
173
     0
291
     1
 45
0.0
1001
ACAD
1000
AcDbSavedByObjectVersion
1070
     0
  0
VISUALSTYLE
  5
15E3
102
{ACAD_XDICTIONARY
360
1625
102
}
102
{ACAD_REACTORS
330
15E1
102
}
330
15E1
100
AcDbVisualStyle
  2
FlatWithEdges
 70
     1
 71
     2
 72
     1
 73
     1
 90
        2
 40
-0.6
 41
30.0
 62
     5
 63
     7
 74
     1
 91
        0
 64
     7
 65
   257
 75
     1
175
     1
 42
1.0
 92
        0
 66
   257
 43
1.0
 76
     1
 77
     6
 78
     2
 67
     7
 79
     5
170
     0
171
     0
290
     0
174
     0
 93
       13
 44
0.0
173
     0
291
     1
 45
0.0
1001
ACAD
1000
AcDbSavedByObjectVersion
1070
     0
  0
VISUALSTYLE
  5
15E4
102
{ACAD_XDICTIONARY
360
1627
102
}
102
{ACAD_REACTORS
330
15E1
102
}
330
15E1
100
AcDbVisualStyle
  2
Gouraud
 70
     2
 71
     2
 72
     2
 73
     1
 90
        2
 40
-0.6
 41
30.0
 62
     5
 63
     7
 74
     0
 91
        0
 64
     7
 65
   257
 75
     1
175
     1
 42
1.0
 92
        0
 66
     7
 43
1.0
 76
     1
 77
     6
 78
     2
 67
     7
 79
     5
170
     0
171
     0
290
     0
174
     0
 93
       13
 44
0.0
173
     0
291
     1
 45
0.0
1001
ACAD
1000
AcDbSavedByObjectVersion
1070
     0
  0
VISUALSTYLE
  5
15E5
102
{ACAD_XDICTIONARY
360
1629
102
}
102
{ACAD_REACTORS
330
15E1
102
}
330
15E1
100
AcDbVisualStyle
  2
GouraudWithEdges
 70
     3
 71
     2
 72
     2
 73
     1
 90
        2
 40
-0.6
 41
30.0
 62
     5
 63
     7
 74
     1
 91
        0
 64
     7
 65
   257
 75
     1
175
     1
 42
1.0
 92
        0
 66
   257
 43
1.0
 76
     1
 77
     6
 78
     2
 67
     7
 79
     5
170
     0
171
     0
290
     0
174
     0
 93
       13
 44
0.0
173
     0
291
     1
 45
0.0
1001
ACAD
1000
AcDbSavedByObjectVersion
1070
     0
  0
VISUALSTYLE
  5
15E9
102
{ACAD_XDICTIONARY
360
1631
102
}
102
{ACAD_REACTORS
330
15E1
102
}
330
15E1
100
AcDbVisualStyle
  2
Hidden
 70
     6
 71
     1
 72
     2
 73
     2
 90
        0
 40
-0.6
 41
-30.0
 62
     5
 63
     7
 74
     2
 91
        2
 64
     7
 65
   257
 75
     2
175
     1
 42
40.0
 92
        0
 66
   257
 43
1.0
 76
     1
 77
     6
 78
     2
 67
     7
 79
     3
170
     0
171
     0
290
     0
174
     0
 93
        1
 44
0.0
173
     0
291
     0
 45
0.0
1001
ACAD
1000
AcDbSavedByObjectVersion
1070
     0
  0
VISUALSTYLE
  5
15F7
102
{ACAD_XDICTIONARY
360
164D
102
}
102
{ACAD_REACTORS
330
15E1
102
}
330
15E1
100
AcDbVisualStyle
  2
JitterOff
 70
    20
 71
     2
 72
     2
 73
     0
 90
        0
 40
-0.6
 41
-30.0
 62
     5
 63
     7
 74
     1
 91
        4
 64
     7
 65
   257
 75
     1
175
     1
 42
1.0
 92
       10
 66
     7
 43
1.0
 76
     1
 77
     6
 78
     2
 67
     7
 79
     5
170
     0
171
     0
290
     0
174
     0
 93
        1
 44
0.0
173
     0
291
     1
 45
0.0
1001
ACAD
1000
AcDbSavedByObjectVersion
1070
     0
  0
VISUALSTYLE
  5
15EF
102
{ACAD_XDICTIONARY
360
163D
102
}
102
{ACAD_REACTORS
330
15E1
102
}
330
15E1
100
AcDbVisualStyle
  2
Linepattern
 70
    14
 71
     2
 72
     2
 73
     0
 90
        0
 40
-0.6
 41
-30.0
 62
     5
 63
     7
 74
     1
 91
        4
 64
     7
 65
   257
 75
     7
175
     7
 42
1.0
 92
        8
 66
     7
 43
1.0
 76
     1
 77
     6
 78
     2
 67
     7
 79
     5
170
     0
171
     0
290
     0
174
     0
 93
        1
 44
0.0
173
     0
291
     1
 45
0.0
1001
ACAD
1000
AcDbSavedByObjectVersion
1070
     0
  0
VISUALSTYLE
  5
15F8
102
{ACAD_XDICTIONARY
360
164F
102
}
102
{ACAD_REACTORS
330
15E1
102
}
330
15E1
100
AcDbVisualStyle
  2
OverhangOff
 70
    21
 71
     2
 72
     2
 73
     0
 90
        0
 40
-0.6
 41
-30.0
 62
     5
 63
     7
 74
     1
 91
        4
 64
     7
 65
   257
 75
     1
175
     1
 42
1.0
 92
        9
 66
     7
 43
1.0
 76
     1
 77
     6
 78
     2
 67
     7
 79
     5
170
     0
171
     0
290
     0
174
     0
 93
        1
 44
0.0
173
     0
291
     1
 45
0.0
1001
ACAD
1000
AcDbSavedByObjectVersion
1070
     0
  0
VISUALSTYLE
  5
15EB
102
{ACAD_XDICTIONARY
360
1635
102
}
102
{ACAD_REACTORS
330
15E1
102
}
330
15E1
100
AcDbVisualStyle
  2
Realistic
 70
     8
 71
     2
 72
     2
 73
     0
 90
        2
 40
-0.6
 41
30.0
 62
     5
 63
     7
 74
     0
 91
        0
 64
     7
 65
   257
 75
     1
175
     1
 42
1.0
 92
        8
 66
   257
 43
1.0
 76
     1
 77
     6
 78
     2
 67
     7
 79
     3
170
     0
171
     0
290
     0
174
     0
 93
       13
 44
0.0
173
     0
291
     0
 45
0.0
1001
ACAD
1000
AcDbSavedByObjectVersion
1070
     0
  0
VISUALSTYLE
  5
15F6
102
{ACAD_XDICTIONARY
360
164B
102
}
102
{ACAD_REACTORS
330
15E1
102
}
330
15E1
100
AcDbVisualStyle
  2
Shaded
 70
    27
 71
     2
 72
     2
 73
     1
 90
        2
 40
-0.6
 41
30.0
 62
     5
 63
     7
 74
     0
 91
        4
 64
     7
 65
   257
 75
     1
175
     1
 42
1.0
 92
        8
 66
   257
 43
1.0
 76
     1
 77
     6
 78
     2
 67
     8
 79
     3
170
     0
171
     0
290
     0
174
     0
 93
        5
 44
0.0
173
     0
291
     0
 45
0.0
1001
ACAD
1000
AcDbSavedByObjectVersion
1070
     0
  0
VISUALSTYLE
  5
15F5
102
{ACAD_XDICTIONARY
360
1649
102
}
102
{ACAD_REACTORS
330
15E1
102
}
330
15E1
100
AcDbVisualStyle
  2
Shaded with edges
 70
    26
 71
     2
 72
     2
 73
     1
 90
        2
 40
-0.6
 41
30.0
 62
     5
 63
     7
 74
     1
 91
       10
 64
     7
 65
   257
 75
     2
175
     1
 42
1.0
 92
        8
 66
   257
 43
1.0
 76
     1
 77
     6
 78
     2
 67
     7
 79
     3
170
     0
171
     0
290
     0
174
     0
 93
        5
 44
0.0
173
     0
291
     0
 45
0.0
1001
ACAD
1000
AcDbSavedByObjectVersion
1070
     0
  0
VISUALSTYLE
  5
15F2
102
{ACAD_XDICTIONARY
360
1643
102
}
102
{ACAD_REACTORS
330
15E1
102
}
330
15E1
100
AcDbVisualStyle
  2
Shades of Gray
 70
    23
 71
     2
 72
     2
 73
     3
 90
        0
 40
-0.6
 41
-30.0
 62
     5
 63
     7
 74
     2
 91
        2
 64
     7
 65
     7
 75
     1
175
     1
 42
40.0
 92
        8
 66
     7
 43
1.0
 76
     1
 77
     6
 78
     2
 67
     7
 79
     3
170
     0
171
     0
290
     0
174
     0
 93
        1
 44
0.0
173
     0
291
     0
 45
0.0
1001
ACAD
1000
AcDbSavedByObjectVersion
1070
     0
  0
VISUALSTYLE
  5
15F3
102
{ACAD_XDICTIONARY
360
1645
102
}
102
{ACAD_REACTORS
330
15E1
102
}
330
15E1
100
AcDbVisualStyle
  2
Sketchy
 70
    24
 71
     1
 72
     2
 73
     2
 90
        0
 40
-0.6
 41
-30.0
 62
     5
 63
     7
 74
     2
 91
        2
 64
     7
 65
     7
 75
     1
175
     1
 42
40.0
 92
       11
 66
     7
 43
1.0
 76
     1
 77
     6
 78
     2
 67
     7
 79
     6
170
     0
171
     0
290
     0
174
     0
 93
        1
 44
0.0
173
     0
291
     0
 45
0.0
1001
ACAD
1000
AcDbSavedByObjectVersion
1070
     0
  0
VISUALSTYLE
  5
15EE
102
{ACAD_XDICTIONARY
360
163B
102
}
102
{ACAD_REACTORS
330
15E1
102
}
330
15E1
100
AcDbVisualStyle
  2
Thicken
 70
    13
 71
     2
 72
     2
 73
     0
 90
        0
 40
-0.6
 41
-30.0
 62
     5
 63
     7
 74
     1
 91
        4
 64
     7
 65
   257
 75
     1
175
     1
 42
1.0
 92
       12
 66
     7
 43
1.0
 76
     1
 77
     6
 78
     2
 67
     7
 79
     5
170
     0
171
     0
290
     0
174
     0
 93
        1
 44
0.0
173
     0
291
     1
 45
0.0
1001
ACAD
1000
AcDbSavedByObjectVersion
1070
     0
  0
VISUALSTYLE
  5
15E8
102
{ACAD_XDICTIONARY
360
162F
102
}
102
{ACAD_REACTORS
330
15E1
102
}
330
15E1
100
AcDbVisualStyle
  2
Wireframe
 70
     5
 71
     0
 72
     2
 73
     0
 90
        0
 40
-0.6
 41
-30.0
 62
     5
 63
     7
 74
     1
 91
        4
 64
     7
 65
   257
 75
     1
175
     1
 42
1.0
 92
        0
 66
   257
 43
1.0
 76
     1
 77
     6
 78
     2
 67
     7
 79
     3
170
     0
171
     0
290
     0
174
     0
 93
        1
 44
0.0
173
     0
291
     0
 45
0.0
1001
ACAD
1000
AcDbSavedByObjectVersion
1070
     0
  0
VISUALSTYLE
  5
15F4
102
{ACAD_XDICTIONARY
360
1647
102
}
102
{ACAD_REACTORS
330
15E1
102
}
330
15E1
100
AcDbVisualStyle
  2
X-Ray
 70
    25
 71
     2
 72
     2
 73
     1
 90
        1
 40
0.5
 41
-30.0
 62
     5
 63
     7
 74
     1
 91
        0
 64
     7
 65
   257
 75
     1
175
     1
 42
1.0
 92
        8
 66
     7
 43
1.0
 76
     1
 77
     6
 78
     2
 67
     7
 79
     3
170
     0
171
     0
290
     0
174
     0
 93
       13
 44
0.0
173
     0
291
     0
 45
0.0
1001
ACAD
1000
AcDbSavedByObjectVersion
1070
     0
  0
DICTIONARYVAR
  5
165A
102
{ACAD_REACTORS
330
1655
102
}
330
1655
100
DictionaryVariables
280
     0
  1
1:1
  0
DICTIONARYVAR
  5
1657
102
{ACAD_REACTORS
330
1655
102
}
330
1655
100
DictionaryVariables
280
     0
  1
STANDARD
  0
DICTIONARYVAR
  5
1656
102
{ACAD_REACTORS
330
1655
102
}
330
1655
100
DictionaryVariables
280
     0
  1
STANDARD
  0
DICTIONARYVAR
  5
1658
102
{ACAD_REACTORS
330
1655
102
}
330
1655
100
DictionaryVariables
280
     0
  1
Imperial24
  0
DICTIONARYVAR
  5
1659
102
{ACAD_REACTORS
330
1655
102
}
330
1655
100
DictionaryVariables
280
     0
  1
Imperial24
  0
DICTIONARYVAR
  5
165D
102
{ACAD_REACTORS
330
1655
102
}
330
1655
100
DictionaryVariables
280
     0
  1
1
  0
DICTIONARYVAR
  5
165C
102
{ACAD_REACTORS
330
1655
102
}
330
1655
100
DictionaryVariables
280
     0
  1
0
  0
DICTIONARYVAR
  5
165B
102
{ACAD_REACTORS
330
1655
102
}
330
1655
100
DictionaryVariables
280
     0
  1
127
  0
DICTIONARYVAR
  5
165E
102
{ACAD_REACTORS
330
1655
102
}
330
1655
100
DictionaryVariables
280
     0
  1
2
  0
DICTIONARY
  5
15D2
330
15D1
100
AcDbDictionary
280
     1
281
     1
  3
ACAD_XREC_ROUNDTRIP
360
16AE
  3
BUMPTILE
360
15D4
  3
DIFFUSETILE
360
15D3
  3
OPACITYTILE
360
15D7
  3
REFLECTIONTILE
360
15D6
  3
REFRACTIONTILE
360
15D8
  3
SPECULARTILE
360
15D5
  0
DICTIONARY
  5
15CA
330
15C9
100
AcDbDictionary
280
     1
281
     1
  3
ACAD_XREC_ROUNDTRIP
360
16AD
  3
BUMPTILE
360
15CC
  3
DIFFUSETILE
360
15CB
  3
OPACITYTILE
360
15CF
  3
REFLECTIONTILE
360
15CE
  3
REFRACTIONTILE
360
15D0
  3
SPECULARTILE
360
15CD
  0
DICTIONARY
  5
15DA
330
15D9
100
AcDbDictionary
280
     1
281
     1
  3
ACAD_XREC_ROUNDTRIP
360
16AF
  3
BUMPTILE
360
15DC
  3
DIFFUSETILE
360
15DB
  3
OPACITYTILE
360
15DF
  3
REFLECTIONTILE
360
15DE
  3
REFRACTIONTILE
360
15E0
  3
SPECULARTILE
360
15DD
  0
DICTIONARY
  5
1616
330
15FC
100
AcDbDictionary
280
     1
281
     1
  3
ACAD_ROUNDTRIP_2008_TABLESTYLE_CELLSTYLEMAP
360
16AC
  3
ACAD_XREC_ROUNDTRIP
360
16B0
  0
DICTIONARY
  5
162D
330
15E7
100
AcDbDictionary
280
     1
281
     1
  3
ACAD_XREC_ROUNDTRIP
360
162E
  0
DICTIONARY
  5
162B
330
15E6
100
AcDbDictionary
280
     1
281
     1
  3
ACAD_XREC_ROUNDTRIP
360
162C
  0
DICTIONARY
  5
1639
330
15ED
100
AcDbDictionary
280
     1
281
     1
  3
ACAD_XREC_ROUNDTRIP
360
163A
  0
DICTIONARY
  5
1641
330
15F1
100
AcDbDictionary
280
     1
281
     1
  3
ACAD_XREC_ROUNDTRIP
360
1642
  0
DICTIONARY
  5
1633
330
15EA
100
AcDbDictionary
280
     1
281
     1
  3
ACAD_XREC_ROUNDTRIP
360
1634
  0
DICTIONARY
  5
1637
330
15EC
100
AcDbDictionary
280
     1
281
     1
  3
ACAD_XREC_ROUNDTRIP
360
1638
  0
DICTIONARY
  5
1651
330
15F9
100
AcDbDictionary
280
     1
281
     1
  3
ACAD_XREC_ROUNDTRIP
360
1652
  0
DICTIONARY
  5
163F
330
15F0
100
AcDbDictionary
280
     1
281
     1
  3
ACAD_XREC_ROUNDTRIP
360
1640
  0
DICTIONARY
  5
1623
330
15E2
100
AcDbDictionary
280
     1
281
     1
  3
ACAD_XREC_ROUNDTRIP
360
1624
  0
DICTIONARY
  5
1625
330
15E3
100
AcDbDictionary
280
     1
281
     1
  3
ACAD_XREC_ROUNDTRIP
360
1626
  0
DICTIONARY
  5
1627
330
15E4
100
AcDbDictionary
280
     1
281
     1
  3
ACAD_XREC_ROUNDTRIP
360
1628
  0
DICTIONARY
  5
1629
330
15E5
100
AcDbDictionary
280
     1
281
     1
  3
ACAD_XREC_ROUNDTRIP
360
162A
  0
DICTIONARY
  5
1631
330
15E9
100
AcDbDictionary
280
     1
281
     1
  3
ACAD_XREC_ROUNDTRIP
360
1632
  0
DICTIONARY
  5
164D
330
15F7
100
AcDbDictionary
280
     1
281
     1
  3
ACAD_XREC_ROUNDTRIP
360
164E
  0
DICTIONARY
  5
163D
330
15EF
100
AcDbDictionary
280
     1
281
     1
  3
ACAD_XREC_ROUNDTRIP
360
163E
  0
DICTIONARY
  5
164F
330
15F8
100
AcDbDictionary
280
     1
281
     1
  3
ACAD_XREC_ROUNDTRIP
360
1650
  0
DICTIONARY
  5
1635
330
15EB
100
AcDbDictionary
280
     1
281
     1
  3
ACAD_XREC_ROUNDTRIP
360
1636
  0
DICTIONARY
  5
164B
330
15F6
100
AcDbDictionary
280
     1
281
     1
  3
ACAD_XREC_ROUNDTRIP
360
164C
  0
DICTIONARY
  5
1649
330
15F5
100
AcDbDictionary
280
     1
281
     1
  3
ACAD_XREC_ROUNDTRIP
360
164A
  0
DICTIONARY
  5
1643
330
15F2
100
AcDbDictionary
280
     1
281
     1
  3
ACAD_XREC_ROUNDTRIP
360
1644
  0
DICTIONARY
  5
1645
330
15F3
100
AcDbDictionary
280
     1
281
     1
  3
ACAD_XREC_ROUNDTRIP
360
1646
  0
DICTIONARY
  5
163B
330
15EE
100
AcDbDictionary
280
     1
281
     1
  3
ACAD_XREC_ROUNDTRIP
360
163C
  0
DICTIONARY
  5
162F
330
15E8
100
AcDbDictionary
280
     1
281
     1
  3
ACAD_XREC_ROUNDTRIP
360
1630
  0
DICTIONARY
  5
1647
330
15F4
100
AcDbDictionary
280
     1
281
     1
  3
ACAD_XREC_ROUNDTRIP
360
1648
  0
XRECORD
  5
16AE
102
{ACAD_REACTORS
330
15D2
102
}
330
15D2
100
AcDbXrecord
280
     1
102
MATERIAL
148
0.0
149
0.0
149
0.0
 93
        0
 94
      127
282
     0
 72
     0
 77
     0
171
     0
175
     0
179
     0
273
     0
  0
XRECORD
  5
15D4
102
{ACAD_REACTORS
330
15D2
102
}
330
15D2
100
AcDbXrecord
280
     1
270
     1
271
     1
  0
XRECORD
  5
15D3
102
{ACAD_REACTORS
330
15D2
102
}
330
15D2
100
AcDbXrecord
280
     1
270
     1
271
     1
  0
XRECORD
  5
15D7
102
{ACAD_REACTORS
330
15D2
102
}
330
15D2
100
AcDbXrecord
280
     1
270
     1
271
     1
  0
XRECORD
  5
15D6
102
{ACAD_REACTORS
330
15D2
102
}
330
15D2
100
AcDbXrecord
280
     1
270
     1
271
     1
  0
XRECORD
  5
15D8
102
{ACAD_REACTORS
330
15D2
102
}
330
15D2
100
AcDbXrecord
280
     1
270
     1
271
     1
  0
XRECORD
  5
15D5
102
{ACAD_REACTORS
330
15D2
102
}
330
15D2
100
AcDbXrecord
280
     1
270
     1
271
     1
  0
XRECORD
  5
16AD
102
{ACAD_REACTORS
330
15CA
102
}
330
15CA
100
AcDbXrecord
280
     1
102
MATERIAL
148
0.0
149
0.0
149
0.0
 93
        0
 94
      127
282
     0
 72
     0
 77
     0
171
     0
175
     0
179
     0
273
     0
  0
XRECORD
  5
15CC
102
{ACAD_REACTORS
330
15CA
102
}
330
15CA
100
AcDbXrecord
280
     1
270
     1
271
     1
  0
XRECORD
  5
15CB
102
{ACAD_REACTORS
330
15CA
102
}
330
15CA
100
AcDbXrecord
280
     1
270
     1
271
     1
  0
XRECORD
  5
15CF
102
{ACAD_REACTORS
330
15CA
102
}
330
15CA
100
AcDbXrecord
280
     1
270
     1
271
     1
  0
XRECORD
  5
15CE
102
{ACAD_REACTORS
330
15CA
102
}
330
15CA
100
AcDbXrecord
280
     1
270
     1
271
     1
  0
XRECORD
  5
15D0
102
{ACAD_REACTORS
330
15CA
102
}
330
15CA
100
AcDbXrecord
280
     1
270
     1
271
     1
  0
XRECORD
  5
15CD
102
{ACAD_REACTORS
330
15CA
102
}
330
15CA
100
AcDbXrecord
280
     1
270
     1
271
     1
  0
XRECORD
  5
16AF
102
{ACAD_REACTORS
330
15DA
102
}
330
15DA
100
AcDbXrecord
280
     1
102
MATERIAL
148
0.0
149
0.0
149
0.0
 93
        0
 94
      127
282
     0
 72
     0
 77
     0
171
     0
175
     0
179
     0
273
     0
  0
XRECORD
  5
15DC
102
{ACAD_REACTORS
330
15DA
102
}
330
15DA
100
AcDbXrecord
280
     1
270
     1
271
     1
  0
XRECORD
  5
15DB
102
{ACAD_REACTORS
330
15DA
102
}
330
15DA
100
AcDbXrecord
280
     1
270
     1
271
     1
  0
XRECORD
  5
15DF
102
{ACAD_REACTORS
330
15DA
102
}
330
15DA
100
AcDbXrecord
280
     1
270
     1
271
     1
  0
XRECORD
  5
15DE
102
{ACAD_REACTORS
330
15DA
102
}
330
15DA
100
AcDbXrecord
280
     1
270
     1
271
     1
  0
XRECORD
  5
15E0
102
{ACAD_REACTORS
330
15DA
102
}
330
15DA
100
AcDbXrecord
280
     1
270
     1
271
     1
  0
XRECORD
  5
15DD
102
{ACAD_REACTORS
330
15DA
102
}
330
15DA
100
AcDbXrecord
280
     1
270
     1
271
     1
  0
CELLSTYLEMAP
  5
16AC
102
{ACAD_REACTORS
330
1616
102
}
330
1616
100
AcDbCellStyleMap
 90
        3
300
CELLSTYLE
  1
TABLEFORMAT_BEGIN
 90
        5
170
     1
 91
        0
 92
    32768
 62
   257
 93
        1
300
CONTENTFORMAT
  1
CONTENTFORMAT_BEGIN
 90
        0
 91
        0
 92
      512
 93
        0
300

 40
0.0
140
1.0
 94
        5
 62
     0
340
11
144
0.25
309
CONTENTFORMAT_END
171
     0
 94
        0
309
TABLEFORMAT_END
  1
CELLSTYLE_BEGIN
 90
        1
 91
        1
300
_TITLE
309
CELLSTYLE_END
300
CELLSTYLE
  1
TABLEFORMAT_BEGIN
 90
        5
170
     1
 91
        0
 92
        0
 62
   257
 93
        1
300
CONTENTFORMAT
  1
CONTENTFORMAT_BEGIN
 90
        0
 91
        0
 92
      512
 93
        0
300

 40
0.0
140
1.0
 94
        5
 62
     0
340
11
144
0.18
309
CONTENTFORMAT_END
171
     0
 94
        0
309
TABLEFORMAT_END
  1
CELLSTYLE_BEGIN
 90
        2
 91
        1
300
_HEADER
309
CELLSTYLE_END
300
CELLSTYLE
  1
TABLEFORMAT_BEGIN
 90
        5
170
     1
 91
        0
 92
        0
 62
   257
 93
        1
300
CONTENTFORMAT
  1
CONTENTFORMAT_BEGIN
 90
        0
 91
        0
 92
      512
 93
        0
300

 40
0.0
140
1.0
 94
        2
 62
     0
340
11
144
0.18
309
CONTENTFORMAT_END
171
     0
 94
        0
309
TABLEFORMAT_END
  1
CELLSTYLE_BEGIN
 90
        3
 91
        2
300
_DATA
309
CELLSTYLE_END
  0
XRECORD
  5
16B0
102
{ACAD_REACTORS
330
1616
102
}
330
1616
100
AcDbXrecord
280
     1
102
ACAD_ROUNDTRIP_PRE2007_TABLESTYLE
 90
      512
 91
        0
  1

 92
      512
 93
        0
  2

 94
      512
 95
        0
  3

  0
XRECORD
  5
162E
102
{ACAD_REACTORS
330
162D
102
}
330
162D
100
AcDbXrecord
280
     1
102
RTVSPost2010Prop28
280
     1
102
RTVSPost2010PropOp28
 70
     1
102
RTVSPost2010Prop29
280
     1
102
RTVSPost2010PropOp29
 70
     1
102
RTVSPost2010Prop30
280
     0
102
RTVSPost2010PropOp30
 70
     1
102
RTVSPost2010Prop31
280
     0
102
RTVSPost2010PropOp31
 70
     1
102
RTVSPost2010Prop32
280
     0
102
RTVSPost2010PropOp32
 70
     1
102
RTVSPost2010Prop33
280
     0
102
RTVSPost2010PropOp33
 70
     1
102
RTVSPost2010Prop34
280
     0
102
RTVSPost2010PropOp34
 70
     1
102
RTVSPost2010Prop35
280
     0
102
RTVSPost2010PropOp35
 70
     1
102
RTVSPost2010Prop36
280
     0
102
RTVSPost2010PropOp36
 70
     1
102
RTVSPost2010Prop37
 90
       50
102
RTVSPost2010PropOp37
 70
     1
102
RTVSPost2010Prop38
140
0.0
102
RTVSPost2010PropOp38
 70
     1
102
RTVSPost2010Prop39
140
1.0
102
RTVSPost2010PropOp39
 70
     1
102
RTVSPost2010Prop40
 90
        0
102
RTVSPost2010PropOp40
 70
     1
102
RTVSPost2010Prop41ColorIndex
 90
       18
102
RTVSPost2010Prop41ColorRGB
 90
        0
102
RTVSPost2010PropOp41
 70
     1
102
RTVSPost2010Prop42
 90
       50
102
RTVSPost2010PropOp42
 70
     1
102
RTVSPost2010Prop43
 90
        3
102
RTVSPost2010PropOp43
 70
     1
102
RTVSPost2010Prop44ColorIndex
 90
        5
102
RTVSPost2010Prop44ColorRGB
 90
      255
102
RTVSPost2010PropOp44
 70
     1
102
RTVSPost2010Prop45
280
     0
102
RTVSPost2010PropOp45
 70
     1
102
RTVSPost2010Prop46
 90
       50
102
RTVSPost2010PropOp46
 70
     1
102
RTVSPost2010Prop47
 90
       50
102
RTVSPost2010PropOp47
 70
     1
102
RTVSPost2010Prop48
 90
       50
102
RTVSPost2010PropOp48
 70
     1
102
RTVSPost2010Prop49
280
     0
102
RTVSPost2010PropOp49
 70
     1
102
RTVSPost2010Prop50
 90
       50
102
RTVSPost2010PropOp50
 70
     1
102
RTVSPost2010Prop51ColorIndex
 90
      256
102
RTVSPost2010Prop51ColorRGB
 90
-16777216
102
RTVSPost2010PropOp51
 70
     0
102
RTVSPost2010Prop52
140
1.0
102
RTVSPost2010PropOp52
 70
     0
102
RTVSPost2010Prop53
 90
        2
102
RTVSPost2010PropOp53
 70
     1
102
RTVSPost2010Prop54
  1
strokes_ogs.tif
102
RTVSPost2010PropOp54
 70
     1
102
RTVSPost2010Prop55
280
     0
102
RTVSPost2010PropOp55
 70
     1
102
RTVSPost2010Prop56
140
1.0
102
RTVSPost2010PropOp56
 70
     1
102
RTVSPost2010Prop57
140
1.0
102
RTVSPost2010PropOp57
 70
     1
102
RTVSPropertyOp0
 70
     1
102
RTVSPropertyOp1
 70
     1
102
RTVSPropertyOp2
 70
     1
102
RTVSPropertyOp3
 70
     1
102
RTVSPropertyOp4
 70
     1
102
RTVSPropertyOp5
 70
     1
102
RTVSPropertyOp6
 70
     1
102
RTVSPropertyOp7
 70
     1
102
RTVSPropertyOp8
 70
     1
102
RTVSPropertyOp9
 70
     1
102
RTVSPropertyOp10
 70
     1
102
RTVSPropertyOp11
 70
     1
102
RTVSPropertyOp12
 70
     1
102
RTVSPropertyOp13
 70
     1
102
RTVSPropertyOp14
 70
     1
102
RTVSPropertyOp15
 70
     1
102
RTVSPropertyOp16
 70
     1
102
RTVSPropertyOp17
 70
     1
102
RTVSPropertyOp18
 70
     1
102
RTVSPropertyOp19
 70
     1
102
RTVSPropertyOp20
 70
     1
102
RTVSPropertyOp21
 70
     1
102
RTVSPropertyOp22
 70
     1
102
RTVSPropertyOp23
 70
     1
102
RTVSPropertyOp24
 70
     1
102
RTVSPropertyOp25
 70
     1
102
RTVSPropertyOp26
 70
     1
102
RTVSPropertyOp27
 70
     1
102
RTVSPropertyOp28
 70
     1
102
RTVSPropertyOp29
 70
     1
102
RTVSPropertyOp30
 70
     1
102
RTVSPropertyOp31
 70
     1
102
RTVSPropertyOp32
 70
     1
102
RTVSPropertyOp33
 70
     1
102
RTVSPropertyOp34
 70
     1
102
RTVSPropertyOp35
 70
     1
102
RTVSPropertyOp36
 70
     1
102
RTVSPropertyOp37
 70
     1
102
RTVSPropertyOp38
 70
     1
102
RTVSPropertyOp39
 70
     1
102
RTVSPropertyOp40
 70
     1
102
RTVSPropertyOp41
 70
     1
102
RTVSPropertyOp42
 70
     1
102
RTVSPropertyOp43
 70
     1
102
RTVSPropertyOp44
 70
     1
102
RTVSPropertyOp45
 70
     1
102
RTVSPropertyOp46
 70
     1
102
RTVSPropertyOp47
 70
     1
102
RTVSPropertyOp48
 70
     1
102
RTVSPropertyOp49
 70
     1
102
RTVSPropertyOp50
 70
     1
102
RTVSPropertyOp51
 70
     0
102
RTVSPropertyOp52
 70
     0
102
RTVSPropertyOp53
 70
     1
102
RTVSPropertyOp54
 70
     1
102
RTVSPropertyOp55
 70
     1
102
RTVSPropertyOp56
 70
     1
102
RTVSPropertyOp57
 70
     1
102
RTVSPropertyOp58
 70
     1
102
RTVSPropertyOp59
 70
     1
102
RTVSPropertyOp60
 70
     1
102
RTVSPropertyOp61
 70
     1
102
RTVSPropertyOp62
 70
     1
  0
XRECORD
  5
162C
102
{ACAD_REACTORS
330
162B
102
}
330
162B
100
AcDbXrecord
280
     1
102
RTVSPost2010Prop28
280
     0
102
RTVSPost2010PropOp28
 70
     1
102
RTVSPost2010Prop29
280
     1
102
RTVSPost2010PropOp29
 70
     1
102
RTVSPost2010Prop30
280
     1
102
RTVSPost2010PropOp30
 70
     1
102
RTVSPost2010Prop31
280
     0
102
RTVSPost2010PropOp31
 70
     1
102
RTVSPost2010Prop32
280
     0
102
RTVSPost2010PropOp32
 70
     1
102
RTVSPost2010Prop33
280
     0
102
RTVSPost2010PropOp33
 70
     1
102
RTVSPost2010Prop34
280
     0
102
RTVSPost2010PropOp34
 70
     1
102
RTVSPost2010Prop35
280
     0
102
RTVSPost2010PropOp35
 70
     1
102
RTVSPost2010Prop36
280
     0
102
RTVSPost2010PropOp36
 70
     1
102
RTVSPost2010Prop37
 90
       50
102
RTVSPost2010PropOp37
 70
     1
102
RTVSPost2010Prop38
140
0.0
102
RTVSPost2010PropOp38
 70
     1
102
RTVSPost2010Prop39
140
1.0
102
RTVSPost2010PropOp39
 70
     1
102
RTVSPost2010Prop40
 90
        0
102
RTVSPost2010PropOp40
 70
     1
102
RTVSPost2010Prop41ColorIndex
 90
       18
102
RTVSPost2010Prop41ColorRGB
 90
        0
102
RTVSPost2010PropOp41
 70
     1
102
RTVSPost2010Prop42
 90
       50
102
RTVSPost2010PropOp42
 70
     1
102
RTVSPost2010Prop43
 90
        3
102
RTVSPost2010PropOp43
 70
     1
102
RTVSPost2010Prop44ColorIndex
 90
        5
102
RTVSPost2010Prop44ColorRGB
 90
      255
102
RTVSPost2010PropOp44
 70
     1
102
RTVSPost2010Prop45
280
     0
102
RTVSPost2010PropOp45
 70
     1
102
RTVSPost2010Prop46
 90
       50
102
RTVSPost2010PropOp46
 70
     1
102
RTVSPost2010Prop47
 90
       50
102
RTVSPost2010PropOp47
 70
     1
102
RTVSPost2010Prop48
 90
       50
102
RTVSPost2010PropOp48
 70
     1
102
RTVSPost2010Prop49
280
     0
102
RTVSPost2010PropOp49
 70
     1
102
RTVSPost2010Prop50
 90
       50
102
RTVSPost2010PropOp50
 70
     1
102
RTVSPost2010Prop51ColorIndex
 90
      256
102
RTVSPost2010Prop51ColorRGB
 90
-16777216
102
RTVSPost2010PropOp51
 70
     0
102
RTVSPost2010Prop52
140
1.0
102
RTVSPost2010PropOp52
 70
     0
102
RTVSPost2010Prop53
 90
        2
102
RTVSPost2010PropOp53
 70
     1
102
RTVSPost2010Prop54
  1
strokes_ogs.tif
102
RTVSPost2010PropOp54
 70
     1
102
RTVSPost2010Prop55
280
     0
102
RTVSPost2010PropOp55
 70
     1
102
RTVSPost2010Prop56
140
1.0
102
RTVSPost2010PropOp56
 70
     1
102
RTVSPost2010Prop57
140
1.0
102
RTVSPost2010PropOp57
 70
     1
102
RTVSPropertyOp0
 70
     1
102
RTVSPropertyOp1
 70
     1
102
RTVSPropertyOp2
 70
     1
102
RTVSPropertyOp3
 70
     1
102
RTVSPropertyOp4
 70
     1
102
RTVSPropertyOp5
 70
     1
102
RTVSPropertyOp6
 70
     1
102
RTVSPropertyOp7
 70
     1
102
RTVSPropertyOp8
 70
     1
102
RTVSPropertyOp9
 70
     1
102
RTVSPropertyOp10
 70
     1
102
RTVSPropertyOp11
 70
     1
102
RTVSPropertyOp12
 70
     1
102
RTVSPropertyOp13
 70
     1
102
RTVSPropertyOp14
 70
     1
102
RTVSPropertyOp15
 70
     1
102
RTVSPropertyOp16
 70
     1
102
RTVSPropertyOp17
 70
     1
102
RTVSPropertyOp18
 70
     1
102
RTVSPropertyOp19
 70
     1
102
RTVSPropertyOp20
 70
     1
102
RTVSPropertyOp21
 70
     1
102
RTVSPropertyOp22
 70
     1
102
RTVSPropertyOp23
 70
     1
102
RTVSPropertyOp24
 70
     1
102
RTVSPropertyOp25
 70
     1
102
RTVSPropertyOp26
 70
     1
102
RTVSPropertyOp27
 70
     1
102
RTVSPropertyOp28
 70
     1
102
RTVSPropertyOp29
 70
     1
102
RTVSPropertyOp30
 70
     1
102
RTVSPropertyOp31
 70
     1
102
RTVSPropertyOp32
 70
     1
102
RTVSPropertyOp33
 70
     1
102
RTVSPropertyOp34
 70
     1
102
RTVSPropertyOp35
 70
     1
102
RTVSPropertyOp36
 70
     1
102
RTVSPropertyOp37
 70
     1
102
RTVSPropertyOp38
 70
     1
102
RTVSPropertyOp39
 70
     1
102
RTVSPropertyOp40
 70
     1
102
RTVSPropertyOp41
 70
     1
102
RTVSPropertyOp42
 70
     1
102
RTVSPropertyOp43
 70
     1
102
RTVSPropertyOp44
 70
     1
102
RTVSPropertyOp45
 70
     1
102
RTVSPropertyOp46
 70
     1
102
RTVSPropertyOp47
 70
     1
102
RTVSPropertyOp48
 70
     1
102
RTVSPropertyOp49
 70
     1
102
RTVSPropertyOp50
 70
     1
102
RTVSPropertyOp51
 70
     0
102
RTVSPropertyOp52
 70
     0
102
RTVSPropertyOp53
 70
     1
102
RTVSPropertyOp54
 70
     1
102
RTVSPropertyOp55
 70
     1
102
RTVSPropertyOp56
 70
     1
102
RTVSPropertyOp57
 70
     1
102
RTVSPropertyOp58
 70
     1
102
RTVSPropertyOp59
 70
     1
102
RTVSPropertyOp60
 70
     1
102
RTVSPropertyOp61
 70
     1
102
RTVSPropertyOp62
 70
     1
  0
XRECORD
  5
163A
102
{ACAD_REACTORS
330
1639
102
}
330
1639
100
AcDbXrecord
280
     1
102
RTVSPost2010Prop28
280
     0
102
RTVSPost2010PropOp28
 70
     1
102
RTVSPost2010Prop29
280
     1
102
RTVSPost2010PropOp29
 70
     1
102
RTVSPost2010Prop30
280
     1
102
RTVSPost2010PropOp30
 70
     1
102
RTVSPost2010Prop31
280
     0
102
RTVSPost2010PropOp31
 70
     1
102
RTVSPost2010Prop32
280
     0
102
RTVSPost2010PropOp32
 70
     1
102
RTVSPost2010Prop33
280
     0
102
RTVSPost2010PropOp33
 70
     1
102
RTVSPost2010Prop34
280
     0
102
RTVSPost2010PropOp34
 70
     1
102
RTVSPost2010Prop35
280
     0
102
RTVSPost2010PropOp35
 70
     1
102
RTVSPost2010Prop36
280
     0
102
RTVSPost2010PropOp36
 70
     1
102
RTVSPost2010Prop37
 90
       50
102
RTVSPost2010PropOp37
 70
     1
102
RTVSPost2010Prop38
140
0.0
102
RTVSPost2010PropOp38
 70
     1
102
RTVSPost2010Prop39
140
1.0
102
RTVSPost2010PropOp39
 70
     1
102
RTVSPost2010Prop40
 90
        0
102
RTVSPost2010PropOp40
 70
     1
102
RTVSPost2010Prop41ColorIndex
 90
       18
102
RTVSPost2010Prop41ColorRGB
 90
        0
102
RTVSPost2010PropOp41
 70
     1
102
RTVSPost2010Prop42
 90
       50
102
RTVSPost2010PropOp42
 70
     1
102
RTVSPost2010Prop43
 90
        3
102
RTVSPost2010PropOp43
 70
     1
102
RTVSPost2010Prop44ColorIndex
 90
        5
102
RTVSPost2010Prop44ColorRGB
 90
      255
102
RTVSPost2010PropOp44
 70
     1
102
RTVSPost2010Prop45
280
     0
102
RTVSPost2010PropOp45
 70
     1
102
RTVSPost2010Prop46
 90
       50
102
RTVSPost2010PropOp46
 70
     1
102
RTVSPost2010Prop47
 90
       50
102
RTVSPost2010PropOp47
 70
     1
102
RTVSPost2010Prop48
 90
       50
102
RTVSPost2010PropOp48
 70
     1
102
RTVSPost2010Prop49
280
     0
102
RTVSPost2010PropOp49
 70
     1
102
RTVSPost2010Prop50
 90
       50
102
RTVSPost2010PropOp50
 70
     1
102
RTVSPost2010Prop51ColorIndex
 90
      256
102
RTVSPost2010Prop51ColorRGB
 90
-16777216
102
RTVSPost2010PropOp51
 70
     0
102
RTVSPost2010Prop52
140
1.0
102
RTVSPost2010PropOp52
 70
     0
102
RTVSPost2010Prop53
 90
        2
102
RTVSPost2010PropOp53
 70
     1
102
RTVSPost2010Prop54
  1
strokes_ogs.tif
102
RTVSPost2010PropOp54
 70
     1
102
RTVSPost2010Prop55
280
     0
102
RTVSPost2010PropOp55
 70
     1
102
RTVSPost2010Prop56
140
1.0
102
RTVSPost2010PropOp56
 70
     1
102
RTVSPost2010Prop57
140
1.0
102
RTVSPost2010PropOp57
 70
     1
102
RTVSPropertyOp0
 70
     1
102
RTVSPropertyOp1
 70
     1
102
RTVSPropertyOp2
 70
     1
102
RTVSPropertyOp3
 70
     1
102
RTVSPropertyOp4
 70
     1
102
RTVSPropertyOp5
 70
     1
102
RTVSPropertyOp6
 70
     1
102
RTVSPropertyOp7
 70
     1
102
RTVSPropertyOp8
 70
     1
102
RTVSPropertyOp9
 70
     1
102
RTVSPropertyOp10
 70
     1
102
RTVSPropertyOp11
 70
     1
102
RTVSPropertyOp12
 70
     1
102
RTVSPropertyOp13
 70
     1
102
RTVSPropertyOp14
 70
     1
102
RTVSPropertyOp15
 70
     1
102
RTVSPropertyOp16
 70
     1
102
RTVSPropertyOp17
 70
     1
102
RTVSPropertyOp18
 70
     1
102
RTVSPropertyOp19
 70
     1
102
RTVSPropertyOp20
 70
     1
102
RTVSPropertyOp21
 70
     1
102
RTVSPropertyOp22
 70
     1
102
RTVSPropertyOp23
 70
     1
102
RTVSPropertyOp24
 70
     1
102
RTVSPropertyOp25
 70
     1
102
RTVSPropertyOp26
 70
     1
102
RTVSPropertyOp27
 70
     1
102
RTVSPropertyOp28
 70
     1
102
RTVSPropertyOp29
 70
     1
102
RTVSPropertyOp30
 70
     1
102
RTVSPropertyOp31
 70
     1
102
RTVSPropertyOp32
 70
     1
102
RTVSPropertyOp33
 70
     1
102
RTVSPropertyOp34
 70
     1
102
RTVSPropertyOp35
 70
     1
102
RTVSPropertyOp36
 70
     1
102
RTVSPropertyOp37
 70
     1
102
RTVSPropertyOp38
 70
     1
102
RTVSPropertyOp39
 70
     1
102
RTVSPropertyOp40
 70
     1
102
RTVSPropertyOp41
 70
     1
102
RTVSPropertyOp42
 70
     1
102
RTVSPropertyOp43
 70
     1
102
RTVSPropertyOp44
 70
     1
102
RTVSPropertyOp45
 70
     1
102
RTVSPropertyOp46
 70
     1
102
RTVSPropertyOp47
 70
     1
102
RTVSPropertyOp48
 70
     1
102
RTVSPropertyOp49
 70
     1
102
RTVSPropertyOp50
 70
     1
102
RTVSPropertyOp51
 70
     0
102
RTVSPropertyOp52
 70
     0
102
RTVSPropertyOp53
 70
     1
102
RTVSPropertyOp54
 70
     1
102
RTVSPropertyOp55
 70
     1
102
RTVSPropertyOp56
 70
     1
102
RTVSPropertyOp57
 70
     1
102
RTVSPropertyOp58
 70
     1
102
RTVSPropertyOp59
 70
     1
102
RTVSPropertyOp60
 70
     1
102
RTVSPropertyOp61
 70
     1
102
RTVSPropertyOp62
 70
     1
  0
XRECORD
  5
1642
102
{ACAD_REACTORS
330
1641
102
}
330
1641
100
AcDbXrecord
280
     1
102
RTVSPost2010Prop28
280
     0
102
RTVSPost2010PropOp28
 70
     1
102
RTVSPost2010Prop29
280
     1
102
RTVSPost2010PropOp29
 70
     1
102
RTVSPost2010Prop30
280
     1
102
RTVSPost2010PropOp30
 70
     1
102
RTVSPost2010Prop31
280
     0
102
RTVSPost2010PropOp31
 70
     1
102
RTVSPost2010Prop32
280
     0
102
RTVSPost2010PropOp32
 70
     1
102
RTVSPost2010Prop33
280
     0
102
RTVSPost2010PropOp33
 70
     1
102
RTVSPost2010Prop34
280
     0
102
RTVSPost2010PropOp34
 70
     1
102
RTVSPost2010Prop35
280
     0
102
RTVSPost2010PropOp35
 70
     1
102
RTVSPost2010Prop36
280
     0
102
RTVSPost2010PropOp36
 70
     1
102
RTVSPost2010Prop37
 90
       50
102
RTVSPost2010PropOp37
 70
     1
102
RTVSPost2010Prop38
140
0.0
102
RTVSPost2010PropOp38
 70
     1
102
RTVSPost2010Prop39
140
1.0
102
RTVSPost2010PropOp39
 70
     1
102
RTVSPost2010Prop40
 90
        0
102
RTVSPost2010PropOp40
 70
     1
102
RTVSPost2010Prop41ColorIndex
 90
       18
102
RTVSPost2010Prop41ColorRGB
 90
        0
102
RTVSPost2010PropOp41
 70
     1
102
RTVSPost2010Prop42
 90
       50
102
RTVSPost2010PropOp42
 70
     1
102
RTVSPost2010Prop43
 90
        3
102
RTVSPost2010PropOp43
 70
     1
102
RTVSPost2010Prop44ColorIndex
 90
        5
102
RTVSPost2010Prop44ColorRGB
 90
      255
102
RTVSPost2010PropOp44
 70
     1
102
RTVSPost2010Prop45
280
     0
102
RTVSPost2010PropOp45
 70
     1
102
RTVSPost2010Prop46
 90
       50
102
RTVSPost2010PropOp46
 70
     1
102
RTVSPost2010Prop47
 90
       50
102
RTVSPost2010PropOp47
 70
     1
102
RTVSPost2010Prop48
 90
       50
102
RTVSPost2010PropOp48
 70
     1
102
RTVSPost2010Prop49
280
     0
102
RTVSPost2010PropOp49
 70
     1
102
RTVSPost2010Prop50
 90
       50
102
RTVSPost2010PropOp50
 70
     1
102
RTVSPost2010Prop51ColorIndex
 90
      256
102
RTVSPost2010Prop51ColorRGB
 90
-16777216
102
RTVSPost2010PropOp51
 70
     0
102
RTVSPost2010Prop52
140
1.0
102
RTVSPost2010PropOp52
 70
     0
102
RTVSPost2010Prop53
 90
        2
102
RTVSPost2010PropOp53
 70
     1
102
RTVSPost2010Prop54
  1
strokes_ogs.tif
102
RTVSPost2010PropOp54
 70
     1
102
RTVSPost2010Prop55
280
     0
102
RTVSPost2010PropOp55
 70
     1
102
RTVSPost2010Prop56
140
1.0
102
RTVSPost2010PropOp56
 70
     1
102
RTVSPost2010Prop57
140
1.0
102
RTVSPost2010PropOp57
 70
     1
102
RTVSPropertyOp0
 70
     1
102
RTVSPropertyOp1
 70
     1
102
RTVSPropertyOp2
 70
     1
102
RTVSPropertyOp3
 70
     1
102
RTVSPropertyOp4
 70
     1
102
RTVSPropertyOp5
 70
     1
102
RTVSPropertyOp6
 70
     1
102
RTVSPropertyOp7
 70
     1
102
RTVSPropertyOp8
 70
     1
102
RTVSPropertyOp9
 70
     1
102
RTVSPropertyOp10
 70
     1
102
RTVSPropertyOp11
 70
     1
102
RTVSPropertyOp12
 70
     1
102
RTVSPropertyOp13
 70
     1
102
RTVSPropertyOp14
 70
     1
102
RTVSPropertyOp15
 70
     1
102
RTVSPropertyOp16
 70
     1
102
RTVSPropertyOp17
 70
     1
102
RTVSPropertyOp18
 70
     1
102
RTVSPropertyOp19
 70
     1
102
RTVSPropertyOp20
 70
     1
102
RTVSPropertyOp21
 70
     1
102
RTVSPropertyOp22
 70
     1
102
RTVSPropertyOp23
 70
     1
102
RTVSPropertyOp24
 70
     1
102
RTVSPropertyOp25
 70
     1
102
RTVSPropertyOp26
 70
     1
102
RTVSPropertyOp27
 70
     1
102
RTVSPropertyOp28
 70
     1
102
RTVSPropertyOp29
 70
     1
102
RTVSPropertyOp30
 70
     1
102
RTVSPropertyOp31
 70
     1
102
RTVSPropertyOp32
 70
     1
102
RTVSPropertyOp33
 70
     1
102
RTVSPropertyOp34
 70
     1
102
RTVSPropertyOp35
 70
     1
102
RTVSPropertyOp36
 70
     1
102
RTVSPropertyOp37
 70
     1
102
RTVSPropertyOp38
 70
     1
102
RTVSPropertyOp39
 70
     1
102
RTVSPropertyOp40
 70
     1
102
RTVSPropertyOp41
 70
     1
102
RTVSPropertyOp42
 70
     1
102
RTVSPropertyOp43
 70
     1
102
RTVSPropertyOp44
 70
     1
102
RTVSPropertyOp45
 70
     1
102
RTVSPropertyOp46
 70
     1
102
RTVSPropertyOp47
 70
     1
102
RTVSPropertyOp48
 70
     1
102
RTVSPropertyOp49
 70
     1
102
RTVSPropertyOp50
 70
     1
102
RTVSPropertyOp51
 70
     0
102
RTVSPropertyOp52
 70
     0
102
RTVSPropertyOp53
 70
     1
102
RTVSPropertyOp54
 70
     1
102
RTVSPropertyOp55
 70
     1
102
RTVSPropertyOp56
 70
     1
102
RTVSPropertyOp57
 70
     1
102
RTVSPropertyOp58
 70
     1
102
RTVSPropertyOp59
 70
     1
102
RTVSPropertyOp60
 70
     1
102
RTVSPropertyOp61
 70
     1
102
RTVSPropertyOp62
 70
     1
  0
XRECORD
  5
1634
102
{ACAD_REACTORS
330
1633
102
}
330
1633
100
AcDbXrecord
280
     1
102
RTVSPost2010Prop28
280
     0
102
RTVSPost2010PropOp28
 70
     1
102
RTVSPost2010Prop29
280
     1
102
RTVSPost2010PropOp29
 70
     1
102
RTVSPost2010Prop30
280
     1
102
RTVSPost2010PropOp30
 70
     1
102
RTVSPost2010Prop31
280
     0
102
RTVSPost2010PropOp31
 70
     1
102
RTVSPost2010Prop32
280
     0
102
RTVSPost2010PropOp32
 70
     1
102
RTVSPost2010Prop33
280
     0
102
RTVSPost2010PropOp33
 70
     1
102
RTVSPost2010Prop34
280
     0
102
RTVSPost2010PropOp34
 70
     1
102
RTVSPost2010Prop35
280
     0
102
RTVSPost2010PropOp35
 70
     1
102
RTVSPost2010Prop36
280
     0
102
RTVSPost2010PropOp36
 70
     1
102
RTVSPost2010Prop37
 90
       50
102
RTVSPost2010PropOp37
 70
     1
102
RTVSPost2010Prop38
140
0.0
102
RTVSPost2010PropOp38
 70
     1
102
RTVSPost2010Prop39
140
1.0
102
RTVSPost2010PropOp39
 70
     1
102
RTVSPost2010Prop40
 90
        0
102
RTVSPost2010PropOp40
 70
     1
102
RTVSPost2010Prop41ColorIndex
 90
       18
102
RTVSPost2010Prop41ColorRGB
 90
        0
102
RTVSPost2010PropOp41
 70
     1
102
RTVSPost2010Prop42
 90
       50
102
RTVSPost2010PropOp42
 70
     1
102
RTVSPost2010Prop43
 90
        3
102
RTVSPost2010PropOp43
 70
     1
102
RTVSPost2010Prop44ColorIndex
 90
        5
102
RTVSPost2010Prop44ColorRGB
 90
      255
102
RTVSPost2010PropOp44
 70
     1
102
RTVSPost2010Prop45
280
     0
102
RTVSPost2010PropOp45
 70
     1
102
RTVSPost2010Prop46
 90
       50
102
RTVSPost2010PropOp46
 70
     1
102
RTVSPost2010Prop47
 90
       50
102
RTVSPost2010PropOp47
 70
     1
102
RTVSPost2010Prop48
 90
       50
102
RTVSPost2010PropOp48
 70
     1
102
RTVSPost2010Prop49
280
     0
102
RTVSPost2010PropOp49
 70
     1
102
RTVSPost2010Prop50
 90
       50
102
RTVSPost2010PropOp50
 70
     1
102
RTVSPost2010Prop51ColorIndex
 90
      256
102
RTVSPost2010Prop51ColorRGB
 90
-16777216
102
RTVSPost2010PropOp51
 70
     0
102
RTVSPost2010Prop52
140
1.0
102
RTVSPost2010PropOp52
 70
     0
102
RTVSPost2010Prop53
 90
        2
102
RTVSPost2010PropOp53
 70
     1
102
RTVSPost2010Prop54
  1
strokes_ogs.tif
102
RTVSPost2010PropOp54
 70
     1
102
RTVSPost2010Prop55
280
     0
102
RTVSPost2010PropOp55
 70
     1
102
RTVSPost2010Prop56
140
1.0
102
RTVSPost2010PropOp56
 70
     1
102
RTVSPost2010Prop57
140
1.0
102
RTVSPost2010PropOp57
 70
     1
102
RTVSPropertyOp0
 70
     1
102
RTVSPropertyOp1
 70
     1
102
RTVSPropertyOp2
 70
     1
102
RTVSPropertyOp3
 70
     1
102
RTVSPropertyOp4
 70
     1
102
RTVSPropertyOp5
 70
     1
102
RTVSPropertyOp6
 70
     1
102
RTVSPropertyOp7
 70
     1
102
RTVSPropertyOp8
 70
     1
102
RTVSPropertyOp9
 70
     1
102
RTVSPropertyOp10
 70
     1
102
RTVSPropertyOp11
 70
     1
102
RTVSPropertyOp12
 70
     1
102
RTVSPropertyOp13
 70
     1
102
RTVSPropertyOp14
 70
     1
102
RTVSPropertyOp15
 70
     1
102
RTVSPropertyOp16
 70
     1
102
RTVSPropertyOp17
 70
     1
102
RTVSPropertyOp18
 70
     1
102
RTVSPropertyOp19
 70
     1
102
RTVSPropertyOp20
 70
     1
102
RTVSPropertyOp21
 70
     1
102
RTVSPropertyOp22
 70
     1
102
RTVSPropertyOp23
 70
     1
102
RTVSPropertyOp24
 70
     1
102
RTVSPropertyOp25
 70
     1
102
RTVSPropertyOp26
 70
     1
102
RTVSPropertyOp27
 70
     1
102
RTVSPropertyOp28
 70
     1
102
RTVSPropertyOp29
 70
     1
102
RTVSPropertyOp30
 70
     1
102
RTVSPropertyOp31
 70
     1
102
RTVSPropertyOp32
 70
     1
102
RTVSPropertyOp33
 70
     1
102
RTVSPropertyOp34
 70
     1
102
RTVSPropertyOp35
 70
     1
102
RTVSPropertyOp36
 70
     1
102
RTVSPropertyOp37
 70
     1
102
RTVSPropertyOp38
 70
     1
102
RTVSPropertyOp39
 70
     1
102
RTVSPropertyOp40
 70
     1
102
RTVSPropertyOp41
 70
     1
102
RTVSPropertyOp42
 70
     1
102
RTVSPropertyOp43
 70
     1
102
RTVSPropertyOp44
 70
     1
102
RTVSPropertyOp45
 70
     1
102
RTVSPropertyOp46
 70
     1
102
RTVSPropertyOp47
 70
     1
102
RTVSPropertyOp48
 70
     1
102
RTVSPropertyOp49
 70
     1
102
RTVSPropertyOp50
 70
     1
102
RTVSPropertyOp51
 70
     0
102
RTVSPropertyOp52
 70
     0
102
RTVSPropertyOp53
 70
     1
102
RTVSPropertyOp54
 70
     1
102
RTVSPropertyOp55
 70
     1
102
RTVSPropertyOp56
 70
     1
102
RTVSPropertyOp57
 70
     1
102
RTVSPropertyOp58
 70
     1
102
RTVSPropertyOp59
 70
     1
102
RTVSPropertyOp60
 70
     1
102
RTVSPropertyOp61
 70
     1
102
RTVSPropertyOp62
 70
     1
  0
XRECORD
  5
1638
102
{ACAD_REACTORS
330
1637
102
}
330
1637
100
AcDbXrecord
280
     1
102
RTVSPost2010Prop28
280
     0
102
RTVSPost2010PropOp28
 70
     1
102
RTVSPost2010Prop29
280
     1
102
RTVSPost2010PropOp29
 70
     1
102
RTVSPost2010Prop30
280
     1
102
RTVSPost2010PropOp30
 70
     1
102
RTVSPost2010Prop31
280
     0
102
RTVSPost2010PropOp31
 70
     1
102
RTVSPost2010Prop32
280
     0
102
RTVSPost2010PropOp32
 70
     1
102
RTVSPost2010Prop33
280
     0
102
RTVSPost2010PropOp33
 70
     1
102
RTVSPost2010Prop34
280
     0
102
RTVSPost2010PropOp34
 70
     1
102
RTVSPost2010Prop35
280
     0
102
RTVSPost2010PropOp35
 70
     1
102
RTVSPost2010Prop36
280
     0
102
RTVSPost2010PropOp36
 70
     1
102
RTVSPost2010Prop37
 90
       50
102
RTVSPost2010PropOp37
 70
     1
102
RTVSPost2010Prop38
140
0.0
102
RTVSPost2010PropOp38
 70
     1
102
RTVSPost2010Prop39
140
1.0
102
RTVSPost2010PropOp39
 70
     1
102
RTVSPost2010Prop40
 90
        0
102
RTVSPost2010PropOp40
 70
     1
102
RTVSPost2010Prop41ColorIndex
 90
       18
102
RTVSPost2010Prop41ColorRGB
 90
        0
102
RTVSPost2010PropOp41
 70
     1
102
RTVSPost2010Prop42
 90
       50
102
RTVSPost2010PropOp42
 70
     1
102
RTVSPost2010Prop43
 90
        3
102
RTVSPost2010PropOp43
 70
     1
102
RTVSPost2010Prop44ColorIndex
 90
        5
102
RTVSPost2010Prop44ColorRGB
 90
      255
102
RTVSPost2010PropOp44
 70
     1
102
RTVSPost2010Prop45
280
     0
102
RTVSPost2010PropOp45
 70
     1
102
RTVSPost2010Prop46
 90
       50
102
RTVSPost2010PropOp46
 70
     1
102
RTVSPost2010Prop47
 90
       50
102
RTVSPost2010PropOp47
 70
     1
102
RTVSPost2010Prop48
 90
       50
102
RTVSPost2010PropOp48
 70
     1
102
RTVSPost2010Prop49
280
     0
102
RTVSPost2010PropOp49
 70
     1
102
RTVSPost2010Prop50
 90
       50
102
RTVSPost2010PropOp50
 70
     1
102
RTVSPost2010Prop51ColorIndex
 90
      256
102
RTVSPost2010Prop51ColorRGB
 90
-16777216
102
RTVSPost2010PropOp51
 70
     0
102
RTVSPost2010Prop52
140
1.0
102
RTVSPost2010PropOp52
 70
     0
102
RTVSPost2010Prop53
 90
        2
102
RTVSPost2010PropOp53
 70
     1
102
RTVSPost2010Prop54
  1
strokes_ogs.tif
102
RTVSPost2010PropOp54
 70
     1
102
RTVSPost2010Prop55
280
     0
102
RTVSPost2010PropOp55
 70
     1
102
RTVSPost2010Prop56
140
1.0
102
RTVSPost2010PropOp56
 70
     1
102
RTVSPost2010Prop57
140
1.0
102
RTVSPost2010PropOp57
 70
     1
102
RTVSPropertyOp0
 70
     1
102
RTVSPropertyOp1
 70
     1
102
RTVSPropertyOp2
 70
     1
102
RTVSPropertyOp3
 70
     1
102
RTVSPropertyOp4
 70
     1
102
RTVSPropertyOp5
 70
     1
102
RTVSPropertyOp6
 70
     1
102
RTVSPropertyOp7
 70
     1
102
RTVSPropertyOp8
 70
     1
102
RTVSPropertyOp9
 70
     1
102
RTVSPropertyOp10
 70
     1
102
RTVSPropertyOp11
 70
     1
102
RTVSPropertyOp12
 70
     1
102
RTVSPropertyOp13
 70
     1
102
RTVSPropertyOp14
 70
     1
102
RTVSPropertyOp15
 70
     1
102
RTVSPropertyOp16
 70
     1
102
RTVSPropertyOp17
 70
     1
102
RTVSPropertyOp18
 70
     1
102
RTVSPropertyOp19
 70
     1
102
RTVSPropertyOp20
 70
     1
102
RTVSPropertyOp21
 70
     1
102
RTVSPropertyOp22
 70
     1
102
RTVSPropertyOp23
 70
     1
102
RTVSPropertyOp24
 70
     1
102
RTVSPropertyOp25
 70
     1
102
RTVSPropertyOp26
 70
     1
102
RTVSPropertyOp27
 70
     1
102
RTVSPropertyOp28
 70
     1
102
RTVSPropertyOp29
 70
     1
102
RTVSPropertyOp30
 70
     1
102
RTVSPropertyOp31
 70
     1
102
RTVSPropertyOp32
 70
     1
102
RTVSPropertyOp33
 70
     1
102
RTVSPropertyOp34
 70
     1
102
RTVSPropertyOp35
 70
     1
102
RTVSPropertyOp36
 70
     1
102
RTVSPropertyOp37
 70
     1
102
RTVSPropertyOp38
 70
     1
102
RTVSPropertyOp39
 70
     1
102
RTVSPropertyOp40
 70
     1
102
RTVSPropertyOp41
 70
     1
102
RTVSPropertyOp42
 70
     1
102
RTVSPropertyOp43
 70
     1
102
RTVSPropertyOp44
 70
     1
102
RTVSPropertyOp45
 70
     1
102
RTVSPropertyOp46
 70
     1
102
RTVSPropertyOp47
 70
     1
102
RTVSPropertyOp48
 70
     1
102
RTVSPropertyOp49
 70
     1
102
RTVSPropertyOp50
 70
     1
102
RTVSPropertyOp51
 70
     0
102
RTVSPropertyOp52
 70
     0
102
RTVSPropertyOp53
 70
     1
102
RTVSPropertyOp54
 70
     1
102
RTVSPropertyOp55
 70
     1
102
RTVSPropertyOp56
 70
     1
102
RTVSPropertyOp57
 70
     1
102
RTVSPropertyOp58
 70
     1
102
RTVSPropertyOp59
 70
     1
102
RTVSPropertyOp60
 70
     1
102
RTVSPropertyOp61
 70
     1
102
RTVSPropertyOp62
 70
     1
  0
XRECORD
  5
1652
102
{ACAD_REACTORS
330
1651
102
}
330
1651
100
AcDbXrecord
280
     1
102
RTVSPost2010Prop28
280
     0
102
RTVSPost2010PropOp28
 70
     1
102
RTVSPost2010Prop29
280
     1
102
RTVSPost2010PropOp29
 70
     1
102
RTVSPost2010Prop30
280
     1
102
RTVSPost2010PropOp30
 70
     1
102
RTVSPost2010Prop31
280
     0
102
RTVSPost2010PropOp31
 70
     1
102
RTVSPost2010Prop32
280
     0
102
RTVSPost2010PropOp32
 70
     1
102
RTVSPost2010Prop33
280
     0
102
RTVSPost2010PropOp33
 70
     1
102
RTVSPost2010Prop34
280
     0
102
RTVSPost2010PropOp34
 70
     1
102
RTVSPost2010Prop35
280
     0
102
RTVSPost2010PropOp35
 70
     1
102
RTVSPost2010Prop36
280
     0
102
RTVSPost2010PropOp36
 70
     1
102
RTVSPost2010Prop37
 90
       50
102
RTVSPost2010PropOp37
 70
     0
102
RTVSPost2010Prop38
140
0.0
102
RTVSPost2010PropOp38
 70
     0
102
RTVSPost2010Prop39
140
1.0
102
RTVSPost2010PropOp39
 70
     0
102
RTVSPost2010Prop40
 90
        0
102
RTVSPost2010PropOp40
 70
     0
102
RTVSPost2010Prop41ColorIndex
 90
       18
102
RTVSPost2010Prop41ColorRGB
 90
        0
102
RTVSPost2010PropOp41
 70
     0
102
RTVSPost2010Prop42
 90
       50
102
RTVSPost2010PropOp42
 70
     0
102
RTVSPost2010Prop43
 90
        3
102
RTVSPost2010PropOp43
 70
     0
102
RTVSPost2010Prop44ColorIndex
 90
        5
102
RTVSPost2010Prop44ColorRGB
 90
      255
102
RTVSPost2010PropOp44
 70
     0
102
RTVSPost2010Prop45
280
     0
102
RTVSPost2010PropOp45
 70
     1
102
RTVSPost2010Prop46
 90
       50
102
RTVSPost2010PropOp46
 70
     0
102
RTVSPost2010Prop47
 90
       50
102
RTVSPost2010PropOp47
 70
     0
102
RTVSPost2010Prop48
 90
       50
102
RTVSPost2010PropOp48
 70
     0
102
RTVSPost2010Prop49
280
     0
102
RTVSPost2010PropOp49
 70
     1
102
RTVSPost2010Prop50
 90
       50
102
RTVSPost2010PropOp50
 70
     0
102
RTVSPost2010Prop51ColorIndex
 90
      256
102
RTVSPost2010Prop51ColorRGB
 90
-16777216
102
RTVSPost2010PropOp51
 70
     0
102
RTVSPost2010Prop52
140
1.0
102
RTVSPost2010PropOp52
 70
     0
102
RTVSPost2010Prop53
 90
        2
102
RTVSPost2010PropOp53
 70
     0
102
RTVSPost2010Prop54
  1
strokes_ogs.tif
102
RTVSPost2010PropOp54
 70
     0
102
RTVSPost2010Prop55
280
     0
102
RTVSPost2010PropOp55
 70
     1
102
RTVSPost2010Prop56
140
1.0
102
RTVSPost2010PropOp56
 70
     0
102
RTVSPost2010Prop57
140
1.0
102
RTVSPost2010PropOp57
 70
     0
102
RTVSPropertyOp0
 70
     0
102
RTVSPropertyOp1
 70
     0
102
RTVSPropertyOp2
 70
     0
102
RTVSPropertyOp3
 70
     0
102
RTVSPropertyOp4
 70
     0
102
RTVSPropertyOp5
 70
     0
102
RTVSPropertyOp6
 70
     0
102
RTVSPropertyOp7
 70
     0
102
RTVSPropertyOp8
 70
     0
102
RTVSPropertyOp9
 70
     0
102
RTVSPropertyOp10
 70
     0
102
RTVSPropertyOp11
 70
     0
102
RTVSPropertyOp12
 70
     0
102
RTVSPropertyOp13
 70
     0
102
RTVSPropertyOp14
 70
     2
102
RTVSPropertyOp15
 70
     0
102
RTVSPropertyOp16
 70
     0
102
RTVSPropertyOp17
 70
     0
102
RTVSPropertyOp18
 70
     0
102
RTVSPropertyOp19
 70
     0
102
RTVSPropertyOp20
 70
     0
102
RTVSPropertyOp21
 70
     0
102
RTVSPropertyOp22
 70
     0
102
RTVSPropertyOp23
 70
     0
102
RTVSPropertyOp24
 70
     0
102
RTVSPropertyOp25
 70
     0
102
RTVSPropertyOp26
 70
     0
102
RTVSPropertyOp27
 70
     0
102
RTVSPropertyOp28
 70
     1
102
RTVSPropertyOp29
 70
     1
102
RTVSPropertyOp30
 70
     1
102
RTVSPropertyOp31
 70
     1
102
RTVSPropertyOp32
 70
     1
102
RTVSPropertyOp33
 70
     1
102
RTVSPropertyOp34
 70
     1
102
RTVSPropertyOp35
 70
     1
102
RTVSPropertyOp36
 70
     1
102
RTVSPropertyOp37
 70
     0
102
RTVSPropertyOp38
 70
     0
102
RTVSPropertyOp39
 70
     0
102
RTVSPropertyOp40
 70
     0
102
RTVSPropertyOp41
 70
     0
102
RTVSPropertyOp42
 70
     0
102
RTVSPropertyOp43
 70
     0
102
RTVSPropertyOp44
 70
     0
102
RTVSPropertyOp45
 70
     1
102
RTVSPropertyOp46
 70
     0
102
RTVSPropertyOp47
 70
     0
102
RTVSPropertyOp48
 70
     0
102
RTVSPropertyOp49
 70
     1
102
RTVSPropertyOp50
 70
     0
102
RTVSPropertyOp51
 70
     0
102
RTVSPropertyOp52
 70
     0
102
RTVSPropertyOp53
 70
     0
102
RTVSPropertyOp54
 70
     0
102
RTVSPropertyOp55
 70
     1
102
RTVSPropertyOp56
 70
     0
102
RTVSPropertyOp57
 70
     0
102
RTVSPropertyOp58
 70
     0
102
RTVSPropertyOp59
 70
     0
102
RTVSPropertyOp60
 70
     0
102
RTVSPropertyOp61
 70
     0
102
RTVSPropertyOp62
 70
     0
  0
XRECORD
  5
1640
102
{ACAD_REACTORS
330
163F
102
}
330
163F
100
AcDbXrecord
280
     1
102
RTVSPost2010Prop28
280
     0
102
RTVSPost2010PropOp28
 70
     1
102
RTVSPost2010Prop29
280
     1
102
RTVSPost2010PropOp29
 70
     1
102
RTVSPost2010Prop30
280
     1
102
RTVSPost2010PropOp30
 70
     1
102
RTVSPost2010Prop31
280
     0
102
RTVSPost2010PropOp31
 70
     1
102
RTVSPost2010Prop32
280
     0
102
RTVSPost2010PropOp32
 70
     1
102
RTVSPost2010Prop33
280
     0
102
RTVSPost2010PropOp33
 70
     1
102
RTVSPost2010Prop34
280
     0
102
RTVSPost2010PropOp34
 70
     1
102
RTVSPost2010Prop35
280
     0
102
RTVSPost2010PropOp35
 70
     1
102
RTVSPost2010Prop36
280
     0
102
RTVSPost2010PropOp36
 70
     1
102
RTVSPost2010Prop37
 90
       50
102
RTVSPost2010PropOp37
 70
     1
102
RTVSPost2010Prop38
140
0.0
102
RTVSPost2010PropOp38
 70
     1
102
RTVSPost2010Prop39
140
1.0
102
RTVSPost2010PropOp39
 70
     1
102
RTVSPost2010Prop40
 90
        0
102
RTVSPost2010PropOp40
 70
     1
102
RTVSPost2010Prop41ColorIndex
 90
       18
102
RTVSPost2010Prop41ColorRGB
 90
        0
102
RTVSPost2010PropOp41
 70
     1
102
RTVSPost2010Prop42
 90
       50
102
RTVSPost2010PropOp42
 70
     1
102
RTVSPost2010Prop43
 90
        3
102
RTVSPost2010PropOp43
 70
     1
102
RTVSPost2010Prop44ColorIndex
 90
        5
102
RTVSPost2010Prop44ColorRGB
 90
      255
102
RTVSPost2010PropOp44
 70
     1
102
RTVSPost2010Prop45
280
     0
102
RTVSPost2010PropOp45
 70
     1
102
RTVSPost2010Prop46
 90
       50
102
RTVSPost2010PropOp46
 70
     1
102
RTVSPost2010Prop47
 90
       50
102
RTVSPost2010PropOp47
 70
     1
102
RTVSPost2010Prop48
 90
       50
102
RTVSPost2010PropOp48
 70
     1
102
RTVSPost2010Prop49
280
     0
102
RTVSPost2010PropOp49
 70
     1
102
RTVSPost2010Prop50
 90
       50
102
RTVSPost2010PropOp50
 70
     1
102
RTVSPost2010Prop51ColorIndex
 90
      256
102
RTVSPost2010Prop51ColorRGB
 90
-16777216
102
RTVSPost2010PropOp51
 70
     0
102
RTVSPost2010Prop52
140
1.0
102
RTVSPost2010PropOp52
 70
     0
102
RTVSPost2010Prop53
 90
        2
102
RTVSPost2010PropOp53
 70
     1
102
RTVSPost2010Prop54
  1
strokes_ogs.tif
102
RTVSPost2010PropOp54
 70
     1
102
RTVSPost2010Prop55
280
     0
102
RTVSPost2010PropOp55
 70
     1
102
RTVSPost2010Prop56
140
1.0
102
RTVSPost2010PropOp56
 70
     1
102
RTVSPost2010Prop57
140
1.0
102
RTVSPost2010PropOp57
 70
     1
102
RTVSPropertyOp0
 70
     1
102
RTVSPropertyOp1
 70
     1
102
RTVSPropertyOp2
 70
     1
102
RTVSPropertyOp3
 70
     1
102
RTVSPropertyOp4
 70
     1
102
RTVSPropertyOp5
 70
     1
102
RTVSPropertyOp6
 70
     1
102
RTVSPropertyOp7
 70
     1
102
RTVSPropertyOp8
 70
     1
102
RTVSPropertyOp9
 70
     1
102
RTVSPropertyOp10
 70
     1
102
RTVSPropertyOp11
 70
     1
102
RTVSPropertyOp12
 70
     1
102
RTVSPropertyOp13
 70
     1
102
RTVSPropertyOp14
 70
     1
102
RTVSPropertyOp15
 70
     1
102
RTVSPropertyOp16
 70
     1
102
RTVSPropertyOp17
 70
     1
102
RTVSPropertyOp18
 70
     1
102
RTVSPropertyOp19
 70
     1
102
RTVSPropertyOp20
 70
     1
102
RTVSPropertyOp21
 70
     1
102
RTVSPropertyOp22
 70
     1
102
RTVSPropertyOp23
 70
     1
102
RTVSPropertyOp24
 70
     1
102
RTVSPropertyOp25
 70
     1
102
RTVSPropertyOp26
 70
     1
102
RTVSPropertyOp27
 70
     1
102
RTVSPropertyOp28
 70
     1
102
RTVSPropertyOp29
 70
     1
102
RTVSPropertyOp30
 70
     1
102
RTVSPropertyOp31
 70
     1
102
RTVSPropertyOp32
 70
     1
102
RTVSPropertyOp33
 70
     1
102
RTVSPropertyOp34
 70
     1
102
RTVSPropertyOp35
 70
     1
102
RTVSPropertyOp36
 70
     1
102
RTVSPropertyOp37
 70
     1
102
RTVSPropertyOp38
 70
     1
102
RTVSPropertyOp39
 70
     1
102
RTVSPropertyOp40
 70
     1
102
RTVSPropertyOp41
 70
     1
102
RTVSPropertyOp42
 70
     1
102
RTVSPropertyOp43
 70
     1
102
RTVSPropertyOp44
 70
     1
102
RTVSPropertyOp45
 70
     1
102
RTVSPropertyOp46
 70
     1
102
RTVSPropertyOp47
 70
     1
102
RTVSPropertyOp48
 70
     1
102
RTVSPropertyOp49
 70
     1
102
RTVSPropertyOp50
 70
     1
102
RTVSPropertyOp51
 70
     0
102
RTVSPropertyOp52
 70
     0
102
RTVSPropertyOp53
 70
     1
102
RTVSPropertyOp54
 70
     1
102
RTVSPropertyOp55
 70
     1
102
RTVSPropertyOp56
 70
     1
102
RTVSPropertyOp57
 70
     1
102
RTVSPropertyOp58
 70
     1
102
RTVSPropertyOp59
 70
     1
102
RTVSPropertyOp60
 70
     1
102
RTVSPropertyOp61
 70
     1
102
RTVSPropertyOp62
 70
     1
  0
XRECORD
  5
1624
102
{ACAD_REACTORS
330
1623
102
}
330
1623
100
AcDbXrecord
280
     1
102
RTVSPost2010Prop28
280
     0
102
RTVSPost2010PropOp28
 70
     1
102
RTVSPost2010Prop29
280
     1
102
RTVSPost2010PropOp29
 70
     1
102
RTVSPost2010Prop30
280
     1
102
RTVSPost2010PropOp30
 70
     1
102
RTVSPost2010Prop31
280
     0
102
RTVSPost2010PropOp31
 70
     1
102
RTVSPost2010Prop32
280
     0
102
RTVSPost2010PropOp32
 70
     1
102
RTVSPost2010Prop33
280
     0
102
RTVSPost2010PropOp33
 70
     1
102
RTVSPost2010Prop34
280
     0
102
RTVSPost2010PropOp34
 70
     1
102
RTVSPost2010Prop35
280
     0
102
RTVSPost2010PropOp35
 70
     1
102
RTVSPost2010Prop36
280
     0
102
RTVSPost2010PropOp36
 70
     1
102
RTVSPost2010Prop37
 90
       50
102
RTVSPost2010PropOp37
 70
     1
102
RTVSPost2010Prop38
140
0.0
102
RTVSPost2010PropOp38
 70
     1
102
RTVSPost2010Prop39
140
1.0
102
RTVSPost2010PropOp39
 70
     1
102
RTVSPost2010Prop40
 90
        0
102
RTVSPost2010PropOp40
 70
     1
102
RTVSPost2010Prop41ColorIndex
 90
       18
102
RTVSPost2010Prop41ColorRGB
 90
        0
102
RTVSPost2010PropOp41
 70
     1
102
RTVSPost2010Prop42
 90
       50
102
RTVSPost2010PropOp42
 70
     1
102
RTVSPost2010Prop43
 90
        3
102
RTVSPost2010PropOp43
 70
     1
102
RTVSPost2010Prop44ColorIndex
 90
        5
102
RTVSPost2010Prop44ColorRGB
 90
      255
102
RTVSPost2010PropOp44
 70
     1
102
RTVSPost2010Prop45
280
     0
102
RTVSPost2010PropOp45
 70
     1
102
RTVSPost2010Prop46
 90
       50
102
RTVSPost2010PropOp46
 70
     1
102
RTVSPost2010Prop47
 90
       50
102
RTVSPost2010PropOp47
 70
     1
102
RTVSPost2010Prop48
 90
       50
102
RTVSPost2010PropOp48
 70
     1
102
RTVSPost2010Prop49
280
     0
102
RTVSPost2010PropOp49
 70
     1
102
RTVSPost2010Prop50
 90
       50
102
RTVSPost2010PropOp50
 70
     1
102
RTVSPost2010Prop51ColorIndex
 90
      256
102
RTVSPost2010Prop51ColorRGB
 90
-16777216
102
RTVSPost2010PropOp51
 70
     0
102
RTVSPost2010Prop52
140
1.0
102
RTVSPost2010PropOp52
 70
     0
102
RTVSPost2010Prop53
 90
        2
102
RTVSPost2010PropOp53
 70
     1
102
RTVSPost2010Prop54
  1
strokes_ogs.tif
102
RTVSPost2010PropOp54
 70
     1
102
RTVSPost2010Prop55
280
     0
102
RTVSPost2010PropOp55
 70
     1
102
RTVSPost2010Prop56
140
1.0
102
RTVSPost2010PropOp56
 70
     1
102
RTVSPost2010Prop57
140
1.0
102
RTVSPost2010PropOp57
 70
     1
102
RTVSPropertyOp0
 70
     1
102
RTVSPropertyOp1
 70
     1
102
RTVSPropertyOp2
 70
     1
102
RTVSPropertyOp3
 70
     1
102
RTVSPropertyOp4
 70
     1
102
RTVSPropertyOp5
 70
     1
102
RTVSPropertyOp6
 70
     1
102
RTVSPropertyOp7
 70
     1
102
RTVSPropertyOp8
 70
     1
102
RTVSPropertyOp9
 70
     1
102
RTVSPropertyOp10
 70
     1
102
RTVSPropertyOp11
 70
     1
102
RTVSPropertyOp12
 70
     1
102
RTVSPropertyOp13
 70
     1
102
RTVSPropertyOp14
 70
     1
102
RTVSPropertyOp15
 70
     1
102
RTVSPropertyOp16
 70
     1
102
RTVSPropertyOp17
 70
     1
102
RTVSPropertyOp18
 70
     1
102
RTVSPropertyOp19
 70
     1
102
RTVSPropertyOp20
 70
     1
102
RTVSPropertyOp21
 70
     1
102
RTVSPropertyOp22
 70
     1
102
RTVSPropertyOp23
 70
     1
102
RTVSPropertyOp24
 70
     1
102
RTVSPropertyOp25
 70
     1
102
RTVSPropertyOp26
 70
     1
102
RTVSPropertyOp27
 70
     1
102
RTVSPropertyOp28
 70
     1
102
RTVSPropertyOp29
 70
     1
102
RTVSPropertyOp30
 70
     1
102
RTVSPropertyOp31
 70
     1
102
RTVSPropertyOp32
 70
     1
102
RTVSPropertyOp33
 70
     1
102
RTVSPropertyOp34
 70
     1
102
RTVSPropertyOp35
 70
     1
102
RTVSPropertyOp36
 70
     1
102
RTVSPropertyOp37
 70
     1
102
RTVSPropertyOp38
 70
     1
102
RTVSPropertyOp39
 70
     1
102
RTVSPropertyOp40
 70
     1
102
RTVSPropertyOp41
 70
     1
102
RTVSPropertyOp42
 70
     1
102
RTVSPropertyOp43
 70
     1
102
RTVSPropertyOp44
 70
     1
102
RTVSPropertyOp45
 70
     1
102
RTVSPropertyOp46
 70
     1
102
RTVSPropertyOp47
 70
     1
102
RTVSPropertyOp48
 70
     1
102
RTVSPropertyOp49
 70
     1
102
RTVSPropertyOp50
 70
     1
102
RTVSPropertyOp51
 70
     0
102
RTVSPropertyOp52
 70
     0
102
RTVSPropertyOp53
 70
     1
102
RTVSPropertyOp54
 70
     1
102
RTVSPropertyOp55
 70
     1
102
RTVSPropertyOp56
 70
     1
102
RTVSPropertyOp57
 70
     1
102
RTVSPropertyOp58
 70
     1
102
RTVSPropertyOp59
 70
     1
102
RTVSPropertyOp60
 70
     1
102
RTVSPropertyOp61
 70
     1
102
RTVSPropertyOp62
 70
     1
  0
XRECORD
  5
1626
102
{ACAD_REACTORS
330
1625
102
}
330
1625
100
AcDbXrecord
280
     1
102
RTVSPost2010Prop28
280
     0
102
RTVSPost2010PropOp28
 70
     1
102
RTVSPost2010Prop29
280
     1
102
RTVSPost2010PropOp29
 70
     1
102
RTVSPost2010Prop30
280
     1
102
RTVSPost2010PropOp30
 70
     1
102
RTVSPost2010Prop31
280
     0
102
RTVSPost2010PropOp31
 70
     1
102
RTVSPost2010Prop32
280
     0
102
RTVSPost2010PropOp32
 70
     1
102
RTVSPost2010Prop33
280
     0
102
RTVSPost2010PropOp33
 70
     1
102
RTVSPost2010Prop34
280
     0
102
RTVSPost2010PropOp34
 70
     1
102
RTVSPost2010Prop35
280
     0
102
RTVSPost2010PropOp35
 70
     1
102
RTVSPost2010Prop36
280
     0
102
RTVSPost2010PropOp36
 70
     1
102
RTVSPost2010Prop37
 90
       50
102
RTVSPost2010PropOp37
 70
     1
102
RTVSPost2010Prop38
140
0.0
102
RTVSPost2010PropOp38
 70
     1
102
RTVSPost2010Prop39
140
1.0
102
RTVSPost2010PropOp39
 70
     1
102
RTVSPost2010Prop40
 90
        0
102
RTVSPost2010PropOp40
 70
     1
102
RTVSPost2010Prop41ColorIndex
 90
       18
102
RTVSPost2010Prop41ColorRGB
 90
        0
102
RTVSPost2010PropOp41
 70
     1
102
RTVSPost2010Prop42
 90
       50
102
RTVSPost2010PropOp42
 70
     1
102
RTVSPost2010Prop43
 90
        3
102
RTVSPost2010PropOp43
 70
     1
102
RTVSPost2010Prop44ColorIndex
 90
        5
102
RTVSPost2010Prop44ColorRGB
 90
      255
102
RTVSPost2010PropOp44
 70
     1
102
RTVSPost2010Prop45
280
     0
102
RTVSPost2010PropOp45
 70
     1
102
RTVSPost2010Prop46
 90
       50
102
RTVSPost2010PropOp46
 70
     1
102
RTVSPost2010Prop47
 90
       50
102
RTVSPost2010PropOp47
 70
     1
102
RTVSPost2010Prop48
 90
       50
102
RTVSPost2010PropOp48
 70
     1
102
RTVSPost2010Prop49
280
     0
102
RTVSPost2010PropOp49
 70
     1
102
RTVSPost2010Prop50
 90
       50
102
RTVSPost2010PropOp50
 70
     1
102
RTVSPost2010Prop51ColorIndex
 90
      256
102
RTVSPost2010Prop51ColorRGB
 90
-16777216
102
RTVSPost2010PropOp51
 70
     0
102
RTVSPost2010Prop52
140
1.0
102
RTVSPost2010PropOp52
 70
     0
102
RTVSPost2010Prop53
 90
        2
102
RTVSPost2010PropOp53
 70
     1
102
RTVSPost2010Prop54
  1
strokes_ogs.tif
102
RTVSPost2010PropOp54
 70
     1
102
RTVSPost2010Prop55
280
     0
102
RTVSPost2010PropOp55
 70
     1
102
RTVSPost2010Prop56
140
1.0
102
RTVSPost2010PropOp56
 70
     1
102
RTVSPost2010Prop57
140
1.0
102
RTVSPost2010PropOp57
 70
     1
102
RTVSPropertyOp0
 70
     1
102
RTVSPropertyOp1
 70
     1
102
RTVSPropertyOp2
 70
     1
102
RTVSPropertyOp3
 70
     1
102
RTVSPropertyOp4
 70
     1
102
RTVSPropertyOp5
 70
     1
102
RTVSPropertyOp6
 70
     1
102
RTVSPropertyOp7
 70
     1
102
RTVSPropertyOp8
 70
     1
102
RTVSPropertyOp9
 70
     1
102
RTVSPropertyOp10
 70
     1
102
RTVSPropertyOp11
 70
     1
102
RTVSPropertyOp12
 70
     1
102
RTVSPropertyOp13
 70
     1
102
RTVSPropertyOp14
 70
     1
102
RTVSPropertyOp15
 70
     1
102
RTVSPropertyOp16
 70
     1
102
RTVSPropertyOp17
 70
     1
102
RTVSPropertyOp18
 70
     1
102
RTVSPropertyOp19
 70
     1
102
RTVSPropertyOp20
 70
     1
102
RTVSPropertyOp21
 70
     1
102
RTVSPropertyOp22
 70
     1
102
RTVSPropertyOp23
 70
     1
102
RTVSPropertyOp24
 70
     1
102
RTVSPropertyOp25
 70
     1
102
RTVSPropertyOp26
 70
     1
102
RTVSPropertyOp27
 70
     1
102
RTVSPropertyOp28
 70
     1
102
RTVSPropertyOp29
 70
     1
102
RTVSPropertyOp30
 70
     1
102
RTVSPropertyOp31
 70
     1
102
RTVSPropertyOp32
 70
     1
102
RTVSPropertyOp33
 70
     1
102
RTVSPropertyOp34
 70
     1
102
RTVSPropertyOp35
 70
     1
102
RTVSPropertyOp36
 70
     1
102
RTVSPropertyOp37
 70
     1
102
RTVSPropertyOp38
 70
     1
102
RTVSPropertyOp39
 70
     1
102
RTVSPropertyOp40
 70
     1
102
RTVSPropertyOp41
 70
     1
102
RTVSPropertyOp42
 70
     1
102
RTVSPropertyOp43
 70
     1
102
RTVSPropertyOp44
 70
     1
102
RTVSPropertyOp45
 70
     1
102
RTVSPropertyOp46
 70
     1
102
RTVSPropertyOp47
 70
     1
102
RTVSPropertyOp48
 70
     1
102
RTVSPropertyOp49
 70
     1
102
RTVSPropertyOp50
 70
     1
102
RTVSPropertyOp51
 70
     0
102
RTVSPropertyOp52
 70
     0
102
RTVSPropertyOp53
 70
     1
102
RTVSPropertyOp54
 70
     1
102
RTVSPropertyOp55
 70
     1
102
RTVSPropertyOp56
 70
     1
102
RTVSPropertyOp57
 70
     1
102
RTVSPropertyOp58
 70
     1
102
RTVSPropertyOp59
 70
     1
102
RTVSPropertyOp60
 70
     1
102
RTVSPropertyOp61
 70
     1
102
RTVSPropertyOp62
 70
     1
  0
XRECORD
  5
1628
102
{ACAD_REACTORS
330
1627
102
}
330
1627
100
AcDbXrecord
280
     1
102
RTVSPost2010Prop28
280
     0
102
RTVSPost2010PropOp28
 70
     1
102
RTVSPost2010Prop29
280
     1
102
RTVSPost2010PropOp29
 70
     1
102
RTVSPost2010Prop30
280
     1
102
RTVSPost2010PropOp30
 70
     1
102
RTVSPost2010Prop31
280
     0
102
RTVSPost2010PropOp31
 70
     1
102
RTVSPost2010Prop32
280
     0
102
RTVSPost2010PropOp32
 70
     1
102
RTVSPost2010Prop33
280
     0
102
RTVSPost2010PropOp33
 70
     1
102
RTVSPost2010Prop34
280
     0
102
RTVSPost2010PropOp34
 70
     1
102
RTVSPost2010Prop35
280
     0
102
RTVSPost2010PropOp35
 70
     1
102
RTVSPost2010Prop36
280
     0
102
RTVSPost2010PropOp36
 70
     1
102
RTVSPost2010Prop37
 90
       50
102
RTVSPost2010PropOp37
 70
     1
102
RTVSPost2010Prop38
140
0.0
102
RTVSPost2010PropOp38
 70
     1
102
RTVSPost2010Prop39
140
1.0
102
RTVSPost2010PropOp39
 70
     1
102
RTVSPost2010Prop40
 90
        0
102
RTVSPost2010PropOp40
 70
     1
102
RTVSPost2010Prop41ColorIndex
 90
       18
102
RTVSPost2010Prop41ColorRGB
 90
        0
102
RTVSPost2010PropOp41
 70
     1
102
RTVSPost2010Prop42
 90
       50
102
RTVSPost2010PropOp42
 70
     1
102
RTVSPost2010Prop43
 90
        3
102
RTVSPost2010PropOp43
 70
     1
102
RTVSPost2010Prop44ColorIndex
 90
        5
102
RTVSPost2010Prop44ColorRGB
 90
      255
102
RTVSPost2010PropOp44
 70
     1
102
RTVSPost2010Prop45
280
     0
102
RTVSPost2010PropOp45
 70
     1
102
RTVSPost2010Prop46
 90
       50
102
RTVSPost2010PropOp46
 70
     1
102
RTVSPost2010Prop47
 90
       50
102
RTVSPost2010PropOp47
 70
     1
102
RTVSPost2010Prop48
 90
       50
102
RTVSPost2010PropOp48
 70
     1
102
RTVSPost2010Prop49
280
     0
102
RTVSPost2010PropOp49
 70
     1
102
RTVSPost2010Prop50
 90
       50
102
RTVSPost2010PropOp50
 70
     1
102
RTVSPost2010Prop51ColorIndex
 90
      256
102
RTVSPost2010Prop51ColorRGB
 90
-16777216
102
RTVSPost2010PropOp51
 70
     0
102
RTVSPost2010Prop52
140
1.0
102
RTVSPost2010PropOp52
 70
     0
102
RTVSPost2010Prop53
 90
        2
102
RTVSPost2010PropOp53
 70
     1
102
RTVSPost2010Prop54
  1
strokes_ogs.tif
102
RTVSPost2010PropOp54
 70
     1
102
RTVSPost2010Prop55
280
     0
102
RTVSPost2010PropOp55
 70
     1
102
RTVSPost2010Prop56
140
1.0
102
RTVSPost2010PropOp56
 70
     1
102
RTVSPost2010Prop57
140
1.0
102
RTVSPost2010PropOp57
 70
     1
102
RTVSPropertyOp0
 70
     1
102
RTVSPropertyOp1
 70
     1
102
RTVSPropertyOp2
 70
     1
102
RTVSPropertyOp3
 70
     1
102
RTVSPropertyOp4
 70
     1
102
RTVSPropertyOp5
 70
     1
102
RTVSPropertyOp6
 70
     1
102
RTVSPropertyOp7
 70
     1
102
RTVSPropertyOp8
 70
     1
102
RTVSPropertyOp9
 70
     1
102
RTVSPropertyOp10
 70
     1
102
RTVSPropertyOp11
 70
     1
102
RTVSPropertyOp12
 70
     1
102
RTVSPropertyOp13
 70
     1
102
RTVSPropertyOp14
 70
     1
102
RTVSPropertyOp15
 70
     1
102
RTVSPropertyOp16
 70
     1
102
RTVSPropertyOp17
 70
     1
102
RTVSPropertyOp18
 70
     1
102
RTVSPropertyOp19
 70
     1
102
RTVSPropertyOp20
 70
     1
102
RTVSPropertyOp21
 70
     1
102
RTVSPropertyOp22
 70
     1
102
RTVSPropertyOp23
 70
     1
102
RTVSPropertyOp24
 70
     1
102
RTVSPropertyOp25
 70
     1
102
RTVSPropertyOp26
 70
     1
102
RTVSPropertyOp27
 70
     1
102
RTVSPropertyOp28
 70
     1
102
RTVSPropertyOp29
 70
     1
102
RTVSPropertyOp30
 70
     1
102
RTVSPropertyOp31
 70
     1
102
RTVSPropertyOp32
 70
     1
102
RTVSPropertyOp33
 70
     1
102
RTVSPropertyOp34
 70
     1
102
RTVSPropertyOp35
 70
     1
102
RTVSPropertyOp36
 70
     1
102
RTVSPropertyOp37
 70
     1
102
RTVSPropertyOp38
 70
     1
102
RTVSPropertyOp39
 70
     1
102
RTVSPropertyOp40
 70
     1
102
RTVSPropertyOp41
 70
     1
102
RTVSPropertyOp42
 70
     1
102
RTVSPropertyOp43
 70
     1
102
RTVSPropertyOp44
 70
     1
102
RTVSPropertyOp45
 70
     1
102
RTVSPropertyOp46
 70
     1
102
RTVSPropertyOp47
 70
     1
102
RTVSPropertyOp48
 70
     1
102
RTVSPropertyOp49
 70
     1
102
RTVSPropertyOp50
 70
     1
102
RTVSPropertyOp51
 70
     0
102
RTVSPropertyOp52
 70
     0
102
RTVSPropertyOp53
 70
     1
102
RTVSPropertyOp54
 70
     1
102
RTVSPropertyOp55
 70
     1
102
RTVSPropertyOp56
 70
     1
102
RTVSPropertyOp57
 70
     1
102
RTVSPropertyOp58
 70
     1
102
RTVSPropertyOp59
 70
     1
102
RTVSPropertyOp60
 70
     1
102
RTVSPropertyOp61
 70
     1
102
RTVSPropertyOp62
 70
     1
  0
XRECORD
  5
162A
102
{ACAD_REACTORS
330
1629
102
}
330
1629
100
AcDbXrecord
280
     1
102
RTVSPost2010Prop28
280
     0
102
RTVSPost2010PropOp28
 70
     1
102
RTVSPost2010Prop29
280
     1
102
RTVSPost2010PropOp29
 70
     1
102
RTVSPost2010Prop30
280
     1
102
RTVSPost2010PropOp30
 70
     1
102
RTVSPost2010Prop31
280
     0
102
RTVSPost2010PropOp31
 70
     1
102
RTVSPost2010Prop32
280
     0
102
RTVSPost2010PropOp32
 70
     1
102
RTVSPost2010Prop33
280
     0
102
RTVSPost2010PropOp33
 70
     1
102
RTVSPost2010Prop34
280
     0
102
RTVSPost2010PropOp34
 70
     1
102
RTVSPost2010Prop35
280
     0
102
RTVSPost2010PropOp35
 70
     1
102
RTVSPost2010Prop36
280
     0
102
RTVSPost2010PropOp36
 70
     1
102
RTVSPost2010Prop37
 90
       50
102
RTVSPost2010PropOp37
 70
     1
102
RTVSPost2010Prop38
140
0.0
102
RTVSPost2010PropOp38
 70
     1
102
RTVSPost2010Prop39
140
1.0
102
RTVSPost2010PropOp39
 70
     1
102
RTVSPost2010Prop40
 90
        0
102
RTVSPost2010PropOp40
 70
     1
102
RTVSPost2010Prop41ColorIndex
 90
       18
102
RTVSPost2010Prop41ColorRGB
 90
        0
102
RTVSPost2010PropOp41
 70
     1
102
RTVSPost2010Prop42
 90
       50
102
RTVSPost2010PropOp42
 70
     1
102
RTVSPost2010Prop43
 90
        3
102
RTVSPost2010PropOp43
 70
     1
102
RTVSPost2010Prop44ColorIndex
 90
        5
102
RTVSPost2010Prop44ColorRGB
 90
      255
102
RTVSPost2010PropOp44
 70
     1
102
RTVSPost2010Prop45
280
     0
102
RTVSPost2010PropOp45
 70
     1
102
RTVSPost2010Prop46
 90
       50
102
RTVSPost2010PropOp46
 70
     1
102
RTVSPost2010Prop47
 90
       50
102
RTVSPost2010PropOp47
 70
     1
102
RTVSPost2010Prop48
 90
       50
102
RTVSPost2010PropOp48
 70
     1
102
RTVSPost2010Prop49
280
     0
102
RTVSPost2010PropOp49
 70
     1
102
RTVSPost2010Prop50
 90
       50
102
RTVSPost2010PropOp50
 70
     1
102
RTVSPost2010Prop51ColorIndex
 90
      256
102
RTVSPost2010Prop51ColorRGB
 90
-16777216
102
RTVSPost2010PropOp51
 70
     0
102
RTVSPost2010Prop52
140
1.0
102
RTVSPost2010PropOp52
 70
     0
102
RTVSPost2010Prop53
 90
        2
102
RTVSPost2010PropOp53
 70
     1
102
RTVSPost2010Prop54
  1
strokes_ogs.tif
102
RTVSPost2010PropOp54
 70
     1
102
RTVSPost2010Prop55
280
     0
102
RTVSPost2010PropOp55
 70
     1
102
RTVSPost2010Prop56
140
1.0
102
RTVSPost2010PropOp56
 70
     1
102
RTVSPost2010Prop57
140
1.0
102
RTVSPost2010PropOp57
 70
     1
102
RTVSPropertyOp0
 70
     1
102
RTVSPropertyOp1
 70
     1
102
RTVSPropertyOp2
 70
     1
102
RTVSPropertyOp3
 70
     1
102
RTVSPropertyOp4
 70
     1
102
RTVSPropertyOp5
 70
     1
102
RTVSPropertyOp6
 70
     1
102
RTVSPropertyOp7
 70
     1
102
RTVSPropertyOp8
 70
     1
102
RTVSPropertyOp9
 70
     1
102
RTVSPropertyOp10
 70
     1
102
RTVSPropertyOp11
 70
     1
102
RTVSPropertyOp12
 70
     1
102
RTVSPropertyOp13
 70
     1
102
RTVSPropertyOp14
 70
     1
102
RTVSPropertyOp15
 70
     1
102
RTVSPropertyOp16
 70
     1
102
RTVSPropertyOp17
 70
     1
102
RTVSPropertyOp18
 70
     1
102
RTVSPropertyOp19
 70
     1
102
RTVSPropertyOp20
 70
     1
102
RTVSPropertyOp21
 70
     1
102
RTVSPropertyOp22
 70
     1
102
RTVSPropertyOp23
 70
     1
102
RTVSPropertyOp24
 70
     1
102
RTVSPropertyOp25
 70
     1
102
RTVSPropertyOp26
 70
     1
102
RTVSPropertyOp27
 70
     1
102
RTVSPropertyOp28
 70
     1
102
RTVSPropertyOp29
 70
     1
102
RTVSPropertyOp30
 70
     1
102
RTVSPropertyOp31
 70
     1
102
RTVSPropertyOp32
 70
     1
102
RTVSPropertyOp33
 70
     1
102
RTVSPropertyOp34
 70
     1
102
RTVSPropertyOp35
 70
     1
102
RTVSPropertyOp36
 70
     1
102
RTVSPropertyOp37
 70
     1
102
RTVSPropertyOp38
 70
     1
102
RTVSPropertyOp39
 70
     1
102
RTVSPropertyOp40
 70
     1
102
RTVSPropertyOp41
 70
     1
102
RTVSPropertyOp42
 70
     1
102
RTVSPropertyOp43
 70
     1
102
RTVSPropertyOp44
 70
     1
102
RTVSPropertyOp45
 70
     1
102
RTVSPropertyOp46
 70
     1
102
RTVSPropertyOp47
 70
     1
102
RTVSPropertyOp48
 70
     1
102
RTVSPropertyOp49
 70
     1
102
RTVSPropertyOp50
 70
     1
102
RTVSPropertyOp51
 70
     0
102
RTVSPropertyOp52
 70
     0
102
RTVSPropertyOp53
 70
     1
102
RTVSPropertyOp54
 70
     1
102
RTVSPropertyOp55
 70
     1
102
RTVSPropertyOp56
 70
     1
102
RTVSPropertyOp57
 70
     1
102
RTVSPropertyOp58
 70
     1
102
RTVSPropertyOp59
 70
     1
102
RTVSPropertyOp60
 70
     1
102
RTVSPropertyOp61
 70
     1
102
RTVSPropertyOp62
 70
     1
  0
XRECORD
  5
1632
102
{ACAD_REACTORS
330
1631
102
}
330
1631
100
AcDbXrecord
280
     1
102
RTVSPost2010Prop28
280
     0
102
RTVSPost2010PropOp28
 70
     1
102
RTVSPost2010Prop29
280
     1
102
RTVSPost2010PropOp29
 70
     1
102
RTVSPost2010Prop30
280
     1
102
RTVSPost2010PropOp30
 70
     1
102
RTVSPost2010Prop31
280
     0
102
RTVSPost2010PropOp31
 70
     1
102
RTVSPost2010Prop32
280
     0
102
RTVSPost2010PropOp32
 70
     1
102
RTVSPost2010Prop33
280
     0
102
RTVSPost2010PropOp33
 70
     1
102
RTVSPost2010Prop34
280
     0
102
RTVSPost2010PropOp34
 70
     1
102
RTVSPost2010Prop35
280
     0
102
RTVSPost2010PropOp35
 70
     1
102
RTVSPost2010Prop36
280
     0
102
RTVSPost2010PropOp36
 70
     1
102
RTVSPost2010Prop37
 90
       50
102
RTVSPost2010PropOp37
 70
     1
102
RTVSPost2010Prop38
140
0.0
102
RTVSPost2010PropOp38
 70
     1
102
RTVSPost2010Prop39
140
1.0
102
RTVSPost2010PropOp39
 70
     1
102
RTVSPost2010Prop40
 90
        0
102
RTVSPost2010PropOp40
 70
     1
102
RTVSPost2010Prop41ColorIndex
 90
       18
102
RTVSPost2010Prop41ColorRGB
 90
        0
102
RTVSPost2010PropOp41
 70
     1
102
RTVSPost2010Prop42
 90
       50
102
RTVSPost2010PropOp42
 70
     1
102
RTVSPost2010Prop43
 90
        3
102
RTVSPost2010PropOp43
 70
     1
102
RTVSPost2010Prop44ColorIndex
 90
        5
102
RTVSPost2010Prop44ColorRGB
 90
      255
102
RTVSPost2010PropOp44
 70
     1
102
RTVSPost2010Prop45
280
     0
102
RTVSPost2010PropOp45
 70
     1
102
RTVSPost2010Prop46
 90
       50
102
RTVSPost2010PropOp46
 70
     1
102
RTVSPost2010Prop47
 90
       50
102
RTVSPost2010PropOp47
 70
     1
102
RTVSPost2010Prop48
 90
       50
102
RTVSPost2010PropOp48
 70
     1
102
RTVSPost2010Prop49
280
     0
102
RTVSPost2010PropOp49
 70
     1
102
RTVSPost2010Prop50
 90
       50
102
RTVSPost2010PropOp50
 70
     1
102
RTVSPost2010Prop51ColorIndex
 90
      256
102
RTVSPost2010Prop51ColorRGB
 90
-16777216
102
RTVSPost2010PropOp51
 70
     0
102
RTVSPost2010Prop52
140
1.0
102
RTVSPost2010PropOp52
 70
     0
102
RTVSPost2010Prop53
 90
        2
102
RTVSPost2010PropOp53
 70
     1
102
RTVSPost2010Prop54
  1
strokes_ogs.tif
102
RTVSPost2010PropOp54
 70
     1
102
RTVSPost2010Prop55
280
     0
102
RTVSPost2010PropOp55
 70
     1
102
RTVSPost2010Prop56
140
1.0
102
RTVSPost2010PropOp56
 70
     1
102
RTVSPost2010Prop57
140
1.0
102
RTVSPost2010PropOp57
 70
     1
102
RTVSPropertyOp0
 70
     1
102
RTVSPropertyOp1
 70
     1
102
RTVSPropertyOp2
 70
     1
102
RTVSPropertyOp3
 70
     1
102
RTVSPropertyOp4
 70
     1
102
RTVSPropertyOp5
 70
     1
102
RTVSPropertyOp6
 70
     1
102
RTVSPropertyOp7
 70
     1
102
RTVSPropertyOp8
 70
     1
102
RTVSPropertyOp9
 70
     1
102
RTVSPropertyOp10
 70
     1
102
RTVSPropertyOp11
 70
     1
102
RTVSPropertyOp12
 70
     1
102
RTVSPropertyOp13
 70
     1
102
RTVSPropertyOp14
 70
     1
102
RTVSPropertyOp15
 70
     1
102
RTVSPropertyOp16
 70
     1
102
RTVSPropertyOp17
 70
     1
102
RTVSPropertyOp18
 70
     1
102
RTVSPropertyOp19
 70
     1
102
RTVSPropertyOp20
 70
     1
102
RTVSPropertyOp21
 70
     1
102
RTVSPropertyOp22
 70
     1
102
RTVSPropertyOp23
 70
     1
102
RTVSPropertyOp24
 70
     1
102
RTVSPropertyOp25
 70
     1
102
RTVSPropertyOp26
 70
     1
102
RTVSPropertyOp27
 70
     1
102
RTVSPropertyOp28
 70
     1
102
RTVSPropertyOp29
 70
     1
102
RTVSPropertyOp30
 70
     1
102
RTVSPropertyOp31
 70
     1
102
RTVSPropertyOp32
 70
     1
102
RTVSPropertyOp33
 70
     1
102
RTVSPropertyOp34
 70
     1
102
RTVSPropertyOp35
 70
     1
102
RTVSPropertyOp36
 70
     1
102
RTVSPropertyOp37
 70
     1
102
RTVSPropertyOp38
 70
     1
102
RTVSPropertyOp39
 70
     1
102
RTVSPropertyOp40
 70
     1
102
RTVSPropertyOp41
 70
     1
102
RTVSPropertyOp42
 70
     1
102
RTVSPropertyOp43
 70
     1
102
RTVSPropertyOp44
 70
     1
102
RTVSPropertyOp45
 70
     1
102
RTVSPropertyOp46
 70
     1
102
RTVSPropertyOp47
 70
     1
102
RTVSPropertyOp48
 70
     1
102
RTVSPropertyOp49
 70
     1
102
RTVSPropertyOp50
 70
     1
102
RTVSPropertyOp51
 70
     0
102
RTVSPropertyOp52
 70
     0
102
RTVSPropertyOp53
 70
     1
102
RTVSPropertyOp54
 70
     1
102
RTVSPropertyOp55
 70
     1
102
RTVSPropertyOp56
 70
     1
102
RTVSPropertyOp57
 70
     1
102
RTVSPropertyOp58
 70
     1
102
RTVSPropertyOp59
 70
     1
102
RTVSPropertyOp60
 70
     1
102
RTVSPropertyOp61
 70
     1
102
RTVSPropertyOp62
 70
     1
  0
XRECORD
  5
164E
102
{ACAD_REACTORS
330
164D
102
}
330
164D
100
AcDbXrecord
280
     1
102
RTVSPost2010Prop28
280
     0
102
RTVSPost2010PropOp28
 70
     1
102
RTVSPost2010Prop29
280
     1
102
RTVSPost2010PropOp29
 70
     1
102
RTVSPost2010Prop30
280
     1
102
RTVSPost2010PropOp30
 70
     1
102
RTVSPost2010Prop31
280
     0
102
RTVSPost2010PropOp31
 70
     1
102
RTVSPost2010Prop32
280
     0
102
RTVSPost2010PropOp32
 70
     1
102
RTVSPost2010Prop33
280
     0
102
RTVSPost2010PropOp33
 70
     1
102
RTVSPost2010Prop34
280
     0
102
RTVSPost2010PropOp34
 70
     1
102
RTVSPost2010Prop35
280
     0
102
RTVSPost2010PropOp35
 70
     1
102
RTVSPost2010Prop36
280
     0
102
RTVSPost2010PropOp36
 70
     1
102
RTVSPost2010Prop37
 90
       50
102
RTVSPost2010PropOp37
 70
     0
102
RTVSPost2010Prop38
140
0.0
102
RTVSPost2010PropOp38
 70
     0
102
RTVSPost2010Prop39
140
1.0
102
RTVSPost2010PropOp39
 70
     0
102
RTVSPost2010Prop40
 90
        0
102
RTVSPost2010PropOp40
 70
     0
102
RTVSPost2010Prop41ColorIndex
 90
       18
102
RTVSPost2010Prop41ColorRGB
 90
        0
102
RTVSPost2010PropOp41
 70
     0
102
RTVSPost2010Prop42
 90
       50
102
RTVSPost2010PropOp42
 70
     0
102
RTVSPost2010Prop43
 90
        3
102
RTVSPost2010PropOp43
 70
     0
102
RTVSPost2010Prop44ColorIndex
 90
        5
102
RTVSPost2010Prop44ColorRGB
 90
      255
102
RTVSPost2010PropOp44
 70
     0
102
RTVSPost2010Prop45
280
     0
102
RTVSPost2010PropOp45
 70
     1
102
RTVSPost2010Prop46
 90
       50
102
RTVSPost2010PropOp46
 70
     0
102
RTVSPost2010Prop47
 90
       50
102
RTVSPost2010PropOp47
 70
     0
102
RTVSPost2010Prop48
 90
       50
102
RTVSPost2010PropOp48
 70
     0
102
RTVSPost2010Prop49
280
     0
102
RTVSPost2010PropOp49
 70
     1
102
RTVSPost2010Prop50
 90
       50
102
RTVSPost2010PropOp50
 70
     0
102
RTVSPost2010Prop51ColorIndex
 90
      256
102
RTVSPost2010Prop51ColorRGB
 90
-16777216
102
RTVSPost2010PropOp51
 70
     0
102
RTVSPost2010Prop52
140
1.0
102
RTVSPost2010PropOp52
 70
     0
102
RTVSPost2010Prop53
 90
        2
102
RTVSPost2010PropOp53
 70
     0
102
RTVSPost2010Prop54
  1
strokes_ogs.tif
102
RTVSPost2010PropOp54
 70
     0
102
RTVSPost2010Prop55
280
     0
102
RTVSPost2010PropOp55
 70
     1
102
RTVSPost2010Prop56
140
1.0
102
RTVSPost2010PropOp56
 70
     0
102
RTVSPost2010Prop57
140
1.0
102
RTVSPost2010PropOp57
 70
     0
102
RTVSPropertyOp0
 70
     0
102
RTVSPropertyOp1
 70
     0
102
RTVSPropertyOp2
 70
     0
102
RTVSPropertyOp3
 70
     0
102
RTVSPropertyOp4
 70
     0
102
RTVSPropertyOp5
 70
     0
102
RTVSPropertyOp6
 70
     0
102
RTVSPropertyOp7
 70
     0
102
RTVSPropertyOp8
 70
     0
102
RTVSPropertyOp9
 70
     0
102
RTVSPropertyOp10
 70
     0
102
RTVSPropertyOp11
 70
     0
102
RTVSPropertyOp12
 70
     0
102
RTVSPropertyOp13
 70
     0
102
RTVSPropertyOp14
 70
     2
102
RTVSPropertyOp15
 70
     0
102
RTVSPropertyOp16
 70
     0
102
RTVSPropertyOp17
 70
     0
102
RTVSPropertyOp18
 70
     0
102
RTVSPropertyOp19
 70
     0
102
RTVSPropertyOp20
 70
     0
102
RTVSPropertyOp21
 70
     0
102
RTVSPropertyOp22
 70
     0
102
RTVSPropertyOp23
 70
     0
102
RTVSPropertyOp24
 70
     0
102
RTVSPropertyOp25
 70
     0
102
RTVSPropertyOp26
 70
     0
102
RTVSPropertyOp27
 70
     0
102
RTVSPropertyOp28
 70
     1
102
RTVSPropertyOp29
 70
     1
102
RTVSPropertyOp30
 70
     1
102
RTVSPropertyOp31
 70
     1
102
RTVSPropertyOp32
 70
     1
102
RTVSPropertyOp33
 70
     1
102
RTVSPropertyOp34
 70
     1
102
RTVSPropertyOp35
 70
     1
102
RTVSPropertyOp36
 70
     1
102
RTVSPropertyOp37
 70
     0
102
RTVSPropertyOp38
 70
     0
102
RTVSPropertyOp39
 70
     0
102
RTVSPropertyOp40
 70
     0
102
RTVSPropertyOp41
 70
     0
102
RTVSPropertyOp42
 70
     0
102
RTVSPropertyOp43
 70
     0
102
RTVSPropertyOp44
 70
     0
102
RTVSPropertyOp45
 70
     1
102
RTVSPropertyOp46
 70
     0
102
RTVSPropertyOp47
 70
     0
102
RTVSPropertyOp48
 70
     0
102
RTVSPropertyOp49
 70
     1
102
RTVSPropertyOp50
 70
     0
102
RTVSPropertyOp51
 70
     0
102
RTVSPropertyOp52
 70
     0
102
RTVSPropertyOp53
 70
     0
102
RTVSPropertyOp54
 70
     0
102
RTVSPropertyOp55
 70
     1
102
RTVSPropertyOp56
 70
     0
102
RTVSPropertyOp57
 70
     0
102
RTVSPropertyOp58
 70
     0
102
RTVSPropertyOp59
 70
     0
102
RTVSPropertyOp60
 70
     0
102
RTVSPropertyOp61
 70
     0
102
RTVSPropertyOp62
 70
     0
  0
XRECORD
  5
163E
102
{ACAD_REACTORS
330
163D
102
}
330
163D
100
AcDbXrecord
280
     1
102
RTVSPost2010Prop28
280
     0
102
RTVSPost2010PropOp28
 70
     1
102
RTVSPost2010Prop29
280
     1
102
RTVSPost2010PropOp29
 70
     1
102
RTVSPost2010Prop30
280
     1
102
RTVSPost2010PropOp30
 70
     1
102
RTVSPost2010Prop31
280
     0
102
RTVSPost2010PropOp31
 70
     1
102
RTVSPost2010Prop32
280
     0
102
RTVSPost2010PropOp32
 70
     1
102
RTVSPost2010Prop33
280
     0
102
RTVSPost2010PropOp33
 70
     1
102
RTVSPost2010Prop34
280
     0
102
RTVSPost2010PropOp34
 70
     1
102
RTVSPost2010Prop35
280
     0
102
RTVSPost2010PropOp35
 70
     1
102
RTVSPost2010Prop36
280
     0
102
RTVSPost2010PropOp36
 70
     1
102
RTVSPost2010Prop37
 90
       50
102
RTVSPost2010PropOp37
 70
     1
102
RTVSPost2010Prop38
140
0.0
102
RTVSPost2010PropOp38
 70
     1
102
RTVSPost2010Prop39
140
1.0
102
RTVSPost2010PropOp39
 70
     1
102
RTVSPost2010Prop40
 90
        0
102
RTVSPost2010PropOp40
 70
     1
102
RTVSPost2010Prop41ColorIndex
 90
       18
102
RTVSPost2010Prop41ColorRGB
 90
        0
102
RTVSPost2010PropOp41
 70
     1
102
RTVSPost2010Prop42
 90
       50
102
RTVSPost2010PropOp42
 70
     1
102
RTVSPost2010Prop43
 90
        3
102
RTVSPost2010PropOp43
 70
     1
102
RTVSPost2010Prop44ColorIndex
 90
        5
102
RTVSPost2010Prop44ColorRGB
 90
      255
102
RTVSPost2010PropOp44
 70
     1
102
RTVSPost2010Prop45
280
     0
102
RTVSPost2010PropOp45
 70
     1
102
RTVSPost2010Prop46
 90
       50
102
RTVSPost2010PropOp46
 70
     1
102
RTVSPost2010Prop47
 90
       50
102
RTVSPost2010PropOp47
 70
     1
102
RTVSPost2010Prop48
 90
       50
102
RTVSPost2010PropOp48
 70
     1
102
RTVSPost2010Prop49
280
     0
102
RTVSPost2010PropOp49
 70
     1
102
RTVSPost2010Prop50
 90
       50
102
RTVSPost2010PropOp50
 70
     1
102
RTVSPost2010Prop51ColorIndex
 90
      256
102
RTVSPost2010Prop51ColorRGB
 90
-16777216
102
RTVSPost2010PropOp51
 70
     0
102
RTVSPost2010Prop52
140
1.0
102
RTVSPost2010PropOp52
 70
     0
102
RTVSPost2010Prop53
 90
        2
102
RTVSPost2010PropOp53
 70
     1
102
RTVSPost2010Prop54
  1
strokes_ogs.tif
102
RTVSPost2010PropOp54
 70
     1
102
RTVSPost2010Prop55
280
     0
102
RTVSPost2010PropOp55
 70
     1
102
RTVSPost2010Prop56
140
1.0
102
RTVSPost2010PropOp56
 70
     1
102
RTVSPost2010Prop57
140
1.0
102
RTVSPost2010PropOp57
 70
     1
102
RTVSPropertyOp0
 70
     1
102
RTVSPropertyOp1
 70
     1
102
RTVSPropertyOp2
 70
     1
102
RTVSPropertyOp3
 70
     1
102
RTVSPropertyOp4
 70
     1
102
RTVSPropertyOp5
 70
     1
102
RTVSPropertyOp6
 70
     1
102
RTVSPropertyOp7
 70
     1
102
RTVSPropertyOp8
 70
     1
102
RTVSPropertyOp9
 70
     1
102
RTVSPropertyOp10
 70
     1
102
RTVSPropertyOp11
 70
     1
102
RTVSPropertyOp12
 70
     1
102
RTVSPropertyOp13
 70
     1
102
RTVSPropertyOp14
 70
     1
102
RTVSPropertyOp15
 70
     1
102
RTVSPropertyOp16
 70
     1
102
RTVSPropertyOp17
 70
     1
102
RTVSPropertyOp18
 70
     1
102
RTVSPropertyOp19
 70
     1
102
RTVSPropertyOp20
 70
     1
102
RTVSPropertyOp21
 70
     1
102
RTVSPropertyOp22
 70
     1
102
RTVSPropertyOp23
 70
     1
102
RTVSPropertyOp24
 70
     1
102
RTVSPropertyOp25
 70
     1
102
RTVSPropertyOp26
 70
     1
102
RTVSPropertyOp27
 70
     1
102
RTVSPropertyOp28
 70
     1
102
RTVSPropertyOp29
 70
     1
102
RTVSPropertyOp30
 70
     1
102
RTVSPropertyOp31
 70
     1
102
RTVSPropertyOp32
 70
     1
102
RTVSPropertyOp33
 70
     1
102
RTVSPropertyOp34
 70
     1
102
RTVSPropertyOp35
 70
     1
102
RTVSPropertyOp36
 70
     1
102
RTVSPropertyOp37
 70
     1
102
RTVSPropertyOp38
 70
     1
102
RTVSPropertyOp39
 70
     1
102
RTVSPropertyOp40
 70
     1
102
RTVSPropertyOp41
 70
     1
102
RTVSPropertyOp42
 70
     1
102
RTVSPropertyOp43
 70
     1
102
RTVSPropertyOp44
 70
     1
102
RTVSPropertyOp45
 70
     1
102
RTVSPropertyOp46
 70
     1
102
RTVSPropertyOp47
 70
     1
102
RTVSPropertyOp48
 70
     1
102
RTVSPropertyOp49
 70
     1
102
RTVSPropertyOp50
 70
     1
102
RTVSPropertyOp51
 70
     0
102
RTVSPropertyOp52
 70
     0
102
RTVSPropertyOp53
 70
     1
102
RTVSPropertyOp54
 70
     1
102
RTVSPropertyOp55
 70
     1
102
RTVSPropertyOp56
 70
     1
102
RTVSPropertyOp57
 70
     1
102
RTVSPropertyOp58
 70
     1
102
RTVSPropertyOp59
 70
     1
102
RTVSPropertyOp60
 70
     1
102
RTVSPropertyOp61
 70
     1
102
RTVSPropertyOp62
 70
     1
  0
XRECORD
  5
1650
102
{ACAD_REACTORS
330
164F
102
}
330
164F
100
AcDbXrecord
280
     1
102
RTVSPost2010Prop28
280
     0
102
RTVSPost2010PropOp28
 70
     1
102
RTVSPost2010Prop29
280
     1
102
RTVSPost2010PropOp29
 70
     1
102
RTVSPost2010Prop30
280
     1
102
RTVSPost2010PropOp30
 70
     1
102
RTVSPost2010Prop31
280
     0
102
RTVSPost2010PropOp31
 70
     1
102
RTVSPost2010Prop32
280
     0
102
RTVSPost2010PropOp32
 70
     1
102
RTVSPost2010Prop33
280
     0
102
RTVSPost2010PropOp33
 70
     1
102
RTVSPost2010Prop34
280
     0
102
RTVSPost2010PropOp34
 70
     1
102
RTVSPost2010Prop35
280
     0
102
RTVSPost2010PropOp35
 70
     1
102
RTVSPost2010Prop36
280
     0
102
RTVSPost2010PropOp36
 70
     1
102
RTVSPost2010Prop37
 90
       50
102
RTVSPost2010PropOp37
 70
     0
102
RTVSPost2010Prop38
140
0.0
102
RTVSPost2010PropOp38
 70
     0
102
RTVSPost2010Prop39
140
1.0
102
RTVSPost2010PropOp39
 70
     0
102
RTVSPost2010Prop40
 90
        0
102
RTVSPost2010PropOp40
 70
     0
102
RTVSPost2010Prop41ColorIndex
 90
       18
102
RTVSPost2010Prop41ColorRGB
 90
        0
102
RTVSPost2010PropOp41
 70
     0
102
RTVSPost2010Prop42
 90
       50
102
RTVSPost2010PropOp42
 70
     0
102
RTVSPost2010Prop43
 90
        3
102
RTVSPost2010PropOp43
 70
     0
102
RTVSPost2010Prop44ColorIndex
 90
        5
102
RTVSPost2010Prop44ColorRGB
 90
      255
102
RTVSPost2010PropOp44
 70
     0
102
RTVSPost2010Prop45
280
     0
102
RTVSPost2010PropOp45
 70
     1
102
RTVSPost2010Prop46
 90
       50
102
RTVSPost2010PropOp46
 70
     0
102
RTVSPost2010Prop47
 90
       50
102
RTVSPost2010PropOp47
 70
     0
102
RTVSPost2010Prop48
 90
       50
102
RTVSPost2010PropOp48
 70
     0
102
RTVSPost2010Prop49
280
     0
102
RTVSPost2010PropOp49
 70
     1
102
RTVSPost2010Prop50
 90
       50
102
RTVSPost2010PropOp50
 70
     0
102
RTVSPost2010Prop51ColorIndex
 90
      256
102
RTVSPost2010Prop51ColorRGB
 90
-16777216
102
RTVSPost2010PropOp51
 70
     0
102
RTVSPost2010Prop52
140
1.0
102
RTVSPost2010PropOp52
 70
     0
102
RTVSPost2010Prop53
 90
        2
102
RTVSPost2010PropOp53
 70
     0
102
RTVSPost2010Prop54
  1
strokes_ogs.tif
102
RTVSPost2010PropOp54
 70
     0
102
RTVSPost2010Prop55
280
     0
102
RTVSPost2010PropOp55
 70
     1
102
RTVSPost2010Prop56
140
1.0
102
RTVSPost2010PropOp56
 70
     0
102
RTVSPost2010Prop57
140
1.0
102
RTVSPost2010PropOp57
 70
     0
102
RTVSPropertyOp0
 70
     0
102
RTVSPropertyOp1
 70
     0
102
RTVSPropertyOp2
 70
     0
102
RTVSPropertyOp3
 70
     0
102
RTVSPropertyOp4
 70
     0
102
RTVSPropertyOp5
 70
     0
102
RTVSPropertyOp6
 70
     0
102
RTVSPropertyOp7
 70
     0
102
RTVSPropertyOp8
 70
     0
102
RTVSPropertyOp9
 70
     0
102
RTVSPropertyOp10
 70
     0
102
RTVSPropertyOp11
 70
     0
102
RTVSPropertyOp12
 70
     0
102
RTVSPropertyOp13
 70
     0
102
RTVSPropertyOp14
 70
     2
102
RTVSPropertyOp15
 70
     0
102
RTVSPropertyOp16
 70
     0
102
RTVSPropertyOp17
 70
     0
102
RTVSPropertyOp18
 70
     0
102
RTVSPropertyOp19
 70
     0
102
RTVSPropertyOp20
 70
     0
102
RTVSPropertyOp21
 70
     0
102
RTVSPropertyOp22
 70
     0
102
RTVSPropertyOp23
 70
     0
102
RTVSPropertyOp24
 70
     0
102
RTVSPropertyOp25
 70
     0
102
RTVSPropertyOp26
 70
     0
102
RTVSPropertyOp27
 70
     0
102
RTVSPropertyOp28
 70
     1
102
RTVSPropertyOp29
 70
     1
102
RTVSPropertyOp30
 70
     1
102
RTVSPropertyOp31
 70
     1
102
RTVSPropertyOp32
 70
     1
102
RTVSPropertyOp33
 70
     1
102
RTVSPropertyOp34
 70
     1
102
RTVSPropertyOp35
 70
     1
102
RTVSPropertyOp36
 70
     1
102
RTVSPropertyOp37
 70
     0
102
RTVSPropertyOp38
 70
     0
102
RTVSPropertyOp39
 70
     0
102
RTVSPropertyOp40
 70
     0
102
RTVSPropertyOp41
 70
     0
102
RTVSPropertyOp42
 70
     0
102
RTVSPropertyOp43
 70
     0
102
RTVSPropertyOp44
 70
     0
102
RTVSPropertyOp45
 70
     1
102
RTVSPropertyOp46
 70
     0
102
RTVSPropertyOp47
 70
     0
102
RTVSPropertyOp48
 70
     0
102
RTVSPropertyOp49
 70
     1
102
RTVSPropertyOp50
 70
     0
102
RTVSPropertyOp51
 70
     0
102
RTVSPropertyOp52
 70
     0
102
RTVSPropertyOp53
 70
     0
102
RTVSPropertyOp54
 70
     0
102
RTVSPropertyOp55
 70
     1
102
RTVSPropertyOp56
 70
     0
102
RTVSPropertyOp57
 70
     0
102
RTVSPropertyOp58
 70
     0
102
RTVSPropertyOp59
 70
     0
102
RTVSPropertyOp60
 70
     0
102
RTVSPropertyOp61
 70
     0
102
RTVSPropertyOp62
 70
     0
  0
XRECORD
  5
1636
102
{ACAD_REACTORS
330
1635
102
}
330
1635
100
AcDbXrecord
280
     1
102
RTVSPost2010Prop28
280
     0
102
RTVSPost2010PropOp28
 70
     1
102
RTVSPost2010Prop29
280
     1
102
RTVSPost2010PropOp29
 70
     1
102
RTVSPost2010Prop30
280
     1
102
RTVSPost2010PropOp30
 70
     1
102
RTVSPost2010Prop31
280
     0
102
RTVSPost2010PropOp31
 70
     1
102
RTVSPost2010Prop32
280
     0
102
RTVSPost2010PropOp32
 70
     1
102
RTVSPost2010Prop33
280
     0
102
RTVSPost2010PropOp33
 70
     1
102
RTVSPost2010Prop34
280
     0
102
RTVSPost2010PropOp34
 70
     1
102
RTVSPost2010Prop35
280
     0
102
RTVSPost2010PropOp35
 70
     1
102
RTVSPost2010Prop36
280
     0
102
RTVSPost2010PropOp36
 70
     1
102
RTVSPost2010Prop37
 90
       50
102
RTVSPost2010PropOp37
 70
     1
102
RTVSPost2010Prop38
140
0.0
102
RTVSPost2010PropOp38
 70
     1
102
RTVSPost2010Prop39
140
1.0
102
RTVSPost2010PropOp39
 70
     1
102
RTVSPost2010Prop40
 90
        0
102
RTVSPost2010PropOp40
 70
     1
102
RTVSPost2010Prop41ColorIndex
 90
       18
102
RTVSPost2010Prop41ColorRGB
 90
        0
102
RTVSPost2010PropOp41
 70
     1
102
RTVSPost2010Prop42
 90
       50
102
RTVSPost2010PropOp42
 70
     1
102
RTVSPost2010Prop43
 90
        3
102
RTVSPost2010PropOp43
 70
     1
102
RTVSPost2010Prop44ColorIndex
 90
        5
102
RTVSPost2010Prop44ColorRGB
 90
      255
102
RTVSPost2010PropOp44
 70
     1
102
RTVSPost2010Prop45
280
     0
102
RTVSPost2010PropOp45
 70
     1
102
RTVSPost2010Prop46
 90
       50
102
RTVSPost2010PropOp46
 70
     1
102
RTVSPost2010Prop47
 90
       50
102
RTVSPost2010PropOp47
 70
     1
102
RTVSPost2010Prop48
 90
       50
102
RTVSPost2010PropOp48
 70
     1
102
RTVSPost2010Prop49
280
     0
102
RTVSPost2010PropOp49
 70
     1
102
RTVSPost2010Prop50
 90
       50
102
RTVSPost2010PropOp50
 70
     1
102
RTVSPost2010Prop51ColorIndex
 90
      256
102
RTVSPost2010Prop51ColorRGB
 90
-16777216
102
RTVSPost2010PropOp51
 70
     0
102
RTVSPost2010Prop52
140
1.0
102
RTVSPost2010PropOp52
 70
     0
102
RTVSPost2010Prop53
 90
        2
102
RTVSPost2010PropOp53
 70
     1
102
RTVSPost2010Prop54
  1
strokes_ogs.tif
102
RTVSPost2010PropOp54
 70
     1
102
RTVSPost2010Prop55
280
     0
102
RTVSPost2010PropOp55
 70
     1
102
RTVSPost2010Prop56
140
1.0
102
RTVSPost2010PropOp56
 70
     1
102
RTVSPost2010Prop57
140
1.0
102
RTVSPost2010PropOp57
 70
     1
102
RTVSPropertyOp0
 70
     1
102
RTVSPropertyOp1
 70
     1
102
RTVSPropertyOp2
 70
     1
102
RTVSPropertyOp3
 70
     1
102
RTVSPropertyOp4
 70
     1
102
RTVSPropertyOp5
 70
     1
102
RTVSPropertyOp6
 70
     1
102
RTVSPropertyOp7
 70
     1
102
RTVSPropertyOp8
 70
     1
102
RTVSPropertyOp9
 70
     1
102
RTVSPropertyOp10
 70
     1
102
RTVSPropertyOp11
 70
     1
102
RTVSPropertyOp12
 70
     1
102
RTVSPropertyOp13
 70
     1
102
RTVSPropertyOp14
 70
     1
102
RTVSPropertyOp15
 70
     1
102
RTVSPropertyOp16
 70
     1
102
RTVSPropertyOp17
 70
     1
102
RTVSPropertyOp18
 70
     1
102
RTVSPropertyOp19
 70
     1
102
RTVSPropertyOp20
 70
     1
102
RTVSPropertyOp21
 70
     1
102
RTVSPropertyOp22
 70
     1
102
RTVSPropertyOp23
 70
     1
102
RTVSPropertyOp24
 70
     1
102
RTVSPropertyOp25
 70
     1
102
RTVSPropertyOp26
 70
     1
102
RTVSPropertyOp27
 70
     1
102
RTVSPropertyOp28
 70
     1
102
RTVSPropertyOp29
 70
     1
102
RTVSPropertyOp30
 70
     1
102
RTVSPropertyOp31
 70
     1
102
RTVSPropertyOp32
 70
     1
102
RTVSPropertyOp33
 70
     1
102
RTVSPropertyOp34
 70
     1
102
RTVSPropertyOp35
 70
     1
102
RTVSPropertyOp36
 70
     1
102
RTVSPropertyOp37
 70
     1
102
RTVSPropertyOp38
 70
     1
102
RTVSPropertyOp39
 70
     1
102
RTVSPropertyOp40
 70
     1
102
RTVSPropertyOp41
 70
     1
102
RTVSPropertyOp42
 70
     1
102
RTVSPropertyOp43
 70
     1
102
RTVSPropertyOp44
 70
     1
102
RTVSPropertyOp45
 70
     1
102
RTVSPropertyOp46
 70
     1
102
RTVSPropertyOp47
 70
     1
102
RTVSPropertyOp48
 70
     1
102
RTVSPropertyOp49
 70
     1
102
RTVSPropertyOp50
 70
     1
102
RTVSPropertyOp51
 70
     0
102
RTVSPropertyOp52
 70
     0
102
RTVSPropertyOp53
 70
     1
102
RTVSPropertyOp54
 70
     1
102
RTVSPropertyOp55
 70
     1
102
RTVSPropertyOp56
 70
     1
102
RTVSPropertyOp57
 70
     1
102
RTVSPropertyOp58
 70
     1
102
RTVSPropertyOp59
 70
     1
102
RTVSPropertyOp60
 70
     1
102
RTVSPropertyOp61
 70
     1
102
RTVSPropertyOp62
 70
     1
  0
XRECORD
  5
164C
102
{ACAD_REACTORS
330
164B
102
}
330
164B
100
AcDbXrecord
280
     1
102
RTVSPost2010Prop28
280
     0
102
RTVSPost2010PropOp28
 70
     1
102
RTVSPost2010Prop29
280
     1
102
RTVSPost2010PropOp29
 70
     1
102
RTVSPost2010Prop30
280
     1
102
RTVSPost2010PropOp30
 70
     1
102
RTVSPost2010Prop31
280
     0
102
RTVSPost2010PropOp31
 70
     1
102
RTVSPost2010Prop32
280
     0
102
RTVSPost2010PropOp32
 70
     1
102
RTVSPost2010Prop33
280
     0
102
RTVSPost2010PropOp33
 70
     1
102
RTVSPost2010Prop34
280
     0
102
RTVSPost2010PropOp34
 70
     1
102
RTVSPost2010Prop35
280
     0
102
RTVSPost2010PropOp35
 70
     1
102
RTVSPost2010Prop36
280
     0
102
RTVSPost2010PropOp36
 70
     1
102
RTVSPost2010Prop37
 90
       50
102
RTVSPost2010PropOp37
 70
     1
102
RTVSPost2010Prop38
140
0.0
102
RTVSPost2010PropOp38
 70
     1
102
RTVSPost2010Prop39
140
1.0
102
RTVSPost2010PropOp39
 70
     1
102
RTVSPost2010Prop40
 90
        0
102
RTVSPost2010PropOp40
 70
     1
102
RTVSPost2010Prop41ColorIndex
 90
       18
102
RTVSPost2010Prop41ColorRGB
 90
        0
102
RTVSPost2010PropOp41
 70
     1
102
RTVSPost2010Prop42
 90
       50
102
RTVSPost2010PropOp42
 70
     1
102
RTVSPost2010Prop43
 90
        3
102
RTVSPost2010PropOp43
 70
     1
102
RTVSPost2010Prop44ColorIndex
 90
        5
102
RTVSPost2010Prop44ColorRGB
 90
      255
102
RTVSPost2010PropOp44
 70
     1
102
RTVSPost2010Prop45
280
     0
102
RTVSPost2010PropOp45
 70
     1
102
RTVSPost2010Prop46
 90
       50
102
RTVSPost2010PropOp46
 70
     1
102
RTVSPost2010Prop47
 90
       50
102
RTVSPost2010PropOp47
 70
     1
102
RTVSPost2010Prop48
 90
       50
102
RTVSPost2010PropOp48
 70
     1
102
RTVSPost2010Prop49
280
     0
102
RTVSPost2010PropOp49
 70
     1
102
RTVSPost2010Prop50
 90
       50
102
RTVSPost2010PropOp50
 70
     1
102
RTVSPost2010Prop51ColorIndex
 90
      256
102
RTVSPost2010Prop51ColorRGB
 90
-16777216
102
RTVSPost2010PropOp51
 70
     0
102
RTVSPost2010Prop52
140
1.0
102
RTVSPost2010PropOp52
 70
     0
102
RTVSPost2010Prop53
 90
        2
102
RTVSPost2010PropOp53
 70
     1
102
RTVSPost2010Prop54
  1
strokes_ogs.tif
102
RTVSPost2010PropOp54
 70
     1
102
RTVSPost2010Prop55
280
     0
102
RTVSPost2010PropOp55
 70
     1
102
RTVSPost2010Prop56
140
1.0
102
RTVSPost2010PropOp56
 70
     1
102
RTVSPost2010Prop57
140
1.0
102
RTVSPost2010PropOp57
 70
     1
102
RTVSPropertyOp0
 70
     1
102
RTVSPropertyOp1
 70
     1
102
RTVSPropertyOp2
 70
     1
102
RTVSPropertyOp3
 70
     1
102
RTVSPropertyOp4
 70
     1
102
RTVSPropertyOp5
 70
     1
102
RTVSPropertyOp6
 70
     1
102
RTVSPropertyOp7
 70
     1
102
RTVSPropertyOp8
 70
     1
102
RTVSPropertyOp9
 70
     1
102
RTVSPropertyOp10
 70
     1
102
RTVSPropertyOp11
 70
     1
102
RTVSPropertyOp12
 70
     1
102
RTVSPropertyOp13
 70
     1
102
RTVSPropertyOp14
 70
     1
102
RTVSPropertyOp15
 70
     1
102
RTVSPropertyOp16
 70
     1
102
RTVSPropertyOp17
 70
     1
102
RTVSPropertyOp18
 70
     1
102
RTVSPropertyOp19
 70
     1
102
RTVSPropertyOp20
 70
     1
102
RTVSPropertyOp21
 70
     1
102
RTVSPropertyOp22
 70
     1
102
RTVSPropertyOp23
 70
     1
102
RTVSPropertyOp24
 70
     1
102
RTVSPropertyOp25
 70
     1
102
RTVSPropertyOp26
 70
     1
102
RTVSPropertyOp27
 70
     1
102
RTVSPropertyOp28
 70
     1
102
RTVSPropertyOp29
 70
     1
102
RTVSPropertyOp30
 70
     1
102
RTVSPropertyOp31
 70
     1
102
RTVSPropertyOp32
 70
     1
102
RTVSPropertyOp33
 70
     1
102
RTVSPropertyOp34
 70
     1
102
RTVSPropertyOp35
 70
     1
102
RTVSPropertyOp36
 70
     1
102
RTVSPropertyOp37
 70
     1
102
RTVSPropertyOp38
 70
     1
102
RTVSPropertyOp39
 70
     1
102
RTVSPropertyOp40
 70
     1
102
RTVSPropertyOp41
 70
     1
102
RTVSPropertyOp42
 70
     1
102
RTVSPropertyOp43
 70
     1
102
RTVSPropertyOp44
 70
     1
102
RTVSPropertyOp45
 70
     1
102
RTVSPropertyOp46
 70
     1
102
RTVSPropertyOp47
 70
     1
102
RTVSPropertyOp48
 70
     1
102
RTVSPropertyOp49
 70
     1
102
RTVSPropertyOp50
 70
     1
102
RTVSPropertyOp51
 70
     0
102
RTVSPropertyOp52
 70
     0
102
RTVSPropertyOp53
 70
     1
102
RTVSPropertyOp54
 70
     1
102
RTVSPropertyOp55
 70
     1
102
RTVSPropertyOp56
 70
     1
102
RTVSPropertyOp57
 70
     1
102
RTVSPropertyOp58
 70
     1
102
RTVSPropertyOp59
 70
     1
102
RTVSPropertyOp60
 70
     1
102
RTVSPropertyOp61
 70
     1
102
RTVSPropertyOp62
 70
     1
  0
XRECORD
  5
164A
102
{ACAD_REACTORS
330
1649
102
}
330
1649
100
AcDbXrecord
280
     1
102
RTVSPost2010Prop28
280
     0
102
RTVSPost2010PropOp28
 70
     1
102
RTVSPost2010Prop29
280
     1
102
RTVSPost2010PropOp29
 70
     1
102
RTVSPost2010Prop30
280
     1
102
RTVSPost2010PropOp30
 70
     1
102
RTVSPost2010Prop31
280
     0
102
RTVSPost2010PropOp31
 70
     1
102
RTVSPost2010Prop32
280
     0
102
RTVSPost2010PropOp32
 70
     1
102
RTVSPost2010Prop33
280
     0
102
RTVSPost2010PropOp33
 70
     1
102
RTVSPost2010Prop34
280
     0
102
RTVSPost2010PropOp34
 70
     1
102
RTVSPost2010Prop35
280
     0
102
RTVSPost2010PropOp35
 70
     1
102
RTVSPost2010Prop36
280
     0
102
RTVSPost2010PropOp36
 70
     1
102
RTVSPost2010Prop37
 90
       50
102
RTVSPost2010PropOp37
 70
     1
102
RTVSPost2010Prop38
140
0.0
102
RTVSPost2010PropOp38
 70
     1
102
RTVSPost2010Prop39
140
1.0
102
RTVSPost2010PropOp39
 70
     1
102
RTVSPost2010Prop40
 90
        0
102
RTVSPost2010PropOp40
 70
     1
102
RTVSPost2010Prop41ColorIndex
 90
       18
102
RTVSPost2010Prop41ColorRGB
 90
        0
102
RTVSPost2010PropOp41
 70
     1
102
RTVSPost2010Prop42
 90
       50
102
RTVSPost2010PropOp42
 70
     1
102
RTVSPost2010Prop43
 90
        3
102
RTVSPost2010PropOp43
 70
     1
102
RTVSPost2010Prop44ColorIndex
 90
        5
102
RTVSPost2010Prop44ColorRGB
 90
      255
102
RTVSPost2010PropOp44
 70
     1
102
RTVSPost2010Prop45
280
     0
102
RTVSPost2010PropOp45
 70
     1
102
RTVSPost2010Prop46
 90
       50
102
RTVSPost2010PropOp46
 70
     1
102
RTVSPost2010Prop47
 90
       50
102
RTVSPost2010PropOp47
 70
     1
102
RTVSPost2010Prop48
 90
       50
102
RTVSPost2010PropOp48
 70
     1
102
RTVSPost2010Prop49
280
     0
102
RTVSPost2010PropOp49
 70
     1
102
RTVSPost2010Prop50
 90
       50
102
RTVSPost2010PropOp50
 70
     1
102
RTVSPost2010Prop51ColorIndex
 90
      256
102
RTVSPost2010Prop51ColorRGB
 90
-16777216
102
RTVSPost2010PropOp51
 70
     0
102
RTVSPost2010Prop52
140
1.0
102
RTVSPost2010PropOp52
 70
     0
102
RTVSPost2010Prop53
 90
        2
102
RTVSPost2010PropOp53
 70
     1
102
RTVSPost2010Prop54
  1
strokes_ogs.tif
102
RTVSPost2010PropOp54
 70
     1
102
RTVSPost2010Prop55
280
     0
102
RTVSPost2010PropOp55
 70
     1
102
RTVSPost2010Prop56
140
1.0
102
RTVSPost2010PropOp56
 70
     1
102
RTVSPost2010Prop57
140
1.0
102
RTVSPost2010PropOp57
 70
     1
102
RTVSPropertyOp0
 70
     1
102
RTVSPropertyOp1
 70
     1
102
RTVSPropertyOp2
 70
     1
102
RTVSPropertyOp3
 70
     1
102
RTVSPropertyOp4
 70
     1
102
RTVSPropertyOp5
 70
     1
102
RTVSPropertyOp6
 70
     1
102
RTVSPropertyOp7
 70
     1
102
RTVSPropertyOp8
 70
     1
102
RTVSPropertyOp9
 70
     1
102
RTVSPropertyOp10
 70
     1
102
RTVSPropertyOp11
 70
     1
102
RTVSPropertyOp12
 70
     1
102
RTVSPropertyOp13
 70
     1
102
RTVSPropertyOp14
 70
     1
102
RTVSPropertyOp15
 70
     1
102
RTVSPropertyOp16
 70
     1
102
RTVSPropertyOp17
 70
     1
102
RTVSPropertyOp18
 70
     1
102
RTVSPropertyOp19
 70
     1
102
RTVSPropertyOp20
 70
     1
102
RTVSPropertyOp21
 70
     1
102
RTVSPropertyOp22
 70
     1
102
RTVSPropertyOp23
 70
     1
102
RTVSPropertyOp24
 70
     1
102
RTVSPropertyOp25
 70
     1
102
RTVSPropertyOp26
 70
     1
102
RTVSPropertyOp27
 70
     1
102
RTVSPropertyOp28
 70
     1
102
RTVSPropertyOp29
 70
     1
102
RTVSPropertyOp30
 70
     1
102
RTVSPropertyOp31
 70
     1
102
RTVSPropertyOp32
 70
     1
102
RTVSPropertyOp33
 70
     1
102
RTVSPropertyOp34
 70
     1
102
RTVSPropertyOp35
 70
     1
102
RTVSPropertyOp36
 70
     1
102
RTVSPropertyOp37
 70
     1
102
RTVSPropertyOp38
 70
     1
102
RTVSPropertyOp39
 70
     1
102
RTVSPropertyOp40
 70
     1
102
RTVSPropertyOp41
 70
     1
102
RTVSPropertyOp42
 70
     1
102
RTVSPropertyOp43
 70
     1
102
RTVSPropertyOp44
 70
     1
102
RTVSPropertyOp45
 70
     1
102
RTVSPropertyOp46
 70
     1
102
RTVSPropertyOp47
 70
     1
102
RTVSPropertyOp48
 70
     1
102
RTVSPropertyOp49
 70
     1
102
RTVSPropertyOp50
 70
     1
102
RTVSPropertyOp51
 70
     0
102
RTVSPropertyOp52
 70
     0
102
RTVSPropertyOp53
 70
     1
102
RTVSPropertyOp54
 70
     1
102
RTVSPropertyOp55
 70
     1
102
RTVSPropertyOp56
 70
     1
102
RTVSPropertyOp57
 70
     1
102
RTVSPropertyOp58
 70
     1
102
RTVSPropertyOp59
 70
     1
102
RTVSPropertyOp60
 70
     1
102
RTVSPropertyOp61
 70
     1
102
RTVSPropertyOp62
 70
     1
  0
XRECORD
  5
1644
102
{ACAD_REACTORS
330
1643
102
}
330
1643
100
AcDbXrecord
280
     1
102
RTVSPost2010Prop28
280
     0
102
RTVSPost2010PropOp28
 70
     1
102
RTVSPost2010Prop29
280
     1
102
RTVSPost2010PropOp29
 70
     1
102
RTVSPost2010Prop30
280
     1
102
RTVSPost2010PropOp30
 70
     1
102
RTVSPost2010Prop31
280
     0
102
RTVSPost2010PropOp31
 70
     1
102
RTVSPost2010Prop32
280
     0
102
RTVSPost2010PropOp32
 70
     1
102
RTVSPost2010Prop33
280
     0
102
RTVSPost2010PropOp33
 70
     1
102
RTVSPost2010Prop34
280
     0
102
RTVSPost2010PropOp34
 70
     1
102
RTVSPost2010Prop35
280
     0
102
RTVSPost2010PropOp35
 70
     1
102
RTVSPost2010Prop36
280
     0
102
RTVSPost2010PropOp36
 70
     1
102
RTVSPost2010Prop37
 90
       50
102
RTVSPost2010PropOp37
 70
     1
102
RTVSPost2010Prop38
140
0.0
102
RTVSPost2010PropOp38
 70
     1
102
RTVSPost2010Prop39
140
1.0
102
RTVSPost2010PropOp39
 70
     1
102
RTVSPost2010Prop40
 90
        0
102
RTVSPost2010PropOp40
 70
     1
102
RTVSPost2010Prop41ColorIndex
 90
       18
102
RTVSPost2010Prop41ColorRGB
 90
        0
102
RTVSPost2010PropOp41
 70
     1
102
RTVSPost2010Prop42
 90
       50
102
RTVSPost2010PropOp42
 70
     1
102
RTVSPost2010Prop43
 90
        3
102
RTVSPost2010PropOp43
 70
     1
102
RTVSPost2010Prop44ColorIndex
 90
        5
102
RTVSPost2010Prop44ColorRGB
 90
      255
102
RTVSPost2010PropOp44
 70
     1
102
RTVSPost2010Prop45
280
     0
102
RTVSPost2010PropOp45
 70
     1
102
RTVSPost2010Prop46
 90
       50
102
RTVSPost2010PropOp46
 70
     1
102
RTVSPost2010Prop47
 90
       50
102
RTVSPost2010PropOp47
 70
     1
102
RTVSPost2010Prop48
 90
       50
102
RTVSPost2010PropOp48
 70
     1
102
RTVSPost2010Prop49
280
     0
102
RTVSPost2010PropOp49
 70
     1
102
RTVSPost2010Prop50
 90
       50
102
RTVSPost2010PropOp50
 70
     1
102
RTVSPost2010Prop51ColorIndex
 90
      256
102
RTVSPost2010Prop51ColorRGB
 90
-16777216
102
RTVSPost2010PropOp51
 70
     0
102
RTVSPost2010Prop52
140
1.0
102
RTVSPost2010PropOp52
 70
     0
102
RTVSPost2010Prop53
 90
        2
102
RTVSPost2010PropOp53
 70
     1
102
RTVSPost2010Prop54
  1
strokes_ogs.tif
102
RTVSPost2010PropOp54
 70
     1
102
RTVSPost2010Prop55
280
     0
102
RTVSPost2010PropOp55
 70
     1
102
RTVSPost2010Prop56
140
1.0
102
RTVSPost2010PropOp56
 70
     1
102
RTVSPost2010Prop57
140
1.0
102
RTVSPost2010PropOp57
 70
     1
102
RTVSPropertyOp0
 70
     1
102
RTVSPropertyOp1
 70
     1
102
RTVSPropertyOp2
 70
     1
102
RTVSPropertyOp3
 70
     1
102
RTVSPropertyOp4
 70
     1
102
RTVSPropertyOp5
 70
     1
102
RTVSPropertyOp6
 70
     1
102
RTVSPropertyOp7
 70
     1
102
RTVSPropertyOp8
 70
     1
102
RTVSPropertyOp9
 70
     1
102
RTVSPropertyOp10
 70
     1
102
RTVSPropertyOp11
 70
     1
102
RTVSPropertyOp12
 70
     1
102
RTVSPropertyOp13
 70
     1
102
RTVSPropertyOp14
 70
     1
102
RTVSPropertyOp15
 70
     1
102
RTVSPropertyOp16
 70
     1
102
RTVSPropertyOp17
 70
     1
102
RTVSPropertyOp18
 70
     1
102
RTVSPropertyOp19
 70
     1
102
RTVSPropertyOp20
 70
     1
102
RTVSPropertyOp21
 70
     1
102
RTVSPropertyOp22
 70
     1
102
RTVSPropertyOp23
 70
     1
102
RTVSPropertyOp24
 70
     1
102
RTVSPropertyOp25
 70
     1
102
RTVSPropertyOp26
 70
     1
102
RTVSPropertyOp27
 70
     1
102
RTVSPropertyOp28
 70
     1
102
RTVSPropertyOp29
 70
     1
102
RTVSPropertyOp30
 70
     1
102
RTVSPropertyOp31
 70
     1
102
RTVSPropertyOp32
 70
     1
102
RTVSPropertyOp33
 70
     1
102
RTVSPropertyOp34
 70
     1
102
RTVSPropertyOp35
 70
     1
102
RTVSPropertyOp36
 70
     1
102
RTVSPropertyOp37
 70
     1
102
RTVSPropertyOp38
 70
     1
102
RTVSPropertyOp39
 70
     1
102
RTVSPropertyOp40
 70
     1
102
RTVSPropertyOp41
 70
     1
102
RTVSPropertyOp42
 70
     1
102
RTVSPropertyOp43
 70
     1
102
RTVSPropertyOp44
 70
     1
102
RTVSPropertyOp45
 70
     1
102
RTVSPropertyOp46
 70
     1
102
RTVSPropertyOp47
 70
     1
102
RTVSPropertyOp48
 70
     1
102
RTVSPropertyOp49
 70
     1
102
RTVSPropertyOp50
 70
     1
102
RTVSPropertyOp51
 70
     0
102
RTVSPropertyOp52
 70
     0
102
RTVSPropertyOp53
 70
     1
102
RTVSPropertyOp54
 70
     1
102
RTVSPropertyOp55
 70
     1
102
RTVSPropertyOp56
 70
     1
102
RTVSPropertyOp57
 70
     1
102
RTVSPropertyOp58
 70
     1
102
RTVSPropertyOp59
 70
     1
102
RTVSPropertyOp60
 70
     1
102
RTVSPropertyOp61
 70
     1
102
RTVSPropertyOp62
 70
     1
  0
XRECORD
  5
1646
102
{ACAD_REACTORS
330
1645
102
}
330
1645
100
AcDbXrecord
280
     1
102
RTVSPost2010Prop28
280
     0
102
RTVSPost2010PropOp28
 70
     1
102
RTVSPost2010Prop29
280
     1
102
RTVSPost2010PropOp29
 70
     1
102
RTVSPost2010Prop30
280
     1
102
RTVSPost2010PropOp30
 70
     1
102
RTVSPost2010Prop31
280
     0
102
RTVSPost2010PropOp31
 70
     1
102
RTVSPost2010Prop32
280
     0
102
RTVSPost2010PropOp32
 70
     1
102
RTVSPost2010Prop33
280
     0
102
RTVSPost2010PropOp33
 70
     1
102
RTVSPost2010Prop34
280
     0
102
RTVSPost2010PropOp34
 70
     1
102
RTVSPost2010Prop35
280
     0
102
RTVSPost2010PropOp35
 70
     1
102
RTVSPost2010Prop36
280
     0
102
RTVSPost2010PropOp36
 70
     1
102
RTVSPost2010Prop37
 90
       50
102
RTVSPost2010PropOp37
 70
     1
102
RTVSPost2010Prop38
140
0.0
102
RTVSPost2010PropOp38
 70
     1
102
RTVSPost2010Prop39
140
1.0
102
RTVSPost2010PropOp39
 70
     1
102
RTVSPost2010Prop40
 90
        0
102
RTVSPost2010PropOp40
 70
     1
102
RTVSPost2010Prop41ColorIndex
 90
       18
102
RTVSPost2010Prop41ColorRGB
 90
        0
102
RTVSPost2010PropOp41
 70
     1
102
RTVSPost2010Prop42
 90
       50
102
RTVSPost2010PropOp42
 70
     1
102
RTVSPost2010Prop43
 90
        3
102
RTVSPost2010PropOp43
 70
     1
102
RTVSPost2010Prop44ColorIndex
 90
        5
102
RTVSPost2010Prop44ColorRGB
 90
      255
102
RTVSPost2010PropOp44
 70
     1
102
RTVSPost2010Prop45
280
     0
102
RTVSPost2010PropOp45
 70
     1
102
RTVSPost2010Prop46
 90
       50
102
RTVSPost2010PropOp46
 70
     1
102
RTVSPost2010Prop47
 90
       50
102
RTVSPost2010PropOp47
 70
     1
102
RTVSPost2010Prop48
 90
       50
102
RTVSPost2010PropOp48
 70
     1
102
RTVSPost2010Prop49
280
     0
102
RTVSPost2010PropOp49
 70
     1
102
RTVSPost2010Prop50
 90
       50
102
RTVSPost2010PropOp50
 70
     1
102
RTVSPost2010Prop51ColorIndex
 90
      256
102
RTVSPost2010Prop51ColorRGB
 90
-16777216
102
RTVSPost2010PropOp51
 70
     0
102
RTVSPost2010Prop52
140
1.0
102
RTVSPost2010PropOp52
 70
     0
102
RTVSPost2010Prop53
 90
        2
102
RTVSPost2010PropOp53
 70
     1
102
RTVSPost2010Prop54
  1
strokes_ogs.tif
102
RTVSPost2010PropOp54
 70
     1
102
RTVSPost2010Prop55
280
     0
102
RTVSPost2010PropOp55
 70
     1
102
RTVSPost2010Prop56
140
1.0
102
RTVSPost2010PropOp56
 70
     1
102
RTVSPost2010Prop57
140
1.0
102
RTVSPost2010PropOp57
 70
     1
102
RTVSPropertyOp0
 70
     1
102
RTVSPropertyOp1
 70
     1
102
RTVSPropertyOp2
 70
     1
102
RTVSPropertyOp3
 70
     1
102
RTVSPropertyOp4
 70
     1
102
RTVSPropertyOp5
 70
     1
102
RTVSPropertyOp6
 70
     1
102
RTVSPropertyOp7
 70
     1
102
RTVSPropertyOp8
 70
     1
102
RTVSPropertyOp9
 70
     1
102
RTVSPropertyOp10
 70
     1
102
RTVSPropertyOp11
 70
     1
102
RTVSPropertyOp12
 70
     1
102
RTVSPropertyOp13
 70
     1
102
RTVSPropertyOp14
 70
     1
102
RTVSPropertyOp15
 70
     1
102
RTVSPropertyOp16
 70
     1
102
RTVSPropertyOp17
 70
     1
102
RTVSPropertyOp18
 70
     1
102
RTVSPropertyOp19
 70
     1
102
RTVSPropertyOp20
 70
     1
102
RTVSPropertyOp21
 70
     1
102
RTVSPropertyOp22
 70
     1
102
RTVSPropertyOp23
 70
     1
102
RTVSPropertyOp24
 70
     1
102
RTVSPropertyOp25
 70
     1
102
RTVSPropertyOp26
 70
     1
102
RTVSPropertyOp27
 70
     1
102
RTVSPropertyOp28
 70
     1
102
RTVSPropertyOp29
 70
     1
102
RTVSPropertyOp30
 70
     1
102
RTVSPropertyOp31
 70
     1
102
RTVSPropertyOp32
 70
     1
102
RTVSPropertyOp33
 70
     1
102
RTVSPropertyOp34
 70
     1
102
RTVSPropertyOp35
 70
     1
102
RTVSPropertyOp36
 70
     1
102
RTVSPropertyOp37
 70
     1
102
RTVSPropertyOp38
 70
     1
102
RTVSPropertyOp39
 70
     1
102
RTVSPropertyOp40
 70
     1
102
RTVSPropertyOp41
 70
     1
102
RTVSPropertyOp42
 70
     1
102
RTVSPropertyOp43
 70
     1
102
RTVSPropertyOp44
 70
     1
102
RTVSPropertyOp45
 70
     1
102
RTVSPropertyOp46
 70
     1
102
RTVSPropertyOp47
 70
     1
102
RTVSPropertyOp48
 70
     1
102
RTVSPropertyOp49
 70
     1
102
RTVSPropertyOp50
 70
     1
102
RTVSPropertyOp51
 70
     0
102
RTVSPropertyOp52
 70
     0
102
RTVSPropertyOp53
 70
     1
102
RTVSPropertyOp54
 70
     1
102
RTVSPropertyOp55
 70
     1
102
RTVSPropertyOp56
 70
     1
102
RTVSPropertyOp57
 70
     1
102
RTVSPropertyOp58
 70
     1
102
RTVSPropertyOp59
 70
     1
102
RTVSPropertyOp60
 70
     1
102
RTVSPropertyOp61
 70
     1
102
RTVSPropertyOp62
 70
     1
  0
XRECORD
  5
163C
102
{ACAD_REACTORS
330
163B
102
}
330
163B
100
AcDbXrecord
280
     1
102
RTVSPost2010Prop28
280
     0
102
RTVSPost2010PropOp28
 70
     1
102
RTVSPost2010Prop29
280
     1
102
RTVSPost2010PropOp29
 70
     1
102
RTVSPost2010Prop30
280
     1
102
RTVSPost2010PropOp30
 70
     1
102
RTVSPost2010Prop31
280
     0
102
RTVSPost2010PropOp31
 70
     1
102
RTVSPost2010Prop32
280
     0
102
RTVSPost2010PropOp32
 70
     1
102
RTVSPost2010Prop33
280
     0
102
RTVSPost2010PropOp33
 70
     1
102
RTVSPost2010Prop34
280
     0
102
RTVSPost2010PropOp34
 70
     1
102
RTVSPost2010Prop35
280
     0
102
RTVSPost2010PropOp35
 70
     1
102
RTVSPost2010Prop36
280
     0
102
RTVSPost2010PropOp36
 70
     1
102
RTVSPost2010Prop37
 90
       50
102
RTVSPost2010PropOp37
 70
     1
102
RTVSPost2010Prop38
140
0.0
102
RTVSPost2010PropOp38
 70
     1
102
RTVSPost2010Prop39
140
1.0
102
RTVSPost2010PropOp39
 70
     1
102
RTVSPost2010Prop40
 90
        0
102
RTVSPost2010PropOp40
 70
     1
102
RTVSPost2010Prop41ColorIndex
 90
       18
102
RTVSPost2010Prop41ColorRGB
 90
        0
102
RTVSPost2010PropOp41
 70
     1
102
RTVSPost2010Prop42
 90
       50
102
RTVSPost2010PropOp42
 70
     1
102
RTVSPost2010Prop43
 90
        3
102
RTVSPost2010PropOp43
 70
     1
102
RTVSPost2010Prop44ColorIndex
 90
        5
102
RTVSPost2010Prop44ColorRGB
 90
      255
102
RTVSPost2010PropOp44
 70
     1
102
RTVSPost2010Prop45
280
     0
102
RTVSPost2010PropOp45
 70
     1
102
RTVSPost2010Prop46
 90
       50
102
RTVSPost2010PropOp46
 70
     1
102
RTVSPost2010Prop47
 90
       50
102
RTVSPost2010PropOp47
 70
     1
102
RTVSPost2010Prop48
 90
       50
102
RTVSPost2010PropOp48
 70
     1
102
RTVSPost2010Prop49
280
     0
102
RTVSPost2010PropOp49
 70
     1
102
RTVSPost2010Prop50
 90
       50
102
RTVSPost2010PropOp50
 70
     1
102
RTVSPost2010Prop51ColorIndex
 90
      256
102
RTVSPost2010Prop51ColorRGB
 90
-16777216
102
RTVSPost2010PropOp51
 70
     0
102
RTVSPost2010Prop52
140
1.0
102
RTVSPost2010PropOp52
 70
     0
102
RTVSPost2010Prop53
 90
        2
102
RTVSPost2010PropOp53
 70
     1
102
RTVSPost2010Prop54
  1
strokes_ogs.tif
102
RTVSPost2010PropOp54
 70
     1
102
RTVSPost2010Prop55
280
     0
102
RTVSPost2010PropOp55
 70
     1
102
RTVSPost2010Prop56
140
1.0
102
RTVSPost2010PropOp56
 70
     1
102
RTVSPost2010Prop57
140
1.0
102
RTVSPost2010PropOp57
 70
     1
102
RTVSPropertyOp0
 70
     1
102
RTVSPropertyOp1
 70
     1
102
RTVSPropertyOp2
 70
     1
102
RTVSPropertyOp3
 70
     1
102
RTVSPropertyOp4
 70
     1
102
RTVSPropertyOp5
 70
     1
102
RTVSPropertyOp6
 70
     1
102
RTVSPropertyOp7
 70
     1
102
RTVSPropertyOp8
 70
     1
102
RTVSPropertyOp9
 70
     1
102
RTVSPropertyOp10
 70
     1
102
RTVSPropertyOp11
 70
     1
102
RTVSPropertyOp12
 70
     1
102
RTVSPropertyOp13
 70
     1
102
RTVSPropertyOp14
 70
     1
102
RTVSPropertyOp15
 70
     1
102
RTVSPropertyOp16
 70
     1
102
RTVSPropertyOp17
 70
     1
102
RTVSPropertyOp18
 70
     1
102
RTVSPropertyOp19
 70
     1
102
RTVSPropertyOp20
 70
     1
102
RTVSPropertyOp21
 70
     1
102
RTVSPropertyOp22
 70
     1
102
RTVSPropertyOp23
 70
     1
102
RTVSPropertyOp24
 70
     1
102
RTVSPropertyOp25
 70
     1
102
RTVSPropertyOp26
 70
     1
102
RTVSPropertyOp27
 70
     1
102
RTVSPropertyOp28
 70
     1
102
RTVSPropertyOp29
 70
     1
102
RTVSPropertyOp30
 70
     1
102
RTVSPropertyOp31
 70
     1
102
RTVSPropertyOp32
 70
     1
102
RTVSPropertyOp33
 70
     1
102
RTVSPropertyOp34
 70
     1
102
RTVSPropertyOp35
 70
     1
102
RTVSPropertyOp36
 70
     1
102
RTVSPropertyOp37
 70
     1
102
RTVSPropertyOp38
 70
     1
102
RTVSPropertyOp39
 70
     1
102
RTVSPropertyOp40
 70
     1
102
RTVSPropertyOp41
 70
     1
102
RTVSPropertyOp42
 70
     1
102
RTVSPropertyOp43
 70
     1
102
RTVSPropertyOp44
 70
     1
102
RTVSPropertyOp45
 70
     1
102
RTVSPropertyOp46
 70
     1
102
RTVSPropertyOp47
 70
     1
102
RTVSPropertyOp48
 70
     1
102
RTVSPropertyOp49
 70
     1
102
RTVSPropertyOp50
 70
     1
102
RTVSPropertyOp51
 70
     0
102
RTVSPropertyOp52
 70
     0
102
RTVSPropertyOp53
 70
     1
102
RTVSPropertyOp54
 70
     1
102
RTVSPropertyOp55
 70
     1
102
RTVSPropertyOp56
 70
     1
102
RTVSPropertyOp57
 70
     1
102
RTVSPropertyOp58
 70
     1
102
RTVSPropertyOp59
 70
     1
102
RTVSPropertyOp60
 70
     1
102
RTVSPropertyOp61
 70
     1
102
RTVSPropertyOp62
 70
     1
  0
XRECORD
  5
1630
102
{ACAD_REACTORS
330
162F
102
}
330
162F
100
AcDbXrecord
280
     1
102
RTVSPost2010Prop28
280
     0
102
RTVSPost2010PropOp28
 70
     1
102
RTVSPost2010Prop29
280
     1
102
RTVSPost2010PropOp29
 70
     1
102
RTVSPost2010Prop30
280
     1
102
RTVSPost2010PropOp30
 70
     1
102
RTVSPost2010Prop31
280
     0
102
RTVSPost2010PropOp31
 70
     1
102
RTVSPost2010Prop32
280
     0
102
RTVSPost2010PropOp32
 70
     1
102
RTVSPost2010Prop33
280
     0
102
RTVSPost2010PropOp33
 70
     1
102
RTVSPost2010Prop34
280
     0
102
RTVSPost2010PropOp34
 70
     1
102
RTVSPost2010Prop35
280
     0
102
RTVSPost2010PropOp35
 70
     1
102
RTVSPost2010Prop36
280
     0
102
RTVSPost2010PropOp36
 70
     1
102
RTVSPost2010Prop37
 90
       50
102
RTVSPost2010PropOp37
 70
     1
102
RTVSPost2010Prop38
140
0.0
102
RTVSPost2010PropOp38
 70
     1
102
RTVSPost2010Prop39
140
1.0
102
RTVSPost2010PropOp39
 70
     1
102
RTVSPost2010Prop40
 90
        0
102
RTVSPost2010PropOp40
 70
     1
102
RTVSPost2010Prop41ColorIndex
 90
       18
102
RTVSPost2010Prop41ColorRGB
 90
        0
102
RTVSPost2010PropOp41
 70
     1
102
RTVSPost2010Prop42
 90
       50
102
RTVSPost2010PropOp42
 70
     1
102
RTVSPost2010Prop43
 90
        3
102
RTVSPost2010PropOp43
 70
     1
102
RTVSPost2010Prop44ColorIndex
 90
        5
102
RTVSPost2010Prop44ColorRGB
 90
      255
102
RTVSPost2010PropOp44
 70
     1
102
RTVSPost2010Prop45
280
     0
102
RTVSPost2010PropOp45
 70
     1
102
RTVSPost2010Prop46
 90
       50
102
RTVSPost2010PropOp46
 70
     1
102
RTVSPost2010Prop47
 90
       50
102
RTVSPost2010PropOp47
 70
     1
102
RTVSPost2010Prop48
 90
       50
102
RTVSPost2010PropOp48
 70
     1
102
RTVSPost2010Prop49
280
     0
102
RTVSPost2010PropOp49
 70
     1
102
RTVSPost2010Prop50
 90
       50
102
RTVSPost2010PropOp50
 70
     1
102
RTVSPost2010Prop51ColorIndex
 90
      256
102
RTVSPost2010Prop51ColorRGB
 90
-16777216
102
RTVSPost2010PropOp51
 70
     0
102
RTVSPost2010Prop52
140
1.0
102
RTVSPost2010PropOp52
 70
     0
102
RTVSPost2010Prop53
 90
        2
102
RTVSPost2010PropOp53
 70
     1
102
RTVSPost2010Prop54
  1
strokes_ogs.tif
102
RTVSPost2010PropOp54
 70
     1
102
RTVSPost2010Prop55
280
     0
102
RTVSPost2010PropOp55
 70
     1
102
RTVSPost2010Prop56
140
1.0
102
RTVSPost2010PropOp56
 70
     1
102
RTVSPost2010Prop57
140
1.0
102
RTVSPost2010PropOp57
 70
     1
102
RTVSPropertyOp0
 70
     1
102
RTVSPropertyOp1
 70
     1
102
RTVSPropertyOp2
 70
     1
102
RTVSPropertyOp3
 70
     1
102
RTVSPropertyOp4
 70
     1
102
RTVSPropertyOp5
 70
     1
102
RTVSPropertyOp6
 70
     1
102
RTVSPropertyOp7
 70
     1
102
RTVSPropertyOp8
 70
     1
102
RTVSPropertyOp9
 70
     1
102
RTVSPropertyOp10
 70
     1
102
RTVSPropertyOp11
 70
     1
102
RTVSPropertyOp12
 70
     1
102
RTVSPropertyOp13
 70
     1
102
RTVSPropertyOp14
 70
     1
102
RTVSPropertyOp15
 70
     1
102
RTVSPropertyOp16
 70
     1
102
RTVSPropertyOp17
 70
     1
102
RTVSPropertyOp18
 70
     1
102
RTVSPropertyOp19
 70
     1
102
RTVSPropertyOp20
 70
     1
102
RTVSPropertyOp21
 70
     1
102
RTVSPropertyOp22
 70
     1
102
RTVSPropertyOp23
 70
     1
102
RTVSPropertyOp24
 70
     1
102
RTVSPropertyOp25
 70
     1
102
RTVSPropertyOp26
 70
     1
102
RTVSPropertyOp27
 70
     1
102
RTVSPropertyOp28
 70
     1
102
RTVSPropertyOp29
 70
     1
102
RTVSPropertyOp30
 70
     1
102
RTVSPropertyOp31
 70
     1
102
RTVSPropertyOp32
 70
     1
102
RTVSPropertyOp33
 70
     1
102
RTVSPropertyOp34
 70
     1
102
RTVSPropertyOp35
 70
     1
102
RTVSPropertyOp36
 70
     1
102
RTVSPropertyOp37
 70
     1
102
RTVSPropertyOp38
 70
     1
102
RTVSPropertyOp39
 70
     1
102
RTVSPropertyOp40
 70
     1
102
RTVSPropertyOp41
 70
     1
102
RTVSPropertyOp42
 70
     1
102
RTVSPropertyOp43
 70
     1
102
RTVSPropertyOp44
 70
     1
102
RTVSPropertyOp45
 70
     1
102
RTVSPropertyOp46
 70
     1
102
RTVSPropertyOp47
 70
     1
102
RTVSPropertyOp48
 70
     1
102
RTVSPropertyOp49
 70
     1
102
RTVSPropertyOp50
 70
     1
102
RTVSPropertyOp51
 70
     0
102
RTVSPropertyOp52
 70
     0
102
RTVSPropertyOp53
 70
     1
102
RTVSPropertyOp54
 70
     1
102
RTVSPropertyOp55
 70
     1
102
RTVSPropertyOp56
 70
     1
102
RTVSPropertyOp57
 70
     1
102
RTVSPropertyOp58
 70
     1
102
RTVSPropertyOp59
 70
     1
102
RTVSPropertyOp60
 70
     1
102
RTVSPropertyOp61
 70
     1
102
RTVSPropertyOp62
 70
     1
  0
XRECORD
  5
1648
102
{ACAD_REACTORS
330
1647
102
}
330
1647
100
AcDbXrecord
280
     1
102
RTVSPost2010Prop28
280
     0
102
RTVSPost2010PropOp28
 70
     1
102
RTVSPost2010Prop29
280
     1
102
RTVSPost2010PropOp29
 70
     1
102
RTVSPost2010Prop30
280
     1
102
RTVSPost2010PropOp30
 70
     1
102
RTVSPost2010Prop31
280
     0
102
RTVSPost2010PropOp31
 70
     1
102
RTVSPost2010Prop32
280
     0
102
RTVSPost2010PropOp32
 70
     1
102
RTVSPost2010Prop33
280
     0
102
RTVSPost2010PropOp33
 70
     1
102
RTVSPost2010Prop34
280
     0
102
RTVSPost2010PropOp34
 70
     1
102
RTVSPost2010Prop35
280
     0
102
RTVSPost2010PropOp35
 70
     1
102
RTVSPost2010Prop36
280
     0
102
RTVSPost2010PropOp36
 70
     1
102
RTVSPost2010Prop37
 90
       50
102
RTVSPost2010PropOp37
 70
     1
102
RTVSPost2010Prop38
140
0.0
102
RTVSPost2010PropOp38
 70
     1
102
RTVSPost2010Prop39
140
1.0
102
RTVSPost2010PropOp39
 70
     1
102
RTVSPost2010Prop40
 90
        0
102
RTVSPost2010PropOp40
 70
     1
102
RTVSPost2010Prop41ColorIndex
 90
       18
102
RTVSPost2010Prop41ColorRGB
 90
        0
102
RTVSPost2010PropOp41
 70
     1
102
RTVSPost2010Prop42
 90
       50
102
RTVSPost2010PropOp42
 70
     1
102
RTVSPost2010Prop43
 90
        3
102
RTVSPost2010PropOp43
 70
     1
102
RTVSPost2010Prop44ColorIndex
 90
        5
102
RTVSPost2010Prop44ColorRGB
 90
      255
102
RTVSPost2010PropOp44
 70
     1
102
RTVSPost2010Prop45
280
     0
102
RTVSPost2010PropOp45
 70
     1
102
RTVSPost2010Prop46
 90
       50
102
RTVSPost2010PropOp46
 70
     1
102
RTVSPost2010Prop47
 90
       50
102
RTVSPost2010PropOp47
 70
     1
102
RTVSPost2010Prop48
 90
       50
102
RTVSPost2010PropOp48
 70
     1
102
RTVSPost2010Prop49
280
     0
102
RTVSPost2010PropOp49
 70
     1
102
RTVSPost2010Prop50
 90
       50
102
RTVSPost2010PropOp50
 70
     1
102
RTVSPost2010Prop51ColorIndex
 90
      256
102
RTVSPost2010Prop51ColorRGB
 90
-16777216
102
RTVSPost2010PropOp51
 70
     0
102
RTVSPost2010Prop52
140
1.0
102
RTVSPost2010PropOp52
 70
     0
102
RTVSPost2010Prop53
 90
        2
102
RTVSPost2010PropOp53
 70
     1
102
RTVSPost2010Prop54
  1
strokes_ogs.tif
102
RTVSPost2010PropOp54
 70
     1
102
RTVSPost2010Prop55
280
     0
102
RTVSPost2010PropOp55
 70
     1
102
RTVSPost2010Prop56
140
1.0
102
RTVSPost2010PropOp56
 70
     1
102
RTVSPost2010Prop57
140
1.0
102
RTVSPost2010PropOp57
 70
     1
102
RTVSPropertyOp0
 70
     1
102
RTVSPropertyOp1
 70
     1
102
RTVSPropertyOp2
 70
     1
102
RTVSPropertyOp3
 70
     1
102
RTVSPropertyOp4
 70
     1
102
RTVSPropertyOp5
 70
     1
102
RTVSPropertyOp6
 70
     1
102
RTVSPropertyOp7
 70
     1
102
RTVSPropertyOp8
 70
     1
102
RTVSPropertyOp9
 70
     1
102
RTVSPropertyOp10
 70
     1
102
RTVSPropertyOp11
 70
     1
102
RTVSPropertyOp12
 70
     1
102
RTVSPropertyOp13
 70
     1
102
RTVSPropertyOp14
 70
     1
102
RTVSPropertyOp15
 70
     1
102
RTVSPropertyOp16
 70
     1
102
RTVSPropertyOp17
 70
     1
102
RTVSPropertyOp18
 70
     1
102
RTVSPropertyOp19
 70
     1
102
RTVSPropertyOp20
 70
     1
102
RTVSPropertyOp21
 70
     1
102
RTVSPropertyOp22
 70
     1
102
RTVSPropertyOp23
 70
     1
102
RTVSPropertyOp24
 70
     1
102
RTVSPropertyOp25
 70
     1
102
RTVSPropertyOp26
 70
     1
102
RTVSPropertyOp27
 70
     1
102
RTVSPropertyOp28
 70
     1
102
RTVSPropertyOp29
 70
     1
102
RTVSPropertyOp30
 70
     1
102
RTVSPropertyOp31
 70
     1
102
RTVSPropertyOp32
 70
     1
102
RTVSPropertyOp33
 70
     1
102
RTVSPropertyOp34
 70
     1
102
RTVSPropertyOp35
 70
     1
102
RTVSPropertyOp36
 70
     1
102
RTVSPropertyOp37
 70
     1
102
RTVSPropertyOp38
 70
     1
102
RTVSPropertyOp39
 70
     1
102
RTVSPropertyOp40
 70
     1
102
RTVSPropertyOp41
 70
     1
102
RTVSPropertyOp42
 70
     1
102
RTVSPropertyOp43
 70
     1
102
RTVSPropertyOp44
 70
     1
102
RTVSPropertyOp45
 70
     1
102
RTVSPropertyOp46
 70
     1
102
RTVSPropertyOp47
 70
     1
102
RTVSPropertyOp48
 70
     1
102
RTVSPropertyOp49
 70
     1
102
RTVSPropertyOp50
 70
     1
102
RTVSPropertyOp51
 70
     0
102
RTVSPropertyOp52
 70
     0
102
RTVSPropertyOp53
 70
     1
102
RTVSPropertyOp54
 70
     1
102
RTVSPropertyOp55
 70
     1
102
RTVSPropertyOp56
 70
     1
102
RTVSPropertyOp57
 70
     1
102
RTVSPropertyOp58
 70
     1
102
RTVSPropertyOp59
 70
     1
102
RTVSPropertyOp60
 70
     1
102
RTVSPropertyOp61
 70
     1
102
RTVSPropertyOp62
 70
     1
  0
ENDSEC
  0
EOF
