  0
SECTION
  2
HEADER
  9
$ACADVER
  1
AC1021
  9
$DWGCODEPAGE
  3
ANSI_1252
  9
$EXTMAX
 10
22.0
 20
17.0
 30
0.0
  9
$EXTMIN
 10
0.0
 20
0.0
 30
0.0
  9
$LIMMIN
 10
0.0
 20
0.0
  9
$LIMMAX
 10
22.0
 20
17.0
  9
$VIEWCTR
 10
11.0
 20
8.5
  9
$VIEWSIZE
 40
17.0
  9
$CLAYER
  8
0
  9
$LTSCALE
 40
1.21
  9
$CELTYPE
  6
BYLAYER
  9
$DIMSCALE
 40
1.0
  9
$DIMASZ
 40
0.1875
  9
$DIMEXO
 40
0.1375
  9
$DIMDLI
 40
0.836
  9
$DIMEXE
 40
0.396
  9
$DIMCEN
 40
0.198
  9
$DIMLFAC
 40
1.0
  9
$DIMBLK
  1
_FILLED
  9
$DIMTXT
 40
0.125
  9
$DIMTOL
 70
1
  9
$DIMLIM
 70
0
  9
$DIMTFAC
 40
1.0
  9
$DIMTP
 40
0.001
  9
$DIMTM
 40
0.001
  9
$PDMODE
 70
3
  9
$PDSIZE
 40
0.03125
  9
$HANDSEED
  5
60D
  9
$TILEMODE
 70
1
  9
$MEASUREMENT
 70
0
  9
$INSUNITS
 70
1
  0
ENDSEC
  0
SECTION
  2
CLASSES
  0
CLASS
  1
ACDBDICTIONARYWDFLT
  2
AcDbDictionaryWithDefault
  3
AutoCAD 2000
 90
0
 91
1
280
0
281
0
  0
CLASS
  1
ACDBPLACEHOLDER
  2
AcDbPlaceHolder
  3
AutoCAD 2000
 90
0
 91
1
280
0
281
0
  0
CLASS
  1
LAYOUT
  2
AcDbLayout
  3
AutoCAD 2000
 90
0
 91
0
280
0
281
0
  0
ENDSEC
  0
SECTION
  2
TABLES
  0
TABLE
  2
VPORT
  5
8
100
AcDbSymbolTable
 70
2
  0
VPORT
  5
1F4
100
AcDbSymbolTableRecord
100
AcDbViewportTableRecord
  2
*ACTIVE
 70
0
 10
0.0
 20
0.0
 11
1.0
 21
1.0
 12
11.0
 22
8.5
 13
0.0
 23
0.0
 14
1.0
 24
1.0
 15
0.0
 25
0.0
 16
0.0
 26
0.0
 36
1.0
 17
0.0
 27
0.0
 37
0.0
 40
17.0
 41
1.2941176471
 42
50.0
 43
0.0
 44
0.0
 50
0.0
 51
0.0
 71
0
 72
100
 73
1
 74
1
 75
0
 76
0
 77
0
 78
0
  0
ENDTAB
  0
TABLE
  2
LTYPE
  5
5
100
AcDbSymbolTable
 70
6
  0
LTYPE
  5
14
100
AcDbSymbolTableRecord
100
AcDbLinetypeTableRecord
  2
BYBLOCK
 70
0
  3

 72
65
 73
0
 40
0.0
  0
LTYPE
  5
15
100
AcDbSymbolTableRecord
100
AcDbLinetypeTableRecord
  2
BYLAYER
 70
0
  3

 72
65
 73
0
 40
0.0
  0
LTYPE
  5
16
100
AcDbSymbolTableRecord
100
AcDbLinetypeTableRecord
  2
CONTINUOUS
 70
64
  3
Solid line
 72
65
 73
0
 40
0.0
  0
LTYPE
  5
1F5
100
AcDbSymbolTableRecord
100
AcDbLinetypeTableRecord
  2
CENTER
 70
64
  3
____ _ ____ _ ____ _ ____ _ ____ _ ____ _ ____
 72
65
 73
4
 40
0.6
 49
0.375
 74
0
 49
-0.075
 74
0
 49
0.075
 74
0
 49
-0.075
 74
0
  0
LTYPE
  5
1F6
100
AcDbSymbolTableRecord
100
AcDbLinetypeTableRecord
  2
HIDDEN
 70
64
  3
- - - - - - - - - - - - - - - - - - - -
 72
65
 73
2
 40
0.2
 49
0.1
 74
0
 49
-0.1
 74
0
  0
LTYPE
  5
1F7
100
AcDbSymbolTableRecord
100
AcDbLinetypeTableRecord
  2
PHANTOM
 70
64
  3
_____ _ _ _____ _ _ _____ _ _ _____
 72
65
 73
6
 40
0.8
 49
0.45
 74
0
 49
-0.05
 74
0
 49
0.1
 74
0
 49
-0.05
 74
0
 49
0.1
 74
0
 49
-0.05
 74
0
  0
LTYPE
  5
1F8
100
AcDbSymbolTableRecord
100
AcDbLinetypeTableRecord
  2
DOT
 70
64
  3
. . . . . . . . . . . . . . . . . . . .
 72
65
 73
2
 40
0.2
 49
0.1
 74
0
 49
-0.1
 74
0
  0
LTYPE
  5
1F9
100
AcDbSymbolTableRecord
100
AcDbLinetypeTableRecord
  2
DASHED
 70
64
  3
- - - - - - - - - - - - - - - - - - - -
 72
65
 73
2
 40
0.2
 49
0.1
 74
0
 49
-0.1
 74
0
  0
ENDTAB
  0
TABLE
  2
LAYER
  5
2
100
AcDbSymbolTable
 70
36
  0
LAYER
  5
10
100
AcDbSymbolTableRecord
100
AcDbLayerTableRecord
  2
0
 70
0
 62
7
  6
CONTINUOUS
370
-3
390
F
  0
LAYER
  5
1FA
100
AcDbSymbolTableRecord
100
AcDbLayerTableRecord
  2
DEFAULT_1
 70
0
 62
7
  6
CENTER
370
-3
390
F
  0
LAYER
  5
1FB
100
AcDbSymbolTableRecord
100
AcDbLayerTableRecord
  2
DEFAULT_2
 70
0
 62
8
  6
HIDDEN
370
-3
390
F
  0
LAYER
  5
1FC
100
AcDbSymbolTableRecord
100
AcDbLayerTableRecord
  2
DEFAULT_3
 70
0
 62
7
  6
PHANTOM
370
-3
390
F
  0
LAYER
  5
1FD
100
AcDbSymbolTableRecord
100
AcDbLayerTableRecord
  2
1_CURVES
 70
0
 62
7
  6
CONTINUOUS
370
-3
390
F
  0
LAYER
  5
1FE
100
AcDbSymbolTableRecord
100
AcDbLayerTableRecord
  2
1_CURVES-JETS
 70
0
 62
7
  6
CONTINUOUS
370
-3
390
F
  0
LAYER
  5
1FF
100
AcDbSymbolTableRecord
100
AcDbLayerTableRecord
  2
1_CURVES_TOLERANCES
 70
0
 62
7
  6
CONTINUOUS
370
-3
390
F
  0
LAYER
  5
200
100
AcDbSymbolTableRecord
100
AcDbLayerTableRecord
  2
2_PLANES
 70
0
 62
7
  6
CONTINUOUS
370
-3
390
F
  0
LAYER
  5
201
100
AcDbSymbolTableRecord
100
AcDbLayerTableRecord
  2
3_POINTS
 70
0
 62
7
  6
CONTINUOUS
370
-3
390
F
  0
LAYER
  5
202
100
AcDbSymbolTableRecord
100
AcDbLayerTableRecord
  2
3_POINTS-JETS
 70
0
 62
7
  6
CONTINUOUS
370
-3
390
F
  0
LAYER
  5
203
100
AcDbSymbolTableRecord
100
AcDbLayerTableRecord
  2
4_CSYS
 70
0
 62
7
  6
CONTINUOUS
370
-3
390
F
  0
LAYER
  5
204
100
AcDbSymbolTableRecord
100
AcDbLayerTableRecord
  2
5_AXIS
 70
0
 62
7
  6
CONTINUOUS
370
-3
390
F
  0
LAYER
  5
205
100
AcDbSymbolTableRecord
100
AcDbLayerTableRecord
  2
5_AXIS-JETS
 70
0
 62
7
  6
CONTINUOUS
370
-3
390
F
  0
LAYER
  5
206
100
AcDbSymbolTableRecord
100
AcDbLayerTableRecord
  2
6_SURFACES
 70
0
 62
7
  6
CONTINUOUS
370
-3
390
F
  0
LAYER
  5
207
100
AcDbSymbolTableRecord
100
AcDbLayerTableRecord
  2
6_SURFACES-OFFSET-FIBRE
 70
0
 62
7
  6
CONTINUOUS
370
-3
390
F
  0
LAYER
  5
208
100
AcDbSymbolTableRecord
100
AcDbLayerTableRecord
  2
6_SURFACES-TOOLING
 70
0
 62
7
  6
CONTINUOUS
370
-3
390
F
  0
LAYER
  5
209
100
AcDbSymbolTableRecord
100
AcDbLayerTableRecord
  2
6_SURFACES_POUR_DECOUPE
 70
0
 62
7
  6
CONTINUOUS
370
-3
390
F
  0
LAYER
  5
20A
100
AcDbSymbolTableRecord
100
AcDbLayerTableRecord
  2
6_SURFACES_TOOLING
 70
0
 62
7
  6
CONTINUOUS
370
-3
390
F
  0
LAYER
  5
20B
100
AcDbSymbolTableRecord
100
AcDbLayerTableRecord
  2
7_NOTES
 70
0
 62
7
  6
CONTINUOUS
370
-3
390
F
  0
LAYER
  5
20C
100
AcDbSymbolTableRecord
100
AcDbLayerTableRecord
  2
8_ZONE-ROBINETERIE
 70
0
 62
7
  6
CONTINUOUS
370
-3
390
F
  0
LAYER
  5
20D
100
AcDbSymbolTableRecord
100
AcDbLayerTableRecord
  2
MIA_PLUS_TROU
 70
0
 62
7
  6
CONTINUOUS
370
-3
390
F
  0
LAYER
  5
20E
100
AcDbSymbolTableRecord
100
AcDbLayerTableRecord
  2
MIA_TROU
 70
0
 62
7
  6
CONTINUOUS
370
-3
390
F
  0
LAYER
  5
20F
100
AcDbSymbolTableRecord
100
AcDbLayerTableRecord
  2
XSEC_DATUMS
 70
0
 62
7
  6
CONTINUOUS
370
-3
390
F
  0
ENDTAB
  0
TABLE
  2
STYLE
  5
3
100
AcDbSymbolTable
 70
1
  0
STYLE
  5
11
100
AcDbSymbolTableRecord
100
AcDbTextStyleTableRecord
  2
STANDARD
 70
0
 40
0.0
 41
0.8
 50
0.0
 71
0
 42
0.2
  3
txt
  4

  0
STYLE
  5
210
100
AcDbSymbolTableRecord
100
AcDbTextStyleTableRecord
  2
TEXTSTYLE_1
 70
0
 40
0.0
 41
0.8
 50
0.0
 71
0
 42
0.2
  3
gdt
  4

  0
ENDTAB
  0
TABLE
  2
VIEW
  5
6
100
AcDbSymbolTable
 70
0
  0
ENDTAB
  0
TABLE
  2
UCS
  5
7
100
AcDbSymbolTable
 70
0
  0
ENDTAB
  0
TABLE
  2
APPID
  5
9
100
AcDbSymbolTable
 70
1
  0
APPID
  5
211
100
AcDbSymbolTableRecord
100
AcDbRegAppTableRecord
  2
ACAD
 70
0
  0
ENDTAB
  0
TABLE
  2
BLOCK_RECORD
  5
1
100
AcDbSymbolTable
 70
0
  0
BLOCK_RECORD
  5
212
100
AcDbSymbolTableRecord
100
AcDbBlockTableRecord
  2
*Model_Space
  0
BLOCK_RECORD
  5
213
100
AcDbSymbolTableRecord
100
AcDbBlockTableRecord
  2
*Paper_Space
  0
ENDTAB
  0
TABLE
  2
DIMSTYLE
  5
A
100
AcDbSymbolTable
 70
1
100
AcDbDimStyleTable
 71
0
  0
DIMSTYLE
105
214
100
AcDbSymbolTableRecord
100
AcDbDimStyleTableRecord
  2
STANDARD
 70
0
  3

  4

 40
1.0
 41
0.1875
 42
0.0625
 43
0.38
 44
0.18
 45
0.0
 46
0.0
 47
0.001
 48
0.001
140
0.125
141
0.09
142
0.0
143
25.4
144
1.0
145
0.0
146
1.0
147
0.09
 71
1.0
 72
0.0
 73
1
 74
1
 75
0
 76
0
 77
0
 78
4
170
0
171
2
172
0
173
0
174
0
175
0
176
0
177
0
178
0
270
2
271
3
272
3
273
2
274
2
275
0
280
0
281
0
282
0
283
1
284
4
285
0
286
0
287
3
288
0
340
11
  0
ENDTAB
  0
ENDSEC
  0
SECTION
  2
BLOCKS
  0
BLOCK
  5
20
100
AcDbEntity
  8
0
100
AcDbBlockBegin
  2
*Model_Space
 70
0
 10
0.0
 20
0.0
 30
0.0
  3
*Model_Space
  1

  0
ENDBLK
  5
21
100
AcDbEntity
  8
0
100
AcDbBlockEnd
  0
BLOCK
  5
1C
100
AcDbEntity
  8
0
100
AcDbBlockBegin
  2
*Paper_Space
 70
0
 10
0.0
 20
0.0
 30
0.0
  3
*Paper_Space
  1

  0
ENDBLK
  5
1D
100
AcDbEntity
  8
0
100
AcDbBlockEnd
  0
ENDSEC
  0
SECTION
  2
ENTITIES
  0
LINE
  5
215
100
AcDbEntity
  8
0
100
AcDbLine
 62
7
  6
CONTINUOUS
 10
174.4760462063
 20
34.0648043468
 11
174.4857552887
 21
34.0675061847
  0
LINE
  5
216
100
AcDbEntity
  8
0
100
AcDbLine
 62
7
  6
CONTINUOUS
 10
174.4671621377
 20
34.0625684751
 11
174.4764219026
 21
34.0649038865
  0
LINE
  5
217
100
AcDbEntity
  8
0
100
AcDbLine
 62
7
  6
CONTINUOUS
 10
174.4589215474
 20
34.0606910782
 11
174.4675714631
 21
34.0626666732
  0
LINE
  5
218
100
AcDbEntity
  8
0
100
AcDbLine
 62
7
  6
CONTINUOUS
 10
144.482159316
 20
55.9767750517
 11
144.5995128048
 21
56.0108463665
  0
LINE
  5
219
100
AcDbEntity
  8
0
100
AcDbLine
 62
9
  6
CONTINUOUS
 10
145.5354018438
 20
56.0300504639
 11
145.6287382429
 21
56.0568854458
  0
LINE
  5
21A
100
AcDbEntity
  8
0
100
AcDbLine
 62
7
  6
CONTINUOUS
 10
144.5629749699
 20
56.0004301246
 11
144.5470987349
 21
55.9958853602
  0
LINE
  5
21B
100
AcDbEntity
  8
0
100
AcDbLine
 62
7
  6
CONTINUOUS
 10
144.5470987349
 20
55.9958853602
 11
144.5257612541
 21
55.9896672001
  0
LINE
  5
21C
100
AcDbEntity
  8
0
100
AcDbLine
 62
7
  6
CONTINUOUS
 10
174.451309448
 20
34.0591205878
 11
174.4593616762
 21
34.0607867064
  0
LINE
  5
21D
100
AcDbEntity
  8
0
100
AcDbLine
 62
7
  6
CONTINUOUS
 10
144.5257612541
 20
55.9896672001
 11
144.5042335236
 21
55.9832648965
  0
LINE
  5
21E
100
AcDbEntity
  8
0
100
AcDbLine
 62
7
  6
CONTINUOUS
 10
144.4825189738
 20
55.9766751286
 11
144.4495847574
 21
55.9666296966
  0
LINE
  5
21F
100
AcDbEntity
  8
0
100
AcDbLine
 62
9
  6
CONTINUOUS
 10
144.4353089478
 20
55.9610379782
 11
144.5450047328
 21
55.994506105
  0
LINE
  5
220
100
AcDbEntity
  8
0
100
AcDbLine
 62
7
  6
CONTINUOUS
 10
144.5042335236
 20
55.9832648965
 11
144.4825189738
 21
55.9766751286
  0
LINE
  5
221
100
AcDbEntity
  8
0
100
AcDbLine
 62
7
  6
CONTINUOUS
 10
144.4606211088
 20
55.9698945598
 11
144.4274384577
 21
55.9593586192
  0
LINE
  5
222
100
AcDbEntity
  8
0
100
AcDbLine
 62
7
  6
CONTINUOUS
 10
174.4444197267
 20
34.0578311717
 11
174.4517699657
 21
34.0592112636
  0
LINE
  5
223
100
AcDbEntity
  8
0
100
AcDbLine
 62
9
  6
CONTINUOUS
 10
145.4436880313
 20
56.0004269729
 11
145.5354018438
 21
56.0300504639
  0
LINE
  5
224
100
AcDbEntity
  8
0
100
AcDbLine
 62
7
  6
CONTINUOUS
 10
144.449544045
 20
55.9666168259
 11
144.4054269965
 21
55.9523871655
  0
LINE
  5
225
100
AcDbEntity
  8
0
100
AcDbLine
 62
7
  6
CONTINUOUS
 10
144.4106993667
 20
55.9539232806
 11
144.3938631316
 21
55.9483742089
  0
LINE
  5
226
100
AcDbEntity
  8
0
100
AcDbLine
 62
9
  6
CONTINUOUS
 10
144.3279700826
 20
55.9249336966
 11
144.4353089478
 21
55.9610379782
  0
LINE
  5
227
100
AcDbEntity
  8
0
100
AcDbLine
 62
7
  6
CONTINUOUS
 10
174.4380748086
 20
34.0567516851
 11
174.4448788429
 21
34.0579133183
  0
LINE
  5
228
100
AcDbEntity
  8
0
100
AcDbLine
 62
7
  6
CONTINUOUS
 10
144.3975756893
 20
55.9497952356
 11
144.3769267683
 21
55.9427084055
  0
LINE
  5
229
100
AcDbEntity
  8
0
100
AcDbLine
 62
7
  6
CONTINUOUS
 10
144.381348058
 20
55.9443805777
 11
144.359886197
 21
55.9369223888
  0
LINE
  5
22A
100
AcDbEntity
  8
0
100
AcDbLine
 62
7
  6
CONTINUOUS
 10
144.3269129419
 20
55.9256460157
 11
144.3072473557
 21
55.9186589455
  0
LINE
  5
22B
100
AcDbEntity
  8
0
100
AcDbLine
 62
7
  6
CONTINUOUS
 10
144.364226039
 20
55.9385830807
 11
144.3427373955
 21
55.9310125625
  0
LINE
  5
22C
100
AcDbEntity
  8
0
100
AcDbLine
 62
7
  6
CONTINUOUS
 10
144.3080993473
 20
55.9188065157
 11
144.2906023958
 21
55.9125025125
  0
LINE
  5
22D
100
AcDbEntity
  8
0
100
AcDbLine
 62
9
  6
CONTINUOUS
 10
145.3537036689
 20
55.9681144732
 11
145.4436880313
 21
56.0004269729
  0
LINE
  5
22E
100
AcDbEntity
  8
0
100
AcDbLine
 62
7
  6
CONTINUOUS
 10
144.3460107584
 20
55.9323196504
 11
144.325476409
 21
55.9249752153
  0
LINE
  5
22F
100
AcDbEntity
  8
0
100
AcDbLine
 62
7
  6
CONTINUOUS
 10
174.4321499406
 20
34.0558344163
 11
174.4385182485
 21
34.0568238825
  0
LINE
  5
230
100
AcDbEntity
  8
0
100
AcDbLine
 62
9
  6
CONTINUOUS
 10
144.2231157013
 20
55.886318441
 11
144.3279700826
 21
55.9249336966
  0
LINE
  5
231
100
AcDbEntity
  8
0
100
AcDbLine
 62
7
  6
CONTINUOUS
 10
144.2973076174
 20
55.9150827204
 11
144.2729818131
 21
55.9060591288
  0
LINE
  5
232
100
AcDbEntity
  8
0
100
AcDbLine
 62
7
  6
CONTINUOUS
 10
144.2576394272
 20
55.9005087477
 11
144.2228104413
 21
55.8873100367
  0
LINE
  5
233
100
AcDbEntity
  8
0
100
AcDbLine
 62
7
  6
CONTINUOUS
 10
144.2774270607
 20
55.9078392331
 11
144.2552339426
 21
55.8994721624
  0
LINE
  5
234
100
AcDbEntity
  8
0
100
AcDbLine
 62
7
  6
CONTINUOUS
 10
174.4265523085
 20
34.0550457213
 11
174.4325648785
 21
34.055895915
  0
LINE
  5
235
100
AcDbEntity
  8
0
100
AcDbLine
 62
7
  6
CONTINUOUS
 10
144.2133071083
 20
55.8835196272
 11
144.2011906312
 21
55.8788058198
  0
LINE
  5
236
100
AcDbEntity
  8
0
100
AcDbLine
 62
7
  6
CONTINUOUS
 10
144.2378715496
 20
55.8930641624
 11
144.2133071083
 21
55.8835196272
  0
LINE
  5
237
100
AcDbEntity
  8
0
100
AcDbLine
 62
7
  6
CONTINUOUS
 10
174.4211299907
 20
34.0543512301
 11
174.4269325406
 21
34.0550970091
  0
LINE
  5
238
100
AcDbEntity
  8
0
100
AcDbLine
 62
7
  6
CONTINUOUS
 10
144.1447842075
 20
55.8563430768
 11
144.2227514224
 21
55.887287348
  0
LINE
  5
239
100
AcDbEntity
  8
0
100
AcDbLine
 62
9
  6
CONTINUOUS
 10
145.2655604693
 20
55.9332268466
 11
145.3537036689
 21
55.9681144732
  0
LINE
  5
23A
100
AcDbEntity
  8
0
100
AcDbLine
 62
7
  6
CONTINUOUS
 10
144.1644583009
 20
55.8642275249
 11
144.1458701305
 21
55.8566835711
  0
LINE
  5
23B
100
AcDbEntity
  8
0
100
AcDbLine
 62
9
  6
CONTINUOUS
 10
144.1208860117
 20
55.8453262978
 11
144.2231157013
 21
55.886318441
  0
LINE
  5
23C
100
AcDbEntity
  8
0
100
AcDbLine
 62
7
  6
CONTINUOUS
 10
144.1458701305
 20
55.8566835711
 11
144.1271292672
 21
55.8489629247
  0
LINE
  5
23D
100
AcDbEntity
  8
0
100
AcDbLine
 62
7
  6
CONTINUOUS
 10
174.4159029799
 20
34.0537436994
 11
174.4214762015
 21
34.0543936383
  0
LINE
  5
23E
100
AcDbEntity
  8
0
100
AcDbLine
 62
7
  6
CONTINUOUS
 10
144.1271292672
 20
55.8489629247
 11
144.1082324358
 21
55.8410603366
  0
LINE
  5
23F
100
AcDbEntity
  8
0
100
AcDbLine
 62
7
  6
CONTINUOUS
 10
144.1082324358
 20
55.8410603366
 11
144.0891804521
 21
55.8329721153
  0
LINE
  5
240
100
AcDbEntity
  8
0
100
AcDbLine
 62
7
  6
CONTINUOUS
 10
174.4108391267
 20
34.0532101751
 11
174.4162170387
 21
34.0537785938
  0
LINE
  5
241
100
AcDbEntity
  8
0
100
AcDbLine
 62
7
  6
CONTINUOUS
 10
144.0891804521
 20
55.8329721153
 11
144.0699783013
 21
55.8246962853
  0
LINE
  5
242
100
AcDbEntity
  8
0
100
AcDbLine
 62
7
  6
CONTINUOUS
 10
144.0375749008
 20
55.8105235991
 11
144.1447842075
 21
55.8563430768
  0
LINE
  5
243
100
AcDbEntity
  8
0
100
AcDbLine
 62
7
  6
CONTINUOUS
 10
144.0699783013
 20
55.8246962853
 11
144.0506312135
 21
55.8162309898
  0
LINE
  5
244
100
AcDbEntity
  8
0
100
AcDbLine
 62
9
  6
CONTINUOUS
 10
144.0213782723
 20
55.8020949555
 11
144.1208860117
 21
55.8453262978
  0
LINE
  5
245
100
AcDbEntity
  8
0
100
AcDbLine
 62
9
  6
CONTINUOUS
 10
145.1793561676
 20
55.8958736943
 11
145.2655604693
 21
55.9332268466
  0
LINE
  5
246
100
AcDbEntity
  8
0
100
AcDbLine
 62
7
  6
CONTINUOUS
 10
144.5839714655
 20
56.006333975
 11
144.5629749699
 21
56.0004301246
  0
LINE
  5
247
100
AcDbEntity
  8
0
100
AcDbLine
 62
7
  6
CONTINUOUS
 10
174.4059292893
 20
34.0527415356
 11
174.4111270631
 21
34.0532391672
  0
LINE
  5
248
100
AcDbEntity
  8
0
100
AcDbLine
 62
7
  6
CONTINUOUS
 10
147.8313950763
 20
34.39747085
 11
147.8332307855
 21
34.3805815261
  0
LINE
  5
249
100
AcDbEntity
  8
0
100
AcDbLine
 62
7
  6
CONTINUOUS
 10
180.2920661766
 20
53.6537368537
 11
180.2902525182
 21
53.6711657491
  0
LINE
  5
24A
100
AcDbEntity
  8
0
100
AcDbLine
 62
9
  6
CONTINUOUS
 10
180.2934691954
 20
53.6258803755
 11
180.2872781964
 21
53.6867646308
  0
LINE
  5
24B
100
AcDbEntity
  8
0
100
AcDbLine
 62
9
  6
CONTINUOUS
 10
179.0482258341
 20
53.6258803412
 11
179.0419501581
 21
53.6890108756
  0
LINE
  5
24C
100
AcDbEntity
  8
0
100
AcDbLine
 62
7
  6
CONTINUOUS
 10
180.2937537927
 20
53.6361375905
 11
180.2920661766
 21
53.6537368537
  0
LINE
  5
24D
100
AcDbEntity
  8
0
100
AcDbLine
 62
9
  6
CONTINUOUS
 10
148.9538925181
 20
34.0488162229
 11
148.9538848796
 21
34.0489011839
  0
LINE
  5
24E
100
AcDbEntity
  8
0
100
AcDbLine
 62
7
  6
CONTINUOUS
 10
180.2946709326
 20
53.6258803412
 11
180.2937537927
 21
53.6361375905
  0
LINE
  5
24F
100
AcDbEntity
  8
0
100
AcDbLine
 62
7
  6
CONTINUOUS
 10
147.830952565
 20
34.4031271534
 11
147.8313950763
 21
34.39747085
  0
LINE
  5
250
100
AcDbEntity
  8
0
100
AcDbLine
 62
9
  6
CONTINUOUS
 10
148.9538848796
 20
34.0489011839
 11
148.9538580625
 21
34.0499734225
  0
LINE
  5
251
100
AcDbEntity
  8
DEFAULT_1
100
AcDbLine
 62
7
  6
CENTER
 10
161.2628614248
 20
58.2538092267
 11
161.2628614248
 21
32.3082200249
  0
LINE
  5
252
100
AcDbEntity
  8
0
100
AcDbLine
 62
9
  6
CONTINUOUS
 10
173.632883004
 20
34.0497998391
 11
173.6329692858
 21
34.0556497827
  0
LINE
  5
253
100
AcDbEntity
  8
0
100
AcDbLine
 62
9
  6
CONTINUOUS
 10
173.632854272
 20
34.0487087838
 11
173.632883004
 21
34.0497998391
  0
LINE
  5
254
100
AcDbEntity
  8
0
100
AcDbLine
 62
7
  6
CONTINUOUS
 10
174.7553180854
 20
34.3946472125
 11
174.7558926842
 21
34.4018080849
  0
LINE
  5
255
100
AcDbEntity
  8
0
100
AcDbLine
 62
7
  6
CONTINUOUS
 10
142.293185095
 20
53.6361427634
 11
142.2922674803
 21
53.6258803412
  0
LINE
  5
256
100
AcDbEntity
  8
0
100
AcDbLine
 62
9
  6
CONTINUOUS
 10
173.6328457409
 20
34.0486162492
 11
173.632854272
 21
34.0487087838
  0
LINE
  5
257
100
AcDbEntity
  8
0
100
AcDbLine
 62
7
  6
CONTINUOUS
 10
142.2948722377
 20
53.6537368687
 11
142.2931846208
 21
53.636137598
  0
LINE
  5
258
100
AcDbEntity
  8
0
100
AcDbLine
 62
9
  6
CONTINUOUS
 10
143.5387125787
 20
53.6258803412
 11
143.5449882547
 21
53.6890108756
  0
LINE
  5
259
100
AcDbEntity
  8
0
100
AcDbLine
 62
9
  6
CONTINUOUS
 10
142.2934692175
 20
53.6258803755
 11
142.2996602165
 21
53.6867646308
  0
LINE
  5
25A
100
AcDbEntity
  8
0
100
AcDbLine
 62
7
  6
CONTINUOUS
 10
142.296685897
 20
53.6711657713
 11
142.2948722377
 21
53.6537368687
  0
LINE
  5
25B
100
AcDbEntity
  8
0
100
AcDbLine
 62
7
  6
CONTINUOUS
 10
142.298622293
 20
53.6884275657
 11
142.296685897
 21
53.6711657713
  0
LINE
  5
25C
100
AcDbEntity
  8
0
100
AcDbLine
 62
7
  6
CONTINUOUS
 10
174.7532085529
 20
34.3762699395
 11
174.7553180854
 21
34.3946472125
  0
LINE
  5
25D
100
AcDbEntity
  8
0
100
AcDbLine
 62
7
  6
CONTINUOUS
 10
142.3006781213
 20
53.7055246104
 11
142.298622293
 21
53.6884275657
  0
LINE
  5
25E
100
AcDbEntity
  8
0
100
AcDbLine
 62
9
  6
CONTINUOUS
 10
143.5449882547
 20
53.6890108756
 11
143.5527657528
 21
53.7520462228
  0
LINE
  5
25F
100
AcDbEntity
  8
0
100
AcDbLine
 62
7
  6
CONTINUOUS
 10
142.3028501469
 20
53.7224591536
 11
142.3006781213
 21
53.7055246104
  0
LINE
  5
260
100
AcDbEntity
  8
0
100
AcDbLine
 62
9
  6
CONTINUOUS
 10
142.2996602165
 20
53.6867646308
 11
142.3075863349
 21
53.7476042131
  0
LINE
  5
261
100
AcDbEntity
  8
0
100
AcDbLine
 62
7
  6
CONTINUOUS
 10
142.30513524
 20
53.7392336233
 11
142.3028501469
 21
53.7224591536
  0
LINE
  5
262
100
AcDbEntity
  8
DEFAULT_2
100
AcDbLine
 62
8
  6
CONTINUOUS
 10
173.7360196631
 20
55.3771055998
 11
171.211796795
 21
37.4163266316
  0
LINE
  5
263
100
AcDbEntity
  8
0
100
AcDbLine
 62
7
  6
CONTINUOUS
 10
142.3075302536
 20
53.7558497535
 11
142.30513524
 21
53.7392336233
  0
LINE
  5
264
100
AcDbEntity
  8
0
100
AcDbLine
 62
9
  6
CONTINUOUS
 10
143.5527657528
 20
53.7520462228
 11
143.5620522851
 21
53.8149524304
  0
LINE
  5
265
100
AcDbEntity
  8
0
100
AcDbLine
 62
7
  6
CONTINUOUS
 10
142.3100321516
 20
53.772309583
 11
142.3075302536
 21
53.7558497535
  0
LINE
  5
266
100
AcDbEntity
  8
0
100
AcDbLine
 62
9
  6
CONTINUOUS
 10
142.3075863349
 20
53.7476042131
 11
142.3172551241
 21
53.808356508
  0
LINE
  5
267
100
AcDbEntity
  8
0
100
AcDbLine
 62
7
  6
CONTINUOUS
 10
142.3126378728
 20
53.7886145517
 11
142.3100321516
 21
53.772309583
  0
LINE
  5
268
100
AcDbEntity
  8
0
100
AcDbLine
 62
7
  6
CONTINUOUS
 10
174.7502451606
 20
34.3582774361
 11
174.7532085529
 21
34.3762699395
  0
LINE
  5
269
100
AcDbEntity
  8
0
100
AcDbLine
 62
7
  6
CONTINUOUS
 10
142.3153444411
 20
53.804766281
 11
142.3126378728
 21
53.7886145517
  0
LINE
  5
26A
100
AcDbEntity
  8
0
100
AcDbLine
 62
9
  6
CONTINUOUS
 10
143.5620522851
 20
53.8149524304
 11
143.5728788101
 21
53.8778531263
  0
LINE
  5
26B
100
AcDbEntity
  8
0
100
AcDbLine
 62
7
  6
CONTINUOUS
 10
142.3181489052
 20
53.8207661972
 11
142.3153444411
 21
53.804766281
  0
LINE
  5
26C
100
AcDbEntity
  8
0
100
AcDbLine
 62
7
  6
CONTINUOUS
 10
142.3210483653
 20
53.8366157147
 11
142.3181489052
 21
53.8207661972
  0
LINE
  5
26D
100
AcDbEntity
  8
0
100
AcDbLine
 62
9
  6
CONTINUOUS
 10
142.3172551241
 20
53.808356508
 11
142.3287074647
 21
53.8691720111
  0
LINE
  5
26E
100
AcDbEntity
  8
0
100
AcDbLine
 62
7
  6
CONTINUOUS
 10
142.3240400083
 20
53.8523164205
 11
142.3210483653
 21
53.8366157147
  0
LINE
  5
26F
100
AcDbEntity
  8
0
100
AcDbLine
 62
9
  6
CONTINUOUS
 10
143.5728788101
 20
53.8778531263
 11
143.5852891942
 21
53.9408786253
  0
LINE
  5
270
100
AcDbEntity
  8
0
100
AcDbLine
 62
7
  6
CONTINUOUS
 10
142.327121049
 20
53.8678697488
 11
142.3240400083
 21
53.8523164205
  0
LINE
  5
271
100
AcDbEntity
  8
0
100
AcDbLine
 62
7
  6
CONTINUOUS
 10
142.3302888324
 20
53.8832774997
 11
142.327121049
 21
53.8678697488
  0
LINE
  5
272
100
AcDbEntity
  8
0
100
AcDbLine
 62
7
  6
CONTINUOUS
 10
142.3335407646
 20
53.8985414567
 11
142.3302888324
 21
53.8832774997
  0
LINE
  5
273
100
AcDbEntity
  8
0
100
AcDbLine
 62
7
  6
CONTINUOUS
 10
174.7464724814
 20
34.3407049033
 11
174.7502451606
 21
34.3582774361
  0
LINE
  5
274
100
AcDbEntity
  8
0
100
AcDbLine
 62
9
  6
CONTINUOUS
 10
142.3287074647
 20
53.8691720111
 11
142.3420013355
 21
53.9302021858
  0
LINE
  5
275
100
AcDbEntity
  8
0
100
AcDbLine
 62
7
  6
CONTINUOUS
 10
142.3368742321
 20
53.9136630295
 11
142.3335407646
 21
53.8985414567
  0
LINE
  5
276
100
AcDbEntity
  8
0
100
AcDbLine
 62
9
  6
CONTINUOUS
 10
143.5852891942
 20
53.9408786253
 11
143.5992981208
 21
54.0039695058
  0
LINE
  5
277
100
AcDbEntity
  8
0
100
AcDbLine
 62
7
  6
CONTINUOUS
 10
142.3402866422
 20
53.9286434925
 11
142.3368742321
 21
53.9136630295
  0
LINE
  5
278
100
AcDbEntity
  8
0
100
AcDbLine
 62
7
  6
CONTINUOUS
 10
142.343775653
 20
53.9434849644
 11
142.3402866422
 21
53.9286434925
  0
LINE
  5
279
100
AcDbEntity
  8
0
100
AcDbLine
 62
7
  6
CONTINUOUS
 10
142.347338857
 20
53.9581890029
 11
142.343775653
 21
53.9434849644
  0
LINE
  5
27A
100
AcDbEntity
  8
0
100
AcDbLine
 62
9
  6
CONTINUOUS
 10
143.5992981208
 20
54.0039695058
 11
143.6149308815
 21
54.0671350337
  0
LINE
  5
27B
100
AcDbEntity
  8
0
100
AcDbLine
 62
9
  6
CONTINUOUS
 10
142.3420013355
 20
53.9302021858
 11
142.3571610684
 21
53.991403891
  0
LINE
  5
27C
100
AcDbEntity
  8
0
100
AcDbLine
 62
7
  6
CONTINUOUS
 10
142.3509742391
 20
53.9727584911
 11
142.347338857
 21
53.9581890029
  0
LINE
  5
27D
100
AcDbEntity
  8
0
100
AcDbLine
 62
7
  6
CONTINUOUS
 10
142.3546797813
 20
53.987195942
 11
142.3509742391
 21
53.9727584911
  0
LINE
  5
27E
100
AcDbEntity
  8
0
100
AcDbLine
 62
7
  6
CONTINUOUS
 10
142.3584535689
 20
54.0015039451
 11
142.3546797813
 21
53.987195942
  0
LINE
  5
27F
100
AcDbEntity
  8
0
100
AcDbLine
 62
7
  6
CONTINUOUS
 10
174.7419357641
 20
34.3235840546
 11
174.7464724814
 21
34.3407049033
  0
LINE
  5
280
100
AcDbEntity
  8
0
100
AcDbLine
 62
7
  6
CONTINUOUS
 10
142.3622937561
 20
54.0156850356
 11
142.3584535689
 21
54.0015039451
  0
LINE
  5
281
100
AcDbEntity
  8
0
100
AcDbLine
 62
9
  6
CONTINUOUS
 10
143.6149308815
 20
54.0671350337
 11
143.6321966993
 21
54.1302976625
  0
LINE
  5
282
100
AcDbEntity
  8
0
100
AcDbLine
 62
9
  6
CONTINUOUS
 10
178.6706450359
 20
53.4262515164
 11
178.6708396323
 21
53.4269528608
  0
LINE
  5
283
100
AcDbEntity
  8
0
100
AcDbLine
 62
9
  6
CONTINUOUS
 10
142.3571610684
 20
53.991403891
 11
142.3742295635
 21
54.052815398
  0
LINE
  5
284
100
AcDbEntity
  8
0
100
AcDbLine
 62
7
  6
CONTINUOUS
 10
142.3661985973
 20
54.0297418151
 11
142.3622937561
 21
54.0156850356
  0
LINE
  5
285
100
AcDbEntity
  8
0
100
AcDbLine
 62
7
  6
CONTINUOUS
 10
142.3701664112
 20
54.0436768208
 11
142.3661985973
 21
54.0297418151
  0
LINE
  5
286
100
AcDbEntity
  8
0
100
AcDbLine
 62
7
  6
CONTINUOUS
 10
142.374195687
 20
54.0574926797
 11
142.3701664112
 21
54.0436768208
  0
LINE
  5
287
100
AcDbEntity
  8
0
100
AcDbLine
 62
7
  6
CONTINUOUS
 10
142.3782851494
 20
54.0711918613
 11
142.374195687
 21
54.0574926797
  0
LINE
  5
288
100
AcDbEntity
  8
0
100
AcDbLine
 62
9
  6
CONTINUOUS
 10
143.6321966993
 20
54.1302976625
 11
143.6511010115
 21
54.1933458308
  0
LINE
  5
289
100
AcDbEntity
  8
0
100
AcDbLine
 62
7
  6
CONTINUOUS
 10
142.3824336398
 20
54.0847768636
 11
142.3782851494
 21
54.0711918613
  0
LINE
  5
28A
100
AcDbEntity
  8
0
100
AcDbLine
 62
9
  6
CONTINUOUS
 10
142.3742295635
 20
54.052815398
 11
142.3932213062
 21
54.1143374971
  0
LINE
  5
28B
100
AcDbEntity
  8
0
100
AcDbLine
 62
7
  6
CONTINUOUS
 10
142.3866400636
 20
54.0982501764
 11
142.3824336398
 21
54.0847768636
  0
LINE
  5
28C
100
AcDbEntity
  8
0
100
AcDbLine
 62
7
  6
CONTINUOUS
 10
174.7366806303
 20
34.3069428521
 11
174.7419357641
 21
34.3235840546
  0
LINE
  5
28D
100
AcDbEntity
  8
0
100
AcDbLine
 62
7
  6
CONTINUOUS
 10
142.3909033821
 20
54.1116142561
 11
142.3866400636
 21
54.0982501764
  0
LINE
  5
28E
100
AcDbEntity
  8
0
100
AcDbLine
 62
7
  6
CONTINUOUS
 10
142.3952226257
 20
54.1248715721
 11
142.3909033821
 21
54.1116142561
  0
LINE
  5
28F
100
AcDbEntity
  8
0
100
AcDbLine
 62
9
  6
CONTINUOUS
 10
143.6511010115
 20
54.1933458308
 11
143.6716995565
 21
54.2563577448
  0
LINE
  5
290
100
AcDbEntity
  8
0
100
AcDbLine
 62
7
  6
CONTINUOUS
 10
142.3995968786
 20
54.1380245588
 11
142.3952226257
 21
54.1248715721
  0
LINE
  5
291
100
AcDbEntity
  8
0
100
AcDbLine
 62
7
  6
CONTINUOUS
 10
142.4040252938
 20
54.1510756645
 11
142.3995968786
 21
54.1380245588
  0
LINE
  5
292
100
AcDbEntity
  8
0
100
AcDbLine
 62
9
  6
CONTINUOUS
 10
142.3932213062
 20
54.1143374971
 11
142.4141444008
 21
54.1758475735
  0
LINE
  5
293
100
AcDbEntity
  8
0
100
AcDbLine
 62
7
  6
CONTINUOUS
 10
142.4085070751
 20
54.1640272996
 11
142.4040252938
 21
54.1510756645
  0
LINE
  5
294
100
AcDbEntity
  8
0
100
AcDbLine
 62
7
  6
CONTINUOUS
 10
142.4130415147
 20
54.1768819454
 11
142.4085070751
 21
54.1640272996
  0
LINE
  5
295
100
AcDbEntity
  8
0
100
AcDbLine
 62
9
  6
CONTINUOUS
 10
143.6716995565
 20
54.2563577448
 11
143.6940438124
 21
54.3193706813
  0
LINE
  5
296
100
AcDbEntity
  8
0
100
AcDbLine
 62
7
  6
CONTINUOUS
 10
142.4176278736
 20
54.1896418193
 11
142.4130415147
 21
54.1768819454
  0
LINE
  5
297
100
AcDbEntity
  8
0
100
AcDbLine
 62
7
  6
CONTINUOUS
 10
142.4222656748
 20
54.2023096926
 11
142.4176278736
 21
54.1896418193
  0
LINE
  5
298
100
AcDbEntity
  8
0
100
AcDbLine
 62
7
  6
CONTINUOUS
 10
174.7307528407
 20
34.2908056723
 11
174.7366806303
 21
34.3069428521
  0
LINE
  5
299
100
AcDbEntity
  8
0
100
AcDbLine
 62
9
  6
CONTINUOUS
 10
142.4141444008
 20
54.1758475735
 11
142.437068631
 21
54.2374180359
  0
LINE
  5
29A
100
AcDbEntity
  8
0
100
AcDbLine
 62
7
  6
CONTINUOUS
 10
142.4269537731
 20
54.2148863683
 11
142.4222656748
 21
54.2023096926
  0
LINE
  5
29B
100
AcDbEntity
  8
0
100
AcDbLine
 62
7
  6
CONTINUOUS
 10
142.4316912954
 20
54.2273733103
 11
142.4269537731
 21
54.2148863683
  0
LINE
  5
29C
100
AcDbEntity
  8
0
100
AcDbLine
 62
9
  6
CONTINUOUS
 10
143.6940438124
 20
54.3193706813
 11
143.7181794075
 21
54.3823913869
  0
LINE
  5
29D
100
AcDbEntity
  8
0
100
AcDbLine
 62
7
  6
CONTINUOUS
 10
142.4364771397
 20
54.2397712993
 11
142.4316912954
 21
54.2273733103
  0
LINE
  5
29E
100
AcDbEntity
  8
0
100
AcDbLine
 62
7
  6
CONTINUOUS
 10
142.4413102875
 20
54.252081279
 11
142.4364771397
 21
54.2397712993
  0
LINE
  5
29F
100
AcDbEntity
  8
0
100
AcDbLine
 62
7
  6
CONTINUOUS
 10
142.4461897534
 20
54.2643042183
 11
142.4413102875
 21
54.252081279
  0
LINE
  5
2A0
100
AcDbEntity
  8
0
100
AcDbLine
 62
9
  6
CONTINUOUS
 10
142.437068631
 20
54.2374180359
 11
142.4620496114
 21
54.2990634002
  0
LINE
  5
2A1
100
AcDbEntity
  8
0
100
AcDbLine
 62
7
  6
CONTINUOUS
 10
142.4511145744
 20
54.2764410822
 11
142.4461897534
 21
54.2643042183
  0
LINE
  5
2A2
100
AcDbEntity
  8
0
100
AcDbLine
 62
9
  6
CONTINUOUS
 10
143.7181794075
 20
54.3823913869
 11
143.7441731876
 21
54.4454743323
  0
LINE
  5
2A3
100
AcDbEntity
  8
0
100
AcDbLine
 62
7
  6
CONTINUOUS
 10
142.4560838046
 20
54.2884928194
 11
142.4511145744
 21
54.2764410822
  0
LINE
  5
2A4
100
AcDbEntity
  8
0
100
AcDbLine
 62
7
  6
CONTINUOUS
 10
142.4610965243
 20
54.3004603857
 11
142.4560838046
 21
54.2884928194
  0
LINE
  5
2A5
100
AcDbEntity
  8
0
100
AcDbLine
 62
7
  6
CONTINUOUS
 10
174.724198016
 20
34.2751933079
 11
174.7307528407
 21
34.2908056723
  0
LINE
  5
2A6
100
AcDbEntity
  8
0
100
AcDbLine
 62
7
  6
CONTINUOUS
 10
142.4661518297
 20
54.312344719
 11
142.4610965243
 21
54.3004603857
  0
LINE
  5
2A7
100
AcDbEntity
  8
0
100
AcDbLine
 62
7
  6
CONTINUOUS
 10
142.4712488436
 20
54.3241467649
 11
142.4661518297
 21
54.312344719
  0
LINE
  5
2A8
100
AcDbEntity
  8
0
100
AcDbLine
 62
7
  6
CONTINUOUS
 10
142.4763867032
 20
54.3358674498
 11
142.4712488436
 21
54.3241467649
  0
LINE
  5
2A9
100
AcDbEntity
  8
0
100
AcDbLine
 62
9
  6
CONTINUOUS
 10
142.4620496114
 20
54.2990634002
 11
142.4891627663
 21
54.3608351158
  0
LINE
  5
2AA
100
AcDbEntity
  8
0
100
AcDbLine
 62
9
  6
CONTINUOUS
 10
143.7441731876
 20
54.4454743323
 11
143.7720313857
 21
54.5085101251
  0
LINE
  5
2AB
100
AcDbEntity
  8
0
100
AcDbLine
 62
7
  6
CONTINUOUS
 10
142.4815645726
 20
54.3475077083
 11
142.4763867032
 21
54.3358674498
  0
LINE
  5
2AC
100
AcDbEntity
  8
0
100
AcDbLine
 62
7
  6
CONTINUOUS
 10
142.4867816293
 20
54.3590684547
 11
142.4815645726
 21
54.3475077083
  0
LINE
  5
2AD
100
AcDbEntity
  8
0
100
AcDbLine
 62
7
  6
CONTINUOUS
 10
142.4920370773
 20
54.3705506119
 11
142.4867816293
 21
54.3590684547
  0
LINE
  5
2AE
100
AcDbEntity
  8
0
100
AcDbLine
 62
7
  6
CONTINUOUS
 10
142.4973301331
 20
54.3819550812
 11
142.4920370773
 21
54.3705506119
  0
LINE
  5
2AF
100
AcDbEntity
  8
0
100
AcDbLine
 62
7
  6
CONTINUOUS
 10
142.5026600398
 20
54.3932827735
 11
142.4973301331
 21
54.3819550812
  0
LINE
  5
2B0
100
AcDbEntity
  8
0
100
AcDbLine
 62
9
  6
CONTINUOUS
 10
143.7720313857
 20
54.5085101251
 11
143.8017603961
 21
54.5713897723
  0
LINE
  5
2B1
100
AcDbEntity
  8
0
100
AcDbLine
 62
9
  6
CONTINUOUS
 10
142.4891627663
 20
54.3608351158
 11
142.5185141423
 21
54.4228301154
  0
LINE
  5
2B2
100
AcDbEntity
  8
0
100
AcDbLine
 62
7
  6
CONTINUOUS
 10
174.7170614219
 20
34.2601231534
 11
174.724198016
 21
34.2751933079
  0
LINE
  5
2B3
100
AcDbEntity
  8
0
100
AcDbLine
 62
7
  6
CONTINUOUS
 10
142.5080260519
 20
54.4045345766
 11
142.5026600398
 21
54.3932827735
  0
LINE
  5
2B4
100
AcDbEntity
  8
0
100
AcDbLine
 62
7
  6
CONTINUOUS
 10
142.5134274504
 20
54.4157113885
 11
142.5080260519
 21
54.4045345766
  0
LINE
  5
2B5
100
AcDbEntity
  8
0
100
AcDbLine
 62
7
  6
CONTINUOUS
 10
142.5188635263
 20
54.4268140835
 11
142.5134274504
 21
54.4157113885
  0
LINE
  5
2B6
100
AcDbEntity
  8
0
100
AcDbLine
 62
7
  6
CONTINUOUS
 10
142.5243335972
 20
54.4378435457
 11
142.5188635263
 21
54.4268140835
  0
LINE
  5
2B7
100
AcDbEntity
  8
0
100
AcDbLine
 62
7
  6
CONTINUOUS
 10
142.5298369905
 20
54.4488006368
 11
142.5243335972
 21
54.4378435457
  0
LINE
  5
2B8
100
AcDbEntity
  8
0
100
AcDbLine
 62
9
  6
CONTINUOUS
 10
143.8017603961
 20
54.5713897723
 11
143.8334144454
 21
54.6341066636
  0
LINE
  5
2B9
100
AcDbEntity
  8
0
100
AcDbLine
 62
7
  6
CONTINUOUS
 10
142.5353730565
 20
54.4596862151
 11
142.5298369905
 21
54.4488006368
  0
LINE
  5
2BA
100
AcDbEntity
  8
0
100
AcDbLine
 62
9
  6
CONTINUOUS
 10
142.5185141423
 20
54.4228301154
 11
142.5501118415
 21
54.4849235893
  0
LINE
  5
2BB
100
AcDbEntity
  8
0
100
AcDbLine
 62
7
  6
CONTINUOUS
 10
142.5409412099
 20
54.4705010874
 11
142.5353730565
 21
54.4596862151
  0
LINE
  5
2BC
100
AcDbEntity
  8
0
100
AcDbLine
 62
7
  6
CONTINUOUS
 10
142.546540922
 20
54.4812460045
 11
142.5409412099
 21
54.4705010874
  0
LINE
  5
2BD
100
AcDbEntity
  8
0
100
AcDbLine
 62
7
  6
CONTINUOUS
 10
142.5521716609
 20
54.4919216746
 11
142.546540922
 21
54.4812460045
  0
LINE
  5
2BE
100
AcDbEntity
  8
0
100
AcDbLine
 62
7
  6
CONTINUOUS
 10
174.7093879956
 20
34.2456097769
 11
174.7170614219
 21
34.2601231534
  0
LINE
  5
2BF
100
AcDbEntity
  8
0
100
AcDbLine
 62
7
  6
CONTINUOUS
 10
142.5578329217
 20
54.5025288286
 11
142.5521716609
 21
54.4919216746
  0
LINE
  5
2C0
100
AcDbEntity
  8
0
100
AcDbLine
 62
9
  6
CONTINUOUS
 10
143.8334144454
 20
54.6341066636
 11
143.8670257479
 21
54.6966041369
  0
LINE
  5
2C1
100
AcDbEntity
  8
0
100
AcDbLine
 62
7
  6
CONTINUOUS
 10
142.5635242009
 20
54.5130681702
 11
142.5578329217
 21
54.5025288286
  0
LINE
  5
2C2
100
AcDbEntity
  8
0
100
AcDbLine
 62
9
  6
CONTINUOUS
 10
142.5501118415
 20
54.4849235893
 11
142.5839752779
 21
54.5470046856
  0
LINE
  5
2C3
100
AcDbEntity
  8
0
100
AcDbLine
 62
7
  6
CONTINUOUS
 10
142.5692450195
 20
54.5235404209
 11
142.5635242009
 21
54.5130681702
  0
LINE
  5
2C4
100
AcDbEntity
  8
0
100
AcDbLine
 62
7
  6
CONTINUOUS
 10
142.5749949016
 20
54.5339462791
 11
142.5692450195
 21
54.5235404209
  0
LINE
  5
2C5
100
AcDbEntity
  8
0
100
AcDbLine
 62
7
  6
CONTINUOUS
 10
142.580773395
 20
54.5442864595
 11
142.5749949016
 21
54.5339462791
  0
LINE
  5
2C6
100
AcDbEntity
  8
0
100
AcDbLine
 62
7
  6
CONTINUOUS
 10
142.5865800502
 20
54.5545616538
 11
142.580773395
 21
54.5442864595
  0
LINE
  5
2C7
100
AcDbEntity
  8
0
100
AcDbLine
 62
7
  6
CONTINUOUS
 10
142.5924144413
 20
54.5647725695
 11
142.5865800502
 21
54.5545616538
  0
LINE
  5
2C8
100
AcDbEntity
  8
0
100
AcDbLine
 62
9
  6
CONTINUOUS
 10
143.8670257479
 20
54.6966041369
 11
143.9026721434
 21
54.758909775
  0
LINE
  5
2C9
100
AcDbEntity
  8
0
100
AcDbLine
 62
7
  6
CONTINUOUS
 10
142.5982761447
 20
54.5749198915
 11
142.5924144413
 21
54.5647725695
  0
LINE
  5
2CA
100
AcDbEntity
  8
0
100
AcDbLine
 62
9
  6
CONTINUOUS
 10
142.5839752779
 20
54.5470046856
 11
142.6201677871
 21
54.6090446635
  0
LINE
  5
2CB
100
AcDbEntity
  8
0
100
AcDbLine
 62
7
  6
CONTINUOUS
 10
142.6041647602
 20
54.5850043198
 11
142.5982761447
 21
54.5749198915
  0
LINE
  5
2CC
100
AcDbEntity
  8
0
100
AcDbLine
 62
7
  6
CONTINUOUS
 10
174.7012219109
 20
34.2316644832
 11
174.7093879956
 21
34.2456097769
  0
LINE
  5
2CD
100
AcDbEntity
  8
0
100
AcDbLine
 62
7
  6
CONTINUOUS
 10
142.6100798892
 20
54.5950265317
 11
142.6041647602
 21
54.5850043198
  0
LINE
  5
2CE
100
AcDbEntity
  8
0
100
AcDbLine
 62
7
  6
CONTINUOUS
 10
142.6160211565
 20
54.6049872197
 11
142.6100798892
 21
54.5950265317
  0
LINE
  5
2CF
100
AcDbEntity
  8
0
100
AcDbLine
 62
7
  6
CONTINUOUS
 10
142.6219881881
 20
54.6148870533
 11
142.6160211565
 21
54.6049872197
  0
LINE
  5
2D0
100
AcDbEntity
  8
0
100
AcDbLine
 62
9
  6
CONTINUOUS
 10
143.9026721434
 20
54.758909775
 11
143.9404516643
 21
54.8210695804
  0
LINE
  5
2D1
100
AcDbEntity
  8
0
100
AcDbLine
 62
7
  6
CONTINUOUS
 10
142.6279806333
 20
54.6247267168
 11
142.6219881881
 21
54.6148870533
  0
LINE
  5
2D2
100
AcDbEntity
  8
0
100
AcDbLine
 62
7
  6
CONTINUOUS
 10
142.6339981418
 20
54.6345068719
 11
142.6279806333
 21
54.6247267168
  0
LINE
  5
2D3
100
AcDbEntity
  8
0
100
AcDbLine
 62
7
  6
CONTINUOUS
 10
142.6400403865
 20
54.6442281942
 11
142.6339981418
 21
54.6345068719
  0
LINE
  5
2D4
100
AcDbEntity
  8
0
100
AcDbLine
 62
9
  6
CONTINUOUS
 10
142.6201677871
 20
54.6090446635
 11
142.6587150839
 21
54.6709547968
  0
LINE
  5
2D5
100
AcDbEntity
  8
0
100
AcDbLine
 62
7
  6
CONTINUOUS
 10
142.6461070404
 20
54.6538913371
 11
142.6400403865
 21
54.6442281942
  0
LINE
  5
2D6
100
AcDbEntity
  8
0
100
AcDbLine
 62
7
  6
CONTINUOUS
 10
142.6521977995
 20
54.6634969677
 11
142.6461070404
 21
54.6538913371
  0
LINE
  5
2D7
100
AcDbEntity
  8
0
100
AcDbLine
 62
7
  6
CONTINUOUS
 10
142.6583123592
 20
54.6730457304
 11
142.6521977995
 21
54.6634969677
  0
LINE
  5
2D8
100
AcDbEntity
  8
0
100
AcDbLine
 62
7
  6
CONTINUOUS
 10
174.6926068371
 20
34.218296182
 11
174.7012219109
 21
34.2316644832
  0
LINE
  5
2D9
100
AcDbEntity
  8
0
100
AcDbLine
 62
9
  6
CONTINUOUS
 10
143.9404516643
 20
54.8210695804
 11
143.9803693581
 21
54.8829633249
  0
LINE
  5
2DA
100
AcDbEntity
  8
0
100
AcDbLine
 62
7
  6
CONTINUOUS
 10
142.6644504377
 20
54.6825382834
 11
142.6583123592
 21
54.6730457304
  0
LINE
  5
2DB
100
AcDbEntity
  8
0
100
AcDbLine
 62
7
  6
CONTINUOUS
 10
142.6706117524
 20
54.6919752622
 11
142.6644504377
 21
54.6825382834
  0
LINE
  5
2DC
100
AcDbEntity
  8
0
100
AcDbLine
 62
7
  6
CONTINUOUS
 10
142.6830030477
 20
54.7106850694
 11
142.6706117524
 21
54.6919752622
  0
LINE
  5
2DD
100
AcDbEntity
  8
0
100
AcDbLine
 62
9
  6
CONTINUOUS
 10
142.6587150839
 20
54.6709547968
 11
142.6997380947
 21
54.732798578
  0
LINE
  5
2DE
100
AcDbEntity
  8
0
100
AcDbLine
 62
7
  6
CONTINUOUS
 10
142.6954843386
 20
54.7291803572
 11
142.6830030477
 21
54.7106850694
  0
LINE
  5
2DF
100
AcDbEntity
  8
0
100
AcDbLine
 62
9
  6
CONTINUOUS
 10
143.9803693581
 20
54.8829633249
 11
144.0224411664
 21
54.9444989962
  0
LINE
  5
2E0
100
AcDbEntity
  8
0
100
AcDbLine
 62
7
  6
CONTINUOUS
 10
142.7080543481
 20
54.7474669166
 11
142.6954843386
 21
54.7291803572
  0
LINE
  5
2E1
100
AcDbEntity
  8
0
100
AcDbLine
 62
7
  6
CONTINUOUS
 10
142.7207102465
 20
54.7655479814
 11
142.7080543481
 21
54.7474669166
  0
LINE
  5
2E2
100
AcDbEntity
  8
0
100
AcDbLine
 62
9
  6
CONTINUOUS
 10
142.6997380947
 20
54.732798578
 11
142.7433801499
 21
54.7946477198
  0
LINE
  5
2E3
100
AcDbEntity
  8
0
100
AcDbLine
 62
7
  6
CONTINUOUS
 10
174.6835854855
 20
34.2055109193
 11
174.6926068371
 21
34.218296182
  0
LINE
  5
2E4
100
AcDbEntity
  8
0
100
AcDbLine
 62
7
  6
CONTINUOUS
 10
142.7334489201
 20
54.7834262158
 11
142.7207102465
 21
54.7655479814
  0
LINE
  5
2E5
100
AcDbEntity
  8
0
100
AcDbLine
 62
9
  6
CONTINUOUS
 10
144.0224411664
 20
54.9444989962
 11
144.066697756
 21
55.0055963254
  0
LINE
  5
2E6
100
AcDbEntity
  8
0
100
AcDbLine
 62
7
  6
CONTINUOUS
 10
142.7462673415
 20
54.8011042698
 11
142.7334489201
 21
54.7834262158
  0
LINE
  5
2E7
100
AcDbEntity
  8
0
100
AcDbLine
 62
7
  6
CONTINUOUS
 10
142.7591625683
 20
54.8185847772
 11
142.7462673415
 21
54.8011042698
  0
LINE
  5
2E8
100
AcDbEntity
  8
0
100
AcDbLine
 62
9
  6
CONTINUOUS
 10
142.7433801499
 20
54.7946477198
 11
142.7896587118
 21
54.8563852461
  0
LINE
  5
2E9
100
AcDbEntity
  8
0
100
AcDbLine
 62
7
  6
CONTINUOUS
 10
142.7721317416
 20
54.8358703548
 11
142.7591625683
 21
54.8185847772
  0
LINE
  5
2EA
100
AcDbEntity
  8
0
100
AcDbLine
 62
7
  6
CONTINUOUS
 10
142.778643187
 20
54.8444408576
 11
142.7721317416
 21
54.8358703548
  0
LINE
  5
2EB
100
AcDbEntity
  8
0
100
AcDbLine
 62
9
  6
CONTINUOUS
 10
144.066697756
 20
55.0055963254
 11
144.1131410935
 21
55.0661374389
  0
LINE
  5
2EC
100
AcDbEntity
  8
0
100
AcDbLine
 62
7
  6
CONTINUOUS
 10
142.7917180996
 20
54.8614389083
 11
142.778643187
 21
54.8444408576
  0
LINE
  5
2ED
100
AcDbEntity
  8
0
100
AcDbLine
 62
7
  6
CONTINUOUS
 10
174.6741994567
 20
34.1933120479
 11
174.6835854855
 21
34.2055109193
  0
LINE
  5
2EE
100
AcDbEntity
  8
0
100
AcDbLine
 62
7
  6
CONTINUOUS
 10
142.8048601809
 20
54.8782483426
 11
142.7917180996
 21
54.8614389083
  0
LINE
  5
2EF
100
AcDbEntity
  8
0
100
AcDbLine
 62
7
  6
CONTINUOUS
 10
142.8180668276
 20
54.8948711277
 11
142.8048601809
 21
54.8782483426
  0
LINE
  5
2F0
100
AcDbEntity
  8
0
100
AcDbLine
 62
9
  6
CONTINUOUS
 10
142.7896587118
 20
54.8563852461
 11
142.8386138483
 21
54.9179243825
  0
LINE
  5
2F1
100
AcDbEntity
  8
0
100
AcDbLine
 62
7
  6
CONTINUOUS
 10
142.8313354931
 20
54.911309155
 11
142.8180668276
 21
54.8948711277
  0
LINE
  5
2F2
100
AcDbEntity
  8
0
100
AcDbLine
 62
9
  6
CONTINUOUS
 10
144.1131410935
 20
55.0661374389
 11
144.161849432
 21
55.1261083852
  0
LINE
  5
2F3
100
AcDbEntity
  8
0
100
AcDbLine
 62
7
  6
CONTINUOUS
 10
142.8446637096
 20
54.9275643304
 11
142.8313354931
 21
54.911309155
  0
LINE
  5
2F4
100
AcDbEntity
  8
0
100
AcDbLine
 62
7
  6
CONTINUOUS
 10
142.8580490874
 20
54.9436385719
 11
142.8446637096
 21
54.9275643304
  0
LINE
  5
2F5
100
AcDbEntity
  8
0
100
AcDbLine
 62
7
  6
CONTINUOUS
 10
174.664489173
 20
34.181700478
 11
174.6741994567
 21
34.1933120479
  0
LINE
  5
2F6
100
AcDbEntity
  8
0
100
AcDbLine
 62
9
  6
CONTINUOUS
 10
142.8386138483
 20
54.9179243825
 11
142.8902806744
 21
54.9791613999
  0
LINE
  5
2F7
100
AcDbEntity
  8
0
100
AcDbLine
 62
7
  6
CONTINUOUS
 10
142.8714893128
 20
54.9595338078
 11
142.8580490874
 21
54.9436385719
  0
LINE
  5
2F8
100
AcDbEntity
  8
0
100
AcDbLine
 62
7
  6
CONTINUOUS
 10
142.8849821469
 20
54.9752519748
 11
142.8714893128
 21
54.9595338078
  0
LINE
  5
2F9
100
AcDbEntity
  8
0
100
AcDbLine
 62
9
  6
CONTINUOUS
 10
144.161849432
 20
55.1261083852
 11
144.2128959149
 21
55.1854774028
  0
LINE
  5
2FA
100
AcDbEntity
  8
0
100
AcDbLine
 62
7
  6
CONTINUOUS
 10
142.8985254242
 20
54.9907950158
 11
142.8849821469
 21
54.9752519748
  0
LINE
  5
2FB
100
AcDbEntity
  8
0
100
AcDbLine
 62
7
  6
CONTINUOUS
 10
142.9121170512
 20
55.0061648786
 11
142.8985254242
 21
54.9907950158
  0
LINE
  5
2FC
100
AcDbEntity
  8
0
100
AcDbLine
 62
9
  6
CONTINUOUS
 10
142.8902806744
 20
54.9791613999
 11
142.944657997
 21
55.0399584087
  0
LINE
  5
2FD
100
AcDbEntity
  8
0
100
AcDbLine
 62
7
  6
CONTINUOUS
 10
142.925755005
 20
55.021363514
 11
142.9121170512
 21
55.0061648786
  0
LINE
  5
2FE
100
AcDbEntity
  8
0
100
AcDbLine
 62
7
  6
CONTINUOUS
 10
174.6544939139
 20
34.170674986
 11
174.664489173
 21
34.181700478
  0
LINE
  5
2FF
100
AcDbEntity
  8
0
100
AcDbLine
 62
9
  6
CONTINUOUS
 10
144.2128959149
 20
55.1854774028
 11
144.2663219708
 21
55.2441703491
  0
LINE
  5
300
100
AcDbEntity
  8
0
100
AcDbLine
 62
7
  6
CONTINUOUS
 10
142.939437332
 20
55.0363928746
 11
142.925755005
 21
55.021363514
  0
LINE
  5
301
100
AcDbEntity
  8
0
100
AcDbLine
 62
7
  6
CONTINUOUS
 10
142.9531621465
 20
55.051254913
 11
142.939437332
 21
55.0363928746
  0
LINE
  5
302
100
AcDbEntity
  8
0
100
AcDbLine
 62
7
  6
CONTINUOUS
 10
142.9669276295
 20
55.0659515808
 11
142.9531621465
 21
55.051254913
  0
LINE
  5
303
100
AcDbEntity
  8
0
100
AcDbLine
 62
9
  6
CONTINUOUS
 10
142.944657997
 20
55.0399584087
 11
143.001858723
 21
55.1003088093
  0
LINE
  5
304
100
AcDbEntity
  8
0
100
AcDbLine
 62
7
  6
CONTINUOUS
 10
142.9807320273
 20
55.080484827
 11
142.9669276295
 21
55.0659515808
  0
LINE
  5
305
100
AcDbEntity
  8
0
100
AcDbLine
 62
7
  6
CONTINUOUS
 10
142.99457365
 20
55.0948565969
 11
142.9807320273
 21
55.080484827
  0
LINE
  5
306
100
AcDbEntity
  8
0
100
AcDbLine
 62
9
  6
CONTINUOUS
 10
144.2663219708
 20
55.2441703491
 11
144.3221954722
 21
55.3021386831
  0
LINE
  5
307
100
AcDbEntity
  8
0
100
AcDbLine
 62
7
  6
CONTINUOUS
 10
143.0084508707
 20
55.109068831
 11
142.99457365
 21
55.0948565969
  0
LINE
  5
308
100
AcDbEntity
  8
0
100
AcDbLine
 62
7
  6
CONTINUOUS
 10
174.6442511895
 20
34.1602317936
 11
174.6544939139
 21
34.170674986
  0
LINE
  5
309
100
AcDbEntity
  8
0
100
AcDbLine
 62
7
  6
CONTINUOUS
 10
143.0223621235
 20
55.1231234639
 11
143.0084508707
 21
55.109068831
  0
LINE
  5
30A
100
AcDbEntity
  8
DEFAULT_2
100
AcDbLine
 62
8
  6
CONTINUOUS
 10
168.9916925111
 20
35.9491036459
 11
169.4635132037
 21
36.4209243384
  0
LINE
  5
30B
100
AcDbEntity
  8
0
100
AcDbLine
 62
7
  6
CONTINUOUS
 10
143.0363059032
 20
55.1370224231
 11
143.0223621235
 21
55.1231234639
  0
LINE
  5
30C
100
AcDbEntity
  8
0
100
AcDbLine
 62
9
  6
CONTINUOUS
 10
143.001858723
 20
55.1003088093
 11
143.0619874751
 21
55.1601839601
  0
LINE
  5
30D
100
AcDbEntity
  8
0
100
AcDbLine
 62
7
  6
CONTINUOUS
 10
143.0502807628
 20
55.1507676281
 11
143.0363059032
 21
55.1370224231
  0
LINE
  5
30E
100
AcDbEntity
  8
0
100
AcDbLine
 62
9
  6
CONTINUOUS
 10
144.3221954722
 20
55.3021386831
 11
144.3804990559
 21
55.3592421813
  0
LINE
  5
30F
100
AcDbEntity
  8
0
100
AcDbLine
 62
7
  6
CONTINUOUS
 10
143.0642853135
 20
55.1643609896
 11
143.0502807628
 21
55.1507676281
  0
LINE
  5
310
100
AcDbEntity
  8
0
100
AcDbLine
 62
7
  6
CONTINUOUS
 10
143.0783182225
 20
55.1778044085
 11
143.0642853135
 21
55.1643609896
  0
LINE
  5
311
100
AcDbEntity
  8
0
100
AcDbLine
 62
7
  6
CONTINUOUS
 10
143.0923782124
 20
55.191099775
 11
143.0783182225
 21
55.1778044085
  0
LINE
  5
312
100
AcDbEntity
  8
0
100
AcDbLine
 62
7
  6
CONTINUOUS
 10
174.6337987001
 20
34.1503667312
 11
174.6442511895
 21
34.1602317936
  0
LINE
  5
313
100
AcDbEntity
  8
0
100
AcDbLine
 62
9
  6
CONTINUOUS
 10
143.0619874751
 20
55.1601839601
 11
143.1251061894
 21
55.2195059951
  0
LINE
  5
314
100
AcDbEntity
  8
0
100
AcDbLine
 62
7
  6
CONTINUOUS
 10
143.1064640596
 20
55.2042489682
 11
143.0923782124
 21
55.191099775
  0
LINE
  5
315
100
AcDbEntity
  8
0
100
AcDbLine
 62
9
  6
CONTINUOUS
 10
144.3804990559
 20
55.3592421813
 11
144.4412140431
 21
55.4153431547
  0
LINE
  5
316
100
AcDbEntity
  8
0
100
AcDbLine
 62
7
  6
CONTINUOUS
 10
143.1205745932
 20
55.2172538547
 11
143.1064640596
 21
55.2042489682
  0
LINE
  5
317
100
AcDbEntity
  8
0
100
AcDbLine
 62
7
  6
CONTINUOUS
 10
143.1347086939
 20
55.2301162886
 11
143.1205745932
 21
55.2172538547
  0
LINE
  5
318
100
AcDbEntity
  8
0
100
AcDbLine
 62
7
  6
CONTINUOUS
 10
143.1488652921
 20
55.2428381099
 11
143.1347086939
 21
55.2301162886
  0
LINE
  5
319
100
AcDbEntity
  8
0
100
AcDbLine
 62
7
  6
CONTINUOUS
 10
143.1630433582
 20
55.2554211311
 11
143.1488652921
 21
55.2428381099
  0
LINE
  5
31A
100
AcDbEntity
  8
0
100
AcDbLine
 62
9
  6
CONTINUOUS
 10
143.1251061894
 20
55.2195059951
 11
143.1913050854
 21
55.278220545
  0
LINE
  5
31B
100
AcDbEntity
  8
0
100
AcDbLine
 62
7
  6
CONTINUOUS
 10
143.177241739
 20
55.2678669349
 11
143.1630433582
 21
55.2554211311
  0
LINE
  5
31C
100
AcDbEntity
  8
0
100
AcDbLine
 62
7
  6
CONTINUOUS
 10
174.6231703891
 20
34.1410715662
 11
174.6337987001
 21
34.1503667312
  0
LINE
  5
31D
100
AcDbEntity
  8
0
100
AcDbLine
 62
9
  6
CONTINUOUS
 10
144.4412140431
 20
55.4153431547
 11
144.5043295062
 21
55.4703158891
  0
LINE
  5
31E
100
AcDbEntity
  8
0
100
AcDbLine
 62
7
  6
CONTINUOUS
 10
143.1914592119
 20
55.280176948
 11
143.177241739
 21
55.2678669349
  0
LINE
  5
31F
100
AcDbEntity
  8
0
100
AcDbLine
 62
7
  6
CONTINUOUS
 10
143.2056946305
 20
55.2923526115
 11
143.1914592119
 21
55.280176948
  0
LINE
  5
320
100
AcDbEntity
  8
0
100
AcDbLine
 62
7
  6
CONTINUOUS
 10
143.2199473756
 20
55.3043957602
 11
143.2056946305
 21
55.2923526115
  0
LINE
  5
321
100
AcDbEntity
  8
0
100
AcDbLine
 62
9
  6
CONTINUOUS
 10
143.1913050854
 20
55.278220545
 11
143.260565906
 21
55.3361729081
  0
LINE
  5
322
100
AcDbEntity
  8
0
100
AcDbLine
 62
7
  6
CONTINUOUS
 10
143.234216573
 20
55.3163079505
 11
143.2199473756
 21
55.3043957602
  0
LINE
  5
323
100
AcDbEntity
  8
0
100
AcDbLine
 62
7
  6
CONTINUOUS
 10
143.2485005339
 20
55.3280900179
 11
143.234216573
 21
55.3163079505
  0
LINE
  5
324
100
AcDbEntity
  8
0
100
AcDbLine
 62
9
  6
CONTINUOUS
 10
144.5043295062
 20
55.4703158891
 11
144.5698077167
 21
55.5240185707
  0
LINE
  5
325
100
AcDbEntity
  8
0
100
AcDbLine
 62
7
  6
CONTINUOUS
 10
143.2627975287
 20
55.3397427462
 11
143.2485005339
 21
55.3280900179
  0
LINE
  5
326
100
AcDbEntity
  8
0
100
AcDbLine
 62
7
  6
CONTINUOUS
 10
174.6124068188
 20
34.1323430588
 11
174.6231703891
 21
34.1410715662
  0
LINE
  5
327
100
AcDbEntity
  8
0
100
AcDbLine
 62
7
  6
CONTINUOUS
 10
143.2771058854
 20
55.3512669507
 11
143.2627975287
 21
55.3397427462
  0
LINE
  5
328
100
AcDbEntity
  8
0
100
AcDbLine
 62
9
  6
CONTINUOUS
 10
178.7560490668
 20
53.5438924819
 11
178.7434386437
 21
53.533812244
  0
LINE
  5
329
100
AcDbEntity
  8
0
100
AcDbLine
 62
7
  6
CONTINUOUS
 10
143.2914239719
 20
55.3626634624
 11
143.2771058854
 21
55.3512669507
  0
LINE
  5
32A
100
AcDbEntity
  8
0
100
AcDbLine
 62
9
  6
CONTINUOUS
 10
143.260565906
 20
55.3361729081
 11
143.3328685997
 21
55.3932137262
  0
LINE
  5
32B
100
AcDbEntity
  8
0
100
AcDbLine
 62
7
  6
CONTINUOUS
 10
143.3057501949
 20
55.3739331268
 11
143.2914239719
 21
55.3626634624
  0
LINE
  5
32C
100
AcDbEntity
  8
0
100
AcDbLine
 62
7
  6
CONTINUOUS
 10
143.3200829989
 20
55.3850768029
 11
143.3057501949
 21
55.3739331268
  0
LINE
  5
32D
100
AcDbEntity
  8
0
100
AcDbLine
 62
9
  6
CONTINUOUS
 10
144.5698077167
 20
55.5240185707
 11
144.637685432
 21
55.5763721456
  0
LINE
  5
32E
100
AcDbEntity
  8
0
100
AcDbLine
 62
7
  6
CONTINUOUS
 10
143.3344208655
 20
55.3960953622
 11
143.3200829989
 21
55.3850768029
  0
LINE
  5
32F
100
AcDbEntity
  8
0
100
AcDbLine
 62
7
  6
CONTINUOUS
 10
143.3487623125
 20
55.4069896877
 11
143.3344208655
 21
55.3960953622
  0
LINE
  5
330
100
AcDbEntity
  8
0
100
AcDbLine
 62
7
  6
CONTINUOUS
 10
174.6015449312
 20
34.1241733635
 11
174.6124068188
 21
34.1323430588
  0
LINE
  5
331
100
AcDbEntity
  8
0
100
AcDbLine
 62
7
  6
CONTINUOUS
 10
143.3631058932
 20
55.417760673
 11
143.3487623125
 21
55.4069896877
  0
LINE
  5
332
100
AcDbEntity
  8
0
100
AcDbLine
 62
9
  6
CONTINUOUS
 10
143.3328685997
 20
55.3932137262
 11
143.408211369
 21
55.4492133353
  0
LINE
  5
333
100
AcDbEntity
  8
0
100
AcDbLine
 62
7
  6
CONTINUOUS
 10
143.3774501953
 20
55.4284092213
 11
143.3631058932
 21
55.417760673
  0
LINE
  5
334
100
AcDbEntity
  8
0
100
AcDbLine
 62
7
  6
CONTINUOUS
 10
143.3917938404
 20
55.438936245
 11
143.3774501953
 21
55.4284092213
  0
LINE
  5
335
100
AcDbEntity
  8
0
100
AcDbLine
 62
7
  6
CONTINUOUS
 10
143.406135483
 20
55.4493426641
 11
143.3917938404
 21
55.438936245
  0
LINE
  5
336
100
AcDbEntity
  8
0
100
AcDbLine
 62
9
  6
CONTINUOUS
 10
144.637685432
 20
55.5763721456
 11
144.7079757904
 21
55.6272768672
  0
LINE
  5
337
100
AcDbEntity
  8
0
100
AcDbLine
 62
7
  6
CONTINUOUS
 10
143.4204738099
 20
55.459629406
 11
143.406135483
 21
55.4493426641
  0
LINE
  5
338
100
AcDbEntity
  8
0
100
AcDbLine
 62
7
  6
CONTINUOUS
 10
143.4348075391
 20
55.4697974048
 11
143.4204738099
 21
55.459629406
  0
LINE
  5
339
100
AcDbEntity
  8
0
100
AcDbLine
 62
7
  6
CONTINUOUS
 10
143.4491354196
 20
55.4798476
 11
143.4348075391
 21
55.4697974048
  0
LINE
  5
33A
100
AcDbEntity
  8
0
100
AcDbLine
 62
9
  6
CONTINUOUS
 10
143.408211369
 20
55.4492133353
 11
143.4865602115
 21
55.5040229328
  0
LINE
  5
33B
100
AcDbEntity
  8
0
100
AcDbLine
 62
9
  6
CONTINUOUS
 10
178.7692842005
 20
53.5531363407
 11
178.7560490668
 21
53.5438924819
  0
LINE
  5
33C
100
AcDbEntity
  8
0
100
AcDbLine
 62
7
  6
CONTINUOUS
 10
178.9186964946
 20
53.6256675177
 11
178.9190014245
 21
53.6258803412
  0
LINE
  5
33D
100
AcDbEntity
  8
0
100
AcDbLine
 62
7
  6
CONTINUOUS
 10
174.5906232386
 20
34.116554499
 11
174.6015449312
 21
34.1241733635
  0
LINE
  5
33E
100
AcDbEntity
  8
0
100
AcDbLine
 62
7
  6
CONTINUOUS
 10
143.4634562299
 20
55.4897809363
 11
143.4491354196
 21
55.4798476
  0
LINE
  5
33F
100
AcDbEntity
  8
0
100
AcDbLine
 62
7
  6
CONTINUOUS
 10
143.4777687778
 20
55.4995983629
 11
143.4634562299
 21
55.4897809363
  0
LINE
  5
340
100
AcDbEntity
  8
0
100
AcDbLine
 62
9
  6
CONTINUOUS
 10
144.7079757904
 20
55.6272768672
 11
144.7807025662
 21
55.6766415577
  0
LINE
  5
341
100
AcDbEntity
  8
0
100
AcDbLine
 62
7
  6
CONTINUOUS
 10
143.4920718995
 20
55.5093008326
 11
143.4777687778
 21
55.4995983629
  0
LINE
  5
342
100
AcDbEntity
  8
0
100
AcDbLine
 62
7
  6
CONTINUOUS
 10
143.5063644589
 20
55.5188893014
 11
143.4920718995
 21
55.5093008326
  0
LINE
  5
343
100
AcDbEntity
  8
0
100
AcDbLine
 62
7
  6
CONTINUOUS
 10
143.5206453468
 20
55.5283647277
 11
143.5063644589
 21
55.5188893014
  0
LINE
  5
344
100
AcDbEntity
  8
0
100
AcDbLine
 62
9
  6
CONTINUOUS
 10
143.4865602115
 20
55.5040229328
 11
143.5679708922
 21
55.5575586695
  0
LINE
  5
345
100
AcDbEntity
  8
0
100
AcDbLine
 62
7
  6
CONTINUOUS
 10
143.5349134802
 20
55.537728072
 11
143.5206453468
 21
55.5283647277
  0
LINE
  5
346
100
AcDbEntity
  8
0
100
AcDbLine
 62
7
  6
CONTINUOUS
 10
143.5491678015
 20
55.5469802961
 11
143.5349134802
 21
55.537728072
  0
LINE
  5
347
100
AcDbEntity
  8
0
100
AcDbLine
 62
7
  6
CONTINUOUS
 10
174.5796791971
 20
34.1094762279
 11
174.5906232386
 21
34.116554499
  0
LINE
  5
348
100
AcDbEntity
  8
0
100
AcDbLine
 62
7
  6
CONTINUOUS
 10
143.5634072783
 20
55.5561223629
 11
143.5491678015
 21
55.5469802961
  0
LINE
  5
349
100
AcDbEntity
  8
0
100
AcDbLine
 62
7
  6
CONTINUOUS
 10
143.5776309019
 20
55.5651552355
 11
143.5634072783
 21
55.5561223629
  0
LINE
  5
34A
100
AcDbEntity
  8
0
100
AcDbLine
 62
9
  6
CONTINUOUS
 10
144.7807025662
 20
55.6766415577
 11
144.8558814044
 21
55.7243724649
  0
LINE
  5
34B
100
AcDbEntity
  8
0
100
AcDbLine
 62
7
  6
CONTINUOUS
 10
143.5918376873
 20
55.5740798771
 11
143.5776309019
 21
55.5651552355
  0
LINE
  5
34C
100
AcDbEntity
  8
0
100
AcDbLine
 62
7
  6
CONTINUOUS
 10
178.9007260976
 20
53.6144472181
 11
178.9189417421
 21
53.6258803412
  0
LINE
  5
34D
100
AcDbEntity
  8
0
100
AcDbLine
 62
7
  6
CONTINUOUS
 10
143.6060266721
 20
55.5828972502
 11
143.5918376873
 21
55.5740798771
  0
LINE
  5
34E
100
AcDbEntity
  8
0
100
AcDbLine
 62
9
  6
CONTINUOUS
 10
143.5679708922
 20
55.5575586695
 11
143.6524765944
 21
55.6097162027
  0
LINE
  5
34F
100
AcDbEntity
  8
0
100
AcDbLine
 62
7
  6
CONTINUOUS
 10
143.6201969162
 20
55.5916083165
 11
143.6060266721
 21
55.5828972502
  0
LINE
  5
350
100
AcDbEntity
  8
0
100
AcDbLine
 62
7
  6
CONTINUOUS
 10
143.6343475008
 20
55.6002140362
 11
143.6201969162
 21
55.5916083165
  0
LINE
  5
351
100
AcDbEntity
  8
0
100
AcDbLine
 62
9
  6
CONTINUOUS
 10
178.7830887742
 20
53.5615052173
 11
178.7692842005
 21
53.5531363407
  0
LINE
  5
352
100
AcDbEntity
  8
0
100
AcDbLine
 62
7
  6
CONTINUOUS
 10
143.6484774909
 20
55.608715354
 11
143.6343475008
 21
55.6002140362
  0
LINE
  5
353
100
AcDbEntity
  8
0
100
AcDbLine
 62
7
  6
CONTINUOUS
 10
174.5687458359
 20
34.1029243317
 11
174.5796791971
 21
34.1094762279
  0
LINE
  5
354
100
AcDbEntity
  8
0
100
AcDbLine
 62
7
  6
CONTINUOUS
 10
143.6625857607
 20
55.6171131403
 11
143.6484774909
 21
55.608715354
  0
LINE
  5
355
100
AcDbEntity
  8
0
100
AcDbLine
 62
9
  6
CONTINUOUS
 10
144.8558814044
 20
55.7243724649
 11
144.9334121808
 21
55.7703027086
  0
LINE
  5
356
100
AcDbEntity
  8
0
100
AcDbLine
 62
7
  6
CONTINUOUS
 10
143.6766711334
 20
55.6254082411
 11
143.6625857607
 21
55.6171131403
  0
LINE
  5
357
100
AcDbEntity
  8
0
100
AcDbLine
 62
7
  6
CONTINUOUS
 10
143.690732466
 20
55.6336015041
 11
143.6766711334
 21
55.6254082411
  0
LINE
  5
358
100
AcDbEntity
  8
0
100
AcDbLine
 62
9
  6
CONTINUOUS
 10
143.6524765944
 20
55.6097162027
 11
143.7401021269
 21
55.6603878507
  0
LINE
  5
359
100
AcDbEntity
  8
0
100
AcDbLine
 62
7
  6
CONTINUOUS
 10
143.7047686473
 20
55.641693779
 11
143.690732466
 21
55.6336015041
  0
LINE
  5
35A
100
AcDbEntity
  8
0
100
AcDbLine
 62
7
  6
CONTINUOUS
 10
143.7187785971
 20
55.6496859162
 11
143.7047686473
 21
55.641693779
  0
LINE
  5
35B
100
AcDbEntity
  8
0
100
AcDbLine
 62
7
  6
CONTINUOUS
 10
143.732761265
 20
55.6575787669
 11
143.7187785971
 21
55.6496859162
  0
LINE
  5
35C
100
AcDbEntity
  8
0
100
AcDbLine
 62
7
  6
CONTINUOUS
 10
143.7467156298
 20
55.6653731823
 11
143.732761265
 21
55.6575787669
  0
LINE
  5
35D
100
AcDbEntity
  8
0
100
AcDbLine
 62
7
  6
CONTINUOUS
 10
174.5578545344
 20
34.0968830046
 11
174.5687458359
 21
34.1029243317
  0
LINE
  5
35E
100
AcDbEntity
  8
0
100
AcDbLine
 62
7
  6
CONTINUOUS
 10
143.760640698
 20
55.6730700135
 11
143.7467156298
 21
55.6653731823
  0
LINE
  5
35F
100
AcDbEntity
  8
0
100
AcDbLine
 62
7
  6
CONTINUOUS
 10
178.8809490198
 20
53.6035538094
 11
178.9010807277
 21
53.6146562402
  0
LINE
  5
360
100
AcDbEntity
  8
0
100
AcDbLine
 62
9
  6
CONTINUOUS
 10
144.9334121808
 20
55.7703027086
 11
145.0132105118
 21
55.8142821746
  0
LINE
  5
361
100
AcDbEntity
  8
0
100
AcDbLine
 62
7
  6
CONTINUOUS
 10
143.7675919426
 20
55.6768821006
 11
143.760640698
 21
55.6730700135
  0
LINE
  5
362
100
AcDbEntity
  8
0
100
AcDbLine
 62
7
  6
CONTINUOUS
 10
143.7814712621
 20
55.6844341499
 11
143.7675919426
 21
55.6768821006
  0
LINE
  5
363
100
AcDbEntity
  8
0
100
AcDbLine
 62
9
  6
CONTINUOUS
 10
143.7401021269
 20
55.6603878507
 11
143.8308841477
 21
55.709470511
  0
LINE
  5
364
100
AcDbEntity
  8
0
100
AcDbLine
 62
7
  6
CONTINUOUS
 10
143.8022305882
 20
55.6955835018
 11
143.7814712621
 21
55.6844341499
  0
LINE
  5
365
100
AcDbEntity
  8
0
100
AcDbLine
 62
7
  6
CONTINUOUS
 10
143.8229156472
 20
55.7065209271
 11
143.8022305882
 21
55.6955835018
  0
LINE
  5
366
100
AcDbEntity
  8
0
100
AcDbLine
 62
9
  6
CONTINUOUS
 10
178.7974051391
 20
53.5689641629
 11
178.7830887742
 21
53.5615052173
  0
LINE
  5
367
100
AcDbEntity
  8
0
100
AcDbLine
 62
7
  6
CONTINUOUS
 10
143.843523485
 20
55.7172492526
 11
143.8229156472
 21
55.7065209271
  0
LINE
  5
368
100
AcDbEntity
  8
0
100
AcDbLine
 62
7
  6
CONTINUOUS
 10
174.5470382123
 20
34.091336621
 11
174.5578545344
 21
34.0968830046
  0
LINE
  5
369
100
AcDbEntity
  8
0
100
AcDbLine
 62
7
  6
CONTINUOUS
 10
143.8640495353
 20
55.7277704174
 11
143.843523485
 21
55.7172492526
  0
LINE
  5
36A
100
AcDbEntity
  8
0
100
AcDbLine
 62
9
  6
CONTINUOUS
 10
145.0132105118
 20
55.8142821746
 11
145.0952154538
 21
55.856182892
  0
LINE
  5
36B
100
AcDbEntity
  8
0
100
AcDbLine
 62
7
  6
CONTINUOUS
 10
143.8844879008
 20
55.7380856831
 11
143.8640495353
 21
55.7277704174
  0
LINE
  5
36C
100
AcDbEntity
  8
0
100
AcDbLine
 62
9
  6
CONTINUOUS
 10
143.8308841477
 20
55.709470511
 11
143.9246887949
 21
55.7567666089
  0
LINE
  5
36D
100
AcDbEntity
  8
0
100
AcDbLine
 62
7
  6
CONTINUOUS
 10
143.8638555123
 20
55.7276783702
 11
143.9334599015
 21
55.7622054414
  0
LINE
  5
36E
100
AcDbEntity
  8
0
100
AcDbLine
 62
7
  6
CONTINUOUS
 10
178.8647913771
 20
53.5957214623
 11
178.8831003669
 21
53.6046678692
  0
LINE
  5
36F
100
AcDbEntity
  8
0
100
AcDbLine
 62
7
  6
CONTINUOUS
 10
143.9318036837
 20
55.7613614347
 11
143.9115925493
 21
55.7515213665
  0
LINE
  5
370
100
AcDbEntity
  8
0
100
AcDbLine
 62
7
  6
CONTINUOUS
 10
143.9519079118
 20
55.7710002497
 11
143.9318036837
 21
55.7613614347
  0
LINE
  5
371
100
AcDbEntity
  8
0
100
AcDbLine
 62
7
  6
CONTINUOUS
 10
178.8610240473
 20
53.5940281885
 11
178.8809490198
 21
53.6035538094
  0
LINE
  5
372
100
AcDbEntity
  8
0
100
AcDbLine
 62
7
  6
CONTINUOUS
 10
174.5363256313
 20
34.0862667076
 11
174.5470382123
 21
34.091336621
  0
LINE
  5
373
100
AcDbEntity
  8
0
100
AcDbLine
 62
7
  6
CONTINUOUS
 10
143.9718996204
 20
55.7804393412
 11
143.9519079118
 21
55.7710002497
  0
LINE
  5
374
100
AcDbEntity
  8
0
100
AcDbLine
 62
9
  6
CONTINUOUS
 10
145.0952154538
 20
55.856182892
 11
145.1793561676
 21
55.8958736943
  0
LINE
  5
375
100
AcDbEntity
  8
0
100
AcDbLine
 62
9
  6
CONTINUOUS
 10
143.9246887949
 20
55.7567666089
 11
144.0213782723
 21
55.8020949555
  0
LINE
  5
376
100
AcDbEntity
  8
0
100
AcDbLine
 62
7
  6
CONTINUOUS
 10
143.9917732616
 20
55.7896802962
 11
143.9718996204
 21
55.7804393412
  0
LINE
  5
377
100
AcDbEntity
  8
0
100
AcDbLine
 62
7
  6
CONTINUOUS
 10
143.9334599015
 20
55.7622054414
 11
144.0375749008
 21
55.8105235991
  0
LINE
  5
378
100
AcDbEntity
  8
0
100
AcDbLine
 62
7
  6
CONTINUOUS
 10
144.0115233494
 20
55.7987247546
 11
143.9917732616
 21
55.7896802962
  0
LINE
  5
379
100
AcDbEntity
  8
0
100
AcDbLine
 62
7
  6
CONTINUOUS
 10
144.0311444571
 20
55.8075744068
 11
144.0115233494
 21
55.7987247546
  0
LINE
  5
37A
100
AcDbEntity
  8
0
100
AcDbLine
 62
7
  6
CONTINUOUS
 10
144.0506312135
 20
55.8162309898
 11
144.0311444571
 21
55.8075744068
  0
LINE
  5
37B
100
AcDbEntity
  8
0
100
AcDbLine
 62
9
  6
CONTINUOUS
 10
178.8121735093
 20
53.5754820285
 11
178.7974051391
 21
53.5689641629
  0
LINE
  5
37C
100
AcDbEntity
  8
0
100
AcDbLine
 62
7
  6
CONTINUOUS
 10
174.52575035
 20
34.0816563643
 11
174.5365184768
 21
34.0863544229
  0
LINE
  5
37D
100
AcDbEntity
  8
0
100
AcDbLine
 62
7
  6
CONTINUOUS
 10
178.8461898578
 20
53.587836249
 11
178.8647913771
 21
53.5957214623
  0
LINE
  5
37E
100
AcDbEntity
  8
0
100
AcDbLine
 62
7
  6
CONTINUOUS
 10
178.8409983386
 20
53.5858452992
 11
178.8610240473
 21
53.5940281885
  0
LINE
  5
37F
100
AcDbEntity
  8
0
100
AcDbLine
 62
7
  6
CONTINUOUS
 10
174.5153410003
 20
34.0774855758
 11
174.5259755519
 21
34.0817506273
  0
LINE
  5
380
100
AcDbEntity
  8
0
100
AcDbLine
 62
7
  6
CONTINUOUS
 10
174.5051298336
 20
34.0737349981
 11
174.5155979067
 21
34.0775842954
  0
LINE
  5
381
100
AcDbEntity
  8
0
100
AcDbLine
 62
9
  6
CONTINUOUS
 10
178.8273322112
 20
53.5810315949
 11
178.8121735093
 21
53.5754820285
  0
LINE
  5
382
100
AcDbEntity
  8
0
100
AcDbLine
 62
7
  6
CONTINUOUS
 10
178.8273323114
 20
53.5810316375
 11
178.8461898578
 21
53.587836249
  0
LINE
  5
383
100
AcDbEntity
  8
0
100
AcDbLine
 62
7
  6
CONTINUOUS
 10
178.827324052
 20
53.5810288999
 11
178.8409983386
 21
53.5858452992
  0
LINE
  5
384
100
AcDbEntity
  8
0
100
AcDbLine
 62
7
  6
CONTINUOUS
 10
174.4951230737
 20
34.0703758206
 11
174.5054173231
 21
34.073836139
  0
LINE
  5
385
100
AcDbEntity
  8
0
100
AcDbLine
 62
7
  6
CONTINUOUS
 10
174.485413555
 20
34.0674063696
 11
174.495437415
 21
34.070476736
  0
LINE
  5
386
100
AcDbEntity
  8
0
100
AcDbLine
 62
7
  6
CONTINUOUS
 10
144.604768581
 20
56.0120627427
 11
144.5839714655
 21
56.006333975
  0
LINE
  5
387
100
AcDbEntity
  8
0
100
AcDbLine
 62
9
  6
CONTINUOUS
 10
144.5450047328
 20
55.994506105
 11
144.6569205112
 21
56.0252106123
  0
LINE
  5
388
100
AcDbEntity
  8
0
100
AcDbLine
 62
7
  6
CONTINUOUS
 10
144.6253629379
 20
56.0176197707
 11
144.604768581
 21
56.0120627427
  0
LINE
  5
389
100
AcDbEntity
  8
0
100
AcDbLine
 62
7
  6
CONTINUOUS
 10
144.6457511888
 20
56.0230083979
 11
144.6253629379
 21
56.0176197707
  0
LINE
  5
38A
100
AcDbEntity
  8
0
100
AcDbLine
 62
7
  6
CONTINUOUS
 10
144.6659300526
 20
56.0282319369
 11
144.6457511888
 21
56.0230083979
  0
LINE
  5
38B
100
AcDbEntity
  8
0
100
AcDbLine
 62
7
  6
CONTINUOUS
 10
144.5995128048
 20
56.0108463665
 11
144.7190434019
 21
56.041689511
  0
LINE
  5
38C
100
AcDbEntity
  8
0
100
AcDbLine
 62
7
  6
CONTINUOUS
 10
144.6858963106
 20
56.0332936732
 11
144.6659300526
 21
56.0282319369
  0
LINE
  5
38D
100
AcDbEntity
  8
0
100
AcDbLine
 62
9
  6
CONTINUOUS
 10
145.6287382429
 20
56.0568854458
 11
145.7235987859
 21
56.0808399135
  0
LINE
  5
38E
100
AcDbEntity
  8
0
100
AcDbLine
 62
7
  6
CONTINUOUS
 10
144.7056468024
 20
56.0381968659
 11
144.6858963106
 21
56.0332936732
  0
LINE
  5
38F
100
AcDbEntity
  8
0
100
AcDbLine
 62
9
  6
CONTINUOUS
 10
144.6569205112
 20
56.0252106123
 11
144.7708989676
 21
56.0530389662
  0
LINE
  5
390
100
AcDbEntity
  8
0
100
AcDbLine
 62
7
  6
CONTINUOUS
 10
144.7251783738
 20
56.0429447355
 11
144.7056468024
 21
56.0381968659
  0
LINE
  5
391
100
AcDbEntity
  8
0
100
AcDbLine
 62
7
  6
CONTINUOUS
 10
144.7820821771
 20
56.0564365341
 11
144.7540561176
 21
56.0497817407
  0
LINE
  5
392
100
AcDbEntity
  8
0
100
AcDbLine
 62
7
  6
CONTINUOUS
 10
144.7190434019
 20
56.041689511
 11
144.760255586
 21
56.0514474327
  0
LINE
  5
393
100
AcDbEntity
  8
0
100
AcDbLine
 62
7
  6
CONTINUOUS
 10
144.7917511249
 20
56.05838068
 11
144.7730211454
 21
56.0541539198
  0
LINE
  5
394
100
AcDbEntity
  8
0
100
AcDbLine
 62
7
  6
CONTINUOUS
 10
144.8353470955
 20
56.0680970929
 11
144.801026483
 21
56.0604403983
  0
LINE
  5
395
100
AcDbEntity
  8
0
100
AcDbLine
 62
7
  6
CONTINUOUS
 10
144.8088697897
 20
56.06239168
 11
144.7820821771
 21
56.0564365341
  0
LINE
  5
396
100
AcDbEntity
  8
0
100
AcDbLine
 62
9
  6
CONTINUOUS
 10
145.7235987859
 20
56.0808399135
 11
145.8198175044
 21
56.101805479
  0
LINE
  5
397
100
AcDbEntity
  8
0
100
AcDbLine
 62
9
  6
CONTINUOUS
 10
144.7708989676
 20
56.0530389662
 11
144.8867896461
 21
56.0778887461
  0
LINE
  5
398
100
AcDbEntity
  8
0
100
AcDbLine
 62
7
  6
CONTINUOUS
 10
144.8375166084
 20
56.0683296686
 11
144.8193949808
 21
56.0644542555
  0
LINE
  5
399
100
AcDbEntity
  8
0
100
AcDbLine
 62
7
  6
CONTINUOUS
 10
144.8872518374
 20
56.0787645247
 11
144.8553867027
 21
56.0720694346
  0
LINE
  5
39A
100
AcDbEntity
  8
0
100
AcDbLine
 62
7
  6
CONTINUOUS
 10
144.8615049621
 20
56.0735583169
 11
144.8353470955
 21
56.0680970929
  0
LINE
  5
39B
100
AcDbEntity
  8
0
100
AcDbLine
 62
7
  6
CONTINUOUS
 10
144.8989345144
 20
56.0808444138
 11
144.87736352
 21
56.0765576455
  0
LINE
  5
39C
100
AcDbEntity
  8
0
100
AcDbLine
 62
7
  6
CONTINUOUS
 10
144.9369075553
 20
56.0883345531
 11
144.9074517429
 21
56.0825047927
  0
LINE
  5
39D
100
AcDbEntity
  8
0
100
AcDbLine
 62
7
  6
CONTINUOUS
 10
144.9124178936
 20
56.083691938
 11
144.8872518374
 21
56.0787645247
  0
LINE
  5
39E
100
AcDbEntity
  8
0
100
AcDbLine
 62
7
  6
CONTINUOUS
 10
144.9491367823
 20
56.090368936
 11
144.9284775427
 21
56.0865257477
  0
LINE
  5
39F
100
AcDbEntity
  8
0
100
AcDbLine
 62
9
  6
CONTINUOUS
 10
144.8867896461
 20
56.0778887461
 11
145.0043441062
 21
56.0996367864
  0
LINE
  5
3A0
100
AcDbEntity
  8
0
100
AcDbLine
 62
9
  6
CONTINUOUS
 10
145.8198175044
 20
56.101805479
 11
145.9172007026
 21
56.1196928972
  0
LINE
  5
3A1
100
AcDbEntity
  8
0
100
AcDbLine
 62
7
  6
CONTINUOUS
 10
144.9606187879
 20
56.0926870636
 11
144.9369075553
 21
56.0883345531
  0
LINE
  5
3A2
100
AcDbEntity
  8
0
100
AcDbLine
 62
7
  6
CONTINUOUS
 10
145.0050693521
 20
56.1004707534
 11
144.9814768432
 21
56.0961717948
  0
LINE
  5
3A3
100
AcDbEntity
  8
0
100
AcDbLine
 62
7
  6
CONTINUOUS
 10
144.9734709416
 20
56.0947594313
 11
144.9532263279
 21
56.0911170836
  0
LINE
  5
3A4
100
AcDbEntity
  8
0
100
AcDbLine
 62
7
  6
CONTINUOUS
 10
144.983406163
 20
56.0967384044
 11
144.9606187879
 21
56.0926870636
  0
LINE
  5
3A5
100
AcDbEntity
  8
0
100
AcDbLine
 62
7
  6
CONTINUOUS
 10
144.9814768432
 20
56.0961717948
 11
144.9734709416
 21
56.0947594313
  0
LINE
  5
3A6
100
AcDbEntity
  8
0
100
AcDbLine
 62
7
  6
CONTINUOUS
 10
145.016893644
 20
56.1022302518
 11
144.9973377544
 21
56.0989231564
  0
LINE
  5
3A7
100
AcDbEntity
  8
0
100
AcDbLine
 62
7
  6
CONTINUOUS
 10
145.0255325038
 20
56.1038900739
 11
145.0050693521
 21
56.1004707534
  0
LINE
  5
3A8
100
AcDbEntity
  8
0
100
AcDbLine
 62
7
  6
CONTINUOUS
 10
145.0596766815
 20
56.1091349672
 11
145.0793376609
 21
56.1123903904
  0
LINE
  5
3A9
100
AcDbEntity
  8
0
100
AcDbLine
 62
7
  6
CONTINUOUS
 10
145.0361672595
 20
56.1053979127
 11
145.016893644
 21
56.1022302518
  0
LINE
  5
3AA
100
AcDbEntity
  8
0
100
AcDbLine
 62
7
  6
CONTINUOUS
 10
145.0447270772
 20
56.107003863
 11
145.0255325038
 21
56.1038900739
  0
LINE
  5
3AB
100
AcDbEntity
  8
0
100
AcDbLine
 62
7
  6
CONTINUOUS
 10
145.0551776548
 20
56.1084335187
 11
145.0361672595
 21
56.1053979127
  0
LINE
  5
3AC
100
AcDbEntity
  8
0
100
AcDbLine
 62
7
  6
CONTINUOUS
 10
145.0715519753
 20
56.1112042132
 11
145.0447680315
 21
56.1070104101
  0
LINE
  5
3AD
100
AcDbEntity
  8
0
100
AcDbLine
 62
9
  6
CONTINUOUS
 10
145.0043441062
 20
56.0996367864
 11
145.123289279
 21
56.1181848982
  0
LINE
  5
3AE
100
AcDbEntity
  8
0
100
AcDbLine
 62
9
  6
CONTINUOUS
 10
142.2942844923
 20
53.6260065415
 11
142.2934691963
 21
53.6258803752
  0
LINE
  5
3AF
100
AcDbEntity
  8
0
100
AcDbLine
 62
7
  6
CONTINUOUS
 10
145.08506238
 20
56.1130281247
 11
145.0664618001
 21
56.1101938257
  0
LINE
  5
3B0
100
AcDbEntity
  8
0
100
AcDbLine
 62
7
  6
CONTINUOUS
 10
145.0793376608
 20
56.1123903904
 11
145.0715519753
 21
56.1112042132
  0
LINE
  5
3B1
100
AcDbEntity
  8
0
100
AcDbLine
 62
9
  6
CONTINUOUS
 10
145.9172007026
 20
56.1196928972
 11
146.015557343
 21
56.134437091
  0
LINE
  5
3B2
100
AcDbEntity
  8
0
100
AcDbLine
 62
7
  6
CONTINUOUS
 10
145.1070362824
 20
56.1162687592
 11
145.08506238
 21
56.1130281247
  0
LINE
  5
3B3
100
AcDbEntity
  8
0
100
AcDbLine
 62
7
  6
CONTINUOUS
 10
145.1286235207
 20
56.1193392229
 11
145.1070362824
 21
56.1162687592
  0
LINE
  5
3B4
100
AcDbEntity
  8
0
100
AcDbLine
 62
7
  6
CONTINUOUS
 10
145.1498153342
 20
56.1222447614
 11
145.1286235207
 21
56.1193392229
  0
LINE
  5
3B5
100
AcDbEntity
  8
0
100
AcDbLine
 62
7
  6
CONTINUOUS
 10
145.0793808196
 20
56.1123969246
 11
145.2141394803
 21
56.1306026444
  0
LINE
  5
3B6
100
AcDbEntity
  8
0
100
AcDbLine
 62
7
  6
CONTINUOUS
 10
145.1706030354
 20
56.1249906251
 11
145.1498153342
 21
56.1222447614
  0
LINE
  5
3B7
100
AcDbEntity
  8
0
100
AcDbLine
 62
9
  6
CONTINUOUS
 10
145.123289279
 20
56.1181848982
 11
145.2434244214
 21
56.1334719947
  0
LINE
  5
3B8
100
AcDbEntity
  8
0
100
AcDbLine
 62
7
  6
CONTINUOUS
 10
145.1909780056
 20
56.1275820648
 11
145.1706030354
 21
56.1249906251
  0
LINE
  5
3B9
100
AcDbEntity
  8
0
100
AcDbLine
 62
7
  6
CONTINUOUS
 10
145.2109316931
 20
56.130024327
 11
145.1909780056
 21
56.1275820648
  0
LINE
  5
3BA
100
AcDbEntity
  8
0
100
AcDbLine
 62
9
  6
CONTINUOUS
 10
142.2965286377
 20
53.6262803837
 11
142.2942844923
 21
53.6260065415
  0
LINE
  5
3BB
100
AcDbEntity
  8
0
100
AcDbLine
 62
7
  6
CONTINUOUS
 10
145.2304547428
 20
56.1323225497
 11
145.2109316931
 21
56.130024327
  0
LINE
  5
3BC
100
AcDbEntity
  8
0
100
AcDbLine
 62
9
  6
CONTINUOUS
 10
146.015557343
 20
56.134437091
 11
146.1147142394
 21
56.145975491
  0
LINE
  5
3BD
100
AcDbEntity
  8
0
100
AcDbLine
 62
7
  6
CONTINUOUS
 10
145.2495305369
 20
56.1344810603
 11
145.2304547428
 21
56.1323225497
  0
LINE
  5
3BE
100
AcDbEntity
  8
0
100
AcDbLine
 62
7
  6
CONTINUOUS
 10
145.2711932756
 20
56.1368281605
 11
145.2495305369
 21
56.1344810603
  0
LINE
  5
3BF
100
AcDbEntity
  8
0
100
AcDbLine
 62
7
  6
CONTINUOUS
 10
145.2141394803
 20
56.1306026444
 11
145.3412322215
 21
56.1438094552
  0
LINE
  5
3C0
100
AcDbEntity
  8
0
100
AcDbLine
 62
7
  6
CONTINUOUS
 10
145.2921874557
 20
56.1389973504
 11
145.2711932756
 21
56.1368281605
  0
LINE
  5
3C1
100
AcDbEntity
  8
0
100
AcDbLine
 62
9
  6
CONTINUOUS
 10
145.2434244214
 20
56.1334719947
 11
145.3645524487
 21
56.145433811
  0
LINE
  5
3C2
100
AcDbEntity
  8
0
100
AcDbLine
 62
7
  6
CONTINUOUS
 10
145.312482735
 20
56.1409958016
 11
145.2921874557
 21
56.1389973504
  0
LINE
  5
3C3
100
AcDbEntity
  8
DEFAULT_2
100
AcDbLine
 62
8
  6
CONTINUOUS
 10
169.6167622955
 20
36.4930380846
 11
170.314880845
 21
36.5598667313
  0
LINE
  5
3C4
100
AcDbEntity
  8
0
100
AcDbLine
 62
7
  6
CONTINUOUS
 10
145.3320925086
 20
56.1428348776
 11
145.312482735
 21
56.1409958016
  0
LINE
  5
3C5
100
AcDbEntity
  8
0
100
AcDbLine
 62
7
  6
CONTINUOUS
 10
145.3510761603
 20
56.1445293328
 11
145.3320925086
 21
56.1428348776
  0
LINE
  5
3C6
100
AcDbEntity
  8
0
100
AcDbLine
 62
7
  6
CONTINUOUS
 10
174.4011677442
 20
34.0523296893
 11
174.4061955862
 21
34.052765831
  0
LINE
  5
3C7
100
AcDbEntity
  8
0
100
AcDbLine
 62
7
  6
CONTINUOUS
 10
145.3720841272
 20
56.1463061958
 11
145.3510761603
 21
56.1445293328
  0
LINE
  5
3C8
100
AcDbEntity
  8
0
100
AcDbLine
 62
9
  6
CONTINUOUS
 10
146.1147142394
 20
56.145975491
 11
146.2144294012
 21
56.154245922
  0
LINE
  5
3C9
100
AcDbEntity
  8
0
100
AcDbLine
 62
7
  6
CONTINUOUS
 10
145.3924468913
 20
56.1479301866
 11
145.3720841272
 21
56.1463061958
  0
LINE
  5
3CA
100
AcDbEntity
  8
0
100
AcDbLine
 62
7
  6
CONTINUOUS
 10
174.3965162431
 20
34.051964778
 11
174.4014169613
 21
34.0523503078
  0
LINE
  5
3CB
100
AcDbEntity
  8
0
100
AcDbLine
 62
7
  6
CONTINUOUS
 10
145.4122291364
 20
56.1494154224
 11
145.3924468913
 21
56.1479301866
  0
LINE
  5
3CC
100
AcDbEntity
  8
0
100
AcDbLine
 62
7
  6
CONTINUOUS
 10
145.3412322215
 20
56.1438094552
 11
145.4615171491
 21
56.1527198045
  0
LINE
  5
3CD
100
AcDbEntity
  8
0
100
AcDbLine
 62
7
  6
CONTINUOUS
 10
174.3919520297
 20
34.051639587
 11
174.3967521969
 21
34.0519824992
  0
LINE
  5
3CE
100
AcDbEntity
  8
0
100
AcDbLine
 62
7
  6
CONTINUOUS
 10
145.4314214798
 20
56.1507694567
 11
145.4122291364
 21
56.1494154224
  0
LINE
  5
3CF
100
AcDbEntity
  8
0
100
AcDbLine
 62
9
  6
CONTINUOUS
 10
145.3645524487
 20
56.145433811
 11
145.4863551465
 21
56.1540069671
  0
LINE
  5
3D0
100
AcDbEntity
  8
0
100
AcDbLine
 62
9
  6
CONTINUOUS
 10
142.3002905713
 20
53.6265343112
 11
142.2965286377
 21
53.6262803837
  0
LINE
  5
3D1
100
AcDbEntity
  8
0
100
AcDbLine
 62
7
  6
CONTINUOUS
 10
145.4522807685
 20
56.1521441954
 11
145.4314214798
 21
56.1507694567
  0
LINE
  5
3D2
100
AcDbEntity
  8
0
100
AcDbLine
 62
7
  6
CONTINUOUS
 10
174.3874336373
 20
34.0513467436
 11
174.3921779101
 21
34.051655012
  0
LINE
  5
3D3
100
AcDbEntity
  8
0
100
AcDbLine
 62
7
  6
CONTINUOUS
 10
145.4723352138
 20
56.1533708707
 11
145.4522807685
 21
56.1521441954
  0
LINE
  5
3D4
100
AcDbEntity
  8
0
100
AcDbLine
 62
7
  6
CONTINUOUS
 10
174.3829241752
 20
34.0510804388
 11
174.3876522851
 21
34.051360342
  0
LINE
  5
3D5
100
AcDbEntity
  8
0
100
AcDbLine
 62
7
  6
CONTINUOUS
 10
145.4915504074
 20
56.154458941
 11
145.4723352138
 21
56.1533708707
  0
LINE
  5
3D6
100
AcDbEntity
  8
0
100
AcDbLine
 62
7
  6
CONTINUOUS
 10
174.3783965229
 20
34.0508363843
 11
174.3829241752
 21
34.0510804388
  0
LINE
  5
3D7
100
AcDbEntity
  8
0
100
AcDbLine
 62
7
  6
CONTINUOUS
 10
145.5118379172
 20
56.155515143
 11
145.4915504074
 21
56.154458941
  0
LINE
  5
3D8
100
AcDbEntity
  8
0
100
AcDbLine
 62
9
  6
CONTINUOUS
 10
146.2144294012
 20
56.154245922
 11
146.3145409867
 21
56.1592189391
  0
LINE
  5
3D9
100
AcDbEntity
  8
0
100
AcDbLine
 62
7
  6
CONTINUOUS
 10
145.530911096
 20
56.1564214633
 11
145.5118379172
 21
56.155515143
  0
LINE
  5
3DA
100
AcDbEntity
  8
0
100
AcDbLine
 62
7
  6
CONTINUOUS
 10
174.3691797456
 20
34.0504013259
 11
174.3783965229
 21
34.0508363843
  0
LINE
  5
3DB
100
AcDbEntity
  8
0
100
AcDbLine
 62
7
  6
CONTINUOUS
 10
145.4849728264
 20
56.1539868771
 11
145.5973120963
 21
56.1589772189
  0
LINE
  5
3DC
100
AcDbEntity
  8
DEFAULT_2
100
AcDbLine
 62
8
  6
CONTINUOUS
 10
174.2089993724
 20
55.8039468701
 11
176.4388941402
 21
55.9008988166
  0
LINE
  5
3DD
100
AcDbEntity
  8
0
100
AcDbLine
 62
7
  6
CONTINUOUS
 10
145.5505640636
 20
56.1572675277
 11
145.530911096
 21
56.1564214633
  0
LINE
  5
3DE
100
AcDbEntity
  8
0
100
AcDbLine
 62
9
  6
CONTINUOUS
 10
145.4863551465
 20
56.1540069671
 11
145.6085183955
 21
56.1591603974
  0
LINE
  5
3DF
100
AcDbEntity
  8
0
100
AcDbLine
 62
7
  6
CONTINUOUS
 10
174.3644363646
 20
34.0502048446
 11
174.3691797456
 21
34.0504013259
  0
LINE
  5
3E0
100
AcDbEntity
  8
0
100
AcDbLine
 62
7
  6
CONTINUOUS
 10
145.5707204785
 20
56.1580427203
 11
145.5505640636
 21
56.1572675277
  0
LINE
  5
3E1
100
AcDbEntity
  8
0
100
AcDbLine
 62
7
  6
CONTINUOUS
 10
174.3545593837
 20
34.0498442064
 11
174.3644363646
 21
34.0502048446
  0
LINE
  5
3E2
100
AcDbEntity
  8
0
100
AcDbLine
 62
7
  6
CONTINUOUS
 10
145.5897270811
 20
56.1586878784
 11
145.5707204785
 21
56.1580427203
  0
LINE
  5
3E3
100
AcDbEntity
  8
0
100
AcDbLine
 62
7
  6
CONTINUOUS
 10
174.3440255448
 20
34.0495180181
 11
174.3545593837
 21
34.0498442064
  0
LINE
  5
3E4
100
AcDbEntity
  8
0
100
AcDbLine
 62
7
  6
CONTINUOUS
 10
145.6089517414
 20
56.1592557526
 11
145.5897270811
 21
56.1586878784
  0
LINE
  5
3E5
100
AcDbEntity
  8
0
100
AcDbLine
 62
7
  6
CONTINUOUS
 10
174.3267154796
 20
34.0490795235
 11
174.3440255448
 21
34.0495180181
  0
LINE
  5
3E6
100
AcDbEntity
  8
0
100
AcDbLine
 62
7
  6
CONTINUOUS
 10
145.6291909292
 20
56.1597616324
 11
145.6089517414
 21
56.1592557526
  0
LINE
  5
3E7
100
AcDbEntity
  8
0
100
AcDbLine
 62
7
  6
CONTINUOUS
 10
145.6482656767
 20
56.160152141
 11
145.6291909292
 21
56.1597616324
  0
LINE
  5
3E8
100
AcDbEntity
  8
0
100
AcDbLine
 62
7
  6
CONTINUOUS
 10
174.3073174757
 20
34.048691826
 11
174.3267154796
 21
34.0490795235
  0
LINE
  5
3E9
100
AcDbEntity
  8
0
100
AcDbLine
 62
9
  6
CONTINUOUS
 10
142.3311967925
 20
53.6271394843
 11
142.3002905713
 21
53.6265343112
  0
LINE
  5
3EA
100
AcDbEntity
  8
0
100
AcDbLine
 62
9
  6
CONTINUOUS
 10
146.3145409867
 20
56.1592189391
 11
146.4150205752
 21
56.1608803412
  0
LINE
  5
3EB
100
AcDbEntity
  8
0
100
AcDbLine
 62
7
  6
CONTINUOUS
 10
145.6673301399
 20
56.1604588824
 11
145.6482656767
 21
56.160152141
  0
LINE
  5
3EC
100
AcDbEntity
  8
0
100
AcDbLine
 62
7
  6
CONTINUOUS
 10
174.2778587105
 20
34.0482446075
 11
174.3073174757
 21
34.048691826
  0
LINE
  5
3ED
100
AcDbEntity
  8
0
100
AcDbLine
 62
7
  6
CONTINUOUS
 10
145.5973120963
 20
56.1589772189
 11
145.6010818908
 21
56.1590330955
  0
LINE
  5
3EE
100
AcDbEntity
  8
0
100
AcDbLine
 62
7
  6
CONTINUOUS
 10
145.6371825605
 20
56.1595681864
 11
145.7257089459
 21
56.1608803412
  0
LINE
  5
3EF
100
AcDbEntity
  8
0
100
AcDbLine
 62
9
  6
CONTINUOUS
 10
142.3566194431
 20
53.6275084121
 11
142.3311967925
 21
53.6271394843
  0
LINE
  5
3F0
100
AcDbEntity
  8
0
100
AcDbLine
 62
9
  6
CONTINUOUS
 10
145.6085183955
 20
56.1591603974
 11
145.6371823486
 21
56.1595627401
  0
LINE
  5
3F1
100
AcDbEntity
  8
0
100
AcDbLine
 62
7
  6
CONTINUOUS
 10
145.68650093
 20
56.1606831985
 11
145.6673301399
 21
56.1604588824
  0
LINE
  5
3F2
100
AcDbEntity
  8
0
100
AcDbLine
 62
9
  6
CONTINUOUS
 10
179.08406004
 20
53.6260714119
 11
179.1586825758
 21
53.6268627569
  0
LINE
  5
3F3
100
AcDbEntity
  8
0
100
AcDbLine
 62
7
  6
CONTINUOUS
 10
174.2249471937
 20
34.0477083772
 11
174.2778587105
 21
34.0482446075
  0
LINE
  5
3F4
100
AcDbEntity
  8
0
100
AcDbLine
 62
9
  6
CONTINUOUS
 10
142.4279552003
 20
53.6280403783
 11
142.3566194431
 21
53.6275084121
  0
LINE
  5
3F5
100
AcDbEntity
  8
0
100
AcDbLine
 62
7
  6
CONTINUOUS
 10
145.7060461557
 20
56.160825153
 11
145.68650093
 21
56.1606831985
  0
LINE
  5
3F6
100
AcDbEntity
  8
0
100
AcDbLine
 62
9
  6
CONTINUOUS
 10
179.2360306874
 20
53.6270690445
 11
179.395872573
 21
53.6280045717
  0
LINE
  5
3F7
100
AcDbEntity
  8
0
100
AcDbLine
 62
7
  6
CONTINUOUS
 10
148.7226764969
 20
34.0476558644
 11
149.0452916791
 21
34.0493921682
  0
LINE
  5
3F8
100
AcDbEntity
  8
0
100
AcDbLine
 62
7
  6
CONTINUOUS
 10
174.1349824234
 20
34.0472347624
 11
174.2249471937
 21
34.0477083772
  0
LINE
  5
3F9
100
AcDbEntity
  8
0
100
AcDbLine
 62
9
  6
CONTINUOUS
 10
179.048221977
 20
53.6258803751
 11
179.08406004
 21
53.6260714119
  0
LINE
  5
3FA
100
AcDbEntity
  8
0
100
AcDbLine
 62
7
  6
CONTINUOUS
 10
149.0452916791
 20
34.0493921682
 11
149.1860304379
 21
34.0498356691
  0
LINE
  5
3FB
100
AcDbEntity
  8
0
100
AcDbLine
 62
9
  6
CONTINUOUS
 10
142.6839214898
 20
53.6288362397
 11
142.4279552003
 21
53.6280403783
  0
LINE
  5
3FC
100
AcDbEntity
  8
0
100
AcDbLine
 62
9
  6
CONTINUOUS
 10
179.395872573
 20
53.6280045717
 11
179.5583548151
 21
53.6284587837
  0
LINE
  5
3FD
100
AcDbEntity
  8
0
100
AcDbLine
 62
7
  6
CONTINUOUS
 10
145.7257294895
 20
56.1608797274
 11
145.7060461557
 21
56.160825153
  0
LINE
  5
3FE
100
AcDbEntity
  8
0
100
AcDbLine
 62
9
  6
CONTINUOUS
 10
179.1586825758
 20
53.6268627569
 11
179.2360306874
 21
53.6270690445
  0
LINE
  5
3FF
100
AcDbEntity
  8
0
100
AcDbLine
 62
9
  6
CONTINUOUS
 10
179.5583548151
 20
53.6284587837
 11
179.5988538067
 21
53.6285606699
  0
LINE
  5
400
100
AcDbEntity
  8
0
100
AcDbLine
 62
9
  6
CONTINUOUS
 10
179.5988538067
 20
53.6285606699
 11
179.7946562603
 21
53.6288812911
  0
LINE
  5
401
100
AcDbEntity
  8
0
100
AcDbLine
 62
7
  6
CONTINUOUS
 10
173.9681246875
 20
34.0471064167
 11
174.1349824234
 21
34.0472347624
  0
LINE
  5
402
100
AcDbEntity
  8
0
100
AcDbLine
 62
7
  6
CONTINUOUS
 10
148.5203929436
 20
34.0475292752
 11
148.7226764969
 21
34.0476558644
  0
LINE
  5
403
100
AcDbEntity
  8
0
100
AcDbLine
 62
7
  6
CONTINUOUS
 10
149.1860304379
 20
34.0498356691
 11
173.3396924117
 21
34.0498531133
  0
LINE
  5
404
100
AcDbEntity
  8
DEFAULT_2
100
AcDbLine
 62
8
  6
CONTINUOUS
 10
166.2731683622
 20
35.8758803412
 11
168.8137700507
 21
35.8758803412
  0
LINE
  5
405
100
AcDbEntity
  8
0
100
AcDbLine
 62
7
  6
CONTINUOUS
 10
142.2934692144
 20
53.6258803412
 11
180.2934691985
 21
53.6258803412
  0
LINE
  5
406
100
AcDbEntity
  8
0
100
AcDbLine
 62
7
  6
CONTINUOUS
 10
176.8581289218
 20
56.16088036
 11
176.8577158299
 21
56.1608803427
  0
LINE
  5
407
100
AcDbEntity
  8
0
100
AcDbLine
 62
9
  6
CONTINUOUS
 10
176.861229467
 20
56.1608803412
 11
176.8558866875
 21
56.1608803412
  0
LINE
  5
408
100
AcDbEntity
  8
0
100
AcDbLine
 62
9
  6
CONTINUOUS
 10
145.7257089459
 20
56.1608803412
 11
145.7310517254
 21
56.1608803412
  0
LINE
  5
409
100
AcDbEntity
  8
0
100
AcDbLine
 62
7
  6
CONTINUOUS
 10
176.8731797265
 20
56.1608570978
 11
145.7246532872
 21
56.1608790331
  0
LINE
  5
40A
100
AcDbEntity
  8
0
100
AcDbLine
 62
9
  6
CONTINUOUS
 10
142.9880846062
 20
53.6285606699
 11
142.6839214898
 21
53.6288362397
  0
LINE
  5
40B
100
AcDbEntity
  8
0
100
AcDbLine
 62
9
  6
CONTINUOUS
 10
179.7946562603
 20
53.6288812911
 11
179.9697958288
 21
53.6287302611
  0
LINE
  5
40C
100
AcDbEntity
  8
0
100
AcDbLine
 62
7
  6
CONTINUOUS
 10
173.3396924117
 20
34.0498531137
 11
173.4751395162
 21
34.04956976
  0
LINE
  5
40D
100
AcDbEntity
  8
0
100
AcDbLine
 62
9
  6
CONTINUOUS
 10
179.9697958288
 20
53.6287302611
 11
180.1367675315
 21
53.6281599771
  0
LINE
  5
40E
100
AcDbEntity
  8
0
100
AcDbLine
 62
7
  6
CONTINUOUS
 10
173.7215585626
 20
34.0479994782
 11
173.9681246875
 21
34.0471064167
  0
LINE
  5
40F
100
AcDbEntity
  8
0
100
AcDbLine
 62
9
  6
CONTINUOUS
 10
143.4282558371
 20
53.6268627569
 11
143.3115919733
 21
53.6272836821
  0
LINE
  5
410
100
AcDbEntity
  8
0
100
AcDbLine
 62
7
  6
CONTINUOUS
 10
148.4100583538
 20
34.0479411861
 11
148.5203929436
 21
34.0475292752
  0
LINE
  5
411
100
AcDbEntity
  8
0
100
AcDbLine
 62
9
  6
CONTINUOUS
 10
143.3115919733
 20
53.6272836821
 11
142.9880846062
 21
53.6285606699
  0
LINE
  5
412
100
AcDbEntity
  8
0
100
AcDbLine
 62
7
  6
CONTINUOUS
 10
176.8777808837
 20
56.1608396782
 11
176.8731797265
 21
56.1608570978
  0
LINE
  5
413
100
AcDbEntity
  8
0
100
AcDbLine
 62
7
  6
CONTINUOUS
 10
176.880892474
 20
56.1608251519
 11
176.8777808837
 21
56.1608396782
  0
LINE
  5
414
100
AcDbEntity
  8
0
100
AcDbLine
 62
9
  6
CONTINUOUS
 10
143.5387164358
 20
53.6258803751
 11
143.5028783728
 21
53.6260714119
  0
LINE
  5
415
100
AcDbEntity
  8
0
100
AcDbLine
 62
7
  6
CONTINUOUS
 10
173.4751395162
 20
34.04956976
 11
173.5849678079
 21
34.0489701406
  0
LINE
  5
416
100
AcDbEntity
  8
0
100
AcDbLine
 62
7
  6
CONTINUOUS
 10
176.8862047606
 20
56.1607952292
 11
176.880892474
 21
56.1608251519
  0
LINE
  5
417
100
AcDbEntity
  8
0
100
AcDbLine
 62
9
  6
CONTINUOUS
 10
180.1367675315
 20
53.6281599771
 11
180.2150755124
 21
53.6276581231
  0
LINE
  5
418
100
AcDbEntity
  8
0
100
AcDbLine
 62
7
  6
CONTINUOUS
 10
173.5849678079
 20
34.0489701406
 11
173.7215585626
 21
34.0479994782
  0
LINE
  5
419
100
AcDbEntity
  8
0
100
AcDbLine
 62
7
  6
CONTINUOUS
 10
148.344863947
 20
34.0484742731
 11
148.4100583538
 21
34.0479411861
  0
LINE
  5
41A
100
AcDbEntity
  8
0
100
AcDbLine
 62
7
  6
CONTINUOUS
 10
176.9055366958
 20
56.160631763
 11
176.8862047606
 21
56.1607952292
  0
LINE
  5
41B
100
AcDbEntity
  8
0
100
AcDbLine
 62
9
  6
CONTINUOUS
 10
143.5028783728
 20
53.6260714119
 11
143.4282558371
 21
53.6268627569
  0
LINE
  5
41C
100
AcDbEntity
  8
0
100
AcDbLine
 62
9
  6
CONTINUOUS
 10
180.2150755124
 20
53.6276581231
 11
180.2438675396
 21
53.6273339855
  0
LINE
  5
41D
100
AcDbEntity
  8
0
100
AcDbLine
 62
7
  6
CONTINUOUS
 10
176.9246777202
 20
56.1603854643
 11
176.9055366958
 21
56.160631763
  0
LINE
  5
41E
100
AcDbEntity
  8
0
100
AcDbLine
 62
7
  6
CONTINUOUS
 10
148.3008979321
 20
34.0490528881
 11
148.344863947
 21
34.0484742731
  0
LINE
  5
41F
100
AcDbEntity
  8
DEFAULT_2
100
AcDbLine
 62
8
  6
CONTINUOUS
 10
164.7286127681
 20
36.3986613779
 11
165.5566185535
 21
36.3870286798
  0
LINE
  5
420
100
AcDbEntity
  8
0
100
AcDbLine
 62
9
  6
CONTINUOUS
 10
176.9784200174
 20
56.1591603974
 11
176.949755918
 21
56.1595681854
  0
LINE
  5
421
100
AcDbEntity
  8
0
100
AcDbLine
 62
7
  6
CONTINUOUS
 10
176.9896263165
 20
56.1589772189
 11
176.9858859645
 21
56.1590326591
  0
LINE
  5
422
100
AcDbEntity
  8
0
100
AcDbLine
 62
7
  6
CONTINUOUS
 10
176.949755918
 20
56.1595681854
 11
176.861229467
 21
56.1608803412
  0
LINE
  5
423
100
AcDbEntity
  8
0
100
AcDbLine
 62
9
  6
CONTINUOUS
 10
176.9896263165
 20
56.1589772189
 11
176.9784200174
 21
56.1591603974
  0
LINE
  5
424
100
AcDbEntity
  8
0
100
AcDbLine
 62
9
  6
CONTINUOUS
 10
176.2723974262
 20
56.1592189391
 11
176.1719178376
 21
56.1608803412
  0
LINE
  5
425
100
AcDbEntity
  8
0
100
AcDbLine
 62
9
  6
CONTINUOUS
 10
180.2744356047
 20
53.6267480077
 11
180.2866478415
 21
53.6265343112
  0
LINE
  5
426
100
AcDbEntity
  8
0
100
AcDbLine
 62
7
  6
CONTINUOUS
 10
176.944381118
 20
56.1600440482
 11
176.9246777202
 21
56.1603854643
  0
LINE
  5
427
100
AcDbEntity
  8
0
100
AcDbLine
 62
9
  6
CONTINUOUS
 10
180.2438675396
 20
53.6273339855
 11
180.2659304104
 21
53.6269366476
  0
LINE
  5
428
100
AcDbEntity
  8
0
100
AcDbLine
 62
7
  6
CONTINUOUS
 10
148.2785610863
 20
34.0494574403
 11
148.3008979321
 21
34.0490528881
  0
LINE
  5
429
100
AcDbEntity
  8
DEFAULT_2
100
AcDbLine
 62
8
  6
CONTINUOUS
 10
163.8221059414
 20
36.4164241044
 11
164.7286127681
 21
36.3986613779
  0
LINE
  5
42A
100
AcDbEntity
  8
0
100
AcDbLine
 62
7
  6
CONTINUOUS
 10
176.96424297
 20
56.159609551
 11
176.944381118
 21
56.1600440482
  0
LINE
  5
42B
100
AcDbEntity
  8
0
100
AcDbLine
 62
9
  6
CONTINUOUS
 10
180.2659304104
 20
53.6269366476
 11
180.2744356047
 21
53.6267480077
  0
LINE
  5
42C
100
AcDbEntity
  8
0
100
AcDbLine
 62
7
  6
CONTINUOUS
 10
148.2589525765
 20
34.0499055515
 11
148.2785610863
 21
34.0494574403
  0
LINE
  5
42D
100
AcDbEntity
  8
DEFAULT_2
100
AcDbLine
 62
8
  6
CONTINUOUS
 10
162.8267778547
 20
36.4421879283
 11
163.8221059414
 21
36.4164241044
  0
LINE
  5
42E
100
AcDbEntity
  8
0
100
AcDbLine
 62
7
  6
CONTINUOUS
 10
176.9837450788
 20
56.1590945873
 11
176.96424297
 21
56.159609551
  0
LINE
  5
42F
100
AcDbEntity
  8
0
100
AcDbLine
 62
7
  6
CONTINUOUS
 10
148.2472520952
 20
34.0502295015
 11
148.2589525765
 21
34.0499055515
  0
LINE
  5
430
100
AcDbEntity
  8
0
100
AcDbLine
 62
7
  6
CONTINUOUS
 10
177.0034171731
 20
56.1584863836
 11
176.9837450788
 21
56.1590945873
  0
LINE
  5
431
100
AcDbEntity
  8
0
100
AcDbLine
 62
7
  6
CONTINUOUS
 10
148.2365074635
 20
34.0505760955
 11
148.2472520952
 21
34.0502295015
  0
LINE
  5
432
100
AcDbEntity
  8
DEFAULT_2
100
AcDbLine
 62
8
  6
CONTINUOUS
 10
161.7314197667
 20
36.4781366054
 11
162.8267778547
 21
36.4421879283
  0
LINE
  5
433
100
AcDbEntity
  8
0
100
AcDbLine
 62
7
  6
CONTINUOUS
 10
177.0228081225
 20
56.1577995784
 11
177.0034171731
 21
56.1584863836
  0
LINE
  5
434
100
AcDbEntity
  8
0
100
AcDbLine
 62
7
  6
CONTINUOUS
 10
148.2265349633
 20
34.0509511565
 11
148.2365074635
 21
34.0505760955
  0
LINE
  5
435
100
AcDbEntity
  8
0
100
AcDbLine
 62
7
  6
CONTINUOUS
 10
148.2266677436
 20
34.0509457676
 11
148.2315750731
 21
34.0507543795
  0
LINE
  5
436
100
AcDbEntity
  8
0
100
AcDbLine
 62
7
  6
CONTINUOUS
 10
177.0433760651
 20
56.1569763201
 11
177.0228081225
 21
56.1577995784
  0
LINE
  5
437
100
AcDbEntity
  8
DEFAULT_2
100
AcDbLine
 62
8
  6
CONTINUOUS
 10
160.5235379927
 20
36.5268784113
 11
161.7314197667
 21
36.4781366054
  0
LINE
  5
438
100
AcDbEntity
  8
DEFAULT_2
100
AcDbLine
 62
8
  6
CONTINUOUS
 10
146.1480442726
 20
55.9008988166
 11
148.3779390404
 21
55.8039468701
  0
LINE
  5
439
100
AcDbEntity
  8
0
100
AcDbLine
 62
7
  6
CONTINUOUS
 10
148.2172552309
 20
34.0513585686
 11
148.2265349633
 21
34.0509511565
  0
LINE
  5
43A
100
AcDbEntity
  8
0
100
AcDbLine
 62
7
  6
CONTINUOUS
 10
177.1020197409
 20
56.1539844715
 11
176.9896263165
 21
56.1589772189
  0
LINE
  5
43B
100
AcDbEntity
  8
0
100
AcDbLine
 62
7
  6
CONTINUOUS
 10
177.0635083517
 20
56.1560759861
 11
177.0433760651
 21
56.1569763201
  0
LINE
  5
43C
100
AcDbEntity
  8
DEFAULT_2
100
AcDbLine
 62
8
  6
CONTINUOUS
 10
152.2638217438
 20
36.9664628082
 11
153.2761620029
 21
36.9189974471
  0
LINE
  5
43D
100
AcDbEntity
  8
DEFAULT_2
100
AcDbLine
 62
8
  6
CONTINUOUS
 10
159.1907169953
 20
36.5905791918
 11
160.5235379927
 21
36.5268784113
  0
LINE
  5
43E
100
AcDbEntity
  8
0
100
AcDbLine
 62
7
  6
CONTINUOUS
 10
177.0830753635
 20
56.1551112967
 11
177.0635083517
 21
56.1560759861
  0
LINE
  5
43F
100
AcDbEntity
  8
0
100
AcDbLine
 62
9
  6
CONTINUOUS
 10
176.3725090116
 20
56.154245922
 11
176.2723974262
 21
56.1592189391
  0
LINE
  5
440
100
AcDbEntity
  8
0
100
AcDbLine
 62
7
  6
CONTINUOUS
 10
148.2081838711
 20
34.0518254406
 11
148.2172552309
 21
34.0513585686
  0
LINE
  5
441
100
AcDbEntity
  8
DEFAULT_2
100
AcDbLine
 62
8
  6
CONTINUOUS
 10
153.2761620029
 20
36.9189974471
 11
154.2882547014
 21
36.8664454555
  0
LINE
  5
442
100
AcDbEntity
  8
0
100
AcDbLine
 62
7
  6
CONTINUOUS
 10
177.1038217896
 20
56.1539918836
 11
177.0830753635
 21
56.1551112967
  0
LINE
  5
443
100
AcDbEntity
  8
DEFAULT_2
100
AcDbLine
 62
8
  6
CONTINUOUS
 10
157.720477976
 20
36.6702823024
 11
159.1907169953
 21
36.5905791918
  0
LINE
  5
444
100
AcDbEntity
  8
DEFAULT_2
100
AcDbLine
 62
8
  6
CONTINUOUS
 10
154.2882547014
 20
36.8664454555
 11
155.1918067474
 21
36.8162091284
  0
LINE
  5
445
100
AcDbEntity
  8
DEFAULT_2
100
AcDbLine
 62
8
  6
CONTINUOUS
 10
155.1918067474
 20
36.8162091284
 11
156.0952552023
 21
36.7641548136
  0
LINE
  5
446
100
AcDbEntity
  8
DEFAULT_2
100
AcDbLine
 62
8
  6
CONTINUOUS
 10
156.0952552023
 20
36.7641548136
 11
157.720477976
 21
36.6702823024
  0
LINE
  5
447
100
AcDbEntity
  8
0
100
AcDbLine
 62
7
  6
CONTINUOUS
 10
148.2036858725
 20
34.0520872395
 11
148.2081838711
 21
34.0518254406
  0
LINE
  5
448
100
AcDbEntity
  8
0
100
AcDbLine
 62
7
  6
CONTINUOUS
 10
177.1234155367
 20
56.1528433086
 11
177.1038217896
 21
56.1539918836
  0
LINE
  5
449
100
AcDbEntity
  8
0
100
AcDbLine
 62
7
  6
CONTINUOUS
 10
177.1438315084
 20
56.151552012
 11
177.1234155367
 21
56.1528433086
  0
LINE
  5
44A
100
AcDbEntity
  8
0
100
AcDbLine
 62
7
  6
CONTINUOUS
 10
148.1991770877
 20
34.0523729514
 11
148.2036858725
 21
34.0520872395
  0
LINE
  5
44B
100
AcDbEntity
  8
0
100
AcDbLine
 62
9
  6
CONTINUOUS
 10
180.2866478415
 20
53.6265343112
 11
180.2904097752
 21
53.6262803837
  0
LINE
  5
44C
100
AcDbEntity
  8
0
100
AcDbLine
 62
7
  6
CONTINUOUS
 10
177.1650386263
 20
56.1501083832
 11
177.1438315084
 21
56.151552012
  0
LINE
  5
44D
100
AcDbEntity
  8
0
100
AcDbLine
 62
7
  6
CONTINUOUS
 10
148.1946250262
 20
34.052687657
 11
148.1991770877
 21
34.0523729514
  0
LINE
  5
44E
100
AcDbEntity
  8
0
100
AcDbLine
 62
9
  6
CONTINUOUS
 10
177.2223859641
 20
56.145433811
 11
177.1005832663
 21
56.1540069671
  0
LINE
  5
44F
100
AcDbEntity
  8
0
100
AcDbLine
 62
7
  6
CONTINUOUS
 10
177.1747098959
 20
56.1494153773
 11
177.1650386263
 21
56.1501083832
  0
LINE
  5
450
100
AcDbEntity
  8
0
100
AcDbLine
 62
7
  6
CONTINUOUS
 10
177.2457061914
 20
56.1438094552
 11
177.1253542646
 21
56.1527247676
  0
LINE
  5
451
100
AcDbEntity
  8
0
100
AcDbLine
 62
7
  6
CONTINUOUS
 10
177.1944921508
 20
56.1479301379
 11
177.1747098959
 21
56.1494153773
  0
LINE
  5
452
100
AcDbEntity
  8
0
100
AcDbLine
 62
7
  6
CONTINUOUS
 10
148.1900112793
 20
34.0530363579
 11
148.1946250262
 21
34.052687657
  0
LINE
  5
453
100
AcDbEntity
  8
0
100
AcDbLine
 62
7
  6
CONTINUOUS
 10
177.214854925
 20
56.1463061433
 11
177.1944921508
 21
56.1479301379
  0
LINE
  5
454
100
AcDbEntity
  8
0
100
AcDbLine
 62
7
  6
CONTINUOUS
 10
148.1853120276
 20
34.0534252997
 11
148.1900112793
 21
34.0530363579
  0
LINE
  5
455
100
AcDbEntity
  8
0
100
AcDbLine
 62
9
  6
CONTINUOUS
 10
176.4722241735
 20
56.145975491
 11
176.3725090116
 21
56.154245922
  0
LINE
  5
456
100
AcDbEntity
  8
0
100
AcDbLine
 62
7
  6
CONTINUOUS
 10
177.2358629041
 20
56.1445292761
 11
177.214854925
 21
56.1463061433
  0
LINE
  5
457
100
AcDbEntity
  8
0
100
AcDbLine
 62
7
  6
CONTINUOUS
 10
177.2548465683
 20
56.1428348168
 11
177.2358629041
 21
56.1445292761
  0
LINE
  5
458
100
AcDbEntity
  8
0
100
AcDbLine
 62
7
  6
CONTINUOUS
 10
148.1804955452
 20
34.0538624957
 11
148.1853120276
 21
34.0534252997
  0
LINE
  5
459
100
AcDbEntity
  8
0
100
AcDbLine
 62
7
  6
CONTINUOUS
 10
177.274456356
 20
56.1409957364
 11
177.2548465683
 21
56.1428348168
  0
LINE
  5
45A
100
AcDbEntity
  8
0
100
AcDbLine
 62
7
  6
CONTINUOUS
 10
177.2947516505
 20
56.1389972804
 11
177.274456356
 21
56.1409957364
  0
LINE
  5
45B
100
AcDbEntity
  8
0
100
AcDbLine
 62
9
  6
CONTINUOUS
 10
177.3435139914
 20
56.1334719947
 11
177.2223859641
 21
56.145433811
  0
LINE
  5
45C
100
AcDbEntity
  8
0
100
AcDbLine
 62
7
  6
CONTINUOUS
 10
148.1755284931
 20
34.0543575565
 11
148.1804955452
 21
34.0538624957
  0
LINE
  5
45D
100
AcDbEntity
  8
0
100
AcDbLine
 62
7
  6
CONTINUOUS
 10
177.3157458445
 20
56.1368280857
 11
177.2947516505
 21
56.1389972804
  0
LINE
  5
45E
100
AcDbEntity
  8
0
100
AcDbLine
 62
7
  6
CONTINUOUS
 10
177.3727989325
 20
56.1306026444
 11
177.2457061914
 21
56.1438094552
  0
LINE
  5
45F
100
AcDbEntity
  8
0
100
AcDbLine
 62
7
  6
CONTINUOUS
 10
177.3374085954
 20
56.1344809805
 11
177.3157458445
 21
56.1368280857
  0
LINE
  5
460
100
AcDbEntity
  8
0
100
AcDbLine
 62
7
  6
CONTINUOUS
 10
148.1703827142
 20
34.0549211901
 11
148.1755284931
 21
34.0543575565
  0
LINE
  5
461
100
AcDbEntity
  8
0
100
AcDbLine
 62
7
  6
CONTINUOUS
 10
177.3564843988
 20
56.1323224656
 11
177.3374085954
 21
56.1344809805
  0
LINE
  5
462
100
AcDbEntity
  8
0
100
AcDbLine
 62
9
  6
CONTINUOUS
 10
176.5713810699
 20
56.134437091
 11
176.4722241735
 21
56.145975491
  0
LINE
  5
463
100
AcDbEntity
  8
0
100
AcDbLine
 62
7
  6
CONTINUOUS
 10
177.3760074566
 20
56.1300242386
 11
177.3564843988
 21
56.1323224656
  0
LINE
  5
464
100
AcDbEntity
  8
0
100
AcDbLine
 62
7
  6
CONTINUOUS
 10
148.1650244851
 20
34.0555664926
 11
148.1703827142
 21
34.0549211901
  0
LINE
  5
465
100
AcDbEntity
  8
0
100
AcDbLine
 62
9
  6
CONTINUOUS
 10
180.2904097752
 20
53.6262803837
 11
180.2926539206
 21
53.6260065415
  0
LINE
  5
466
100
AcDbEntity
  8
0
100
AcDbLine
 62
7
  6
CONTINUOUS
 10
177.3959611514
 20
56.1275819719
 11
177.3760074566
 21
56.1300242386
  0
LINE
  5
467
100
AcDbEntity
  8
0
100
AcDbLine
 62
7
  6
CONTINUOUS
 10
177.4163361281
 20
56.1249905278
 11
177.3959611514
 21
56.1275819719
  0
LINE
  5
468
100
AcDbEntity
  8
0
100
AcDbLine
 62
9
  6
CONTINUOUS
 10
177.4636491338
 20
56.1181848982
 11
177.3435139914
 21
56.1334719947
  0
LINE
  5
469
100
AcDbEntity
  8
0
100
AcDbLine
 62
7
  6
CONTINUOUS
 10
177.4371238353
 20
56.1222446596
 11
177.4163361281
 21
56.1249905278
  0
LINE
  5
46A
100
AcDbEntity
  8
0
100
AcDbLine
 62
7
  6
CONTINUOUS
 10
148.1594342644
 20
34.0563067582
 11
148.1650244851
 21
34.0555664926
  0
LINE
  5
46B
100
AcDbEntity
  8
0
100
AcDbLine
 62
7
  6
CONTINUOUS
 10
177.5075475635
 20
56.112398443
 11
177.3727989325
 21
56.1306026444
  0
LINE
  5
46C
100
AcDbEntity
  8
0
100
AcDbLine
 62
7
  6
CONTINUOUS
 10
177.4583156541
 20
56.1193391165
 11
177.4371238353
 21
56.1222446596
  0
LINE
  5
46D
100
AcDbEntity
  8
0
100
AcDbLine
 62
7
  6
CONTINUOUS
 10
177.4799028971
 20
56.1162686482
 11
177.4583156541
 21
56.1193391165
  0
LINE
  5
46E
100
AcDbEntity
  8
0
100
AcDbLine
 62
7
  6
CONTINUOUS
 10
148.1536189337
 20
34.0571529367
 11
148.1594342644
 21
34.0563067582
  0
LINE
  5
46F
100
AcDbEntity
  8
0
100
AcDbLine
 62
7
  6
CONTINUOUS
 10
177.5018768035
 20
56.113028009
 11
177.4799028971
 21
56.1162686482
  0
LINE
  5
470
100
AcDbEntity
  8
0
100
AcDbLine
 62
9
  6
CONTINUOUS
 10
176.6697377102
 20
56.1196928972
 11
176.5713810699
 21
56.134437091
  0
LINE
  5
471
100
AcDbEntity
  8
0
100
AcDbLine
 62
7
  6
CONTINUOUS
 10
177.5204773862
 20
56.1101937061
 11
177.5018768035
 21
56.113028009
  0
LINE
  5
472
100
AcDbEntity
  8
0
100
AcDbLine
 62
7
  6
CONTINUOUS
 10
177.5257924439
 20
56.1095956988
 11
177.5075909227
 21
56.1123918786
  0
LINE
  5
473
100
AcDbEntity
  8
0
100
AcDbLine
 62
9
  6
CONTINUOUS
 10
180.2926539206
 20
53.6260065415
 11
180.2934692166
 21
53.6258803752
  0
LINE
  5
474
100
AcDbEntity
  8
0
100
AcDbLine
 62
9
  6
CONTINUOUS
 10
177.5825943066
 20
56.0996367864
 11
177.4636491338
 21
56.1181848982
  0
LINE
  5
475
100
AcDbEntity
  8
0
100
AcDbLine
 62
7
  6
CONTINUOUS
 10
177.5393351547
 20
56.1072345735
 11
177.5204773862
 21
56.1101937061
  0
LINE
  5
476
100
AcDbEntity
  8
0
100
AcDbLine
 62
7
  6
CONTINUOUS
 10
177.5446068055
 20
56.1066202013
 11
177.5257924439
 21
56.1095956988
  0
LINE
  5
477
100
AcDbEntity
  8
0
100
AcDbLine
 62
7
  6
CONTINUOUS
 10
148.1474704987
 20
34.0581354646
 11
148.1536189337
 21
34.0571529367
  0
LINE
  5
478
100
AcDbEntity
  8
0
100
AcDbLine
 62
7
  6
CONTINUOUS
 10
177.5584487436
 20
56.104146967
 11
177.5393351547
 21
56.1072345735
  0
LINE
  5
479
100
AcDbEntity
  8
0
100
AcDbLine
 62
7
  6
CONTINUOUS
 10
177.5644246821
 20
56.1033921267
 11
177.5446068055
 21
56.1066202013
  0
LINE
  5
47A
100
AcDbEntity
  8
0
100
AcDbLine
 62
7
  6
CONTINUOUS
 10
177.5268500113
 20
56.1092030228
 11
177.5075909226
 21
56.1123918786
  0
LINE
  5
47B
100
AcDbEntity
  8
0
100
AcDbLine
 62
7
  6
CONTINUOUS
 10
177.5778329508
 20
56.1009244457
 11
177.5584487436
 21
56.104146967
  0
LINE
  5
47C
100
AcDbEntity
  8
0
100
AcDbLine
 62
7
  6
CONTINUOUS
 10
177.5854436435
 20
56.0998628701
 11
177.5644246821
 21
56.1033921267
  0
LINE
  5
47D
100
AcDbEntity
  8
0
100
AcDbLine
 62
7
  6
CONTINUOUS
 10
177.597507159
 20
56.0975593871
 11
177.5778329508
 21
56.1009244457
  0
LINE
  5
47E
100
AcDbEntity
  8
0
100
AcDbLine
 62
7
  6
CONTINUOUS
 10
177.6078576544
 20
56.0959792886
 11
177.5854436435
 21
56.0998628701
  0
LINE
  5
47F
100
AcDbEntity
  8
0
100
AcDbLine
 62
7
  6
CONTINUOUS
 10
177.6094588927
 20
56.0954685878
 11
177.597507159
 21
56.0975593871
  0
LINE
  5
480
100
AcDbEntity
  8
0
100
AcDbLine
 62
7
  6
CONTINUOUS
 10
148.140928037
 20
34.0592837259
 11
148.1474704987
 21
34.0581354646
  0
LINE
  5
481
100
AcDbEntity
  8
0
100
AcDbLine
 62
7
  6
CONTINUOUS
 10
177.6572639802
 20
56.0869789337
 11
177.6255748634
 21
56.0925933397
  0
LINE
  5
482
100
AcDbEntity
  8
0
100
AcDbLine
 62
7
  6
CONTINUOUS
 10
177.6318094295
 20
56.0916917802
 11
177.6078576544
 21
56.0959792886
  0
LINE
  5
483
100
AcDbEntity
  8
0
100
AcDbLine
 62
9
  6
CONTINUOUS
 10
176.7671209084
 20
56.101805479
 11
176.6697377102
 21
56.1196928972
  0
LINE
  5
484
100
AcDbEntity
  8
0
100
AcDbLine
 62
9
  6
CONTINUOUS
 10
177.7001487667
 20
56.0778887461
 11
177.5825943066
 21
56.0996367864
  0
LINE
  5
485
100
AcDbEntity
  8
0
100
AcDbLine
 62
7
  6
CONTINUOUS
 10
177.6668269337
 20
56.0849390929
 11
177.6460233588
 21
56.0888522277
  0
LINE
  5
486
100
AcDbEntity
  8
0
100
AcDbLine
 62
7
  6
CONTINUOUS
 10
177.7115715938
 20
56.0763820862
 11
177.6794874736
 21
56.0825046369
  0
LINE
  5
487
100
AcDbEntity
  8
0
100
AcDbLine
 62
7
  6
CONTINUOUS
 10
177.6839676375
 20
56.0818608772
 11
177.6572639802
 21
56.0869789337
  0
LINE
  5
488
100
AcDbEntity
  8
0
100
AcDbLine
 62
7
  6
CONTINUOUS
 10
148.1338816127
 20
34.0606427738
 11
148.140928037
 21
34.0592837259
  0
LINE
  5
489
100
AcDbEntity
  8
0
100
AcDbLine
 62
7
  6
CONTINUOUS
 10
177.7227132511
 20
56.0738891575
 11
177.7008988998
 21
56.0782959035
  0
LINE
  5
48A
100
AcDbEntity
  8
0
100
AcDbLine
 62
7
  6
CONTINUOUS
 10
177.7399597734
 20
56.0705469768
 11
177.7115715938
 21
56.0763820862
  0
LINE
  5
48B
100
AcDbEntity
  8
0
100
AcDbLine
 62
7
  6
CONTINUOUS
 10
177.769313175
 20
56.0642981605
 11
177.7359962172
 21
56.0711468866
  0
LINE
  5
48C
100
AcDbEntity
  8
0
100
AcDbLine
 62
7
  6
CONTINUOUS
 10
148.1261983296
 20
34.0622735485
 11
148.1338816127
 21
34.0606427738
  0
LINE
  5
48D
100
AcDbEntity
  8
0
100
AcDbLine
 62
9
  6
CONTINUOUS
 10
177.8160394452
 20
56.0530389662
 11
177.7001487667
 21
56.0778887461
  0
LINE
  5
48E
100
AcDbEntity
  8
0
100
AcDbLine
 62
7
  6
CONTINUOUS
 10
177.7721134212
 20
56.0634637001
 11
177.753929634
 21
56.0673734666
  0
LINE
  5
48F
100
AcDbEntity
  8
0
100
AcDbLine
 62
9
  6
CONTINUOUS
 10
176.8633396269
 20
56.0808399135
 11
176.7671209084
 21
56.101805479
  0
LINE
  5
490
100
AcDbEntity
  8
0
100
AcDbLine
 62
7
  6
CONTINUOUS
 10
177.8001664451
 20
56.0574924548
 11
177.769313175
 21
56.0642981605
  0
LINE
  5
491
100
AcDbEntity
  8
0
100
AcDbLine
 62
7
  6
CONTINUOUS
 10
177.8092133817
 20
56.0552239455
 11
177.7905429067
 21
56.0594147906
  0
LINE
  5
492
100
AcDbEntity
  8
0
100
AcDbLine
 62
7
  6
CONTINUOUS
 10
177.8281200981
 20
56.0508883773
 11
177.8092133817
 21
56.0552239455
  0
LINE
  5
493
100
AcDbEntity
  8
0
100
AcDbLine
 62
7
  6
CONTINUOUS
 10
177.8265730057
 20
56.0514728444
 11
177.8001664451
 21
56.0574924548
  0
LINE
  5
494
100
AcDbEntity
  8
0
100
AcDbLine
 62
7
  6
CONTINUOUS
 10
148.1179130818
 20
34.0642110912
 11
148.1261983296
 21
34.0622735485
  0
LINE
  5
495
100
AcDbEntity
  8
0
100
AcDbLine
 62
7
  6
CONTINUOUS
 10
177.8472582659
 20
56.0464053055
 11
177.8281200981
 21
56.0508883773
  0
LINE
  5
496
100
AcDbEntity
  8
0
100
AcDbLine
 62
7
  6
CONTINUOUS
 10
177.8678950109
 20
56.041689511
 11
177.8265730057
 21
56.0514728444
  0
LINE
  5
497
100
AcDbEntity
  8
0
100
AcDbLine
 62
7
  6
CONTINUOUS
 10
177.8812924483
 20
56.0381966601
 11
177.8617608758
 21
56.0429445343
  0
LINE
  5
498
100
AcDbEntity
  8
0
100
AcDbLine
 62
9
  6
CONTINUOUS
 10
177.9300179016
 20
56.0252106123
 11
177.8160394452
 21
56.0530389662
  0
LINE
  5
499
100
AcDbEntity
  8
0
100
AcDbLine
 62
7
  6
CONTINUOUS
 10
177.9010429409
 20
56.0332934628
 11
177.8812924483
 21
56.0381966601
  0
LINE
  5
49A
100
AcDbEntity
  8
0
100
AcDbLine
 62
9
  6
CONTINUOUS
 10
176.9582001699
 20
56.0568854458
 11
176.8633396269
 21
56.0808399135
  0
LINE
  5
49B
100
AcDbEntity
  8
0
100
AcDbLine
 62
7
  6
CONTINUOUS
 10
177.9210091995
 20
56.0282317219
 11
177.9010429409
 21
56.0332934628
  0
LINE
  5
49C
100
AcDbEntity
  8
0
100
AcDbLine
 62
7
  6
CONTINUOUS
 10
148.1089687458
 20
34.0665171064
 11
148.1179130818
 21
34.0642110912
  0
LINE
  5
49D
100
AcDbEntity
  8
0
100
AcDbLine
 62
7
  6
CONTINUOUS
 10
177.9874256081
 20
56.0108463665
 11
177.8678950109
 21
56.041689511
  0
LINE
  5
49E
100
AcDbEntity
  8
0
100
AcDbLine
 62
7
  6
CONTINUOUS
 10
177.9411880634
 20
56.0230081784
 11
177.9210091995
 21
56.0282317219
  0
LINE
  5
49F
100
AcDbEntity
  8
0
100
AcDbLine
 62
7
  6
CONTINUOUS
 10
177.9615763141
 20
56.0176195465
 11
177.9411880634
 21
56.0230081784
  0
LINE
  5
4A0
100
AcDbEntity
  8
0
100
AcDbLine
 62
7
  6
CONTINUOUS
 10
177.9821706706
 20
56.0120625141
 11
177.9615763141
 21
56.0176195465
  0
LINE
  5
4A1
100
AcDbEntity
  8
0
100
AcDbLine
 62
9
  6
CONTINUOUS
 10
178.04193368
 20
55.994506105
 11
177.9300179016
 21
56.0252106123
  0
LINE
  5
4A2
100
AcDbEntity
  8
0
100
AcDbLine
 62
7
  6
CONTINUOUS
 10
178.0029677853
 20
56.0063337418
 11
177.9821706706
 21
56.0120625141
  0
LINE
  5
4A3
100
AcDbEntity
  8
0
100
AcDbLine
 62
7
  6
CONTINUOUS
 10
178.0239642798
 20
56.0004298869
 11
178.0029677853
 21
56.0063337418
  0
LINE
  5
4A4
100
AcDbEntity
  8
0
100
AcDbLine
 62
7
  6
CONTINUOUS
 10
148.0995261296
 20
34.0691999397
 11
148.1089687458
 21
34.0665171064
  0
LINE
  5
4A5
100
AcDbEntity
  8
0
100
AcDbLine
 62
7
  6
CONTINUOUS
 10
178.0451568629
 20
55.9943476603
 11
178.0239642798
 21
56.0004298869
  0
LINE
  5
4A6
100
AcDbEntity
  8
0
100
AcDbLine
 62
9
  6
CONTINUOUS
 10
177.051536569
 20
56.0300504639
 11
176.9582001699
 21
56.0568854458
  0
LINE
  5
4A7
100
AcDbEntity
  8
0
100
AcDbLine
 62
7
  6
CONTINUOUS
 10
178.1047790968
 20
55.9767750517
 11
177.9874256081
 21
56.0108463665
  0
LINE
  5
4A8
100
AcDbEntity
  8
0
100
AcDbLine
 62
7
  6
CONTINUOUS
 10
178.0504852607
 20
55.9927988478
 11
178.0451568629
 21
55.9943476603
  0
LINE
  5
4A9
100
AcDbEntity
  8
0
100
AcDbLine
 62
7
  6
CONTINUOUS
 10
178.0719182889
 20
55.9864890255
 11
178.0504852607
 21
55.9927988478
  0
LINE
  5
4AA
100
AcDbEntity
  8
0
100
AcDbLine
 62
7
  6
CONTINUOUS
 10
178.0935398603
 20
55.9799934015
 11
178.0719182889
 21
55.9864890255
  0
LINE
  5
4AB
100
AcDbEntity
  8
0
100
AcDbLine
 62
9
  6
CONTINUOUS
 10
178.1516294651
 20
55.9610379782
 11
178.04193368
 21
55.994506105
  0
LINE
  5
4AC
100
AcDbEntity
  8
0
100
AcDbLine
 62
7
  6
CONTINUOUS
 10
178.1153465083
 20
55.9733086467
 11
178.0935398603
 21
55.9799934015
  0
LINE
  5
4AD
100
AcDbEntity
  8
0
100
AcDbLine
 62
7
  6
CONTINUOUS
 10
178.1377121612
 20
55.9665163432
 11
178.1047790968
 21
55.9767750517
  0
LINE
  5
4AE
100
AcDbEntity
  8
0
100
AcDbLine
 62
7
  6
CONTINUOUS
 10
148.0896913401
 20
34.0722734352
 11
148.0995261296
 21
34.0691999397
  0
LINE
  5
4AF
100
AcDbEntity
  8
0
100
AcDbLine
 62
7
  6
CONTINUOUS
 10
178.1595007787
 20
55.9593583538
 11
178.1373346895
 21
55.9664314172
  0
LINE
  5
4B0
100
AcDbEntity
  8
0
100
AcDbLine
 62
9
  6
CONTINUOUS
 10
177.1432503816
 20
56.0004269729
 11
177.051536569
 21
56.0300504639
  0
LINE
  5
4B1
100
AcDbEntity
  8
0
100
AcDbLine
 62
7
  6
CONTINUOUS
 10
178.1610143332
 20
55.9588693373
 11
178.137755095
 21
55.9665027657
  0
LINE
  5
4B2
100
AcDbEntity
  8
0
100
AcDbLine
 62
7
  6
CONTINUOUS
 10
178.1762398673
 20
55.9539230119
 11
178.1522757896
 21
55.9618801443
  0
LINE
  5
4B3
100
AcDbEntity
  8
0
100
AcDbLine
 62
9
  6
CONTINUOUS
 10
178.2589683303
 20
55.9249336966
 11
178.1516294651
 21
55.9610379782
  0
LINE
  5
4B4
100
AcDbEntity
  8
0
100
AcDbLine
 62
7
  6
CONTINUOUS
 10
178.1930761
 20
55.948373937
 11
178.1692816616
 21
55.9563885698
  0
LINE
  5
4B5
100
AcDbEntity
  8
0
100
AcDbLine
 62
7
  6
CONTINUOUS
 10
178.210012461
 20
55.9427081303
 11
178.1865630211
 21
55.9507215691
  0
LINE
  5
4B6
100
AcDbEntity
  8
0
100
AcDbLine
 62
7
  6
CONTINUOUS
 10
148.0795754811
 20
34.0757413649
 11
148.0896913401
 21
34.0722734352
  0
LINE
  5
4B7
100
AcDbEntity
  8
0
100
AcDbLine
 62
7
  6
CONTINUOUS
 10
178.2270530301
 20
55.9369221103
 11
178.2036262469
 21
55.9450400714
  0
LINE
  5
4B8
100
AcDbEntity
  8
0
100
AcDbLine
 62
7
  6
CONTINUOUS
 10
178.2442018295
 20
55.9310122806
 11
178.2207558031
 21
55.9392499765
  0
LINE
  5
4B9
100
AcDbEntity
  8
0
100
AcDbLine
 62
7
  6
CONTINUOUS
 10
143.7459398891
 20
53.5858453684
 11
143.7596143621
 21
53.5810288993
  0
LINE
  5
4BA
100
AcDbEntity
  8
0
100
AcDbLine
 62
7
  6
CONTINUOUS
 10
178.2614628141
 20
55.9249749298
 11
178.2387985692
 21
55.933056865
  0
LINE
  5
4BB
100
AcDbEntity
  8
0
100
AcDbLine
 62
9
  6
CONTINUOUS
 10
177.233234744
 20
55.9681144732
 11
177.1432503816
 21
56.0004269729
  0
LINE
  5
4BC
100
AcDbEntity
  8
0
100
AcDbLine
 62
7
  6
CONTINUOUS
 10
143.7596062788
 20
53.5810315789
 11
143.7407486355
 21
53.5878362174
  0
LINE
  5
4BD
100
AcDbEntity
  8
0
100
AcDbLine
 62
7
  6
CONTINUOUS
 10
178.2788398739
 20
55.9188062266
 11
178.25798418
 21
55.9263645733
  0
LINE
  5
4BE
100
AcDbEntity
  8
0
100
AcDbLine
 62
9
  6
CONTINUOUS
 10
143.7596061849
 20
53.5810315418
 11
143.7747648633
 21
53.5754819634
  0
LINE
  5
4BF
100
AcDbEntity
  8
0
100
AcDbLine
 62
7
  6
CONTINUOUS
 10
178.3021964317
 20
55.9103701154
 11
178.277950607
 21
55.9192820483
  0
LINE
  5
4C0
100
AcDbEntity
  8
0
100
AcDbLine
 62
9
  6
CONTINUOUS
 10
178.3638227115
 20
55.886318441
 11
178.2589683303
 21
55.9249336966
  0
LINE
  5
4C1
100
AcDbEntity
  8
0
100
AcDbLine
 62
7
  6
CONTINUOUS
 10
178.319859039
 20
55.9038793407
 11
178.298278208
 21
55.9119469237
  0
LINE
  5
4C2
100
AcDbEntity
  8
0
100
AcDbLine
 62
7
  6
CONTINUOUS
 10
148.0693198322
 20
34.0795853098
 11
148.0795754811
 21
34.0757413649
  0
LINE
  5
4C3
100
AcDbEntity
  8
0
100
AcDbLine
 62
7
  6
CONTINUOUS
 10
178.3436096696
 20
55.894998646
 11
178.3185605444
 21
55.9045019111
  0
LINE
  5
4C4
100
AcDbEntity
  8
0
100
AcDbLine
 62
7
  6
CONTINUOUS
 10
178.3675971809
 20
55.8858497189
 11
178.3329459569
 21
55.8991406179
  0
LINE
  5
4C5
100
AcDbEntity
  8
0
100
AcDbLine
 62
7
  6
CONTINUOUS
 10
178.3641893148
 20
55.8872864544
 11
178.3641303648
 21
55.8873091167
  0
LINE
  5
4C6
100
AcDbEntity
  8
0
100
AcDbLine
 62
7
  6
CONTINUOUS
 10
178.3857485797
 20
55.8788055078
 11
178.3675971809
 21
55.8858497189
  0
LINE
  5
4C7
100
AcDbEntity
  8
0
100
AcDbLine
 62
9
  6
CONTINUOUS
 10
177.3213779436
 20
55.9332268466
 11
177.233234744
 21
55.9681144732
  0
LINE
  5
4C8
100
AcDbEntity
  8
0
100
AcDbLine
 62
7
  6
CONTINUOUS
 10
178.4421542054
 20
55.8563430768
 11
178.3641893148
 21
55.8872864544
  0
LINE
  5
4C9
100
AcDbEntity
  8
0
100
AcDbLine
 62
9
  6
CONTINUOUS
 10
178.4660524011
 20
55.8453262978
 11
178.3638227115
 21
55.886318441
  0
LINE
  5
4CA
100
AcDbEntity
  8
0
100
AcDbLine
 62
7
  6
CONTINUOUS
 10
178.4410690759
 20
55.8566832466
 11
178.422480907
 21
55.8642272046
  0
LINE
  5
4CB
100
AcDbEntity
  8
0
100
AcDbLine
 62
7
  6
CONTINUOUS
 10
148.0589389667
 20
34.0838248667
 11
148.0693198322
 21
34.0795853098
  0
LINE
  5
4CC
100
AcDbEntity
  8
0
100
AcDbLine
 62
7
  6
CONTINUOUS
 10
143.7259141923
 20
53.594028265
 11
143.7459398891
 21
53.5858453684
  0
LINE
  5
4CD
100
AcDbEntity
  8
0
100
AcDbLine
 62
7
  6
CONTINUOUS
 10
178.4598099377
 20
55.8489625959
 11
178.4410690759
 21
55.8566832466
  0
LINE
  5
4CE
100
AcDbEntity
  8
0
100
AcDbLine
 62
7
  6
CONTINUOUS
 10
178.4787067677
 20
55.8410600035
 11
178.4598099377
 21
55.8489625959
  0
LINE
  5
4CF
100
AcDbEntity
  8
0
100
AcDbLine
 62
7
  6
CONTINUOUS
 10
178.4913911449
 20
55.8356886066
 11
178.4787067677
 21
55.8410600035
  0
LINE
  5
4D0
100
AcDbEntity
  8
0
100
AcDbLine
 62
7
  6
CONTINUOUS
 10
143.7407486355
 20
53.5878362174
 11
143.7221470585
 21
53.595721452
  0
LINE
  5
4D1
100
AcDbEntity
  8
0
100
AcDbLine
 62
7
  6
CONTINUOUS
 10
178.5493635121
 20
55.8105235991
 11
178.4421542054
 21
55.8563430768
  0
LINE
  5
4D2
100
AcDbEntity
  8
0
100
AcDbLine
 62
7
  6
CONTINUOUS
 10
178.5105438193
 20
55.8274755156
 11
178.4913911449
 21
55.8356886066
  0
LINE
  5
4D3
100
AcDbEntity
  8
0
100
AcDbLine
 62
9
  6
CONTINUOUS
 10
177.4075822452
 20
55.8958736943
 11
177.3213779436
 21
55.9332268466
  0
LINE
  5
4D4
100
AcDbEntity
  8
0
100
AcDbLine
 62
9
  6
CONTINUOUS
 10
178.5655601406
 20
55.8020949555
 11
178.4660524011
 21
55.8453262978
  0
LINE
  5
4D5
100
AcDbEntity
  8
0
100
AcDbLine
 62
7
  6
CONTINUOUS
 10
178.5298431751
 20
55.8190735757
 11
178.5105438193
 21
55.8274755156
  0
LINE
  5
4D6
100
AcDbEntity
  8
0
100
AcDbLine
 62
9
  6
CONTINUOUS
 10
143.7747648633
 20
53.5754819634
 11
143.7895332132
 21
53.5689640886
  0
LINE
  5
4D7
100
AcDbEntity
  8
0
100
AcDbLine
 62
7
  6
CONTINUOUS
 10
178.5492839611
 20
55.810480951
 11
178.5298431751
 21
55.8190735757
  0
LINE
  5
4D8
100
AcDbEntity
  8
0
100
AcDbLine
 62
7
  6
CONTINUOUS
 10
148.0484913391
 20
34.0884598899
 11
148.0589389667
 21
34.0838248667
  0
LINE
  5
4D9
100
AcDbEntity
  8
0
100
AcDbLine
 62
7
  6
CONTINUOUS
 10
178.568860876
 20
55.8016958466
 11
178.5492839611
 21
55.810480951
  0
LINE
  5
4DA
100
AcDbEntity
  8
0
100
AcDbLine
 62
7
  6
CONTINUOUS
 10
178.5885685673
 20
55.7927165099
 11
178.568860876
 21
55.8016958466
  0
LINE
  5
4DB
100
AcDbEntity
  8
0
100
AcDbLine
 62
7
  6
CONTINUOUS
 10
178.6084016269
 20
55.7835412348
 11
178.5885685673
 21
55.7927165099
  0
LINE
  5
4DC
100
AcDbEntity
  8
0
100
AcDbLine
 62
7
  6
CONTINUOUS
 10
178.6534785114
 20
55.7622054414
 11
178.5493635121
 21
55.8105235991
  0
LINE
  5
4DD
100
AcDbEntity
  8
0
100
AcDbLine
 62
9
  6
CONTINUOUS
 10
178.6622496179
 20
55.7567666089
 11
178.5655601406
 21
55.8020949555
  0
LINE
  5
4DE
100
AcDbEntity
  8
0
100
AcDbLine
 62
7
  6
CONTINUOUS
 10
178.628354589
 20
55.7741683641
 11
178.6084016269
 21
55.7835412348
  0
LINE
  5
4DF
100
AcDbEntity
  8
0
100
AcDbLine
 62
9
  6
CONTINUOUS
 10
177.491722959
 20
55.856182892
 11
177.4075822452
 21
55.8958736943
  0
LINE
  5
4E0
100
AcDbEntity
  8
0
100
AcDbLine
 62
7
  6
CONTINUOUS
 10
178.6484219267
 20
55.7645962929
 11
178.628354589
 21
55.7741683641
  0
LINE
  5
4E1
100
AcDbEntity
  8
0
100
AcDbLine
 62
7
  6
CONTINUOUS
 10
143.7059892321
 20
53.6035538919
 11
143.7259141923
 21
53.594028265
  0
LINE
  5
4E2
100
AcDbEntity
  8
0
100
AcDbLine
 62
7
  6
CONTINUOUS
 10
148.0379929132
 20
34.0935055832
 11
148.0484913391
 21
34.0884598899
  0
LINE
  5
4E3
100
AcDbEntity
  8
0
100
AcDbLine
 62
7
  6
CONTINUOUS
 10
178.6685980489
 20
55.7548234721
 11
178.6484219267
 21
55.7645962929
  0
LINE
  5
4E4
100
AcDbEntity
  8
0
100
AcDbLine
 62
7
  6
CONTINUOUS
 10
143.7221470585
 20
53.595721452
 11
143.7038380582
 21
53.6046678629
  0
LINE
  5
4E5
100
AcDbEntity
  8
0
100
AcDbLine
 62
7
  6
CONTINUOUS
 10
178.6888772975
 20
55.7448484111
 11
178.6685980489
 21
55.7548234721
  0
LINE
  5
4E6
100
AcDbEntity
  8
0
100
AcDbLine
 62
7
  6
CONTINUOUS
 10
178.7230829006
 20
55.7276783702
 11
178.6534785114
 21
55.7622054414
  0
LINE
  5
4E7
100
AcDbEntity
  8
0
100
AcDbLine
 62
9
  6
CONTINUOUS
 10
178.7560542651
 20
55.709470511
 11
178.6622496179
 21
55.7567666089
  0
LINE
  5
4E8
100
AcDbEntity
  8
0
100
AcDbLine
 62
7
  6
CONTINUOUS
 10
178.7228896232
 20
55.7277700381
 11
178.7024512631
 21
55.738085307
  0
LINE
  5
4E9
100
AcDbEntity
  8
0
100
AcDbLine
 62
9
  6
CONTINUOUS
 10
177.573727901
 20
55.8142821746
 11
177.491722959
 21
55.856182892
  0
LINE
  5
4EA
100
AcDbEntity
  8
0
100
AcDbLine
 62
7
  6
CONTINUOUS
 10
178.7434156678
 20
55.7172488703
 11
178.7228896232
 21
55.7277700381
  0
LINE
  5
4EB
100
AcDbEntity
  8
0
100
AcDbLine
 62
7
  6
CONTINUOUS
 10
178.7292019434
 20
55.7245240165
 11
178.7231062262
 21
55.7276664889
  0
LINE
  5
4EC
100
AcDbEntity
  8
0
100
AcDbLine
 62
7
  6
CONTINUOUS
 10
148.0274739494
 20
34.0989697514
 11
148.0379929132
 21
34.0935055832
  0
LINE
  5
4ED
100
AcDbEntity
  8
0
100
AcDbLine
 62
7
  6
CONTINUOUS
 10
178.7640234996
 20
55.7065205421
 11
178.7434156678
 21
55.7172488703
  0
LINE
  5
4EE
100
AcDbEntity
  8
0
100
AcDbLine
 62
9
  6
CONTINUOUS
 10
143.7895332132
 20
53.5689640886
 11
143.8038495613
 21
53.5615051364
  0
LINE
  5
4EF
100
AcDbEntity
  8
0
100
AcDbLine
 62
7
  6
CONTINUOUS
 10
178.7847085525
 20
55.6955831139
 11
178.7640234996
 21
55.7065205421
  0
LINE
  5
4F0
100
AcDbEntity
  8
0
100
AcDbLine
 62
7
  6
CONTINUOUS
 10
178.8054678723
 20
55.6844337594
 11
178.7847085525
 21
55.6955831139
  0
LINE
  5
4F1
100
AcDbEntity
  8
0
100
AcDbLine
 62
9
  6
CONTINUOUS
 10
178.846836286
 20
55.6603878507
 11
178.7560542651
 21
55.709470511
  0
LINE
  5
4F2
100
AcDbEntity
  8
0
100
AcDbLine
 62
7
  6
CONTINUOUS
 10
178.8193471875
 20
55.6768817083
 11
178.8054678723
 21
55.6844337594
  0
LINE
  5
4F3
100
AcDbEntity
  8
0
100
AcDbLine
 62
7
  6
CONTINUOUS
 10
178.833257239
 20
55.6692333485
 11
178.8193471875
 21
55.6768817083
  0
LINE
  5
4F4
100
AcDbEntity
  8
0
100
AcDbLine
 62
9
  6
CONTINUOUS
 10
177.6535262321
 20
55.7703027086
 11
177.573727901
 21
55.8142821746
  0
LINE
  5
4F5
100
AcDbEntity
  8
0
100
AcDbLine
 62
7
  6
CONTINUOUS
 10
143.7059892321
 20
53.6035538919
 11
143.685857705
 21
53.6146562287
  0
LINE
  5
4F6
100
AcDbEntity
  8
0
100
AcDbLine
 62
7
  6
CONTINUOUS
 10
178.8471970735
 20
55.66148783
 11
178.833257239
 21
55.6692333485
  0
LINE
  5
4F7
100
AcDbEntity
  8
0
100
AcDbLine
 62
7
  6
CONTINUOUS
 10
148.0169574178
 20
34.1048625783
 11
148.0274739494
 21
34.0989697514
  0
LINE
  5
4F8
100
AcDbEntity
  8
0
100
AcDbLine
 62
7
  6
CONTINUOUS
 10
178.8611657112
 20
55.6536443017
 11
178.8471970735
 21
55.66148783
  0
LINE
  5
4F9
100
AcDbEntity
  8
0
100
AcDbLine
 62
7
  6
CONTINUOUS
 10
178.8751621449
 20
55.6457019126
 11
178.8611657112
 21
55.6536443017
  0
LINE
  5
4FA
100
AcDbEntity
  8
0
100
AcDbLine
 62
7
  6
CONTINUOUS
 10
178.8891853389
 20
55.6376598113
 11
178.8751621449
 21
55.6457019126
  0
LINE
  5
4FB
100
AcDbEntity
  8
0
100
AcDbLine
 62
9
  6
CONTINUOUS
 10
178.9344618184
 20
55.6097162027
 11
178.846836286
 21
55.6603878507
  0
LINE
  5
4FC
100
AcDbEntity
  8
0
100
AcDbLine
 62
7
  6
CONTINUOUS
 10
178.903234228
 20
55.6295171471
 11
178.8891853389
 21
55.6376598113
  0
LINE
  5
4FD
100
AcDbEntity
  8
0
100
AcDbLine
 62
7
  6
CONTINUOUS
 10
178.9173077167
 20
55.6212730699
 11
178.903234228
 21
55.6295171471
  0
LINE
  5
4FE
100
AcDbEntity
  8
0
100
AcDbLine
 62
7
  6
CONTINUOUS
 10
178.931404678
 20
55.6129267308
 11
178.9173077167
 21
55.6212730699
  0
LINE
  5
4FF
100
AcDbEntity
  8
0
100
AcDbLine
 62
9
  6
CONTINUOUS
 10
177.7310570084
 20
55.7243724649
 11
177.6535262321
 21
55.7703027086
  0
LINE
  5
500
100
AcDbEntity
  8
0
100
AcDbLine
 62
7
  6
CONTINUOUS
 10
178.9455239521
 20
55.604477283
 11
178.931404678
 21
55.6129267308
  0
LINE
  5
501
100
AcDbEntity
  8
0
100
AcDbLine
 62
7
  6
CONTINUOUS
 10
148.0064689144
 20
34.1111919626
 11
148.0169574178
 21
34.1048625783
  0
LINE
  5
502
100
AcDbEntity
  8
0
100
AcDbLine
 62
7
  6
CONTINUOUS
 10
178.9596643608
 20
55.595923877
 11
178.9455239521
 21
55.604477283
  0
LINE
  5
503
100
AcDbEntity
  8
0
100
AcDbLine
 62
7
  6
CONTINUOUS
 10
178.9738248835
 20
55.5872656027
 11
178.9596643608
 21
55.595923877
  0
LINE
  5
504
100
AcDbEntity
  8
0
100
AcDbLine
 62
9
  6
CONTINUOUS
 10
179.0189675207
 20
55.5575586695
 11
178.9344618184
 21
55.6097162027
  0
LINE
  5
505
100
AcDbEntity
  8
0
100
AcDbLine
 62
7
  6
CONTINUOUS
 10
178.9880046089
 20
55.5785015019
 11
178.9738248835
 21
55.5872656027
  0
LINE
  5
506
100
AcDbEntity
  8
0
100
AcDbLine
 62
7
  6
CONTINUOUS
 10
179.0022026076
 20
55.5696306137
 11
178.9880046089
 21
55.5785015019
  0
LINE
  5
507
100
AcDbEntity
  8
0
100
AcDbLine
 62
7
  6
CONTINUOUS
 10
143.6679966779
 20
53.6258803412
 11
143.6862121667
 21
53.6144473053
  0
LINE
  5
508
100
AcDbEntity
  8
0
100
AcDbLine
 62
7
  6
CONTINUOUS
 10
179.0164179285
 20
55.5606519758
 11
179.0022026076
 21
55.5696306137
  0
LINE
  5
509
100
AcDbEntity
  8
0
100
AcDbLine
 62
9
  6
CONTINUOUS
 10
177.8062358467
 20
55.6766415577
 11
177.7310570084
 21
55.7243724649
  0
LINE
  5
50A
100
AcDbEntity
  8
0
100
AcDbLine
 62
7
  6
CONTINUOUS
 10
179.0306495979
 20
55.5515646254
 11
179.0164179285
 21
55.5606519758
  0
LINE
  5
50B
100
AcDbEntity
  8
0
100
AcDbLine
 62
7
  6
CONTINUOUS
 10
179.0448966191
 20
55.5423675993
 11
179.0306495979
 21
55.5515646254
  0
LINE
  5
50C
100
AcDbEntity
  8
0
100
AcDbLine
 62
7
  6
CONTINUOUS
 10
147.9960367332
 20
34.1179629492
 11
148.0064689144
 21
34.1111919626
  0
LINE
  5
50D
100
AcDbEntity
  8
0
100
AcDbLine
 62
7
  6
CONTINUOUS
 10
179.0591579717
 20
55.5330599344
 11
179.0448966191
 21
55.5423675993
  0
LINE
  5
50E
100
AcDbEntity
  8
0
100
AcDbLine
 62
9
  6
CONTINUOUS
 10
179.1003782013
 20
55.5040229328
 11
179.0189675207
 21
55.5575586695
  0
LINE
  5
50F
100
AcDbEntity
  8
0
100
AcDbLine
 62
7
  6
CONTINUOUS
 10
179.0734326105
 20
55.5236406683
 11
179.0591579717
 21
55.5330599344
  0
LINE
  5
510
100
AcDbEntity
  8
0
100
AcDbLine
 62
7
  6
CONTINUOUS
 10
179.0877194656
 20
55.5141088399
 11
179.0734326105
 21
55.5236406683
  0
LINE
  5
511
100
AcDbEntity
  8
0
100
AcDbLine
 62
7
  6
CONTINUOUS
 10
179.1020174408
 20
55.5044634895
 11
179.0877194656
 21
55.5141088399
  0
LINE
  5
512
100
AcDbEntity
  8
0
100
AcDbLine
 62
9
  6
CONTINUOUS
 10
177.8789626224
 20
55.6272768672
 11
177.8062358467
 21
55.6766415577
  0
LINE
  5
513
100
AcDbEntity
  8
0
100
AcDbLine
 62
7
  6
CONTINUOUS
 10
179.1163254137
 20
55.4947036599
 11
179.1020174408
 21
55.5044634895
  0
LINE
  5
514
100
AcDbEntity
  8
0
100
AcDbLine
 62
7
  6
CONTINUOUS
 10
179.1306422342
 20
55.4848283966
 11
179.1163254137
 21
55.4947036599
  0
LINE
  5
515
100
AcDbEntity
  8
0
100
AcDbLine
 62
7
  6
CONTINUOUS
 10
147.9856881507
 20
34.1251797769
 11
147.9960367332
 21
34.1179629492
  0
LINE
  5
516
100
AcDbEntity
  8
0
100
AcDbLine
 62
7
  6
CONTINUOUS
 10
179.1449667246
 20
55.4748367485
 11
179.1306422342
 21
55.4848283966
  0
LINE
  5
517
100
AcDbEntity
  8
0
100
AcDbLine
 62
7
  6
CONTINUOUS
 10
143.6682419366
 20
53.6256675059
 11
143.6679369897
 21
53.6258803412
  0
LINE
  5
518
100
AcDbEntity
  8
0
100
AcDbLine
 62
9
  6
CONTINUOUS
 10
179.1787270438
 20
55.4492133353
 11
179.1003782013
 21
55.5040229328
  0
LINE
  5
519
100
AcDbEntity
  8
0
100
AcDbLine
 62
7
  6
CONTINUOUS
 10
179.1592976781
 20
55.4647277688
 11
179.1449667246
 21
55.4748367485
  0
LINE
  5
51A
100
AcDbEntity
  8
0
100
AcDbLine
 62
7
  6
CONTINUOUS
 10
179.1736338586
 20
55.454500515
 11
179.1592976781
 21
55.4647277688
  0
LINE
  5
51B
100
AcDbEntity
  8
0
100
AcDbLine
 62
7
  6
CONTINUOUS
 10
179.1879739995
 20
55.4441540504
 11
179.1736338586
 21
55.454500515
  0
LINE
  5
51C
100
AcDbEntity
  8
0
100
AcDbLine
 62
9
  6
CONTINUOUS
 10
177.9492529808
 20
55.5763721456
 11
177.8789626224
 21
55.6272768672
  0
LINE
  5
51D
100
AcDbEntity
  8
0
100
AcDbLine
 62
7
  6
CONTINUOUS
 10
179.2023168035
 20
55.4336874441
 11
179.1879739995
 21
55.4441540504
  0
LINE
  5
51E
100
AcDbEntity
  8
0
100
AcDbLine
 62
7
  6
CONTINUOUS
 10
179.2166609412
 20
55.4230997723
 11
179.2023168035
 21
55.4336874441
  0
LINE
  5
51F
100
AcDbEntity
  8
0
100
AcDbLine
 62
9
  6
CONTINUOUS
 10
179.2540698131
 20
55.3932137262
 11
179.1787270438
 21
55.4492133353
  0
LINE
  5
520
100
AcDbEntity
  8
0
100
AcDbLine
 62
7
  6
CONTINUOUS
 10
179.2310050508
 20
55.4123901187
 11
179.2166609412
 21
55.4230997723
  0
LINE
  5
521
100
AcDbEntity
  8
0
100
AcDbLine
 62
7
  6
CONTINUOUS
 10
147.9754550971
 20
34.1328417009
 11
147.9856881507
 21
34.1251797769
  0
LINE
  5
522
100
AcDbEntity
  8
0
100
AcDbLine
 62
7
  6
CONTINUOUS
 10
179.2453477371
 20
55.4015575755
 11
179.2310050508
 21
55.4123901187
  0
LINE
  5
523
100
AcDbEntity
  8
0
100
AcDbLine
 62
7
  6
CONTINUOUS
 10
179.2596875707
 20
55.390601244
 11
179.2453477371
 21
55.4015575755
  0
LINE
  5
524
100
AcDbEntity
  8
0
100
AcDbLine
 62
9
  6
CONTINUOUS
 10
178.0171306961
 20
55.5240185707
 11
177.9492529808
 21
55.5763721456
  0
LINE
  5
525
100
AcDbEntity
  8
0
100
AcDbLine
 62
7
  6
CONTINUOUS
 10
179.2740230872
 20
55.3795202359
 11
179.2596875707
 21
55.390601244
  0
LINE
  5
526
100
AcDbEntity
  8
0
100
AcDbLine
 62
7
  6
CONTINUOUS
 10
179.2883527865
 20
55.3683136739
 11
179.2740230872
 21
55.3795202359
  0
LINE
  5
527
100
AcDbEntity
  8
0
100
AcDbLine
 62
9
  6
CONTINUOUS
 10
179.3263725069
 20
55.3361729081
 11
179.2540698131
 21
55.3932137262
  0
LINE
  5
528
100
AcDbEntity
  8
0
100
AcDbLine
 62
7
  6
CONTINUOUS
 10
179.3026751316
 20
55.3569806925
 11
179.2883527865
 21
55.3683136739
  0
LINE
  5
529
100
AcDbEntity
  8
0
100
AcDbLine
 62
7
  6
CONTINUOUS
 10
179.3169885483
 20
55.3455204394
 11
179.3026751316
 21
55.3569806925
  0
LINE
  5
52A
100
AcDbEntity
  8
0
100
AcDbLine
 62
7
  6
CONTINUOUS
 10
147.9653706188
 20
34.1409445898
 11
147.9754550971
 21
34.1328417009
  0
LINE
  5
52B
100
AcDbEntity
  8
0
100
AcDbLine
 62
7
  6
CONTINUOUS
 10
179.331291424
 20
55.3339320762
 11
179.3169885483
 21
55.3455204394
  0
LINE
  5
52C
100
AcDbEntity
  8
0
100
AcDbLine
 62
7
  6
CONTINUOUS
 10
179.3455821067
 20
55.3222147796
 11
179.331291424
 21
55.3339320762
  0
LINE
  5
52D
100
AcDbEntity
  8
0
100
AcDbLine
 62
9
  6
CONTINUOUS
 10
178.0826089067
 20
55.4703158891
 11
178.0171306961
 21
55.5240185707
  0
LINE
  5
52E
100
AcDbEntity
  8
0
100
AcDbLine
 62
7
  6
CONTINUOUS
 10
179.3598589047
 20
55.3103677425
 11
179.3455821067
 21
55.3222147796
  0
LINE
  5
52F
100
AcDbEntity
  8
0
100
AcDbLine
 62
9
  6
CONTINUOUS
 10
179.3956333275
 20
55.278220545
 11
179.3263725069
 21
55.3361729081
  0
LINE
  5
530
100
AcDbEntity
  8
0
100
AcDbLine
 62
7
  6
CONTINUOUS
 10
179.374120085
 20
55.298390175
 11
179.3598589047
 21
55.3103677425
  0
LINE
  5
531
100
AcDbEntity
  8
0
100
AcDbLine
 62
7
  6
CONTINUOUS
 10
179.3883641505
 20
55.2862810686
 11
179.374120085
 21
55.298390175
  0
LINE
  5
532
100
AcDbEntity
  8
0
100
AcDbLine
 62
7
  6
CONTINUOUS
 10
179.4025907335
 20
55.2740384074
 11
179.3883641505
 21
55.2862810686
  0
LINE
  5
533
100
AcDbEntity
  8
0
100
AcDbLine
 62
7
  6
CONTINUOUS
 10
147.9554585653
 20
34.1494895627
 11
147.9653706188
 21
34.1409445898
  0
LINE
  5
534
100
AcDbEntity
  8
0
100
AcDbLine
 62
7
  6
CONTINUOUS
 10
179.4096971557
 20
55.2678665151
 11
179.4025907335
 21
55.2740384074
  0
LINE
  5
535
100
AcDbEntity
  8
0
100
AcDbLine
 62
9
  6
CONTINUOUS
 10
178.1457243697
 20
55.4153431547
 11
178.0826089067
 21
55.4703158891
  0
LINE
  5
536
100
AcDbEntity
  8
0
100
AcDbLine
 62
7
  6
CONTINUOUS
 10
179.4238955297
 20
55.255420712
 11
179.4096971557
 21
55.2678665151
  0
LINE
  5
537
100
AcDbEntity
  8
0
100
AcDbLine
 62
9
  6
CONTINUOUS
 10
179.4618322235
 20
55.2195059951
 11
179.3956333275
 21
55.278220545
  0
LINE
  5
538
100
AcDbEntity
  8
0
100
AcDbLine
 62
7
  6
CONTINUOUS
 10
179.4380735891
 20
55.2428376916
 11
179.4238955297
 21
55.255420712
  0
LINE
  5
539
100
AcDbEntity
  8
0
100
AcDbLine
 62
7
  6
CONTINUOUS
 10
179.4522301806
 20
55.2301158711
 11
179.4380735891
 21
55.2428376916
  0
LINE
  5
53A
100
AcDbEntity
  8
0
100
AcDbLine
 62
7
  6
CONTINUOUS
 10
179.4663642745
 20
55.2172534381
 11
179.4522301806
 21
55.2301158711
  0
LINE
  5
53B
100
AcDbEntity
  8
0
100
AcDbLine
 62
7
  6
CONTINUOUS
 10
179.4804748013
 20
55.2042485526
 11
179.4663642745
 21
55.2172534381
  0
LINE
  5
53C
100
AcDbEntity
  8
0
100
AcDbLine
 62
9
  6
CONTINUOUS
 10
178.2064393569
 20
55.3592421813
 11
178.1457243697
 21
55.4153431547
  0
LINE
  5
53D
100
AcDbEntity
  8
0
100
AcDbLine
 62
7
  6
CONTINUOUS
 10
147.9457505358
 20
34.1584694013
 11
147.9554585653
 21
34.1494895627
  0
LINE
  5
53E
100
AcDbEntity
  8
0
100
AcDbLine
 62
7
  6
CONTINUOUS
 10
179.4945606417
 20
55.1910993604
 11
179.4804748013
 21
55.2042485526
  0
LINE
  5
53F
100
AcDbEntity
  8
0
100
AcDbLine
 62
9
  6
CONTINUOUS
 10
179.5249509378
 20
55.1601839601
 11
179.4618322235
 21
55.2195059951
  0
LINE
  5
540
100
AcDbEntity
  8
0
100
AcDbLine
 62
7
  6
CONTINUOUS
 10
179.5086206247
 20
55.177803995
 11
179.4945606417
 21
55.1910993604
  0
LINE
  5
541
100
AcDbEntity
  8
0
100
AcDbLine
 62
7
  6
CONTINUOUS
 10
179.5226535269
 20
55.1643605772
 11
179.5086206247
 21
55.177803995
  0
LINE
  5
542
100
AcDbEntity
  8
0
100
AcDbLine
 62
7
  6
CONTINUOUS
 10
179.5366580708
 20
55.150767217
 11
179.5226535269
 21
55.1643605772
  0
LINE
  5
543
100
AcDbEntity
  8
0
100
AcDbLine
 62
9
  6
CONTINUOUS
 10
178.2647429407
 20
55.3021386831
 11
178.2064393569
 21
55.3592421813
  0
LINE
  5
544
100
AcDbEntity
  8
0
100
AcDbLine
 62
7
  6
CONTINUOUS
 10
179.5506329236
 20
55.1370220133
 11
179.5366580708
 21
55.150767217
  0
LINE
  5
545
100
AcDbEntity
  8
0
100
AcDbLine
 62
7
  6
CONTINUOUS
 10
147.936257339
 20
34.1678952019
 11
147.9457505358
 21
34.1584694013
  0
LINE
  5
546
100
AcDbEntity
  8
0
100
AcDbLine
 62
9
  6
CONTINUOUS
 10
179.5850796898
 20
55.1003088093
 11
179.5249509378
 21
55.1601839601
  0
LINE
  5
547
100
AcDbEntity
  8
0
100
AcDbLine
 62
7
  6
CONTINUOUS
 10
179.5645766963
 20
55.1231230555
 11
179.5506329236
 21
55.1370220133
  0
LINE
  5
548
100
AcDbEntity
  8
DEFAULT_2
100
AcDbLine
 62
8
  6
CONTINUOUS
 10
166.0952459017
 20
35.9491036459
 11
165.7305277266
 21
36.313821821
  0
LINE
  5
549
100
AcDbEntity
  8
0
100
AcDbLine
 62
7
  6
CONTINUOUS
 10
179.5784879423
 20
55.1090684241
 11
179.5645766963
 21
55.1231230555
  0
LINE
  5
54A
100
AcDbEntity
  8
0
100
AcDbLine
 62
7
  6
CONTINUOUS
 10
179.592365156
 20
55.0948561915
 11
179.5784879423
 21
55.1090684241
  0
LINE
  5
54B
100
AcDbEntity
  8
0
100
AcDbLine
 62
9
  6
CONTINUOUS
 10
178.320616442
 20
55.2441703491
 11
178.2647429407
 21
55.3021386831
  0
LINE
  5
54C
100
AcDbEntity
  8
0
100
AcDbLine
 62
7
  6
CONTINUOUS
 10
179.6062067718
 20
55.0804844231
 11
179.592365156
 21
55.0948561915
  0
LINE
  5
54D
100
AcDbEntity
  8
0
100
AcDbLine
 62
7
  6
CONTINUOUS
 10
179.6200111626
 20
55.0659511786
 11
179.6062067718
 21
55.0804844231
  0
LINE
  5
54E
100
AcDbEntity
  8
0
100
AcDbLine
 62
9
  6
CONTINUOUS
 10
179.6422804158
 20
55.0399584087
 11
179.5850796898
 21
55.1003088093
  0
LINE
  5
54F
100
AcDbEntity
  8
0
100
AcDbLine
 62
7
  6
CONTINUOUS
 10
147.9269959389
 20
34.1777741243
 11
147.936257339
 21
34.1678952019
  0
LINE
  5
550
100
AcDbEntity
  8
0
100
AcDbLine
 62
7
  6
CONTINUOUS
 10
179.6337766387
 20
55.0512545126
 11
179.6200111626
 21
55.0659511786
  0
LINE
  5
551
100
AcDbEntity
  8
0
100
AcDbLine
 62
7
  6
CONTINUOUS
 10
179.6475014462
 20
55.0363924761
 11
179.6337766387
 21
55.0512545126
  0
LINE
  5
552
100
AcDbEntity
  8
0
100
AcDbLine
 62
9
  6
CONTINUOUS
 10
178.3740424979
 20
55.1854774028
 11
178.320616442
 21
55.2441703491
  0
LINE
  5
553
100
AcDbEntity
  8
0
100
AcDbLine
 62
7
  6
CONTINUOUS
 10
179.6611837663
 20
55.0213631175
 11
179.6475014462
 21
55.0363924761
  0
LINE
  5
554
100
AcDbEntity
  8
0
100
AcDbLine
 62
7
  6
CONTINUOUS
 10
179.674821713
 20
55.0061644841
 11
179.6611837663
 21
55.0213631175
  0
LINE
  5
555
100
AcDbEntity
  8
0
100
AcDbLine
 62
9
  6
CONTINUOUS
 10
179.6966577384
 20
54.9791613999
 11
179.6422804158
 21
55.0399584087
  0
LINE
  5
556
100
AcDbEntity
  8
0
100
AcDbLine
 62
7
  6
CONTINUOUS
 10
179.688413333
 20
54.9907946235
 11
179.674821713
 21
55.0061644841
  0
LINE
  5
557
100
AcDbEntity
  8
0
100
AcDbLine
 62
7
  6
CONTINUOUS
 10
147.9179881553
 20
34.1881092593
 11
147.9269959389
 21
34.1777741243
  0
LINE
  5
558
100
AcDbEntity
  8
0
100
AcDbLine
 62
7
  6
CONTINUOUS
 10
179.7019566033
 20
54.9752515847
 11
179.688413333
 21
54.9907946235
  0
LINE
  5
559
100
AcDbEntity
  8
0
100
AcDbLine
 62
9
  6
CONTINUOUS
 10
178.4250889808
 20
55.1261083852
 11
178.3740424979
 21
55.1854774028
  0
LINE
  5
55A
100
AcDbEntity
  8
0
100
AcDbLine
 62
7
  6
CONTINUOUS
 10
179.7154494304
 20
54.9595334201
 11
179.7019566033
 21
54.9752515847
  0
LINE
  5
55B
100
AcDbEntity
  8
0
100
AcDbLine
 62
7
  6
CONTINUOUS
 10
179.7288896487
 20
54.9436381866
 11
179.7154494304
 21
54.9595334201
  0
LINE
  5
55C
100
AcDbEntity
  8
0
100
AcDbLine
 62
9
  6
CONTINUOUS
 10
179.7483245645
 20
54.9179243825
 11
179.6966577384
 21
54.9791613999
  0
LINE
  5
55D
100
AcDbEntity
  8
0
100
AcDbLine
 62
7
  6
CONTINUOUS
 10
179.7422750195
 20
54.9275639477
 11
179.7288896487
 21
54.9436381866
  0
LINE
  5
55E
100
AcDbEntity
  8
0
100
AcDbLine
 62
7
  6
CONTINUOUS
 10
179.755603229
 20
54.911308775
 11
179.7422750195
 21
54.9275639477
  0
LINE
  5
55F
100
AcDbEntity
  8
0
100
AcDbLine
 62
9
  6
CONTINUOUS
 10
178.4737973194
 20
55.0661374389
 11
178.4250889808
 21
55.1261083852
  0
LINE
  5
560
100
AcDbEntity
  8
0
100
AcDbLine
 62
7
  6
CONTINUOUS
 10
147.9092562098
 20
34.1989037979
 11
147.9179881553
 21
34.1881092593
  0
LINE
  5
561
100
AcDbEntity
  8
0
100
AcDbLine
 62
7
  6
CONTINUOUS
 10
179.7688718874
 20
54.8948707504
 11
179.755603229
 21
54.911308775
  0
LINE
  5
562
100
AcDbEntity
  8
0
100
AcDbLine
 62
9
  6
CONTINUOUS
 10
179.7972797011
 20
54.8563852461
 11
179.7483245645
 21
54.9179243825
  0
LINE
  5
563
100
AcDbEntity
  8
0
100
AcDbLine
 62
7
  6
CONTINUOUS
 10
179.782078527
 20
54.8782479682
 11
179.7688718874
 21
54.8948707504
  0
LINE
  5
564
100
AcDbEntity
  8
0
100
AcDbLine
 62
7
  6
CONTINUOUS
 10
179.7952206012
 20
54.8614385369
 11
179.782078527
 21
54.8782479682
  0
LINE
  5
565
100
AcDbEntity
  8
0
100
AcDbLine
 62
7
  6
CONTINUOUS
 10
179.8082955067
 20
54.8444404894
 11
179.7952206012
 21
54.8614385369
  0
LINE
  5
566
100
AcDbEntity
  8
0
100
AcDbLine
 62
9
  6
CONTINUOUS
 10
178.5202406568
 20
55.0055963254
 11
178.4737973194
 21
55.0661374389
  0
LINE
  5
567
100
AcDbEntity
  8
0
100
AcDbLine
 62
7
  6
CONTINUOUS
 10
179.8213005989
 20
54.8272514053
 11
179.8082955067
 21
54.8444404894
  0
LINE
  5
568
100
AcDbEntity
  8
0
100
AcDbLine
 62
9
  6
CONTINUOUS
 10
179.843558263
 20
54.7946477198
 11
179.7972797011
 21
54.8563852461
  0
LINE
  5
569
100
AcDbEntity
  8
0
100
AcDbLine
 62
7
  6
CONTINUOUS
 10
147.9008234193
 20
34.2101603473
 11
147.9092562098
 21
34.1989037979
  0
LINE
  5
56A
100
AcDbEntity
  8
0
100
AcDbLine
 62
7
  6
CONTINUOUS
 10
179.8342331441
 20
54.8098686921
 11
179.8213005989
 21
54.8272514053
  0
LINE
  5
56B
100
AcDbEntity
  8
0
100
AcDbLine
 62
7
  6
CONTINUOUS
 10
179.8470903238
 20
54.792289743
 11
179.8342331441
 21
54.8098686921
  0
LINE
  5
56C
100
AcDbEntity
  8
0
100
AcDbLine
 62
9
  6
CONTINUOUS
 10
178.5644972465
 20
54.9444989962
 11
178.5202406568
 21
55.0055963254
  0
LINE
  5
56D
100
AcDbEntity
  8
0
100
AcDbLine
 62
7
  6
CONTINUOUS
 10
179.8598692373
 20
54.7745119326
 11
179.8470903238
 21
54.792289743
  0
LINE
  5
56E
100
AcDbEntity
  8
0
100
AcDbLine
 62
7
  6
CONTINUOUS
 10
179.8725669
 20
54.7565326189
 11
179.8598692373
 21
54.7745119326
  0
LINE
  5
56F
100
AcDbEntity
  8
0
100
AcDbLine
 62
9
  6
CONTINUOUS
 10
179.8872003181
 20
54.732798578
 11
179.843558263
 21
54.7946477198
  0
LINE
  5
570
100
AcDbEntity
  8
0
100
AcDbLine
 62
7
  6
CONTINUOUS
 10
179.8851802178
 20
54.7383491793
 11
179.8725669
 21
54.7565326189
  0
LINE
  5
571
100
AcDbEntity
  8
0
100
AcDbLine
 62
7
  6
CONTINUOUS
 10
147.8927144572
 20
34.2218805392
 11
147.9008234193
 21
34.2101603473
  0
LINE
  5
572
100
AcDbEntity
  8
0
100
AcDbLine
 62
9
  6
CONTINUOUS
 10
178.6065690547
 20
54.8829633249
 11
178.5644972465
 21
54.9444989962
  0
LINE
  5
573
100
AcDbEntity
  8
0
100
AcDbLine
 62
7
  6
CONTINUOUS
 10
179.8977061148
 20
54.7199588234
 11
179.8851802178
 21
54.7383491793
  0
LINE
  5
574
100
AcDbEntity
  8
0
100
AcDbLine
 62
7
  6
CONTINUOUS
 10
179.9101426005
 20
54.7013569672
 11
179.8977061148
 21
54.7199588234
  0
LINE
  5
575
100
AcDbEntity
  8
0
100
AcDbLine
 62
9
  6
CONTINUOUS
 10
179.9282233289
 20
54.6709547968
 11
179.8872003181
 21
54.732798578
  0
LINE
  5
576
100
AcDbEntity
  8
0
100
AcDbLine
 62
7
  6
CONTINUOUS
 10
179.9163268816
 20
54.691974925
 11
179.9101426005
 21
54.7013569672
  0
LINE
  5
577
100
AcDbEntity
  8
0
100
AcDbLine
 62
7
  6
CONTINUOUS
 10
179.9224881928
 20
54.6825379483
 11
179.9163268816
 21
54.691974925
  0
LINE
  5
578
100
AcDbEntity
  8
0
100
AcDbLine
 62
7
  6
CONTINUOUS
 10
179.9286262679
 20
54.6730453974
 11
179.9224881928
 21
54.6825379483
  0
LINE
  5
579
100
AcDbEntity
  8
0
100
AcDbLine
 62
9
  6
CONTINUOUS
 10
178.6464867486
 20
54.8210695804
 11
178.6065690547
 21
54.8829633249
  0
LINE
  5
57A
100
AcDbEntity
  8
0
100
AcDbLine
 62
7
  6
CONTINUOUS
 10
179.9347408242
 20
54.6634966368
 11
179.9286262679
 21
54.6730453974
  0
LINE
  5
57B
100
AcDbEntity
  8
0
100
AcDbLine
 62
7
  6
CONTINUOUS
 10
147.8849553132
 20
34.2340649567
 11
147.8927144572
 21
34.2218805392
  0
LINE
  5
57C
100
AcDbEntity
  8
0
100
AcDbLine
 62
7
  6
CONTINUOUS
 10
179.9408315799
 20
54.6538910083
 11
179.9347408242
 21
54.6634966368
  0
LINE
  5
57D
100
AcDbEntity
  8
0
100
AcDbLine
 62
7
  6
CONTINUOUS
 10
179.9468982304
 20
54.6442278676
 11
179.9408315799
 21
54.6538910083
  0
LINE
  5
57E
100
AcDbEntity
  8
0
100
AcDbLine
 62
9
  6
CONTINUOUS
 10
179.9667706258
 20
54.6090446635
 11
179.9282233289
 21
54.6709547968
  0
LINE
  5
57F
100
AcDbEntity
  8
0
100
AcDbLine
 62
7
  6
CONTINUOUS
 10
179.9529404717
 20
54.6345065474
 11
179.9468982304
 21
54.6442278676
  0
LINE
  5
580
100
AcDbEntity
  8
0
100
AcDbLine
 62
7
  6
CONTINUOUS
 10
179.9589579768
 20
54.6247263946
 11
179.9529404717
 21
54.6345065474
  0
LINE
  5
581
100
AcDbEntity
  8
0
100
AcDbLine
 62
7
  6
CONTINUOUS
 10
179.9649504186
 20
54.6148867333
 11
179.9589579768
 21
54.6247263946
  0
LINE
  5
582
100
AcDbEntity
  8
0
100
AcDbLine
 62
9
  6
CONTINUOUS
 10
178.6842662694
 20
54.758909775
 11
178.6464867486
 21
54.8210695804
  0
LINE
  5
583
100
AcDbEntity
  8
0
100
AcDbLine
 62
7
  6
CONTINUOUS
 10
179.9709174469
 20
54.604986902
 11
179.9649504186
 21
54.6148867333
  0
LINE
  5
584
100
AcDbEntity
  8
0
100
AcDbLine
 62
7
  6
CONTINUOUS
 10
179.9768587108
 20
54.5950262163
 11
179.9709174469
 21
54.604986902
  0
LINE
  5
585
100
AcDbEntity
  8
0
100
AcDbLine
 62
7
  6
CONTINUOUS
 10
179.9827738364
 20
54.5850040067
 11
179.9768587108
 21
54.5950262163
  0
LINE
  5
586
100
AcDbEntity
  8
0
100
AcDbLine
 62
7
  6
CONTINUOUS
 10
179.9886624486
 20
54.5749195808
 11
179.9827738364
 21
54.5850040067
  0
LINE
  5
587
100
AcDbEntity
  8
0
100
AcDbLine
 62
7
  6
CONTINUOUS
 10
147.8775732973
 20
34.246712995
 11
147.8849553132
 21
34.2340649567
  0
LINE
  5
588
100
AcDbEntity
  8
0
100
AcDbLine
 62
9
  6
CONTINUOUS
 10
180.0029631349
 20
54.5470046856
 11
179.9667706258
 21
54.6090446635
  0
LINE
  5
589
100
AcDbEntity
  8
0
100
AcDbLine
 62
7
  6
CONTINUOUS
 10
179.9945241486
 20
54.5647722612
 11
179.9886624486
 21
54.5749195808
  0
LINE
  5
58A
100
AcDbEntity
  8
0
100
AcDbLine
 62
9
  6
CONTINUOUS
 10
178.719912665
 20
54.6966041369
 11
178.6842662694
 21
54.758909775
  0
LINE
  5
58B
100
AcDbEntity
  8
0
100
AcDbLine
 62
7
  6
CONTINUOUS
 10
180.0003585365
 20
54.5545613479
 11
179.9945241486
 21
54.5647722612
  0
LINE
  5
58C
100
AcDbEntity
  8
0
100
AcDbLine
 62
7
  6
CONTINUOUS
 10
180.0061651884
 20
54.5442861561
 11
180.0003585365
 21
54.5545613479
  0
LINE
  5
58D
100
AcDbEntity
  8
0
100
AcDbLine
 62
7
  6
CONTINUOUS
 10
180.0119436785
 20
54.5339459782
 11
180.0061651884
 21
54.5442861561
  0
LINE
  5
58E
100
AcDbEntity
  8
0
100
AcDbLine
 62
7
  6
CONTINUOUS
 10
180.0176935572
 20
54.5235401225
 11
180.0119436785
 21
54.5339459782
  0
LINE
  5
58F
100
AcDbEntity
  8
0
100
AcDbLine
 62
7
  6
CONTINUOUS
 10
180.0234143726
 20
54.5130678744
 11
180.0176935572
 21
54.5235401225
  0
LINE
  5
590
100
AcDbEntity
  8
0
100
AcDbLine
 62
9
  6
CONTINUOUS
 10
180.0368265713
 20
54.4849235893
 11
180.0029631349
 21
54.5470046856
  0
LINE
  5
591
100
AcDbEntity
  8
0
100
AcDbLine
 62
7
  6
CONTINUOUS
 10
180.0291056485
 20
54.5025285354
 11
180.0234143726
 21
54.5130678744
  0
LINE
  5
592
100
AcDbEntity
  8
0
100
AcDbLine
 62
9
  6
CONTINUOUS
 10
178.7535239674
 20
54.6341066636
 11
178.719912665
 21
54.6966041369
  0
LINE
  5
593
100
AcDbEntity
  8
0
100
AcDbLine
 62
7
  6
CONTINUOUS
 10
180.0347669061
 20
54.491921384
 11
180.0291056485
 21
54.5025285354
  0
LINE
  5
594
100
AcDbEntity
  8
0
100
AcDbLine
 62
7
  6
CONTINUOUS
 10
147.8705970164
 20
34.259822751
 11
147.8775732973
 21
34.246712995
  0
LINE
  5
595
100
AcDbEntity
  8
0
100
AcDbLine
 62
7
  6
CONTINUOUS
 10
180.0403976417
 20
54.4812457166
 11
180.0347669061
 21
54.491921384
  0
LINE
  5
596
100
AcDbEntity
  8
0
100
AcDbLine
 62
7
  6
CONTINUOUS
 10
180.0459973506
 20
54.4705008023
 11
180.0403976417
 21
54.4812457166
  0
LINE
  5
597
100
AcDbEntity
  8
0
100
AcDbLine
 62
7
  6
CONTINUOUS
 10
180.0515655008
 20
54.4596859327
 11
180.0459973506
 21
54.4705008023
  0
LINE
  5
598
100
AcDbEntity
  8
0
100
AcDbLine
 62
9
  6
CONTINUOUS
 10
180.0684242706
 20
54.4228301154
 11
180.0368265713
 21
54.4849235893
  0
LINE
  5
599
100
AcDbEntity
  8
0
100
AcDbLine
 62
7
  6
CONTINUOUS
 10
180.0571015636
 20
54.4488003572
 11
180.0515655008
 21
54.4596859327
  0
LINE
  5
59A
100
AcDbEntity
  8
0
100
AcDbLine
 62
9
  6
CONTINUOUS
 10
178.7851780168
 20
54.5713897723
 11
178.7535239674
 21
54.6341066636
  0
LINE
  5
59B
100
AcDbEntity
  8
0
100
AcDbLine
 62
7
  6
CONTINUOUS
 10
180.0626049538
 20
54.4378432691
 11
180.0571015636
 21
54.4488003572
  0
LINE
  5
59C
100
AcDbEntity
  8
0
100
AcDbLine
 62
7
  6
CONTINUOUS
 10
180.0680750215
 20
54.4268138097
 11
180.0626049538
 21
54.4378432691
  0
LINE
  5
59D
100
AcDbEntity
  8
0
100
AcDbLine
 62
7
  6
CONTINUOUS
 10
180.0735110942
 20
54.4157111176
 11
180.0680750215
 21
54.4268138097
  0
LINE
  5
59E
100
AcDbEntity
  8
0
100
AcDbLine
 62
7
  6
CONTINUOUS
 10
180.0789124895
 20
54.4045343087
 11
180.0735110942
 21
54.4157111176
  0
LINE
  5
59F
100
AcDbEntity
  8
0
100
AcDbLine
 62
7
  6
CONTINUOUS
 10
147.8640564665
 20
34.2733906512
 11
147.8705970164
 21
34.259822751
  0
LINE
  5
5A0
100
AcDbEntity
  8
0
100
AcDbLine
 62
7
  6
CONTINUOUS
 10
180.0842784985
 20
54.3932825086
 11
180.0789124895
 21
54.4045343087
  0
LINE
  5
5A1
100
AcDbEntity
  8
0
100
AcDbLine
 62
9
  6
CONTINUOUS
 10
180.0977756465
 20
54.3608351158
 11
180.0684242706
 21
54.4228301154
  0
LINE
  5
5A2
100
AcDbEntity
  8
0
100
AcDbLine
 62
9
  6
CONTINUOUS
 10
178.8149070271
 20
54.5085101251
 11
178.7851780168
 21
54.5713897723
  0
LINE
  5
5A3
100
AcDbEntity
  8
0
100
AcDbLine
 62
7
  6
CONTINUOUS
 10
180.0896084021
 20
54.3819548194
 11
180.0842784985
 21
54.3932825086
  0
LINE
  5
5A4
100
AcDbEntity
  8
0
100
AcDbLine
 62
7
  6
CONTINUOUS
 10
180.0949014548
 20
54.3705503532
 11
180.0896084021
 21
54.3819548194
  0
LINE
  5
5A5
100
AcDbEntity
  8
0
100
AcDbLine
 62
7
  6
CONTINUOUS
 10
180.1001568997
 20
54.3590681991
 11
180.0949014548
 21
54.3705503532
  0
LINE
  5
5A6
100
AcDbEntity
  8
0
100
AcDbLine
 62
7
  6
CONTINUOUS
 10
180.1053739533
 20
54.347507456
 11
180.1001568997
 21
54.3590681991
  0
LINE
  5
5A7
100
AcDbEntity
  8
0
100
AcDbLine
 62
7
  6
CONTINUOUS
 10
180.1105518196
 20
54.3358672006
 11
180.1053739533
 21
54.347507456
  0
LINE
  5
5A8
100
AcDbEntity
  8
0
100
AcDbLine
 62
9
  6
CONTINUOUS
 10
178.8427652252
 20
54.4454743323
 11
178.8149070271
 21
54.5085101251
  0
LINE
  5
5A9
100
AcDbEntity
  8
0
100
AcDbLine
 62
9
  6
CONTINUOUS
 10
180.1248888014
 20
54.2990634002
 11
180.0977756465
 21
54.3608351158
  0
LINE
  5
5AA
100
AcDbEntity
  8
0
100
AcDbLine
 62
7
  6
CONTINUOUS
 10
180.1156896762
 20
54.324146519
 11
180.1105518196
 21
54.3358672006
  0
LINE
  5
5AB
100
AcDbEntity
  8
0
100
AcDbLine
 62
7
  6
CONTINUOUS
 10
147.8579825667
 20
34.2874122556
 11
147.8640564665
 21
34.2733906512
  0
LINE
  5
5AC
100
AcDbEntity
  8
0
100
AcDbLine
 62
7
  6
CONTINUOUS
 10
180.1207866871
 20
54.3123444765
 11
180.1156896762
 21
54.324146519
  0
LINE
  5
5AD
100
AcDbEntity
  8
0
100
AcDbLine
 62
7
  6
CONTINUOUS
 10
180.1258419895
 20
54.3004601466
 11
180.1207866871
 21
54.3123444765
  0
LINE
  5
5AE
100
AcDbEntity
  8
0
100
AcDbLine
 62
7
  6
CONTINUOUS
 10
180.1308547062
 20
54.2884925837
 11
180.1258419895
 21
54.3004601466
  0
LINE
  5
5AF
100
AcDbEntity
  8
0
100
AcDbLine
 62
7
  6
CONTINUOUS
 10
180.1358239334
 20
54.27644085
 11
180.1308547062
 21
54.2884925837
  0
LINE
  5
5B0
100
AcDbEntity
  8
0
100
AcDbLine
 62
9
  6
CONTINUOUS
 10
178.8687590053
 20
54.3823913869
 11
178.8427652252
 21
54.4454743323
  0
LINE
  5
5B1
100
AcDbEntity
  8
0
100
AcDbLine
 62
7
  6
CONTINUOUS
 10
180.1407487515
 20
54.2643039897
 11
180.1358239334
 21
54.27644085
  0
LINE
  5
5B2
100
AcDbEntity
  8
0
100
AcDbLine
 62
9
  6
CONTINUOUS
 10
180.1498697818
 20
54.2374180359
 11
180.1248888014
 21
54.2990634002
  0
LINE
  5
5B3
100
AcDbEntity
  8
0
100
AcDbLine
 62
7
  6
CONTINUOUS
 10
180.1456282144
 20
54.252081054
 11
180.1407487515
 21
54.2643039897
  0
LINE
  5
5B4
100
AcDbEntity
  8
0
100
AcDbLine
 62
7
  6
CONTINUOUS
 10
180.1504613593
 20
54.2397710779
 11
180.1456282144
 21
54.252081054
  0
LINE
  5
5B5
100
AcDbEntity
  8
0
100
AcDbLine
 62
7
  6
CONTINUOUS
 10
180.1552472007
 20
54.2273730927
 11
180.1504613593
 21
54.2397710779
  0
LINE
  5
5B6
100
AcDbEntity
  8
0
100
AcDbLine
 62
7
  6
CONTINUOUS
 10
147.8524076342
 20
34.3018811839
 11
147.8579825667
 21
34.2874122556
  0
LINE
  5
5B7
100
AcDbEntity
  8
0
100
AcDbLine
 62
9
  6
CONTINUOUS
 10
178.8928946004
 20
54.3193706813
 11
178.8687590053
 21
54.3823913869
  0
LINE
  5
5B8
100
AcDbEntity
  8
0
100
AcDbLine
 62
7
  6
CONTINUOUS
 10
180.1599847201
 20
54.2148861545
 11
180.1552472007
 21
54.2273730927
  0
LINE
  5
5B9
100
AcDbEntity
  8
0
100
AcDbLine
 62
7
  6
CONTINUOUS
 10
180.1646728156
 20
54.2023094826
 11
180.1599847201
 21
54.2148861545
  0
LINE
  5
5BA
100
AcDbEntity
  8
0
100
AcDbLine
 62
9
  6
CONTINUOUS
 10
180.172794012
 20
54.1758475735
 11
180.1498697818
 21
54.2374180359
  0
LINE
  5
5BB
100
AcDbEntity
  8
0
100
AcDbLine
 62
7
  6
CONTINUOUS
 10
180.169310614
 20
54.1896416132
 11
180.1646728156
 21
54.2023094826
  0
LINE
  5
5BC
100
AcDbEntity
  8
0
100
AcDbLine
 62
7
  6
CONTINUOUS
 10
180.1738969702
 20
54.1768817432
 11
180.169310614
 21
54.1896416132
  0
LINE
  5
5BD
100
AcDbEntity
  8
0
100
AcDbLine
 62
9
  6
CONTINUOUS
 10
178.9152388563
 20
54.2563577448
 11
178.8928946004
 21
54.3193706813
  0
LINE
  5
5BE
100
AcDbEntity
  8
0
100
AcDbLine
 62
7
  6
CONTINUOUS
 10
180.178431407
 20
54.1640271015
 11
180.1738969702
 21
54.1768817432
  0
LINE
  5
5BF
100
AcDbEntity
  8
0
100
AcDbLine
 62
7
  6
CONTINUOUS
 10
180.1829131856
 20
54.1510754704
 11
180.178431407
 21
54.1640271015
  0
LINE
  5
5C0
100
AcDbEntity
  8
0
100
AcDbLine
 62
9
  6
CONTINUOUS
 10
180.1937171067
 20
54.1143374971
 11
180.172794012
 21
54.1758475735
  0
LINE
  5
5C1
100
AcDbEntity
  8
0
100
AcDbLine
 62
7
  6
CONTINUOUS
 10
180.187341598
 20
54.1380243688
 11
180.1829131856
 21
54.1510754704
  0
LINE
  5
5C2
100
AcDbEntity
  8
0
100
AcDbLine
 62
7
  6
CONTINUOUS
 10
147.8473652638
 20
34.3167890452
 11
147.8524076342
 21
34.3018811839
  0
LINE
  5
5C3
100
AcDbEntity
  8
0
100
AcDbLine
 62
7
  6
CONTINUOUS
 10
180.1917158483
 20
54.1248713862
 11
180.187341598
 21
54.1380243688
  0
LINE
  5
5C4
100
AcDbEntity
  8
0
100
AcDbLine
 62
9
  6
CONTINUOUS
 10
178.9358374013
 20
54.1933458308
 11
178.9152388563
 21
54.2563577448
  0
LINE
  5
5C5
100
AcDbEntity
  8
0
100
AcDbLine
 62
7
  6
CONTINUOUS
 10
180.1960350893
 20
54.1116140744
 11
180.1917158483
 21
54.1248713862
  0
LINE
  5
5C6
100
AcDbEntity
  8
0
100
AcDbLine
 62
7
  6
CONTINUOUS
 10
180.2002984052
 20
54.0982499989
 11
180.1960350893
 21
54.1116140744
  0
LINE
  5
5C7
100
AcDbEntity
  8
0
100
AcDbLine
 62
7
  6
CONTINUOUS
 10
180.2045048265
 20
54.0847766904
 11
180.2002984052
 21
54.0982499989
  0
LINE
  5
5C8
100
AcDbEntity
  8
0
100
AcDbLine
 62
9
  6
CONTINUOUS
 10
180.2127088493
 20
54.052815398
 11
180.1937171067
 21
54.1143374971
  0
LINE
  5
5C9
100
AcDbEntity
  8
0
100
AcDbLine
 62
7
  6
CONTINUOUS
 10
180.2086533144
 20
54.0711916925
 11
180.2045048265
 21
54.0847766904
  0
LINE
  5
5CA
100
AcDbEntity
  8
0
100
AcDbLine
 62
9
  6
CONTINUOUS
 10
178.9547417136
 20
54.1302976625
 11
178.9358374013
 21
54.1933458308
  0
LINE
  5
5CB
100
AcDbEntity
  8
0
100
AcDbLine
 62
7
  6
CONTINUOUS
 10
180.2127427743
 20
54.0574925154
 11
180.2086533144
 21
54.0711916925
  0
LINE
  5
5CC
100
AcDbEntity
  8
0
100
AcDbLine
 62
7
  6
CONTINUOUS
 10
147.842890234
 20
34.3321253328
 11
147.8473652638
 21
34.3167890452
  0
LINE
  5
5CD
100
AcDbEntity
  8
0
100
AcDbLine
 62
7
  6
CONTINUOUS
 10
147.8428788254
 20
34.3321677718
 11
147.8473496603
 21
34.31683858
  0
LINE
  5
5CE
100
AcDbEntity
  8
0
100
AcDbLine
 62
7
  6
CONTINUOUS
 10
180.2167720477
 20
54.043676661
 11
180.2127427743
 21
54.0574925154
  0
LINE
  5
5CF
100
AcDbEntity
  8
0
100
AcDbLine
 62
7
  6
CONTINUOUS
 10
180.2207398592
 20
54.0297416598
 11
180.2167720477
 21
54.043676661
  0
LINE
  5
5D0
100
AcDbEntity
  8
0
100
AcDbLine
 62
9
  6
CONTINUOUS
 10
180.2297773444
 20
53.991403891
 11
180.2127088493
 21
54.052815398
  0
LINE
  5
5D1
100
AcDbEntity
  8
0
100
AcDbLine
 62
7
  6
CONTINUOUS
 10
180.2246446981
 20
54.015684885
 11
180.2207398592
 21
54.0297416598
  0
LINE
  5
5D2
100
AcDbEntity
  8
0
100
AcDbLine
 62
9
  6
CONTINUOUS
 10
178.9720075314
 20
54.0671350337
 11
178.9547417136
 21
54.1302976625
  0
LINE
  5
5D3
100
AcDbEntity
  8
0
100
AcDbLine
 62
7
  6
CONTINUOUS
 10
180.2284848829
 20
54.0015037993
 11
180.2246446981
 21
54.015684885
  0
LINE
  5
5D4
100
AcDbEntity
  8
0
100
AcDbLine
 62
7
  6
CONTINUOUS
 10
180.2322586682
 20
53.987195801
 11
180.2284848829
 21
54.0015037993
  0
LINE
  5
5D5
100
AcDbEntity
  8
0
100
AcDbLine
 62
7
  6
CONTINUOUS
 10
180.2359642082
 20
53.972758355
 11
180.2322586682
 21
53.987195801
  0
LINE
  5
5D6
100
AcDbEntity
  8
0
100
AcDbLine
 62
7
  6
CONTINUOUS
 10
180.2395995881
 20
53.9581888718
 11
180.2359642082
 21
53.972758355
  0
LINE
  5
5D7
100
AcDbEntity
  8
0
100
AcDbLine
 62
9
  6
CONTINUOUS
 10
180.2449370774
 20
53.9302021858
 11
180.2297773444
 21
53.991403891
  0
LINE
  5
5D8
100
AcDbEntity
  8
0
100
AcDbLine
 62
9
  6
CONTINUOUS
 10
178.987640292
 20
54.0039695058
 11
178.9720075314
 21
54.0671350337
  0
LINE
  5
5D9
100
AcDbEntity
  8
0
100
AcDbLine
 62
7
  6
CONTINUOUS
 10
147.8390184471
 20
34.3478771799
 11
147.842890234
 21
34.3321253328
  0
LINE
  5
5DA
100
AcDbEntity
  8
0
100
AcDbLine
 62
7
  6
CONTINUOUS
 10
180.24316279
 20
53.9434848383
 11
180.2395995881
 21
53.9581888718
  0
LINE
  5
5DB
100
AcDbEntity
  8
0
100
AcDbLine
 62
7
  6
CONTINUOUS
 10
180.2466517986
 20
53.9286433716
 11
180.24316279
 21
53.9434848383
  0
LINE
  5
5DC
100
AcDbEntity
  8
0
100
AcDbLine
 62
7
  6
CONTINUOUS
 10
180.2500642067
 20
53.9136629139
 11
180.2466517986
 21
53.9286433716
  0
LINE
  5
5DD
100
AcDbEntity
  8
0
100
AcDbLine
 62
9
  6
CONTINUOUS
 10
179.0016492186
 20
53.9408786253
 11
178.987640292
 21
54.0039695058
  0
LINE
  5
5DE
100
AcDbEntity
  8
0
100
AcDbLine
 62
7
  6
CONTINUOUS
 10
180.2533976721
 20
53.8985413465
 11
180.2500642067
 21
53.9136629139
  0
LINE
  5
5DF
100
AcDbEntity
  8
0
100
AcDbLine
 62
9
  6
CONTINUOUS
 10
180.2582309481
 20
53.8691720111
 11
180.2449370774
 21
53.9302021858
  0
LINE
  5
5E0
100
AcDbEntity
  8
0
100
AcDbLine
 62
7
  6
CONTINUOUS
 10
180.2566496024
 20
53.8832773951
 11
180.2533976721
 21
53.8985413465
  0
LINE
  5
5E1
100
AcDbEntity
  8
0
100
AcDbLine
 62
7
  6
CONTINUOUS
 10
180.2598173839
 20
53.8678696497
 11
180.2566496024
 21
53.8832773951
  0
LINE
  5
5E2
100
AcDbEntity
  8
0
100
AcDbLine
 62
7
  6
CONTINUOUS
 10
147.8357868227
 20
34.3640292026
 11
147.8390184471
 21
34.3478771799
  0
LINE
  5
5E3
100
AcDbEntity
  8
0
100
AcDbLine
 62
7
  6
CONTINUOUS
 10
147.8357820721
 20
34.3640559858
 11
147.8390106756
 21
34.3479120288
  0
LINE
  5
5E4
100
AcDbEntity
  8
0
100
AcDbLine
 62
7
  6
CONTINUOUS
 10
180.2628984227
 20
53.8523163272
 11
180.2598173839
 21
53.8678696497
  0
LINE
  5
5E5
100
AcDbEntity
  8
0
100
AcDbLine
 62
9
  6
CONTINUOUS
 10
179.0140596027
 20
53.8778531263
 11
179.0016492186
 21
53.9408786253
  0
LINE
  5
5E6
100
AcDbEntity
  8
0
100
AcDbLine
 62
7
  6
CONTINUOUS
 10
180.2658900639
 20
53.8366156273
 11
180.2628984227
 21
53.8523163272
  0
LINE
  5
5E7
100
AcDbEntity
  8
0
100
AcDbLine
 62
9
  6
CONTINUOUS
 10
180.2696832887
 20
53.808356508
 11
180.2582309481
 21
53.8691720111
  0
LINE
  5
5E8
100
AcDbEntity
  8
0
100
AcDbLine
 62
7
  6
CONTINUOUS
 10
180.2687895222
 20
53.8207661156
 11
180.2658900639
 21
53.8366156273
  0
LINE
  5
5E9
100
AcDbEntity
  8
0
100
AcDbLine
 62
7
  6
CONTINUOUS
 10
180.2715939847
 20
53.8047662056
 11
180.2687895222
 21
53.8207661156
  0
LINE
  5
5EA
100
AcDbEntity
  8
0
100
AcDbLine
 62
9
  6
CONTINUOUS
 10
179.0248861277
 20
53.8149524304
 11
179.0140596027
 21
53.8778531263
  0
LINE
  5
5EB
100
AcDbEntity
  8
0
100
AcDbLine
 62
7
  6
CONTINUOUS
 10
180.2743005514
 20
53.7886144825
 11
180.2715939847
 21
53.8047662056
  0
LINE
  5
5EC
100
AcDbEntity
  8
0
100
AcDbLine
 62
7
  6
CONTINUOUS
 10
180.276906271
 20
53.7723095201
 11
180.2743005514
 21
53.7886144825
  0
LINE
  5
5ED
100
AcDbEntity
  8
0
100
AcDbLine
 62
9
  6
CONTINUOUS
 10
180.2793520779
 20
53.7476042131
 11
180.2696832887
 21
53.808356508
  0
LINE
  5
5EE
100
AcDbEntity
  8
0
100
AcDbLine
 62
7
  6
CONTINUOUS
 10
147.8332331921
 20
34.380563261
 11
147.8357868227
 21
34.3640292026
  0
LINE
  5
5EF
100
AcDbEntity
  8
0
100
AcDbLine
 62
7
  6
CONTINUOUS
 10
180.2794081676
 20
53.7558496971
 11
180.276906271
 21
53.7723095201
  0
LINE
  5
5F0
100
AcDbEntity
  8
0
100
AcDbLine
 62
9
  6
CONTINUOUS
 10
179.03417266
 20
53.7520462228
 11
179.0248861277
 21
53.8149524304
  0
LINE
  5
5F1
100
AcDbEntity
  8
0
100
AcDbLine
 62
7
  6
CONTINUOUS
 10
180.2818031798
 20
53.7392335734
 11
180.2794081676
 21
53.7558496971
  0
LINE
  5
5F2
100
AcDbEntity
  8
DEFAULT_2
100
AcDbLine
 62
8
  6
CONTINUOUS
 10
151.3175204281
 20
37.826322701
 11
148.8509187467
 21
55.3771056215
  0
LINE
  5
5F3
100
AcDbEntity
  8
0
100
AcDbLine
 62
7
  6
CONTINUOUS
 10
180.2840882716
 20
53.7224591105
 11
180.2818031798
 21
53.7392335734
  0
LINE
  5
5F4
100
AcDbEntity
  8
0
100
AcDbLine
 62
9
  6
CONTINUOUS
 10
180.2872781964
 20
53.6867646308
 11
180.2793520779
 21
53.7476042131
  0
LINE
  5
5F5
100
AcDbEntity
  8
0
100
AcDbLine
 62
7
  6
CONTINUOUS
 10
180.286260296
 20
53.7055245741
 11
180.2840882716
 21
53.7224591105
  0
LINE
  5
5F6
100
AcDbEntity
  8
0
100
AcDbLine
 62
9
  6
CONTINUOUS
 10
179.0419501581
 20
53.6890108756
 11
179.03417266
 21
53.7520462228
  0
LINE
  5
5F7
100
AcDbEntity
  8
0
100
AcDbLine
 62
7
  6
CONTINUOUS
 10
180.2883161232
 20
53.6884275364
 11
180.286260296
 21
53.7055245741
  0
LINE
  5
5F8
100
AcDbEntity
  8
0
100
AcDbLine
 62
7
  6
CONTINUOUS
 10
180.2902525182
 20
53.6711657491
 11
180.2883161232
 21
53.6884275364
  0
ARC
  5
5F9
100
AcDbEntity
  8
0
100
AcDbCircle
 62
7
  6
CONTINUOUS
 10
248.1141045961
 20
29.2215323412
 40
73.5408900292
100
AcDbArc
 50
160.7838514037
 51
175.9606972606
  0
ARC
  5
5FA
100
AcDbEntity
  8
0
100
AcDbCircle
 62
7
  6
CONTINUOUS
 10
74.4728338167
 20
29.2215323412
 40
73.5408900292
100
AcDbArc
 50
4.0403330073
 51
19.2161485958
  0
ARC
  5
5FB
100
AcDbEntity
  8
DEFAULT_2
100
AcDbCircle
 62
8
  6
CONTINUOUS
 10
170.2215287262
 20
37.5554997325
 40
1.0
100
AcDbArc
 50
275.3564819847
 51
352.0
  0
ARC
  5
5FC
100
AcDbEntity
  8
DEFAULT_2
100
AcDbCircle
 62
8
  6
CONTINUOUS
 10
152.3077884968
 20
37.9654958019
 40
1.0
100
AcDbArc
 50
188.0
 51
267.4800788224
  0
ARC
  5
5FD
100
AcDbEntity
  8
DEFAULT_2
100
AcDbCircle
 62
8
  6
CONTINUOUS
 10
174.2307179845
 20
55.304418791
 40
0.5
100
AcDbArc
 50
92.489552922
 51
172.0
  0
ARC
  5
5FE
100
AcDbEntity
  8
DEFAULT_2
100
AcDbCircle
 62
8
  6
CONTINUOUS
 10
148.3562204283
 20
55.304418791
 40
0.5
100
AcDbArc
 50
8.0
 51
87.510447078
  0
ARC
  5
5FF
100
AcDbEntity
  8
0
100
AcDbCircle
 62
7
  6
CONTINUOUS
 10
176.861229463
 20
55.9108803412
 40
0.25
100
AcDbArc
 50
89.999998647
 51
90.2221470786
  0
ARC
  5
600
100
AcDbEntity
  8
0
100
AcDbCircle
 62
7
  6
CONTINUOUS
 10
145.7257089498
 20
55.9108803412
 40
0.25
100
AcDbArc
 50
89.7779169745
 51
90.000001353
  0
ARC
  5
601
100
AcDbEntity
  8
0
100
AcDbCircle
 62
7
  6
CONTINUOUS
 10
143.6802224471
 20
53.3439683756
 40
0.25
100
AcDbArc
 50
19.2161488338
 51
71.6391035718
  0
ARC
  5
602
100
AcDbEntity
  8
DEFAULT_2
100
AcDbCircle
 62
8
  6
CONTINUOUS
 10
176.86105365
 20
55.9105557522
 40
0.25
100
AcDbArc
 50
87.6572780444
 51
151.5153725788
  0
ARC
  5
603
100
AcDbEntity
  8
DEFAULT_2
100
AcDbCircle
 62
8
  6
CONTINUOUS
 10
168.8149158158
 20
36.1258803412
 40
0.25
100
AcDbArc
 50
270.0
 51
315.0
  0
ARC
  5
604
100
AcDbEntity
  8
DEFAULT_2
100
AcDbCircle
 62
8
  6
CONTINUOUS
 10
166.272022597
 20
36.1258803412
 40
0.25
100
AcDbArc
 50
225.0
 51
270.0
  0
ARC
  5
605
100
AcDbEntity
  8
DEFAULT_2
100
AcDbCircle
 62
8
  6
CONTINUOUS
 10
145.7258847629
 20
55.9105557522
 40
0.25
100
AcDbArc
 50
28.4846274212
 51
92.3427219556
  0
ARC
  5
606
100
AcDbEntity
  8
DEFAULT_2
100
AcDbCircle
 62
8
  6
CONTINUOUS
 10
169.6402898807
 20
36.2441476413
 40
0.2499999991
100
AcDbArc
 50
95.4001166812
 51
134.9999967375
  0
ARC
  5
607
100
AcDbEntity
  8
DEFAULT_2
100
AcDbCircle
 62
8
  6
CONTINUOUS
 10
165.5537510483
 20
36.1370451255
 40
0.2499999989
100
AcDbArc
 50
45.0000027873
 51
89.3428018102
  0
ARC
  5
608
100
AcDbEntity
  8
0
100
AcDbCircle
 62
7
  6
CONTINUOUS
 10
178.9067159375
 20
53.3439683324
 40
0.2499999978
100
AcDbArc
 50
108.3608871891
 51
160.7838394335
  0
ARC
  5
609
100
AcDbEntity
  8
DEFAULT_2
100
AcDbCircle
 62
8
  6
CONTINUOUS
 10
176.4284692145
 20
56.1406722869
 40
0.2399999975
100
AcDbArc
 50
272.489551793
 51
332.4822001474
  0
ARC
  5
60A
100
AcDbEntity
  8
DEFAULT_2
100
AcDbCircle
 62
8
  6
CONTINUOUS
 10
146.1584691984
 20
56.1406722869
 40
0.2399999975
100
AcDbArc
 50
207.5177998526
 51
267.510448207
  0
ENDSEC
  0
SECTION
  2
OBJECTS
  0
DICTIONARY
  5
C
100
AcDbDictionary
280
0
281
1
  3
ACAD_GROUP
350
D
  3
ACAD_MLINESTYLE
350
17
  3
ACAD_LAYOUT
350
1A
  3
ACAD_PLOTSETTINGS
350
19
  3
ACAD_PLOTSTYLENAME
350
E
  0
DICTIONARY
  5
D
102
{ACAD_REACTORS
330
C
102
}
100
AcDbDictionary
280
0
281
1
  0
ACDBDICTIONARYWDFLT
  5
E
102
{ACAD_REACTORS
330
C
102
}
100
AcDbDictionary
281
1
  3
Normal
350
F
100
AcDbDictionaryWithDefault
340
F
  0
DICTIONARY
  5
17
102
{ACAD_REACTORS
330
C
102
}
100
AcDbDictionary
280
0
281
1
  3
Standard
350
18
  0
DICTIONARY
  5
19
102
{ACAD_REACTORS
330
C
102
}
100
AcDbDictionary
281
1
  0
DICTIONARY
  5
1A
102
{ACAD_REACTORS
330
C
102
}
100
AcDbDictionary
281
1
  3
Model
350
60B
  3
Layout1
350
60C
  0
ACDBPLACEHOLDER
  5
F
102
{ACAD_REACTORS
330
E
102
}
  0
MLINESTYLE
  5
18
102
{ACAD_REACTORS
330
17
102
}
100
AcDbMlineStyle
  2
STANDARD
 70
0
  3

 62
256
 51
90.0
 52
90.0
 71
2
 49
0.5
 62
256
  6
BYLAYER
 49
-0.5
 62
256
  6
BYLAYER
  0
LAYOUT
  5
60B
102
{ACAD_REACTORS
330
1A
102
}
100
AcDbPlotSettings
  1

  2
none_device
  4
ANSI_C_(22.00_x_17.00_Inches)
  6

 40
0.0
 41
0.0
 42
0.0
 43
0.0
 44
558.8
 45
431.8
 46
0.0
 47
0.0
 48
0.0
 49
0.0
140
0.0
141
0.0
142
1.0
143
1.0
 70
1024
 72
0
 73
0
 74
0
  7

 75
0
147
1.0
148
0.0
149
0.0
100
AcDbLayout
  1
Model
 70
0
 71
0
 10
0.0
 20
0.0
 11
22.0
 21
17.0
 12
0.0
 22
0.0
 32
0.0
 14
0.0
 24
0.0
 34
0.0
 15
0.0
 25
0.0
 35
0.0
146
0.0
 13
0.0
 23
0.0
 33
0.0
 16
1.0
 26
0.0
 36
0.0
 17
0.0
 27
1.0
 37
0.0
 76
0
330
212
345
0
346
0
  0
LAYOUT
  5
60C
102
{ACAD_REACTORS
330
1A
102
}
100
AcDbPlotSettings
  1

  2
none_device
  4
ANSI_C_(22.00_x_17.00_Inches)
  6

 40
0.0
 41
0.0
 42
0.0
 43
0.0
 44
558.8
 45
431.8
 46
0.0
 47
0.0
 48
0.0
 49
0.0
140
0.0
141
0.0
142
1.0
143
1.0
 70
0
 72
0
 73
0
 74
0
  7

 75
0
147
1.0
148
0.0
149
0.0
100
AcDbLayout
  1
Layout1
 70
0
 71
1
 10
0.0
 20
0.0
 11
22.0
 21
17.0
 12
0.0
 22
0.0
 32
0.0
 14
0.0
 24
0.0
 34
0.0
 15
0.0
 25
0.0
 35
0.0
146
0.0
 13
0.0
 23
0.0
 33
0.0
 16
1.0
 26
0.0
 36
0.0
 17
0.0
 27
1.0
 37
0.0
 76
0
330
213
345
0
346
0
  0
ENDSEC
  0
EOF
