  0
SECTION
  2
HEADER
  9
$ACADVER
  1
AC1014
  9
$ACADMAINTVER
 70
     9
  9
$DWGCODEPAGE
  3
ANSI_1252
  9
$INSBASE
 10
4.298348941649999
 20
2.4757924494
 30
0.0
  9
$EXTMIN
 10
-31.76413546539575
 20
-17.74615973010266
 30
-0.0015258207003583
  9
$EXTMAX
 10
40.36526669525389
 20
7.910812058655196
 30
0.0000000349246037
  9
$LIMMIN
 10
0.0
 20
0.0
  9
$LIMMAX
 10
17.0
 20
11.0
  9
$ORTHOMODE
 70
     1
  9
$REGENMODE
 70
     1
  9
$FILLMODE
 70
     1
  9
$QTEXTMODE
 70
     0
  9
$MIRRTEXT
 70
     1
  9
$DRAGMODE
 70
     2
  9
$LTSCALE
 40
2.0
  9
$OSMODE
 70
    55
  9
$ATTMODE
 70
     1
  9
$TEXTSIZE
 40
0.2
  9
$TRACEWID
 40
0.05
  9
$TEXTSTYLE
  7
STANDARD
  9
$CLAYER
  8
0
  9
$CELTYPE
  6
BYLAYER
  9
$CECOLOR
 62
   256
  9
$CELTSCALE
 40
1.0
  9
$DELOBJ
 70
     1
  9
$DISPSILH
 70
     0
  9
$DIMSCALE
 40
1.0
  9
$DIMASZ
 40
0.1875
  9
$DIMEXO
 40
0.0625
  9
$DIMDLI
 40
0.38
  9
$DIMRND
 40
0.0
  9
$DIMDLE
 40
0.0
  9
$DIMEXE
 40
0.18
  9
$DIMTP
 40
0.0
  9
$DIMTM
 40
0.0
  9
$DIMTXT
 40
0.125
  9
$DIMCEN
 40
0.09
  9
$DIMTSZ
 40
0.0
  9
$DIMTOL
 70
     0
  9
$DIMLIM
 70
     0
  9
$DIMTIH
 70
     1
  9
$DIMTOH
 70
     1
  9
$DIMSE1
 70
     0
  9
$DIMSE2
 70
     0
  9
$DIMTAD
 70
     0
  9
$DIMZIN
 70
     4
  9
$DIMBLK
  1
_FILLED
  9
$DIMASO
 70
     1
  9
$DIMSHO
 70
     1
  9
$DIMPOST
  1

  9
$DIMAPOST
  1

  9
$DIMALT
 70
     0
  9
$DIMALTD
 70
     2
  9
$DIMALTF
 40
25.4
  9
$DIMLFAC
 40
16.0
  9
$DIMTOFL
 70
     0
  9
$DIMTVP
 40
0.0
  9
$DIMTIX
 70
     0
  9
$DIMSOXD
 70
     0
  9
$DIMSAH
 70
     0
  9
$DIMBLK1
  1

  9
$DIMBLK2
  1

  9
$DIMSTYLE
  2
STANDARD
  9
$DIMCLRD
 70
     0
  9
$DIMCLRE
 70
     0
  9
$DIMCLRT
 70
     0
  9
$DIMTFAC
 40
1.0
  9
$DIMGAP
 40
0.09
  9
$DIMJUST
 70
     0
  9
$DIMSD1
 70
     0
  9
$DIMSD2
 70
     0
  9
$DIMTOLJ
 70
     1
  9
$DIMTZIN
 70
     4
  9
$DIMALTZ
 70
     0
  9
$DIMALTTZ
 70
     0
  9
$DIMFIT
 70
     3
  9
$DIMUPT
 70
     0
  9
$DIMUNIT
 70
     5
  9
$DIMDEC
 70
     4
  9
$DIMTDEC
 70
     4
  9
$DIMALTU
 70
     2
  9
$DIMALTTD
 70
     2
  9
$DIMTXSTY
  7
STANDARD
  9
$DIMAUNIT
 70
     0
  9
$LUNITS
 70
     2
  9
$LUPREC
 70
     4
  9
$SKETCHINC
 40
0.1
  9
$FILLETRAD
 40
0.0
  9
$AUNITS
 70
     0
  9
$AUPREC
 70
     0
  9
$MENU
  1
acad
  9
$ELEVATION
 40
0.0
  9
$PELEVATION
 40
0.0
  9
$THICKNESS
 40
0.0
  9
$LIMCHECK
 70
     0
  9
$BLIPMODE
 70
     0
  9
$CHAMFERA
 40
0.0
  9
$CHAMFERB
 40
0.0
  9
$CHAMFERC
 40
0.0
  9
$CHAMFERD
 40
0.0
  9
$SKPOLY
 70
     0
  9
$TDCREATE
 40
2453676.875167638
  9
$TDUPDATE
 40
2453686.601030335
  9
$TDINDWG
 40
0.0194237616
  9
$TDUSRTIMER
 40
0.0194237616
  9
$USRTIMER
 70
     1
  9
$ANGBASE
 50
0.0
  9
$ANGDIR
 70
     0
  9
$PDMODE
 70
     3
  9
$PDSIZE
 40
0.3125
  9
$PLINEWID
 40
0.0
  9
$COORDS
 70
     1
  9
$SPLFRAME
 70
     0
  9
$SPLINETYPE
 70
     6
  9
$SPLINESEGS
 70
     8
  9
$ATTDIA
 70
     0
  9
$ATTREQ
 70
     1
  9
$HANDLING
 70
 22529
  9
$HANDSEED
  5
13B
  9
$SURFTAB1
 70
     6
  9
$SURFTAB2
 70
     6
  9
$SURFTYPE
 70
     6
  9
$SURFU
 70
     6
  9
$SURFV
 70
     6
  9
$UCSNAME
  2

  9
$UCSORG
 10
0.0
 20
0.0
 30
0.0
  9
$UCSXDIR
 10
1.0
 20
0.0
 30
0.0
  9
$UCSYDIR
 10
0.0
 20
1.0
 30
0.0
  9
$PUCSNAME
  2

  9
$PUCSORG
 10
0.0
 20
0.0
 30
0.0
  9
$PUCSXDIR
 10
1.0
 20
0.0
 30
0.0
  9
$PUCSYDIR
 10
0.0
 20
1.0
 30
0.0
  9
$USERI1
 70
     0
  9
$USERI2
 70
     0
  9
$USERI3
 70
     0
  9
$USERI4
 70
     0
  9
$USERI5
 70
     0
  9
$USERR1
 40
0.0
  9
$USERR2
 40
0.0
  9
$USERR3
 40
0.0
  9
$USERR4
 40
0.0
  9
$USERR5
 40
0.0
  9
$WORLDVIEW
 70
     1
  9
$SHADEDGE
 70
     3
  9
$SHADEDIF
 70
    70
  9
$TILEMODE
 70
     1
  9
$MAXACTVP
 70
    16
  9
$PINSBASE
 10
0.0
 20
0.0
 30
0.0
  9
$PLIMCHECK
 70
     0
  9
$PEXTMIN
 10
1.000000000000000E+20
 20
1.000000000000000E+20
 30
1.000000000000000E+20
  9
$PEXTMAX
 10
-1.000000000000000E+20
 20
-1.000000000000000E+20
 30
-1.000000000000000E+20
  9
$PLIMMIN
 10
0.0
 20
0.0
  9
$PLIMMAX
 10
12.0
 20
9.0
  9
$UNITMODE
 70
     0
  9
$VISRETAIN
 70
     0
  9
$PLINEGEN
 70
     1
  9
$PSLTSCALE
 70
     0
  9
$TREEDEPTH
 70
  3020
  9
$PICKSTYLE
 70
     1
  9
$CMLSTYLE
  2
STANDARD
  9
$CMLJUST
 70
     0
  9
$CMLSCALE
 40
1.0
  9
$PROXYGRAPHICS
 70
     0
  9
$MEASUREMENT
 70
     0
  0
ENDSEC
  0
SECTION
  2
CLASSES
  0
CLASS
  1
ACDBDICTIONARYWDFLT
  2
AcDbDictionaryWithDefault
  3
AutoCAD 2000
 90
        0
280
     0
281
     0
  0
CLASS
  1
ACDBPLACEHOLDER
  2
AcDbPlaceHolder
  3
AutoCAD 2000
 90
        0
280
     0
281
     0
  0
CLASS
  1
LAYOUT
  2
AcDbLayout
  3
AutoCAD 2000
 90
        0
280
     0
281
     0
  0
CLASS
  1
LWPOLYLINE
  2
AcDbPolyline
  3
AutoCAD 2000
 90
        0
280
     0
281
     1
  0
CLASS
  1
IMAGE
  2
AcDbRasterImage
  3
ISM
 90
      127
280
     0
281
     1
  0
CLASS
  1
OLE2FRAME
  2
AcDbOle2Frame
  3
AutoCAD 2000
 90
        0
280
     0
281
     1
  0
CLASS
  1
HATCH
  2
AcDbHatch
  3
AutoCAD 2000
 90
        0
280
     0
281
     1
  0
CLASS
  1
DICTIONARYVAR
  2
AcDbDictionaryVar
  3
AutoCAD 2000
 90
        0
280
     0
281
     0
  0
CLASS
  1
RASTERVARIABLES
  2
AcDbRasterVariables
  3
ISM
 90
        0
280
     0
281
     0
  0
CLASS
  1
IMAGEDEF
  2
AcDbRasterImageDef
  3
ISM
 90
        0
280
     0
281
     0
  0
CLASS
  1
IMAGEDEF_REACTOR
  2
AcDbRasterImageDefReactor
  3
ISM
 90
        1
280
     0
281
     0
  0
CLASS
  1
IDBUFFER
  2
AcDbIdBuffer
  3
AutoCAD 2000
 90
        0
280
     0
281
     0
  0
CLASS
  1
SPATIAL_FILTER
  2
AcDbSpatialFilter
  3
AutoCAD 2000
 90
        0
280
     0
281
     0
  0
CLASS
  1
XRECORD
  2
AcDbXrecord
  3
AutoCAD 2000
 90
        0
280
     0
281
     0
  0
CLASS
  1
SORTENTSTABLE
  2
AcDbSortentsTable
  3
AutoCAD 2000
 90
        0
280
     0
281
     0
  0
CLASS
  1
LAYER_INDEX
  2
AcDbLayerIndex
  3
AutoCAD 2000
 90
        0
280
     0
281
     0
  0
CLASS
  1
SPATIAL_INDEX
  2
AcDbSpatialIndex
  3
AutoCAD 2000
 90
        0
280
     0
281
     0
  0
CLASS
  1
OBJECT_PTR
  2
CAseDLPNTableRecord
  3
ASE-LPNTableRecord
 90
        1
280
     0
281
     0
  0
CLASS
  1
PLOTSETTINGS
  2
AcDbPlotSettings
  3
AutoCAD 2000
 90
        0
280
     0
281
     0
  0
CLASS
  1
VBA_PROJECT
  2
AcDbVbaProject
  3
acadvba
 90
        0
280
     0
281
     0
  0
CLASS
  1
WIPEOUT
  2
AcDbWipeout
  3
"WipeOut|Product Desc: Object Enabler for WipeOut entity^I^I^I^I^I^I|Company: Autodesk, Inc.^I^I^I^I^I^I|WEB Address: www.autodesk.com"
 90
      127
280
     0
281
     1
  0
CLASS
  1
WIPEOUTVARIABLES
  2
AcDbWipeoutVariables
  3
"WipeOut|Product Desc:     WipeOut Dbx Application|Company:          Autodesk, Inc.|WEB Address:      www.autodesk.com"
 90
        0
280
     0
281
     0
  0
CLASS
  1
RTEXT
  2
RText
  3
RText|AutoCAD Express Tool|expresstools@autodesk.com
 90
        0
280
     1
281
     1
  0
CLASS
  1
ARCALIGNEDTEXT
  2
AcDbArcAlignedText
  3
ATEXT|AutoCAD Express Tool|expresstools@autodesk.com
 90
        0
280
     1
281
     1
  0
CLASS
  1
TABLESTYLE
  2
AcDbTableStyle
  3
ObjectDBX Classes
 90
     2047
280
     0
281
     0
  0
CLASS
  1
ACAD_PROXY_OBJECT_WRAPPER
  2
AcDbProxyObjectWrapper
  3
AutoCAD 2000
 90
        0
280
     0
281
     0
  0
CLASS
  1
LONG_TRANSACTION
  2
AcDbLongTransaction
  3
AutoCAD 2000
 90
        0
280
     0
281
     0
  0
CLASS
  1
LWPOLYLINE
  2
AcDbPolyline
  3
AutoCAD 2000
 90
        0
280
     0
281
     1
  0
CLASS
  1
HATCH
  2
AcDbHatch
  3
AutoCAD 2000
 90
        0
280
     0
281
     1
  0
CLASS
  1
XRECORD
  2
AcDbXrecord
  3
AutoCAD 2000
 90
        0
280
     0
281
     0
  0
CLASS
  1
LONG_TRANSACTION
  2
AcDbLongTransaction
  3
AutoCAD 2000
 90
        0
280
     0
281
     0
  0
CLASS
  1
LWPOLYLINE
  2
AcDbPolyline
  3
AutoCAD 2000
 90
        0
280
     0
281
     1
  0
CLASS
  1
HATCH
  2
AcDbHatch
  3
AutoCAD 2000
 90
        0
280
     0
281
     1
  0
CLASS
  1
XRECORD
  2
AcDbXrecord
  3
AutoCAD 2000
 90
        0
280
     0
281
     0
  0
ENDSEC
  0
SECTION
  2
TABLES
  0
TABLE
  2
VPORT
  5
18
330
0
100
AcDbSymbolTable
 70
     3
  0
VPORT
  5
117
330
18
100
AcDbSymbolTableRecord
100
AcDbViewportTableRecord
  2
*ACTIVE
 70
     0
 10
0.0
 20
0.0
 11
1.0
 21
1.0
 12
4.300565557656817
 22
-4.917673917223751
 13
0.0
 23
0.0
 14
1.0
 24
1.0
 15
0.0
 25
0.0
 16
0.0
 26
0.0
 36
1.0
 17
0.0
 27
0.0
 37
0.0
 40
47.93558173757162
 41
1.786792452830188
 42
50.0
 43
0.0
 44
0.0
 50
0.0
 51
0.0
 71
     0
 72
   100
 73
     1
 74
     1
 75
     0
 76
     0
 77
     0
 78
     0
  0
ENDTAB
  0
TABLE
  2
LTYPE
  5
13
330
0
100
AcDbSymbolTable
 70
     3
  0
LTYPE
  5
14
330
13
100
AcDbSymbolTableRecord
100
AcDbLinetypeTableRecord
  2
BYBLOCK
 70
     0
  3

 72
    65
 73
     0
 40
0.0
  0
LTYPE
  5
15
330
13
100
AcDbSymbolTableRecord
100
AcDbLinetypeTableRecord
  2
BYLAYER
 70
     0
  3

 72
    65
 73
     0
 40
0.0
  0
LTYPE
  5
6
330
13
100
AcDbSymbolTableRecord
100
AcDbLinetypeTableRecord
  2
CONTINUOUS
 70
     0
  3
Solid line
 72
    65
 73
     0
 40
0.0
  0
LTYPE
  5
6E
330
13
100
AcDbSymbolTableRecord
100
AcDbLinetypeTableRecord
  2
CENTER
 70
     0
  3
____ _ ____ _ ____ _ ____ _ ____ _ ____ _ ____
 72
    65
 73
     4
 40
0.6
 49
0.375
 74
     0
 49
-0.075
 74
     0
 49
0.075
 74
     0
 49
-0.075
 74
     0
  0
LTYPE
  5
2F
330
13
100
AcDbSymbolTableRecord
100
AcDbLinetypeTableRecord
  2
HIDDEN
 70
     0
  3
- - - - - - - - - - - - - - - - - - - -
 72
    65
 73
     2
 40
0.2
 49
0.1
 74
     0
 49
-0.1
 74
     0
  0
ENDTAB
  0
TABLE
  2
LAYER
  5
F
330
0
100
AcDbSymbolTable
 70
     2
  0
LAYER
  5
4
330
F
100
AcDbSymbolTableRecord
100
AcDbLayerTableRecord
  2
0
 70
     0
 62
     7
  6
CONTINUOUS
  0
LAYER
  5
6D
330
F
100
AcDbSymbolTableRecord
100
AcDbLayerTableRecord
  2
CENTER
 70
     0
 62
     1
  6
CENTER
  0
ENDTAB
  0
TABLE
  2
STYLE
  5
10
330
0
100
AcDbSymbolTable
 70
     1
  0
STYLE
  5
11
330
10
100
AcDbSymbolTableRecord
100
AcDbTextStyleTableRecord
  2
STANDARD
 70
     0
 40
0.0
 41
0.8
 50
0.0
 71
     0
 42
0.2
  3
txt
  4

  0
ENDTAB
  0
TABLE
  2
VIEW
  5
16
330
0
100
AcDbSymbolTable
 70
     0
  0
ENDTAB
  0
TABLE
  2
UCS
  5
17
330
0
100
AcDbSymbolTable
 70
     0
  0
ENDTAB
  0
TABLE
  2
APPID
  5
1A
330
0
100
AcDbSymbolTable
 70
     3
  0
APPID
  5
1B
330
1A
100
AcDbSymbolTableRecord
100
AcDbRegAppTableRecord
  2
ACAD
 70
     0
  0
APPID
  5
74
330
1A
100
AcDbSymbolTableRecord
100
AcDbRegAppTableRecord
  2
DCO15
 70
     0
  0
APPID
  5
7C
330
1A
100
AcDbSymbolTableRecord
100
AcDbRegAppTableRecord
  2
ACAD_DSTYLE_DIMTEXT_FILL
 70
     0
  0
ENDTAB
  0
TABLE
  2
DIMSTYLE
  5
1C
330
0
100
AcDbSymbolTable
 70
     1
  0
DIMSTYLE
105
1D
330
1C
100
AcDbSymbolTableRecord
100
AcDbDimStyleTableRecord
  2
STANDARD
 70
     0
  3

  4

  5
_FILLED
  6

  7

 40
1.0
 41
0.1875
 42
0.0625
 43
0.38
 44
0.18
 45
0.0
 46
0.0
 47
0.0
 48
0.0
140
0.125
141
0.09
142
0.0
143
25.4
144
16.0
145
0.0
146
1.0
147
0.09
 71
     0
 72
     0
 73
     1
 74
     1
 75
     0
 76
     0
 77
     0
 78
     4
170
     0
171
     2
172
     0
173
     0
174
     0
175
     0
176
     0
177
     0
178
     0
270
     5
271
     4
272
     4
273
     2
274
     2
340
11
275
     0
280
     0
281
     0
282
     0
283
     1
284
     4
285
     0
286
     0
287
     3
288
     0
  0
ENDTAB
  0
TABLE
  2
BLOCK_RECORD
  5
1
330
0
100
AcDbSymbolTable
 70
     1
  0
BLOCK_RECORD
  5
2
102
{ACAD_XDICTIONARY
360
C8
102
}
330
1
100
AcDbSymbolTableRecord
100
AcDbBlockTableRecord
  2
*MODEL_SPACE
  0
BLOCK_RECORD
  5
B
102
{ACAD_XDICTIONARY
360
CE
102
}
330
1
100
AcDbSymbolTableRecord
100
AcDbBlockTableRecord
  2
*PAPER_SPACE
  0
BLOCK_RECORD
  5
1E
330
1
100
AcDbSymbolTableRecord
100
AcDbBlockTableRecord
  2
_FILLED
  0
ENDTAB
  0
ENDSEC
  0
SECTION
  2
BLOCKS
  0
BLOCK
  5
3
330
2
100
AcDbEntity
  8
0
100
AcDbBlockBegin
  2
*MODEL_SPACE
 70
     0
 10
0.0
 20
0.0
 30
0.0
  3
*MODEL_SPACE
  1

  0
ENDBLK
  5
7
330
2
100
AcDbEntity
  8
0
100
AcDbBlockEnd
  0
BLOCK
  5
C
330
B
100
AcDbEntity
 67
     1
  8
0
100
AcDbBlockBegin
  2
*PAPER_SPACE
 70
     0
 10
0.0
 20
0.0
 30
0.0
  3
*PAPER_SPACE
  1

  0
ENDBLK
  5
D
330
B
100
AcDbEntity
 67
     1
  8
0
100
AcDbBlockEnd
  0
BLOCK
  5
1F
330
1E
100
AcDbEntity
  8
0
100
AcDbBlockBegin
  2
_FILLED
 70
     0
 10
0.0
 20
0.0
 30
0.0
  3
_FILLED
  1

  0
SOLID
  5
20
330
1E
100
AcDbEntity
  8
0
  6
BYBLOCK
 62
     0
100
AcDbTrace
 10
0.0
 20
0.0
 30
0.0
 11
-1.0
 21
0.1666666667
 31
0.0
 12
-1.0
 22
-0.1666666667
 32
0.0
 13
-1.0
 23
-0.1666666667
 33
0.0
  0
ENDBLK
  5
21
330
1E
100
AcDbEntity
  8
0
  6
BYBLOCK
 62
     0
100
AcDbBlockEnd
  0
ENDSEC
  0
SECTION
  2
ENTITIES
  0
LINE
  5
2D
330
2
100
AcDbEntity
  8
0
100
AcDbLine
 10
-14.70401254020003
 20
-13.2958201443
 30
0.0
 11
-14.55506415300003
 21
-13.9285085539
 31
0.0
  0
LWPOLYLINE
  5
2E
330
2
100
AcDbEntity
  8
0
  6
HIDDEN
 48
2.0
100
AcDbPolyline
 90
       29
 70
     0
 43
0.0
 10
-4.831236093800036
 20
3.845753694099997
 10
-4.821848567400039
 20
3.8366330861
 10
-4.812251482600039
 20
3.827725068500001
 10
-4.802454097000037
 20
3.819029342099995
 10
-4.792465665000037
 20
3.8105456125
 10
-4.782295441000037
 20
3.802273583699999
 10
-4.771952681000037
 20
3.794212958099997
 10
-4.761446639400034
 20
3.786363439699997
 10
-4.750786572200034
 20
3.778724732499995
 10
-4.739981735400036
 20
3.771296540499996
 10
-4.727777236200033
 20
3.763263633299999
 10
-4.715411410600033
 20
3.7554891069
 10
-4.702891319400038
 20
3.7479701277
 10
-4.690224026600034
 20
3.740703863699998
 10
-4.677416591400039
 20
3.733687482899995
 10
-4.664476077800038
 20
3.726918150099997
 10
-4.651409545000035
 20
3.720393036499999
 10
-4.638224055400037
 20
3.714109308499999
 10
-4.624926671400039
 20
3.708064134099998
 10
-4.611612322600038
 20
3.702292130899998
 10
-4.598199993000037
 20
3.696750956499997
 10
-4.584695167400035
 20
3.691438791700001
 10
-4.571103327400038
 20
3.686353823699995
 10
-4.557429961000039
 20
3.6814942365
 10
-4.543680548200036
 20
3.676858214100001
 10
-4.529860575400036
 20
3.672443942099995
 10
-4.515975525800037
 20
3.668249601299997
 10
-4.502030882600038
 20
3.664273378899999
 10
-4.488032130600039
 20
3.660513458899998
  0
LWPOLYLINE
  5
30
330
2
100
AcDbEntity
  8
0
  6
HIDDEN
 48
2.0
100
AcDbPolyline
 90
       31
 70
     0
 43
0.0
 10
-3.098530701800036
 20
4.717062926099998
 10
-3.107585533800033
 20
4.727748719699995
 10
-3.11689424580004
 20
4.738222095699995
 10
-3.126445781800036
 20
4.748483674900001
 10
-3.136229089000039
 20
4.758534078099998
 10
-3.146233116200036
 20
4.768373922899996
 10
-3.156446810600037
 20
4.778003833299997
 10
-3.166859116200036
 20
4.787424426899995
 10
-3.177458983400036
 20
4.796636324499999
 10
-3.188235357800039
 20
4.805640146899996
 10
-3.199177186600039
 20
4.814436514899995
 10
-3.211768908200035
 20
4.824158610899999
 10
-3.224551788200038
 20
4.833617473299995
 10
-3.237518556200036
 20
4.842815679699995
 10
-3.250661943400039
 20
4.851755804500001
 10
-3.263974676200035
 20
4.860440428499998
 10
-3.277449487400033
 20
4.868872129300001
 10
-3.291079106600037
 20
4.877053481299995
 10
-3.304856261800033
 20
4.884987065299995
 10
-3.318773685800039
 20
4.892675457300001
 10
-3.332824105000035
 20
4.900121234899998
 10
-3.348686492200037
 20
4.9081634829
 10
-3.364698505000035
 20
4.915905687699996
 10
-3.380852516200036
 20
4.923348026900001
 10
-3.397140903400035
 20
4.930490674899999
 10
-3.413556041000035
 20
4.937333807699999
 10
-3.430090306600035
 20
4.943877604499995
 10
-3.446736073000039
 20
4.9501222365
 10
-3.46348571780004
 20
4.956067884500001
 10
-3.480331613800039
 20
4.961714722899998
 10
-3.497266140200039
 20
4.967062926099998
  0
LWPOLYLINE
  5
31
330
2
100
AcDbEntity
  8
0
  6
HIDDEN
 48
2.0
100
AcDbPolyline
 90
        7
 70
     0
 43
0.0
 10
-3.098530701800036
 20
4.717062926099998
 10
-3.078422609000035
 20
4.587889514899998
 10
-3.058134761000033
 20
4.458744188499998
 10
-3.037864228200035
 20
4.330881242899998
 10
-3.017412273000033
 20
4.203047191700001
 10
-2.996977969000035
 20
4.076486404499995
 10
-2.976360481000035
 20
3.949955359699998
  0
LINE
  5
32
330
2
100
AcDbEntity
  8
0
  6
HIDDEN
 48
2.0
100
AcDbLine
 10
-4.947902495400031
 20
4.717062926099997
 30
0.0
 11
-4.831236093800031
 21
3.845753694099995
 31
0.0
  0
LWPOLYLINE
  5
33
330
2
100
AcDbEntity
  8
0
100
AcDbPolyline
 90
       81
 70
     0
 43
0.0
 10
3.113065446999968
 20
3.592856982099995
 10
3.113987826199959
 20
3.638884574099996
 10
3.116746819799956
 20
3.684909503699998
 10
3.121330214999957
 20
3.730846770900001
 10
3.127725798999961
 20
3.776611375699999
 10
3.135921355799965
 20
3.822118316499995
 10
3.145904674199968
 20
3.867282591699996
 10
3.157663536599969
 20
3.912019201299997
 10
3.171185731799965
 20
3.9562431453
 10
3.186484187799962
 20
3.999951127700001
 10
3.203505234199965
 20
4.0429991309
 10
3.222214067799967
 20
4.0853269853
 10
3.242575888599958
 20
4.126874522899996
 10
3.264555894999958
 20
4.167581572499997
 10
3.288119283799957
 20
4.2073879645
 10
3.313231254999962
 20
4.246233527699999
 10
3.339857005399963
 20
4.284058094099997
 10
3.368042182999957
 20
4.320907890899995
 10
3.39766228699996
 20
4.3566203341
 10
3.428664706199967
 20
4.391145500499995
 10
3.460996827799959
 20
4.424433465299998
 10
3.494606034199961
 20
4.4564343037
 10
3.529439715799966
 20
4.487098092499998
 10
3.565445254999957
 20
4.516374905299997
 10
3.602570040599957
 20
4.544214818899995
 10
3.640870566999964
 20
4.570644642899999
 10
3.680179512599963
 20
4.595548890899998
 10
3.720432538199958
 20
4.618897348499999
 10
3.761565307799969
 20
4.640659804499996
 10
3.80351348219996
 20
4.660806042899999
 10
3.846212723799965
 20
4.6793058509
 10
3.889598694999961
 20
4.696129015699995
 10
3.933607056599967
 20
4.711245321299998
 10
3.978251795799963
 20
4.724649975699996
 10
4.023386558999959
 20
4.736301031700001
 10
4.068941341399963
 20
4.746188103699999
 10
4.114846142999965
 20
4.754300810899998
 10
4.161030957399958
 20
4.760628767699998
 10
4.207425781399962
 20
4.7651615933
 10
4.253960611799968
 20
4.767888902099997
 10
4.300565446999968
 20
4.768800313299998
 10
4.347170280599968
 20
4.767888902099997
 10
4.39370511259996
 20
4.7651615933
 10
4.440099936599963
 20
4.760628767699998
 10
4.486284750999956
 20
4.754300810899998
 10
4.532189550999959
 20
4.746188103699999
 10
4.577744334999962
 20
4.736301031700001
 10
4.622879098199959
 20
4.724649975699996
 10
4.667523837399969
 20
4.711245321299998
 10
4.711532198999961
 20
4.696129015699995
 10
4.754918168599957
 20
4.6793058509
 10
4.797617410199961
 20
4.660806042899999
 10
4.839565584599966
 20
4.640659804499996
 10
4.880698354199964
 20
4.618897348499999
 10
4.920951381399959
 20
4.595548890899998
 10
4.960260325399957
 20
4.570644642899999
 10
4.998560853399965
 20
4.544214818899995
 10
5.035685637399964
 20
4.516374905299997
 10
5.071691178199969
 20
4.487098092499998
 10
5.106524858199961
 20
4.4564343037
 10
5.140134066199962
 20
4.424433465299998
 10
5.172466186199969
 20
4.391145500499995
 10
5.203468605399962
 20
4.3566203341
 10
5.233088710999965
 20
4.320907890899995
 10
5.261273886999958
 20
4.284058094099997
 10
5.287899637399959
 20
4.246233527699999
 10
5.313011608599964
 20
4.2073879645
 10
5.336574997399964
 20
4.167581572499997
 10
5.358555003799963
 20
4.126874522899996
 10
5.378916824599969
 20
4.0853269853
 10
5.397625659799956
 20
4.0429991309
 10
5.41464670459996
 20
3.999951127700001
 10
5.429945160599956
 20
3.9562431453
 10
5.443467355799967
 20
3.912019201299997
 10
5.455226219799968
 20
3.867282591699996
 10
5.465209536599957
 20
3.822118316499995
 10
5.473405093399961
 20
3.776611375699999
 10
5.479800677399964
 20
3.730846770900001
 10
5.484384072599965
 20
3.684909503699998
 10
5.487143067799962
 20
3.638884574099996
 10
5.488065446999968
 20
3.592856982099995
  0
LWPOLYLINE
  5
34
330
2
100
AcDbEntity
  8
0
100
AcDbPolyline
 90
       34
 70
     0
 43
0.0
 10
3.420721382999957
 20
2.803157791699995
 10
3.403702323799961
 20
2.822150798099997
 10
3.387097622999959
 20
2.841505394899996
 10
3.370916013399963
 20
2.861213297299997
 10
3.355166230999969
 20
2.881266217299994
 10
3.339857005399963
 20
2.9016558685
 10
3.324458960599969
 20
2.923141377299998
 10
3.309550338199969
 20
2.944968694099998
 10
3.29513763739996
 20
2.967126590100001
 10
3.281227347799969
 20
2.989603841299995
 10
3.267825963799964
 20
3.012389217299997
 10
3.254939979799956
 20
3.035471492500001
 10
3.242575888599958
 20
3.058839439700001
 10
3.230740186199966
 20
3.0824818317
 10
3.219439362199963
 20
3.1063874429
 10
3.208679914199962
 20
3.130545042899996
 10
3.198468333399958
 20
3.154943409299995
 10
3.188811112599964
 20
3.179571310100001
 10
3.179714747799962
 20
3.204417522900001
 10
3.171185731799965
 20
3.229470817299997
 10
3.163243557399965
 20
3.254673910099995
 10
3.155875454999957
 20
3.2800563005
 10
3.149083704599959
 20
3.305602126099998
 10
3.142870584599961
 20
3.3312955277
 10
3.137238374999967
 20
3.3571206461
 10
3.132189352599965
 20
3.383061618900001
 10
3.127725798999961
 20
3.409102586899997
 10
3.123849990999957
 20
3.435227690899999
 10
3.120564210199958
 20
3.461421070099994
 10
3.117870731799968
 20
3.487666862099999
 10
3.115771838999961
 20
3.513949210900001
 10
3.114269806999956
 20
3.540252254099996
 10
3.113366915799957
 20
3.566560130900001
 10
3.113065446999968
 20
3.592856982099995
  0
LWPOLYLINE
  5
35
330
2
100
AcDbEntity
  8
0
  6
HIDDEN
 48
2.0
100
AcDbPolyline
 90
       37
 70
     0
 43
0.0
 10
11.57749137339996
 20
3.949955359699998
 10
11.58278464859996
 20
3.9396316877
 10
11.58839461819995
 20
3.929467415699996
 10
11.59430805659995
 20
3.919466564499998
 10
11.60051173499996
 20
3.909633153299999
 10
11.60699242619996
 20
3.899971199699997
 10
11.61373690619996
 20
3.890484721299998
 10
11.62073194459996
 20
3.881177738899999
 10
11.62796431579995
 20
3.872054270100001
 10
11.63542079259995
 20
3.8631183325
 10
11.64406995739996
 20
3.853284273299998
 10
11.65297465979996
 20
3.843690486100001
 10
11.66212305819996
 20
3.834334364499994
 10
11.67150330939996
 20
3.825213305299996
 10
11.68110356859996
 20
3.816324700499997
 10
11.69091199419996
 20
3.807665946899994
 10
11.70091673819996
 20
3.7992344365
 10
11.71110596219996
 20
3.791027567699998
 10
11.72146781819996
 20
3.7830427325
 10
11.73332427579995
 20
3.774317297300001
 10
11.74537511259995
 20
3.7658663021
 10
11.75761098459996
 20
3.757686172500001
 10
11.77002254939996
 20
3.749773329299998
 10
11.78260046459996
 20
3.7421241965
 10
11.79533538779996
 20
3.734735198099997
 10
11.80821797499996
 20
3.727602756499997
 10
11.82123888379996
 20
3.720723295699997
 10
11.83438877179996
 20
3.714093238099998
 10
11.84929848059997
 20
3.706941127699998
 10
11.86435038779996
 20
3.700095926099997
 10
11.87953581979996
 20
3.693554543699995
 10
11.89484611099996
 20
3.6873138909
 10
11.91027258939996
 20
3.681370879699997
 10
11.92580658779996
 20
3.675722418900001
 10
11.94143943419996
 20
3.670365422099997
 10
11.95716246139996
 20
3.665296798100001
 10
11.97296699899996
 20
3.660513458899998
  0
LWPOLYLINE
  5
36
330
2
100
AcDbEntity
  8
0
  6
HIDDEN
 48
2.0
100
AcDbPolyline
 90
       36
 70
     0
 43
0.0
 10
13.54903338779996
 20
4.717062926099998
 10
13.54418641179996
 20
4.726663255699996
 10
13.53906528059995
 20
4.736130242899996
 10
13.53367883259996
 20
4.745459154899997
 10
13.52803590139996
 20
4.754645258899998
 10
13.52214532379996
 20
4.763683820499998
 10
13.51601593819995
 20
4.772570110099998
 10
13.50965657819996
 20
4.781299391699995
 10
13.50307608379996
 20
4.789866932499997
 10
13.49628328699997
 20
4.798268001299994
 10
13.48928702779996
 20
4.806497865299995
 10
13.48209614139996
 20
4.814551788499997
 10
13.47434610619996
 20
4.822814258899995
 10
13.46639866139996
 20
4.830878561299996
 10
13.45826119739996
 20
4.838745679699997
 10
13.44994110139995
 20
4.846416604499999
 10
13.44144576699996
 20
4.853892321300001
 10
13.43278258139996
 20
4.861173817299999
 10
13.42395893499995
 20
4.868262081299995
 10
13.41498221979996
 20
4.875158100499994
 10
13.40585982299995
 20
4.8818628605
 10
13.39659913659996
 20
4.8883773501
 10
13.38720754939996
 20
4.8947025549
 10
13.37769245019996
 20
4.900839465299995
 10
13.36662081499996
 20
4.907656929299996
 10
13.35540372379996
 20
4.914229836499998
 10
13.34404888859995
 20
4.920560708499998
 10
13.33256402939996
 20
4.926652066899997
 10
13.32095685979996
 20
4.932506431699998
 10
13.30923509659996
 20
4.938126324499997
 10
13.29740645659995
 20
4.943514265299995
 10
13.28547865339996
 20
4.948672775699996
 10
13.27345940379996
 20
4.953604375699995
 10
13.26135642619996
 20
4.958311586899995
 10
13.24917743259996
 20
4.962796929299997
 10
13.23693014139996
 20
4.967062926099998
  0
LINE
  5
37
330
2
100
AcDbEntity
  8
0
  6
HIDDEN
 48
2.0
100
AcDbLine
 10
13.54903338779997
 20
4.717062926099997
 30
0.0
 11
13.43236698779997
 21
3.845753694099995
 31
0.0
  0
LWPOLYLINE
  5
38
330
2
100
AcDbEntity
  8
0
  6
HIDDEN
 48
2.0
100
AcDbPolyline
 90
        7
 70
     0
 43
0.0
 10
11.69966159419996
 20
4.717062926099998
 10
11.67955350139996
 20
4.587889514899998
 10
11.65926565339997
 20
4.458744188499998
 10
11.63899512059995
 20
4.330881242899998
 10
11.61854316539997
 20
4.203047191700001
 10
11.59810886299996
 20
4.076486404499995
 10
11.57749137339996
 20
3.949955359699998
  0
LINE
  5
39
330
2
100
AcDbEntity
  8
0
100
AcDbLine
 10
-14.14465481060003
 20
-14.2801755411
 30
0.0
 11
22.67485753339996
 21
-14.2801755411
 31
0.0
  0
LINE
  5
3A
330
2
100
AcDbEntity
  8
0
100
AcDbLine
 10
23.29974586619997
 20
-13.2958201443
 30
0.0
 11
23.06032169499996
 21
-13.9444040739
 31
0.0
  0
LWPOLYLINE
  5
3B
330
2
100
AcDbEntity
  8
0
100
AcDbPolyline
 90
       34
 70
     0
 43
0.0
 10
5.162290190999968
 20
2.803157791699995
 10
5.179309250199963
 20
2.822150798099997
 10
5.195913952599966
 20
2.841505394899996
 10
5.212095560599962
 20
2.861213297299997
 10
5.22784534459997
 20
2.881266217299994
 10
5.243154568599962
 20
2.9016558685
 10
5.258552614999956
 20
2.923141377299998
 10
5.273461235799956
 20
2.944968694099998
 10
5.287873938199965
 20
2.967126590100001
 10
5.301784227799956
 20
2.989603841299995
 10
5.315185611799961
 20
3.012389217299997
 10
5.328071595799968
 20
3.035471492500001
 10
5.340435685399967
 20
3.058839439700001
 10
5.352271389399959
 20
3.0824818317
 10
5.363572211799962
 20
3.1063874429
 10
5.374331661399963
 20
3.130545042899996
 10
5.384543242199967
 20
3.154943409299995
 10
5.394200461399961
 20
3.179571310100001
 10
5.403296826199962
 20
3.204417522900001
 10
5.411825842199959
 20
3.229470817299997
 10
5.41976801819996
 20
3.254673910099995
 10
5.427136118999968
 20
3.2800563005
 10
5.433927869399965
 20
3.305602126099998
 10
5.440140989399964
 20
3.3312955277
 10
5.445773200599958
 20
3.3571206461
 10
5.45082222139996
 20
3.383061618900001
 10
5.455285774999964
 20
3.409102586899997
 10
5.459161582999968
 20
3.435227690899999
 10
5.462447365399967
 20
3.461421070099994
 10
5.465140842199957
 20
3.487666862099999
 10
5.467239736599964
 20
3.513949210900001
 10
5.468741768599969
 20
3.540252254099996
 10
5.469644658199968
 20
3.566560130900001
 10
5.469946128599957
 20
3.592856982099995
  0
LINE
  5
3D
330
2
100
AcDbEntity
  8
0
  6
HIDDEN
 48
2.0
100
AcDbLine
 10
13.08916302459997
 20
3.660513458899996
 30
0.0
 11
11.97296699899996
 21
3.660513458899996
 31
0.0
  0
LINE
  5
3E
330
2
100
AcDbEntity
  8
0
  6
HIDDEN
 48
2.0
100
AcDbLine
 10
-3.37183610660003
 20
3.660513458899996
 30
0.0
 11
-4.488032130600034
 21
3.660513458899996
 31
0.0
  0
LINE
  5
3F
330
2
100
AcDbEntity
  8
0
  6
HIDDEN
 48
2.0
100
AcDbLine
 10
-4.635799249000031
 20
4.967062926099997
 30
0.0
 11
13.23693014139997
 21
4.967062926099997
 31
0.0
  0
LWPOLYLINE
  5
40
330
2
100
AcDbEntity
  8
0
  6
HIDDEN
 48
2.0
100
AcDbPolyline
 90
       10
 70
     0
 43
0.0
 10
10.66915315899996
 20
3.742299903700001
 10
10.82295292379995
 20
3.734845906899998
 10
10.97672739579997
 20
3.7268794525
 10
11.13047304219996
 20
3.718373833299999
 10
11.27574201179996
 20
3.709813988499995
 10
11.42097813179997
 20
3.700714890899995
 10
11.56617744699995
 20
3.691042690899998
 10
11.70181810459996
 20
3.681454206099999
 10
11.83741676059996
 20
3.671292286099998
 10
11.97296699899996
 20
3.660513458899998
  0
LWPOLYLINE
  5
41
330
2
100
AcDbEntity
  8
0
  6
HIDDEN
 48
2.0
100
AcDbPolyline
 90
       10
 70
     0
 43
0.0
 10
-2.068022265000038
 20
3.742299903700001
 10
-2.221822031400037
 20
3.734845906899998
 10
-2.375596501800039
 20
3.7268794525
 10
-2.529342148200036
 20
3.718373833299999
 10
-2.674611117800033
 20
3.709813988499995
 10
-2.819847237800033
 20
3.700714890899995
 10
-2.965046554600036
 20
3.691042690899998
 10
-3.100687210600035
 20
3.681454206099999
 10
-3.236285866600034
 20
3.671292286099998
 10
-3.371836106600035
 20
3.660513458899998
  0
LWPOLYLINE
  5
42
330
2
100
AcDbEntity
  8
0
  6
HIDDEN
100
AcDbPolyline
 90
       19
 70
     0
 43
0.0
 10
-2.068022265000038
 20
3.742299903700001
 10
-1.401033409000035
 20
3.771504943699994
 10
-0.7338827418000378
 20
3.796822583699999
 10
-0.0366397258000433
 20
3.819420670100001
 10
0.6607132165999588
 20
3.8382989133
 10
1.379831757399969
 20
3.854068740499997
 10
2.099020656599961
 20
3.866230082899996
 10
2.831377147799969
 20
3.8750271213
 10
3.563767605399959
 20
3.880280161299999
 10
4.300565446999968
 20
3.8820416573
 10
5.037363288599962
 20
3.880280161299999
 10
5.769753744599967
 20
3.8750271213
 10
6.502110237399961
 20
3.866230082899996
 10
7.221299136599967
 20
3.854068740499997
 10
7.940417675799963
 20
3.8382989133
 10
8.637770619799965
 20
3.819420670100001
 10
9.335013634199967
 20
3.796822583699999
 10
10.00216430299995
 20
3.771504943699994
 10
10.66915315899996
 20
3.742299903700001
  0
LWPOLYLINE
  5
43
330
2
100
AcDbEntity
  8
0
  6
HIDDEN
 48
2.0
100
AcDbPolyline
 90
       29
 70
     0
 43
0.0
 10
13.08916302459997
 20
3.660513458899998
 10
13.10316406299996
 20
3.664274012500001
 10
13.11711097659996
 20
3.668250937300001
 10
13.13099827419996
 20
3.672446054099999
 10
13.14482047419996
 20
3.676861175699997
 10
13.15857208539996
 20
3.681498122899995
 10
13.17224762459996
 20
3.686358708499994
 10
13.18584160379995
 20
3.691444751699997
 10
13.19934853819995
 20
3.696758070099996
 10
13.21276293979996
 20
3.702300479699999
 10
13.22607932219996
 20
3.708073796499995
 10
13.23937881339996
 20
3.714120422099995
 10
13.25256636219995
 20
3.720405690900001
 10
13.26563489819996
 20
3.726932431699999
 10
13.27857735739996
 20
3.733703478099997
 10
13.29138667259996
 20
3.7407216637
 10
13.30405577339996
 20
3.747989823699995
 10
13.31657759579996
 20
3.755510786899996
 10
13.32894507099996
 20
3.763287390099996
 10
13.34115113179996
 20
3.771322463699995
 10
13.35195123899995
 20
3.778748430099994
 10
13.36260666459996
 20
3.786384748499997
 10
13.37310816219996
 20
3.7942317149
 10
13.38344648699995
 20
3.802289625299998
 10
13.39361239739996
 20
3.810558775699995
 10
13.40359664699995
 20
3.819039462100001
 10
13.41338999099995
 20
3.827731978899997
 10
13.42298318619995
 20
3.836636625299995
 10
13.43236698779996
 20
3.845753694099997
  0
LWPOLYLINE
  5
44
330
2
100
AcDbEntity
  8
0
  6
HIDDEN
 48
2.0
100
AcDbPolyline
 90
       36
 70
     0
 43
0.0
 10
-4.635799249000037
 20
4.967062926099998
 10
-4.647995809000036
 20
4.962815121299996
 10
-4.660124533800036
 20
4.958349881299994
 10
-4.672177834600034
 20
4.953664695699998
 10
-4.684148129000035
 20
4.948757050899999
 10
-4.696027825000037
 20
4.943624439699995
 10
-4.707809338600036
 20
4.938264350099998
 10
-4.719485082600037
 20
4.932674270100001
 10
-4.731047469800039
 20
4.926851690900001
 10
-4.742488913000038
 20
4.920794100499996
 10
-4.753801826600039
 20
4.9144989885
 10
-4.764978620200039
 20
4.907963844499995
 10
-4.776011711400037
 20
4.901186156499996
 10
-4.785596365800039
 20
4.895018742099999
 10
-4.795056290600037
 20
4.888660535699997
 10
-4.804383933800039
 20
4.882110546900001
 10
-4.813571745000039
 20
4.8753677869
 10
-4.822612173800038
 20
4.868431266899996
 10
-4.831497671400036
 20
4.861299994900001
 10
-4.840220685800034
 20
4.853972985299996
 10
-4.848773666600038
 20
4.8464492445
 10
-4.857149065000037
 20
4.838727783700001
 10
-4.865339329000036
 20
4.830807615699995
 10
-4.873336908200037
 20
4.822687748500001
 10
-4.881134253800034
 20
4.8143671949
 10
-4.888305842600033
 20
4.806326380499996
 10
-4.895283399400035
 20
4.798110454099997
 10
-4.902058149800033
 20
4.789724118099996
 10
-4.908621324200034
 20
4.781172074899998
 10
-4.914964148200034
 20
4.772459023700001
 10
-4.921077850600035
 20
4.763589670099996
 10
-4.926953658600034
 20
4.754568714899995
 10
-4.932582799400037
 20
4.745400860499998
 10
-4.937956500200037
 20
4.736090809299994
 10
-4.943065989800039
 20
4.726643263699997
 10
-4.947902495400036
 20
4.717062926099998
  0
LWPOLYLINE
  5
45
330
2
100
AcDbEntity
  8
0
  6
HIDDEN
 48
2.0
100
AcDbPolyline
 90
       31
 70
     0
 43
0.0
 10
12.09839703259996
 20
4.967062926099998
 10
12.08146400219996
 20
4.961715207699995
 10
12.06461958299996
 20
4.9560689085
 10
12.04787139899996
 20
4.950123852499999
 10
12.03122707259996
 20
4.943879863699997
 10
12.01469422619996
 20
4.937336766099996
 10
11.99828048219995
 20
4.930494385300001
 10
11.98199346459996
 20
4.923352543699998
 10
11.96584079579996
 20
4.915911065300001
 10
11.94983009819996
 20
4.908169777299995
 10
11.93396899259995
 20
4.900128500499995
 10
11.91991957499996
 20
4.892683575699997
 10
11.90600312699996
 20
4.884996078099995
 10
11.89222691579996
 20
4.877063428500001
 10
11.87859820859996
 20
4.868883052499995
 10
11.86512427099995
 20
4.860452372499999
 10
11.85181237339996
 20
4.851768809299997
 10
11.83866978139995
 20
4.842829786899997
 10
11.82570376059996
 20
4.833632729299999
 10
11.81292157979996
 20
4.824175057299996
 10
11.80033050619996
 20
4.814454196500001
 10
11.78938613019995
 20
4.805656434900001
 10
11.77860725819996
 20
4.796651137299996
 10
11.76800495259996
 20
4.787437681299998
 10
11.75759027099996
 20
4.778015446099999
 10
11.74737427259997
 20
4.768383812499997
 10
11.73736801499995
 20
4.758542156499999
 10
11.72758256059996
 20
4.748489862100001
 10
11.71802896539996
 20
4.738226305299995
 10
11.70871829019996
 20
4.727750866899995
 10
11.69966159419996
 20
4.717062926099998
  0
LWPOLYLINE
  5
46
330
2
100
AcDbEntity
  8
0
  6
HIDDEN
 48
2.0
100
AcDbPolyline
 90
       37
 70
     0
 43
0.0
 10
-3.371836106600035
 20
3.660513458899998
 10
-3.356031906600037
 20
3.6652966925
 10
-3.340309213800033
 20
3.6703651981
 10
-3.324676698600036
 20
3.6757220653
 10
-3.30914302820004
 20
3.681370382099999
 10
-3.293716869800036
 20
3.687313236499996
 10
-3.278406895400038
 20
3.693553719699998
 10
-3.263221770600033
 20
3.700094919699999
 10
-3.24817016420004
 20
3.706939926099998
 10
-3.233260745000038
 20
3.714091826899995
 10
-3.220110191400038
 20
3.720722159699995
 10
-3.20708862660004
 20
3.727601919699999
 10
-3.19420539620004
 20
3.734734686099997
 10
-3.181469844200037
 20
3.742124033300001
 10
-3.168891314600038
 20
3.749773540500001
 10
-3.156479151400034
 20
3.757686783699995
 10
-3.144242700200038
 20
3.765867340500001
 10
-3.132191305000034
 20
3.774318788499996
 10
-3.120334311400036
 20
3.783044703699999
 10
-3.109972679400037
 20
3.791029450899998
 10
-3.099783677800033
 20
3.799236225299999
 10
-3.089779149800037
 20
3.807667630099999
 10
-3.079970938600034
 20
3.816326273299999
 10
-3.070370885800038
 20
3.825214759699996
 10
-3.060990836200033
 20
3.834335692499998
 10
-3.051842631400035
 20
3.8436916781
 10
-3.042938116200033
 20
3.853285321299999
 10
-3.034289132200036
 20
3.863119228499996
 10
-3.026832761000036
 20
3.872055081299997
 10
-3.019600490600033
 20
3.881178463699995
 10
-3.012605549800035
 20
3.8904853549
 10
-3.005861162600034
 20
3.899971735699999
 10
-2.999380556200037
 20
3.9096335901
 10
-2.993176957800038
 20
3.919466898899997
 10
-2.987263596200037
 20
3.9294676413
 10
-2.981653693800033
 20
3.939631801299995
 10
-2.976360481000035
 20
3.949955359699998
  0
LINE
  5
48
330
2
100
AcDbEntity
  8
0
100
AcDbLine
 10
-31.33946564580003
 20
7.548666159699996
 30
0.0
 11
-31.76193455300003
 21
2.719824458899997
 31
0.0
  0
LINE
  5
49
330
2
100
AcDbEntity
  8
0
100
AcDbLine
 10
-31.33946564580003
 20
7.548666159699996
 30
0.0
 11
-31.32066659300003
 21
7.615609892499994
 31
0.0
  0
LWPOLYLINE
  5
4A
330
2
100
AcDbEntity
  8
0
100
AcDbPolyline
 90
        3
 70
     0
 43
0.0
 10
-31.32066659300003
 20
7.615609892499996
 10
-31.27810558820003
 20
7.671696095699999
 10
-31.21935092740003
 20
7.707570346899998
  0
LINE
  5
4C
330
2
100
AcDbEntity
  8
0
100
AcDbLine
 10
2.977342141399963
 20
-13.7958005411
 30
0.0
 11
5.623788750999969
 21
-13.7958005411
 31
0.0
  0
LINE
  5
4D
330
2
100
AcDbEntity
  8
0
100
AcDbLine
 10
24.65832578619997
 20
-13.2958005411
 30
0.0
 11
-16.05719489220003
 21
-13.2958005411
 31
0.0
  0
LINE
  5
4E
330
2
100
AcDbEntity
  8
0
100
AcDbLine
 10
2.877905250199964
 20
-13.7546124323
 30
0.0
 11
2.487740208599964
 21
-13.3644473907
 31
0.0
  0
LWPOLYLINE
  5
4F
330
2
100
AcDbEntity
  8
0
100
AcDbPolyline
 90
        7
 70
     0
 43
0.0
 10
5.07429379739996
 20
2.718462649300001
 10
4.998560434199958
 20
2.643466318099996
 10
4.667523126999967
 20
2.476435889299999
 10
4.300565446999968
 20
2.418881126099996
 10
3.933607765399969
 20
2.476435889299999
 10
3.602570459799963
 20
2.643466318099996
 10
3.526837096599962
 20
2.718462649300001
  0
LINE
  5
54
330
2
100
AcDbEntity
  8
0
100
AcDbLine
 10
5.723225642199968
 20
-13.7546124323
 30
0.0
 11
6.113390685399968
 21
-13.3644473907
 31
0.0
  0
LINE
  5
56
330
2
100
AcDbEntity
  8
0
100
AcDbLine
 10
-31.15267914020003
 20
7.719824458899998
 30
0.0
 11
39.75381003419996
 21
7.719824458899998
 31
0.0
  0
LINE
  5
57
330
2
100
AcDbEntity
  8
0
100
AcDbLine
 10
-31.21935092740002
 20
7.707570346899997
 30
0.0
 11
-31.15267914020003
 21
7.719824458899998
 31
0.0
  0
LINE
  5
59
330
2
100
AcDbEntity
  8
0
100
AcDbLine
 10
40.36306544699997
 20
2.719824458899997
 30
0.0
 11
39.94059653979997
 21
7.548666159699996
 31
0.0
  0
ARC
  5
5B
330
2
100
AcDbEntity
  8
0
100
AcDbCircle
 10
201.1931899317999
 20
-85.72750058750001
 30
0.0
 40
189.9165151088
100
AcDbArc
 50
150.9526502878
 51
152.2465053982999
  0
ARC
  5
5C
330
2
100
AcDbEntity
  8
0
100
AcDbCircle
 10
37.29838111579997
 20
5.210637538899993
 30
0.0
 40
2.484375
100
AcDbArc
 50
134.5157540364
 51
149.1906605320999
  0
ARC
  5
5D
330
2
100
AcDbEntity
  8
0
100
AcDbCircle
 10
37.34320215579996
 20
5.165052398099993
 30
0.0
 40
2.548304107199999
100
AcDbArc
 50
87.3530092422
 51
134.5157540364
  0
ARC
  5
5E
330
2
100
AcDbEntity
  8
0
100
AcDbCircle
 10
-192.6105230362
 20
-85.72750058750001
 30
0.0
 40
189.9165151088
100
AcDbArc
 50
27.7534946017
 51
29.0473497122
  0
ARC
  5
5F
330
2
100
AcDbEntity
  8
0
100
AcDbCircle
 10
-28.71571422020002
 20
5.210637538899993
 30
0.0
 40
2.484375
100
AcDbArc
 50
30.8093394679
 51
45.48424596359999
  0
ARC
  5
60
330
2
100
AcDbEntity
  8
0
100
AcDbCircle
 10
-28.76053525860003
 20
5.165052398099993
 30
0.0
 40
2.548304107199999
100
AcDbArc
 50
45.48424596359999
 51
92.64699075779999
  0
ARC
  5
61
330
2
100
AcDbEntity
  8
0
100
AcDbCircle
 10
-14.10923228740003
 20
-13.8235501955
 30
0.0
 40
0.4580199888
100
AcDbArc
 50
193.2474295089
 51
265.5591932690999
  0
ARC
  5
62
330
2
100
AcDbEntity
  8
0
100
AcDbCircle
 10
22.56066283419996
 20
-13.7599554579
 30
0.0
 40
0.5326164384
100
AcDbArc
 50
282.3759429034
 51
339.73842077
  0
ARC
  5
63
330
2
100
AcDbEntity
  8
0
100
AcDbCircle
 10
2.322012056599964
 20
-13.5301755411
 30
0.0
 40
0.234375
100
AcDbArc
 50
45.0000013781
 51
67.499999945
  0
ARC
  5
64
330
2
100
AcDbEntity
  8
0
100
AcDbCircle
 10
6.279118837399968
 20
-13.5301755411
 30
0.0
 40
0.234375
100
AcDbArc
 50
112.500000055
 51
134.9999984325
  0
ARC
  5
65
330
2
100
AcDbEntity
  8
0
100
AcDbCircle
 10
2.977342141399963
 20
-13.6551755411
 30
0.0
 40
0.140625
100
AcDbArc
 50
225.0000012562999
 51
270.0
  0
ARC
  5
66
330
2
100
AcDbEntity
  8
0
100
AcDbCircle
 10
5.623788750999969
 20
-13.6551755411
 30
0.0
 40
0.140625
100
AcDbArc
 50
270.0
 51
314.9999987757
  0
ARC
  5
67
330
2
100
AcDbEntity
  8
0
100
AcDbCircle
 10
39.75381003419996
 20
7.532324458899998
 30
0.0
 40
0.1875
100
AcDbArc
 50
5.0
 51
90.0
  0
ARC
  5
68
330
2
100
AcDbEntity
  8
0
100
AcDbCircle
 10
-99.67917313868921
 20
-37.42878547232518
 30
0.0
 40
85.24989701846363
100
AcDbArc
 50
17.68235591702883
 51
28.1164135566945
  0
ARC
  5
69
330
2
100
AcDbEntity
  8
0
100
AcDbCircle
 10
-16.05719489220003
 20
-10.7801755411
 30
0.0
 40
2.515625
100
AcDbArc
 50
197.4610949871
 51
270.0
  0
ARC
  5
6A
330
2
100
AcDbEntity
  8
0
100
AcDbCircle
 10
24.65832578619997
 20
-10.7801755411
 30
0.0
 40
2.515625
100
AcDbArc
 50
270.0
 51
342.5389050129
  0
ARC
  5
6B
330
2
100
AcDbEntity
  8
0
100
AcDbCircle
 10
108.2803040346497
 20
-37.4287854795829
 30
0.0
 40
85.24989702253604
100
AcDbArc
 50
151.8835866419906
 51
162.3176440787239
  0
LINE
  5
6C
330
2
100
AcDbEntity
  8
CENTER
 48
4.0
100
AcDbLine
 10
7.109466151156786
 20
3.5928569821
 30
0.0
 11
1.491664742843218
 21
3.5928569821
 31
0.0
  0
LINE
  5
70
330
2
100
AcDbEntity
  8
CENTER
 48
4.0
100
AcDbLine
 10
4.300565447000002
 20
0.2905905983059882
 30
0.0
 11
4.300565447000002
 21
6.895123365894011
 31
0.0
  0
LINE
  5
71
330
2
100
AcDbEntity
  8
CENTER
 48
4.0
100
AcDbLine
 10
4.300565446199959
 20
-17.7452825606232
 30
0.0
 11
4.300565446199959
 21
-9.846318521576799
 31
0.0
  0
LINE
  5
E0
330
2
100
AcDbEntity
  8
0
100
AcDbLine
 10
-31.76193455380003
 20
2.719824458899998
 30
0.0
 11
40.36306544619995
 21
2.719824458899998
 31
0.0
  0
ENDSEC
  0
SECTION
  2
OBJECTS
  0
DICTIONARY
  5
A
330
0
100
AcDbDictionary
  3
ACAD_COLOR
350
29
  3
ACAD_GROUP
350
24
  3
ACAD_LAYOUT
350
9
  3
ACAD_MATERIAL
350
28
  3
ACAD_MLINESTYLE
350
25
  3
ACAD_PLOTSETTINGS
350
26
  3
ACAD_PLOTSTYLENAME
350
27
  3
ACAD_TABLESTYLE
350
2A
  3
ACDBHEADERROUNDTRIPXREC
350
118
  3
ACDBVARIABLEDICTIONARY
350
76
  0
DICTIONARY
  5
C8
330
2
100
AcDbDictionary
280
     1
  3
ACAD_LAYOUTSELFREF
360
139
  0
DICTIONARY
  5
CE
330
B
100
AcDbDictionary
280
     1
  3
ACAD_LAYOUTSELFREF
360
13A
  0
DICTIONARY
  5
29
102
{ACAD_REACTORS
330
A
102
}
330
A
100
AcDbDictionary
  0
DICTIONARY
  5
24
102
{ACAD_REACTORS
330
A
102
}
330
A
100
AcDbDictionary
  0
DICTIONARY
  5
9
102
{ACAD_REACTORS
330
A
102
}
330
A
100
AcDbDictionary
  0
DICTIONARY
  5
28
102
{ACAD_REACTORS
330
A
102
}
330
A
100
AcDbDictionary
  0
DICTIONARY
  5
25
102
{ACAD_REACTORS
330
A
102
}
330
A
100
AcDbDictionary
  3
STANDARD
350
2B
  0
DICTIONARY
  5
26
102
{ACAD_REACTORS
330
A
102
}
330
A
100
AcDbDictionary
  0
ACDBDICTIONARYWDFLT
  5
27
102
{ACAD_REACTORS
330
A
102
}
330
A
100
AcDbDictionary
281
     1
  3
Normal
350
5
100
AcDbDictionaryWithDefault
340
5
  0
DICTIONARY
  5
2A
102
{ACAD_REACTORS
330
A
102
}
330
A
100
AcDbDictionary
  3
STANDARD
350
2C
  0
DICTIONARY
  5
118
102
{ACAD_REACTORS
330
A
102
}
330
A
100
AcDbDictionary
  3
CEPSNTYPE
350
122
  3
DIMSTYLEDATA
350
126
  3
FINGERPRINTGUID
350
123
  3
HYPERLINKBASE
350
11B
  3
INSUNITS
350
121
  3
LAYOUTDICT
350
11D
  3
LWETCUNION
350
120
  3
PLOTSETDICT
350
11E
  3
PLOTSTYLNAMDICT
350
11F
  3
PSVPSCALE
350
125
  3
PUCSBASE
350
129
  3
PUCSORGBACK
350
12F
  3
PUCSORGBOTTOM
350
12B
  3
PUCSORGFRONT
350
12E
  3
PUCSORGLEFT
350
12C
  3
PUCSORGRIGHT
350
12D
  3
PUCSORGTOP
350
12A
  3
PUCSORTHOREF
350
127
  3
PUCSORTHOVIEW
350
128
  3
STYLESHEET
350
11C
  3
TSTACKALIGN
350
119
  3
TSTACKSIZE
350
11A
  3
UCSBASE
350
132
  3
UCSORGBACK
350
138
  3
UCSORGBOTTOM
350
134
  3
UCSORGFRONT
350
137
  3
UCSORGLEFT
350
135
  3
UCSORGRIGHT
350
136
  3
UCSORGTOP
350
133
  3
UCSORTHOREF
350
130
  3
UCSORTHOVIEW
350
131
  3
VERSIONGUID
350
124
  0
DICTIONARY
  5
76
102
{ACAD_REACTORS
330
A
102
}
330
A
100
AcDbDictionary
  3
CTABLESTYLE
350
77
  3
DIMASSOC
350
9B
  3
HIDETEXT
350
9A
  3
PROJECTNAME
350
9C
  0
XRECORD
  5
139
102
{ACAD_REACTORS
330
C8
102
}
330
C8
100
AcDbXrecord
340
2
  0
XRECORD
  5
13A
102
{ACAD_REACTORS
330
CE
102
}
330
CE
100
AcDbXrecord
340
B
  0
MLINESTYLE
  5
2B
102
{ACAD_REACTORS
330
25
102
}
330
25
100
AcDbMlineStyle
  2
STANDARD
 70
     0
  3

 62
   256
 51
90.0
 52
90.0
 71
     2
 49
0.5
 62
   256
  6
BYLAYER
 49
-0.5
 62
   256
  6
BYLAYER
  0
ACDBPLACEHOLDER
  5
5
102
{ACAD_REACTORS
330
27
102
}
330
0
100
AcDbPlaceHolder
280
     0
  0
ACAD_PROXY_OBJECT
  5
2C
102
{ACAD_REACTORS
330
2A
102
}
330
2A
100
AcDbProxyObject
 90
      499
 91
      525
 93
     1841
310
4214DD185B99185C9928B81E85EB51B8AE3F2E07A17AD46E2B8FC02B5E8DC0F42B1CFD028000000C1008070000C3001FDFF8000000C1003FBFF000000182007F7FE00000030400FEFFC00000060801FDFF8000000C1003FBFF00000018200000000000000681FA0B0000001820100E000186003FBFF000000182007F7FE000
310
00030400FEFFC00000060801FDFF8000000C1003FBFF000000182007F7FE000000304000AD7A3703D0AC73F4160000003040201C00030C007F7FE00000030400FEFFC00000060801FDFF8000000C1003FBFF000000182007F7FE00000030400FEFFC000000608018
340
11
340
11
340
11
 94
        0
1001
ACAD
1000
AcadProxyRoundTripData
1071
      524
1071
   851991
1070
     0
  0
XRECORD
  5
122
102
{ACAD_REACTORS
330
118
102
}
330
118
100
AcDbXrecord
 90
        0
  0
XRECORD
  5
126
102
{ACAD_REACTORS
330
118
102
}
330
118
100
AcDbXrecord
1000
DSTYLE
1002
{
1070
   277
 70
     5
1070
   341
340
1E
1070
   342
340
1E
1002
}
  0
XRECORD
  5
123
102
{ACAD_REACTORS
330
118
102
}
330
118
100
AcDbXrecord
  1
{7C13032B-02B7-426A-ADC3-1E3032EE03DE}
  0
XRECORD
  5
11B
102
{ACAD_REACTORS
330
118
102
}
330
118
100
AcDbXrecord
  1

  0
XRECORD
  5
121
102
{ACAD_REACTORS
330
118
102
}
330
118
100
AcDbXrecord
 90
        1
  0
XRECORD
  5
11D
102
{ACAD_REACTORS
330
118
102
}
330
118
100
AcDbXrecord
340
9
  0
XRECORD
  5
120
102
{ACAD_REACTORS
330
118
102
}
330
118
100
AcDbXrecord
 90
    10781
  0
XRECORD
  5
11E
102
{ACAD_REACTORS
330
118
102
}
330
118
100
AcDbXrecord
340
26
  0
XRECORD
  5
11F
102
{ACAD_REACTORS
330
118
102
}
330
118
100
AcDbXrecord
340
27
  0
XRECORD
  5
125
102
{ACAD_REACTORS
330
118
102
}
330
118
100
AcDbXrecord
 40
0.0
  0
XRECORD
  5
129
102
{ACAD_REACTORS
330
118
102
}
330
118
100
AcDbXrecord
340
0
  0
XRECORD
  5
12F
102
{ACAD_REACTORS
330
118
102
}
330
118
100
AcDbXrecord
 10
0.0
 20
0.0
 30
0.0
  0
XRECORD
  5
12B
102
{ACAD_REACTORS
330
118
102
}
330
118
100
AcDbXrecord
 10
0.0
 20
0.0
 30
0.0
  0
XRECORD
  5
12E
102
{ACAD_REACTORS
330
118
102
}
330
118
100
AcDbXrecord
 10
0.0
 20
0.0
 30
0.0
  0
XRECORD
  5
12C
102
{ACAD_REACTORS
330
118
102
}
330
118
100
AcDbXrecord
 10
0.0
 20
0.0
 30
0.0
  0
XRECORD
  5
12D
102
{ACAD_REACTORS
330
118
102
}
330
118
100
AcDbXrecord
 10
0.0
 20
0.0
 30
0.0
  0
XRECORD
  5
12A
102
{ACAD_REACTORS
330
118
102
}
330
118
100
AcDbXrecord
 10
0.0
 20
0.0
 30
0.0
  0
XRECORD
  5
127
102
{ACAD_REACTORS
330
118
102
}
330
118
100
AcDbXrecord
340
0
  0
XRECORD
  5
128
102
{ACAD_REACTORS
330
118
102
}
330
118
100
AcDbXrecord
 70
     0
  0
XRECORD
  5
11C
102
{ACAD_REACTORS
330
118
102
}
330
118
100
AcDbXrecord
  1

  0
XRECORD
  5
119
102
{ACAD_REACTORS
330
118
102
}
330
118
100
AcDbXrecord
 90
        1
  0
XRECORD
  5
11A
102
{ACAD_REACTORS
330
118
102
}
330
118
100
AcDbXrecord
 90
       70
  0
XRECORD
  5
132
102
{ACAD_REACTORS
330
118
102
}
330
118
100
AcDbXrecord
340
0
  0
XRECORD
  5
138
102
{ACAD_REACTORS
330
118
102
}
330
118
100
AcDbXrecord
 10
0.0
 20
0.0
 30
0.0
  0
XRECORD
  5
134
102
{ACAD_REACTORS
330
118
102
}
330
118
100
AcDbXrecord
 10
0.0
 20
0.0
 30
0.0
  0
XRECORD
  5
137
102
{ACAD_REACTORS
330
118
102
}
330
118
100
AcDbXrecord
 10
0.0
 20
0.0
 30
0.0
  0
XRECORD
  5
135
102
{ACAD_REACTORS
330
118
102
}
330
118
100
AcDbXrecord
 10
0.0
 20
0.0
 30
0.0
  0
XRECORD
  5
136
102
{ACAD_REACTORS
330
118
102
}
330
118
100
AcDbXrecord
 10
0.0
 20
0.0
 30
0.0
  0
XRECORD
  5
133
102
{ACAD_REACTORS
330
118
102
}
330
118
100
AcDbXrecord
 10
0.0
 20
0.0
 30
0.0
  0
XRECORD
  5
130
102
{ACAD_REACTORS
330
118
102
}
330
118
100
AcDbXrecord
340
0
  0
XRECORD
  5
131
102
{ACAD_REACTORS
330
118
102
}
330
118
100
AcDbXrecord
 70
     0
  0
XRECORD
  5
124
102
{ACAD_REACTORS
330
118
102
}
330
118
100
AcDbXrecord
  1
{9188E200-6ABD-436B-AD5E-821D8EBD594F}
  0
DICTIONARYVAR
  5
77
102
{ACAD_REACTORS
330
76
102
}
330
76
100
DictionaryVariables
280
     0
  1
STANDARD
  0
DICTIONARYVAR
  5
9B
102
{ACAD_REACTORS
330
76
102
}
330
76
100
DictionaryVariables
280
     0
  1
1
  0
DICTIONARYVAR
  5
9A
102
{ACAD_REACTORS
330
76
102
}
330
76
100
DictionaryVariables
280
     0
  1
1
  0
DICTIONARYVAR
  5
9C
102
{ACAD_REACTORS
330
76
102
}
330
76
100
DictionaryVariables
280
     0
  1

  0
ENDSEC
  0
EOF
