  0
SECTION
  2
HEADER
  9
$ACADVER
  1
AC1014
  9
$ACADMAINTVER
 70
     9
  9
$DWGCODEPAGE
  3
ANSI_1252
  9
$INSBASE
 10
188.2179685273294
 20
-21.95178158586912
 30
0.0
  9
$EXTMIN
 10
168.9133589088106
 20
-24.05161242263301
 30
-0.0000000349181948
  9
$EXTMAX
 10
207.5222167633762
 20
0.3076237634909376
 30
0.0000000814935746
  9
$LIMMIN
 10
0.0
 20
0.0
  9
$LIMMAX
 10
187.3118571637889
 20
134.3269220688476
  9
$ORTHOMODE
 70
     1
  9
$REGENMODE
 70
     1
  9
$FILLMODE
 70
     1
  9
$QTEXTMODE
 70
     0
  9
$MIRRTEXT
 70
     0
  9
$DRAGMODE
 70
     2
  9
$LTSCALE
 40
2.0
  9
$OSMODE
 70
    55
  9
$ATTMODE
 70
     1
  9
$TEXTSIZE
 40
0.15
  9
$TRACEWID
 40
1.0
  9
$TEXTSTYLE
  7
CARTOUCHE
  9
$CLAYER
  8
0
  9
$CELTYPE
  6
BYLAYER
  9
$CECOLOR
 62
   256
  9
$CELTSCALE
 40
1.0
  9
$DELOBJ
 70
     1
  9
$DISPSILH
 70
     0
  9
$DIMSCALE
 40
16.0
  9
$DIMASZ
 40
0.1
  9
$DIMEXO
 40
0.0625
  9
$DIMDLI
 40
0.25
  9
$DIMRND
 40
0.0
  9
$DIMDLE
 40
0.0
  9
$DIMEXE
 40
0.1
  9
$DIMTP
 40
0.0
  9
$DIMTM
 40
0.0
  9
$DIMTXT
 40
0.1
  9
$DIMCEN
 40
0.0625
  9
$DIMTSZ
 40
0.0
  9
$DIMTOL
 70
     0
  9
$DIMLIM
 70
     0
  9
$DIMTIH
 70
     1
  9
$DIMTOH
 70
     1
  9
$DIMSE1
 70
     0
  9
$DIMSE2
 70
     0
  9
$DIMTAD
 70
     0
  9
$DIMZIN
 70
    12
  9
$DIMBLK
  1

  9
$DIMASO
 70
     1
  9
$DIMSHO
 70
     1
  9
$DIMPOST
  1
\X
  9
$DIMAPOST
  1
cm
  9
$DIMALT
 70
     1
  9
$DIMALTD
 70
     1
  9
$DIMALTF
 40
2.54
  9
$DIMLFAC
 40
1.0
  9
$DIMTOFL
 70
     0
  9
$DIMTVP
 40
0.0
  9
$DIMTIX
 70
     0
  9
$DIMSOXD
 70
     0
  9
$DIMSAH
 70
     0
  9
$DIMBLK1
  1

  9
$DIMBLK2
  1

  9
$DIMSTYLE
  2
STANDARD
  9
$DIMCLRD
 70
     0
  9
$DIMCLRE
 70
     0
  9
$DIMCLRT
 70
     0
  9
$DIMTFAC
 40
1.0
  9
$DIMGAP
 40
0.08
  9
$DIMJUST
 70
     0
  9
$DIMSD1
 70
     0
  9
$DIMSD2
 70
     0
  9
$DIMTOLJ
 70
     1
  9
$DIMTZIN
 70
     4
  9
$DIMALTZ
 70
    12
  9
$DIMALTTZ
 70
     4
  9
$DIMFIT
 70
     3
  9
$DIMUPT
 70
     0
  9
$DIMUNIT
 70
     5
  9
$DIMDEC
 70
     4
  9
$DIMTDEC
 70
     4
  9
$DIMALTU
 70
     2
  9
$DIMALTTD
 70
     1
  9
$DIMTXSTY
  7
ROMANS
  9
$DIMAUNIT
 70
     0
  9
$LUNITS
 70
     2
  9
$LUPREC
 70
     2
  9
$SKETCHINC
 40
1.0
  9
$FILLETRAD
 40
0.5
  9
$AUNITS
 70
     0
  9
$AUPREC
 70
     0
  9
$MENU
  1
.
  9
$ELEVATION
 40
0.0
  9
$PELEVATION
 40
0.0
  9
$THICKNESS
 40
0.0
  9
$LIMCHECK
 70
     0
  9
$BLIPMODE
 70
     0
  9
$CHAMFERA
 40
0.0
  9
$CHAMFERB
 40
0.0
  9
$CHAMFERC
 40
20.0
  9
$CHAMFERD
 40
0.0
  9
$SKPOLY
 70
     0
  9
$TDCREATE
 40
2452072.673626736
  9
$TDUPDATE
 40
2453690.463973565
  9
$TDINDWG
 40
2.1385374074
  9
$TDUSRTIMER
 40
2.1385279167
  9
$USRTIMER
 70
     1
  9
$ANGBASE
 50
0.0
  9
$ANGDIR
 70
     0
  9
$PDMODE
 70
    33
  9
$PDSIZE
 40
0.25
  9
$PLINEWID
 40
0.0
  9
$COORDS
 70
     1
  9
$SPLFRAME
 70
     0
  9
$SPLINETYPE
 70
     6
  9
$SPLINESEGS
 70
     8
  9
$ATTDIA
 70
     0
  9
$ATTREQ
 70
     1
  9
$HANDLING
 70
 22529
  9
$HANDSEED
  5
1C7
  9
$SURFTAB1
 70
     6
  9
$SURFTAB2
 70
     6
  9
$SURFTYPE
 70
     6
  9
$SURFU
 70
     6
  9
$SURFV
 70
     6
  9
$UCSNAME
  2

  9
$UCSORG
 10
0.0
 20
0.0
 30
0.0
  9
$UCSXDIR
 10
1.0
 20
0.0
 30
0.0
  9
$UCSYDIR
 10
0.0
 20
1.0
 30
0.0
  9
$PUCSNAME
  2

  9
$PUCSORG
 10
0.0
 20
0.0
 30
0.0
  9
$PUCSXDIR
 10
1.0
 20
0.0
 30
0.0
  9
$PUCSYDIR
 10
0.0
 20
1.0
 30
0.0
  9
$USERI1
 70
     0
  9
$USERI2
 70
     0
  9
$USERI3
 70
     0
  9
$USERI4
 70
     0
  9
$USERI5
 70
     0
  9
$USERR1
 40
0.0
  9
$USERR2
 40
0.0
  9
$USERR3
 40
0.0
  9
$USERR4
 40
0.0
  9
$USERR5
 40
0.0
  9
$WORLDVIEW
 70
     1
  9
$SHADEDGE
 70
     3
  9
$SHADEDIF
 70
    70
  9
$TILEMODE
 70
     1
  9
$MAXACTVP
 70
    48
  9
$PINSBASE
 10
0.0
 20
0.0
 30
0.0
  9
$PLIMCHECK
 70
     0
  9
$PEXTMIN
 10
0.0
 20
0.0
 30
0.0
  9
$PEXTMAX
 10
0.0
 20
0.0
 30
0.0
  9
$PLIMMIN
 10
0.0
 20
0.0
  9
$PLIMMAX
 10
12.0
 20
9.0
  9
$UNITMODE
 70
     0
  9
$VISRETAIN
 70
     1
  9
$PLINEGEN
 70
     0
  9
$PSLTSCALE
 70
     1
  9
$TREEDEPTH
 70
  3020
  9
$PICKSTYLE
 70
     1
  9
$CMLSTYLE
  2
STANDARD
  9
$CMLJUST
 70
     0
  9
$CMLSCALE
 40
20.0
  9
$PROXYGRAPHICS
 70
     1
  9
$MEASUREMENT
 70
     0
  0
ENDSEC
  0
SECTION
  2
CLASSES
  0
CLASS
  1
ACDBDICTIONARYWDFLT
  2
AcDbDictionaryWithDefault
  3
AutoCAD 2000
 90
        0
280
     0
281
     0
  0
CLASS
  1
ACDBPLACEHOLDER
  2
AcDbPlaceHolder
  3
AutoCAD 2000
 90
        0
280
     0
281
     0
  0
CLASS
  1
LAYOUT
  2
AcDbLayout
  3
AutoCAD 2000
 90
        0
280
     0
281
     0
  0
CLASS
  1
DICTIONARYVAR
  2
AcDbDictionaryVar
  3
AutoCAD 2000
 90
        0
280
     0
281
     0
  0
CLASS
  1
IMAGEDEF
  2
AcDbRasterImageDef
  3
ISM
 90
        0
280
     0
281
     0
  0
CLASS
  1
LONG_TRANSACTION
  2
AcDbLongTransaction
  3
AutoCAD 2000
 90
        0
280
     0
281
     0
  0
CLASS
  1
LWPOLYLINE
  2
AcDbPolyline
  3
AutoCAD 2000
 90
        0
280
     0
281
     1
  0
CLASS
  1
HATCH
  2
AcDbHatch
  3
AutoCAD 2000
 90
        0
280
     0
281
     1
  0
CLASS
  1
XRECORD
  2
AcDbXrecord
  3
AutoCAD 2000
 90
        0
280
     0
281
     0
  0
CLASS
  1
LONG_TRANSACTION
  2
AcDbLongTransaction
  3
AutoCAD 2000
 90
        0
280
     0
281
     0
  0
CLASS
  1
LWPOLYLINE
  2
AcDbPolyline
  3
AutoCAD 2000
 90
        0
280
     0
281
     1
  0
CLASS
  1
HATCH
  2
AcDbHatch
  3
AutoCAD 2000
 90
        0
280
     0
281
     1
  0
CLASS
  1
XRECORD
  2
AcDbXrecord
  3
AutoCAD 2000
 90
        0
280
     0
281
     0
  0
CLASS
  1
LONG_TRANSACTION
  2
AcDbLongTransaction
  3
AutoCAD 2000
 90
        0
280
     0
281
     0
  0
CLASS
  1
LWPOLYLINE
  2
AcDbPolyline
  3
AutoCAD 2000
 90
        0
280
     0
281
     1
  0
CLASS
  1
HATCH
  2
AcDbHatch
  3
AutoCAD 2000
 90
        0
280
     0
281
     1
  0
CLASS
  1
XRECORD
  2
AcDbXrecord
  3
AutoCAD 2000
 90
        0
280
     0
281
     0
  0
ENDSEC
  0
SECTION
  2
TABLES
  0
TABLE
  2
VPORT
  5
1D
330
0
100
AcDbSymbolTable
 70
     3
  0
VPORT
  5
1A3
330
1D
100
AcDbSymbolTableRecord
100
AcDbViewportTableRecord
  2
*ACTIVE
 70
     0
 10
0.0
 20
0.0
 11
1.0
 21
1.0
 12
188.2177878051713
 22
-11.87199435840357
 13
0.0
 23
0.0
 14
10.0
 24
10.0
 15
10.0
 25
10.0
 16
0.0
 26
0.0
 36
1.0
 17
0.0
 27
0.0
 37
0.0
 40
32.0248263682102
 41
1.786792452830188
 42
50.0
 43
0.0
 44
0.0
 50
0.0
 51
0.0
 71
     0
 72
   100
 73
     1
 74
     3
 75
     0
 76
     0
 77
     0
 78
     2
  0
ENDTAB
  0
TABLE
  2
LTYPE
  5
18
330
0
100
AcDbSymbolTable
 70
     3
  0
LTYPE
  5
19
330
18
100
AcDbSymbolTableRecord
100
AcDbLinetypeTableRecord
  2
BYBLOCK
 70
     0
  3

 72
    65
 73
     0
 40
0.0
  0
LTYPE
  5
1A
330
18
100
AcDbSymbolTableRecord
100
AcDbLinetypeTableRecord
  2
BYLAYER
 70
     0
  3

 72
    65
 73
     0
 40
0.0
  0
LTYPE
  5
8
330
18
100
AcDbSymbolTableRecord
100
AcDbLinetypeTableRecord
  2
CONTINUOUS
 70
     0
  3
Solid line
 72
    65
 73
     0
 40
0.0
  0
LTYPE
  5
36
330
18
100
AcDbSymbolTableRecord
100
AcDbLinetypeTableRecord
  2
CENTER
 70
     0
  3
Center ____ _ ____ _ ____ _ ____ _ ____ _ ____
 72
    65
 73
     4
 40
50.8
 49
31.75
 74
     0
 49
-6.349999999999999
 74
     0
 49
6.349999999999999
 74
     0
 49
-6.349999999999999
 74
     0
  0
LTYPE
  5
31
330
18
100
AcDbSymbolTableRecord
100
AcDbLinetypeTableRecord
  2
HIDDEN
 70
     0
  3
Hidden __ __ __ __ __ __ __ __ __ __ __ __ __ _
 72
    65
 73
     2
 40
9.524999999999998
 49
6.349999999999999
 74
     0
 49
-3.174999999999999
 74
     0
  0
ENDTAB
  0
TABLE
  2
LAYER
  5
10
102
{ACAD_XDICTIONARY
360
11
102
}
330
0
100
AcDbSymbolTable
 70
     3
  0
LAYER
  5
4
330
10
100
AcDbSymbolTableRecord
100
AcDbLayerTableRecord
  2
0
 70
     0
 62
     7
  6
CONTINUOUS
  0
LAYER
  5
35
330
10
100
AcDbSymbolTableRecord
100
AcDbLayerTableRecord
  2
CENTER
 70
     0
 62
     1
  6
CENTER
  0
LAYER
  5
14E
330
10
100
AcDbSymbolTableRecord
100
AcDbLayerTableRecord
  2
DEFPOINTS
 70
     0
 62
     7
  6
CONTINUOUS
  0
ENDTAB
  0
TABLE
  2
STYLE
  5
15
330
0
100
AcDbSymbolTable
 70
     3
  0
STYLE
  5
16
330
15
100
AcDbSymbolTableRecord
100
AcDbTextStyleTableRecord
  2
STANDARD
 70
     0
 40
0.0
 41
1.0
 50
0.0
 71
     0
 42
0.125
  3
txt
  4

  0
STYLE
  5
2C
330
15
100
AcDbSymbolTableRecord
100
AcDbTextStyleTableRecord
  2
CARTOUCHE
 70
     0
 40
0.0
 41
1.0
 50
0.0
 71
     0
 42
0.15
  3
romans.shx
  4

  0
STYLE
  5
23
330
15
100
AcDbSymbolTableRecord
100
AcDbTextStyleTableRecord
  2
ROMANS
 70
     0
 40
0.0
 41
1.0
 50
0.0
 71
     0
 42
1.0
  3
romans.shx
  4

  0
ENDTAB
  0
TABLE
  2
VIEW
  5
1B
330
0
100
AcDbSymbolTable
 70
     0
  0
ENDTAB
  0
TABLE
  2
UCS
  5
1C
330
0
100
AcDbSymbolTable
 70
     0
  0
ENDTAB
  0
TABLE
  2
APPID
  5
1F
330
0
100
AcDbSymbolTable
 70
     1
  0
APPID
  5
20
330
1F
100
AcDbSymbolTableRecord
100
AcDbRegAppTableRecord
  2
ACAD
 70
     0
  0
ENDTAB
  0
TABLE
  2
DIMSTYLE
  5
21
330
0
100
AcDbSymbolTable
 70
     1
  0
DIMSTYLE
105
22
330
21
100
AcDbSymbolTableRecord
100
AcDbDimStyleTableRecord
  2
STANDARD
 70
     0
  3
\X
  4
cm
  5

  6

  7

 40
16.0
 41
0.1
 42
0.0625
 43
0.25
 44
0.1
 45
0.0
 46
0.0
 47
0.0
 48
0.0
140
0.1
141
0.0625
142
0.0
143
2.54
144
1.0
145
0.0
146
1.0
147
0.08
 71
     0
 72
     0
 73
     1
 74
     1
 75
     0
 76
     0
 77
     0
 78
    12
170
     1
171
     1
172
     0
173
     0
174
     0
175
     0
176
     0
177
     0
178
     0
270
     5
271
     4
272
     4
273
     2
274
     1
340
23
275
     0
280
     0
281
     0
282
     0
283
     1
284
     4
285
    12
286
     4
287
     3
288
     0
  0
ENDTAB
  0
TABLE
  2
BLOCK_RECORD
  5
1
330
0
100
AcDbSymbolTable
 70
     1
  0
BLOCK_RECORD
  5
2
102
{ACAD_XDICTIONARY
360
B6
102
}
330
1
100
AcDbSymbolTableRecord
100
AcDbBlockTableRecord
  2
*MODEL_SPACE
  0
BLOCK_RECORD
  5
AB
102
{ACAD_XDICTIONARY
360
B8
102
}
330
1
100
AcDbSymbolTableRecord
100
AcDbBlockTableRecord
  2
*PAPER_SPACE
  0
ENDTAB
  0
ENDSEC
  0
SECTION
  2
BLOCKS
  0
BLOCK
  5
3
330
2
100
AcDbEntity
  8
0
100
AcDbBlockBegin
  2
*MODEL_SPACE
 70
     0
 10
0.0
 20
0.0
 30
0.0
  3
*MODEL_SPACE
  1

  0
ENDBLK
  5
9
330
2
100
AcDbEntity
  8
0
100
AcDbBlockEnd
  0
BLOCK
  5
AD
330
AB
100
AcDbEntity
 67
     1
  8
0
100
AcDbBlockBegin
  2
*PAPER_SPACE
 70
     0
 10
0.0
 20
0.0
 30
0.0
  3
*PAPER_SPACE
  1

  0
ENDBLK
  5
AE
330
AB
100
AcDbEntity
 67
     1
  8
0
100
AcDbBlockEnd
  0
ENDSEC
  0
SECTION
  2
ENTITIES
  0
LINE
  5
2E
330
2
100
AcDbEntity
  8
0
 48
0.1
100
AcDbLine
 10
174.1757769693958
 20
-4.201781585869127
 30
0.0
 11
176.4413005741433
 21
-18.76684676375361
 31
0.0
  0
ARC
  5
2F
330
2
100
AcDbEntity
  8
0
 48
0.1
100
AcDbCircle
 10
172.9089727639688
 20
-7.701968221040829
 30
0.0
 40
0.5
100
AcDbArc
 50
188.694331786379
 51
270.0
  0
SPLINE
  5
30
330
2
100
AcDbEntity
  8
0
  6
HIDDEN
 62
     8
 48
0.05
100
AcDbSpline
210
0.0
220
0.0
230
1.0
 70
     8
 71
     3
 72
    11
 73
     7
 74
     0
 42
0.0000000001
 43
0.0000000001
 40
0.0
 40
0.0
 40
0.0
 40
0.0
 40
0.6067526543165347
 40
3.252748487967018
 40
4.780658771150382
 40
5.860057725336693
 40
5.860057725336693
 40
5.860057725336693
 40
5.860057725336693
 10
174.8523757198767
 20
-8.626301624699664
 30
0.0
 10
174.8633293339885
 20
-8.169444420123852
 30
0.0
 10
176.4302820952313
 20
-7.862519718589965
 30
0.0
 10
176.9590128084379
 20
-7.726675155402631
 30
0.0
 10
177.6386443564871
 20
-7.327669528059857
 30
0.0
 10
177.8564469929277
 20
-7.138991080770068
 30
0.0
 10
178.089999171716
 20
-6.936669092500949
 30
0.0
  0
SPLINE
  5
32
330
2
100
AcDbEntity
  8
0
  6
HIDDEN
 62
     8
 48
0.05
100
AcDbSpline
210
0.0
220
0.0
230
1.0
 70
     8
 71
     3
 72
    32
 73
    28
 74
     0
 42
0.0000000001
 43
0.0000000001
 40
0.0
 40
0.0
 40
0.0
 40
0.0
 40
0.1612988272543786
 40
0.1612988272543786
 40
0.3225976545087572
 40
0.3225976545087572
 40
0.4838964817631358
 40
0.4838964817631358
 40
0.6193821705399725
 40
0.6193821705399725
 40
0.7548678593168092
 40
0.7548678593168092
 40
1.025839236870482
 40
1.025839236870482
 40
1.567781991977828
 40
1.567781991977828
 40
2.651667502192522
 40
2.651667502192522
 40
3.328440103566572
 40
3.328440103566572
 40
4.005212704940622
 40
4.005212704940622
 40
4.617049725053712
 40
4.617049725053712
 40
5.840723765279894
 40
5.840723765279894
 40
5.860057725336693
 40
5.860057725336693
 40
5.860057725336693
 40
5.860057725336693
 10
174.3660577166901
 20
-8.201968221040829
 30
0.0
 10
174.5614894541886
 20
-8.209335117360922
 30
0.0
 10
174.6207948072778
 20
-8.139598571561123
 30
0.0
 10
174.6987169034859
 20
-8.089915415705434
 30
0.0
 10
174.8043857586456
 20
-7.999767005994783
 30
0.0
 10
174.9527825625129
 20
-7.925631175645094
 30
0.0
 10
175.10380877995
 20
-7.87781185042445
 30
0.0
 10
175.2549658879539
 20
-7.836822378753765
 30
0.0
 10
175.317301655847
 20
-7.825138222687257
 30
0.0
 10
175.4280410369812
 20
-7.80309248318062
 30
0.0
 10
175.4813063910879
 20
-7.792443118567405
 30
0.0
 10
175.6351116025737
 20
-7.761529097282334
 30
0.0
 10
175.7296613754939
 20
-7.74229822407301
 30
0.0
 10
175.9919012096683
 20
-7.688058189417205
 30
0.0
 10
176.1381907002686
 20
-7.656493548880149
 30
0.0
 10
176.5114588556551
 20
-7.570344475727694
 30
0.0
 10
176.6713591845861
 20
-7.524615107399057
 30
0.0
 10
176.8833457644677
 20
-7.446391321944588
 30
0.0
 10
176.9549074572365
 20
-7.414920807274995
 30
0.0
 10
177.1094507864736
 20
-7.339307778448699
 30
0.0
 10
177.1891135897806
 20
-7.296439385897713
 30
0.0
 10
177.3350801561539
 20
-7.210898334611385
 30
0.0
 10
177.401971611836
 20
-7.168576155657007
 30
0.0
 10
177.5833970407172
 20
-7.043994545586173
 30
0.0
 10
177.654996120379
 20
-6.982737462093268
 30
0.0
 10
177.9179882052188
 20
-6.754918181571866
 30
0.0
 10
177.9221247413965
 20
-6.751334775816019
 30
0.0
 10
177.9263080773895
 20
-6.747710828224967
 30
0.0
  0
LINE
  5
33
330
2
100
AcDbEntity
  8
0
 48
0.1
100
AcDbLine
 10
202.2785428207625
 20
-4.201781585869127
 30
0.0
 11
200.0130192160149
 21
-18.76684676375361
 31
0.0
  0
LINE
  5
34
330
2
100
AcDbEntity
  8
CENTER
 48
0.05
100
AcDbLine
 10
188.2271598950792
 20
-8.835499798331841
 30
0.0
 11
188.2271598950792
 21
-3.553323759338251
 31
0.0
  0
SPLINE
  5
37
330
2
100
AcDbEntity
  8
0
  6
HIDDEN
 62
     8
 48
0.05
100
AcDbSpline
210
0.0
220
0.0
230
1.0
 70
     8
 71
     3
 72
    32
 73
    28
 74
     0
 42
0.0000000001
 43
0.0000000001
 40
0.0
 40
0.0
 40
0.0
 40
0.0
 40
0.1612988272543786
 40
0.1612988272543786
 40
0.3225976545087572
 40
0.3225976545087572
 40
0.4838964817631358
 40
0.4838964817631358
 40
0.6193821705399725
 40
0.6193821705399725
 40
0.7548678593168092
 40
0.7548678593168092
 40
1.025839236870482
 40
1.025839236870482
 40
1.567781991977828
 40
1.567781991977828
 40
2.651667502192522
 40
2.651667502192522
 40
3.328440103566572
 40
3.328440103566572
 40
4.005212704940622
 40
4.005212704940622
 40
4.617049725053712
 40
4.617049725053712
 40
5.840723765279894
 40
5.840723765279894
 40
5.860057725336693
 40
5.860057725336693
 40
5.860057725336693
 40
5.860057725336693
 10
202.0882620734683
 20
-8.201968221040829
 30
0.0
 10
201.8928303359697
 20
-8.209335117360922
 30
0.0
 10
201.8335249828806
 20
-8.139598571561123
 30
0.0
 10
201.7556028866724
 20
-8.089915415705434
 30
0.0
 10
201.6499340315128
 20
-7.999767005994783
 30
0.0
 10
201.5015372276454
 20
-7.925631175645094
 30
0.0
 10
201.3505110102083
 20
-7.87781185042445
 30
0.0
 10
201.1993539022044
 20
-7.836822378753765
 30
0.0
 10
201.1370181343113
 20
-7.825138222687257
 30
0.0
 10
201.0262787531771
 20
-7.80309248318062
 30
0.0
 10
200.9730133990704
 20
-7.792443118567405
 30
0.0
 10
200.8192081875847
 20
-7.761529097282334
 30
0.0
 10
200.7246584146645
 20
-7.74229822407301
 30
0.0
 10
200.46241858049
 20
-7.688058189417205
 30
0.0
 10
200.3161290898898
 20
-7.656493548880149
 30
0.0
 10
199.9428609345032
 20
-7.570344475727694
 30
0.0
 10
199.7829606055722
 20
-7.524615107399057
 30
0.0
 10
199.5709740256906
 20
-7.446391321944588
 30
0.0
 10
199.4994123329218
 20
-7.414920807274995
 30
0.0
 10
199.3448690036847
 20
-7.339307778448699
 30
0.0
 10
199.2652062003778
 20
-7.296439385897713
 30
0.0
 10
199.1192396340045
 20
-7.210898334611385
 30
0.0
 10
199.0523481783223
 20
-7.168576155657007
 30
0.0
 10
198.8709227494411
 20
-7.043994545586173
 30
0.0
 10
198.7993236697793
 20
-6.982737462093268
 30
0.0
 10
198.5363315849395
 20
-6.754918181571866
 30
0.0
 10
198.5321950487619
 20
-6.751334775816019
 30
0.0
 10
198.5280117127688
 20
-6.747710828224967
 30
0.0
  0
SPLINE
  5
38
330
2
100
AcDbEntity
  8
0
  6
HIDDEN
 62
     8
 48
0.05
100
AcDbSpline
210
0.0
220
0.0
230
1.0
 70
     8
 71
     3
 72
    11
 73
     7
 74
     0
 42
0.0000000001
 43
0.0000000001
 40
0.0
 40
0.0
 40
0.0
 40
0.0
 40
0.6067526543165347
 40
3.252748487967018
 40
4.780658771150382
 40
5.860057725336693
 40
5.860057725336693
 40
5.860057725336693
 40
5.860057725336693
 10
201.6019440702817
 20
-8.626301624699664
 30
0.0
 10
201.5909904561698
 20
-8.169444420123852
 30
0.0
 10
200.0240376949271
 20
-7.862519718589965
 30
0.0
 10
199.4953069817204
 20
-7.726675155402631
 30
0.0
 10
198.8156754336712
 20
-7.327669528059857
 30
0.0
 10
198.5978727972306
 20
-7.138991080770068
 30
0.0
 10
198.3643206184423
 20
-6.936669092500949
 30
0.0
  0
ARC
  5
39
330
2
100
AcDbEntity
  8
0
 48
0.1
100
AcDbCircle
 10
203.5453470261896
 20
-7.701968221040836
 30
0.0
 40
0.5
100
AcDbArc
 50
270.0
 51
351.3056682136209
  0
ARC
  5
3A
330
2
100
AcDbEntity
  8
0
 48
0.1
100
AcDbCircle
 10
178.9125726892726
 20
-18.38893919174123
 30
0.0
 40
2.5
100
AcDbArc
 50
188.6943317863792
 51
269.4999999999999
  0
LINE
  5
3B
330
2
100
AcDbEntity
  8
0
 48
0.1
100
AcDbLine
 10
174.3660577166901
 20
-8.201968221040829
 30
0.0
 11
172.9089727639688
 21
-8.201968221040829
 31
0.0
  0
ARC
  5
3C
330
2
100
AcDbEntity
  8
0
 48
0.1
100
AcDbCircle
 10
174.3558543724713
 20
-8.704527997791927
 30
0.0
 40
0.5026458135470337
100
AcDbArc
 50
8.953290438975752
 51
89.88831987728563
  0
ARC
  5
3D
330
2
100
AcDbEntity
  8
0
 48
0.1
100
AcDbCircle
 10
197.5417471008857
 20
-18.38893919174123
 30
0.0
 40
2.5
100
AcDbArc
 50
270.5
 51
351.3056682136207
  0
LINE
  5
3E
330
2
100
AcDbEntity
  8
CENTER
 48
0.05
100
AcDbLine
 10
188.2179685273294
 20
-24.04194694394893
 30
0.0
 11
188.2179685273294
 21
-18.85876637664476
 31
0.0
  0
LINE
  5
3F
330
2
100
AcDbEntity
  8
0
 48
0.1
100
AcDbLine
 10
189.6296833349382
 20
-21.27642165870878
 30
0.0
 11
189.7316719707503
 21
-20.95711166895103
 31
0.0
  0
LINE
  5
40
330
2
100
AcDbEntity
  8
0
 48
0.1
100
AcDbLine
 10
193.9709219346364
 20
-21.55172066393169
 30
0.0
 11
193.732386681137
 21
-20.92227817245608
 31
0.0
  0
LINE
  5
41
330
2
100
AcDbEntity
  8
0
 48
0.1
100
AcDbLine
 10
195.950742695135
 20
-21.55172066393169
 30
0.0
 11
196.1974302365597
 21
-20.90076606324945
 31
0.0
  0
LINE
  5
42
330
2
100
AcDbEntity
  8
0
 48
0.1
100
AcDbLine
 10
182.4833978555219
 20
-21.55172066393169
 30
0.0
 11
182.7219331090214
 21
-20.92227817245608
 31
0.0
  0
LINE
  5
43
330
2
100
AcDbEntity
  8
0
 48
0.1
100
AcDbLine
 10
180.5035770950234
 20
-21.55172066393169
 30
0.0
 11
180.2568895535986
 21
-20.90076606324945
 31
0.0
  0
LINE
  5
44
330
2
100
AcDbEntity
  8
0
 48
0.1
100
AcDbLine
 10
186.8062537197205
 20
-21.27642165870878
 30
0.0
 11
186.7042650839083
 21
-20.95711166895103
 31
0.0
  0
LINE
  5
45
330
2
100
AcDbEntity
  8
0
 48
0.1
100
AcDbLine
 10
189.3915360779383
 20
-21.45035666029684
 30
0.0
 11
187.0444009767205
 21
-21.45035666029684
 31
0.0
  0
LINE
  5
46
330
2
100
AcDbEntity
  8
0
 48
0.1
100
AcDbLine
 10
188.7179685273294
 20
-21.95178158586912
 30
0.0
 11
187.7179685273294
 21
-21.95178158586912
 31
0.0
  0
LINE
  5
47
330
2
100
AcDbEntity
  8
0
 48
0.1
100
AcDbLine
 10
187.7179685273294
 20
-21.95178158586912
 30
0.0
 11
188.7179685273293
 21
-21.95178158586912
 31
0.0
  0
ARC
  5
48
330
2
100
AcDbEntity
  8
0
 48
0.1
100
AcDbCircle
 10
181.9934874752727
 20
-21.45178158586913
 30
0.0
 40
0.5
100
AcDbArc
 50
270.0
 51
348.4701659727361
  0
ARC
  5
49
330
2
100
AcDbEntity
  8
0
 48
0.1
100
AcDbCircle
 10
180.9934874752727
 20
-21.45178158586913
 30
0.0
 40
0.5
100
AcDbArc
 50
191.5298340272638
 51
270.0
  0
LINE
  5
4A
330
2
100
AcDbEntity
  8
0
 48
0.1
100
AcDbLine
 10
180.9934874752727
 20
-21.95178158586912
 30
0.0
 11
181.9934874752727
 21
-21.95178158586912
 31
0.0
  0
LINE
  5
4B
330
2
100
AcDbEntity
  8
0
 48
0.1
100
AcDbLine
 10
187.2742808216798
 20
-21.67369221755285
 30
0.0
 11
187.1896449661617
 21
-21.45035666029684
 31
0.0
  0
ARC
  5
4C
330
2
100
AcDbEntity
  8
0
 48
0.1
100
AcDbCircle
 10
187.0444009767204
 20
-21.20035666029682
 30
0.0
 40
0.25
100
AcDbArc
 50
197.7136489003373
 51
270.0
  0
LINE
  5
4D
330
2
100
AcDbEntity
  8
0
 48
0.1
100
AcDbLine
 10
187.2848679279012
 20
-21.70162928102553
 30
0.0
 11
187.2742808216798
 21
-21.67369221755285
 31
0.0
  0
LINE
  5
4E
330
2
100
AcDbEntity
  8
0
 48
0.1
100
AcDbLine
 10
187.2848679279012
 20
-21.70162928102553
 30
0.0
 11
187.2742808216798
 21
-21.67369221755285
 31
0.0
  0
ARC
  5
4F
330
2
100
AcDbEntity
  8
0
 48
0.1
100
AcDbCircle
 10
187.7179685273294
 20
-21.45178158586913
 30
0.0
 40
0.5
100
AcDbArc
 50
209.9798492307297
 51
270.0
  0
LINE
  5
50
330
2
100
AcDbEntity
  8
0
 48
0.1
100
AcDbLine
 10
189.1616562329789
 20
-21.67369221755285
 30
0.0
 11
189.246292088497
 21
-21.45035666029684
 31
0.0
  0
ARC
  5
51
330
2
100
AcDbEntity
  8
0
 48
0.1
100
AcDbCircle
 10
189.3915360779383
 20
-21.20035666029682
 30
0.0
 40
0.25
100
AcDbArc
 50
270.0
 51
342.2863510996626
  0
LINE
  5
52
330
2
100
AcDbEntity
  8
0
 48
0.1
100
AcDbLine
 10
189.1510691267575
 20
-21.70162928102553
 30
0.0
 11
189.1616562329789
 21
-21.67369221755285
 31
0.0
  0
ARC
  5
53
330
2
100
AcDbEntity
  8
0
 48
0.1
100
AcDbCircle
 10
188.7179685273294
 20
-21.45178158586913
 30
0.0
 40
0.5
100
AcDbArc
 50
270.0
 51
330.0201507692701
  0
ARC
  5
54
330
2
100
AcDbEntity
  8
0
 48
0.1
100
AcDbCircle
 10
194.4608323148857
 20
-21.45178158586913
 30
0.0
 40
0.5
100
AcDbArc
 50
191.5298340272638
 51
270.0
  0
LINE
  5
55
330
2
100
AcDbEntity
  8
0
 48
0.1
100
AcDbLine
 10
195.4608323148857
 20
-21.95178158586912
 30
0.0
 11
194.4608323148857
 21
-21.95178158586912
 31
0.0
  0
ARC
  5
56
330
2
100
AcDbEntity
  8
0
 48
0.1
100
AcDbCircle
 10
195.4608323148857
 20
-21.45178158586913
 30
0.0
 40
0.5
100
AcDbArc
 50
270.0
 51
348.4701659727361
  0
LINE
  5
57
330
2
100
AcDbEntity
  8
0
 48
0.1
100
AcDbLine
 10
188.2271598950792
 20
-20.97032155877616
 30
0.0
 11
197.5635634396316
 21
-20.88884399940167
 31
0.0
  0
LINE
  5
58
330
2
100
AcDbEntity
  8
0
 48
0.1
100
AcDbLine
 10
188.2271598950792
 20
-20.97032155877616
 30
0.0
 11
178.8907563505267
 21
-20.88884399940167
 31
0.0
  0
ARC
  5
59
330
2
100
AcDbEntity
  8
0
 48
0.1
100
AcDbCircle
 10
202.098465417687
 20
-8.704527997791934
 30
0.0
 40
0.5026458135470337
100
AcDbArc
 50
90.11168012271433
 51
171.0467095610242
  0
ARC
  5
5A
330
2
100
AcDbEntity
  8
0
 48
0.1
100
AcDbCircle
 10
202.098465417687
 20
-8.704527997791934
 30
0.0
 40
0.5026458135470337
100
AcDbArc
 50
90.11168012271438
 51
171.0467095610242
  0
LINE
  5
5B
330
2
100
AcDbEntity
  8
0
 48
0.1
100
AcDbLine
 10
202.0882620734683
 20
-8.201968221040829
 30
0.0
 11
203.5453470261896
 21
-8.201968221040829
 31
0.0
  0
LINE
  5
5C
330
2
100
AcDbEntity
  8
0
  6
HIDDEN
 62
     8
 48
0.05
100
AcDbLine
 10
171.703432745426
 20
-3.126200071466655
 30
0.0
 11
204.7508870447323
 21
-3.126200071466655
 31
0.0
  0
LINE
  5
5D
330
2
100
AcDbEntity
  8
0
 48
0.1
100
AcDbLine
 10
206.9054685273294
 20
-2.701781585869127
 30
0.0
 11
169.5304685273294
 21
-2.701781585869127
 31
0.0
  0
LINE
  5
5E
330
2
100
AcDbEntity
  8
0
 48
0.1
100
AcDbLine
 10
207.4054685273294
 20
-4.201781585869127
 30
0.0
 11
169.0304685273294
 21
-4.201781585869127
 31
0.0
  0
LINE
  5
5F
330
2
100
AcDbEntity
  8
0
 48
0.1
100
AcDbLine
 10
171.8679109492308
 20
-4.201781585869127
 30
0.0
 11
172.4147183409429
 21
-7.777549735443301
 31
0.0
  0
LINE
  5
62
330
2
100
AcDbEntity
  8
0
  6
HIDDEN
 62
     8
 48
0.05
100
AcDbLine
 10
175.0826502963615
 20
-3.889640175321744
 30
0.0
 11
171.8372205708535
 21
-3.889640175321744
 31
0.0
  0
LINE
  5
63
330
2
100
AcDbEntity
  8
0
  6
HIDDEN
 62
     8
 48
0.05
100
AcDbLine
 10
175.0826502963615
 20
-5.014640175321744
 30
0.0
 11
172.0092558622773
 21
-5.014640175321744
 31
0.0
  0
LINE
  5
68
330
2
100
AcDbEntity
  8
0
 48
0.1
100
AcDbLine
 10
169.0304685273294
 20
-3.201781585869127
 30
0.0
 11
169.0304685273294
 21
-4.201781585869127
 31
0.0
  0
ARC
  5
69
330
2
100
AcDbEntity
  8
0
 48
0.1
100
AcDbCircle
 10
169.5304685273294
 20
-3.201781585869127
 30
0.0
 40
0.5
100
AcDbArc
 50
89.99999999999998
 51
180.0
  0
LINE
  5
6A
330
2
100
AcDbEntity
  8
0
  6
HIDDEN
 62
     8
100
AcDbLine
 10
171.8700431203123
 20
-4.215724611436115
 30
0.0
 11
171.7034327454261
 21
-3.126200071466627
 31
0.0
  0
ARC
  5
6B
330
2
100
AcDbEntity
  8
0
  6
HIDDEN
 62
     8
100
AcDbCircle
 10
171.7790142598285
 20
-2.631945648440762
 30
0.0
 40
0.5
100
AcDbArc
 50
188.0288595107268
 51
261.30566821362
  0
ARC
  5
73
330
2
100
AcDbEntity
  8
0
  6
HIDDEN
 62
     8
 48
0.05
100
AcDbCircle
 10
174.8321502963615
 20
-4.639640175321716
 30
0.0
 40
0.375
100
AcDbArc
 50
180.0000000000002
 51
270.0
  0
ARC
  5
74
330
2
100
AcDbEntity
  8
0
  6
HIDDEN
 62
     8
 48
0.05
100
AcDbCircle
 10
175.0826502963615
 20
-4.514640175321716
 30
0.0
 40
0.5
100
AcDbArc
 50
270.0
 51
359.9999999999997
  0
LINE
  5
75
330
2
100
AcDbEntity
  8
0
 62
     8
 48
0.1
100
AcDbLine
 10
174.1779091404774
 20
-4.215724611436115
 30
0.0
 11
174.0112987655911
 21
-3.126200071466627
 31
0.0
  0
ARC
  5
76
330
2
100
AcDbEntity
  8
0
 62
     8
 48
0.1
100
AcDbCircle
 10
174.0868802799936
 20
-2.631945648440762
 30
0.0
 40
0.5
100
AcDbArc
 50
188.0288595107268
 51
261.30566821362
  0
ARC
  5
77
330
2
100
AcDbEntity
  8
0
  6
HIDDEN
 62
     8
 48
0.05
100
AcDbCircle
 10
174.8321502963615
 20
-4.264640175321744
 30
0.0
 40
0.375
100
AcDbArc
 50
89.99999999999998
 51
179.9999999999996
  0
ARC
  5
7A
330
2
100
AcDbEntity
  8
0
  6
HIDDEN
 62
     8
 48
0.05
100
AcDbCircle
 10
175.0826502963615
 20
-4.389640175321716
 30
0.0
 40
0.5
100
AcDbArc
 50
359.9999999999997
 51
89.99999999999998
  0
LINE
  5
7B
330
2
100
AcDbEntity
  8
CENTER
 48
0.05
100
AcDbLine
 10
185.65991286839
 20
-6.194411778835046
 30
0.0
 11
190.7944069217683
 21
-6.194411778835046
 31
0.0
  0
LINE
  5
7C
330
2
100
AcDbEntity
  8
0
 48
0.1
100
AcDbLine
 10
180.8089961825462
 20
0.2994398908742255
 30
0.0
 11
195.6469191778923
 21
0.299439890818121
 31
0.0
  0
CIRCLE
  5
7D
330
2
100
AcDbEntity
  8
0
 48
0.1
100
AcDbCircle
 10
188.2271598950792
 20
-6.194411778835021
 30
0.0
 40
1.1875
  0
SPLINE
  5
7E
330
2
100
AcDbEntity
  8
0
 48
0.1
100
AcDbSpline
210
0.0
220
0.0
230
1.0
 70
     8
 71
     3
 72
    11
 73
     7
 74
     0
 42
0.0000000001
 43
0.0000000001
 40
0.0
 40
0.0
 40
0.0
 40
0.0
 40
1.271056318457386
 40
2.088250163782618
 40
2.621057433787941
 40
4.81804140552245
 40
4.81804140552245
 40
4.81804140552245
 40
4.81804140552245
 10
179.5266352428202
 20
-2.701781585869127
 30
0.0
 10
179.5958504451278
 20
-2.284053921488577
 30
0.0
 10
179.7095658292979
 20
-0.4661791536868236
 30
0.0
 10
180.3013722948421
 20
0.2986665051468549
 30
0.0
 10
181.5869916160247
 20
0.3437417181736748
 30
0.0
 10
182.079333005014
 20
-1.917299602716212
 30
0.0
 10
182.1522959222154
 20
-2.701781585869127
 30
0.0
  0
LINE
  5
7F
330
2
100
AcDbEntity
  8
0
  6
HIDDEN
 62
     8
 48
0.05
100
AcDbLine
 10
181.7546078685773
 20
-3.431324616536329
 30
0.0
 11
177.9263080773895
 21
-6.747710828224967
 31
0.0
  0
LINE
  5
80
330
2
100
AcDbEntity
  8
0
  6
HIDDEN
 62
     8
 48
0.05
100
AcDbLine
 10
181.9182989629038
 20
-3.620282880812311
 30
0.0
 11
178.0899481987577
 21
-6.936713249444096
 31
0.0
  0
SPLINE
  5
81
330
2
100
AcDbEntity
  8
0
  6
HIDDEN
 62
     8
 48
0.05
100
AcDbSpline
210
0.0
220
0.0
230
1.0
 70
     8
 71
     3
 72
    10
 73
     6
 74
     0
 42
0.0000000001
 43
0.0000000001
 40
0.0
 40
0.0
 40
0.0
 40
0.0
 40
0.6066168727469559
 40
0.7517307210059743
 40
1.2959753443345
 40
1.2959753443345
 40
1.2959753443345
 40
1.2959753443345
 10
181.1120979321319
 20
-2.701781585869127
 30
0.0
 10
181.3133525323573
 20
-2.721369857003082
 30
0.0
 10
181.6257399537552
 20
-2.655162085408846
 30
0.0
 10
181.8805126839741
 20
-3.038124199035223
 30
0.0
 10
181.9020461719378
 20
-3.283484593588582
 30
0.0
 10
181.7546078685773
 20
-3.431324616536329
 30
0.0
  0
SPLINE
  5
82
330
2
100
AcDbEntity
  8
0
  6
HIDDEN
 62
     8
 48
0.05
100
AcDbSpline
210
0.0
220
0.0
230
1.0
 70
     8
 71
     3
 72
     9
 73
     5
 74
     0
 42
0.0000000001
 43
0.0000000001
 40
4.81804140552245
 40
4.81804140552245
 40
4.81804140552245
 40
4.81804140552245
 40
6.231255132479361
 40
9.120029070635842
 40
9.120029070635842
 40
9.120029070635842
 40
9.120029070635842
 10
182.1522959222154
 20
-2.701781585869127
 30
0.0
 10
182.1992294444779
 20
-3.206400973814311
 30
0.0
 10
182.1334760694943
 20
-3.383468773717822
 30
0.0
 10
182.0515706953861
 20
-3.505628611781276
 30
0.0
 10
181.9182989629038
 20
-3.620282880812311
 30
0.0
  0
SPLINE
  5
83
330
2
100
AcDbEntity
  8
0
 48
0.1
100
AcDbSpline
210
0.0
220
0.0
230
1.0
 70
     8
 71
     3
 72
    11
 73
     7
 74
     0
 42
0.0000000001
 43
0.0000000001
 40
0.0
 40
0.0
 40
0.0
 40
0.0
 40
1.271056318457386
 40
2.088250163782618
 40
2.621057433787941
 40
4.81804140552245
 40
4.81804140552245
 40
4.81804140552245
 40
4.81804140552245
 10
196.929280118585
 20
-2.701781585869127
 30
0.0
 10
196.8600649162773
 20
-2.284053921488577
 30
0.0
 10
196.7463495321073
 20
-0.4661791536868236
 30
0.0
 10
196.1545430665631
 20
0.2986665051468549
 30
0.0
 10
194.8689237453804
 20
0.3437417181736748
 30
0.0
 10
194.3765823563911
 20
-1.917299602716212
 30
0.0
 10
194.3036194391898
 20
-2.701781585869127
 30
0.0
  0
LINE
  5
84
330
2
100
AcDbEntity
  8
0
  6
HIDDEN
 62
     8
 48
0.05
100
AcDbLine
 10
194.5360208272545
 20
-3.620282880812311
 30
0.0
 11
198.3643715914007
 21
-6.936713249444096
 31
0.0
  0
LINE
  5
85
330
2
100
AcDbEntity
  8
0
  6
HIDDEN
 62
     8
 48
0.05
100
AcDbLine
 10
194.699711921581
 20
-3.431324616536329
 30
0.0
 11
198.5280117127688
 21
-6.747710828224967
 31
0.0
  0
SPLINE
  5
86
330
2
100
AcDbEntity
  8
0
  6
HIDDEN
 62
     8
 48
0.05
100
AcDbSpline
210
0.0
220
0.0
230
1.0
 70
     8
 71
     3
 72
     9
 73
     5
 74
     0
 42
0.0000000001
 43
0.0000000001
 40
4.81804140552245
 40
4.81804140552245
 40
4.81804140552245
 40
4.81804140552245
 40
6.231255132479361
 40
9.120029070635842
 40
9.120029070635842
 40
9.120029070635842
 40
9.120029070635842
 10
194.302023867943
 20
-2.701781585869127
 30
0.0
 10
194.2550903456804
 20
-3.206400973814311
 30
0.0
 10
194.320843720664
 20
-3.383468773717822
 30
0.0
 10
194.4027490947723
 20
-3.505628611781276
 30
0.0
 10
194.5360208272545
 20
-3.620282880812311
 30
0.0
  0
SPLINE
  5
87
330
2
100
AcDbEntity
  8
0
  6
HIDDEN
 62
     8
 48
0.05
100
AcDbSpline
210
0.0
220
0.0
230
1.0
 70
     8
 71
     3
 72
    10
 73
     6
 74
     0
 42
0.0000000001
 43
0.0000000001
 40
0.0
 40
0.0
 40
0.0
 40
0.0
 40
0.6066168727469559
 40
0.7517307210059743
 40
1.2959753443345
 40
1.2959753443345
 40
1.2959753443345
 40
1.2959753443345
 10
195.3422218580264
 20
-2.701781585869127
 30
0.0
 10
195.140967257801
 20
-2.721369857003082
 30
0.0
 10
194.8285798364032
 20
-2.655162085408846
 30
0.0
 10
194.5738071061843
 20
-3.038124199035223
 30
0.0
 10
194.6187742963436
 20
-3.256054569169862
 30
0.0
 10
194.699711921581
 20
-3.431324616536329
 30
0.0
  0
LINE
  5
8C
330
2
100
AcDbEntity
  8
0
 48
0.1
100
AcDbLine
 10
204.5864088409275
 20
-4.201781585869127
 30
0.0
 11
204.0396014492154
 21
-7.777549735443301
 31
0.0
  0
LINE
  5
8D
330
2
100
AcDbEntity
  8
0
  6
HIDDEN
 62
     8
 48
0.05
100
AcDbLine
 10
201.4057526247612
 20
-3.889640175321744
 30
0.0
 11
204.6511823502692
 21
-3.889640175321744
 31
0.0
  0
LINE
  5
8E
330
2
100
AcDbEntity
  8
0
  6
HIDDEN
 62
     8
 48
0.05
100
AcDbLine
 10
201.4057526247612
 20
-5.014640175321744
 30
0.0
 11
204.4791470588453
 21
-5.014640175321744
 31
0.0
  0
LINE
  5
93
330
2
100
AcDbEntity
  8
0
  6
HIDDEN
 62
     8
 48
0.05
100
AcDbLine
 10
202.0312526247612
 20
-4.264640175321744
 30
0.0
 11
202.0312526247612
 21
-4.639640175321744
 31
0.0
  0
LINE
  5
94
330
2
100
AcDbEntity
  8
0
  6
HIDDEN
 62
     8
 48
0.05
100
AcDbLine
 10
200.9057526247612
 20
-4.389640175321744
 30
0.0
 11
200.9057526247612
 21
-4.514640175321744
 31
0.0
  0
ARC
  5
96
330
2
100
AcDbEntity
  8
0
  6
HIDDEN
 62
     8
 48
0.05
100
AcDbCircle
 10
201.4057526247612
 20
-4.514640175321723
 30
0.0
 40
0.5
100
AcDbArc
 50
180.0000000000002
 51
270.0
  0
ARC
  5
99
330
2
100
AcDbEntity
  8
0
  6
HIDDEN
 62
     8
 48
0.05
100
AcDbCircle
 10
201.6562526247612
 20
-4.639640175321723
 30
0.0
 40
0.375
100
AcDbArc
 50
270.0
 51
359.9999999999997
  0
ARC
  5
9A
330
2
100
AcDbEntity
  8
0
  6
HIDDEN
 62
     8
 48
0.05
100
AcDbCircle
 10
201.4057526247612
 20
-4.389640175321723
 30
0.0
 40
0.5
100
AcDbArc
 50
89.99999999999998
 51
180.0000000000002
  0
LINE
  5
9B
330
2
100
AcDbEntity
  8
0
  6
HIDDEN
 62
     8
100
AcDbLine
 10
202.2764106496809
 20
-4.215724611436115
 30
0.0
 11
202.4430210245672
 21
-3.126200071466627
 31
0.0
  0
ARC
  5
9C
330
2
100
AcDbEntity
  8
0
  6
HIDDEN
 62
     8
100
AcDbCircle
 10
202.3674395101647
 20
-2.631945648440769
 30
0.0
 40
0.5
100
AcDbArc
 50
278.6943317863799
 51
351.9711404892731
  0
ARC
  5
9D
330
2
100
AcDbEntity
  8
0
  6
HIDDEN
 62
     8
 48
0.05
100
AcDbCircle
 10
201.6562526247612
 20
-4.264640175321751
 30
0.0
 40
0.375
100
AcDbArc
 50
0.0000000000004071
 51
89.99999999999998
  0
LINE
  5
A0
330
2
100
AcDbEntity
  8
0
  6
HIDDEN
 62
     8
100
AcDbLine
 10
204.584276669846
 20
-4.215724611436115
 30
0.0
 11
204.7508870447323
 21
-3.126200071466627
 31
0.0
  0
ARC
  5
A1
330
2
100
AcDbEntity
  8
0
  6
HIDDEN
 62
     8
100
AcDbCircle
 10
204.6753055303298
 20
-2.631945648440769
 30
0.0
 40
0.5
100
AcDbArc
 50
278.6943317863799
 51
351.9711404892731
  0
ARC
  5
A2
330
2
100
AcDbEntity
  8
0
 48
0.1
100
AcDbCircle
 10
206.9054685273294
 20
-3.201781585869134
 30
0.0
 40
0.5
100
AcDbArc
 50
0.0000000000000127
 51
89.99999999999998
  0
LINE
  5
A3
330
2
100
AcDbEntity
  8
0
 48
0.1
100
AcDbLine
 10
207.4054685273294
 20
-3.201781585869127
 30
0.0
 11
207.4054685273294
 21
-4.201781585869127
 31
0.0
  0
ENDSEC
  0
SECTION
  2
OBJECTS
  0
DICTIONARY
  5
7
330
0
100
AcDbDictionary
  3
ACAD_GROUP
350
29
  3
ACAD_LAYOUT
350
B
  3
ACAD_MLINESTYLE
350
2A
  3
ACAD_PLOTSETTINGS
350
2B
  3
ACAD_PLOTSTYLENAME
350
6
  3
ACDBHEADERROUNDTRIPXREC
350
1A4
  3
ACDBVARIABLEDICTIONARY
350
A4
  0
DICTIONARY
  5
11
330
10
100
AcDbDictionary
280
     1
  3
ACAD_LAYERFILTERS
360
12
  0
DICTIONARY
  5
B6
330
2
100
AcDbDictionary
280
     1
  3
ACAD_LAYOUTSELFREF
360
1C5
  0
DICTIONARY
  5
B8
330
AB
100
AcDbDictionary
280
     1
  3
ACAD_LAYOUTSELFREF
360
1C6
  0
DICTIONARY
  5
29
102
{ACAD_REACTORS
330
7
102
}
330
7
100
AcDbDictionary
  0
DICTIONARY
  5
B
102
{ACAD_REACTORS
330
7
102
}
330
7
100
AcDbDictionary
  0
DICTIONARY
  5
2A
102
{ACAD_REACTORS
330
7
102
}
330
7
100
AcDbDictionary
  3
STANDARD
350
2D
  0
DICTIONARY
  5
2B
102
{ACAD_REACTORS
330
7
102
}
330
7
100
AcDbDictionary
  0
ACDBDICTIONARYWDFLT
  5
6
102
{ACAD_REACTORS
330
7
102
}
330
7
100
AcDbDictionary
281
     1
  3
Normal
350
5
100
AcDbDictionaryWithDefault
340
5
  0
DICTIONARY
  5
1A4
102
{ACAD_REACTORS
330
7
102
}
330
7
100
AcDbDictionary
  3
CEPSNTYPE
350
1AE
  3
DIMSTYLEDATA
350
1B2
  3
FINGERPRINTGUID
350
1AF
  3
HYPERLINKBASE
350
1A7
  3
INSUNITS
350
1AD
  3
LAYOUTDICT
350
1A9
  3
LWETCUNION
350
1AC
  3
PLOTSETDICT
350
1AA
  3
PLOTSTYLNAMDICT
350
1AB
  3
PSVPSCALE
350
1B1
  3
PUCSBASE
350
1B5
  3
PUCSORGBACK
350
1BB
  3
PUCSORGBOTTOM
350
1B7
  3
PUCSORGFRONT
350
1BA
  3
PUCSORGLEFT
350
1B8
  3
PUCSORGRIGHT
350
1B9
  3
PUCSORGTOP
350
1B6
  3
PUCSORTHOREF
350
1B3
  3
PUCSORTHOVIEW
350
1B4
  3
STYLESHEET
350
1A8
  3
TSTACKALIGN
350
1A5
  3
TSTACKSIZE
350
1A6
  3
UCSBASE
350
1BE
  3
UCSORGBACK
350
1C4
  3
UCSORGBOTTOM
350
1C0
  3
UCSORGFRONT
350
1C3
  3
UCSORGLEFT
350
1C1
  3
UCSORGRIGHT
350
1C2
  3
UCSORGTOP
350
1BF
  3
UCSORTHOREF
350
1BC
  3
UCSORTHOVIEW
350
1BD
  3
VERSIONGUID
350
1B0
  0
DICTIONARY
  5
A4
102
{ACAD_REACTORS
330
7
102
}
330
7
100
AcDbDictionary
  3
DIMASSOC
350
A6
  3
HIDETEXT
350
A5
  0
DICTIONARY
  5
12
102
{ACAD_REACTORS
330
11
102
}
330
11
100
AcDbDictionary
280
     1
  3
DIM-1_12
360
13
  3
DIM-1_16
360
14
  0
XRECORD
  5
1C5
102
{ACAD_REACTORS
330
B6
102
}
330
B6
100
AcDbXrecord
340
2
  0
XRECORD
  5
1C6
102
{ACAD_REACTORS
330
B8
102
}
330
B8
100
AcDbXrecord
340
AB
  0
MLINESTYLE
  5
2D
102
{ACAD_REACTORS
330
2A
102
}
330
2A
100
AcDbMlineStyle
  2
STANDARD
 70
     0
  3

 62
   256
 51
90.0
 52
90.0
 71
     2
 49
0.5
 62
   256
  6
BYLAYER
 49
-0.5
 62
   256
  6
BYLAYER
  0
ACDBPLACEHOLDER
  5
5
102
{ACAD_REACTORS
330
6
102
}
330
6
100
AcDbPlaceHolder
280
     0
  0
XRECORD
  5
1AE
102
{ACAD_REACTORS
330
1A4
102
}
330
1A4
100
AcDbXrecord
 90
        0
  0
XRECORD
  5
1B2
102
{ACAD_REACTORS
330
1A4
102
}
330
1A4
100
AcDbXrecord
1000
DSTYLE
1002
{
1070
    79
 70
     1
1070
   276
 70
     1
1070
   277
 70
     5
1002
}
  0
XRECORD
  5
1AF
102
{ACAD_REACTORS
330
1A4
102
}
330
1A4
100
AcDbXrecord
  1
{6A4AC8E0-4F58-11D5-8420-0003476D26AB}
  0
XRECORD
  5
1A7
102
{ACAD_REACTORS
330
1A4
102
}
330
1A4
100
AcDbXrecord
  1

  0
XRECORD
  5
1AD
102
{ACAD_REACTORS
330
1A4
102
}
330
1A4
100
AcDbXrecord
 90
        1
  0
XRECORD
  5
1A9
102
{ACAD_REACTORS
330
1A4
102
}
330
1A4
100
AcDbXrecord
340
B
  0
XRECORD
  5
1AC
102
{ACAD_REACTORS
330
1A4
102
}
330
1A4
100
AcDbXrecord
 90
    10781
  0
XRECORD
  5
1AA
102
{ACAD_REACTORS
330
1A4
102
}
330
1A4
100
AcDbXrecord
340
2B
  0
XRECORD
  5
1AB
102
{ACAD_REACTORS
330
1A4
102
}
330
1A4
100
AcDbXrecord
340
6
  0
XRECORD
  5
1B1
102
{ACAD_REACTORS
330
1A4
102
}
330
1A4
100
AcDbXrecord
 40
0.0
  0
XRECORD
  5
1B5
102
{ACAD_REACTORS
330
1A4
102
}
330
1A4
100
AcDbXrecord
340
0
  0
XRECORD
  5
1BB
102
{ACAD_REACTORS
330
1A4
102
}
330
1A4
100
AcDbXrecord
 10
0.0
 20
0.0
 30
0.0
  0
XRECORD
  5
1B7
102
{ACAD_REACTORS
330
1A4
102
}
330
1A4
100
AcDbXrecord
 10
0.0
 20
0.0
 30
0.0
  0
XRECORD
  5
1BA
102
{ACAD_REACTORS
330
1A4
102
}
330
1A4
100
AcDbXrecord
 10
0.0
 20
0.0
 30
0.0
  0
XRECORD
  5
1B8
102
{ACAD_REACTORS
330
1A4
102
}
330
1A4
100
AcDbXrecord
 10
0.0
 20
0.0
 30
0.0
  0
XRECORD
  5
1B9
102
{ACAD_REACTORS
330
1A4
102
}
330
1A4
100
AcDbXrecord
 10
0.0
 20
0.0
 30
0.0
  0
XRECORD
  5
1B6
102
{ACAD_REACTORS
330
1A4
102
}
330
1A4
100
AcDbXrecord
 10
0.0
 20
0.0
 30
0.0
  0
XRECORD
  5
1B3
102
{ACAD_REACTORS
330
1A4
102
}
330
1A4
100
AcDbXrecord
340
0
  0
XRECORD
  5
1B4
102
{ACAD_REACTORS
330
1A4
102
}
330
1A4
100
AcDbXrecord
 70
     0
  0
XRECORD
  5
1A8
102
{ACAD_REACTORS
330
1A4
102
}
330
1A4
100
AcDbXrecord
  1

  0
XRECORD
  5
1A5
102
{ACAD_REACTORS
330
1A4
102
}
330
1A4
100
AcDbXrecord
 90
        1
  0
XRECORD
  5
1A6
102
{ACAD_REACTORS
330
1A4
102
}
330
1A4
100
AcDbXrecord
 90
       70
  0
XRECORD
  5
1BE
102
{ACAD_REACTORS
330
1A4
102
}
330
1A4
100
AcDbXrecord
340
0
  0
XRECORD
  5
1C4
102
{ACAD_REACTORS
330
1A4
102
}
330
1A4
100
AcDbXrecord
 10
0.0
 20
0.0
 30
0.0
  0
XRECORD
  5
1C0
102
{ACAD_REACTORS
330
1A4
102
}
330
1A4
100
AcDbXrecord
 10
0.0
 20
0.0
 30
0.0
  0
XRECORD
  5
1C3
102
{ACAD_REACTORS
330
1A4
102
}
330
1A4
100
AcDbXrecord
 10
0.0
 20
0.0
 30
0.0
  0
XRECORD
  5
1C1
102
{ACAD_REACTORS
330
1A4
102
}
330
1A4
100
AcDbXrecord
 10
0.0
 20
0.0
 30
0.0
  0
XRECORD
  5
1C2
102
{ACAD_REACTORS
330
1A4
102
}
330
1A4
100
AcDbXrecord
 10
0.0
 20
0.0
 30
0.0
  0
XRECORD
  5
1BF
102
{ACAD_REACTORS
330
1A4
102
}
330
1A4
100
AcDbXrecord
 10
0.0
 20
0.0
 30
0.0
  0
XRECORD
  5
1BC
102
{ACAD_REACTORS
330
1A4
102
}
330
1A4
100
AcDbXrecord
340
0
  0
XRECORD
  5
1BD
102
{ACAD_REACTORS
330
1A4
102
}
330
1A4
100
AcDbXrecord
 70
     1
  0
XRECORD
  5
1B0
102
{ACAD_REACTORS
330
1A4
102
}
330
1A4
100
AcDbXrecord
  1
{D59EA5D7-CD7F-4F16-B532-B2819B54FFEE}
  0
DICTIONARYVAR
  5
A6
102
{ACAD_REACTORS
330
A4
102
}
330
A4
100
DictionaryVariables
280
     0
  1
1
  0
DICTIONARYVAR
  5
A5
102
{ACAD_REACTORS
330
A4
102
}
330
A4
100
DictionaryVariables
280
     0
  1
1
  0
XRECORD
  5
13
102
{ACAD_REACTORS
330
12
102
}
330
0
100
AcDbXrecord
  1
DIM-1_12
  1
DIM-1_12
  1
*
  1
*
 70
     0
  1
*
  1
*
  0
XRECORD
  5
14
102
{ACAD_REACTORS
330
12
102
}
330
12
100
AcDbXrecord
  1
dim-1_16
  1
*
  1
*
  1
*
 70
     0
  1
*
  1
*
  0
ENDSEC
  0
EOF
