  0
SECTION
  2
HEADER
  9
$ACADVER
  1
AC1014
  9
$ACADMAINTVER
 70
     9
  9
$DWGCODEPAGE
  3
ANSI_1252
  9
$INSBASE
 10
181.2995052390649
 20
-21.95178158586912
 30
0.0
  9
$EXTMIN
 10
162.2504293981809
 20
-24.12744674811909
 30
-0.0000000349181948
  9
$EXTMAX
 10
200.3528895758852
 20
0.4247841540559421
 30
0.0000000814935746
  9
$LIMMIN
 10
0.0
 20
0.0
  9
$LIMMAX
 10
187.3118571637889
 20
134.3269220688476
  9
$ORTHOMODE
 70
     1
  9
$REGENMODE
 70
     1
  9
$FILLMODE
 70
     1
  9
$QTEXTMODE
 70
     0
  9
$MIRRTEXT
 70
     0
  9
$DRAGMODE
 70
     2
  9
$LTSCALE
 40
2.0
  9
$OSMODE
 70
    55
  9
$ATTMODE
 70
     1
  9
$TEXTSIZE
 40
0.15
  9
$TRACEWID
 40
1.0
  9
$TEXTSTYLE
  7
CARTOUCHE
  9
$CLAYER
  8
0
  9
$CELTYPE
  6
BYLAYER
  9
$CECOLOR
 62
   256
  9
$CELTSCALE
 40
1.0
  9
$DELOBJ
 70
     1
  9
$DISPSILH
 70
     0
  9
$DIMSCALE
 40
16.0
  9
$DIMASZ
 40
0.1
  9
$DIMEXO
 40
0.0625
  9
$DIMDLI
 40
0.25
  9
$DIMRND
 40
0.0
  9
$DIMDLE
 40
0.0
  9
$DIMEXE
 40
0.1
  9
$DIMTP
 40
0.0
  9
$DIMTM
 40
0.0
  9
$DIMTXT
 40
0.1
  9
$DIMCEN
 40
0.0625
  9
$DIMTSZ
 40
0.0
  9
$DIMTOL
 70
     0
  9
$DIMLIM
 70
     0
  9
$DIMTIH
 70
     1
  9
$DIMTOH
 70
     1
  9
$DIMSE1
 70
     0
  9
$DIMSE2
 70
     0
  9
$DIMTAD
 70
     0
  9
$DIMZIN
 70
    12
  9
$DIMBLK
  1

  9
$DIMASO
 70
     1
  9
$DIMSHO
 70
     1
  9
$DIMPOST
  1
\X
  9
$DIMAPOST
  1
cm
  9
$DIMALT
 70
     1
  9
$DIMALTD
 70
     1
  9
$DIMALTF
 40
2.54
  9
$DIMLFAC
 40
1.0
  9
$DIMTOFL
 70
     0
  9
$DIMTVP
 40
0.0
  9
$DIMTIX
 70
     0
  9
$DIMSOXD
 70
     0
  9
$DIMSAH
 70
     0
  9
$DIMBLK1
  1

  9
$DIMBLK2
  1

  9
$DIMSTYLE
  2
STANDARD
  9
$DIMCLRD
 70
     0
  9
$DIMCLRE
 70
     0
  9
$DIMCLRT
 70
     0
  9
$DIMTFAC
 40
1.0
  9
$DIMGAP
 40
0.08
  9
$DIMJUST
 70
     0
  9
$DIMSD1
 70
     0
  9
$DIMSD2
 70
     0
  9
$DIMTOLJ
 70
     1
  9
$DIMTZIN
 70
     4
  9
$DIMALTZ
 70
    12
  9
$DIMALTTZ
 70
     4
  9
$DIMFIT
 70
     3
  9
$DIMUPT
 70
     0
  9
$DIMUNIT
 70
     5
  9
$DIMDEC
 70
     3
  9
$DIMTDEC
 70
     3
  9
$DIMALTU
 70
     2
  9
$DIMALTTD
 70
     1
  9
$DIMTXSTY
  7
ROMANS
  9
$DIMAUNIT
 70
     0
  9
$LUNITS
 70
     2
  9
$LUPREC
 70
     2
  9
$SKETCHINC
 40
1.0
  9
$FILLETRAD
 40
3.0
  9
$AUNITS
 70
     0
  9
$AUPREC
 70
     0
  9
$MENU
  1
.
  9
$ELEVATION
 40
0.0
  9
$PELEVATION
 40
0.0
  9
$THICKNESS
 40
0.0
  9
$LIMCHECK
 70
     0
  9
$BLIPMODE
 70
     0
  9
$CHAMFERA
 40
0.0
  9
$CHAMFERB
 40
0.0
  9
$CHAMFERC
 40
20.0
  9
$CHAMFERD
 40
0.0
  9
$SKPOLY
 70
     0
  9
$TDCREATE
 40
2452072.673626736
  9
$TDUPDATE
 40
2453690.444523715
  9
$TDINDWG
 40
2.3903444213
  9
$TDUSRTIMER
 40
2.3903349306
  9
$USRTIMER
 70
     1
  9
$ANGBASE
 50
0.0
  9
$ANGDIR
 70
     0
  9
$PDMODE
 70
    33
  9
$PDSIZE
 40
0.25
  9
$PLINEWID
 40
0.0
  9
$COORDS
 70
     1
  9
$SPLFRAME
 70
     0
  9
$SPLINETYPE
 70
     6
  9
$SPLINESEGS
 70
     8
  9
$ATTDIA
 70
     0
  9
$ATTREQ
 70
     1
  9
$HANDLING
 70
 22529
  9
$HANDSEED
  5
1F6
  9
$SURFTAB1
 70
     6
  9
$SURFTAB2
 70
     6
  9
$SURFTYPE
 70
     6
  9
$SURFU
 70
     6
  9
$SURFV
 70
     6
  9
$UCSNAME
  2

  9
$UCSORG
 10
0.0
 20
0.0
 30
0.0
  9
$UCSXDIR
 10
1.0
 20
0.0
 30
0.0
  9
$UCSYDIR
 10
0.0
 20
1.0
 30
0.0
  9
$PUCSNAME
  2

  9
$PUCSORG
 10
0.0
 20
0.0
 30
0.0
  9
$PUCSXDIR
 10
1.0
 20
0.0
 30
0.0
  9
$PUCSYDIR
 10
0.0
 20
1.0
 30
0.0
  9
$USERI1
 70
     0
  9
$USERI2
 70
     0
  9
$USERI3
 70
     0
  9
$USERI4
 70
     0
  9
$USERI5
 70
     0
  9
$USERR1
 40
0.0
  9
$USERR2
 40
0.0
  9
$USERR3
 40
0.0
  9
$USERR4
 40
0.0
  9
$USERR5
 40
0.0
  9
$WORLDVIEW
 70
     1
  9
$SHADEDGE
 70
     3
  9
$SHADEDIF
 70
    70
  9
$TILEMODE
 70
     1
  9
$MAXACTVP
 70
    48
  9
$PINSBASE
 10
0.0
 20
0.0
 30
0.0
  9
$PLIMCHECK
 70
     0
  9
$PEXTMIN
 10
0.0
 20
0.0
 30
0.0
  9
$PEXTMAX
 10
0.0
 20
0.0
 30
0.0
  9
$PLIMMIN
 10
0.0
 20
0.0
  9
$PLIMMAX
 10
12.0
 20
9.0
  9
$UNITMODE
 70
     0
  9
$VISRETAIN
 70
     1
  9
$PLINEGEN
 70
     0
  9
$PSLTSCALE
 70
     1
  9
$TREEDEPTH
 70
  3020
  9
$PICKSTYLE
 70
     1
  9
$CMLSTYLE
  2
STANDARD
  9
$CMLJUST
 70
     0
  9
$CMLSCALE
 40
20.0
  9
$PROXYGRAPHICS
 70
     1
  9
$MEASUREMENT
 70
     0
  0
ENDSEC
  0
SECTION
  2
CLASSES
  0
CLASS
  1
ACDBDICTIONARYWDFLT
  2
AcDbDictionaryWithDefault
  3
AutoCAD 2000
 90
        0
280
     0
281
     0
  0
CLASS
  1
ACDBPLACEHOLDER
  2
AcDbPlaceHolder
  3
AutoCAD 2000
 90
        0
280
     0
281
     0
  0
CLASS
  1
LAYOUT
  2
AcDbLayout
  3
AutoCAD 2000
 90
        0
280
     0
281
     0
  0
CLASS
  1
DICTIONARYVAR
  2
AcDbDictionaryVar
  3
AutoCAD 2000
 90
        0
280
     0
281
     0
  0
CLASS
  1
IMAGEDEF
  2
AcDbRasterImageDef
  3
ISM
 90
        0
280
     0
281
     0
  0
CLASS
  1
LONG_TRANSACTION
  2
AcDbLongTransaction
  3
AutoCAD 2000
 90
        0
280
     0
281
     0
  0
CLASS
  1
LWPOLYLINE
  2
AcDbPolyline
  3
AutoCAD 2000
 90
        0
280
     0
281
     1
  0
CLASS
  1
HATCH
  2
AcDbHatch
  3
AutoCAD 2000
 90
        0
280
     0
281
     1
  0
CLASS
  1
XRECORD
  2
AcDbXrecord
  3
AutoCAD 2000
 90
        0
280
     0
281
     0
  0
CLASS
  1
LONG_TRANSACTION
  2
AcDbLongTransaction
  3
AutoCAD 2000
 90
        0
280
     0
281
     0
  0
CLASS
  1
LWPOLYLINE
  2
AcDbPolyline
  3
AutoCAD 2000
 90
        0
280
     0
281
     1
  0
CLASS
  1
HATCH
  2
AcDbHatch
  3
AutoCAD 2000
 90
        0
280
     0
281
     1
  0
CLASS
  1
XRECORD
  2
AcDbXrecord
  3
AutoCAD 2000
 90
        0
280
     0
281
     0
  0
CLASS
  1
LONG_TRANSACTION
  2
AcDbLongTransaction
  3
AutoCAD 2000
 90
        0
280
     0
281
     0
  0
CLASS
  1
LWPOLYLINE
  2
AcDbPolyline
  3
AutoCAD 2000
 90
        0
280
     0
281
     1
  0
CLASS
  1
HATCH
  2
AcDbHatch
  3
AutoCAD 2000
 90
        0
280
     0
281
     1
  0
CLASS
  1
XRECORD
  2
AcDbXrecord
  3
AutoCAD 2000
 90
        0
280
     0
281
     0
  0
ENDSEC
  0
SECTION
  2
TABLES
  0
TABLE
  2
VPORT
  5
1D
330
0
100
AcDbSymbolTable
 70
     3
  0
VPORT
  5
1D2
330
1D
100
AcDbSymbolTableRecord
100
AcDbViewportTableRecord
  2
*ACTIVE
 70
     0
 10
0.0
 20
0.0
 11
1.0
 21
1.0
 12
181.3016594042682
 22
-11.85133129596703
 13
0.0
 23
0.0
 14
10.0
 24
10.0
 15
10.0
 25
10.0
 16
0.0
 26
0.0
 36
1.0
 17
0.0
 27
0.0
 37
0.0
 40
32.2785544323937
 41
1.786792452830188
 42
50.0
 43
0.0
 44
0.0
 50
0.0
 51
0.0
 71
     0
 72
   100
 73
     1
 74
     3
 75
     0
 76
     0
 77
     0
 78
     1
  0
ENDTAB
  0
TABLE
  2
LTYPE
  5
18
330
0
100
AcDbSymbolTable
 70
     3
  0
LTYPE
  5
19
330
18
100
AcDbSymbolTableRecord
100
AcDbLinetypeTableRecord
  2
BYBLOCK
 70
     0
  3

 72
    65
 73
     0
 40
0.0
  0
LTYPE
  5
1A
330
18
100
AcDbSymbolTableRecord
100
AcDbLinetypeTableRecord
  2
BYLAYER
 70
     0
  3

 72
    65
 73
     0
 40
0.0
  0
LTYPE
  5
8
330
18
100
AcDbSymbolTableRecord
100
AcDbLinetypeTableRecord
  2
CONTINUOUS
 70
     0
  3
Solid line
 72
    65
 73
     0
 40
0.0
  0
LTYPE
  5
33
330
18
100
AcDbSymbolTableRecord
100
AcDbLinetypeTableRecord
  2
CENTER
 70
     0
  3
Center ____ _ ____ _ ____ _ ____ _ ____ _ ____
 72
    65
 73
     4
 40
50.8
 49
31.75
 74
     0
 49
-6.349999999999999
 74
     0
 49
6.349999999999999
 74
     0
 49
-6.349999999999999
 74
     0
  0
LTYPE
  5
2E
330
18
100
AcDbSymbolTableRecord
100
AcDbLinetypeTableRecord
  2
HIDDEN
 70
     0
  3
Hidden __ __ __ __ __ __ __ __ __ __ __ __ __ _
 72
    65
 73
     2
 40
9.524999999999998
 49
6.349999999999999
 74
     0
 49
-3.174999999999999
 74
     0
  0
ENDTAB
  0
TABLE
  2
LAYER
  5
10
102
{ACAD_XDICTIONARY
360
11
102
}
330
0
100
AcDbSymbolTable
 70
     3
  0
LAYER
  5
4
330
10
100
AcDbSymbolTableRecord
100
AcDbLayerTableRecord
  2
0
 70
     0
 62
     7
  6
CONTINUOUS
  0
LAYER
  5
32
330
10
100
AcDbSymbolTableRecord
100
AcDbLayerTableRecord
  2
CENTER
 70
     0
 62
     1
  6
CENTER
  0
LAYER
  5
152
330
10
100
AcDbSymbolTableRecord
100
AcDbLayerTableRecord
  2
DEFPOINTS
 70
     0
 62
     7
  6
CONTINUOUS
  0
ENDTAB
  0
TABLE
  2
STYLE
  5
15
330
0
100
AcDbSymbolTable
 70
     3
  0
STYLE
  5
16
330
15
100
AcDbSymbolTableRecord
100
AcDbTextStyleTableRecord
  2
STANDARD
 70
     0
 40
0.0
 41
1.0
 50
0.0
 71
     0
 42
0.125
  3
txt
  4

  0
STYLE
  5
2B
330
15
100
AcDbSymbolTableRecord
100
AcDbTextStyleTableRecord
  2
CARTOUCHE
 70
     0
 40
0.0
 41
1.0
 50
0.0
 71
     0
 42
0.15
  3
romans.shx
  4

  0
STYLE
  5
23
330
15
100
AcDbSymbolTableRecord
100
AcDbTextStyleTableRecord
  2
ROMANS
 70
     0
 40
0.0
 41
1.0
 50
0.0
 71
     0
 42
1.0
  3
romans.shx
  4

  0
ENDTAB
  0
TABLE
  2
VIEW
  5
1B
330
0
100
AcDbSymbolTable
 70
     0
  0
ENDTAB
  0
TABLE
  2
UCS
  5
1C
330
0
100
AcDbSymbolTable
 70
     0
  0
ENDTAB
  0
TABLE
  2
APPID
  5
1F
330
0
100
AcDbSymbolTable
 70
     1
  0
APPID
  5
20
330
1F
100
AcDbSymbolTableRecord
100
AcDbRegAppTableRecord
  2
ACAD
 70
     0
  0
ENDTAB
  0
TABLE
  2
DIMSTYLE
  5
21
330
0
100
AcDbSymbolTable
 70
     1
  0
DIMSTYLE
105
22
330
21
100
AcDbSymbolTableRecord
100
AcDbDimStyleTableRecord
  2
STANDARD
 70
     0
  3
\X
  4
cm
  5

  6

  7

 40
16.0
 41
0.1
 42
0.0625
 43
0.25
 44
0.1
 45
0.0
 46
0.0
 47
0.0
 48
0.0
140
0.1
141
0.0625
142
0.0
143
2.54
144
1.0
145
0.0
146
1.0
147
0.08
 71
     0
 72
     0
 73
     1
 74
     1
 75
     0
 76
     0
 77
     0
 78
    12
170
     1
171
     1
172
     0
173
     0
174
     0
175
     0
176
     0
177
     0
178
     0
270
     5
271
     3
272
     3
273
     2
274
     1
340
23
275
     0
280
     0
281
     0
282
     0
283
     1
284
     4
285
    12
286
     4
287
     3
288
     0
  0
ENDTAB
  0
TABLE
  2
BLOCK_RECORD
  5
1
330
0
100
AcDbSymbolTable
 70
     2
  0
BLOCK_RECORD
  5
2
102
{ACAD_XDICTIONARY
360
B5
102
}
330
1
100
AcDbSymbolTableRecord
100
AcDbBlockTableRecord
  2
*MODEL_SPACE
  0
BLOCK_RECORD
  5
AA
102
{ACAD_XDICTIONARY
360
B7
102
}
330
1
100
AcDbSymbolTableRecord
100
AcDbBlockTableRecord
  2
*PAPER_SPACE
  0
ENDTAB
  0
ENDSEC
  0
SECTION
  2
BLOCKS
  0
BLOCK
  5
3
330
2
100
AcDbEntity
  8
0
100
AcDbBlockBegin
  2
*MODEL_SPACE
 70
     0
 10
0.0
 20
0.0
 30
0.0
  3
*MODEL_SPACE
  1

  0
ENDBLK
  5
9
330
2
100
AcDbEntity
  8
0
100
AcDbBlockEnd
  0
BLOCK
  5
AC
330
AA
100
AcDbEntity
 67
     1
  8
0
100
AcDbBlockBegin
  2
*PAPER_SPACE
 70
     0
 10
0.0
 20
0.0
 30
0.0
  3
*PAPER_SPACE
  1

  0
ENDBLK
  5
AD
330
AA
100
AcDbEntity
 67
     1
  8
0
100
AcDbBlockEnd
  0
ENDSEC
  0
SECTION
  2
ENTITIES
  0
LINE
  5
31
330
2
100
AcDbEntity
  8
CENTER
 48
0.05
100
AcDbLine
 10
181.2995052390649
 20
-8.644947539896342
 30
0.0
 11
181.2995052390649
 21
-3.387233962299553
 31
0.0
  0
SPLINE
  5
35
330
2
100
AcDbEntity
  8
0
  6
HIDDEN
 62
     8
 48
0.05
100
AcDbSpline
210
0.0
220
0.0
230
1.0
 70
     8
 71
     3
 72
    11
 73
     7
 74
     0
 42
0.0000000001
 43
0.0000000001
 40
0.0
 40
0.0
 40
0.0
 40
0.0
 40
0.6067526543165347
 40
3.252748487967018
 40
4.780658771150382
 40
5.860057725336693
 40
5.860057725336693
 40
5.860057725336693
 40
5.860057725336693
 10
167.7997210638624
 20
-8.501301624699664
 30
0.0
 10
167.8106746779743
 20
-8.044444420123852
 30
0.0
 10
169.377627439217
 20
-7.737519718589936
 30
0.0
 10
169.9063581524237
 20
-7.601675155402602
 30
0.0
 10
170.5859897004728
 20
-7.202669528059857
 30
0.0
 10
170.8037923369135
 20
-7.013991080770068
 30
0.0
 10
171.0373445157018
 20
-6.811669092500949
 30
0.0
  0
SPLINE
  5
36
330
2
100
AcDbEntity
  8
0
  6
HIDDEN
 62
     8
 48
0.05
100
AcDbSpline
210
0.0
220
0.0
230
1.0
 70
     8
 71
     3
 72
    32
 73
    28
 74
     0
 42
0.0000000001
 43
0.0000000001
 40
0.0
 40
0.0
 40
0.0
 40
0.0
 40
0.1612988272543786
 40
0.1612988272543786
 40
0.3225976545087572
 40
0.3225976545087572
 40
0.4838964817631358
 40
0.4838964817631358
 40
0.6193821705399725
 40
0.6193821705399725
 40
0.7548678593168092
 40
0.7548678593168092
 40
1.025839236870482
 40
1.025839236870482
 40
1.567781991977828
 40
1.567781991977828
 40
2.651667502192522
 40
2.651667502192522
 40
3.328440103566572
 40
3.328440103566572
 40
4.005212704940622
 40
4.005212704940622
 40
4.617049725053712
 40
4.617049725053712
 40
5.840723765279894
 40
5.840723765279894
 40
5.860057725336693
 40
5.860057725336693
 40
5.860057725336693
 40
5.860057725336693
 10
167.3134030606758
 20
-8.076968221040857
 30
0.0
 10
167.5088347981743
 20
-8.084335117360893
 30
0.0
 10
167.5681401512635
 20
-8.014598571561094
 30
0.0
 10
167.6460622474716
 20
-7.964915415705405
 30
0.0
 10
167.7517311026313
 20
-7.874767005994755
 30
0.0
 10
167.9001279064986
 20
-7.800631175645065
 30
0.0
 10
168.0511541239358
 20
-7.75281185042445
 30
0.0
 10
168.2023112319396
 20
-7.711822378753737
 30
0.0
 10
168.2646469998328
 20
-7.700138222687229
 30
0.0
 10
168.375386380967
 20
-7.67809248318062
 30
0.0
 10
168.4286517350736
 20
-7.667443118567405
 30
0.0
 10
168.5824569465594
 20
-7.636529097282334
 30
0.0
 10
168.6770067194796
 20
-7.61729822407301
 30
0.0
 10
168.939246553654
 20
-7.563058189417205
 30
0.0
 10
169.0855360442543
 20
-7.531493548880149
 30
0.0
 10
169.4588041996409
 20
-7.445344475727694
 30
0.0
 10
169.6187045285719
 20
-7.399615107399057
 30
0.0
 10
169.8306911084535
 20
-7.321391321944588
 30
0.0
 10
169.9022528012223
 20
-7.289920807274995
 30
0.0
 10
170.0567961304593
 20
-7.214307778448699
 30
0.0
 10
170.1364589337663
 20
-7.171439385897713
 30
0.0
 10
170.2824255001396
 20
-7.085898334611385
 30
0.0
 10
170.3493169558218
 20
-7.043576155657007
 30
0.0
 10
170.5307423847029
 20
-6.918994545586173
 30
0.0
 10
170.6023414643647
 20
-6.85773746209324
 30
0.0
 10
170.8653335492046
 20
-6.629918181571866
 30
0.0
 10
170.8694700853822
 20
-6.626334775816019
 30
0.0
 10
170.8736534213752
 20
-6.622710828224967
 30
0.0
  0
LINE
  5
37
330
2
100
AcDbEntity
  8
0
100
AcDbLine
 10
167.1040072810012
 20
-3.951781585869127
 30
0.0
 11
169.3051739848563
 21
-18.34599408344209
 31
0.0
  0
LINE
  5
38
330
2
100
AcDbEntity
  8
0
 48
0.1
100
AcDbLine
 10
164.7961412608361
 20
-3.951781585869127
 30
0.0
 11
165.3620636849286
 21
-7.652549735443329
 31
0.0
  0
ARC
  5
39
330
2
100
AcDbEntity
  8
0
 48
0.1
100
AcDbCircle
 10
174.9408328192584
 20
-21.45178158586916
 30
0.0
 40
0.5
100
AcDbArc
 50
270.0
 51
348.4701659727361
  0
LINE
  5
3A
330
2
100
AcDbEntity
  8
0
 48
0.1
100
AcDbLine
 10
181.2995052390649
 20
-20.97032155877616
 30
0.0
 11
172.2445209165163
 21
-20.89239076621973
 31
0.0
  0
LINE
  5
3B
330
2
100
AcDbEntity
  8
0
 48
0.1
100
AcDbLine
 10
173.4509224390091
 20
-21.55172066393169
 30
0.0
 11
173.2042348975844
 21
-20.90076606324945
 31
0.0
  0
ARC
  5
3C
330
2
100
AcDbEntity
  8
0
 48
0.1
100
AcDbCircle
 10
172.2707005230114
 20
-17.89250499702723
 30
0.0
 40
3.0
100
AcDbArc
 50
188.6943317863789
 51
269.4999999999999
  0
LINE
  5
3D
330
2
100
AcDbEntity
  8
0
100
AcDbLine
 10
173.9408328192584
 20
-21.95178158586912
 30
0.0
 11
174.9408328192584
 21
-21.95178158586912
 31
0.0
  0
ARC
  5
3E
330
2
100
AcDbEntity
  8
0
 48
0.1
100
AcDbCircle
 10
173.9408328192584
 20
-21.45178158586916
 30
0.0
 40
0.5
100
AcDbArc
 50
191.5298340272638
 51
270.0
  0
ARC
  5
3F
330
2
100
AcDbEntity
  8
0
100
AcDbCircle
 10
167.3031997164571
 20
-8.579527997791958
 30
0.0
 40
0.5026458135470337
100
AcDbArc
 50
8.953290438975752
 51
89.88831987728563
  0
ARC
  5
40
330
2
100
AcDbEntity
  8
0
 48
0.1
100
AcDbCircle
 10
165.8563181079545
 20
-7.576968221040858
 30
0.0
 40
0.5
100
AcDbArc
 50
188.694331786379
 51
270.0
  0
LINE
  5
41
330
2
100
AcDbEntity
  8
0
 48
0.1
100
AcDbLine
 10
167.3134030606758
 20
-8.076968221040857
 30
0.0
 11
165.8563181079545
 21
-8.076968221040857
 31
0.0
  0
LINE
  5
45
330
2
100
AcDbEntity
  8
0
 48
0.1
100
AcDbLine
 10
179.8877904314561
 20
-21.27642165870875
 30
0.0
 11
179.7858017956439
 21
-20.957111668951
 31
0.0
  0
LINE
  5
46
330
2
100
AcDbEntity
  8
0
 48
0.1
100
AcDbLine
 10
182.7112200466737
 20
-21.27642165870875
 30
0.0
 11
182.8132086824858
 21
-20.957111668951
 31
0.0
  0
LINE
  5
47
330
2
100
AcDbEntity
  8
CENTER
 48
0.05
100
AcDbLine
 10
181.2995052390649
 20
-24.11777664144008
 30
0.0
 11
181.2995052390649
 21
-18.78293667915355
 31
0.0
  0
LINE
  5
49
330
2
100
AcDbEntity
  8
0
 48
0.1
100
AcDbLine
 10
175.4307431995077
 20
-21.55172066393169
 30
0.0
 11
175.6692784530071
 21
-20.92227817245608
 31
0.0
  0
LINE
  5
4A
330
2
100
AcDbEntity
  8
0
 48
0.1
100
AcDbLine
 10
182.4730727896738
 20
-21.45035666029682
 30
0.0
 11
180.125937688456
 21
-21.45035666029682
 31
0.0
  0
ARC
  5
4B
330
2
100
AcDbEntity
  8
0
 48
0.1
100
AcDbCircle
 10
180.7995052390649
 20
-21.45178158586916
 30
0.0
 40
0.5
100
AcDbArc
 50
209.9798492307297
 51
270.0
  0
LINE
  5
4C
330
2
100
AcDbEntity
  8
0
 48
0.1
100
AcDbLine
 10
180.3558175334154
 20
-21.67369221755285
 30
0.0
 11
180.2711816778972
 21
-21.45035666029682
 31
0.0
  0
ARC
  5
4D
330
2
100
AcDbEntity
  8
0
 48
0.1
100
AcDbCircle
 10
180.125937688456
 20
-21.20035666029685
 30
0.0
 40
0.25
100
AcDbArc
 50
197.7136489003373
 51
270.0
  0
LINE
  5
4E
330
2
100
AcDbEntity
  8
0
 48
0.1
100
AcDbLine
 10
180.3664046396367
 20
-21.7016292810255
 30
0.0
 11
180.3558175334154
 21
-21.67369221755285
 31
0.0
  0
LINE
  5
4F
330
2
100
AcDbEntity
  8
0
 48
0.1
100
AcDbLine
 10
180.3664046396367
 20
-21.7016292810255
 30
0.0
 11
180.3558175334154
 21
-21.67369221755285
 31
0.0
  0
LINE
  5
50
330
2
100
AcDbEntity
  8
0
100
AcDbLine
 10
180.7995052390649
 20
-21.95178158586912
 30
0.0
 11
181.7995052390649
 21
-21.95178158586912
 31
0.0
  0
LINE
  5
51
330
2
100
AcDbEntity
  8
0
100
AcDbLine
 10
181.7995052390649
 20
-21.95178158586912
 30
0.0
 11
180.7995052390649
 21
-21.95178158586912
 31
0.0
  0
LINE
  5
52
330
2
100
AcDbEntity
  8
0
 48
0.1
100
AcDbLine
 10
182.2326058384931
 20
-21.7016292810255
 30
0.0
 11
182.2431929447145
 21
-21.67369221755285
 31
0.0
  0
ARC
  5
53
330
2
100
AcDbEntity
  8
0
100
AcDbCircle
 10
181.7995052390649
 20
-21.45178158586916
 30
0.0
 40
0.5
100
AcDbArc
 50
270.0
 51
330.0201507692701
  0
ARC
  5
54
330
2
100
AcDbEntity
  8
0
 48
0.1
100
AcDbCircle
 10
182.4730727896738
 20
-21.20035666029685
 30
0.0
 40
0.25
100
AcDbArc
 50
270.0
 51
342.2863510996626
  0
LINE
  5
55
330
2
100
AcDbEntity
  8
0
 48
0.1
100
AcDbLine
 10
182.2431929447145
 20
-21.67369221755285
 30
0.0
 11
182.3278288002326
 21
-21.45035666029682
 31
0.0
  0
LINE
  5
59
330
2
100
AcDbEntity
  8
0
 48
0.1
100
AcDbLine
 10
181.2995052390649
 20
-20.97032155877616
 30
0.0
 11
190.2294895616135
 21
-20.89239076621973
 31
0.0
  0
LINE
  5
5D
330
2
100
AcDbEntity
  8
0
 48
0.1
100
AcDbLine
 10
199.7370052390649
 20
-2.576781585869128
 30
0.0
 11
162.8620052390649
 21
-2.576781585869127
 31
0.0
  0
LINE
  5
5E
330
2
100
AcDbEntity
  8
0
 48
0.1
100
AcDbLine
 10
200.2370052390649
 20
-3.951781585869127
 30
0.0
 11
162.3620052390649
 21
-3.951781585869127
 31
0.0
  0
LINE
  5
5F
330
2
100
AcDbEntity
  8
0
  6
HIDDEN
 62
     8
 48
0.05
100
AcDbLine
 10
164.6507780894118
 20
-3.001200071466627
 30
0.0
 11
197.823232388718
 21
-3.001200071466627
 31
0.0
  0
LINE
  5
60
330
2
100
AcDbEntity
  8
0
100
AcDbLine
 10
173.7563415265319
 20
0.4243815357436063
 30
0.0
 11
188.7192645218781
 21
0.4243815356874734
 31
0.0
  0
LINE
  5
63
330
2
100
AcDbEntity
  8
0
  6
HIDDEN
 62
     8
 48
0.05
100
AcDbLine
 10
168.0129540748651
 20
-3.764645416613092
 30
0.0
 11
164.7675243493571
 21
-3.764645416613092
 31
0.0
  0
ARC
  5
66
330
2
100
AcDbEntity
  8
0
100
AcDbCircle
 10
162.8620052390649
 20
-3.076781585869128
 30
0.0
 40
0.5
100
AcDbArc
 50
89.99999999999998
 51
180.0
  0
LINE
  5
67
330
2
100
AcDbEntity
  8
0
100
AcDbLine
 10
162.3620052390649
 20
-3.076781585869127
 30
0.0
 11
162.3620052390649
 21
-3.951781585869127
 31
0.0
  0
ARC
  5
68
330
2
100
AcDbEntity
  8
0
  6
HIDDEN
 62
     8
 48
0.05
100
AcDbCircle
 10
164.7263596038143
 20
-2.506945648440791
 30
0.0
 40
0.5
100
AcDbArc
 50
188.0288595107268
 51
261.30566821362
  0
LINE
  5
69
330
2
100
AcDbEntity
  8
0
  6
HIDDEN
 62
     8
 48
0.05
100
AcDbLine
 10
164.7961412608361
 20
-3.951781585869127
 30
0.0
 11
164.6507780894118
 21
-3.001200071466627
 31
0.0
  0
SPLINE
  5
6A
330
2
100
AcDbEntity
  8
0
100
AcDbSpline
210
0.0
220
0.0
230
1.0
 70
     8
 71
     3
 72
    11
 73
     7
 74
     0
 42
0.0000000001
 43
0.0000000001
 40
0.0
 40
0.0
 40
0.0
 40
0.0
 40
1.271056318457386
 40
2.088250163782618
 40
2.621057433787941
 40
4.81804140552245
 40
4.81804140552245
 40
4.81804140552245
 40
4.81804140552245
 10
172.4739805868059
 20
-2.576781585869127
 30
0.0
 10
172.5431957891135
 20
-2.159053921488549
 30
0.0
 10
172.6569111732836
 20
-0.3412375088174429
 30
0.0
 10
173.2487176388278
 20
0.4236081500162073
 30
0.0
 10
174.5343369600104
 20
0.4686833630430556
 30
0.0
 10
175.0266783489998
 20
-1.792299602716212
 30
0.0
 10
175.0996412662011
 20
-2.576781585869127
 30
0.0
  0
ARC
  5
6D
330
2
100
AcDbEntity
  8
0
  6
HIDDEN
 62
     8
 48
0.05
100
AcDbCircle
 10
168.012954074865
 20
-4.264645416613121
 30
0.0
 40
0.5
100
AcDbArc
 50
13.85544216190468
 51
89.99999999999998
  0
ARC
  5
73
330
2
100
AcDbEntity
  8
0
  6
HIDDEN
 62
     8
 48
0.05
100
AcDbCircle
 10
167.762454074865
 20
-4.514645416613121
 30
0.0
 40
0.375
100
AcDbArc
 50
180.0000000000002
 51
270.0
  0
LINE
  5
74
330
2
100
AcDbEntity
  8
0
  6
HIDDEN
 62
     8
 48
0.05
100
AcDbLine
 10
168.0129540748651
 20
-4.889645416613092
 30
0.0
 11
164.9395596407809
 21
-4.889645416613092
 31
0.0
  0
ARC
  5
78
330
2
100
AcDbEntity
  8
0
  6
HIDDEN
 62
     8
 48
0.05
100
AcDbCircle
 10
168.012954074865
 20
-4.389645416613121
 30
0.0
 40
0.5
100
AcDbArc
 50
270.0
 51
345.5224878140696
  0
ARC
  5
7A
330
2
100
AcDbEntity
  8
0
  6
HIDDEN
 62
     8
 48
0.05
100
AcDbCircle
 10
167.762454074865
 20
-4.139645416613121
 30
0.0
 40
0.375
100
AcDbArc
 50
89.99999999999998
 51
179.9999999999996
  0
ARC
  5
7B
330
2
100
AcDbEntity
  8
0
  6
HIDDEN
 62
     8
 48
0.05
100
AcDbCircle
 10
167.0342256239794
 20
-2.506945648440792
 30
0.0
 40
0.5
100
AcDbArc
 50
188.0288595107268
 51
261.30566821362
  0
LINE
  5
7C
330
2
100
AcDbEntity
  8
0
  6
HIDDEN
 62
     8
 48
0.05
100
AcDbLine
 10
167.1040072810012
 20
-3.951781585869127
 30
0.0
 11
166.9586441095769
 21
-3.001200071466627
 31
0.0
  0
LINE
  5
7D
330
2
100
AcDbEntity
  8
0
  6
HIDDEN
 62
     8
 48
0.05
100
AcDbLine
 10
174.7019532125631
 20
-3.306324616536329
 30
0.0
 11
170.8736534213752
 21
-6.622710828224967
 31
0.0
  0
LINE
  5
7E
330
2
100
AcDbEntity
  8
0
  6
HIDDEN
 62
     8
 48
0.05
100
AcDbLine
 10
174.8656443068896
 20
-3.495282880812311
 30
0.0
 11
171.0372935427434
 21
-6.811713249444096
 31
0.0
  0
SPLINE
  5
7F
330
2
100
AcDbEntity
  8
0
  6
HIDDEN
 62
     8
 48
0.05
100
AcDbSpline
210
0.0
220
0.0
230
1.0
 70
     8
 71
     3
 72
     9
 73
     5
 74
     0
 42
0.0000000001
 43
0.0000000001
 40
4.81804140552245
 40
4.81804140552245
 40
4.81804140552245
 40
4.81804140552245
 40
6.231255132479361
 40
9.120029070635842
 40
9.120029070635842
 40
9.120029070635842
 40
9.120029070635842
 10
175.0996412662011
 20
-2.576781585869127
 30
0.0
 10
175.1465747884636
 20
-3.081400973814311
 30
0.0
 10
175.0808214134801
 20
-3.258468773717794
 30
0.0
 10
174.9989160393718
 20
-3.380628611781247
 30
0.0
 10
174.8656443068896
 20
-3.495282880812311
 30
0.0
  0
SPLINE
  5
80
330
2
100
AcDbEntity
  8
0
  6
HIDDEN
 62
     8
 48
0.05
100
AcDbSpline
210
0.0
220
0.0
230
1.0
 70
     8
 71
     3
 72
    10
 73
     6
 74
     0
 42
0.0000000001
 43
0.0000000001
 40
0.0
 40
0.0
 40
0.0
 40
0.0
 40
0.6066168727469559
 40
0.7517307210059743
 40
1.2959753443345
 40
1.2959753443345
 40
1.2959753443345
 40
1.2959753443345
 10
174.0594432761176
 20
-2.576781585869127
 30
0.0
 10
174.2606978763431
 20
-2.596369857003082
 30
0.0
 10
174.5730852977409
 20
-2.530162085408875
 30
0.0
 10
174.8278580279598
 20
-2.913124199035223
 30
0.0
 10
174.8493915159236
 20
-3.158484593588553
 30
0.0
 10
174.7019532125631
 20
-3.306324616536329
 30
0.0
  0
CIRCLE
  5
85
330
2
100
AcDbEntity
  8
0
 48
0.1
100
AcDbCircle
 10
181.2995052390649
 20
-6.016090751097951
 30
0.0
 40
1.1875
  0
LINE
  5
86
330
2
100
AcDbEntity
  8
CENTER
 48
0.05
100
AcDbLine
 10
178.4931325681045
 20
-6.016090751097948
 30
0.0
 11
184.1058779100254
 21
-6.016090751097948
 31
0.0
  0
LINE
  5
168
330
2
100
AcDbEntity
  8
0
100
AcDbLine
 10
200.2370052390649
 20
-3.076781585869128
 30
0.0
 11
200.2370052390649
 21
-3.951781585869128
 31
0.0
  0
ARC
  5
169
330
2
100
AcDbEntity
  8
0
100
AcDbCircle
 10
199.7370052390649
 20
-3.076781585869128
 30
0.0
 40
0.5
100
AcDbArc
 50
0.000000000000007
 51
90.00000000000003
  0
ARC
  5
16A
330
2
100
AcDbEntity
  8
0
 48
0.1
100
AcDbCircle
 10
190.3283099551184
 20
-17.89250499702723
 30
0.0
 40
3.0
100
AcDbArc
 50
270.5
 51
351.3056682136209
  0
LINE
  5
16B
330
2
100
AcDbEntity
  8
0
100
AcDbLine
 10
188.6581776588714
 20
-21.95178158586912
 30
0.0
 11
187.6581776588714
 21
-21.95178158586912
 31
0.0
  0
LINE
  5
16C
330
2
100
AcDbEntity
  8
0
 48
0.1
100
AcDbLine
 10
189.1480880391207
 20
-21.55172066393169
 30
0.0
 11
189.3947755805454
 21
-20.90076606324945
 31
0.0
  0
ARC
  5
16D
330
2
100
AcDbEntity
  8
0
 48
0.1
100
AcDbCircle
 10
188.6581776588714
 20
-21.45178158586916
 30
0.0
 40
0.5
100
AcDbArc
 50
270.0
 51
348.4701659727361
  0
ARC
  5
16E
330
2
100
AcDbEntity
  8
0
 48
0.1
100
AcDbCircle
 10
187.6581776588714
 20
-21.45178158586916
 30
0.0
 40
0.5
100
AcDbArc
 50
191.5298340272638
 51
270.0
  0
LINE
  5
16F
330
2
100
AcDbEntity
  8
0
 48
0.1
100
AcDbLine
 10
187.1682672786221
 20
-21.55172066393169
 30
0.0
 11
186.9297320251227
 21
-20.92227817245608
 31
0.0
  0
SPLINE
  5
170
330
2
100
AcDbEntity
  8
0
  6
HIDDEN
 62
     8
 48
0.05
100
AcDbSpline
210
0.0
220
0.0
230
1.0
 70
     8
 71
     3
 72
    32
 73
    28
 74
     0
 42
0.0000000001
 43
0.0000000001
 40
0.0
 40
0.0
 40
0.0
 40
0.0
 40
0.1612988272543786
 40
0.1612988272543786
 40
0.3225976545087572
 40
0.3225976545087572
 40
0.4838964817631358
 40
0.4838964817631358
 40
0.6193821705399725
 40
0.6193821705399725
 40
0.7548678593168092
 40
0.7548678593168092
 40
1.025839236870482
 40
1.025839236870482
 40
1.567781991977828
 40
1.567781991977828
 40
2.651667502192522
 40
2.651667502192522
 40
3.328440103566572
 40
3.328440103566572
 40
4.005212704940622
 40
4.005212704940622
 40
4.617049725053712
 40
4.617049725053712
 40
5.840723765279894
 40
5.840723765279894
 40
5.860057725336693
 40
5.860057725336693
 40
5.860057725336693
 40
5.860057725336693
 10
195.285607417454
 20
-8.076968221040857
 30
0.0
 10
195.0901756799554
 20
-8.084335117360893
 30
0.0
 10
195.0308703268663
 20
-8.014598571561094
 30
0.0
 10
194.9529482306582
 20
-7.964915415705405
 30
0.0
 10
194.8472793754985
 20
-7.874767005994755
 30
0.0
 10
194.6988825716312
 20
-7.800631175645065
 30
0.0
 10
194.547856354194
 20
-7.75281185042445
 30
0.0
 10
194.3966992461902
 20
-7.711822378753737
 30
0.0
 10
194.334363478297
 20
-7.700138222687229
 30
0.0
 10
194.2236240971629
 20
-7.67809248318062
 30
0.0
 10
194.1703587430562
 20
-7.667443118567405
 30
0.0
 10
194.0165535315704
 20
-7.636529097282334
 30
0.0
 10
193.9220037586502
 20
-7.61729822407301
 30
0.0
 10
193.6597639244758
 20
-7.563058189417205
 30
0.0
 10
193.5134744338755
 20
-7.531493548880149
 30
0.0
 10
193.140206278489
 20
-7.445344475727694
 30
0.0
 10
192.980305949558
 20
-7.399615107399057
 30
0.0
 10
192.7683193696763
 20
-7.321391321944588
 30
0.0
 10
192.6967576769076
 20
-7.289920807274995
 30
0.0
 10
192.5422143476705
 20
-7.214307778448699
 30
0.0
 10
192.4625515443635
 20
-7.171439385897713
 30
0.0
 10
192.3165849779902
 20
-7.085898334611385
 30
0.0
 10
192.2496935223081
 20
-7.043576155657007
 30
0.0
 10
192.0682680934269
 20
-6.918994545586173
 30
0.0
 10
191.996669013765
 20
-6.85773746209324
 30
0.0
 10
191.7336769289252
 20
-6.629918181571866
 30
0.0
 10
191.7295403927476
 20
-6.626334775816019
 30
0.0
 10
191.7253570567546
 20
-6.622710828224967
 30
0.0
  0
LINE
  5
171
330
2
100
AcDbEntity
  8
0
  6
HIDDEN
 62
     8
 48
0.05
100
AcDbLine
 10
187.7333661712402
 20
-3.495282880812311
 30
0.0
 11
191.5617169353864
 21
-6.811713249444096
 31
0.0
  0
LINE
  5
172
330
2
100
AcDbEntity
  8
0
100
AcDbLine
 10
195.4950031971287
 20
-3.951781585869127
 30
0.0
 11
193.2938364932736
 21
-18.34599408344209
 31
0.0
  0
LINE
  5
173
330
2
100
AcDbEntity
  8
0
 48
0.1
100
AcDbLine
 10
197.8028692172937
 20
-3.951781585869127
 30
0.0
 11
197.2369467932012
 21
-7.652549735443329
 31
0.0
  0
SPLINE
  5
174
330
2
100
AcDbEntity
  8
0
  6
HIDDEN
 62
     8
 48
0.05
100
AcDbSpline
210
0.0
220
0.0
230
1.0
 70
     8
 71
     3
 72
    11
 73
     7
 74
     0
 42
0.0000000001
 43
0.0000000001
 40
0.0
 40
0.0
 40
0.0
 40
0.0
 40
0.6067526543165347
 40
3.252748487967018
 40
4.780658771150382
 40
5.860057725336693
 40
5.860057725336693
 40
5.860057725336693
 40
5.860057725336693
 10
194.7992894142674
 20
-8.501301624699664
 30
0.0
 10
194.7883358001556
 20
-8.044444420123852
 30
0.0
 10
193.2213830389128
 20
-7.737519718589936
 30
0.0
 10
192.6926523257062
 20
-7.601675155402602
 30
0.0
 10
192.013020777657
 20
-7.202669528059857
 30
0.0
 10
191.7952181412164
 20
-7.013991080770068
 30
0.0
 10
191.561665962428
 20
-6.811669092500949
 30
0.0
  0
LINE
  5
175
330
2
100
AcDbEntity
  8
0
 48
0.1
100
AcDbLine
 10
195.285607417454
 20
-8.076968221040857
 30
0.0
 11
196.7426923701753
 21
-8.076968221040857
 31
0.0
  0
ARC
  5
176
330
2
100
AcDbEntity
  8
0
 48
0.1
100
AcDbCircle
 10
196.7426923701753
 20
-7.576968221040858
 30
0.0
 40
0.5
100
AcDbArc
 50
270.0
 51
351.3056682136209
  0
ARC
  5
177
330
2
100
AcDbEntity
  8
0
100
AcDbCircle
 10
195.2958107616727
 20
-8.579527997791958
 30
0.0
 40
0.5026458135470337
100
AcDbArc
 50
90.11168012271438
 51
171.0467095610242
  0
ARC
  5
178
330
2
100
AcDbEntity
  8
0
  6
HIDDEN
 62
     8
 48
0.05
100
AcDbCircle
 10
195.5647848541504
 20
-2.506945648440792
 30
0.0
 40
0.5
100
AcDbArc
 50
278.6943317863799
 51
351.9711404892731
  0
LINE
  5
179
330
2
100
AcDbEntity
  8
0
  6
HIDDEN
 62
     8
 48
0.05
100
AcDbLine
 10
194.5860564032648
 20
-3.764645416613092
 30
0.0
 11
197.8314861287728
 21
-3.764645416613092
 31
0.0
  0
LINE
  5
17A
330
2
100
AcDbEntity
  8
0
  6
HIDDEN
 62
     8
 48
0.05
100
AcDbLine
 10
194.5860564032648
 20
-4.889645416613092
 30
0.0
 11
197.6594508373489
 21
-4.889645416613092
 31
0.0
  0
LINE
  5
17B
330
2
100
AcDbEntity
  8
0
  6
HIDDEN
 62
     8
 48
0.05
100
AcDbLine
 10
197.8028692172937
 20
-3.951781585869127
 30
0.0
 11
197.948232388718
 21
-3.001200071466627
 31
0.0
  0
ARC
  5
17C
330
2
100
AcDbEntity
  8
0
  6
HIDDEN
 62
     8
 48
0.05
100
AcDbCircle
 10
197.8726508743155
 20
-2.506945648440791
 30
0.0
 40
0.5
100
AcDbArc
 50
278.6943317863799
 51
351.9711404892731
  0
LINE
  5
17D
330
2
100
AcDbEntity
  8
0
  6
HIDDEN
 62
     8
 48
0.05
100
AcDbLine
 10
195.4950031971287
 20
-3.951781585869127
 30
0.0
 11
195.6403663685529
 21
-3.001200071466627
 31
0.0
  0
ARC
  5
17E
330
2
100
AcDbEntity
  8
0
  6
HIDDEN
 62
     8
 48
0.05
100
AcDbCircle
 10
194.8365564032648
 20
-4.139645416613121
 30
0.0
 40
0.375
100
AcDbArc
 50
0.0000000000004141
 51
90.00000000000003
  0
ARC
  5
17F
330
2
100
AcDbEntity
  8
0
  6
HIDDEN
 62
     8
 48
0.05
100
AcDbCircle
 10
194.5860564032648
 20
-4.264645416613121
 30
0.0
 40
0.5
100
AcDbArc
 50
90.00000000000003
 51
166.1445578380953
  0
ARC
  5
180
330
2
100
AcDbEntity
  8
0
  6
HIDDEN
 62
     8
 48
0.05
100
AcDbCircle
 10
194.8365564032648
 20
-4.514645416613121
 30
0.0
 40
0.375
100
AcDbArc
 50
270.0
 51
359.9999999999997
  0
ARC
  5
181
330
2
100
AcDbEntity
  8
0
  6
HIDDEN
 62
     8
 48
0.05
100
AcDbCircle
 10
194.5860564032648
 20
-4.389645416613121
 30
0.0
 40
0.5
100
AcDbArc
 50
194.4775121859303
 51
270.0
  0
SPLINE
  5
182
330
2
100
AcDbEntity
  8
0
100
AcDbSpline
210
0.0
220
0.0
230
1.0
 70
     8
 71
     3
 72
    11
 73
     7
 74
     0
 42
0.0000000001
 43
0.0000000001
 40
0.0
 40
0.0
 40
0.0
 40
0.0
 40
1.271056318457386
 40
2.088250163782618
 40
2.621057433787941
 40
4.81804140552245
 40
4.81804140552245
 40
4.81804140552245
 40
4.81804140552245
 10
190.1250298913239
 20
-2.576781585869127
 30
0.0
 10
190.0558146890163
 20
-2.159053921488549
 30
0.0
 10
189.9420993048462
 20
-0.3412375088174429
 30
0.0
 10
189.350292839302
 20
0.4236081500162073
 30
0.0
 10
188.0646735181194
 20
0.4686833630430556
 30
0.0
 10
187.57233212913
 20
-1.792299602716212
 30
0.0
 10
187.4993692119287
 20
-2.576781585869127
 30
0.0
  0
SPLINE
  5
183
330
2
100
AcDbEntity
  8
0
  6
HIDDEN
 62
     8
 48
0.05
100
AcDbSpline
210
0.0
220
0.0
230
1.0
 70
     8
 71
     3
 72
    10
 73
     6
 74
     0
 42
0.0000000001
 43
0.0000000001
 40
0.0
 40
0.0
 40
0.0
 40
0.0
 40
0.6066168727469559
 40
0.7517307210059743
 40
1.2959753443345
 40
1.2959753443345
 40
1.2959753443345
 40
1.2959753443345
 10
188.5395672020122
 20
-2.576781585869127
 30
0.0
 10
188.3383126017868
 20
-2.596369857003082
 30
0.0
 10
188.0259251803889
 20
-2.530162085408875
 30
0.0
 10
187.77115245017
 20
-2.913124199035223
 30
0.0
 10
187.7496189622062
 20
-3.158484593588553
 30
0.0
 10
187.8970572655667
 20
-3.306324616536329
 30
0.0
  0
LINE
  5
184
330
2
100
AcDbEntity
  8
0
  6
HIDDEN
 62
     8
 48
0.05
100
AcDbLine
 10
187.8970572655667
 20
-3.306324616536329
 30
0.0
 11
191.7253570567546
 21
-6.622710828224967
 31
0.0
  0
SPLINE
  5
185
330
2
100
AcDbEntity
  8
0
  6
HIDDEN
 62
     8
 48
0.05
100
AcDbSpline
210
0.0
220
0.0
230
1.0
 70
     8
 71
     3
 72
     9
 73
     5
 74
     0
 42
0.0000000001
 43
0.0000000001
 40
4.81804140552245
 40
4.81804140552245
 40
4.81804140552245
 40
4.81804140552245
 40
6.231255132479361
 40
9.120029070635842
 40
9.120029070635842
 40
9.120029070635842
 40
9.120029070635842
 10
187.4993692119287
 20
-2.576781585869127
 30
0.0
 10
187.4524356896662
 20
-3.081400973814311
 30
0.0
 10
187.5181890646497
 20
-3.258468773717794
 30
0.0
 10
187.600094438758
 20
-3.380628611781247
 30
0.0
 10
187.7333661712402
 20
-3.495282880812311
 30
0.0
  0
ENDSEC
  0
SECTION
  2
OBJECTS
  0
DICTIONARY
  5
7
330
0
100
AcDbDictionary
  3
ACAD_GROUP
350
27
  3
ACAD_LAYOUT
350
B
  3
ACAD_MLINESTYLE
350
28
  3
ACAD_PLOTSETTINGS
350
29
  3
ACAD_PLOTSTYLENAME
350
6
  3
ACDBHEADERROUNDTRIPXREC
350
1D3
  3
ACDBVARIABLEDICTIONARY
350
A3
  0
DICTIONARY
  5
11
330
10
100
AcDbDictionary
280
     1
  3
ACAD_LAYERFILTERS
360
12
  0
DICTIONARY
  5
B5
330
2
100
AcDbDictionary
280
     1
  3
ACAD_LAYOUTSELFREF
360
1F4
  0
DICTIONARY
  5
B7
330
AA
100
AcDbDictionary
280
     1
  3
ACAD_LAYOUTSELFREF
360
1F5
  0
DICTIONARY
  5
27
102
{ACAD_REACTORS
330
7
102
}
330
7
100
AcDbDictionary
  0
DICTIONARY
  5
B
102
{ACAD_REACTORS
330
7
102
}
330
7
100
AcDbDictionary
  0
DICTIONARY
  5
28
102
{ACAD_REACTORS
330
7
102
}
330
7
100
AcDbDictionary
  3
STANDARD
350
2C
  0
DICTIONARY
  5
29
102
{ACAD_REACTORS
330
7
102
}
330
7
100
AcDbDictionary
  0
ACDBDICTIONARYWDFLT
  5
6
102
{ACAD_REACTORS
330
7
102
}
330
7
100
AcDbDictionary
281
     1
  3
Normal
350
5
100
AcDbDictionaryWithDefault
340
5
  0
DICTIONARY
  5
1D3
102
{ACAD_REACTORS
330
7
102
}
330
7
100
AcDbDictionary
  3
CEPSNTYPE
350
1DD
  3
DIMSTYLEDATA
350
1E1
  3
FINGERPRINTGUID
350
1DE
  3
HYPERLINKBASE
350
1D6
  3
INSUNITS
350
1DC
  3
LAYOUTDICT
350
1D8
  3
LWETCUNION
350
1DB
  3
PLOTSETDICT
350
1D9
  3
PLOTSTYLNAMDICT
350
1DA
  3
PSVPSCALE
350
1E0
  3
PUCSBASE
350
1E4
  3
PUCSORGBACK
350
1EA
  3
PUCSORGBOTTOM
350
1E6
  3
PUCSORGFRONT
350
1E9
  3
PUCSORGLEFT
350
1E7
  3
PUCSORGRIGHT
350
1E8
  3
PUCSORGTOP
350
1E5
  3
PUCSORTHOREF
350
1E2
  3
PUCSORTHOVIEW
350
1E3
  3
STYLESHEET
350
1D7
  3
TSTACKALIGN
350
1D4
  3
TSTACKSIZE
350
1D5
  3
UCSBASE
350
1ED
  3
UCSORGBACK
350
1F3
  3
UCSORGBOTTOM
350
1EF
  3
UCSORGFRONT
350
1F2
  3
UCSORGLEFT
350
1F0
  3
UCSORGRIGHT
350
1F1
  3
UCSORGTOP
350
1EE
  3
UCSORTHOREF
350
1EB
  3
UCSORTHOVIEW
350
1EC
  3
VERSIONGUID
350
1DF
  0
DICTIONARY
  5
A3
102
{ACAD_REACTORS
330
7
102
}
330
7
100
AcDbDictionary
  3
DIMASSOC
350
A5
  3
HIDETEXT
350
A4
  0
DICTIONARY
  5
12
102
{ACAD_REACTORS
330
11
102
}
330
11
100
AcDbDictionary
280
     1
  3
DIM-1_12
360
13
  3
DIM-1_16
360
14
  0
XRECORD
  5
1F4
102
{ACAD_REACTORS
330
B5
102
}
330
B5
100
AcDbXrecord
340
2
  0
XRECORD
  5
1F5
102
{ACAD_REACTORS
330
B7
102
}
330
B7
100
AcDbXrecord
340
AA
  0
MLINESTYLE
  5
2C
102
{ACAD_REACTORS
330
28
102
}
330
28
100
AcDbMlineStyle
  2
STANDARD
 70
     0
  3

 62
   256
 51
90.0
 52
90.0
 71
     2
 49
0.5
 62
   256
  6
BYLAYER
 49
-0.5
 62
   256
  6
BYLAYER
  0
ACDBPLACEHOLDER
  5
5
102
{ACAD_REACTORS
330
6
102
}
330
6
100
AcDbPlaceHolder
280
     0
  0
XRECORD
  5
1DD
102
{ACAD_REACTORS
330
1D3
102
}
330
1D3
100
AcDbXrecord
 90
        0
  0
XRECORD
  5
1E1
102
{ACAD_REACTORS
330
1D3
102
}
330
1D3
100
AcDbXrecord
1000
DSTYLE
1002
{
1070
    79
 70
     1
1070
   276
 70
     1
1070
   277
 70
     5
1002
}
  0
XRECORD
  5
1DE
102
{ACAD_REACTORS
330
1D3
102
}
330
1D3
100
AcDbXrecord
  1
{6A4AC8E0-4F58-11D5-8420-0003476D26AB}
  0
XRECORD
  5
1D6
102
{ACAD_REACTORS
330
1D3
102
}
330
1D3
100
AcDbXrecord
  1

  0
XRECORD
  5
1DC
102
{ACAD_REACTORS
330
1D3
102
}
330
1D3
100
AcDbXrecord
 90
        1
  0
XRECORD
  5
1D8
102
{ACAD_REACTORS
330
1D3
102
}
330
1D3
100
AcDbXrecord
340
B
  0
XRECORD
  5
1DB
102
{ACAD_REACTORS
330
1D3
102
}
330
1D3
100
AcDbXrecord
 90
    10781
  0
XRECORD
  5
1D9
102
{ACAD_REACTORS
330
1D3
102
}
330
1D3
100
AcDbXrecord
340
29
  0
XRECORD
  5
1DA
102
{ACAD_REACTORS
330
1D3
102
}
330
1D3
100
AcDbXrecord
340
6
  0
XRECORD
  5
1E0
102
{ACAD_REACTORS
330
1D3
102
}
330
1D3
100
AcDbXrecord
 40
0.0
  0
XRECORD
  5
1E4
102
{ACAD_REACTORS
330
1D3
102
}
330
1D3
100
AcDbXrecord
340
0
  0
XRECORD
  5
1EA
102
{ACAD_REACTORS
330
1D3
102
}
330
1D3
100
AcDbXrecord
 10
0.0
 20
0.0
 30
0.0
  0
XRECORD
  5
1E6
102
{ACAD_REACTORS
330
1D3
102
}
330
1D3
100
AcDbXrecord
 10
0.0
 20
0.0
 30
0.0
  0
XRECORD
  5
1E9
102
{ACAD_REACTORS
330
1D3
102
}
330
1D3
100
AcDbXrecord
 10
0.0
 20
0.0
 30
0.0
  0
XRECORD
  5
1E7
102
{ACAD_REACTORS
330
1D3
102
}
330
1D3
100
AcDbXrecord
 10
0.0
 20
0.0
 30
0.0
  0
XRECORD
  5
1E8
102
{ACAD_REACTORS
330
1D3
102
}
330
1D3
100
AcDbXrecord
 10
0.0
 20
0.0
 30
0.0
  0
XRECORD
  5
1E5
102
{ACAD_REACTORS
330
1D3
102
}
330
1D3
100
AcDbXrecord
 10
0.0
 20
0.0
 30
0.0
  0
XRECORD
  5
1E2
102
{ACAD_REACTORS
330
1D3
102
}
330
1D3
100
AcDbXrecord
340
0
  0
XRECORD
  5
1E3
102
{ACAD_REACTORS
330
1D3
102
}
330
1D3
100
AcDbXrecord
 70
     0
  0
XRECORD
  5
1D7
102
{ACAD_REACTORS
330
1D3
102
}
330
1D3
100
AcDbXrecord
  1

  0
XRECORD
  5
1D4
102
{ACAD_REACTORS
330
1D3
102
}
330
1D3
100
AcDbXrecord
 90
        1
  0
XRECORD
  5
1D5
102
{ACAD_REACTORS
330
1D3
102
}
330
1D3
100
AcDbXrecord
 90
       70
  0
XRECORD
  5
1ED
102
{ACAD_REACTORS
330
1D3
102
}
330
1D3
100
AcDbXrecord
340
0
  0
XRECORD
  5
1F3
102
{ACAD_REACTORS
330
1D3
102
}
330
1D3
100
AcDbXrecord
 10
0.0
 20
0.0
 30
0.0
  0
XRECORD
  5
1EF
102
{ACAD_REACTORS
330
1D3
102
}
330
1D3
100
AcDbXrecord
 10
0.0
 20
0.0
 30
0.0
  0
XRECORD
  5
1F2
102
{ACAD_REACTORS
330
1D3
102
}
330
1D3
100
AcDbXrecord
 10
0.0
 20
0.0
 30
0.0
  0
XRECORD
  5
1F0
102
{ACAD_REACTORS
330
1D3
102
}
330
1D3
100
AcDbXrecord
 10
0.0
 20
0.0
 30
0.0
  0
XRECORD
  5
1F1
102
{ACAD_REACTORS
330
1D3
102
}
330
1D3
100
AcDbXrecord
 10
0.0
 20
0.0
 30
0.0
  0
XRECORD
  5
1EE
102
{ACAD_REACTORS
330
1D3
102
}
330
1D3
100
AcDbXrecord
 10
0.0
 20
0.0
 30
0.0
  0
XRECORD
  5
1EB
102
{ACAD_REACTORS
330
1D3
102
}
330
1D3
100
AcDbXrecord
340
0
  0
XRECORD
  5
1EC
102
{ACAD_REACTORS
330
1D3
102
}
330
1D3
100
AcDbXrecord
 70
     1
  0
XRECORD
  5
1DF
102
{ACAD_REACTORS
330
1D3
102
}
330
1D3
100
AcDbXrecord
  1
{05E3FE48-EDCF-4059-8350-CD01161E5745}
  0
DICTIONARYVAR
  5
A5
102
{ACAD_REACTORS
330
A3
102
}
330
A3
100
DictionaryVariables
280
     0
  1
1
  0
DICTIONARYVAR
  5
A4
102
{ACAD_REACTORS
330
A3
102
}
330
A3
100
DictionaryVariables
280
     0
  1
1
  0
XRECORD
  5
13
102
{ACAD_REACTORS
330
12
102
}
330
0
100
AcDbXrecord
  1
DIM-1_12
  1
DIM-1_12
  1
*
  1
*
 70
     0
  1
*
  1
*
  0
XRECORD
  5
14
102
{ACAD_REACTORS
330
12
102
}
330
12
100
AcDbXrecord
  1
dim-1_16
  1
*
  1
*
  1
*
 70
     0
  1
*
  1
*
  0
ENDSEC
  0
EOF
