  0
SECTION
  2
HEADER
  9
$ACADVER
  1
AC1014
  9
$ACADMAINTVER
 70
     0
  9
$DWGCODEPAGE
  3
ANSI_1252
  9
$INSBASE
 10
27.742001
 20
-105.709639
 30
0.0
  9
$EXTMIN
 10
11.30374
 20
-107.726983
 30
-0.001526
  9
$EXTMAX
 10
44.180853
 20
-86.160186
 30
0.0
  9
$LIMMIN
 10
0.0
 20
0.0
  9
$LIMMAX
 10
17.0
 20
11.0
  9
$ORTHOMODE
 70
     1
  9
$REGENMODE
 70
     1
  9
$FILLMODE
 70
     1
  9
$QTEXTMODE
 70
     0
  9
$MIRRTEXT
 70
     1
  9
$DRAGMODE
 70
     2
  9
$LTSCALE
 40
2.0
  9
$OSMODE
 70
    53
  9
$ATTMODE
 70
     1
  9
$TEXTSIZE
 40
0.0
  9
$TRACEWID
 40
0.05
  9
$TEXTSTYLE
  7
ROMANS
  9
$CLAYER
  8
0
  9
$CELTYPE
  6
BYLAYER
  9
$CECOLOR
 62
   256
  9
$CELTSCALE
 40
1.0
  9
$DELOBJ
 70
     1
  9
$DISPSILH
 70
     0
  9
$DIMSCALE
 40
16.0
  9
$DIMASZ
 40
0.1
  9
$DIMEXO
 40
0.0625
  9
$DIMDLI
 40
0.25
  9
$DIMRND
 40
0.0
  9
$DIMDLE
 40
0.0
  9
$DIMEXE
 40
0.1
  9
$DIMTP
 40
0.1
  9
$DIMTM
 40
0.1
  9
$DIMTXT
 40
0.1
  9
$DIMCEN
 40
0.09
  9
$DIMTSZ
 40
0.0
  9
$DIMTOL
 70
     0
  9
$DIMLIM
 70
     0
  9
$DIMTIH
 70
     1
  9
$DIMTOH
 70
     1
  9
$DIMSE1
 70
     0
  9
$DIMSE2
 70
     0
  9
$DIMTAD
 70
     0
  9
$DIMZIN
 70
     4
  9
$DIMBLK
  1

  9
$DIMASO
 70
     1
  9
$DIMSHO
 70
     1
  9
$DIMPOST
  1

  9
$DIMAPOST
  1
cm
  9
$DIMALT
 70
     1
  9
$DIMALTD
 70
     2
  9
$DIMALTF
 40
2.54
  9
$DIMLFAC
 40
1.0
  9
$DIMTOFL
 70
     0
  9
$DIMTVP
 40
0.0
  9
$DIMTIX
 70
     0
  9
$DIMSOXD
 70
     0
  9
$DIMSAH
 70
     0
  9
$DIMBLK1
  1

  9
$DIMBLK2
  1

  9
$DIMSTYLE
  2
STANDARD
  9
$DIMCLRD
 70
     0
  9
$DIMCLRE
 70
     0
  9
$DIMCLRT
 70
     0
  9
$DIMTFAC
 40
1.0
  9
$DIMGAP
 40
0.09
  9
$DIMJUST
 70
     0
  9
$DIMSD1
 70
     0
  9
$DIMSD2
 70
     0
  9
$DIMTOLJ
 70
     1
  9
$DIMTZIN
 70
     0
  9
$DIMALTZ
 70
     0
  9
$DIMALTTZ
 70
     0
  9
$DIMFIT
 70
     0
  9
$DIMUPT
 70
     0
  9
$DIMUNIT
 70
     5
  9
$DIMDEC
 70
     4
  9
$DIMTDEC
 70
     4
  9
$DIMALTU
 70
     2
  9
$DIMALTTD
 70
     2
  9
$DIMTXSTY
  7
ROMANS
  9
$DIMAUNIT
 70
     0
  9
$LUNITS
 70
     2
  9
$LUPREC
 70
     4
  9
$SKETCHINC
 40
0.1
  9
$FILLETRAD
 40
0.25
  9
$AUNITS
 70
     0
  9
$AUPREC
 70
     0
  9
$MENU
  1
acad
  9
$ELEVATION
 40
0.0
  9
$PELEVATION
 40
0.0
  9
$THICKNESS
 40
0.0
  9
$LIMCHECK
 70
     0
  9
$BLIPMODE
 70
     0
  9
$CHAMFERA
 40
0.0
  9
$CHAMFERB
 40
0.0
  9
$CHAMFERC
 40
0.0
  9
$CHAMFERD
 40
0.0
  9
$SKPOLY
 70
     0
  9
$TDCREATE
 40
2444971.833333333
  9
$TDUPDATE
 40
2453690.332275208
  9
$TDINDWG
 40
0.4991486690
  9
$TDUSRTIMER
 40
0.4991486690
  9
$USRTIMER
 70
     1
  9
$ANGBASE
 50
0.0
  9
$ANGDIR
 70
     0
  9
$PDMODE
 70
    35
  9
$PDSIZE
 40
0.0
  9
$PLINEWID
 40
0.0
  9
$COORDS
 70
     1
  9
$SPLFRAME
 70
     0
  9
$SPLINETYPE
 70
     6
  9
$SPLINESEGS
 70
     8
  9
$ATTDIA
 70
     0
  9
$ATTREQ
 70
     1
  9
$HANDLING
 70
     1
  9
$HANDSEED
  5
320
  9
$SURFTAB1
 70
     6
  9
$SURFTAB2
 70
     6
  9
$SURFTYPE
 70
     6
  9
$SURFU
 70
     6
  9
$SURFV
 70
     6
  9
$UCSNAME
  2

  9
$UCSORG
 10
0.0
 20
0.0
 30
0.0
  9
$UCSXDIR
 10
1.0
 20
0.0
 30
0.0
  9
$UCSYDIR
 10
0.0
 20
1.0
 30
0.0
  9
$PUCSNAME
  2

  9
$PUCSORG
 10
0.0
 20
0.0
 30
0.0
  9
$PUCSXDIR
 10
1.0
 20
0.0
 30
0.0
  9
$PUCSYDIR
 10
0.0
 20
1.0
 30
0.0
  9
$USERI1
 70
     0
  9
$USERI2
 70
     0
  9
$USERI3
 70
     0
  9
$USERI4
 70
     0
  9
$USERI5
 70
     0
  9
$USERR1
 40
0.0
  9
$USERR2
 40
0.0
  9
$USERR3
 40
0.0
  9
$USERR4
 40
0.0
  9
$USERR5
 40
0.0
  9
$WORLDVIEW
 70
     1
  9
$SHADEDGE
 70
     3
  9
$SHADEDIF
 70
    70
  9
$TILEMODE
 70
     1
  9
$MAXACTVP
 70
    16
  9
$PINSBASE
 10
0.0
 20
0.0
 30
0.0
  9
$PLIMCHECK
 70
     0
  9
$PEXTMIN
 10
1.100417
 20
0.79375
 30
0.0
  9
$PEXTMAX
 10
9.90375
 20
7.14375
 30
0.0
  9
$PLIMMIN
 10
-0.53125
 20
-0.164583
  9
$PLIMMAX
 10
11.15875
 20
8.102083
  9
$UNITMODE
 70
     0
  9
$VISRETAIN
 70
     0
  9
$PLINEGEN
 70
     1
  9
$PSLTSCALE
 70
     1
  9
$TREEDEPTH
 70
  3020
  9
$PICKSTYLE
 70
     1
  9
$CMLSTYLE
  2
STANDARD
  9
$CMLJUST
 70
     0
  9
$CMLSCALE
 40
1.0
  9
$PROXYGRAPHICS
 70
     1
  9
$MEASUREMENT
 70
     0
  0
ENDSEC
  0
SECTION
  2
CLASSES
  0
CLASS
  1
LWPOLYLINE
  2
AcDbPolyline
  3
"AutoCAD"
 90
        0
280
     0
281
     1
  0
CLASS
  1
IMAGE
  2
AcDbRasterImage
  3
ISM
 90
      127
280
     0
281
     1
  0
CLASS
  1
OLE2FRAME
  2
AcDbOle2Frame
  3
""
 90
        0
280
     0
281
     1
  0
CLASS
  1
HATCH
  2
AcDbHatch
  3
"ACAD_SEDONA"
 90
        0
280
     0
281
     1
  0
CLASS
  1
DICTIONARYVAR
  2
AcDbDictionaryVar
  3
"AutoCAD"
 90
        0
280
     0
281
     0
  0
CLASS
  1
RASTERVARIABLES
  2
AcDbRasterVariables
  3
ISM
 90
        0
280
     0
281
     0
  0
CLASS
  1
IMAGEDEF
  2
AcDbRasterImageDef
  3
ISM
 90
        0
280
     0
281
     0
  0
CLASS
  1
IMAGEDEF_REACTOR
  2
AcDbRasterImageDefReactor
  3
ISM
 90
        1
280
     0
281
     0
  0
CLASS
  1
IDBUFFER
  2
AcDbIdBuffer
  3
"Acad"
 90
        0
280
     0
281
     0
  0
CLASS
  1
SPATIAL_FILTER
  2
AcDbSpatialFilter
  3
"Acad"
 90
        0
280
     0
281
     0
  0
CLASS
  1
XRECORD
  2
AcDbXrecord
  3
"<Built In>"
 90
        0
280
     0
281
     0
  0
CLASS
  1
SORTENTSTABLE
  2
AcDbSortentsTable
  3
"AutoCAD"
 90
        0
280
     0
281
     0
  0
CLASS
  1
LAYER_INDEX
  2
AcDbLayerIndex
  3
"Acad"
 90
        0
280
     0
281
     0
  0
CLASS
  1
SPATIAL_INDEX
  2
AcDbSpatialIndex
  3
"Acad"
 90
        0
280
     0
281
     0
  0
CLASS
  1
OBJECT_PTR
  2
CAseDLPNTableRecord
  3
ASE-LPNTableRecord
 90
        1
280
     0
281
     0
  0
CLASS
  1
LAYOUT
  2
AcDbLayout
  3
AutoCAD 2000
 90
        0
280
     0
281
     0
  0
CLASS
  1
PLOTSETTINGS
  2
AcDbPlotSettings
  3
AutoCAD 2000
 90
        0
280
     0
281
     0
  0
CLASS
  1
ACDBDICTIONARYWDFLT
  2
AcDbDictionaryWithDefault
  3
AutoCAD 2000
 90
        0
280
     0
281
     0
  0
CLASS
  1
ACDBPLACEHOLDER
  2
AcDbPlaceHolder
  3
AutoCAD 2000
 90
        0
280
     0
281
     0
  0
CLASS
  1
VBA_PROJECT
  2
AcDbVbaProject
  3
acadvba
 90
        0
280
     0
281
     0
  0
CLASS
  1
WIPEOUT
  2
AcDbWipeout
  3
"WipeOut|Version(1.0.0.0) Product Desc: Object Enabler for WipeOut entity^I^I^I^I^I^I|Company: Autodesk, Inc.^I^I^I^I^I^I|WEB Address: www.autodesk.com"
 90
      127
280
     1
281
     1
  0
CLASS
  1
WIPEOUTVARIABLES
  2
AcDbWipeoutVariables
  3
WipeOut|AutoCAD Express Tool|expresstools@autodesk.com
 90
        0
280
     1
281
     0
  0
CLASS
  1
RTEXT
  2
RText
  3
RText|AutoCAD Express Tool|expresstools@autodesk.com
 90
        0
280
     1
281
     1
  0
CLASS
  1
ARCALIGNEDTEXT
  2
AcDbArcAlignedText
  3
ATEXT|AutoCAD Express Tool|expresstools@autodesk.com
 90
        0
280
     1
281
     1
  0
CLASS
  1
LONG_TRANSACTION
  2
AcDbLongTransaction
  3
AutoCAD 2000
 90
        0
280
     0
281
     0
  0
CLASS
  1
LWPOLYLINE
  2
AcDbPolyline
  3
"AutoCAD"
 90
        0
280
     0
281
     1
  0
CLASS
  1
HATCH
  2
AcDbHatch
  3
"ACAD_SEDONA"
 90
        0
280
     0
281
     1
  0
CLASS
  1
XRECORD
  2
AcDbXrecord
  3
"<Built In>"
 90
        0
280
     0
281
     0
  0
ENDSEC
  0
SECTION
  2
TABLES
  0
TABLE
  2
VPORT
  5
1D
100
AcDbSymbolTable
 70
     2
  0
VPORT
  5
31F
100
AcDbSymbolTableRecord
100
AcDbViewportTableRecord
  2
*ACTIVE
 70
     0
 10
0.0
 20
0.0
 11
1.0
 21
1.0
 12
27.742297
 22
-96.943585
 13
0.0
 23
0.0
 14
1.0
 24
1.0
 15
0.0
 25
0.0
 16
0.0
 26
0.0
 36
1.0
 17
0.0
 27
0.0
 37
0.0
 40
23.978645
 41
1.487748
 42
50.0
 43
0.0
 44
0.0
 50
0.0
 51
0.0
 71
     0
 72
   100
 73
     1
 74
     1
 75
     0
 76
     0
 77
     0
 78
     0
  0
ENDTAB
  0
TABLE
  2
LTYPE
  5
18
100
AcDbSymbolTable
 70
     3
  0
LTYPE
  5
19
100
AcDbSymbolTableRecord
100
AcDbLinetypeTableRecord
  2
BYBLOCK
 70
     0
  3

 72
    65
 73
     0
 40
0.0
  0
LTYPE
  5
1A
100
AcDbSymbolTableRecord
100
AcDbLinetypeTableRecord
  2
BYLAYER
 70
     0
  3

 72
    65
 73
     0
 40
0.0
  0
LTYPE
  5
8
100
AcDbSymbolTableRecord
100
AcDbLinetypeTableRecord
  2
CONTINUOUS
 70
     0
  3
Solid line
 72
    65
 73
     0
 40
0.0
  0
LTYPE
  5
FF
100
AcDbSymbolTableRecord
100
AcDbLinetypeTableRecord
  2
CENTER
 70
     0
  3
____ _ ____ _ ____ _ ____ _ ____ _ ____ _ ____
 72
    65
 73
     4
 40
0.6
 49
0.375
 74
     0
 49
-0.075
 74
     0
 49
0.075
 74
     0
 49
-0.075
 74
     0
  0
LTYPE
  5
45
100
AcDbSymbolTableRecord
100
AcDbLinetypeTableRecord
  2
HIDDEN
 70
     0
  3
- - - - - - - - - - - - - - - - - - - -
 72
    65
 73
     2
 40
0.2
 49
0.1
 74
     0
 49
-0.1
 74
     0
  0
ENDTAB
  0
TABLE
  2
LAYER
  5
10
102
{ACAD_XDICTIONARY
360
11
102
}
100
AcDbSymbolTable
 70
     3
  0
LAYER
  5
4
100
AcDbSymbolTableRecord
100
AcDbLayerTableRecord
  2
0
 70
     0
 62
     7
  6
CONTINUOUS
  0
LAYER
  5
FE
100
AcDbSymbolTableRecord
100
AcDbLayerTableRecord
  2
CENTER
 70
     0
 62
     1
  6
CENTER
  0
LAYER
  5
1D3
102
{ACAD_XDICTIONARY
360
249
102
}
100
AcDbSymbolTableRecord
100
AcDbLayerTableRecord
  2
DEFPOINTS
 70
     0
 62
     7
  6
CONTINUOUS
  0
ENDTAB
  0
TABLE
  2
STYLE
  5
15
100
AcDbSymbolTable
 70
     2
  0
STYLE
  5
16
100
AcDbSymbolTableRecord
100
AcDbTextStyleTableRecord
  2
STANDARD
 70
     0
 40
0.0
 41
1.0
 50
0.0
 71
     0
 42
0.0
  3
txt
  4

  0
STYLE
  5
1F4
100
AcDbSymbolTableRecord
100
AcDbTextStyleTableRecord
  2
ROMANS
 70
     0
 40
0.0
 41
1.0
 50
0.0
 71
     0
 42
0.0
  3
romans.shx
  4

  0
ENDTAB
  0
TABLE
  2
VIEW
  5
1B
100
AcDbSymbolTable
 70
     0
  0
ENDTAB
  0
TABLE
  2
UCS
  5
1C
100
AcDbSymbolTable
 70
     0
  0
ENDTAB
  0
TABLE
  2
APPID
  5
1F
100
AcDbSymbolTable
 70
     2
  0
APPID
  5
20
100
AcDbSymbolTableRecord
100
AcDbRegAppTableRecord
  2
ACAD
 70
     0
  0
APPID
  5
1CC
100
AcDbSymbolTableRecord
100
AcDbRegAppTableRecord
  2
DCO15
 70
     0
  0
ENDTAB
  0
TABLE
  2
DIMSTYLE
  5
21
100
AcDbSymbolTable
 70
     1
  0
DIMSTYLE
105
22
102
{ACAD_XDICTIONARY
360
276
102
}
100
AcDbSymbolTableRecord
100
AcDbDimStyleTableRecord
  2
STANDARD
 70
     0
  3

  4
cm
  5

  6

  7

 40
16.0
 41
0.1
 42
0.0625
 43
0.25
 44
0.1
 45
0.0
 46
0.0
 47
0.1
 48
0.1
140
0.1
141
0.09
142
0.0
143
2.54
144
1.0
145
0.0
146
1.0
147
0.09
 71
     0
 72
     0
 73
     1
 74
     1
 75
     0
 76
     0
 77
     0
 78
     4
170
     1
171
     2
172
     0
173
     0
174
     0
175
     0
176
     0
177
     0
178
     0
270
     5
271
     4
272
     4
273
     2
274
     2
340
1F4
275
     0
280
     0
281
     0
282
     0
283
     1
284
     0
285
     0
286
     0
287
     0
288
     0
  0
ENDTAB
  0
TABLE
  2
BLOCK_RECORD
  5
1
100
AcDbSymbolTable
 70
     0
  0
BLOCK_RECORD
  5
2
102
{ACAD_XDICTIONARY
360
26E
102
}
100
AcDbSymbolTableRecord
100
AcDbBlockTableRecord
  2
*MODEL_SPACE
  0
BLOCK_RECORD
  5
201
102
{ACAD_XDICTIONARY
360
247
102
}
100
AcDbSymbolTableRecord
100
AcDbBlockTableRecord
  2
*PAPER_SPACE
  0
ENDTAB
  0
ENDSEC
  0
SECTION
  2
BLOCKS
  0
BLOCK
  5
3
100
AcDbEntity
  8
0
100
AcDbBlockBegin
  2
*MODEL_SPACE
 70
     0
 10
0.0
 20
0.0
 30
0.0
  3
*MODEL_SPACE
  1

  0
ENDBLK
  5
9
100
AcDbEntity
  8
0
100
AcDbBlockEnd
  0
BLOCK
  5
203
100
AcDbEntity
 67
     1
  8
0
100
AcDbBlockBegin
  2
*PAPER_SPACE
 70
     0
 10
0.0
 20
0.0
 30
0.0
  3
*PAPER_SPACE
  1

  0
ENDBLK
  5
204
100
AcDbEntity
 67
     1
  8
0
100
AcDbBlockEnd
  0
ENDSEC
  0
SECTION
  2
ENTITIES
  0
LINE
  5
2A
100
AcDbEntity
  8
0
100
AcDbLine
 10
43.728382
 20
-86.209639
 30
0.0
 11
11.755621
 21
-86.209639
 31
0.0
  0
ARC
  5
31
100
AcDbEntity
  8
0
100
AcDbCircle
 10
18.516373
 20
-101.959639
 30
0.0
 40
2.5
100
AcDbArc
 50
180.0
 51
270.0
  0
SPLINE
  5
32
100
AcDbEntity
  8
0
100
AcDbSpline
210
0.0
220
0.0
230
-1.0
 70
     8
 71
     3
 72
    15
 73
    11
 74
     9
 42
0.0000001
 43
0.0000001
 44
0.0000000001
 40
0.0
 40
0.0
 40
0.0
 40
0.0
 40
0.5123754702067629
 40
1.101529590134284
 40
1.657863183135703
 40
2.184264662786382
 40
2.683636995244915
 40
3.162328621412959
 40
3.624942714663731
 40
3.84168586621076
 40
3.84168586621076
 40
3.84168586621076
 40
3.84168586621076
 10
17.84599556650684
 20
-101.9596388778189
 30
0.0
 10
17.85624973351996
 20
-102.1307062826476
 30
0.0
 10
17.87829463817274
 20
-102.4984752709841
 30
0.0
 10
18.06258968770098
 20
-103.0274874865622
 30
0.0
 10
18.35593447294949
 20
-103.5056250339148
 30
0.0
 10
18.72624735239333
 20
-103.886972630395
 30
0.0
 10
19.14415580697735
 20
-104.1703021137879
 30
0.0
 10
19.5893052196043
 20
-104.3572712408019
 30
0.0
 10
19.96904555954854
 20
-104.441154845141
 30
0.0
 10
20.19522846780442
 20
-104.4542231948983
 30
0.0
 10
20.2673902011735
 20
-104.4583925407522
 30
0.0
 11
17.84599556650684
 21
-101.9596388778189
 31
0.0
 11
17.89848222570682
 21
-102.4693189471522
 31
0.0
 11
18.08572000490684
 21
-103.0279284628855
 31
0.0
 11
18.37793918357348
 21
-103.5013363402188
 31
0.0
 11
18.74438305237347
 21
-103.8792482463522
 31
0.0
 11
19.15785726784017
 21
-104.1592693162189
 31
0.0
 11
19.59888063744014
 21
-104.3453984660855
 31
0.0
 11
20.05125232170681
 21
-104.4422057930188
 31
0.0
 11
20.2673902011735
 21
-104.4583925407522
 31
0.0
  0
LINE
  5
33
100
AcDbEntity
  8
0
100
AcDbLine
 10
20.316068
 20
-104.45656
 30
0.0
 11
20.349719
 21
-104.459639
 31
0.0
  0
LINE
  5
34
100
AcDbEntity
  8
0
100
AcDbLine
 10
20.350962
 20
-104.459564
 30
0.0
 11
20.343784
 21
-104.459552
 31
0.0
  0
LINE
  5
35
100
AcDbEntity
  8
0
100
AcDbLine
 10
20.314372
 20
-104.459611
 30
0.0
 11
20.336777
 21
-104.459622
 31
0.0
  0
SPLINE
  5
36
100
AcDbEntity
  8
0
100
AcDbSpline
210
0.0
220
0.0
230
-1.0
 70
     8
 71
     3
 72
    10
 73
     6
 74
     4
 42
0.0000001
 43
0.0000001
 44
0.0000000001
 40
0.0
 40
0.0
 40
0.0
 40
0.0
 40
0.0022318422045241
 40
0.034359738668153
 40
0.04153826310108
 40
0.04153826310108
 40
0.04153826310108
 40
0.04153826310108
 10
20.34378409237351
 20
-104.4594938804855
 30
0.0
 10
20.34298059260478
 20
-104.4595105539014
 30
0.0
 10
20.33061052360201
 20
-104.4597672450831
 30
0.0
 10
20.36699904423437
 20
-104.459697668732
 30
0.0
 10
20.37871842055981
 20
-104.4597215581067
 30
0.0
 10
20.38085872810682
 20
-104.4597259210188
 30
0.0
 11
20.34378409237351
 21
-104.4594938804855
 31
0.0
 11
20.34155278144015
 21
-104.4595425748855
 31
0.0
 11
20.37368021077349
 21
-104.4597158250188
 31
0.0
 11
20.38085872810682
 21
-104.4597259210188
 31
0.0
  0
LINE
  5
44
100
AcDbEntity
  8
0
  6
HIDDEN
 62
     8
100
AcDbLine
 10
15.788227
 20
-91.090972
 30
0.0
 11
15.695316
 21
-91.006628
 31
0.0
  0
SPLINE
  5
46
100
AcDbEntity
  8
0
  6
HIDDEN
 62
     8
100
AcDbSpline
210
0.0
220
0.0
230
-1.0
 70
     8
 71
     3
 72
     9
 73
     5
 74
     3
 42
0.0000001
 43
0.0000001
 44
0.0000000001
 40
0.0
 40
0.0
 40
0.0
 40
0.0
 40
0.1206440753322145
 40
0.3082974310616356
 40
0.3082974310616356
 40
0.3082974310616356
 40
0.3082974310616356
 10
15.82019207744018
 20
-91.18351138341889
 30
0.0
 10
15.78752042760795
 20
-91.15908280555336
 30
0.0
 10
15.7040303292829
 20
-91.09665729663635
 30
0.0
 10
15.66261151054298
 20
-90.99988047781149
 30
0.0
 10
15.63740085504018
 20
-90.94097471675222
 30
0.0
 11
15.82019207744018
 21
-91.18351138341889
 31
0.0
 11
15.72861967957349
 21
-91.10496528955222
 31
0.0
 11
15.63740085504018
 21
-90.94097471675222
 31
0.0
  0
LWPOLYLINE
  5
48
100
AcDbEntity
  8
0
  6
HIDDEN
 62
     8
100
AcDbPolyline
 90
        5
 70
     0
 43
0.0
 10
16.496213
 20
-89.409882
 10
16.294795
 20
-89.466534
 10
16.072266
 20
-89.515568
 10
15.833337
 20
-89.555947
 10
15.583063
 20
-89.586816
  0
LWPOLYLINE
  5
49
100
AcDbEntity
  8
0
  6
HIDDEN
 62
     8
100
AcDbPolyline
 90
        5
 70
     0
 43
0.0
 10
16.650873
 20
-90.172553
 10
16.420262
 20
-90.236063
 10
16.165651
 20
-90.290591
 10
15.892701
 20
-90.334927
 10
15.607501
 20
-90.36808
  0
LWPOLYLINE
  5
4A
100
AcDbEntity
  8
0
  6
HIDDEN
 62
     8
100
AcDbPolyline
 90
        5
 70
     0
 43
0.0
 10
16.525911
 20
-89.903747
 10
16.324493
 20
-89.9604
 10
16.101964
 20
-90.009434
 10
15.863035
 20
-90.049813
 10
15.612761
 20
-90.080681
  0
LINE
  5
4B
100
AcDbEntity
  8
0
  6
HIDDEN
 62
     8
100
AcDbLine
 10
16.088884
 20
-89.554903
 30
0.0
 11
15.49471
 21
-89.570895
 31
0.0
  0
LINE
  5
4C
100
AcDbEntity
  8
0
  6
HIDDEN
 62
     8
100
AcDbLine
 10
15.548192
 20
-89.725224
 30
0.0
 11
16.044892
 21
-89.711856
 31
0.0
  0
LINE
  5
4D
100
AcDbEntity
  8
0
  6
HIDDEN
 62
     8
100
AcDbLine
 10
16.158168
 20
-90.019524
 30
0.0
 11
15.479089
 21
-90.037801
 31
0.0
  0
LINE
  5
4E
100
AcDbEntity
  8
0
  6
HIDDEN
 62
     8
100
AcDbLine
 10
15.560811
 20
-90.194054
 30
0.0
 11
16.05751
 21
-90.180686
 31
0.0
  0
LINE
  5
4F
100
AcDbEntity
  8
0
  6
HIDDEN
 62
     8
100
AcDbLine
 10
16.17256
 20
-90.258857
 30
0.0
 11
15.493481
 21
-90.277134
 31
0.0
  0
LINE
  5
50
100
AcDbEntity
  8
0
  6
HIDDEN
 62
     8
100
AcDbLine
 10
16.146452
 20
-90.512235
 30
0.0
 11
15.552278
 21
-90.528227
 31
0.0
  0
LINE
  5
51
100
AcDbEntity
  8
0
  6
HIDDEN
 62
     8
100
AcDbLine
 10
16.123035
 20
-90.528421
 30
0.0
 11
15.540779
 21
-90.544092
 31
0.0
  0
SPLINE
  5
52
100
AcDbEntity
  8
0
  6
HIDDEN
 62
     8
100
AcDbSpline
210
0.0
220
0.0
230
1.0
 70
     8
 71
     3
 72
    10
 73
     6
 74
     4
 42
0.0000001
 43
0.0000001
 44
0.0000000001
 40
0.0
 40
0.0
 40
0.0
 40
0.0
 40
0.2612363495672508
 40
0.5140177180931361
 40
0.7507524189974651
 40
0.7507524189974651
 40
0.7507524189974651
 40
0.7507524189974651
 10
15.55096904384017
 20
-89.41048374181891
 30
0.0
 10
15.63756353832679
 20
-89.40126035813952
 30
0.0
 10
15.80794987441354
 20
-89.3831121079445
 30
0.0
 10
16.05540786186347
 20
-89.34478952906335
 30
0.0
 10
16.21504331731276
 20
-89.31090067451448
 30
0.0
 10
16.29224456597351
 20
-89.2945116970189
 30
0.0
 11
15.55096904384017
 21
-89.41048374181891
 31
0.0
 11
15.81050475904017
 21
-89.38072398928555
 31
0.0
 11
16.06023958890683
 21
-89.34159682448557
 31
0.0
 11
16.29224456597351
 21
-89.2945116970189
 31
0.0
  0
SPLINE
  5
53
100
AcDbEntity
  8
0
  6
HIDDEN
 62
     8
100
AcDbSpline
210
0.0
220
0.0
230
1.0
 70
     8
 71
     3
 72
    12
 73
     8
 74
     6
 42
0.0000001
 43
0.0000001
 44
0.0000000001
 40
0.0
 40
0.0
 40
0.0
 40
0.0
 40
0.1073644603877785
 40
0.2071422855929879
 40
0.3013635822638269
 40
0.3924802330732429
 40
0.4423583737352687
 40
0.4423583737352687
 40
0.4423583737352687
 40
0.4423583737352687
 10
15.80803297344017
 20
-88.34914542395223
 30
0.0
 10
15.77896296926049
 20
-88.37010644851767
 30
0.0
 10
15.72287711844701
 20
-88.41054734042154
 30
0.0
 10
15.6320441322508
 20
-88.45472402105912
 30
0.0
 10
15.54082079743656
 20
-88.48252594582596
 30
0.0
 10
15.46240489149146
 20
-88.49226867132776
 30
0.0
 10
15.41542834467837
 20
-88.48999672940999
 30
0.0
 10
15.39880998037351
 20
-88.48919301008557
 30
0.0
 11
15.80803297344017
 21
-88.34914542395223
 31
0.0
 11
15.71911752704018
 21
-88.40932158821891
 31
0.0
 11
15.62941765504017
 21
-88.45301995621889
 31
0.0
 11
15.53918434517349
 21
-88.48014194981891
 31
0.0
 11
15.4486685819735
 21
-88.49058899088557
 31
0.0
 11
15.39880998037351
 21
-88.48919301008557
 31
0.0
  0
SPLINE
  5
55
100
AcDbEntity
  8
0
  6
HIDDEN
 62
     8
100
AcDbSpline
210
0.0
220
0.0
230
1.0
 70
     8
 71
     3
 72
    23
 73
    19
 74
    17
 42
0.0000001
 43
0.0000001
 44
0.0000000001
 40
0.0
 40
0.0
 40
0.0
 40
0.0
 40
0.0606929393503355
 40
0.1209711600778203
 40
0.2008204614677342
 40
0.3067647663257789
 40
0.4388271297577463
 40
0.593808715002428
 40
0.7672752043775195
 40
0.9538300567503391
 40
1.147021395237971
 40
1.340133352931534
 40
1.530091686671299
 40
1.726335722264115
 40
1.933070946548003
 40
2.134866782723581
 40
2.301736383182025
 40
2.411937015304352
 40
2.411937015304352
 40
2.411937015304352
 40
2.411937015304352
 10
15.56597971157351
 20
-88.95184480955224
 30
0.0
 10
15.58550188339084
 20
-88.94273142757162
 30
0.0
 10
15.62441283081337
 20
-88.92456693591524
 30
0.0
 10
15.68740268662992
 20
-88.96396331112711
 30
0.0
 10
15.73645686983788
 20
-89.02854379235774
 30
0.0
 10
15.78540653503845
 20
-89.12357951784413
 30
0.0
 10
15.83132400084669
 20
-89.2462279884857
 30
0.0
 10
15.87433175276821
 20
-89.39376281046566
 30
0.0
 10
15.91300077024944
 20
-89.56106865246804
 30
0.0
 10
15.94655802567124
 20
-89.74245009706159
 30
0.0
 10
15.97419765812438
 20
-89.93143436175278
 30
0.0
 10
15.9954336026226
 20
-90.12237005277555
 30
0.0
 10
16.01032241853241
 20
-90.31497826337789
 30
0.0
 10
16.01786685016886
 20
-90.51238851929031
 30
0.0
 10
16.01677146784628
 20
-90.7146282257592
 30
0.0
 10
15.99823921095723
 20
-90.90414532387432
 30
0.0
 10
15.97331651561005
 20
-91.06635542154103
 30
0.0
 10
15.91823305134374
 20
-91.1417579171036
 30
0.0
 10
15.89632440917351
 20
-91.17174815675223
 30
0.0
 11
15.56597971157351
 21
-88.95184480955224
 31
0.0
 11
15.6243028603735
 21
-88.93505066768556
 31
0.0
 11
15.67829985770684
 21
-88.96184223675223
 31
0.0
 11
15.72969858837352
 21
-89.02294936741888
 31
0.0
 11
15.77963204117351
 21
-89.11638836368558
 31
0.0
 11
15.82722126037352
 21
-89.23957819301888
 31
0.0
 11
15.87126667690684
 21
-89.38816921915224
 31
0.0
 11
15.91081228864017
 21
-89.55706790928557
 31
0.0
 11
15.94501810090683
 21
-89.74046004475223
 31
0.0
 11
15.9731003195735
 21
-89.93159947621888
 31
0.0
 11
15.99446430997351
 21
-90.1235260458189
 31
0.0
 11
16.00894839317349
 21
-90.31293137808557
 31
0.0
 11
16.01634428437351
 21
-90.50903599888556
 31
0.0
 11
16.01358253504018
 21
-90.71575277541889
 31
0.0
 11
15.9949231195735
 21
-90.9166840714189
 31
0.0
 11
15.95561767210684
 21
-91.0788585002189
 31
0.0
 11
15.89632440917351
 21
-91.17174815675223
 31
0.0
  0
SPLINE
  5
56
100
AcDbEntity
  8
0
  6
HIDDEN
 62
     8
100
AcDbSpline
210
0.0
220
0.0
230
1.0
 70
     8
 71
     3
 72
    23
 73
    19
 74
    17
 42
0.0000001
 43
0.0000001
 44
0.0000000001
 40
0.0
 40
0.0
 40
0.0
 40
0.0
 40
0.0586303930447592
 40
0.1136607140821014
 40
0.184907611440424
 40
0.2796465818938181
 40
0.3985312913089879
 40
0.5389581763862451
 40
0.6970052655924052
 40
0.8677432748019064
 40
1.045180183886905
 40
1.223012803514903
 40
1.398258411725435
 40
1.579451480867938
 40
1.770230567944617
 40
1.955943233065483
 40
2.108485461295263
 40
2.208386602502556
 40
2.208386602502556
 40
2.208386602502556
 40
2.208386602502556
 10
15.54092438570684
 20
-89.07350143568557
 30
0.0
 10
15.55910980590868
 20
-89.06355058314657
 30
0.0
 10
15.5943640100626
 20
-89.04425988856699
 30
0.0
 10
15.65549037733115
 20
-89.07412577887809
 30
0.0
 10
15.70287207751972
 20
-89.13025668764092
 30
0.0
 10
15.74970303635081
 20
-89.21367656761658
 30
0.0
 10
15.79380647855823
 20
-89.32322664097073
 30
0.0
 10
15.83522327556078
 20
-89.45618829287363
 30
0.0
 10
15.87262403530635
 20
-89.60811867499675
 30
0.0
 10
15.90523280346451
 20
-89.77373280681025
 30
0.0
 10
15.93225127461946
 20
-89.94701857214408
 30
0.0
 10
15.95318102209979
 20
-90.12263908951636
 30
0.0
 10
15.96806310201494
 20
-90.30018763474707
 30
0.0
 10
15.97592494498247
 20
-90.48232139319129
 30
0.0
 10
15.97556072876516
 20
-90.66890672599155
 30
0.0
 10
15.95834773218514
 20
-90.84290154977445
 30
0.0
 10
15.93517636164667
 20
-90.99194307694647
 30
0.0
 10
15.88222570411016
 20
-91.05872932515518
 30
0.0
 10
15.86127117824018
 20
-91.08515910395222
 30
0.0
 11
15.54092438570684
 21
-89.07350143568557
 31
0.0
 11
15.59609784064018
 21
-89.0536667978189
 31
0.0
 11
15.64734294570685
 21
-89.07372360315223
 31
0.0
 11
15.69630712597351
 21
-89.12547908048557
 31
0.0
 11
15.74406033984017
 21
-89.20730269008556
 31
0.0
 11
15.78974226944017
 21
-89.3170603114189
 31
0.0
 11
15.83218468864019
 21
-89.45091975675223
 31
0.0
 11
15.87045052650684
 21
-89.60426449275223
 31
0.0
 11
15.90370859264017
 21
-89.77173200848556
 31
0.0
 11
15.93117518464019
 21
-89.94703016315224
 31
0.0
 11
15.95224438144019
 21
-90.1236102570189
 31
0.0
 11
15.96673530197351
 21
-90.2982557162189
 31
0.0
 11
15.97446152917352
 21
-90.47928398395223
 31
0.0
 11
15.97247513344017
 21
-90.67005272955224
 31
0.0
 11
15.95519383530684
 21
-90.85495959995224
 31
0.0
 11
15.91793301717352
 21
-91.00288107515224
 31
0.0
 11
15.86127117824018
 21
-91.08515910395222
 31
0.0
  0
LINE
  5
57
100
AcDbEntity
  8
0
  6
HIDDEN
 62
     8
100
AcDbLine
 10
15.566872
 20
-90.829023
 30
0.0
 11
15.562127
 21
-90.823437
 31
0.0
  0
LINE
  5
58
100
AcDbEntity
  8
0
  6
HIDDEN
 62
     8
100
AcDbLine
 10
15.695316
 20
-91.006628
 30
0.0
 11
15.562095
 21
-90.82343
 31
0.0
  0
LWPOLYLINE
  5
59
100
AcDbEntity
  8
0
  6
HIDDEN
 62
     8
100
AcDbPolyline
 90
        3
 70
     0
 43
0.0
 10
15.562127
 20
-90.823437
 10
15.539465
 20
-90.770592
 10
15.513176
 20
-90.651673
  0
LWPOLYLINE
  5
5A
100
AcDbEntity
  8
0
  6
HIDDEN
 62
     8
100
AcDbPolyline
 90
        3
 70
     0
 43
0.0
 10
15.616943
 20
-90.751882
 10
15.593356
 20
-90.822627
 10
15.566872
 20
-90.829023
  0
LINE
  5
5B
100
AcDbEntity
  8
0
  6
HIDDEN
 62
     8
100
AcDbLine
 10
15.635876
 20
-90.622049
 30
0.0
 11
15.616943
 21
-90.751882
 31
0.0
  0
SPLINE
  5
5C
100
AcDbEntity
  8
0
  6
HIDDEN
 62
     8
100
AcDbSpline
210
-0.9215984990146811
220
-0.3881445692185928
230
0.0
 70
    24
 71
     3
 72
     8
 73
     4
 74
     2
 42
0.0000001
 43
0.0000001
 44
0.0000000001
 40
0.0
 40
0.0
 40
0.0
 40
0.0
 40
0.0288020573258039
 40
0.0288020573258039
 40
0.0288020573258039
 40
0.0288020573258039
 10
15.63740085504018
 20
-90.94097471675222
 30
0.0
 10
15.63367440099574
 20
-90.93212673915223
 30
0.0
 10
15.62994794695129
 20
-90.92327876155223
 30
0.0
 10
15.62622149290685
 20
-90.91443078395222
 30
0.0
 11
15.63740085504018
 21
-90.94097471675222
 31
0.0
 11
15.62622149290685
 21
-90.91443078395222
 31
0.0
  0
LINE
  5
5D
100
AcDbEntity
  8
0
  6
HIDDEN
 62
     8
100
AcDbLine
 10
15.550969
 20
-89.410491
 30
0.0
 11
15.549933
 21
-89.410748
 31
0.0
  0
LWPOLYLINE
  5
5E
100
AcDbEntity
  8
0
  6
HIDDEN
 62
     8
100
AcDbPolyline
 90
        8
 70
     0
 43
0.0
 10
15.548196
 20
-89.725226
 10
15.548853
 20
-89.725281
 10
15.554444
 20
-89.731483
 10
15.560039
 20
-89.747656
 10
15.565391
 20
-89.773094
 10
15.570267
 20
-89.806685
 10
15.574454
 20
-89.846961
 10
15.57777
 20
-89.892162
  0
LWPOLYLINE
  5
5F
100
AcDbEntity
  8
0
  6
HIDDEN
 62
     8
100
AcDbPolyline
 90
        8
 70
     0
 43
0.0
 10
15.560807
 20
-90.194052
 10
15.56015
 20
-90.193998
 10
15.554559
 20
-90.187796
 10
15.548964
 20
-90.171622
 10
15.543612
 20
-90.146184
 10
15.538736
 20
-90.112593
 10
15.534549
 20
-90.072317
 10
15.531233
 20
-90.027117
  0
LWPOLYLINE
  5
60
100
AcDbEntity
  8
0
  6
HIDDEN
 62
     8
100
AcDbPolyline
 90
        4
 70
     0
 43
0.0
 10
15.527761
 20
-89.085478
 10
15.554965
 20
-89.109682
 10
15.582103
 20
-89.197248
 10
15.60718
 20
-89.341655
  0
LWPOLYLINE
  5
61
100
AcDbEntity
  8
0
  6
HIDDEN
 62
     8
100
AcDbPolyline
 90
        3
 70
     0
 43
0.0
 10
15.540786
 20
-90.544077
 10
15.543457
 20
-90.543238
 10
15.552278
 20
-90.528227
  0
LWPOLYLINE
  5
62
100
AcDbEntity
  8
0
  6
HIDDEN
 62
     8
100
AcDbPolyline
 90
        5
 70
     0
 43
0.0
 10
15.506532
 20
-90.422212
 10
15.515059
 20
-90.477425
 10
15.524369
 20
-90.517183
 10
15.533996
 20
-90.539494
 10
15.540786
 20
-90.544077
  0
LINE
  5
63
100
AcDbEntity
  8
0
  6
HIDDEN
 62
     8
100
AcDbLine
 10
15.494494
 20
-89.075213
 30
0.0
 11
15.47109
 21
-89.947492
 31
0.0
  0
LWPOLYLINE
  5
64
100
AcDbEntity
  8
0
  6
HIDDEN
 62
     8
100
AcDbPolyline
 90
       10
 70
     0
 43
0.0
 10
15.57777
 20
-89.892162
 10
15.580068
 20
-89.940311
 10
15.581249
 20
-89.989306
 10
15.581261
 20
-90.037003
 10
15.580103
 20
-90.08132
 10
15.577827
 20
-90.120318
 10
15.574531
 20
-90.152294
 10
15.570359
 20
-90.17585
 10
15.565495
 20
-90.189957
 10
15.560807
 20
-90.194052
  0
LWPOLYLINE
  5
65
100
AcDbEntity
  8
0
  6
HIDDEN
 62
     8
100
AcDbPolyline
 90
       10
 70
     0
 43
0.0
 10
15.531233
 20
-90.027117
 10
15.528935
 20
-89.978967
 10
15.527754
 20
-89.929973
 10
15.527742
 20
-89.882275
 10
15.5289
 20
-89.837958
 10
15.531176
 20
-89.79896
 10
15.534472
 20
-89.766984
 10
15.538644
 20
-89.743428
 10
15.543508
 20
-89.729321
 10
15.548196
 20
-89.725226
  0
LINE
  5
66
100
AcDbEntity
  8
0
  6
HIDDEN
 62
     8
100
AcDbLine
 10
15.612761
 20
-90.080681
 30
0.0
 11
15.583063
 21
-89.586816
 31
0.0
  0
LINE
  5
67
100
AcDbEntity
  8
0
  6
HIDDEN
 62
     8
100
AcDbLine
 10
15.493481
 20
-90.277134
 30
0.0
 11
15.479089
 21
-90.037801
 31
0.0
  0
LWPOLYLINE
  5
68
100
AcDbEntity
  8
0
  6
HIDDEN
 62
     8
100
AcDbPolyline
 90
        3
 70
     0
 43
0.0
 10
15.493481
 20
-90.277134
 10
15.499218
 20
-90.354313
 10
15.506532
 20
-90.422212
  0
LINE
  5
69
100
AcDbEntity
  8
0
  6
HIDDEN
 62
     8
100
AcDbLine
 10
15.552278
 20
-90.528227
 30
0.0
 11
15.607501
 21
-90.36808
 31
0.0
  0
LINE
  5
6A
100
AcDbEntity
  8
0
  6
HIDDEN
 62
     8
100
AcDbLine
 10
15.49471
 20
-89.570895
 30
0.0
 11
15.549933
 21
-89.410748
 31
0.0
  0
LWPOLYLINE
  5
6B
100
AcDbEntity
  8
0
  6
HIDDEN
 62
     8
100
AcDbPolyline
 90
        8
 70
     0
 43
0.0
 10
15.49471
 20
-89.570895
 10
15.486971
 20
-89.603907
 10
15.480703
 20
-89.653266
 10
15.47622
 20
-89.716496
 10
15.473747
 20
-89.790426
 10
15.473407
 20
-89.871351
 10
15.475218
 20
-89.95521
 10
15.479089
 20
-90.037801
  0
SPLINE
  5
6C
100
AcDbEntity
  8
0
  6
HIDDEN
 62
     8
100
AcDbSpline
210
0.0
220
0.0
230
-1.0
 70
     8
 71
     3
 72
     9
 73
     5
 74
     3
 42
0.0000001
 43
0.0000001
 44
0.0000000001
 40
0.0
 40
0.0
 40
0.0
 40
0.0
 40
0.0848590080076353
 40
0.1485845091375385
 40
0.1485845091375385
 40
0.1485845091375385
 40
0.1485845091375385
 10
15.49080801450684
 20
-89.07771059301889
 30
0.0
 10
15.4995021046812
 20
-89.05021100396675
 30
0.0
 10
15.51472508632197
 20
-89.00206039465928
 30
0.0
 10
15.55059864667178
 20
-88.96691684978337
 30
0.0
 10
15.56598423850685
 20
-88.9518443498189
 30
0.0
 11
15.49080801450684
 21
-89.07771059301889
 31
0.0
 11
15.52362595904019
 21
-88.99945438715223
 31
0.0
 11
15.56598423850685
 21
-88.9518443498189
 31
0.0
  0
SPLINE
  5
6D
100
AcDbEntity
  8
0
  6
HIDDEN
 62
     8
100
AcDbSpline
210
0.0
220
0.0
230
1.0
 70
     8
 71
     3
 72
    15
 73
    11
 74
     9
 42
0.0000001
 43
0.0000001
 44
0.0000000001
 40
0.0
 40
0.0
 40
0.0
 40
0.0
 40
0.0170180299707742
 40
0.0259598868089875
 40
0.0297559827910036
 40
0.0343384070300176
 40
0.0397654027889738
 40
0.0456123175648709
 40
0.0515972293758064
 40
0.0578750563939463
 40
0.0578750563939463
 40
0.0578750563939463
 40
0.0578750563939463
 10
15.49449391744018
 20
-89.07521262501889
 30
0.0
 10
15.4950434251458
 20
-89.08050924720569
 30
0.0
 10
15.49588166305365
 20
-89.0885888964175
 30
0.0
 10
15.49806994410447
 20
-89.1005092707771
 30
0.0
 10
15.50461350242079
 20
-89.10094634366362
 30
0.0
 10
15.50841803060359
 20
-89.09816155111281
 30
0.0
 10
15.51258764189351
 20
-89.09497317738024
 30
0.0
 10
15.51708770910357
 20
-89.0913781737778
 30
0.0
 10
15.52206439403034
 20
-89.08791617119709
 30
0.0
 10
15.52583227372911
 20
-89.08630363768457
 30
0.0
 10
15.52776121450683
 20
-89.08547811195225
 30
0.0
 11
15.49449391744018
 21
-89.07521262501889
 31
0.0
 11
15.49660264597351
 21
-89.09209950181891
 31
0.0
 11
15.50035818944017
 21
-89.10021446928558
 31
0.0
 11
15.50414062997352
 21
-89.10053616528555
 31
0.0
 11
15.50815881130684
 21
-89.09833325115222
 31
0.0
 11
15.51247141504016
 21
-89.09503875088557
 31
0.0
 11
15.51709237610684
 21
-89.09145641488557
 31
0.0
 11
15.52207869610684
 21
-89.08814646288558
 31
0.0
 11
15.52776121450683
 21
-89.08547811195225
 31
0.0
  0
SPLINE
  5
6E
100
AcDbEntity
  8
0
  6
HIDDEN
 62
     8
100
AcDbSpline
210
-0.9882845763483397
220
-0.1526223972816002
230
0.0
 70
    24
 71
     3
 72
     8
 73
     4
 74
     2
 42
0.0000001
 43
0.0000001
 44
0.0000000001
 40
0.0
 40
0.0
 40
0.0
 40
0.0
 40
0.0092043458780783
 40
0.0092043458780783
 40
0.0092043458780783
 40
0.0092043458780783
 10
15.46325544170683
 20
-90.28264228475224
 30
0.0
 10
15.46278717859572
 20
-90.27961011373001
 30
0.0
 10
15.46231891548462
 20
-90.27657794270778
 30
0.0
 10
15.46185065237351
 20
-90.27354577168557
 30
0.0
 11
15.46325544170683
 21
-90.28264228475224
 31
0.0
 11
15.46185065237351
 21
-90.27354577168557
 31
0.0
  0
SPLINE
  5
6F
100
AcDbEntity
  8
0
  6
HIDDEN
 62
     8
100
AcDbSpline
210
-0.9866847349583059
220
-0.1626445012911837
230
0.0
 70
    24
 71
     3
 72
     8
 73
     4
 74
     2
 42
0.0000001
 43
0.0000001
 44
0.0000000001
 40
0.0
 40
0.0
 40
0.0
 40
0.0
 40
0.0757358347123487
 40
0.0757358347123487
 40
0.0757358347123487
 40
0.0757358347123487
 10
15.47557345877349
 20
-90.35736967675225
 30
0.0
 10
15.47146745308461
 20
-90.33246054608557
 30
0.0
 10
15.46736144739572
 20
-90.30755141541892
 30
0.0
 10
15.46325544170683
 20
-90.28264228475224
 30
0.0
 11
15.47557345877349
 21
-90.35736967675225
 31
0.0
 11
15.46325544170683
 21
-90.28264228475224
 31
0.0
  0
SPLINE
  5
70
100
AcDbEntity
  8
0
  6
HIDDEN
 62
     8
100
AcDbSpline
210
0.0
220
0.0
230
1.0
 70
     8
 71
     3
 72
    10
 73
     6
 74
     4
 42
0.0000001
 43
0.0000001
 44
0.0000000001
 40
0.0
 40
0.0
 40
0.0
 40
0.0
 40
0.0198504822846695
 40
0.1285861151544292
 40
0.2361343674110654
 40
0.2361343674110654
 40
0.2361343674110654
 40
0.2361343674110654
 10
15.46863833770685
 20
-90.03751525968556
 30
0.0
 10
15.46845517558699
 20
-90.04412955148666
 30
0.0
 10
15.46726870036194
 20
-90.08697516475715
 30
0.0
 10
15.46504576792357
 20
-90.16565525015471
 30
0.0
 10
15.46291461262374
 20
-90.237718378399
 30
0.0
 10
15.46185488490685
 20
-90.27355213221889
 30
0.0
 11
15.46863833770685
 21
-90.03751525968556
 31
0.0
 11
15.46808827904017
 21
-90.05735811941891
 31
0.0
 11
15.46501055530684
 21
-90.1660501866189
 31
0.0
 11
15.46185488490685
 21
-90.27355213221889
 31
0.0
  0
SPLINE
  5
71
100
AcDbEntity
  8
0
  6
HIDDEN
 62
     8
100
AcDbSpline
210
-0.9996295164435029
220
0.0272181897805215
230
0.0
 70
    24
 71
     3
 72
     8
 73
     4
 74
     2
 42
0.0000001
 43
0.0000001
 44
0.0000000001
 40
0.0
 40
0.0
 40
0.0
 40
0.0
 40
0.090056207010528
 40
0.090056207010528
 40
0.090056207010528
 40
0.090056207010528
 10
15.47108950464017
 20
-89.94749241701889
 30
0.0
 10
15.47027244899573
 20
-89.9775000312411
 30
0.0
 10
15.46945539335129
 20
-90.00750764546333
 30
0.0
 10
15.46863833770685
 20
-90.03751525968556
 30
0.0
 11
15.47108950464017
 21
-89.94749241701889
 31
0.0
 11
15.46863833770685
 21
-90.03751525968556
 31
0.0
  0
SPLINE
  5
72
100
AcDbEntity
  8
0
  6
HIDDEN
 62
     8
100
AcDbSpline
210
0.0
220
0.0
230
1.0
 70
     8
 71
     3
 72
    11
 73
     7
 74
     5
 42
0.0000001
 43
0.0000001
 44
0.0000000001
 40
0.0
 40
0.0
 40
0.0
 40
0.0
 40
0.0059993203840942
 40
0.012056114293853
 40
0.01745712146522
 40
0.0315140111787494
 40
0.0315140111787494
 40
0.0315140111787494
 40
0.0315140111787494
 10
15.46701098090686
 20
-90.26600366928555
 30
0.0
 10
15.46673123150689
 20
-90.26429609558991
 30
0.0
 10
15.466169052706
 20
-90.26086458963229
 30
0.0
 10
15.46414907094042
 20
-90.25130662277405
 30
0.0
 10
15.46162057971015
 20
-90.26425450843676
 30
0.0
 10
15.46175661179687
 20
-90.26965249013942
 30
0.0
 10
15.46185488490685
 20
-90.27355213221889
 30
0.0
 11
15.46701098090686
 21
-90.26600366928555
 31
0.0
 11
15.46596550144018
 21
-90.26009614715222
 31
0.0
 11
15.46412637504018
 21
-90.25432532688556
 31
0.0
 11
15.46263742144019
 21
-90.2595170410189
 31
0.0
 11
15.46185488490685
 21
-90.27355213221889
 31
0.0
  0
SPLINE
  5
73
100
AcDbEntity
  8
0
  6
HIDDEN
 62
     8
100
AcDbSpline
210
0.0
220
0.0
230
1.0
 70
     8
 71
     3
 72
    17
 73
    13
 74
    11
 42
0.0000001
 43
0.0000001
 44
0.0000000001
 40
0.0
 40
0.0
 40
0.0
 40
0.0
 40
0.0270990800145303
 40
0.0521444628024117
 40
0.075221934356435
 40
0.0964709088536883
 40
0.1160665510681326
 40
0.134193151890983
 40
0.1510106132673088
 40
0.1666015773878725
 40
0.1808351776755841
 40
0.1863804299817151
 40
0.1863804299817151
 40
0.1863804299817151
 40
0.1863804299817151
 10
15.4867598107735
 20
-90.45132755835224
 30
0.0
 10
15.48581425798069
 20
-90.44234415252891
 30
0.0
 10
15.48399481088484
 20
-90.42505814612047
 30
0.0
 10
15.4814405893398
 20
-90.40011457863929
 30
0.0
 10
15.47911160173652
 20
-90.377108220391
 30
0.0
 10
15.47697810346519
 20
-90.35590794003152
 30
0.0
 10
15.47500207651226
 20
-90.33635043549821
 30
0.0
 10
15.47314669513264
 20
-90.31826545316608
 30
0.0
 10
15.47137239930897
 20
-90.30151406763073
 30
0.0
 10
15.46964479564011
 20
-90.2860629689551
 30
0.0
 10
15.46819327374522
 20
-90.27436188649041
 30
0.0
 10
15.46726986911295
 20
-90.26783387901707
 30
0.0
 10
15.46701098090686
 20
-90.26600366928555
 30
0.0
 11
15.4867598107735
 21
-90.45132755835224
 31
0.0
 11
15.48393634304018
 21
-90.42437596901889
 31
0.0
 11
15.48137876330683
 21
-90.39946151568555
 31
0.0
 11
15.4790525691735
 21
-90.37650158288554
 31
0.0
 11
15.47692146410683
 21
-90.3553597450189
 31
0.0
 11
15.4749476539735
 21
-90.3358637642189
 31
0.0
 11
15.47309189824018
 21
-90.31783240741889
 31
0.0
 11
15.47131249877351
 21
-90.30110934715223
 31
0.0
 11
15.46956192810684
 21
-90.28561697275224
 31
0.0
 11
15.46777886464018
 21
-90.27149549755224
 31
0.0
 11
15.46701098090686
 21
-90.26600366928555
 31
0.0
  0
SPLINE
  5
74
100
AcDbEntity
  8
0
  6
HIDDEN
 62
     8
100
AcDbSpline
210
-0.9942587042861411
220
-0.1070029389841393
230
0.0
 70
    24
 71
     3
 72
     8
 73
     4
 74
     2
 42
0.0000001
 43
0.0000001
 44
0.0000000001
 40
0.0
 40
0.0
 40
0.0
 40
0.0
 40
0.0299278309274354
 40
0.0299278309274354
 40
0.0299278309274354
 40
0.0299278309274354
 10
15.48996217664016
 20
-90.48108356475223
 30
0.0
 10
15.48889472135127
 20
-90.47116489595223
 30
0.0
 10
15.48782726606239
 20
-90.46124622715224
 30
0.0
 10
15.4867598107735
 20
-90.45132755835224
 30
0.0
 11
15.48996217664016
 21
-90.48108356475223
 31
0.0
 11
15.4867598107735
 21
-90.45132755835224
 31
0.0
  0
SPLINE
  5
75
100
AcDbEntity
  8
0
  6
HIDDEN
 62
     8
100
AcDbSpline
210
0.0
220
0.0
230
1.0
 70
     8
 71
     3
 72
    15
 73
    11
 74
     9
 42
0.0000001
 43
0.0000001
 44
0.0000000001
 40
0.0
 40
0.0
 40
0.0
 40
0.0
 40
0.0386619623602635
 40
0.0743225373160298
 40
0.1058636492858532
 40
0.1324543503171593
 40
0.1535121459942185
 40
0.16871835307587
 40
0.1780778080228116
 40
0.1821020958024674
 40
0.1821020958024674
 40
0.1821020958024674
 40
0.1821020958024674
 10
15.58306302570683
 20
-89.58681567355224
 30
0.0
 10
15.58221599426565
 20
-89.5739547469974
 30
0.0
 10
15.58058768773252
 20
-89.54923130733119
 30
0.0
 10
15.577250026526
 20
-89.51410858055385
 30
0.0
 10
15.57348228521692
 20
-89.4830298497942
 30
0.0
 10
15.56926336661012
 20
-89.45707142075406
 30
0.0
 10
15.56502443552397
 20
-89.43626435986223
 30
0.0
 10
15.56026915112247
 20
-89.42238683076254
 30
0.0
 10
15.55662310160949
 20
-89.41247124404297
 30
0.0
 10
15.55227664269609
 20
-89.41098752235339
 30
0.0
 10
15.55096972864019
 20
-89.4105413898189
 30
0.0
 11
15.58306302570683
 21
-89.58681567355224
 31
0.0
 11
15.58032847210684
 21
-89.54825053968555
 31
0.0
 11
15.5769565915735
 21
-89.51274973648557
 31
0.0
 11
15.57305914730683
 21
-89.48145034875222
 31
0.0
 11
15.56875841237352
 21
-89.45520974928557
 31
0.0
 11
15.56417995584017
 21
-89.43465571088557
 31
0.0
 11
15.55944043370685
 21
-89.42020698555223
 31
0.0
 11
15.5546518171735
 21
-89.41216530981888
 31
0.0
 11
15.55096972864019
 21
-89.4105413898189
 31
0.0
  0
SPLINE
  5
76
100
AcDbEntity
  8
0
  6
HIDDEN
 62
     8
100
AcDbSpline
210
0.0
220
0.0
230
1.0
 70
     8
 71
     3
 72
    15
 73
    11
 74
     9
 42
0.0000001
 43
0.0000001
 44
0.0000000001
 40
0.0
 40
0.0
 40
0.0
 40
0.0
 40
0.0246026958254598
 40
0.0541766447066941
 40
0.0879698043636124
 40
0.1251465180804884
 40
0.164786787226573
 40
0.2058741820027658
 40
0.2473148579857214
 40
0.2878569434585176
 40
0.2878569434585176
 40
0.2878569434585176
 40
0.2878569434585176
 10
15.60750094144019
 20
-90.36808049701891
 30
0.0
 10
15.60863478675067
 20
-90.35995684854901
 30
0.0
 10
15.61113158364537
 20
-90.34206807652184
 30
0.0
 10
15.61346017000697
 20
-90.31282370187955
 30
0.0
 10
15.61528753653433
 20
-90.27935861489121
 30
0.0
 10
15.61633923306165
 20
-90.24249906062555
 30
0.0
 10
15.6166507395272
 20
-90.20319647489202
 30
0.0
 10
15.61616249646924
 20
-90.16247463666797
 30
0.0
 10
15.61496456068705
 20
-90.12146490824205
 30
0.0
 10
15.61349016191815
 20
-90.09417624455752
 30
0.0
 10
15.61276104277349
 20
-90.08068146448556
 30
0.0
 11
15.60750094144019
 21
-90.36808049701891
 31
0.0
 11
15.61068331690684
 21
-90.3436844906189
 31
0.0
 11
15.61323398890685
 21
-90.31422074128554
 31
0.0
 11
15.6150865851735
 21
-90.28047840101889
 31
0.0
 11
15.61619227264019
 21
-90.24331813328556
 31
0.0
 11
15.6165176987735
 21
-90.20367919995221
 31
0.0
 11
15.61604654784018
 21
-90.16259450661889
 31
0.0
 11
15.61478298730683
 21
-90.1211730986189
 31
0.0
 11
15.61276104277349
 21
-90.08068146448556
 31
0.0
  0
LWPOLYLINE
  5
77
100
AcDbEntity
  8
0
  6
HIDDEN
 62
     8
100
AcDbPolyline
 90
        7
 70
     0
 43
0.0
 10
15.60718
 20
-89.341655
 10
15.628328
 20
-89.532135
 10
15.643971
 20
-89.754494
 10
15.652945
 20
-89.992169
 10
15.654576
 20
-90.227452
 10
15.648741
 20
-90.442788
 10
15.635876
 20
-90.622049
  0
LINE
  5
78
100
AcDbEntity
  8
0
  6
HIDDEN
 62
     8
100
AcDbLine
 10
15.513176
 20
-90.651673
 30
0.0
 11
15.489962
 21
-90.481084
 31
0.0
  0
SPLINE
  5
7C
100
AcDbEntity
  8
0
  6
HIDDEN
 62
     8
100
AcDbSpline
210
0.0
220
0.0
230
1.0
 70
     8
 71
     3
 72
     9
 73
     5
 74
     3
 42
0.0000001
 43
0.0000001
 44
0.0000000001
 40
0.0
 40
0.0
 40
0.0
 40
0.0
 40
0.1020417375079691
 40
0.2029988737286248
 40
0.2029988737286248
 40
0.2029988737286248
 40
0.2029988737286248
 10
15.32056282197349
 20
-88.57954711995224
 30
0.0
 10
15.35460990489204
 20
-88.58257637198473
 30
0.0
 10
15.42234218439846
 20
-88.58860267813996
 30
0.0
 10
15.48927970367462
 20
-88.57665403746699
 30
0.0
 10
15.52256964330685
 20
-88.57071163728555
 30
0.0
 11
15.32056282197349
 21
-88.57954711995224
 31
0.0
 11
15.42250325184018
 21
-88.58409299195223
 31
0.0
 11
15.52256964330685
 21
-88.57071163728555
 31
0.0
  0
LINE
  5
7D
100
AcDbEntity
  8
0
  6
HIDDEN
 62
     8
100
AcDbLine
 10
14.835667
 20
-88.109826
 30
0.0
 11
14.529916
 21
-87.709639
 31
0.0
  0
LINE
  5
7E
100
AcDbEntity
  8
0
  6
HIDDEN
 62
     8
100
AcDbLine
 10
14.664434
 20
-87.926304
 30
0.0
 11
14.758484
 21
-88.119122
 31
0.0
  0
SPLINE
  5
7F
100
AcDbEntity
  8
0
  6
HIDDEN
 62
     8
100
AcDbSpline
210
0.0
220
0.0
230
-1.0
 70
     8
 71
     3
 72
    10
 73
     6
 74
     4
 42
0.0000001
 43
0.0000001
 44
0.0000000001
 40
0.0
 40
0.0
 40
0.0
 40
0.0
 40
0.0452953325604789
 40
0.230148186439472
 40
0.3944864173451121
 40
0.3944864173451121
 40
0.3944864173451121
 40
0.3944864173451121
 10
14.75847777664016
 20
-88.11912544208558
 30
0.0
 10
14.76594421851693
 20
-88.13224185251536
 30
0.0
 10
14.80388163855464
 20
-88.19888708729708
 30
0.0
 10
14.87657032921608
 20
-88.30962457774347
 30
0.0
 10
14.95990505320859
 20
-88.39126433887463
 30
0.0
 10
14.99912449984019
 20
-88.42968609275223
 30
0.0
 11
14.75847777664016
 21
-88.11912544208558
 31
0.0
 11
14.78105024490683
 21
-88.15839567035222
 31
0.0
 11
14.88567271637352
 21
-88.31079224528556
 31
0.0
 11
14.99912449984019
 21
-88.42968609275223
 31
0.0
  0
SPLINE
  5
80
100
AcDbEntity
  8
0
  6
HIDDEN
 62
     8
100
AcDbSpline
210
0.0
220
0.0
230
1.0
 70
     8
 71
     3
 72
     9
 73
     5
 74
     3
 42
0.0000001
 43
0.0000001
 44
0.0000000001
 40
0.0
 40
0.0
 40
0.0
 40
0.0
 40
0.0277350698640939
 40
0.114336381649526
 40
0.114336381649526
 40
0.114336381649526
 40
0.114336381649526
 10
15.18586704597349
 20
-88.42590138555221
 30
0.0
 10
15.17770025597723
 20
-88.42156067215436
 30
0.0
 10
15.14403308937411
 20
-88.40366630714568
 30
0.0
 10
15.11259557256543
 20
-88.38201820591345
 30
0.0
 10
15.08878398997352
 20
-88.36562137808556
 30
0.0
 11
15.18586704597349
 21
-88.42590138555221
 31
0.0
 11
15.16149787370686
 21
-88.41265836688556
 31
0.0
 11
15.08878398997352
 21
-88.36562137808556
 31
0.0
  0
SPLINE
  5
82
100
AcDbEntity
  8
0
  6
HIDDEN
 62
     8
100
AcDbSpline
210
0.0
220
0.0
230
-1.0
 70
     8
 71
     3
 72
     9
 73
     5
 74
     3
 42
0.0000001
 43
0.0000001
 44
0.0000000001
 40
0.0
 40
0.0
 40
0.0
 40
0.0
 40
0.1693182019486119
 40
0.3607954722449059
 40
0.3607954722449059
 40
0.3607954722449059
 40
0.3607954722449059
 10
15.08878398997352
 20
-88.36562137808556
 30
0.0
 10
15.04478148869542
 20
-88.33000722581187
 30
0.0
 10
14.95101777607694
 20
-88.25411801401831
 30
0.0
 10
14.875660139874
 20
-88.15985306010572
 30
0.0
 10
14.83566719210684
 20
-88.10982583568556
 30
0.0
 11
15.08878398997352
 21
-88.36562137808556
 31
0.0
 11
14.96083013717351
 21
-88.25473195088555
 31
0.0
 11
14.83566719210684
 21
-88.10982583568556
 31
0.0
  0
SPLINE
  5
84
100
AcDbEntity
  8
0
  6
HIDDEN
 62
     8
100
AcDbSpline
210
-0.842376560007756
220
-0.5388893496345048
230
0.0
 70
    24
 71
     3
 72
     8
 73
     4
 74
     2
 42
0.0000001
 43
0.0000001
 44
0.0000000001
 40
0.0
 40
0.0
 40
0.0
 40
0.0
 40
0.0702282510481949
 40
0.0702282510481949
 40
0.0702282510481949
 40
0.0702282510481949
 10
14.51407037184019
 20
-87.70919553488557
 30
0.0
 10
14.5266854573513
 20
-87.72891507906335
 30
0.0
 10
14.53930054286241
 20
-87.74863462324113
 30
0.0
 10
14.55191562837352
 20
-87.7683541674189
 30
0.0
 11
14.51407037184019
 21
-87.70919553488557
 31
0.0
 11
14.55191562837352
 21
-87.7683541674189
 31
0.0
  0
LINE
  5
86
100
AcDbEntity
  8
0
  6
HIDDEN
 62
     8
100
AcDbLine
 10
16.803812
 20
-88.605892
 30
0.0
 11
16.209638
 21
-88.621884
 31
0.0
  0
LWPOLYLINE
  5
88
100
AcDbEntity
  8
0
  6
HIDDEN
 62
     8
100
AcDbPolyline
 90
       14
 70
     0
 43
0.0
 10
16.497266
 20
-90.386295
 10
16.808727
 20
-90.253076
 10
17.077696
 20
-90.113924
 10
17.301466
 20
-89.970239
 10
17.477789
 20
-89.823468
 10
17.604891
 20
-89.675089
 10
17.681493
 20
-89.526596
 10
17.706824
 20
-89.379482
 10
17.68063
 20
-89.235229
 10
17.603174
 20
-89.095288
 10
17.475232
 20
-88.961069
 10
17.29809
 20
-88.833924
 10
17.073529
 20
-88.715132
 10
16.803812
 20
-88.605892
  0
LINE
  5
89
100
AcDbEntity
  8
0
  6
HIDDEN
 62
     8
100
AcDbLine
 10
16.126793
 20
-88.764903
 30
0.0
 11
16.10524
 21
-88.569736
 31
0.0
  0
SPLINE
  5
8A
100
AcDbEntity
  8
0
  6
HIDDEN
 62
     8
100
AcDbSpline
210
0.0
220
0.0
230
-1.0
 70
     8
 71
     3
 72
    15
 73
    11
 74
     9
 42
0.0000001
 43
0.0000001
 44
0.0000000001
 40
0.0
 40
0.0
 40
0.0
 40
0.0
 40
0.0386619634996756
 40
0.0743225383545976
 40
0.10586365045624
 40
0.1324543514875508
 40
0.1535121471646037
 40
0.16871835290027
 40
0.1780778093093994
 40
0.1816888147410617
 40
0.1816888147410617
 40
0.1816888147410617
 40
0.1816888147410617
 10
16.12128467797352
 20
-88.6059629194189
 30
0.0
 10
16.12213173016599
 20
-88.61882376468049
 30
0.0
 10
16.12376007656551
 20
-88.64354704768794
 30
0.0
 10
16.12709747243832
 20
-88.67867084057342
 30
0.0
 10
16.13086604452625
 20
-88.70974621094864
 30
0.0
 10
16.13508256959141
 20
-88.73571434566647
 30
0.0
 10
16.13932780019693
 20
-88.75649585714914
 30
0.0
 10
16.14406856305042
 20
-88.77043228108991
 30
0.0
 10
16.14768841383964
 20
-88.78009702292411
 30
0.0
 10
16.15179175974485
 20
-88.78175072548135
 30
0.0
 10
16.15293414037351
 20
-88.78221111995223
 30
0.0
 11
16.12128467797352
 21
-88.6059629194189
 31
0.0
 11
16.12401923264018
 21
-88.64452805435222
 31
0.0
 11
16.12739111210685
 21
-88.68002885755222
 31
0.0
 11
16.13128855744018
 21
-88.71132824528556
 31
0.0
 11
16.13558929237352
 21
-88.73756884475223
 31
0.0
 11
16.14016774890684
 21
-88.75812288315223
 31
0.0
 11
16.14490726997352
 21
-88.77257160741889
 31
0.0
 11
16.14969588757351
 21
-88.78061328421889
 31
0.0
 11
16.15293414037351
 21
-88.78221111995223
 31
0.0
  0
LWPOLYLINE
  5
8C
100
AcDbEntity
  8
0
  6
HIDDEN
 62
     8
100
AcDbPolyline
 90
        7
 70
     0
 43
0.0
 10
16.90467
 20
-88.141732
 10
17.227241
 20
-88.260058
 10
17.497064
 20
-88.39027
 10
17.711082
 20
-88.530893
 10
17.866872
 20
-88.680334
 10
17.962671
 20
-88.836901
 10
17.996735
 20
-88.983254
  0
LWPOLYLINE
  5
8E
100
AcDbEntity
  8
0
  6
HIDDEN
 62
     8
100
AcDbPolyline
 90
        3
 70
     0
 43
0.0
 10
17.203284
 20
-88.425778
 10
17.268046
 20
-88.550985
 10
17.288128
 20
-88.652901
  0
LWPOLYLINE
  5
8F
100
AcDbEntity
  8
0
  6
HIDDEN
 62
     8
100
AcDbPolyline
 90
        7
 70
     0
 43
0.0
 10
17.981739
 20
-88.733878
 10
17.947675
 20
-88.587526
 10
17.851877
 20
-88.430958
 10
17.696086
 20
-88.281517
 10
17.482068
 20
-88.140895
 10
17.212245
 20
-88.010683
 10
16.889674
 20
-87.892356
  0
LWPOLYLINE
  5
91
100
AcDbEntity
  8
0
  6
HIDDEN
 62
     8
100
AcDbPolyline
 90
        6
 70
     0
 43
0.0
 10
16.278544
 20
-88.485265
 10
16.270172
 20
-88.695165
 10
16.254731
 20
-88.862295
 10
16.233429
 20
-88.973647
 10
16.207929
 20
-89.020579
 10
16.18706
 20
-89.010814
  0
LWPOLYLINE
  5
92
100
AcDbEntity
  8
0
  6
HIDDEN
 62
     8
100
AcDbPolyline
 90
        8
 70
     0
 43
0.0
 10
16.209638
 20
-88.621884
 10
16.217376
 20
-88.588871
 10
16.223644
 20
-88.539513
 10
16.228127
 20
-88.476283
 10
16.230601
 20
-88.402352
 10
16.230941
 20
-88.321428
 10
16.22913
 20
-88.237568
 10
16.225259
 20
-88.154978
  0
SPLINE
  5
94
100
AcDbEntity
  8
0
  6
HIDDEN
 62
     8
100
AcDbSpline
210
0.0
220
0.0
230
1.0
 70
     8
 71
     3
 72
    14
 73
    10
 74
     8
 42
0.0000001
 43
0.0000001
 44
0.0000000001
 40
0.0
 40
0.0
 40
0.0
 40
0.0
 40
0.0617333542356938
 40
0.3728673378450935
 40
0.657938019635216
 40
0.9124199840424889
 40
1.136349405530329
 40
1.336728554880527
 40
1.524049946190639
 40
1.524049946190639
 40
1.524049946190639
 40
1.524049946190639
 10
16.96440579797352
 20
-87.70811588155224
 30
0.0
 10
16.98350714747663
 20
-87.71576782721211
 30
0.0
 10
17.09887864197343
 20
-87.76198531600503
 30
0.0
 10
17.29792070840001
 20
-87.85520195625649
 30
0.0
 10
17.53931239303264
 20
-88.00551503752966
 30
0.0
 10
17.73233268331469
 20
-88.17386845513999
 30
0.0
 10
17.86963554981811
 20
-88.35533349779806
 30
0.0
 10
17.95666921320119
 20
-88.54293552267291
 30
0.0
 10
17.97357210148644
 20
-88.67167602595554
 30
0.0
 10
17.98173890090684
 20
-88.73387828688557
 30
0.0
 11
16.96440579797352
 21
-87.70811588155224
 31
0.0
 11
17.02163939477351
 21
-87.73125291728558
 31
0.0
 11
17.30275897237349
 21
-87.86458010448557
 31
0.0
 11
17.54333142677352
 21
-88.01751861435223
 31
0.0
 11
17.73321540437352
 21
-88.18694454288557
 31
0.0
 11
17.86731107370683
 21
-88.36628426875224
 31
0.0
 11
17.94830553024017
 21
-88.54956465915224
 31
0.0
 11
17.98173890090684
 21
-88.73387828688557
 31
0.0
  0
LINE
  5
95
100
AcDbEntity
  8
0
  6
HIDDEN
 62
     8
100
AcDbLine
 10
15.861271
 20
-91.085159
 30
0.0
 11
15.788227
 21
-91.090972
 31
0.0
  0
LINE
  5
96
100
AcDbEntity
  8
0
  6
HIDDEN
 62
     8
100
AcDbLine
 10
15.896324
 20
-91.171748
 30
0.0
 11
15.820186
 21
-91.183512
 31
0.0
  0
SPLINE
  5
97
100
AcDbEntity
  8
0
  6
HIDDEN
 62
     8
100
AcDbSpline
210
0.0
220
0.0
230
1.0
 70
     8
 71
     3
 72
    10
 73
     6
 74
     4
 42
0.0000001
 43
0.0000001
 44
0.0000000001
 40
0.0
 40
0.0
 40
0.0
 40
0.0
 40
0.0332202678613297
 40
0.0662075008506056
 40
0.0989467159378627
 40
0.0989467159378627
 40
0.0989467159378627
 40
0.0989467159378627
 10
15.82019220330685
 20
-91.18351137061889
 30
0.0
 10
15.81885912048322
 20
-91.17250031471368
 30
0.0
 10
15.81620230619901
 20
-91.15055544370141
 30
0.0
 10
15.80535781478256
 20
-91.11903911226519
 30
0.0
 10
15.79392278666627
 20
-91.10030444055384
 30
0.0
 10
15.78822684757351
 20
-91.09097245221891
 30
0.0
 11
15.82019220330685
 21
-91.18351137061889
 31
0.0
 11
15.81503497557351
 21
-91.15069385701891
 31
0.0
 11
15.80426476970684
 21
-91.11951437328555
 31
0.0
 11
15.78822684757351
 21
-91.09097245221891
 31
0.0
  0
LWPOLYLINE
  5
9A
100
AcDbEntity
  8
0
  6
HIDDEN
 62
     8
100
AcDbPolyline
 90
        4
 70
     0
 43
0.0
 10
17.150761
 20
-89.943068
 10
17.020228
 20
-90.024409
 10
16.852354
 20
-90.101475
 10
16.650873
 20
-90.172553
  0
LWPOLYLINE
  5
9D
100
AcDbEntity
  8
0
  6
HIDDEN
 62
     8
100
AcDbPolyline
 90
        4
 70
     0
 43
0.0
 10
16.933947
 20
-89.206857
 10
16.819207
 20
-89.278654
 10
16.67226
 20
-89.34681
 10
16.496213
 20
-89.409882
  0
SPLINE
  5
9E
100
AcDbEntity
  8
0
  6
HIDDEN
 62
     8
100
AcDbSpline
210
0.0
220
0.0
230
1.0
 70
     8
 71
     3
 72
    15
 73
    11
 74
     9
 42
0.0000001
 43
0.0000001
 44
0.0000000001
 40
0.0
 40
0.0
 40
0.0
 40
0.0
 40
0.1943967092630889
 40
0.4037122077106242
 40
0.6391211259424975
 40
0.9078069473202635
 40
1.208269871913481
 40
1.536179842759487
 40
1.891246569426239
 40
2.158911880589773
 40
2.158911880589773
 40
2.158911880589773
 40
2.158911880589773
 10
17.9967347931735
 20
-88.98325380261891
 30
0.0
 10
17.99587565986578
 20
-89.04837726465521
 30
0.0
 10
17.99409145988784
 20
-89.18362202642148
 30
0.0
 10
17.92425999320524
 20
-89.38838224498951
 30
0.0
 10
17.7994073326635
 20
-89.59244433962648
 30
0.0
 10
17.61374649908166
 20
-89.78836641648825
 30
0.0
 10
17.37568577883636
 20
-89.97073118096579
 30
0.0
 10
17.09309959895385
 20
-90.13794881279036
 30
0.0
 10
16.80730001189945
 20
-90.27570392242399
 30
0.0
 10
16.61446878519249
 20
-90.35262499576024
 30
0.0
 10
16.53158525397351
 20
-90.38568753595223
 30
0.0
 11
17.9967347931735
 21
-88.98325380261891
 31
0.0
 11
17.98434348117352
 21
-89.17725518395222
 31
0.0
 11
17.92063384597351
 21
-89.3766393866189
 31
0.0
 11
17.79910187477351
 21
-89.57825123835222
 31
0.0
 11
17.61668842730684
 21
-89.77552618555224
 31
0.0
 11
17.37981388010685
 21
-89.96037319781889
 31
0.0
 11
17.09881003264017
 21
-90.12937552528557
 31
0.0
 11
16.77919866730682
 21
-90.28403953381889
 31
0.0
 11
16.53158525397351
 21
-90.38568753595223
 31
0.0
  0
SPLINE
  5
9F
100
AcDbEntity
  8
0
  6
HIDDEN
 62
     8
100
AcDbSpline
210
0.0
220
0.0
230
1.0
 70
     8
 71
     3
 72
    12
 73
     8
 74
     6
 42
0.0000001
 43
0.0000001
 44
0.0000000001
 40
0.0
 40
0.0
 40
0.0
 40
0.0
 40
0.096355212461497
 40
0.2855725830002932
 40
0.4442308733747521
 40
0.5689691577649905
 40
0.658157353942764
 40
0.658157353942764
 40
0.658157353942764
 40
0.658157353942764
 10
16.40797015637351
 20
-89.26639740261888
 30
0.0
 10
16.43900653502957
 20
-89.25813339041317
 30
0.0
 10
16.53099054495878
 20
-89.23364093949905
 30
0.0
 10
16.67233626401699
 20
-89.18896220076598
 30
0.0
 10
16.81889628820981
 20
-89.13113731585276
 30
0.0
 10
16.93128323157773
 20
-89.07736271175114
 30
0.0
 10
16.99045737791481
 20
-89.03744409781745
 30
0.0
 10
17.01512770090686
 20
-89.02080160848557
 30
0.0
 11
16.40797015637351
 21
-89.26639740261888
 31
0.0
 11
16.50095174997351
 21
-89.24112389435224
 31
0.0
 11
16.6812284379735
 21
-89.1836475594189
 31
0.0
 11
16.82866325930685
 21
-89.1250350474189
 31
0.0
 11
16.94018597184019
 21
-89.06915728635222
 31
0.0
 11
17.01512770090686
 21
-89.02080160848557
 31
0.0
  0
SPLINE
  5
A0
100
AcDbEntity
  8
0
  6
HIDDEN
 62
     8
100
AcDbSpline
210
0.0
220
0.0
230
-1.0
 70
     8
 71
     3
 72
    16
 73
    12
 74
    10
 42
0.0000001
 43
0.0000001
 44
0.0000000001
 40
0.0
 40
0.0
 40
0.0
 40
0.0
 40
0.0235986505206541
 40
0.2360232591218863
 40
0.4266660109792099
 40
0.5915733214046465
 40
0.727430873851282
 40
0.8319444269343978
 40
0.9045203814870319
 40
0.9466068043926991
 40
0.960698258129938
 40
0.960698258129938
 40
0.960698258129938
 40
0.960698258129938
 10
16.35598158464016
 20
-88.79508813221891
 30
0.0
 10
16.36382013942577
 20
-88.79574674232157
 30
0.0
 10
16.44221789550459
 20
-88.80233386910601
 30
0.0
 10
16.58365944074634
 20
-88.81783120342348
 30
0.0
 10
16.7706643018167
 20
-88.84789746186797
 30
0.0
 10
16.93070100318703
 20
-88.88346172410999
 30
0.0
 10
17.06020828440833
 20
-88.92219222515807
 30
0.0
 10
17.15754778812081
 20
-88.96049216054075
 30
0.0
 10
17.22188895414858
 20
-88.99503477631421
 30
0.0
 10
17.25772747769529
 20
-89.01937293278448
 30
0.0
 10
17.27045260087452
 20
-89.03314495034944
 30
0.0
 10
17.27364452437352
 20
-89.03659947301889
 30
0.0
 11
16.35598158464016
 21
-88.79508813221891
 31
0.0
 11
16.37949569877351
 21
-88.79708381328557
 31
0.0
 11
16.59062770410683
 21
-88.82048233168557
 31
0.0
 11
16.77877184917351
 21
-88.85124658875223
 31
0.0
 11
16.93960841024018
 21
-88.88766116901889
 31
0.0
 11
17.06957085290683
 21
-88.92724700048557
 31
0.0
 11
17.16640339584016
 21
-88.96657309115223
 31
0.0
 11
17.23014072704016
 21
-89.00128363408557
 31
0.0
 11
17.26388553770685
 21
-89.02643427515222
 31
0.0
 11
17.27364452437352
 21
-89.03659947301889
 31
0.0
  0
LINE
  5
A1
100
AcDbEntity
  8
0
  6
HIDDEN
 62
     8
100
AcDbLine
 10
16.152923
 20
-88.782298
 30
0.0
 11
16.154415
 21
-88.78203
 31
0.0
  0
LINE
  5
A2
100
AcDbEntity
  8
0
  6
HIDDEN
 62
     8
100
AcDbLine
 10
16.122943
 20
-90.528423
 30
0.0
 11
16.12574
 21
-90.527899
 31
0.0
  0
LWPOLYLINE
  5
A3
100
AcDbEntity
  8
0
  6
HIDDEN
 62
     8
100
AcDbPolyline
 90
        7
 70
     0
 43
0.0
 10
16.044888
 20
-89.711865
 10
16.049134
 20
-89.714731
 10
16.055154
 20
-89.728683
 10
16.060975
 20
-89.753545
 10
16.066307
 20
-89.788071
 10
16.070881
 20
-89.830531
 10
16.074469
 20
-89.878794
  0
LWPOLYLINE
  5
A4
100
AcDbEntity
  8
0
  6
HIDDEN
 62
     8
100
AcDbPolyline
 90
        7
 70
     0
 43
0.0
 10
16.057514
 20
-90.180677
 10
16.053268
 20
-90.177811
 10
16.047248
 20
-90.163859
 10
16.041426
 20
-90.138997
 10
16.036094
 20
-90.10447
 10
16.03152
 20
-90.062011
 10
16.027933
 20
-90.013748
  0
LINE
  5
A7
100
AcDbEntity
  8
0
  6
HIDDEN
 62
     8
100
AcDbLine
 10
16.146452
 20
-90.512235
 30
0.0
 11
16.497266
 21
-90.386295
 31
0.0
  0
LINE
  5
A8
100
AcDbEntity
  8
0
  6
HIDDEN
 62
     8
100
AcDbLine
 10
16.152451
 20
-88.911963
 30
0.0
 11
16.126793
 21
-88.764903
 31
0.0
  0
LINE
  5
A9
100
AcDbEntity
  8
0
  6
HIDDEN
 62
     8
100
AcDbLine
 10
16.17256
 20
-90.258857
 30
0.0
 11
16.158168
 21
-90.019524
 31
0.0
  0
LWPOLYLINE
  5
AA
100
AcDbEntity
  8
0
  6
HIDDEN
 62
     8
100
AcDbPolyline
 90
       10
 70
     0
 43
0.0
 10
16.074469
 20
-89.878794
 10
16.076889
 20
-89.93044
 10
16.078022
 20
-89.98288
 10
16.077809
 20
-90.033485
 10
16.076263
 20
-90.079716
 10
16.073459
 20
-90.119256
 10
16.06954
 20
-90.150122
 10
16.0647
 20
-90.170765
 10
16.059184
 20
-90.180152
 10
16.057514
 20
-90.180677
  0
LWPOLYLINE
  5
AB
100
AcDbEntity
  8
0
  6
HIDDEN
 62
     8
100
AcDbPolyline
 90
       10
 70
     0
 43
0.0
 10
16.027933
 20
-90.013748
 10
16.025512
 20
-89.962102
 10
16.02438
 20
-89.909661
 10
16.024592
 20
-89.859057
 10
16.026139
 20
-89.812826
 10
16.028942
 20
-89.773286
 10
16.032862
 20
-89.74242
 10
16.037701
 20
-89.721777
 10
16.043217
 20
-89.71239
 10
16.044888
 20
-89.711865
  0
LINE
  5
AC
100
AcDbEntity
  8
0
  6
HIDDEN
 62
     8
100
AcDbLine
 10
16.209638
 20
-88.621884
 30
0.0
 11
16.154415
 21
-88.78203
 31
0.0
  0
SPLINE
  5
B6
100
AcDbEntity
  8
0
  6
HIDDEN
 62
     8
100
AcDbSpline
210
0.0
220
0.0
230
1.0
 70
     8
 71
     3
 72
    11
 73
     7
 74
     5
 42
0.0000001
 43
0.0000001
 44
0.0000000001
 40
0.0
 40
0.0
 40
0.0
 40
0.0
 40
0.0209826338134255
 40
0.0301983844075032
 40
0.0337129420209752
 40
0.0339177068228537
 40
0.0339177068228537
 40
0.0339177068228537
 40
0.0339177068228537
 10
16.14645196757349
 20
-90.51223549541889
 30
0.0
 10
16.14092740574004
 20
-90.51425088778225
 30
0.0
 10
16.13297640952988
 20
-90.51715145755162
 30
0.0
 10
16.11740294909063
 20
-90.52449764567677
 30
0.0
 10
16.12168226967787
 20
-90.52809235624545
 30
0.0
 10
16.12285884229052
 20
-90.52846808259024
 30
0.0
 10
16.12292361770686
 20
-90.52848876795222
 30
0.0
 11
16.14645196757349
 21
-90.51223549541889
 31
0.0
 11
16.12698209237349
 21
-90.52005821115223
 31
0.0
 11
16.12005830144018
 21
-90.52614024848557
 31
0.0
 11
16.12272912810685
 21
-90.52842471781891
 31
0.0
 11
16.12292361770686
 21
-90.52848876795222
 31
0.0
  0
SPLINE
  5
B7
100
AcDbEntity
  8
0
  6
HIDDEN
 62
     8
100
AcDbSpline
210
0.0
220
0.0
230
1.0
 70
     8
 71
     3
 72
     9
 73
     5
 74
     3
 42
0.0000001
 43
0.0000001
 44
0.0000000001
 40
0.0
 40
0.0
 40
0.0
 40
0.0
 40
0.1152756652982575
 40
0.4300349622667105
 40
0.4300349622667105
 40
0.4300349622667105
 40
0.4300349622667105
 10
16.53158525397351
 20
-90.38568753595223
 30
0.0
 10
16.4956561350962
 20
-90.39931805272191
 30
0.0
 10
16.36162283985819
 20
-90.45016658826979
 30
0.0
 10
16.22545302568562
 20
-90.49504963639495
 30
0.0
 10
16.12578504810686
 20
-90.52790128315223
 30
0.0
 11
16.53158525397351
 21
-90.38568753595223
 31
0.0
 11
16.42364437397351
 21
-90.42615042555222
 31
0.0
 11
16.12578504810686
 21
-90.52790128315223
 31
0.0
  0
SPLINE
  5
BC
100
AcDbEntity
  8
0
  6
HIDDEN
 62
     8
100
AcDbSpline
210
-0.2324587382204964
220
0.9726062589891835
230
0.0
 70
    24
 71
     3
 72
     8
 73
     4
 74
     2
 42
0.0000001
 43
0.0000001
 44
0.0000000001
 40
0.0
 40
0.0
 40
0.0
 40
0.0
 40
0.0879648423767773
 40
0.0879648423767773
 40
0.0879648423767773
 40
0.0879648423767773
 10
16.29224456597351
 20
-89.2945116970189
 30
0.0
 10
16.32076295139573
 20
-89.28769563159667
 30
0.0
 10
16.34928133681795
 20
-89.28087956617446
 30
0.0
 10
16.37779972224016
 20
-89.27406350075223
 30
0.0
 11
16.29224456597351
 21
-89.2945116970189
 31
0.0
 11
16.37779972224016
 21
-89.27406350075223
 31
0.0
  0
SPLINE
  5
BD
100
AcDbEntity
  8
0
  6
HIDDEN
 62
     8
100
AcDbSpline
210
0.0628225635276394
220
0.9980247118743182
230
0.0
 70
    24
 71
     3
 72
     8
 73
     4
 74
     2
 42
0.0000001
 43
0.0000001
 44
0.0000000001
 40
0.0
 40
0.0
 40
0.0
 40
0.0
 40
0.2034599261094308
 40
0.2034599261094308
 40
0.2034599261094308
 40
0.2034599261094308
 10
16.15292355050682
 20
-88.78230625808557
 30
0.0
 10
16.2206095618846
 20
-88.78656688279669
 30
0.0
 10
16.28829557326238
 20
-88.79082750750781
 30
0.0
 10
16.35598158464016
 20
-88.79508813221891
 30
0.0
 11
16.15292355050682
 21
-88.78230625808557
 31
0.0
 11
16.35598158464016
 21
-88.79508813221891
 31
0.0
  0
SPLINE
  5
BE
100
AcDbEntity
  8
0
  6
HIDDEN
 62
     8
100
AcDbSpline
210
0.0
220
0.0
230
1.0
 70
     8
 71
     3
 72
    18
 73
    14
 74
    12
 42
0.0000001
 43
0.0000001
 44
0.0000000001
 40
0.0
 40
0.0
 40
0.0
 40
0.0
 40
0.0041677290267246
 40
0.0076822866401966
 40
0.015243101424435
 40
0.0272279566218931
 40
0.0438691905036772
 40
0.0654273168438453
 40
0.0926302390478661
 40
0.1294819618009288
 40
0.1758906878371662
 40
0.2300202649302792
 40
0.2879122479948948
 40
0.2879122479948948
 40
0.2879122479948948
 40
0.2879122479948948
 10
16.12218501930685
 20
-90.5225559722189
 30
0.0
 10
16.12099269840985
 20
-90.52377214803327
 30
0.0
 10
16.11879491855442
 20
-90.52601389915261
 30
0.0
 10
16.12421112366004
 20
-90.53002879731444
 30
0.0
 10
16.13148951624153
 20
-90.52497176243013
 30
0.0
 10
16.14032516091613
 20
-90.51752088476792
 30
0.0
 10
16.1493998074402
 20
-90.50290249928034
 30
0.0
 10
16.15786542132059
 20
-90.48290109151222
 30
0.0
 10
16.16553503257861
 20
-90.45528953795033
 30
0.0
 10
16.17174236026639
 20
-90.41896378753879
 30
0.0
 10
16.17552686472688
 20
-90.37327259188424
 30
0.0
 10
16.17630195372255
 20
-90.32041860515226
 30
0.0
 10
16.17405856042507
 20
-90.28313482577654
 30
0.0
 10
16.1728991899735
 20
-90.26386682128556
 30
0.0
 11
16.12218501930685
 21
-90.5225559722189
 31
0.0
 11
16.12005830144018
 21
-90.52614024848557
 31
0.0
 11
16.12272912810685
 21
-90.52842471781891
 31
0.0
 11
16.12988417984017
 21
-90.52598112315221
 31
0.0
 11
16.13887040597352
 21
-90.51805114875223
 31
0.0
 11
16.14813816170685
 21
-90.50422944955222
 31
0.0
 11
16.15675490410684
 21
-90.48446826128555
 31
0.0
 11
16.16428488810685
 21
-90.4583282858189
 31
0.0
 11
16.17073804757352
 21
-90.42204597328556
 31
0.0
 11
16.17482889877349
 21
-90.37581789968557
 31
0.0
 11
16.17563177770684
 21
-90.32169427728558
 31
0.0
 11
16.1728991899735
 21
-90.26386682128556
 31
0.0
  0
SPLINE
  5
BF
100
AcDbEntity
  8
0
  6
HIDDEN
 62
     8
100
AcDbSpline
210
0.0
220
0.0
230
-1.0
 70
     8
 71
     3
 72
    19
 73
    15
 74
    13
 42
0.0000001
 43
0.0000001
 44
0.0000000001
 40
0.0
 40
0.0
 40
0.0
 40
0.0
 40
0.0688366126005513
 40
0.1399230287563336
 40
0.2070019370510592
 40
0.2652778475443403
 40
0.3134624189432187
 40
0.352952572344112
 40
0.3851493670205245
 40
0.4114359818069115
 40
0.4321637408530263
 40
0.4480217273339059
 40
0.4624976548044847
 40
0.4848683770267381
 40
0.4848683770267381
 40
0.4848683770267381
 40
0.4848683770267381
 10
16.15790328810685
 20
-90.01449113915224
 30
0.0
 10
16.15645021506942
 20
-89.99158533947172
 30
0.0
 10
16.15349657785923
 20
-89.94502510435401
 30
0.0
 10
16.14412077644689
 20
-89.87660746012885
 30
0.0
 10
16.13212454492265
 20
-89.81221482668843
 30
0.0
 10
16.11866994286372
 20
-89.75592893953511
 30
0.0
 10
16.10526097255299
 20
-89.70915145330762
 30
0.0
 10
16.0927284650647
 20
-89.6711933245062
 30
0.0
 10
16.08159333069128
 20
-89.64051334160444
 30
0.0
 10
16.07214205654974
 20
-89.61579291342642
 30
0.0
 10
16.06551924641193
 20
-89.59606799256901
 30
0.0
 10
16.06143878796696
 20
-89.5790572407615
 30
0.0
 10
16.06923619189955
 20
-89.56147012197716
 30
0.0
 10
16.08146156377377
 20
-89.55738400622625
 30
0.0
 10
16.08888395904016
 20
-89.55490320101889
 30
0.0
 11
16.15790328810685
 21
-90.01449113915224
 31
0.0
 11
16.15272507050683
 21
-89.94584956795224
 31
0.0
 11
16.14336232490684
 21
-89.87538242981889
 31
0.0
 11
16.13099603904017
 21
-89.80945326395222
 31
0.0
 11
16.1174300219735
 21
-89.75277835835223
 31
0.0
 11
16.10412650410684
 21
-89.70646670395224
 31
0.0
 11
16.09176787904017
 21
-89.66896021648556
 31
0.0
 11
16.08082123477349
 21
-89.63868143568557
 31
0.0
 11
16.07168425770685
 21
-89.61403388475224
 31
0.0
 11
16.06530485290686
 21
-89.59431224208556
 31
0.0
 11
16.06321734144016
 21
-89.5785922538189
 31
0.0
 11
16.06911374997351
 21
-89.56537163195223
 31
0.0
 11
16.08888395904016
 21
-89.55490320101889
 31
0.0
  0
SPLINE
  5
C0
100
AcDbEntity
  8
0
  6
HIDDEN
 62
     8
100
AcDbSpline
210
-0.9986198510142642
220
-0.0525204070838092
230
0.0
 70
    24
 71
     3
 72
     9
 73
     5
 74
     3
 42
0.0000001
 43
0.0000001
 44
0.0000000001
 40
0.0
 40
0.0
 40
0.0
 40
0.0
 40
0.0025173164468731
 40
0.0050396714410111
 40
0.0050396714410111
 40
0.0050396714410111
 40
0.0050396714410111
 10
16.15816797504017
 20
-90.01952389861889
 30
0.0
 10
16.15811918857522
 20
-90.01868620520154
 30
0.0
 10
16.15802151799654
 20
-90.01700914167741
 30
0.0
 10
16.1579427264614
 20
-90.01533108517691
 30
0.0
 10
16.15790329130685
 20
-90.01449121808555
 30
0.0
 11
16.15816797504017
 21
-90.01952389861889
 31
0.0
 11
16.15802632597352
 21
-90.0170105706189
 31
0.0
 11
16.15790329130685
 21
-90.01449121808555
 31
0.0
  0
SPLINE
  5
C1
100
AcDbEntity
  8
0
  6
HIDDEN
 62
     8
100
AcDbSpline
210
-0.9977155917335535
220
-0.067554407789317
230
0.0
 70
    24
 71
     3
 72
     9
 73
     5
 74
     3
 42
0.0000001
 43
0.0000001
 44
0.0000000001
 40
0.0
 40
0.0
 40
0.0
 40
0.0
 40
0.0025088904344442
 40
0.0050212685333042
 40
0.0050212685333042
 40
0.0050212685333042
 40
0.0050212685333042
 10
16.1728991835735
 20
-90.26386673381889
 30
0.0
 10
16.1728379575965
 20
-90.26303267374235
 30
0.0
 10
16.17271542053091
 20
-90.26136339414378
 30
0.0
 10
16.17261181561323
 20
-90.25969283261694
 30
0.0
 10
16.17255997717352
 20
-90.25885697168558
 30
0.0
 11
16.1728991835735
 21
-90.26386673381889
 31
0.0
 11
16.17272023210684
 21
-90.26136423355223
 31
0.0
 11
16.17255997717352
 21
-90.25885697168558
 31
0.0
  0
LWPOLYLINE
  5
C2
100
AcDbEntity
  8
0
  6
HIDDEN
 62
     8
100
AcDbPolyline
 90
        7
 70
     0
 43
0.0
 10
17.150761
 20
-89.943067
 10
17.102307
 20
-89.921558
 10
17.058287
 20
-89.890114
 10
17.020818
 20
-89.850246
 10
16.991699
 20
-89.803871
 10
16.972331
 20
-89.753218
 10
16.963645
 20
-89.700722
  0
LWPOLYLINE
  5
C4
100
AcDbEntity
  8
0
  6
HIDDEN
 62
     8
100
AcDbPolyline
 90
        7
 70
     0
 43
0.0
 10
17.43073
 20
-89.131157
 10
17.498048
 20
-89.261306
 10
17.519615
 20
-89.395206
 10
17.49523
 20
-89.531609
 10
17.42512
 20
-89.669242
 10
17.309939
 20
-89.806822
 10
17.150761
 20
-89.943068
  0
LINE
  5
C7
100
AcDbEntity
  8
0
  6
HIDDEN
 62
     8
100
AcDbLine
 10
17.996735
 20
-88.983254
 30
0.0
 11
17.981739
 21
-88.733878
 31
0.0
  0
LWPOLYLINE
  5
C8
100
AcDbEntity
  8
0
  6
HIDDEN
 62
     8
100
AcDbPolyline
 90
        6
 70
     0
 43
0.0
 10
16.933947
 20
-89.206856
 10
16.93636
 20
-89.15504
 10
16.949757
 20
-89.106395
 10
16.973493
 20
-89.063259
 10
17.006428
 20
-89.027705
 10
17.015128
 20
-89.020802
  0
LWPOLYLINE
  5
CA
100
AcDbEntity
  8
0
  6
HIDDEN
 62
     8
100
AcDbPolyline
 90
        6
 70
     0
 43
0.0
 10
17.288128
 20
-88.652901
 10
17.288794
 20
-88.6798
 10
17.265335
 20
-88.811023
 10
17.197888
 20
-88.943429
 10
17.087081
 20
-89.075785
 10
16.933947
 20
-89.206857
  0
LINE
  5
CC
100
AcDbEntity
  8
0
  6
HIDDEN
 62
     8
100
AcDbLine
 10
16.933947
 20
-89.206857
 30
0.0
 11
16.963645
 21
-89.700722
 31
0.0
  0
LWPOLYLINE
  5
CD
100
AcDbEntity
  8
0
  6
HIDDEN
 62
     8
100
AcDbPolyline
 90
        3
 70
     0
 43
0.0
 10
17.015128
 20
-89.020802
 10
17.046977
 20
-89.001443
 10
17.093193
 20
-88.985735
  0
SPLINE
  5
D0
100
AcDbEntity
  8
0
  6
HIDDEN
 62
     8
100
AcDbSpline
210
0.0
220
0.0
230
1.0
 70
     8
 71
     3
 72
    13
 73
     9
 74
     7
 42
0.0000001
 43
0.0000001
 44
0.0000000001
 40
0.0
 40
0.0
 40
0.0
 40
0.0
 40
0.0366936271435577
 40
0.0742942034275268
 40
0.1745086469980758
 40
0.2820285559079324
 40
0.3971500440313997
 40
0.5200807494780053
 40
0.5200807494780053
 40
0.5200807494780053
 40
0.5200807494780053
 10
15.9198488091735
 20
-88.20969677541889
 30
0.0
 10
15.92483152412532
 20
-88.19852521505527
 30
0.0
 10
15.93492011081106
 20
-88.17590596907527
 30
0.0
 10
15.95641468526241
 20
-88.12183965679876
 30
0.0
 10
15.98269271984842
 20
-88.04432007003578
 30
0.0
 10
16.01038600414137
 20
-87.94026712026122
 30
0.0
 10
16.03412414868064
 20
-87.82747828855637
 30
0.0
 10
16.04587362244354
 20
-87.74898833535123
 30
0.0
 10
16.05194107797352
 20
-87.70845594128557
 30
0.0
 11
15.9198488091735
 21
-88.20969677541889
 31
0.0
 11
15.93456823637352
 21
-88.17608486181889
 31
0.0
 11
15.94853764544017
 21
-88.14117556581889
 31
0.0
 11
15.98087878997351
 21
-88.04632312741889
 31
0.0
 11
16.00884690944018
 21
-87.94250446288556
 31
0.0
 11
16.03251125504017
 21
-87.8298414442189
 31
0.0
 11
16.05194107797352
 21
-87.70845594128557
 31
0.0
  0
SPLINE
  5
D1
100
AcDbEntity
  8
0
  6
HIDDEN
 62
     8
100
AcDbSpline
210
0.0
220
0.0
230
1.0
 70
     8
 71
     3
 72
     9
 73
     5
 74
     3
 42
0.0000001
 43
0.0000001
 44
0.0000000001
 40
0.0
 40
0.0
 40
0.0
 40
0.0
 40
0.0375971764208938
 40
0.0762963154829741
 40
0.0762963154829741
 40
0.0762963154829741
 40
0.0762963154829741
 10
15.91705888810683
 20
-88.21576765221889
 30
0.0
 10
15.91112001771252
 20
-88.22680606032761
 30
0.0
 10
15.89906821030696
 20
-88.24920640917472
 30
0.0
 10
15.88588989769106
 20
-88.27096329014963
 30
0.0
 10
15.87920557290685
 20
-88.28199885008556
 30
0.0
 11
15.91705888810683
 21
-88.21576765221889
 31
0.0
 11
15.89896872704018
 21
-88.24872662288557
 31
0.0
 11
15.87920557290685
 21
-88.28199885008556
 31
0.0
  0
SPLINE
  5
D2
100
AcDbEntity
  8
0
  6
HIDDEN
 62
     8
100
AcDbSpline
210
-0.9103625321317643
220
0.4138116239191965
230
0.0
 70
    24
 71
     3
 72
     9
 73
     5
 74
     3
 42
0.0000001
 43
0.0000001
 44
0.0000000001
 40
0.0
 40
0.0
 40
0.0
 40
0.0
 40
0.0039207607801421
 40
0.0078424318768605
 40
0.0078424318768605
 40
0.0078424318768605
 40
0.0078424318768605
 10
15.92030417557352
 20
-88.20862820048557
 30
0.0
 10
15.91976534038398
 20
-88.20981887249782
 30
0.0
 10
15.91868754489894
 20
-88.21220049297085
 30
0.0
 10
15.91760181571316
 20
-88.21457850712624
 30
0.0
 10
15.91705888810683
 20
-88.21576765221889
 30
0.0
 11
15.92030417557352
 21
-88.20862820048557
 31
0.0
 11
15.91868568704016
 21
-88.21219931515223
 31
0.0
 11
15.91705888810683
 21
-88.21576765221889
 31
0.0
  0
SPLINE
  5
D3
100
AcDbEntity
  8
0
  6
HIDDEN
 62
     8
100
AcDbSpline
210
0.0
220
0.0
230
1.0
 70
     8
 71
     3
 72
     9
 73
     5
 74
     3
 42
0.0000001
 43
0.0000001
 44
0.0000000001
 40
0.0
 40
0.0
 40
0.0
 40
0.0
 40
0.0222459849790335
 40
0.0868395938960434
 40
0.0868395938960434
 40
0.0868395938960434
 40
0.0868395938960434
 10
15.88385809024019
 20
-88.28060182395224
 30
0.0
 10
15.8801823720919
 20
-88.28704384932354
 30
0.0
 10
15.86583381114598
 20
-88.31219098790338
 30
0.0
 10
15.84947537932972
 20
-88.33609847470606
 30
0.0
 10
15.83730754090685
 20
-88.3538815018189
 30
0.0
 11
15.88385809024019
 21
-88.28060182395224
 31
0.0
 11
15.87269903850683
 21
-88.2998465482189
 31
0.0
 11
15.83730754090685
 21
-88.3538815018189
 31
0.0
  0
SPLINE
  5
D6
100
AcDbEntity
  8
0
  6
HIDDEN
 62
     8
100
AcDbSpline
210
0.3426955631594416
220
0.9394465131080286
230
0.0
 70
    24
 71
     3
 72
     8
 73
     4
 74
     2
 42
0.0000001
 43
0.0000001
 44
0.0000000001
 40
0.0
 40
0.0
 40
0.0
 40
0.0
 40
0.2077787803170357
 40
0.2077787803170357
 40
0.2077787803170357
 40
0.2077787803170357
 10
16.76920874730685
 20
-87.63691101541891
 30
0.0
 10
16.8342744308624
 20
-87.66064597079667
 30
0.0
 10
16.89934011441796
 20
-87.68438092617444
 30
0.0
 10
16.96440579797352
 20
-87.70811588155224
 30
0.0
 11
16.76920874730685
 21
-87.63691101541891
 31
0.0
 11
16.96440579797352
 21
-87.70811588155224
 31
0.0
  0
LINE
  5
D7
100
AcDbEntity
  8
0
  6
HIDDEN
 62
     8
100
AcDbLine
 10
16.745863
 20
-87.633015
 30
0.0
 11
16.163569
 21
-87.648687
 31
0.0
  0
LINE
  5
D8
100
AcDbEntity
  8
0
  6
HIDDEN
 62
     8
100
AcDbLine
 10
16.746244
 20
-87.64856
 30
0.0
 11
16.15207
 21
-87.664551
 31
0.0
  0
LINE
  5
D9
100
AcDbEntity
  8
0
  6
HIDDEN
 62
     8
100
AcDbLine
 10
16.889946
 20
-87.897368
 30
0.0
 11
16.210867
 21
-87.915645
 31
0.0
  0
LINE
  5
DA
100
AcDbEntity
  8
0
  6
HIDDEN
 62
     8
100
AcDbLine
 10
16.640236
 20
-87.985356
 30
0.0
 11
16.143537
 21
-87.998724
 31
0.0
  0
LINE
  5
DB
100
AcDbEntity
  8
0
  6
HIDDEN
 62
     8
100
AcDbLine
 10
16.904338
 20
-88.136701
 30
0.0
 11
16.225259
 21
-88.154978
 31
0.0
  0
LINE
  5
DC
100
AcDbEntity
  8
0
  6
HIDDEN
 62
     8
100
AcDbLine
 10
16.652855
 20
-88.454186
 30
0.0
 11
16.156155
 21
-88.467555
 31
0.0
  0
LWPOLYLINE
  5
DD
100
AcDbEntity
  8
0
  6
HIDDEN
 62
     8
100
AcDbPolyline
 90
        4
 70
     0
 43
0.0
 10
16.189289
 20
-87.715354
 10
16.179979
 20
-87.675595
 10
16.170352
 20
-87.653285
 10
16.163562
 20
-87.648702
  0
LWPOLYLINE
  5
DE
100
AcDbEntity
  8
0
  6
HIDDEN
 62
     8
100
AcDbPolyline
 90
       10
 70
     0
 43
0.0
 10
16.652859
 20
-88.454177
 10
16.654529
 20
-88.453652
 10
16.660045
 20
-88.444266
 10
16.664884
 20
-88.423622
 10
16.668804
 20
-88.392756
 10
16.671607
 20
-88.353217
 10
16.673154
 20
-88.306985
 10
16.673367
 20
-88.256381
 10
16.672234
 20
-88.20394
 10
16.669814
 20
-88.152294
  0
LWPOLYLINE
  5
DF
100
AcDbEntity
  8
0
  6
HIDDEN
 62
     8
100
AcDbPolyline
 90
       10
 70
     0
 43
0.0
 10
16.640232
 20
-87.985366
 10
16.638562
 20
-87.98589
 10
16.633046
 20
-87.995277
 10
16.628207
 20
-88.01592
 10
16.624287
 20
-88.046786
 10
16.621484
 20
-88.086326
 10
16.619937
 20
-88.132557
 10
16.619724
 20
-88.183162
 10
16.620857
 20
-88.235602
 10
16.623277
 20
-88.287249
  0
LWPOLYLINE
  5
E0
100
AcDbEntity
  8
0
  6
HIDDEN
 62
     8
100
AcDbPolyline
 90
        3
 70
     0
 43
0.0
 10
16.163562
 20
-87.648702
 10
16.160891
 20
-87.649541
 10
16.15207
 20
-87.664551
  0
LINE
  5
E1
100
AcDbEntity
  8
0
  6
HIDDEN
 62
     8
100
AcDbLine
 10
16.904338
 20
-88.136701
 30
0.0
 11
16.889946
 21
-87.897368
 31
0.0
  0
LINE
  5
E2
100
AcDbEntity
  8
0
  6
HIDDEN
 62
     8
100
AcDbLine
 10
16.225259
 20
-88.154978
 30
0.0
 11
16.210867
 21
-87.915645
 31
0.0
  0
LWPOLYLINE
  5
E3
100
AcDbEntity
  8
0
  6
HIDDEN
 62
     8
100
AcDbPolyline
 90
        8
 70
     0
 43
0.0
 10
16.173114
 20
-88.165662
 10
16.169799
 20
-88.120462
 10
16.165612
 20
-88.080186
 10
16.160736
 20
-88.046595
 10
16.155383
 20
-88.021156
 10
16.149789
 20
-88.004983
 10
16.144197
 20
-87.998781
 10
16.14354
 20
-87.998726
  0
LWPOLYLINE
  5
E4
100
AcDbEntity
  8
0
  6
HIDDEN
 62
     8
100
AcDbPolyline
 90
        8
 70
     0
 43
0.0
 10
16.126578
 20
-88.300617
 10
16.129893
 20
-88.345817
 10
16.134081
 20
-88.386093
 10
16.138957
 20
-88.419684
 10
16.144309
 20
-88.445122
 10
16.149903
 20
-88.461296
 10
16.155495
 20
-88.467498
 10
16.156152
 20
-88.467553
  0
LWPOLYLINE
  5
E5
100
AcDbEntity
  8
0
  6
HIDDEN
 62
     8
100
AcDbPolyline
 90
        7
 70
     0
 43
0.0
 10
16.669814
 20
-88.152294
 10
16.666226
 20
-88.104031
 10
16.661652
 20
-88.061572
 10
16.65632
 20
-88.027045
 10
16.650498
 20
-88.002183
 10
16.644478
 20
-87.988231
 10
16.640232
 20
-87.985366
  0
LWPOLYLINE
  5
E6
100
AcDbEntity
  8
0
  6
HIDDEN
 62
     8
100
AcDbPolyline
 90
        7
 70
     0
 43
0.0
 10
16.623277
 20
-88.287249
 10
16.626865
 20
-88.335511
 10
16.631439
 20
-88.377971
 10
16.636771
 20
-88.412497
 10
16.642593
 20
-88.437359
 10
16.648613
 20
-88.451311
 10
16.652859
 20
-88.454177
  0
LWPOLYLINE
  5
E7
100
AcDbEntity
  8
0
  6
HIDDEN
 62
     8
100
AcDbPolyline
 90
        4
 70
     0
 43
0.0
 10
16.210867
 20
-87.915645
 10
16.20513
 20
-87.838465
 10
16.197815
 20
-87.770567
 10
16.189289
 20
-87.715354
  0
LINE
  5
E8
100
AcDbEntity
  8
0
  6
HIDDEN
 62
     8
100
AcDbLine
 10
16.079646
 20
-87.859081
 30
0.0
 11
16.084266
 21
-87.709639
 31
0.0
  0
LINE
  5
E9
100
AcDbEntity
  8
0
  6
HIDDEN
 62
     8
100
AcDbLine
 10
16.080713
 20
-88.098485
 30
0.0
 11
16.079646
 21
-87.859081
 31
0.0
  0
LINE
  5
EA
100
AcDbEntity
  8
0
  6
HIDDEN
 62
     8
100
AcDbLine
 10
16.089471
 20
-88.341673
 30
0.0
 11
16.080713
 21
-88.098485
 31
0.0
  0
LWPOLYLINE
  5
EB
100
AcDbEntity
  8
0
  6
HIDDEN
 62
     8
100
AcDbPolyline
 90
       10
 70
     0
 43
0.0
 10
16.156152
 20
-88.467553
 10
16.16084
 20
-88.463457
 10
16.165704
 20
-88.449351
 10
16.169875
 20
-88.425795
 10
16.173171
 20
-88.393819
 10
16.175448
 20
-88.35482
 10
16.176605
 20
-88.310504
 10
16.176593
 20
-88.262806
 10
16.175413
 20
-88.213812
 10
16.173114
 20
-88.165662
  0
LWPOLYLINE
  5
EC
100
AcDbEntity
  8
0
  6
HIDDEN
 62
     8
100
AcDbPolyline
 90
       10
 70
     0
 43
0.0
 10
16.14354
 20
-87.998726
 10
16.138853
 20
-88.002821
 10
16.133988
 20
-88.016928
 10
16.129817
 20
-88.040484
 10
16.126521
 20
-88.07246
 10
16.124245
 20
-88.111459
 10
16.123087
 20
-88.155775
 10
16.123099
 20
-88.203473
 10
16.12428
 20
-88.252467
 10
16.126578
 20
-88.300617
  0
LINE
  5
ED
100
AcDbEntity
  8
0
  6
HIDDEN
 62
     8
100
AcDbLine
 10
16.15207
 20
-87.664551
 30
0.0
 11
16.096847
 21
-87.824698
 31
0.0
  0
SPLINE
  5
EE
100
AcDbEntity
  8
0
  6
HIDDEN
 62
     8
100
AcDbSpline
210
0.0
220
0.0
230
-1.0
 70
     8
 71
     3
 72
    22
 73
    18
 74
    16
 42
0.0000001
 43
0.0000001
 44
0.0000000001
 40
0.0
 40
0.0
 40
0.0
 40
0.0
 40
0.0041342799284231
 40
0.0179609170422486
 40
0.0341334883012578
 40
0.0518207804820634
 40
0.0704569236426144
 40
0.0901873931462387
 40
0.1110820555350272
 40
0.1332247463343107
 40
0.1567062761767335
 40
0.1816151534668037
 40
0.2080312939859439
 40
0.2360201495430931
 40
0.2656287639752249
 40
0.2968863161404669
 40
0.3297938692406302
 40
0.3297938692406302
 40
0.3297938692406302
 40
0.3297938692406302
 10
16.28280301397352
 20
-88.15551480208556
 30
0.0
 10
16.28272229241221
 20
-88.15689052337459
 30
0.0
 10
16.28237160661174
 20
-88.16286719074433
 30
0.0
 10
16.28184343678714
 20
-88.17423411636239
 30
0.0
 10
16.28155612651172
 20
-88.19012811774207
 30
0.0
 10
16.28132714836377
 20
-88.20762505129867
 30
0.0
 10
16.28117646134927
 20
-88.22630921405894
 30
0.0
 10
16.28105408599139
 20
-88.2460625647848
 30
0.0
 10
16.28094451617699
 20
-88.2669848959844
 30
0.0
 10
16.28082935830074
 20
-88.28915755499764
 30
0.0
 10
16.28069410497853
 20
-88.31266820194347
 30
0.0
 10
16.28052383033603
 20
-88.33760314344592
 30
0.0
 10
16.2803029241422
 20
-88.36404019050181
 30
0.0
 10
16.28001508535356
 20
-88.39204327271735
 30
0.0
 10
16.27963953447814
 20
-88.42165925366888
 30
0.0
 10
16.27916466641288
 20
-88.45291362555746
 30
0.0
 10
16.2787542006632
 20
-88.47429807398425
 30
0.0
 10
16.27854369024016
 20
-88.48526524795223
 30
0.0
 11
16.28280301397352
 21
-88.15551480208556
 31
0.0
 11
16.28256470464019
 21
-88.15964220795223
 31
0.0
 11
16.28193995050684
 21
-88.17345472315222
 31
0.0
 11
16.28157809984019
 21
-88.18962324581891
 31
0.0
 11
16.28134570090684
 21
-88.20730901115222
 31
0.0
 11
16.28118504490684
 21
-88.2259444618189
 31
0.0
 11
16.28105955050684
 21
-88.2456745322189
 31
0.0
 11
16.2809468411735
 21
-88.2665688906189
 31
0.0
 11
16.28082967317349
 21
-88.28871127141891
 31
0.0
 11
16.28069275584017
 21
-88.31219240208556
 31
0.0
 11
16.28052110784018
 21
-88.33710068795223
 31
0.0
 11
16.28029908437351
 21
-88.36351589541889
 31
0.0
 11
16.28000974784019
 21
-88.3915032554189
 31
0.0
 11
16.27963444224018
 21
-88.42110949115221
 31
0.0
 11
16.27915272384017
 21
-88.45236333115222
 31
0.0
 11
16.27854369024016
 21
-88.48526524795223
 31
0.0
  0
SPLINE
  5
F0
100
AcDbEntity
  8
0
  6
HIDDEN
 62
     8
100
AcDbSpline
210
0.0
220
0.0
230
-1.0
 70
     8
 71
     3
 72
    12
 73
     8
 74
     6
 42
0.0000001
 43
0.0000001
 44
0.0000000001
 40
0.0
 40
0.0
 40
0.0
 40
0.0
 40
0.0124160861261227
 40
0.0362122696089771
 40
0.0633629491773948
 40
0.0947587555002753
 40
0.1069705004877601
 40
0.1069705004877601
 40
0.1069705004877601
 40
0.1069705004877601
 10
16.7692038427735
 20
-87.63685955088558
 30
0.0
 10
16.77306261933494
 20
-87.63836998471232
 30
0.0
 10
16.78431697564206
 20
-87.64277525674451
 30
0.0
 10
16.8020871576932
 20
-87.65460870464352
 30
0.0
 10
16.82174679863618
 20
-87.67391511861424
 30
0.0
 10
16.83562463554741
 20
-87.69315034691047
 30
0.0
 10
16.84280778468234
 20
-87.70578679086325
 30
0.0
 10
16.84481933504018
 20
-87.70932546768555
 30
0.0
 11
16.7692038427735
 21
-87.63685955088558
 31
0.0
 11
16.78065102144016
 21
-87.64166801168554
 31
0.0
 11
16.80068294144017
 21
-87.65451248635223
 31
0.0
 11
16.82019658304018
 21
-87.67339044155223
 31
0.0
 11
16.83867727744017
 21
-87.69877076048556
 31
0.0
 11
16.84481933504018
 21
-87.70932546768555
 31
0.0
  0
SPLINE
  5
F1
100
AcDbEntity
  8
0
  6
HIDDEN
 62
     8
100
AcDbSpline
210
-0.9985308049589958
220
-0.0541870053420568
230
0.0
 70
    24
 71
     3
 72
     9
 73
     5
 74
     3
 42
0.0000001
 43
0.0000001
 44
0.0000000001
 40
0.0
 40
0.0
 40
0.0
 40
0.0
 40
0.0025071827582338
 40
0.0050189665592504
 40
0.0050189665592504
 40
0.0050189665592504
 40
0.0050189665592504
 10
16.88967392810683
 20
-87.89235637328557
 30
0.0
 10
16.88971554419162
 20
-87.8931910685525
 30
0.0
 10
16.88979885273274
 20
-87.8948619908729
 30
0.0
 10
16.88989684743721
 20
-87.89653211626271
 30
0.0
 10
16.88994588970685
 20
-87.89736794448556
 30
0.0
 11
16.88967392810683
 21
-87.89235637328557
 31
0.0
 11
16.8898024411735
 21
-87.89486026021888
 31
0.0
 11
16.88994588970685
 21
-87.89736794448556
 31
0.0
  0
SPLINE
  5
F2
100
AcDbEntity
  8
0
  6
HIDDEN
 62
     8
100
AcDbSpline
210
-0.9978305091101731
220
-0.0658352116191072
230
0.0
 70
    24
 71
     3
 72
     9
 73
     5
 74
     3
 42
0.0000001
 43
0.0000001
 44
0.0000000001
 40
0.0
 40
0.0
 40
0.0
 40
0.0
 40
0.002517895752182
 40
0.0050418298163299
 40
0.0050418298163299
 40
0.0050418298163299
 40
0.0050418298163299
 10
16.90433789184017
 20
-88.13670101861889
 30
0.0
 10
16.90438949756937
 20
-88.13753873359228
 30
0.0
 10
16.90449283278647
 20
-88.13921617251194
 30
0.0
 10
16.90461077742597
 20
-88.14089264757706
 30
0.0
 10
16.90466982037351
 20
-88.14173188901889
 30
0.0
 11
16.90433789184017
 21
-88.13670101861889
 31
0.0
 11
16.90449635264018
 21
-88.13921392315224
 31
0.0
 11
16.90466982037351
 21
-88.14173188901889
 31
0.0
  0
SPLINE
  5
F3
100
AcDbEntity
  8
0
  6
HIDDEN
 62
     8
100
AcDbSpline
210
0.0
220
0.0
230
-1.0
 70
     8
 71
     3
 72
     9
 73
     5
 74
     3
 42
0.0000001
 43
0.0000001
 44
0.0000000001
 40
0.0
 40
0.0
 40
0.0
 40
0.0
 40
0.015744547692627
 40
0.0238853855130029
 40
0.0238853855130029
 40
0.0238853855130029
 40
0.0238853855130029
 10
16.74569154944019
 20
-87.63310269755223
 30
0.0
 10
16.7509658185699
 20
-87.63335101534149
 30
0.0
 10
16.75896718856299
 20
-87.63372772772736
 30
0.0
 10
16.76660175819788
 20
-87.63606346374949
 30
0.0
 10
16.7692038427735
 20
-87.63685955088558
 30
0.0
 11
16.74569154944019
 21
-87.63310269755223
 31
0.0
 11
16.76135497984016
 21
-87.63469885861891
 31
0.0
 11
16.7692038427735
 21
-87.63685955088558
 31
0.0
  0
SPLINE
  5
F4
100
AcDbEntity
  8
0
  6
HIDDEN
 62
     8
100
AcDbSpline
210
0.0
220
0.0
230
-1.0
 70
     8
 71
     3
 72
    15
 73
    11
 74
     9
 42
0.0000001
 43
0.0000001
 44
0.0000000001
 40
0.0
 40
0.0
 40
0.0
 40
0.0
 40
0.0246025253047294
 40
0.0541760834007296
 40
0.0879687721245878
 40
0.1251451963758007
 40
0.1647855542711424
 40
0.2058733659153499
 40
0.2473145420624659
 40
0.2878569445793977
 40
0.2878569445793977
 40
0.2878569445793977
 40
0.2878569445793977
 10
16.09684676330685
 20
-87.82469809595223
 30
0.0
 10
16.0957129247183
 20
-87.83282168794917
 30
0.0
 10
16.09321615118894
 20
-87.85071027426658
 30
0.0
 10
16.09088757812523
 20
-87.87995430441814
 30
0.0
 10
16.08906020919947
 20
-87.91341900698625
 30
0.0
 10
16.08800849333023
 20
-87.95027833669438
 30
0.0
 10
16.0876969609672
 20
-87.98958099431535
 30
0.0
 10
16.08818518915936
 20
-88.03030316806344
 30
0.0
 10
16.08938312546535
 20
-88.07131330813261
 30
0.0
 10
16.09085753772398
 20
-88.09860224391057
 30
0.0
 10
16.09158666197349
 20
-88.11209712955223
 30
0.0
 11
16.09684676330685
 21
-87.82469809595223
 31
0.0
 11
16.09366440597351
 21
-87.84909393275224
 31
0.0
 11
16.09111375530683
 21
-87.87855729168557
 31
0.0
 11
16.08926116224016
 21
-87.91229916048557
 31
0.0
 11
16.08815545664019
 21
-87.94945913808557
 31
0.0
 11
16.08783000384018
 21
-87.98909815995223
 31
0.0
 11
16.08830113984017
 21
-88.03018327035223
 31
0.0
 11
16.08956470464018
 21
-88.07160517861889
 31
0.0
 11
16.09158666197349
 21
-88.11209712955223
 31
0.0
  0
SPLINE
  5
F5
100
AcDbEntity
  8
0
  6
HIDDEN
 62
     8
100
AcDbSpline
210
0.0
220
0.0
230
1.0
 70
     8
 71
     3
 72
    11
 73
     7
 74
     5
 42
0.0000001
 43
0.0000001
 44
0.0000000001
 40
0.0
 40
0.0
 40
0.0
 40
0.0
 40
0.0150171584073203
 40
0.020959074370489
 40
0.0325438610301257
 40
0.0335498752112309
 40
0.0335498752112309
 40
0.0335498752112309
 40
0.0335498752112309
 10
16.74624378090685
 20
-87.64855971728556
 30
0.0
 10
16.74028508944154
 20
-87.64751273759861
 30
0.0
 10
16.73196869201237
 20
-87.6460514940978
 30
0.0
 10
16.73267158230733
 20
-87.63262588137706
 30
0.0
 10
16.74121115401027
 20
-87.63290455117617
 30
0.0
 10
16.74536004964909
 20
-87.63308803690824
 30
0.0
 10
16.74569154944019
 20
-87.63310269755223
 30
0.0
 11
16.74624378090685
 21
-87.64855971728556
 31
0.0
 11
16.73286949610683
 21
-87.64173010875223
 31
0.0
 11
16.73343441557351
 21
-87.63581510821889
 31
0.0
 11
16.7446864987735
 21
-87.63305867835224
 31
0.0
 11
16.74569154944019
 21
-87.63310269755223
 31
0.0
  0
LINE
  5
F7
100
AcDbEntity
  8
0
  6
HIDDEN
 62
     8
100
AcDbLine
 10
16.121285
 20
-88.605963
 30
0.0
 11
16.091587
 21
-88.112097
 31
0.0
  0
LINE
  5
F8
100
AcDbEntity
  8
0
  6
HIDDEN
 62
     8
100
AcDbLine
 10
16.10524
 20
-88.569736
 30
0.0
 11
16.089471
 21
-88.341673
 31
0.0
  0
SPLINE
  5
F9
100
AcDbEntity
  8
0
  6
HIDDEN
 62
     8
100
AcDbSpline
210
0.0
220
0.0
230
1.0
 70
     8
 71
     3
 72
    19
 73
    15
 74
    13
 42
0.0000001
 43
0.0000001
 44
0.0000000001
 40
0.0
 40
0.0
 40
0.0
 40
0.0
 40
0.0684117376528402
 40
0.1392844606370832
 40
0.2067798972508156
 40
0.2662585843924494
 40
0.3163077220915273
 40
0.358175208624971
 40
0.3931053849556882
 40
0.4223316902326612
 40
0.4458740032710842
 40
0.4636869792061118
 40
0.4768343682566184
 40
0.4937162816000451
 40
0.4937162816000451
 40
0.4937162816000451
 40
0.4937162816000451
 10
16.90466982464018
 20
-88.14173196901888
 30
0.0
 10
16.90559160241265
 20
-88.16453606105794
 30
0.0
 10
16.90746831720271
 20
-88.21096458003658
 30
0.0
 10
16.90153609159279
 20
-88.27980663200028
 30
0.0
 10
16.89033556718711
 20
-88.34486311983098
 30
0.0
 10
16.87519831948409
 20
-88.40197422558071
 30
0.0
 10
16.85844004060139
 20
-88.44962853768778
 30
0.0
 10
16.84153764696584
 20
-88.48841165524262
 30
0.0
 10
16.82542507427522
 20
-88.51991463311177
 30
0.0
 10
16.81071455449697
 20
-88.54511520335128
 30
0.0
 10
16.79875164171195
 20
-88.56555423214055
 30
0.0
 10
16.78953293659167
 20
-88.58075399921338
 30
0.0
 10
16.78755783596663
 20
-88.59905680751195
 30
0.0
 10
16.79796248816509
 20
-88.60343223052813
 30
0.0
 10
16.80381178944019
 20
-88.60589201168556
 30
0.0
 11
16.90466982464018
 21
-88.14173196901888
 31
0.0
 11
16.90601843264018
 21
-88.21013041275223
 31
0.0
 11
16.90042554304018
 21
-88.28078211088557
 31
0.0
 11
16.88884491264018
 21
-88.34727664421889
 31
0.0
 11
16.87357862037349
 21
-88.40476276901888
 31
0.0
 11
16.85691963690685
 21
-88.45195804901889
 31
0.0
 11
16.8401859547735
 21
-88.49033604155222
 31
0.0
 11
16.82425837610684
 21
-88.52142349008556
 31
0.0
 11
16.80973277610682
 21
-88.54678455995223
 31
0.0
 11
16.79778524117351
 21
-88.56706994661889
 31
0.0
 11
16.79005416810683
 21
-88.58311776955224
 31
0.0
 11
16.78994406357351
 21
-88.59626469755223
 31
0.0
 11
16.80381178944019
 21
-88.60589201168556
 31
0.0
  0
LINE
  5
100
100
AcDbEntity
  8
0
100
AcDbLine
 10
26.367001
 20
-105.709639
 30
0.0
 11
29.117001
 21
-105.709639
 31
0.0
  0
LINE
  5
101
100
AcDbEntity
  8
0
100
AcDbLine
 10
26.367001
 20
-105.709639
 30
0.0
 11
26.023251
 21
-104.459639
 31
0.0
  0
LINE
  5
102
100
AcDbEntity
  8
0
100
AcDbLine
 10
29.117001
 20
-105.709639
 30
0.0
 11
29.460751
 21
-104.459639
 31
0.0
  0
ARC
  5
106
100
AcDbEntity
  8
0
100
AcDbCircle
 10
35.138002
 20
-101.959639
 30
0.0
 40
2.5
100
AcDbArc
 50
270.211535
 51
271.49671
  0
LINE
  5
107
100
AcDbEntity
  8
0
100
AcDbLine
 10
35.169631
 20
-104.459611
 30
0.0
 11
35.133031
 21
-104.459639
 31
0.0
  0
LINE
  5
108
100
AcDbEntity
  8
0
100
AcDbLine
 10
35.203421
 20
-104.458783
 30
0.0
 11
35.138009
 21
-104.459639
 31
0.0
  0
LINE
  5
109
100
AcDbEntity
  8
0
100
AcDbLine
 10
35.167935
 20
-104.45656
 30
0.0
 11
35.134284
 21
-104.459639
 31
0.0
  0
SPLINE
  5
10A
100
AcDbEntity
  8
0
100
AcDbSpline
210
0.0011203730630363
220
0.9999993723819029
230
0.0
 70
    24
 71
     3
 72
     8
 73
     4
 74
     2
 42
0.0000001
 43
0.0000001
 44
0.0000000001
 40
0.0
 40
0.0
 40
0.0
 40
0.0
 40
0.0087770764420004
 40
0.0087770764420004
 40
0.0087770764420004
 40
0.0087770764420004
 10
35.14181799530684
 20
-104.4595453652855
 30
0.0
 10
35.13889230499572
 20
-104.4595420874188
 30
0.0
 10
35.1359666146846
 20
-104.4595388095522
 30
0.0
 10
35.13304092437349
 20
-104.4595355316855
 30
0.0
 11
35.14181799530684
 21
-104.4595453652855
 31
0.0
 11
35.13304092437349
 21
-104.4595355316855
 31
0.0
  0
SPLINE
  5
10B
100
AcDbEntity
  8
0
100
AcDbSpline
210
0.002368893498488
220
0.9999971941678602
230
0.0
 70
    24
 71
     3
 72
     8
 73
     4
 74
     2
 42
0.0000001
 43
0.0000001
 44
0.0000000001
 40
0.0
 40
0.0
 40
0.0
 40
0.0
 40
0.0225122263655195
 40
0.0225122263655195
 40
0.0225122263655195
 40
0.0225122263655195
 10
35.14181799530684
 20
-104.4595453652855
 30
0.0
 10
35.13431394090683
 20
-104.45952758893
 30
0.0
 10
35.12680988650684
 20
-104.4595098125744
 30
0.0
 10
35.11930583210684
 20
-104.4594920362189
 30
0.0
 11
35.14181799530684
 21
-104.4595453652855
 31
0.0
 11
35.11930583210684
 21
-104.4594920362189
 31
0.0
  0
SPLINE
  5
10C
100
AcDbEntity
  8
0
100
AcDbSpline
210
0.0080864094664095
220
0.9999673044564715
230
0.0
 70
    24
 71
     3
 72
     8
 73
     4
 74
     2
 42
0.0000001
 43
0.0000001
 44
0.0000000001
 40
0.0
 40
0.0
 40
0.0
 40
0.0
 40
0.0161642074309147
 40
0.0161642074309147
 40
0.0161642074309147
 40
0.0161642074309147
 10
35.11930583210684
 20
-104.4594920362189
 30
0.0
 10
35.11391793912905
 20
-104.4594484660855
 30
0.0
 10
35.10853004615126
 20
-104.4594048959522
 30
0.0
 10
35.10314215317348
 20
-104.4593613258189
 30
0.0
 11
35.11930583210684
 21
-104.4594920362189
 31
0.0
 11
35.10314215317348
 21
-104.4593613258189
 31
0.0
  0
LINE
  5
119
100
AcDbEntity
  8
CENTER
  6
CENTER
 48
3.0
100
AcDbLine
 10
30.716029
 20
-89.709639
 30
0.0
 11
24.767974
 21
-89.709639
 31
0.0
  0
SPLINE
  5
11A
100
AcDbEntity
  8
0
100
AcDbSpline
210
0.0
220
0.0
230
-1.0
 70
     8
 71
     3
 72
    14
 73
    10
 74
     8
 42
0.0000001
 43
0.0000001
 44
0.0000000001
 40
0.0
 40
0.0
 40
0.0
 40
0.0
 40
0.2932172210183919
 40
0.5894838254080124
 40
0.8813262868660549
 40
1.176168291104642
 40
1.468967892284418
 40
1.763052359255768
 40
2.057349860603925
 40
2.057349860603925
 40
2.057349860603925
 40
2.057349860603925
 10
27.74199857770685
 20
-88.39713917648557
 30
0.0
 10
27.8399379907739
 20
-88.40349845898749
 30
0.0
 10
28.03683536150971
 20
-88.41628315888698
 30
0.0
 10
28.3164931864735
 20
-88.51802735637475
 30
0.0
 10
28.56760906021447
 20
-88.67502842302076
 30
0.0
 10
28.77693026857219
 20
-88.88436969584768
 30
0.0
 10
28.93360027321417
 20
-89.13523257396724
 30
0.0
 10
29.03529741345804
 20
-89.41480101998941
 30
0.0
 10
29.04809857959235
 20
-89.61133607129204
 30
0.0
 10
29.05450148010685
 20
-89.70963917648557
 30
0.0
 11
27.74199857770685
 21
-88.39713917648557
 31
0.0
 11
28.03338085077352
 21
-88.42989142288557
 31
0.0
 11
28.31298535957351
 21
-88.52784661435224
 31
0.0
 11
28.56001975210684
 21
-88.68323654715222
 31
0.0
 11
28.76849318037352
 21
-88.8917326794189
 31
0.0
 11
28.92427479530685
 21
-89.1396514058189
 31
0.0
 11
29.02150680597351
 21
-89.4171970954189
 31
0.0
 11
29.05450148010685
 21
-89.70963917648557
 31
0.0
  0
SPLINE
  5
11B
100
AcDbEntity
  8
0
100
AcDbSpline
210
0.0
220
0.0
230
1.0
 70
     8
 71
     3
 72
    13
 73
     9
 74
     7
 42
0.0000001
 43
0.0000001
 44
0.0000000001
 40
0.0
 40
0.0
 40
0.0
 40
0.0
 40
0.3438168470344137
 40
0.685942530445934
 40
1.028536118299044
 40
1.3690810621788
 40
1.712655805046366
 40
2.055790226244374
 40
2.055790226244374
 40
2.055790226244374
 40
2.055790226244374
 10
29.05450148010685
 20
-89.70963917648557
 30
0.0
 10
29.04573715573597
 20
-89.82457929350491
 30
0.0
 10
29.02825161688452
 20
-90.05389416099339
 30
0.0
 10
28.89018987271869
 20
-90.37407347028347
 30
0.0
 10
28.68098017745149
 20
-90.64858401323869
 30
0.0
 10
28.40609133044138
 20
-90.85800127401032
 30
0.0
 10
28.08627375863249
 20
-90.99593425786556
 30
0.0
 10
27.85670790363283
 20
-91.01340793835206
 30
0.0
 10
27.74199857557352
 20
-91.02213917648557
 30
0.0
 11
29.05450148010685
 21
-89.70963917648557
 31
0.0
 11
29.00946908970684
 21
-90.05049414288556
 31
0.0
 11
28.87831670144016
 21
-90.3664831210189
 31
0.0
 11
28.66962085504018
 21
-90.63817487675223
 31
0.0
 11
28.39951223637352
 21
-90.84556868795223
 31
0.0
 11
28.08218886784017
 21
-90.97728612688557
 31
0.0
 11
27.74199857557352
 21
-91.02213917648557
 31
0.0
  0
SPLINE
  5
11C
100
AcDbEntity
  8
0
100
AcDbSpline
210
0.0
220
0.0
230
-1.0
 70
     8
 71
     3
 72
    13
 73
     9
 74
     7
 42
0.0000001
 43
0.0000001
 44
0.0000000001
 40
0.0
 40
0.0
 40
0.0
 40
0.0
 40
0.3430122322813903
 40
0.6854789515561515
 40
1.028919715731086
 40
1.370311392864974
 40
1.714228212868051
 40
2.055784519284641
 40
2.055784519284641
 40
2.055784519284641
 40
2.055784519284641
 10
26.42950148010685
 20
-89.70963917648557
 30
0.0
 10
26.43822624594351
 20
-89.59497006001734
 30
0.0
 10
26.45566190209638
 20
-89.36581419228131
 30
0.0
 10
26.59361694176396
 20
-89.04544163957641
 30
0.0
 10
26.8032455290495
 20
-88.77036404572615
 30
0.0
 10
27.0788260104096
 20
-88.56068870515477
 30
0.0
 10
27.39867568387074
 20
-88.42316025941125
 30
0.0
 10
27.62782064299754
 20
-88.40579293526685
 30
0.0
 10
27.74199857770685
 20
-88.39713917648557
 30
0.0
 11
26.42950148010685
 21
-89.70963917648557
 31
0.0
 11
26.47432334357351
 21
-89.36956801915222
 31
0.0
 11
26.60545230997353
 21
-89.05320011941888
 31
0.0
 11
26.81465585024018
 21
-88.78083008208555
 31
0.0
 11
27.08556493930684
 21
-88.57308855355224
 31
0.0
 11
27.40334604650685
 21
-88.44158210128556
 31
0.0
 11
27.74199857770685
 21
-88.39713917648557
 31
0.0
  0
LINE
  5
11D
100
AcDbEntity
  8
CENTER
  6
CENTER
 48
3.0
100
AcDbLine
 10
27.742001
 20
-87.091802
 30
0.0
 11
27.742001
 21
-92.327477
 31
0.0
  0
SPLINE
  5
11E
100
AcDbEntity
  8
0
100
AcDbSpline
210
0.0
220
0.0
230
-1.0
 70
     8
 71
     3
 72
    14
 73
    10
 74
     8
 42
0.0000001
 43
0.0000001
 44
0.0000000001
 40
0.0
 40
0.0
 40
0.0
 40
0.0
 40
0.2950616850028917
 40
0.5915012179187621
 40
0.8827284275260717
 40
1.176777382054086
 40
1.468848009507839
 40
1.762579031203737
 40
2.057343950002418
 40
2.057343950002418
 40
2.057343950002418
 40
2.057343950002418
 10
27.74199857557352
 20
-91.02213917648557
 30
0.0
 10
27.64344002996856
 20
-91.01570098487867
 30
0.0
 10
27.44586270046522
 20
-91.00279453727731
 30
0.0
 10
27.16590478770049
 20
-90.90045678236593
 30
0.0
 10
26.91535709638914
 20
-90.74335318117206
 30
0.0
 10
26.70671620554732
 20
-90.53436811918272
 30
0.0
 10
26.55043357441284
 20
-90.28401932673384
 30
0.0
 10
26.44874562363321
 20
-90.0046742335429
 30
0.0
 10
26.4359237033314
 20
-89.80809931283289
 30
0.0
 10
26.42950148010685
 20
-89.70963917648557
 30
0.0
 11
27.74199857557352
 21
-91.02213917648557
 31
0.0
 11
27.44880690624018
 21
-90.98897228048555
 31
0.0
 11
27.16918504490685
 21
-90.89054458448556
 31
0.0
 11
26.92287562410685
 21
-90.73515810875223
 31
0.0
 11
26.71512425664018
 21
-90.52706159995222
 31
0.0
 11
26.55977798357351
 21
-90.27973026981889
 31
0.0
 11
26.46260104490686
 21
-90.00253980155223
 31
0.0
 11
26.42950148010685
 21
-89.70963917648557
 31
0.0
  0
LINE
  5
200
100
AcDbEntity
  8
CENTER
  6
CENTER
 48
3.0
100
AcDbLine
 10
27.742001
 20
-102.195053
 30
0.0
 11
27.742001
 21
-107.72336
 31
0.0
  0
LINE
  5
281
100
AcDbEntity
  8
0
100
AcDbLine
 10
14.408881
 20
-87.727388
 30
0.0
 11
16.016373
 21
-101.959639
 31
0.0
  0
LINE
  5
282
100
AcDbEntity
  8
0
100
AcDbLine
 10
17.845996
 20
-101.959639
 30
0.0
 11
16.236434
 21
-87.709639
 31
0.0
  0
LINE
  5
285
100
AcDbEntity
  8
0
100
AcDbLine
 10
11.304501
 20
-87.709639
 30
0.0
 11
44.179501
 21
-87.709639
 31
0.0
  0
SPLINE
  5
286
100
AcDbEntity
  8
0
100
AcDbSpline
210
0.0
220
0.0
230
1.0
 70
     8
 71
     3
 72
    15
 73
    11
 74
     9
 42
0.0000001
 43
0.0000001
 44
0.0000000001
 40
0.0
 40
0.0
 40
0.0
 40
0.0
 40
0.5123754702067629
 40
1.101529590134284
 40
1.657863183135703
 40
2.184264662786382
 40
2.683636995244915
 40
3.162328621412959
 40
3.624942714663731
 40
3.84168586621076
 40
3.84168586621076
 40
3.84168586621076
 40
3.84168586621076
 10
37.63800739370677
 20
-101.9596388778189
 30
0.0
 10
37.62775322669365
 20
-102.1307062826476
 30
0.0
 10
37.60570832204086
 20
-102.4984752709841
 30
0.0
 10
37.42141327251263
 20
-103.0274874865622
 30
0.0
 10
37.12806848726411
 20
-103.5056250339148
 30
0.0
 10
36.75775560782028
 20
-103.886972630395
 30
0.0
 10
36.33984715323626
 20
-104.1703021137879
 30
0.0
 10
35.89469774060931
 20
-104.3572712408019
 30
0.0
 10
35.51495740066506
 20
-104.441154845141
 30
0.0
 10
35.28877449240919
 20
-104.4542231948983
 30
0.0
 10
35.21661275904012
 20
-104.4583925407522
 30
0.0
 11
37.63800739370677
 21
-101.9596388778189
 31
0.0
 11
37.58552073450678
 21
-102.4693189471522
 31
0.0
 11
37.39828295530676
 21
-103.0279284628855
 31
0.0
 11
37.10606377664012
 21
-103.5013363402188
 31
0.0
 11
36.73961990784013
 21
-103.8792482463522
 31
0.0
 11
36.32614569237344
 21
-104.1592693162189
 31
0.0
 11
35.88512232277347
 21
-104.3453984660855
 31
0.0
 11
35.4327506385068
 21
-104.4422057930188
 31
0.0
 11
35.21661275904012
 21
-104.4583925407522
 31
0.0
  0
ARC
  5
287
100
AcDbEntity
  8
0
100
AcDbCircle
 10
36.96763
 20
-101.959639
 30
0.0
 40
2.5
100
AcDbArc
 50
270.0
 51
0.0
  0
LINE
  5
288
100
AcDbEntity
  8
0
100
AcDbLine
 10
41.075122
 20
-87.727388
 30
0.0
 11
39.46763
 21
-101.959639
 31
0.0
  0
LINE
  5
289
100
AcDbEntity
  8
0
100
AcDbLine
 10
37.638007
 20
-101.959639
 30
0.0
 11
39.247569
 21
-87.709639
 31
0.0
  0
LINE
  5
28A
100
AcDbEntity
  8
0
  6
HIDDEN
 62
     8
100
AcDbLine
 10
40.648336
 20
-88.109826
 30
0.0
 11
40.954087
 21
-87.709639
 31
0.0
  0
LINE
  5
28B
100
AcDbEntity
  8
0
  6
HIDDEN
 62
     8
100
AcDbLine
 10
40.819569
 20
-87.926304
 30
0.0
 11
40.725519
 21
-88.119122
 31
0.0
  0
SPLINE
  5
28C
100
AcDbEntity
  8
0
  6
HIDDEN
 62
     8
100
AcDbSpline
210
0.0
220
0.0
230
1.0
 70
     8
 71
     3
 72
    10
 73
     6
 74
     4
 42
0.0000001
 43
0.0000001
 44
0.0000000001
 40
0.0
 40
0.0
 40
0.0
 40
0.0
 40
0.0452953325604789
 40
0.230148186439472
 40
0.3944864173451121
 40
0.3944864173451121
 40
0.3944864173451121
 40
0.3944864173451121
 10
40.72552518357345
 20
-88.11912544208558
 30
0.0
 10
40.71805874169668
 20
-88.13224185251536
 30
0.0
 10
40.68012132165897
 20
-88.19888708729708
 30
0.0
 10
40.60743263099753
 20
-88.30962457774347
 30
0.0
 10
40.52409790700501
 20
-88.39126433887463
 30
0.0
 10
40.48487846037342
 20
-88.42968609275223
 30
0.0
 11
40.72552518357345
 21
-88.11912544208558
 31
0.0
 11
40.70295271530677
 21
-88.15839567035222
 31
0.0
 11
40.59833024384009
 21
-88.31079224528556
 31
0.0
 11
40.48487846037342
 21
-88.42968609275223
 31
0.0
  0
SPLINE
  5
28D
100
AcDbEntity
  8
0
  6
HIDDEN
 62
     8
100
AcDbSpline
210
0.0
220
0.0
230
1.0
 70
     8
 71
     3
 72
     9
 73
     5
 74
     3
 42
0.0000001
 43
0.0000001
 44
0.0000000001
 40
0.0
 40
0.0
 40
0.0
 40
0.0
 40
0.1693182019486119
 40
0.3607954722449059
 40
0.3607954722449059
 40
0.3607954722449059
 40
0.3607954722449059
 10
40.39521897024009
 20
-88.36562137808556
 30
0.0
 10
40.43922147151819
 20
-88.33000722581187
 30
0.0
 10
40.53298518413668
 20
-88.25411801401831
 30
0.0
 10
40.60834282033961
 20
-88.15985306010572
 30
0.0
 10
40.64833576810677
 20
-88.10982583568556
 30
0.0
 11
40.39521897024009
 21
-88.36562137808556
 31
0.0
 11
40.52317282304009
 21
-88.25473195088555
 31
0.0
 11
40.64833576810677
 21
-88.10982583568556
 31
0.0
  0
SPLINE
  5
28E
100
AcDbEntity
  8
0
  6
HIDDEN
 62
     8
100
AcDbSpline
210
0.0
220
0.0
230
1.0
 70
     8
 71
     3
 72
     9
 73
     5
 74
     3
 42
0.0000001
 43
0.0000001
 44
0.0000000001
 40
0.0
 40
0.0
 40
0.0
 40
0.0
 40
0.0277350698640939
 40
0.114336381649526
 40
0.114336381649526
 40
0.114336381649526
 40
0.114336381649526
 10
40.29813591424011
 20
-88.42590138555221
 30
0.0
 10
40.30630270423638
 20
-88.42156067215436
 30
0.0
 10
40.33996987083949
 20
-88.40366630714568
 30
0.0
 10
40.37140738764818
 20
-88.38201820591345
 30
0.0
 10
40.39521897024009
 20
-88.36562137808556
 30
0.0
 11
40.29813591424011
 21
-88.42590138555221
 31
0.0
 11
40.32250508650675
 21
-88.41265836688556
 31
0.0
 11
40.39521897024009
 21
-88.36562137808556
 31
0.0
  0
SPLINE
  5
28F
100
AcDbEntity
  8
0
  6
HIDDEN
 62
     8
100
AcDbSpline
210
-0.842376560007756
220
0.5388893496345048
230
0.0
 70
    24
 71
     3
 72
     8
 73
     4
 74
     2
 42
0.0000001
 43
0.0000001
 44
0.0000000001
 40
0.0
 40
0.0
 40
0.0
 40
0.0
 40
0.0702282510481949
 40
0.0702282510481949
 40
0.0702282510481949
 40
0.0702282510481949
 10
40.96993258837342
 20
-87.70919553488557
 30
0.0
 10
40.95731750286232
 20
-87.72891507906335
 30
0.0
 10
40.94470241735121
 20
-87.74863462324113
 30
0.0
 10
40.93208733184009
 20
-87.7683541674189
 30
0.0
 11
40.96993258837342
 21
-87.70919553488557
 31
0.0
 11
40.93208733184009
 21
-87.7683541674189
 31
0.0
  0
SPLINE
  5
290
100
AcDbEntity
  8
0
  6
HIDDEN
 62
     8
100
AcDbSpline
210
-0.3426955631594416
220
0.9394465131080286
230
0.0
 70
    24
 71
     3
 72
     8
 73
     4
 74
     2
 42
0.0000001
 43
0.0000001
 44
0.0000000001
 40
0.0
 40
0.0
 40
0.0
 40
0.0
 40
0.2077787803170357
 40
0.2077787803170357
 40
0.2077787803170357
 40
0.2077787803170357
 10
38.71479421290676
 20
-87.63691101541891
 30
0.0
 10
38.64972852935121
 20
-87.66064597079667
 30
0.0
 10
38.58466284579565
 20
-87.68438092617444
 30
0.0
 10
38.51959716224008
 20
-87.70811588155224
 30
0.0
 11
38.71479421290676
 21
-87.63691101541891
 31
0.0
 11
38.51959716224008
 21
-87.70811588155224
 31
0.0
  0
SPLINE
  5
291
100
AcDbEntity
  8
0
  6
HIDDEN
 62
     8
100
AcDbSpline
210
0.0
220
0.0
230
-1.0
 70
     8
 71
     3
 72
    16
 73
    12
 74
    10
 42
0.0000001
 43
0.0000001
 44
0.0000000001
 40
0.0
 40
0.0
 40
0.0
 40
0.0
 40
0.0235986505206541
 40
0.2360232591218863
 40
0.4266660109792099
 40
0.5915733214046465
 40
0.727430873851282
 40
0.8319444269343978
 40
0.9045203814870319
 40
0.9466068043926991
 40
0.960698258129938
 40
0.960698258129938
 40
0.960698258129938
 40
0.960698258129938
 10
39.12802137557345
 20
-88.79508813221891
 30
0.0
 10
39.12018282078783
 20
-88.79574674232157
 30
0.0
 10
39.04178506470902
 20
-88.80233386910601
 30
0.0
 10
38.90034351946727
 20
-88.81783120342348
 30
0.0
 10
38.71333865839691
 20
-88.84789746186797
 30
0.0
 10
38.55330195702659
 20
-88.88346172410999
 30
0.0
 10
38.42379467580528
 20
-88.92219222515807
 30
0.0
 10
38.3264551720928
 20
-88.96049216054075
 30
0.0
 10
38.26211400606502
 20
-88.99503477631421
 30
0.0
 10
38.22627548251832
 20
-89.01937293278448
 30
0.0
 10
38.21355035933909
 20
-89.03314495034944
 30
0.0
 10
38.21035843584009
 20
-89.03659947301889
 30
0.0
 11
39.12802137557345
 21
-88.79508813221891
 31
0.0
 11
39.1045072614401
 21
-88.79708381328557
 31
0.0
 11
38.89337525610677
 21
-88.82048233168557
 31
0.0
 11
38.7052311110401
 21
-88.85124658875223
 31
0.0
 11
38.54439454997343
 21
-88.88766116901889
 31
0.0
 11
38.41443210730678
 21
-88.92724700048557
 31
0.0
 11
38.31759956437345
 21
-88.96657309115223
 31
0.0
 11
38.25386223317345
 21
-89.00128363408557
 31
0.0
 11
38.22011742250676
 21
-89.02643427515222
 31
0.0
 11
38.21035843584009
 21
-89.03659947301889
 31
0.0
  0
SPLINE
  5
292
100
AcDbEntity
  8
0
  6
HIDDEN
 62
     8
100
AcDbSpline
210
0.0
220
0.0
230
1.0
 70
     8
 71
     3
 72
    12
 73
     8
 74
     6
 42
0.0000001
 43
0.0000001
 44
0.0000000001
 40
0.0
 40
0.0
 40
0.0
 40
0.0
 40
0.096355212461497
 40
0.2855725830002932
 40
0.4442308733747521
 40
0.5689691577649905
 40
0.658157353942764
 40
0.658157353942764
 40
0.658157353942764
 40
0.658157353942764
 10
39.07603280384011
 20
-89.26639740261888
 30
0.0
 10
39.04499642518404
 20
-89.25813339041317
 30
0.0
 10
38.95301241525483
 20
-89.23364093949905
 30
0.0
 10
38.81166669619661
 20
-89.18896220076598
 30
0.0
 10
38.6651066720038
 20
-89.13113731585276
 30
0.0
 10
38.55271972863588
 20
-89.07736271175114
 30
0.0
 10
38.4935455822988
 20
-89.03744409781745
 30
0.0
 10
38.46887525930675
 20
-89.02080160848557
 30
0.0
 11
39.07603280384011
 21
-89.26639740261888
 31
0.0
 11
38.9830512102401
 21
-89.24112389435224
 31
0.0
 11
38.80277452224011
 21
-89.1836475594189
 31
0.0
 11
38.65533970090676
 21
-89.1250350474189
 31
0.0
 11
38.54381698837342
 21
-89.06915728635222
 31
0.0
 11
38.46887525930675
 21
-89.02080160848557
 31
0.0
  0
SPLINE
  5
293
100
AcDbEntity
  8
0
  6
HIDDEN
 62
     8
100
AcDbSpline
210
0.0
220
0.0
230
1.0
 70
     8
 71
     3
 72
    15
 73
    11
 74
     9
 42
0.0000001
 43
0.0000001
 44
0.0000000001
 40
0.0
 40
0.0
 40
0.0
 40
0.0
 40
0.1943967092630889
 40
0.4037122077106242
 40
0.6391211259424975
 40
0.9078069473202635
 40
1.208269871913481
 40
1.536179842759487
 40
1.891246569426239
 40
2.158911880589773
 40
2.158911880589773
 40
2.158911880589773
 40
2.158911880589773
 10
37.48726816704011
 20
-88.98325380261891
 30
0.0
 10
37.48812730034783
 20
-89.04837726465521
 30
0.0
 10
37.48991150032576
 20
-89.18362202642148
 30
0.0
 10
37.55974296700836
 20
-89.38838224498951
 30
0.0
 10
37.68459562755011
 20
-89.59244433962648
 30
0.0
 10
37.87025646113194
 20
-89.78836641648825
 30
0.0
 10
38.10831718137725
 20
-89.97073118096579
 30
0.0
 10
38.39090336125975
 20
-90.13794881279036
 30
0.0
 10
38.67670294831416
 20
-90.27570392242399
 30
0.0
 10
38.86953417502112
 20
-90.35262499576024
 30
0.0
 10
38.95241770624009
 20
-90.38568753595223
 30
0.0
 11
37.48726816704011
 21
-88.98325380261891
 31
0.0
 11
37.49965947904009
 21
-89.17725518395222
 31
0.0
 11
37.5633691142401
 21
-89.3766393866189
 31
0.0
 11
37.6849010854401
 21
-89.57825123835222
 31
0.0
 11
37.86731453290677
 21
-89.77552618555224
 31
0.0
 11
38.10418908010676
 21
-89.96037319781889
 31
0.0
 11
38.38519292757344
 21
-90.12937552528557
 31
0.0
 11
38.70480429290678
 21
-90.28403953381889
 31
0.0
 11
38.95241770624009
 21
-90.38568753595223
 31
0.0
  0
LWPOLYLINE
  5
294
100
AcDbEntity
  8
0
  6
HIDDEN
 62
     8
100
AcDbPolyline
 90
        4
 70
     0
 43
0.0
 10
38.550056
 20
-89.206857
 10
38.664796
 20
-89.278654
 10
38.811743
 20
-89.34681
 10
38.987789
 20
-89.409882
  0
LWPOLYLINE
  5
295
100
AcDbEntity
  8
0
  6
HIDDEN
 62
     8
100
AcDbPolyline
 90
        4
 70
     0
 43
0.0
 10
38.333242
 20
-89.943068
 10
38.463775
 20
-90.024409
 10
38.631648
 20
-90.101475
 10
38.83313
 20
-90.172553
  0
LWPOLYLINE
  5
296
100
AcDbEntity
  8
0
  6
HIDDEN
 62
     8
100
AcDbPolyline
 90
        7
 70
     0
 43
0.0
 10
37.502264
 20
-88.733878
 10
37.536328
 20
-88.587526
 10
37.632126
 20
-88.430958
 10
37.787917
 20
-88.281517
 10
38.001935
 20
-88.140895
 10
38.271757
 20
-88.010683
 10
38.594329
 20
-87.892356
  0
LWPOLYLINE
  5
297
100
AcDbEntity
  8
0
  6
HIDDEN
 62
     8
100
AcDbPolyline
 90
        7
 70
     0
 43
0.0
 10
38.579333
 20
-88.141732
 10
38.256762
 20
-88.260058
 10
37.986939
 20
-88.39027
 10
37.772921
 20
-88.530893
 10
37.61713
 20
-88.680334
 10
37.521332
 20
-88.836901
 10
37.487268
 20
-88.983254
  0
LWPOLYLINE
  5
298
100
AcDbEntity
  8
0
  6
HIDDEN
 62
     8
100
AcDbPolyline
 90
       14
 70
     0
 43
0.0
 10
38.986737
 20
-90.386295
 10
38.675276
 20
-90.253076
 10
38.406307
 20
-90.113924
 10
38.182537
 20
-89.970239
 10
38.006214
 20
-89.823468
 10
37.879112
 20
-89.675089
 10
37.80251
 20
-89.526596
 10
37.777179
 20
-89.379482
 10
37.803373
 20
-89.235229
 10
37.880829
 20
-89.095288
 10
38.008771
 20
-88.961069
 10
38.185913
 20
-88.833924
 10
38.410474
 20
-88.715132
 10
38.680191
 20
-88.605892
  0
LWPOLYLINE
  5
299
100
AcDbEntity
  8
0
  6
HIDDEN
 62
     8
100
AcDbPolyline
 90
       10
 70
     0
 43
0.0
 10
39.409534
 20
-89.878794
 10
39.407114
 20
-89.93044
 10
39.405981
 20
-89.98288
 10
39.406194
 20
-90.033485
 10
39.40774
 20
-90.079716
 10
39.410544
 20
-90.119256
 10
39.414463
 20
-90.150122
 10
39.419303
 20
-90.170765
 10
39.424819
 20
-90.180152
 10
39.426489
 20
-90.180677
  0
LWPOLYLINE
  5
29A
100
AcDbEntity
  8
0
  6
HIDDEN
 62
     8
100
AcDbPolyline
 90
        7
 70
     0
 43
0.0
 10
39.426489
 20
-90.180677
 10
39.430735
 20
-90.177811
 10
39.436755
 20
-90.163859
 10
39.442577
 20
-90.138997
 10
39.447909
 20
-90.10447
 10
39.452483
 20
-90.062011
 10
39.45607
 20
-90.013748
  0
LWPOLYLINE
  5
29B
100
AcDbEntity
  8
0
  6
HIDDEN
 62
     8
100
AcDbPolyline
 90
        7
 70
     0
 43
0.0
 10
39.876823
 20
-89.341655
 10
39.855675
 20
-89.532135
 10
39.840032
 20
-89.754494
 10
39.831058
 20
-89.992169
 10
39.829427
 20
-90.227452
 10
39.835262
 20
-90.442788
 10
39.848127
 20
-90.622049
  0
SPLINE
  5
29C
100
AcDbEntity
  8
0
  6
HIDDEN
 62
     8
100
AcDbSpline
210
0.0
220
0.0
230
-1.0
 70
     8
 71
     3
 72
    15
 73
    11
 74
     9
 42
0.0000001
 43
0.0000001
 44
0.0000000001
 40
0.0
 40
0.0
 40
0.0
 40
0.0
 40
0.0246026958254598
 40
0.0541766447066941
 40
0.0879698043636124
 40
0.1251465180804884
 40
0.164786787226573
 40
0.2058741820027658
 40
0.2473148579857214
 40
0.2878569434585176
 40
0.2878569434585176
 40
0.2878569434585176
 40
0.2878569434585176
 10
39.87650201877342
 20
-90.36808049701891
 30
0.0
 10
39.87536817346294
 20
-90.35995684854901
 30
0.0
 10
39.87287137656824
 20
-90.34206807652184
 30
0.0
 10
39.87054279020664
 20
-90.31282370187955
 30
0.0
 10
39.86871542367928
 20
-90.27935861489121
 30
0.0
 10
39.86766372715196
 20
-90.24249906062555
 30
0.0
 10
39.86735222068641
 20
-90.20319647489202
 30
0.0
 10
39.86784046374437
 20
-90.16247463666797
 30
0.0
 10
39.86903839952656
 20
-90.12146490824205
 30
0.0
 10
39.87051279829545
 20
-90.09417624455752
 30
0.0
 10
39.87124191744011
 20
-90.08068146448556
 30
0.0
 11
39.87650201877342
 21
-90.36808049701891
 31
0.0
 11
39.87331964330677
 21
-90.3436844906189
 31
0.0
 11
39.87076897130675
 21
-90.31422074128554
 31
0.0
 11
39.86891637504011
 21
-90.28047840101889
 31
0.0
 11
39.86781068757342
 21
-90.24331813328556
 31
0.0
 11
39.8674852614401
 21
-90.20367919995221
 31
0.0
 11
39.86795641237343
 21
-90.16259450661889
 31
0.0
 11
39.86921997290677
 21
-90.1211730986189
 31
0.0
 11
39.87124191744011
 21
-90.08068146448556
 31
0.0
  0
SPLINE
  5
29D
100
AcDbEntity
  8
0
  6
HIDDEN
 62
     8
100
AcDbSpline
210
0.0
220
0.0
230
-1.0
 70
     8
 71
     3
 72
    10
 73
     6
 74
     4
 42
0.0000001
 43
0.0000001
 44
0.0000000001
 40
0.0
 40
0.0
 40
0.0
 40
0.0
 40
0.0198504822846695
 40
0.1285861151544292
 40
0.2361343674110654
 40
0.2361343674110654
 40
0.2361343674110654
 40
0.2361343674110654
 10
40.01536462250676
 20
-90.03751525968556
 30
0.0
 10
40.01554778462662
 20
-90.04412955148666
 30
0.0
 10
40.01673425985166
 20
-90.08697516475715
 30
0.0
 10
40.01895719229004
 20
-90.16565525015471
 30
0.0
 10
40.02108834758987
 20
-90.237718378399
 30
0.0
 10
40.02214807530676
 20
-90.27355213221889
 30
0.0
 11
40.01536462250676
 21
-90.03751525968556
 31
0.0
 11
40.01591468117344
 21
-90.05735811941891
 31
0.0
 11
40.01899240490677
 21
-90.1660501866189
 31
0.0
 11
40.02214807530676
 21
-90.27355213221889
 31
0.0
  0
LWPOLYLINE
  5
29E
100
AcDbEntity
  8
0
  6
HIDDEN
 62
     8
100
AcDbPolyline
 90
       10
 70
     0
 43
0.0
 10
39.906233
 20
-89.892162
 10
39.903935
 20
-89.940311
 10
39.902754
 20
-89.989306
 10
39.902742
 20
-90.037003
 10
39.9039
 20
-90.08132
 10
39.906176
 20
-90.120318
 10
39.909472
 20
-90.152294
 10
39.913644
 20
-90.17585
 10
39.918508
 20
-90.189957
 10
39.923196
 20
-90.194052
  0
LWPOLYLINE
  5
29F
100
AcDbEntity
  8
0
  6
HIDDEN
 62
     8
100
AcDbPolyline
 90
        8
 70
     0
 43
0.0
 10
39.923196
 20
-90.194052
 10
39.923853
 20
-90.193998
 10
39.929444
 20
-90.187796
 10
39.935039
 20
-90.171622
 10
39.940391
 20
-90.146184
 10
39.945267
 20
-90.112593
 10
39.949454
 20
-90.072317
 10
39.95277
 20
-90.027117
  0
SPLINE
  5
2A0
100
AcDbEntity
  8
0
  6
HIDDEN
 62
     8
100
AcDbSpline
210
0.0
220
0.0
230
-1.0
 70
     8
 71
     3
 72
    23
 73
    19
 74
    17
 42
0.0000001
 43
0.0000001
 44
0.0000000001
 40
0.0
 40
0.0
 40
0.0
 40
0.0
 40
0.0586303930447592
 40
0.1136607140821014
 40
0.184907611440424
 40
0.2796465818938181
 40
0.3985312913089879
 40
0.5389581763862451
 40
0.6970052655924052
 40
0.8677432748019064
 40
1.045180183886905
 40
1.223012803514903
 40
1.398258411725435
 40
1.579451480867938
 40
1.770230567944617
 40
1.955943233065483
 40
2.108485461295263
 40
2.208386602502556
 40
2.208386602502556
 40
2.208386602502556
 40
2.208386602502556
 10
39.94307857450677
 20
-89.07350143568557
 30
0.0
 10
39.92489315430493
 20
-89.06355058314657
 30
0.0
 10
39.88963895015101
 20
-89.04425988856699
 30
0.0
 10
39.82851258288246
 20
-89.07412577887809
 30
0.0
 10
39.78113088269389
 20
-89.13025668764092
 30
0.0
 10
39.73429992386281
 20
-89.21367656761658
 30
0.0
 10
39.69019648165538
 20
-89.32322664097073
 30
0.0
 10
39.64877968465284
 20
-89.45618829287363
 30
0.0
 10
39.61137892490726
 20
-89.60811867499675
 30
0.0
 10
39.57877015674909
 20
-89.77373280681025
 30
0.0
 10
39.55175168559415
 20
-89.94701857214408
 30
0.0
 10
39.53082193811382
 20
-90.12263908951636
 30
0.0
 10
39.51593985819866
 20
-90.30018763474707
 30
0.0
 10
39.50807801523114
 20
-90.48232139319129
 30
0.0
 10
39.50844223144844
 20
-90.66890672599155
 30
0.0
 10
39.52565522802847
 20
-90.84290154977445
 30
0.0
 10
39.54882659856695
 20
-90.99194307694647
 30
0.0
 10
39.60177725610345
 20
-91.05872932515518
 30
0.0
 10
39.62273178197342
 20
-91.08515910395222
 30
0.0
 11
39.94307857450677
 21
-89.07350143568557
 31
0.0
 11
39.88790511957343
 21
-89.0536667978189
 31
0.0
 11
39.83666001450676
 21
-89.07372360315223
 31
0.0
 11
39.78769583424009
 21
-89.12547908048557
 31
0.0
 11
39.73994262037344
 21
-89.20730269008556
 31
0.0
 11
39.69426069077345
 21
-89.3170603114189
 31
0.0
 11
39.65181827157342
 21
-89.45091975675223
 31
0.0
 11
39.61355243370677
 21
-89.60426449275223
 31
0.0
 11
39.58029436757344
 21
-89.77173200848556
 31
0.0
 11
39.55282777557341
 21
-89.94703016315224
 31
0.0
 11
39.53175857877342
 21
-90.1236102570189
 31
0.0
 11
39.5172676582401
 21
-90.2982557162189
 31
0.0
 11
39.50954143104009
 21
-90.47928398395223
 31
0.0
 11
39.51152782677344
 21
-90.67005272955224
 31
0.0
 11
39.52880912490677
 21
-90.85495959995224
 31
0.0
 11
39.56606994304009
 21
-91.00288107515224
 31
0.0
 11
39.62273178197342
 21
-91.08515910395222
 31
0.0
  0
SPLINE
  5
2A1
100
AcDbEntity
  8
0
  6
HIDDEN
 62
     8
100
AcDbSpline
210
0.0
220
0.0
230
-1.0
 70
     8
 71
     3
 72
    23
 73
    19
 74
    17
 42
0.0000001
 43
0.0000001
 44
0.0000000001
 40
0.0
 40
0.0
 40
0.0
 40
0.0
 40
0.0606929393503355
 40
0.1209711600778203
 40
0.2008204614677342
 40
0.3067647663257789
 40
0.4388271297577463
 40
0.593808715002428
 40
0.7672752043775195
 40
0.9538300567503391
 40
1.147021395237971
 40
1.340133352931534
 40
1.530091686671299
 40
1.726335722264115
 40
1.933070946548003
 40
2.134866782723581
 40
2.301736383182025
 40
2.411937015304352
 40
2.411937015304352
 40
2.411937015304352
 40
2.411937015304352
 10
39.91802324864009
 20
-88.95184480955224
 30
0.0
 10
39.89850107682277
 20
-88.94273142757162
 30
0.0
 10
39.85959012940024
 20
-88.92456693591524
 30
0.0
 10
39.79660027358369
 20
-88.96396331112711
 30
0.0
 10
39.74754609037573
 20
-89.02854379235774
 30
0.0
 10
39.69859642517516
 20
-89.12357951784413
 30
0.0
 10
39.65267895936692
 20
-89.2462279884857
 30
0.0
 10
39.6096712074454
 20
-89.39376281046566
 30
0.0
 10
39.57100218996417
 20
-89.56106865246804
 30
0.0
 10
39.53744493454237
 20
-89.74245009706159
 30
0.0
 10
39.50980530208923
 20
-89.93143436175278
 30
0.0
 10
39.488569357591
 20
-90.12237005277555
 30
0.0
 10
39.4736805416812
 20
-90.31497826337789
 30
0.0
 10
39.46613611004475
 20
-90.51238851929031
 30
0.0
 10
39.46723149236733
 20
-90.7146282257592
 30
0.0
 10
39.48576374925638
 20
-90.90414532387432
 30
0.0
 10
39.51068644460356
 20
-91.06635542154103
 30
0.0
 10
39.56576990886986
 20
-91.1417579171036
 30
0.0
 10
39.5876785510401
 20
-91.17174815675223
 30
0.0
 11
39.91802324864009
 21
-88.95184480955224
 31
0.0
 11
39.85970009984011
 21
-88.93505066768556
 31
0.0
 11
39.80570310250676
 21
-88.96184223675223
 31
0.0
 11
39.75430437184009
 21
-89.02294936741888
 31
0.0
 11
39.7043709190401
 21
-89.11638836368558
 31
0.0
 11
39.65678169984009
 21
-89.23957819301888
 31
0.0
 11
39.61273628330677
 21
-89.38816921915224
 31
0.0
 11
39.57319067157344
 21
-89.55706790928557
 31
0.0
 11
39.53898485930677
 21
-89.74046004475223
 31
0.0
 11
39.51090264064011
 21
-89.93159947621888
 31
0.0
 11
39.48953865024011
 21
-90.1235260458189
 31
0.0
 11
39.47505456704011
 21
-90.31293137808557
 31
0.0
 11
39.4676586758401
 21
-90.50903599888556
 31
0.0
 11
39.47042042517343
 21
-90.71575277541889
 31
0.0
 11
39.48907984064011
 21
-90.9166840714189
 31
0.0
 11
39.52838528810677
 21
-91.0788585002189
 31
0.0
 11
39.5876785510401
 21
-91.17174815675223
 31
0.0
  0
LINE
  5
2A2
100
AcDbEntity
  8
0
  6
HIDDEN
 62
     8
100
AcDbLine
 10
39.990522
 20
-90.277134
 30
0.0
 11
40.004914
 21
-90.037801
 31
0.0
  0
LINE
  5
2A3
100
AcDbEntity
  8
0
  6
HIDDEN
 62
     8
100
AcDbLine
 10
39.311443
 20
-90.258857
 30
0.0
 11
39.325835
 21
-90.019524
 31
0.0
  0
LWPOLYLINE
  5
2A4
100
AcDbEntity
  8
0
  6
HIDDEN
 62
     8
100
AcDbPolyline
 90
        5
 70
     0
 43
0.0
 10
38.83313
 20
-90.172553
 10
39.063741
 20
-90.236063
 10
39.318352
 20
-90.290591
 10
39.591302
 20
-90.334927
 10
39.876502
 20
-90.36808
  0
LINE
  5
2A5
100
AcDbEntity
  8
0
  6
HIDDEN
 62
     8
100
AcDbLine
 10
39.923192
 20
-90.194054
 30
0.0
 11
39.426493
 21
-90.180686
 31
0.0
  0
LINE
  5
2A6
100
AcDbEntity
  8
0
  6
HIDDEN
 62
     8
100
AcDbLine
 10
39.311443
 20
-90.258857
 30
0.0
 11
39.990522
 21
-90.277134
 31
0.0
  0
LINE
  5
2A7
100
AcDbEntity
  8
0
  6
HIDDEN
 62
     8
100
AcDbLine
 10
39.337551
 20
-90.512235
 30
0.0
 11
39.931725
 21
-90.528227
 31
0.0
  0
LINE
  5
2A8
100
AcDbEntity
  8
0
  6
HIDDEN
 62
     8
100
AcDbLine
 10
39.360968
 20
-90.528421
 30
0.0
 11
39.943224
 21
-90.544092
 31
0.0
  0
LINE
  5
2A9
100
AcDbEntity
  8
0
  6
HIDDEN
 62
     8
100
AcDbLine
 10
39.788687
 20
-91.006628
 30
0.0
 11
39.921908
 21
-90.82343
 31
0.0
  0
LINE
  5
2AA
100
AcDbEntity
  8
0
  6
HIDDEN
 62
     8
100
AcDbLine
 10
39.848127
 20
-90.622049
 30
0.0
 11
39.86706
 21
-90.751882
 31
0.0
  0
SPLINE
  5
2AB
100
AcDbEntity
  8
0
  6
HIDDEN
 62
     8
100
AcDbSpline
210
-0.9942587042861411
220
0.1070029389841393
230
0.0
 70
    24
 71
     3
 72
     8
 73
     4
 74
     2
 42
0.0000001
 43
0.0000001
 44
0.0000000001
 40
0.0
 40
0.0
 40
0.0
 40
0.0
 40
0.0299278309274354
 40
0.0299278309274354
 40
0.0299278309274354
 40
0.0299278309274354
 10
39.99404078357345
 20
-90.48108356475223
 30
0.0
 10
39.99510823886234
 20
-90.47116489595223
 30
0.0
 10
39.99617569415122
 20
-90.46124622715224
 30
0.0
 10
39.9972431494401
 20
-90.45132755835224
 30
0.0
 11
39.99404078357345
 21
-90.48108356475223
 31
0.0
 11
39.9972431494401
 21
-90.45132755835224
 31
0.0
  0
SPLINE
  5
2AC
100
AcDbEntity
  8
0
  6
HIDDEN
 62
     8
100
AcDbSpline
210
0.0
220
0.0
230
-1.0
 70
     8
 71
     3
 72
    17
 73
    13
 74
    11
 42
0.0000001
 43
0.0000001
 44
0.0000000001
 40
0.0
 40
0.0
 40
0.0
 40
0.0
 40
0.0270990800145303
 40
0.0521444628024117
 40
0.075221934356435
 40
0.0964709088536883
 40
0.1160665510681326
 40
0.134193151890983
 40
0.1510106132673088
 40
0.1666015773878725
 40
0.1808351776755841
 40
0.1863804299817151
 40
0.1863804299817151
 40
0.1863804299817151
 40
0.1863804299817151
 10
39.9972431494401
 20
-90.45132755835224
 30
0.0
 10
39.99818870223292
 20
-90.44234415252891
 30
0.0
 10
40.00000814932877
 20
-90.42505814612047
 30
0.0
 10
40.00256237087381
 20
-90.40011457863929
 30
0.0
 10
40.00489135847709
 20
-90.377108220391
 30
0.0
 10
40.00702485674842
 20
-90.35590794003152
 30
0.0
 10
40.00900088370135
 20
-90.33635043549821
 30
0.0
 10
40.01085626508097
 20
-90.31826545316608
 30
0.0
 10
40.01263056090464
 20
-90.30151406763073
 30
0.0
 10
40.01435816457351
 20
-90.2860629689551
 30
0.0
 10
40.01580968646838
 20
-90.27436188649041
 30
0.0
 10
40.01673309110066
 20
-90.26783387901707
 30
0.0
 10
40.01699197930675
 20
-90.26600366928555
 30
0.0
 11
39.9972431494401
 21
-90.45132755835224
 31
0.0
 11
40.00006661717343
 21
-90.42437596901889
 31
0.0
 11
40.00262419690677
 21
-90.39946151568555
 31
0.0
 11
40.00495039104011
 21
-90.37650158288554
 31
0.0
 11
40.00708149610677
 21
-90.3553597450189
 31
0.0
 11
40.00905530624011
 21
-90.3358637642189
 31
0.0
 11
40.01091106197343
 21
-90.31783240741889
 31
0.0
 11
40.0126904614401
 21
-90.30110934715223
 31
0.0
 11
40.01444103210677
 21
-90.28561697275224
 31
0.0
 11
40.01622409557343
 21
-90.27149549755224
 31
0.0
 11
40.01699197930675
 21
-90.26600366928555
 31
0.0
  0
SPLINE
  5
2AD
100
AcDbEntity
  8
0
  6
HIDDEN
 62
     8
100
AcDbSpline
210
0.0
220
0.0
230
-1.0
 70
     8
 71
     3
 72
    11
 73
     7
 74
     5
 42
0.0000001
 43
0.0000001
 44
0.0000000001
 40
0.0
 40
0.0
 40
0.0
 40
0.0
 40
0.0059993203840942
 40
0.012056114293853
 40
0.01745712146522
 40
0.0315140111787494
 40
0.0315140111787494
 40
0.0315140111787494
 40
0.0315140111787494
 10
40.01699197930675
 20
-90.26600366928555
 30
0.0
 10
40.01727172870672
 20
-90.26429609558991
 30
0.0
 10
40.01783390750762
 20
-90.26086458963229
 30
0.0
 10
40.01985388927319
 20
-90.25130662277405
 30
0.0
 10
40.02238238050345
 20
-90.26425450843676
 30
0.0
 10
40.02224634841674
 20
-90.26965249013942
 30
0.0
 10
40.02214807530676
 20
-90.27355213221889
 30
0.0
 11
40.01699197930675
 21
-90.26600366928555
 31
0.0
 11
40.01803745877343
 21
-90.26009614715222
 31
0.0
 11
40.01987658517343
 21
-90.25432532688556
 31
0.0
 11
40.02136553877342
 21
-90.2595170410189
 31
0.0
 11
40.02214807530676
 21
-90.27355213221889
 31
0.0
  0
SPLINE
  5
2AE
100
AcDbEntity
  8
0
  6
HIDDEN
 62
     8
100
AcDbSpline
210
-0.9866847349583059
220
0.1626445012911837
230
0.0
 70
    24
 71
     3
 72
     8
 73
     4
 74
     2
 42
0.0000001
 43
0.0000001
 44
0.0000000001
 40
0.0
 40
0.0
 40
0.0
 40
0.0
 40
0.0757358347123487
 40
0.0757358347123487
 40
0.0757358347123487
 40
0.0757358347123487
 10
40.00842950144011
 20
-90.35736967675225
 30
0.0
 10
40.012535507129
 20
-90.33246054608557
 30
0.0
 10
40.01664151281789
 20
-90.30755141541892
 30
0.0
 10
40.02074751850678
 20
-90.28264228475224
 30
0.0
 11
40.00842950144011
 21
-90.35736967675225
 31
0.0
 11
40.02074751850678
 21
-90.28264228475224
 31
0.0
  0
SPLINE
  5
2AF
100
AcDbEntity
  8
0
  6
HIDDEN
 62
     8
100
AcDbSpline
210
-0.9882845763483397
220
0.1526223972816002
230
0.0
 70
    24
 71
     3
 72
     8
 73
     4
 74
     2
 42
0.0000001
 43
0.0000001
 44
0.0000000001
 40
0.0
 40
0.0
 40
0.0
 40
0.0
 40
0.0092043458780783
 40
0.0092043458780783
 40
0.0092043458780783
 40
0.0092043458780783
 10
40.02074751850678
 20
-90.28264228475224
 30
0.0
 10
40.02121578161789
 20
-90.27961011373001
 30
0.0
 10
40.02168404472899
 20
-90.27657794270778
 30
0.0
 10
40.0221523078401
 20
-90.27354577168557
 30
0.0
 11
40.02074751850678
 21
-90.28264228475224
 31
0.0
 11
40.0221523078401
 21
-90.27354577168557
 31
0.0
  0
LWPOLYLINE
  5
2B0
100
AcDbEntity
  8
0
  6
HIDDEN
 62
     8
100
AcDbPolyline
 90
        3
 70
     0
 43
0.0
 10
39.990522
 20
-90.277134
 10
39.984785
 20
-90.354313
 10
39.977471
 20
-90.422212
  0
LWPOLYLINE
  5
2B1
100
AcDbEntity
  8
0
  6
HIDDEN
 62
     8
100
AcDbPolyline
 90
        5
 70
     0
 43
0.0
 10
39.977471
 20
-90.422212
 10
39.968944
 20
-90.477425
 10
39.959634
 20
-90.517183
 10
39.950007
 20
-90.539494
 10
39.943217
 20
-90.544077
  0
LWPOLYLINE
  5
2B2
100
AcDbEntity
  8
0
  6
HIDDEN
 62
     8
100
AcDbPolyline
 90
        3
 70
     0
 43
0.0
 10
39.943217
 20
-90.544077
 10
39.940546
 20
-90.543238
 10
39.931725
 20
-90.528227
  0
LWPOLYLINE
  5
2B3
100
AcDbEntity
  8
0
  6
HIDDEN
 62
     8
100
AcDbPolyline
 90
        3
 70
     0
 43
0.0
 10
39.86706
 20
-90.751882
 10
39.890647
 20
-90.822627
 10
39.917131
 20
-90.829023
  0
LWPOLYLINE
  5
2B4
100
AcDbEntity
  8
0
  6
HIDDEN
 62
     8
100
AcDbPolyline
 90
        3
 70
     0
 43
0.0
 10
39.921876
 20
-90.823437
 10
39.944538
 20
-90.770592
 10
39.970827
 20
-90.651673
  0
LINE
  5
2B5
100
AcDbEntity
  8
0
  6
HIDDEN
 62
     8
100
AcDbLine
 10
39.917131
 20
-90.829023
 30
0.0
 11
39.921876
 21
-90.823437
 31
0.0
  0
LINE
  5
2B6
100
AcDbEntity
  8
0
  6
HIDDEN
 62
     8
100
AcDbLine
 10
39.931725
 20
-90.528227
 30
0.0
 11
39.876502
 21
-90.36808
 31
0.0
  0
LINE
  5
2B7
100
AcDbEntity
  8
0
  6
HIDDEN
 62
     8
100
AcDbLine
 10
39.970827
 20
-90.651673
 30
0.0
 11
39.994041
 21
-90.481084
 31
0.0
  0
SPLINE
  5
2B8
100
AcDbEntity
  8
0
  6
HIDDEN
 62
     8
100
AcDbSpline
210
0.0
220
0.0
230
-1.0
 70
     8
 71
     3
 72
    10
 73
     6
 74
     4
 42
0.0000001
 43
0.0000001
 44
0.0000000001
 40
0.0
 40
0.0
 40
0.0
 40
0.0
 40
0.0332202678613297
 40
0.0662075008506056
 40
0.0989467159378627
 40
0.0989467159378627
 40
0.0989467159378627
 40
0.0989467159378627
 10
39.66381075690675
 20
-91.18351137061889
 30
0.0
 10
39.66514383973039
 20
-91.17250031471368
 30
0.0
 10
39.6678006540146
 20
-91.15055544370141
 30
0.0
 10
39.67864514543105
 20
-91.11903911226519
 30
0.0
 10
39.69008017354733
 20
-91.10030444055384
 30
0.0
 10
39.6957761126401
 20
-91.09097245221891
 30
0.0
 11
39.66381075690675
 21
-91.18351137061889
 31
0.0
 11
39.6689679846401
 21
-91.15069385701891
 31
0.0
 11
39.67973819050676
 21
-91.11951437328555
 31
0.0
 11
39.6957761126401
 21
-91.09097245221891
 31
0.0
  0
SPLINE
  5
2B9
100
AcDbEntity
  8
0
  6
HIDDEN
 62
     8
100
AcDbSpline
210
-0.9215984990146811
220
0.3881445692185928
230
0.0
 70
    24
 71
     3
 72
     8
 73
     4
 74
     2
 42
0.0000001
 43
0.0000001
 44
0.0000000001
 40
0.0
 40
0.0
 40
0.0
 40
0.0
 40
0.0288020573258039
 40
0.0288020573258039
 40
0.0288020573258039
 40
0.0288020573258039
 10
39.84660210517343
 20
-90.94097471675222
 30
0.0
 10
39.85032855921787
 20
-90.93212673915223
 30
0.0
 10
39.85405501326232
 20
-90.92327876155223
 30
0.0
 10
39.85778146730676
 20
-90.91443078395222
 30
0.0
 11
39.84660210517343
 21
-90.94097471675222
 31
0.0
 11
39.85778146730676
 21
-90.91443078395222
 31
0.0
  0
SPLINE
  5
2BA
100
AcDbEntity
  8
0
  6
HIDDEN
 62
     8
100
AcDbSpline
210
0.0
220
0.0
230
1.0
 70
     8
 71
     3
 72
     9
 73
     5
 74
     3
 42
0.0000001
 43
0.0000001
 44
0.0000000001
 40
0.0
 40
0.0
 40
0.0
 40
0.0
 40
0.1206440753322145
 40
0.3082974310616356
 40
0.3082974310616356
 40
0.3082974310616356
 40
0.3082974310616356
 10
39.66381088277343
 20
-91.18351138341889
 30
0.0
 10
39.69648253260566
 20
-91.15908280555336
 30
0.0
 10
39.77997263093071
 20
-91.09665729663635
 30
0.0
 10
39.82139144967062
 20
-90.99988047781149
 30
0.0
 10
39.84660210517343
 20
-90.94097471675222
 30
0.0
 11
39.66381088277343
 21
-91.18351138341889
 31
0.0
 11
39.75538328064011
 21
-91.10496528955222
 31
0.0
 11
39.84660210517343
 21
-90.94097471675222
 31
0.0
  0
LINE
  5
2BB
100
AcDbEntity
  8
0
  6
HIDDEN
 62
     8
100
AcDbLine
 10
39.695776
 20
-91.090972
 30
0.0
 11
39.788687
 21
-91.006628
 31
0.0
  0
LINE
  5
2BC
100
AcDbEntity
  8
0
  6
HIDDEN
 62
     8
100
AcDbLine
 10
39.622732
 20
-91.085159
 30
0.0
 11
39.695776
 21
-91.090972
 31
0.0
  0
LINE
  5
2BD
100
AcDbEntity
  8
0
  6
HIDDEN
 62
     8
100
AcDbLine
 10
39.587679
 20
-91.171748
 30
0.0
 11
39.663817
 21
-91.183512
 31
0.0
  0
SPLINE
  5
2BE
100
AcDbEntity
  8
0
  6
HIDDEN
 62
     8
100
AcDbSpline
210
0.0
220
0.0
230
1.0
 70
     8
 71
     3
 72
     9
 73
     5
 74
     3
 42
0.0000001
 43
0.0000001
 44
0.0000000001
 40
0.0
 40
0.0
 40
0.0
 40
0.0
 40
0.1152756652982575
 40
0.4300349622667105
 40
0.4300349622667105
 40
0.4300349622667105
 40
0.4300349622667105
 10
38.95241770624009
 20
-90.38568753595223
 30
0.0
 10
38.9883468251174
 20
-90.39931805272191
 30
0.0
 10
39.12238012035541
 20
-90.45016658826979
 30
0.0
 10
39.25854993452799
 20
-90.49504963639495
 30
0.0
 10
39.35821791210675
 20
-90.52790128315223
 30
0.0
 11
38.95241770624009
 21
-90.38568753595223
 31
0.0
 11
39.0603585862401
 21
-90.42615042555222
 31
0.0
 11
39.35821791210675
 21
-90.52790128315223
 31
0.0
  0
LINE
  5
2BF
100
AcDbEntity
  8
0
  6
HIDDEN
 62
     8
100
AcDbLine
 10
39.337551
 20
-90.512235
 30
0.0
 11
38.986737
 21
-90.386295
 31
0.0
  0
SPLINE
  5
2C0
100
AcDbEntity
  8
0
  6
HIDDEN
 62
     8
100
AcDbSpline
210
-0.9977155917335535
220
0.067554407789317
230
0.0
 70
    24
 71
     3
 72
     9
 73
     5
 74
     3
 42
0.0000001
 43
0.0000001
 44
0.0000000001
 40
0.0
 40
0.0
 40
0.0
 40
0.0
 40
0.0025088904344442
 40
0.0050212685333042
 40
0.0050212685333042
 40
0.0050212685333042
 40
0.0050212685333042
 10
39.3111037766401
 20
-90.26386673381889
 30
0.0
 10
39.3111650026171
 20
-90.26303267374235
 30
0.0
 10
39.31128753968269
 20
-90.26136339414378
 30
0.0
 10
39.31139114460037
 20
-90.25969283261694
 30
0.0
 10
39.31144298304009
 20
-90.25885697168558
 30
0.0
 11
39.3111037766401
 21
-90.26386673381889
 31
0.0
 11
39.31128272810677
 21
-90.26136423355223
 31
0.0
 11
39.31144298304009
 21
-90.25885697168558
 31
0.0
  0
SPLINE
  5
2C1
100
AcDbEntity
  8
0
  6
HIDDEN
 62
     8
100
AcDbSpline
210
0.0
220
0.0
230
-1.0
 70
     8
 71
     3
 72
    18
 73
    14
 74
    12
 42
0.0000001
 43
0.0000001
 44
0.0000000001
 40
0.0
 40
0.0
 40
0.0
 40
0.0
 40
0.0041677290267246
 40
0.0076822866401966
 40
0.015243101424435
 40
0.0272279566218931
 40
0.0438691905036772
 40
0.0654273168438453
 40
0.0926302390478661
 40
0.1294819618009288
 40
0.1758906878371662
 40
0.2300202649302792
 40
0.2879122479948948
 40
0.2879122479948948
 40
0.2879122479948948
 40
0.2879122479948948
 10
39.36181794090676
 20
-90.5225559722189
 30
0.0
 10
39.36301026180375
 20
-90.52377214803327
 30
0.0
 10
39.36520804165919
 20
-90.52601389915261
 30
0.0
 10
39.35979183655357
 20
-90.53002879731444
 30
0.0
 10
39.35251344397208
 20
-90.52497176243013
 30
0.0
 10
39.34367779929748
 20
-90.51752088476792
 30
0.0
 10
39.33460315277341
 20
-90.50290249928034
 30
0.0
 10
39.32613753889302
 20
-90.48290109151222
 30
0.0
 10
39.318467927635
 20
-90.45528953795033
 30
0.0
 10
39.31226059994722
 20
-90.41896378753879
 30
0.0
 10
39.30847609548674
 20
-90.37327259188424
 30
0.0
 10
39.30770100649106
 20
-90.32041860515226
 30
0.0
 10
39.30994439978855
 20
-90.28313482577654
 30
0.0
 10
39.3111037702401
 20
-90.26386682128556
 30
0.0
 11
39.36181794090676
 21
-90.5225559722189
 31
0.0
 11
39.36394465877343
 21
-90.52614024848557
 31
0.0
 11
39.36127383210676
 21
-90.52842471781891
 31
0.0
 11
39.35411878037344
 21
-90.52598112315221
 31
0.0
 11
39.34513255424009
 21
-90.51805114875223
 31
0.0
 11
39.33586479850676
 21
-90.50422944955222
 31
0.0
 11
39.32724805610677
 21
-90.48446826128555
 31
0.0
 11
39.31971807210676
 21
-90.4583282858189
 31
0.0
 11
39.31326491264009
 21
-90.42204597328556
 31
0.0
 11
39.30917406144011
 21
-90.37581789968557
 31
0.0
 11
39.30837118250677
 21
-90.32169427728558
 31
0.0
 11
39.3111037702401
 21
-90.26386682128556
 31
0.0
  0
SPLINE
  5
2C2
100
AcDbEntity
  8
0
  6
HIDDEN
 62
     8
100
AcDbSpline
210
0.0
220
0.0
230
1.0
 70
     8
 71
     3
 72
    11
 73
     7
 74
     5
 42
0.0000001
 43
0.0000001
 44
0.0000000001
 40
0.0
 40
0.0
 40
0.0
 40
0.0
 40
0.0209826338134255
 40
0.0301983844075032
 40
0.0337129420209752
 40
0.0339177068228537
 40
0.0339177068228537
 40
0.0339177068228537
 40
0.0339177068228537
 10
39.33755099264011
 20
-90.51223549541889
 30
0.0
 10
39.34307555447357
 20
-90.51425088778225
 30
0.0
 10
39.35102655068373
 20
-90.51715145755162
 30
0.0
 10
39.36660001112298
 20
-90.52449764567677
 30
0.0
 10
39.36232069053573
 20
-90.52809235624545
 30
0.0
 10
39.36114411792308
 20
-90.52846808259024
 30
0.0
 10
39.36107934250675
 20
-90.52848876795222
 30
0.0
 11
39.33755099264011
 21
-90.51223549541889
 31
0.0
 11
39.35702086784012
 21
-90.52005821115223
 31
0.0
 11
39.36394465877343
 21
-90.52614024848557
 31
0.0
 11
39.36127383210676
 21
-90.52842471781891
 31
0.0
 11
39.36107934250675
 21
-90.52848876795222
 31
0.0
  0
LINE
  5
2C3
100
AcDbEntity
  8
0
  6
HIDDEN
 62
     8
100
AcDbLine
 10
39.36106
 20
-90.528423
 30
0.0
 11
39.358263
 21
-90.527899
 31
0.0
  0
SPLINE
  5
2C4
100
AcDbEntity
  8
0
  6
HIDDEN
 62
     8
100
AcDbSpline
210
0.0
220
0.0
230
-1.0
 70
     8
 71
     3
 72
    13
 73
     9
 74
     7
 42
0.0000001
 43
0.0000001
 44
0.0000000001
 40
0.0
 40
0.0
 40
0.0
 40
0.0
 40
0.0366936271435577
 40
0.0742942034275268
 40
0.1745086469980758
 40
0.2820285559079324
 40
0.3971500440313997
 40
0.5200807494780053
 40
0.5200807494780053
 40
0.5200807494780053
 40
0.5200807494780053
 10
39.56415415104011
 20
-88.20969677541889
 30
0.0
 10
39.55917143608829
 20
-88.19852521505527
 30
0.0
 10
39.54908284940255
 20
-88.17590596907527
 30
0.0
 10
39.5275882749512
 20
-88.12183965679876
 30
0.0
 10
39.50131024036519
 20
-88.04432007003578
 30
0.0
 10
39.47361695607225
 20
-87.94026712026122
 30
0.0
 10
39.44987881153297
 20
-87.82747828855637
 30
0.0
 10
39.43812933777006
 20
-87.74898833535123
 30
0.0
 10
39.43206188224009
 20
-87.70845594128557
 30
0.0
 11
39.56415415104011
 21
-88.20969677541889
 31
0.0
 11
39.54943472384009
 21
-88.17608486181889
 31
0.0
 11
39.53546531477345
 21
-88.14117556581889
 31
0.0
 11
39.5031241702401
 21
-88.04632312741889
 31
0.0
 11
39.47515605077343
 21
-87.94250446288556
 31
0.0
 11
39.45149170517344
 21
-87.8298414442189
 31
0.0
 11
39.43206188224009
 21
-87.70845594128557
 31
0.0
  0
LWPOLYLINE
  5
2C5
100
AcDbEntity
  8
0
  6
HIDDEN
 62
     8
100
AcDbPolyline
 90
        7
 70
     0
 43
0.0
 10
39.439115
 20
-89.711865
 10
39.434869
 20
-89.714731
 10
39.428849
 20
-89.728683
 10
39.423027
 20
-89.753545
 10
39.417696
 20
-89.788071
 10
39.413122
 20
-89.830531
 10
39.409534
 20
-89.878794
  0
SPLINE
  5
2C6
100
AcDbEntity
  8
0
  6
HIDDEN
 62
     8
100
AcDbSpline
210
0.0
220
0.0
230
1.0
 70
     8
 71
     3
 72
    10
 73
     6
 74
     4
 42
0.0000001
 43
0.0000001
 44
0.0000000001
 40
0.0
 40
0.0
 40
0.0
 40
0.0
 40
0.2612363495672508
 40
0.5140177180931361
 40
0.7507524189974651
 40
0.7507524189974651
 40
0.7507524189974651
 40
0.7507524189974651
 10
39.93303391637344
 20
-89.41048374181891
 30
0.0
 10
39.84643942188682
 20
-89.40126035813952
 30
0.0
 10
39.67605308580008
 20
-89.3831121079445
 30
0.0
 10
39.42859509835013
 20
-89.34478952906335
 30
0.0
 10
39.26895964290084
 20
-89.31090067451448
 30
0.0
 10
39.1917583942401
 20
-89.2945116970189
 30
0.0
 11
39.93303391637344
 21
-89.41048374181891
 31
0.0
 11
39.67349820117344
 21
-89.38072398928555
 31
0.0
 11
39.42376337130678
 21
-89.34159682448557
 31
0.0
 11
39.1917583942401
 21
-89.2945116970189
 31
0.0
  0
LWPOLYLINE
  5
2C7
100
AcDbEntity
  8
0
  6
HIDDEN
 62
     8
100
AcDbPolyline
 90
        5
 70
     0
 43
0.0
 10
38.958091
 20
-89.903747
 10
39.15951
 20
-89.9604
 10
39.382039
 20
-90.009434
 10
39.620968
 20
-90.049813
 10
39.871242
 20
-90.080681
  0
LWPOLYLINE
  5
2C8
100
AcDbEntity
  8
0
  6
HIDDEN
 62
     8
100
AcDbPolyline
 90
        5
 70
     0
 43
0.0
 10
38.987789
 20
-89.409882
 10
39.189208
 20
-89.466534
 10
39.411737
 20
-89.515568
 10
39.650666
 20
-89.555947
 10
39.90094
 20
-89.586816
  0
LINE
  5
2C9
100
AcDbEntity
  8
0
  6
HIDDEN
 62
     8
100
AcDbLine
 10
39.395119
 20
-89.554903
 30
0.0
 11
39.989293
 21
-89.570895
 31
0.0
  0
LINE
  5
2CA
100
AcDbEntity
  8
0
  6
HIDDEN
 62
     8
100
AcDbLine
 10
39.325835
 20
-90.019524
 30
0.0
 11
40.004914
 21
-90.037801
 31
0.0
  0
SPLINE
  5
2CB
100
AcDbEntity
  8
0
  6
HIDDEN
 62
     8
100
AcDbSpline
210
0.0
220
0.0
230
1.0
 70
     8
 71
     3
 72
    12
 73
     8
 74
     6
 42
0.0000001
 43
0.0000001
 44
0.0000000001
 40
0.0
 40
0.0
 40
0.0
 40
0.0
 40
0.1073644603877785
 40
0.2071422855929879
 40
0.3013635822638269
 40
0.3924802330732429
 40
0.4423583737352687
 40
0.4423583737352687
 40
0.4423583737352687
 40
0.4423583737352687
 10
39.67596998677343
 20
-88.34914542395223
 30
0.0
 10
39.70503999095312
 20
-88.37010644851767
 30
0.0
 10
39.76112584176659
 20
-88.41054734042154
 30
0.0
 10
39.85195882796281
 20
-88.45472402105912
 30
0.0
 10
39.94318216277705
 20
-88.48252594582596
 30
0.0
 10
40.02159806872215
 20
-88.49226867132776
 30
0.0
 10
40.06857461553524
 20
-88.48999672940999
 30
0.0
 10
40.0851929798401
 20
-88.48919301008557
 30
0.0
 11
39.67596998677343
 21
-88.34914542395223
 31
0.0
 11
39.76488543317343
 21
-88.40932158821891
 31
0.0
 11
39.85458530517344
 21
-88.45301995621889
 31
0.0
 11
39.94481861504011
 21
-88.48014194981891
 31
0.0
 11
40.0353343782401
 21
-88.49058899088557
 31
0.0
 11
40.0851929798401
 21
-88.48919301008557
 31
0.0
  0
LINE
  5
2CC
100
AcDbEntity
  8
0
  6
HIDDEN
 62
     8
100
AcDbLine
 10
39.935811
 20
-89.725224
 30
0.0
 11
39.439111
 21
-89.711856
 31
0.0
  0
SPLINE
  5
2CD
100
AcDbEntity
  8
0
  6
HIDDEN
 62
     8
100
AcDbSpline
210
0.0
220
0.0
230
1.0
 70
     8
 71
     3
 72
     9
 73
     5
 74
     3
 42
0.0000001
 43
0.0000001
 44
0.0000000001
 40
0.0
 40
0.0
 40
0.0
 40
0.0
 40
0.1020417375079691
 40
0.2029988737286248
 40
0.2029988737286248
 40
0.2029988737286248
 40
0.2029988737286248
 10
40.16344013824012
 20
-88.57954711995224
 30
0.0
 10
40.12939305532157
 20
-88.58257637198473
 30
0.0
 10
40.06166077581515
 20
-88.58860267813996
 30
0.0
 10
39.99472325653899
 20
-88.57665403746699
 30
0.0
 10
39.96143331690676
 20
-88.57071163728555
 30
0.0
 11
40.16344013824012
 21
-88.57954711995224
 31
0.0
 11
40.06149970837343
 21
-88.58409299195223
 31
0.0
 11
39.96143331690676
 21
-88.57071163728555
 31
0.0
  0
SPLINE
  5
2CE
100
AcDbEntity
  8
0
  6
HIDDEN
 62
     8
100
AcDbSpline
210
0.0
220
0.0
230
-1.0
 70
     8
 71
     3
 72
    15
 73
    11
 74
     9
 42
0.0000001
 43
0.0000001
 44
0.0000000001
 40
0.0
 40
0.0
 40
0.0
 40
0.0
 40
0.0386619623602635
 40
0.0743225373160298
 40
0.1058636492858532
 40
0.1324543503171593
 40
0.1535121459942185
 40
0.16871835307587
 40
0.1780778080228116
 40
0.1821020958024674
 40
0.1821020958024674
 40
0.1821020958024674
 40
0.1821020958024674
 10
39.90093993450678
 20
-89.58681567355224
 30
0.0
 10
39.90178696594796
 20
-89.5739547469974
 30
0.0
 10
39.90341527248109
 20
-89.54923130733119
 30
0.0
 10
39.90675293368761
 20
-89.51410858055385
 30
0.0
 10
39.91052067499669
 20
-89.4830298497942
 30
0.0
 10
39.91473959360348
 20
-89.45707142075406
 30
0.0
 10
39.91897852468964
 20
-89.43626435986223
 30
0.0
 10
39.92373380909114
 20
-89.42238683076254
 30
0.0
 10
39.92737985860411
 20
-89.41247124404297
 30
0.0
 10
39.93172631751751
 20
-89.41098752235339
 30
0.0
 10
39.93303323157341
 20
-89.4105413898189
 30
0.0
 11
39.90093993450678
 21
-89.58681567355224
 31
0.0
 11
39.90367448810677
 21
-89.54825053968555
 31
0.0
 11
39.90704636864011
 21
-89.51274973648557
 31
0.0
 11
39.91094381290677
 21
-89.48145034875222
 31
0.0
 11
39.91524454784009
 21
-89.45520974928557
 31
0.0
 11
39.91982300437344
 21
-89.43465571088557
 31
0.0
 11
39.92456252650676
 21
-89.42020698555223
 31
0.0
 11
39.9293511430401
 21
-89.41216530981888
 31
0.0
 11
39.93303323157341
 21
-89.4105413898189
 31
0.0
  0
SPLINE
  5
2CF
100
AcDbEntity
  8
0
  6
HIDDEN
 62
     8
100
AcDbSpline
210
-0.9996295164435029
220
-0.0272181897805215
230
0.0
 70
    24
 71
     3
 72
     8
 73
     4
 74
     2
 42
0.0000001
 43
0.0000001
 44
0.0000000001
 40
0.0
 40
0.0
 40
0.0
 40
0.0
 40
0.090056207010528
 40
0.090056207010528
 40
0.090056207010528
 40
0.090056207010528
 10
40.01291345557343
 20
-89.94749241701889
 30
0.0
 10
40.01373051121787
 20
-89.9775000312411
 30
0.0
 10
40.01454756686231
 20
-90.00750764546333
 30
0.0
 10
40.01536462250676
 20
-90.03751525968556
 30
0.0
 11
40.01291345557343
 21
-89.94749241701889
 31
0.0
 11
40.01536462250676
 21
-90.03751525968556
 31
0.0
  0
SPLINE
  5
2D0
100
AcDbEntity
  8
0
  6
HIDDEN
 62
     8
100
AcDbSpline
210
0.0
220
0.0
230
1.0
 70
     8
 71
     3
 72
    15
 73
    11
 74
     9
 42
0.0000001
 43
0.0000001
 44
0.0000000001
 40
0.0
 40
0.0
 40
0.0
 40
0.0
 40
0.0170180299707742
 40
0.0259598868089875
 40
0.0297559827910036
 40
0.0343384070300176
 40
0.0397654027889738
 40
0.0456123175648709
 40
0.0515972293758064
 40
0.0578750563939463
 40
0.0578750563939463
 40
0.0578750563939463
 40
0.0578750563939463
 10
39.98950904277343
 20
-89.07521262501889
 30
0.0
 10
39.98895953506782
 20
-89.08050924720569
 30
0.0
 10
39.98812129715996
 20
-89.0885888964175
 30
0.0
 10
39.98593301610914
 20
-89.1005092707771
 30
0.0
 10
39.97938945779281
 20
-89.10094634366362
 30
0.0
 10
39.97558492961002
 20
-89.09816155111281
 30
0.0
 10
39.9714153183201
 20
-89.09497317738024
 30
0.0
 10
39.96691525111003
 20
-89.0913781737778
 30
0.0
 10
39.96193856618327
 20
-89.08791617119709
 30
0.0
 10
39.95817068648451
 20
-89.08630363768457
 30
0.0
 10
39.95624174570677
 20
-89.08547811195225
 30
0.0
 11
39.98950904277343
 21
-89.07521262501889
 31
0.0
 11
39.9874003142401
 21
-89.09209950181891
 31
0.0
 11
39.98364477077343
 21
-89.10021446928558
 31
0.0
 11
39.97986233024009
 21
-89.10053616528555
 31
0.0
 11
39.97584414890677
 21
-89.09833325115222
 31
0.0
 11
39.97153154517345
 21
-89.09503875088557
 31
0.0
 11
39.96691058410677
 21
-89.09145641488557
 31
0.0
 11
39.96192426410677
 21
-89.08814646288558
 31
0.0
 11
39.95624174570677
 21
-89.08547811195225
 31
0.0
  0
SPLINE
  5
2D1
100
AcDbEntity
  8
0
  6
HIDDEN
 62
     8
100
AcDbSpline
210
0.0
220
0.0
230
1.0
 70
     8
 71
     3
 72
     9
 73
     5
 74
     3
 42
0.0000001
 43
0.0000001
 44
0.0000000001
 40
0.0
 40
0.0
 40
0.0
 40
0.0
 40
0.0848590080076353
 40
0.1485845091375385
 40
0.1485845091375385
 40
0.1485845091375385
 40
0.1485845091375385
 10
39.99319494570677
 20
-89.07771059301889
 30
0.0
 10
39.98450085553241
 20
-89.05021100396675
 30
0.0
 10
39.96927787389164
 20
-89.00206039465928
 30
0.0
 10
39.93340431354182
 20
-88.96691684978337
 30
0.0
 10
39.91801872170675
 20
-88.9518443498189
 30
0.0
 11
39.99319494570677
 21
-89.07771059301889
 31
0.0
 11
39.96037700117343
 21
-88.99945438715223
 31
0.0
 11
39.91801872170675
 21
-88.9518443498189
 31
0.0
  0
LWPOLYLINE
  5
2D2
100
AcDbEntity
  8
0
  6
HIDDEN
 62
     8
100
AcDbPolyline
 90
        8
 70
     0
 43
0.0
 10
39.989293
 20
-89.570895
 10
39.997032
 20
-89.603907
 10
40.0033
 20
-89.653266
 10
40.007783
 20
-89.716496
 10
40.010256
 20
-89.790426
 10
40.010596
 20
-89.871351
 10
40.008785
 20
-89.95521
 10
40.004914
 20
-90.037801
  0
LWPOLYLINE
  5
2D3
100
AcDbEntity
  8
0
  6
HIDDEN
 62
     8
100
AcDbPolyline
 90
       10
 70
     0
 43
0.0
 10
39.95277
 20
-90.027117
 10
39.955068
 20
-89.978967
 10
39.956249
 20
-89.929973
 10
39.956261
 20
-89.882275
 10
39.955103
 20
-89.837958
 10
39.952827
 20
-89.79896
 10
39.949531
 20
-89.766984
 10
39.945359
 20
-89.743428
 10
39.940495
 20
-89.729321
 10
39.935807
 20
-89.725226
  0
LWPOLYLINE
  5
2D4
100
AcDbEntity
  8
0
  6
HIDDEN
 62
     8
100
AcDbPolyline
 90
        4
 70
     0
 43
0.0
 10
39.956242
 20
-89.085478
 10
39.929038
 20
-89.109682
 10
39.9019
 20
-89.197248
 10
39.876823
 20
-89.341655
  0
LWPOLYLINE
  5
2D5
100
AcDbEntity
  8
0
  6
HIDDEN
 62
     8
100
AcDbPolyline
 90
        8
 70
     0
 43
0.0
 10
39.935807
 20
-89.725226
 10
39.93515
 20
-89.725281
 10
39.929559
 20
-89.731483
 10
39.923964
 20
-89.747656
 10
39.918612
 20
-89.773094
 10
39.913736
 20
-89.806685
 10
39.909549
 20
-89.846961
 10
39.906233
 20
-89.892162
  0
LINE
  5
2D6
100
AcDbEntity
  8
0
  6
HIDDEN
 62
     8
100
AcDbLine
 10
39.933034
 20
-89.410491
 30
0.0
 11
39.93407
 21
-89.410748
 31
0.0
  0
LINE
  5
2D7
100
AcDbEntity
  8
0
  6
HIDDEN
 62
     8
100
AcDbLine
 10
39.989509
 20
-89.075213
 30
0.0
 11
40.012913
 21
-89.947492
 31
0.0
  0
LINE
  5
2D8
100
AcDbEntity
  8
0
  6
HIDDEN
 62
     8
100
AcDbLine
 10
39.871242
 20
-90.080681
 30
0.0
 11
39.90094
 21
-89.586816
 31
0.0
  0
LINE
  5
2D9
100
AcDbEntity
  8
0
  6
HIDDEN
 62
     8
100
AcDbLine
 10
39.989293
 20
-89.570895
 30
0.0
 11
39.93407
 21
-89.410748
 31
0.0
  0
SPLINE
  5
2DA
100
AcDbEntity
  8
0
  6
HIDDEN
 62
     8
100
AcDbSpline
210
0.0
220
0.0
230
-1.0
 70
     8
 71
     3
 72
     9
 73
     5
 74
     3
 42
0.0000001
 43
0.0000001
 44
0.0000000001
 40
0.0
 40
0.0
 40
0.0
 40
0.0
 40
0.0222459849790335
 40
0.0868395938960434
 40
0.0868395938960434
 40
0.0868395938960434
 40
0.0868395938960434
 10
39.60014486997342
 20
-88.28060182395224
 30
0.0
 10
39.6038205881217
 20
-88.28704384932354
 30
0.0
 10
39.61816914906762
 20
-88.31219098790338
 30
0.0
 10
39.63452758088389
 20
-88.33609847470606
 30
0.0
 10
39.64669541930676
 20
-88.3538815018189
 30
0.0
 11
39.60014486997342
 21
-88.28060182395224
 31
0.0
 11
39.61130392170677
 21
-88.2998465482189
 31
0.0
 11
39.64669541930676
 21
-88.3538815018189
 31
0.0
  0
SPLINE
  5
2DB
100
AcDbEntity
  8
0
  6
HIDDEN
 62
     8
100
AcDbSpline
210
-0.9103625321317643
220
-0.4138116239191965
230
0.0
 70
    24
 71
     3
 72
     9
 73
     5
 74
     3
 42
0.0000001
 43
0.0000001
 44
0.0000000001
 40
0.0
 40
0.0
 40
0.0
 40
0.0
 40
0.0039207607801421
 40
0.0078424318768605
 40
0.0078424318768605
 40
0.0078424318768605
 40
0.0078424318768605
 10
39.56369878464009
 20
-88.20862820048557
 30
0.0
 10
39.56423761982962
 20
-88.20981887249782
 30
0.0
 10
39.56531541531467
 20
-88.21220049297085
 30
0.0
 10
39.56640114450044
 20
-88.21457850712624
 30
0.0
 10
39.56694407210678
 20
-88.21576765221889
 30
0.0
 11
39.56369878464009
 21
-88.20862820048557
 31
0.0
 11
39.56531727317345
 21
-88.21219931515223
 31
0.0
 11
39.56694407210678
 21
-88.21576765221889
 31
0.0
  0
SPLINE
  5
2DC
100
AcDbEntity
  8
0
  6
HIDDEN
 62
     8
100
AcDbSpline
210
0.0
220
0.0
230
-1.0
 70
     8
 71
     3
 72
     9
 73
     5
 74
     3
 42
0.0000001
 43
0.0000001
 44
0.0000000001
 40
0.0
 40
0.0
 40
0.0
 40
0.0
 40
0.0375971764208938
 40
0.0762963154829741
 40
0.0762963154829741
 40
0.0762963154829741
 40
0.0762963154829741
 10
39.56694407210678
 20
-88.21576765221889
 30
0.0
 10
39.57288294250109
 20
-88.22680606032761
 30
0.0
 10
39.58493474990665
 20
-88.24920640917472
 30
0.0
 10
39.59811306252255
 20
-88.27096329014963
 30
0.0
 10
39.60479738730676
 20
-88.28199885008556
 30
0.0
 11
39.56694407210678
 21
-88.21576765221889
 31
0.0
 11
39.58503423317343
 21
-88.24872662288557
 31
0.0
 11
39.60479738730676
 21
-88.28199885008556
 31
0.0
  0
LWPOLYLINE
  5
2DD
100
AcDbEntity
  8
0
  6
HIDDEN
 62
     8
100
AcDbPolyline
 90
       10
 70
     0
 43
0.0
 10
39.45607
 20
-90.013748
 10
39.458491
 20
-89.962102
 10
39.459623
 20
-89.909661
 10
39.459411
 20
-89.859057
 10
39.457864
 20
-89.812826
 10
39.455061
 20
-89.773286
 10
39.451141
 20
-89.74242
 10
39.446302
 20
-89.721777
 10
39.440786
 20
-89.71239
 10
39.439115
 20
-89.711865
  0
LWPOLYLINE
  5
2DE
100
AcDbEntity
  8
0
  6
HIDDEN
 62
     8
100
AcDbPolyline
 90
        4
 70
     0
 43
0.0
 10
39.273136
 20
-87.915645
 10
39.278873
 20
-87.838465
 10
39.286188
 20
-87.770567
 10
39.294714
 20
-87.715354
  0
LINE
  5
2DF
100
AcDbEntity
  8
0
  6
HIDDEN
 62
     8
100
AcDbLine
 10
39.404357
 20
-87.859081
 30
0.0
 11
39.399737
 21
-87.709639
 31
0.0
  0
LINE
  5
2E0
100
AcDbEntity
  8
0
  6
HIDDEN
 62
     8
100
AcDbLine
 10
39.331933
 20
-87.664551
 30
0.0
 11
39.387156
 21
-87.824698
 31
0.0
  0
LINE
  5
2E1
100
AcDbEntity
  8
0
  6
HIDDEN
 62
     8
100
AcDbLine
 10
38.680191
 20
-88.605892
 30
0.0
 11
39.274365
 21
-88.621884
 31
0.0
  0
LINE
  5
2E2
100
AcDbEntity
  8
0
  6
HIDDEN
 62
     8
100
AcDbLine
 10
38.594057
 20
-87.897368
 30
0.0
 11
39.273136
 21
-87.915645
 31
0.0
  0
LINE
  5
2E3
100
AcDbEntity
  8
0
  6
HIDDEN
 62
     8
100
AcDbLine
 10
38.843767
 20
-87.985356
 30
0.0
 11
39.340466
 21
-87.998724
 31
0.0
  0
LINE
  5
2E4
100
AcDbEntity
  8
0
  6
HIDDEN
 62
     8
100
AcDbLine
 10
38.579665
 20
-88.136701
 30
0.0
 11
39.258744
 21
-88.154978
 31
0.0
  0
LINE
  5
2E5
100
AcDbEntity
  8
0
  6
HIDDEN
 62
     8
100
AcDbLine
 10
38.831148
 20
-88.454186
 30
0.0
 11
39.327848
 21
-88.467555
 31
0.0
  0
SPLINE
  5
2E6
100
AcDbEntity
  8
0
  6
HIDDEN
 62
     8
100
AcDbSpline
210
0.0
220
0.0
230
1.0
 70
     8
 71
     3
 72
    15
 73
    11
 74
     9
 42
0.0000001
 43
0.0000001
 44
0.0000000001
 40
0.0
 40
0.0
 40
0.0
 40
0.0
 40
0.0246025253047294
 40
0.0541760834007296
 40
0.0879687721245878
 40
0.1251451963758007
 40
0.1647855542711424
 40
0.2058733659153499
 40
0.2473145420624659
 40
0.2878569445793977
 40
0.2878569445793977
 40
0.2878569445793977
 40
0.2878569445793977
 10
39.38715619690675
 20
-87.82469809595223
 30
0.0
 10
39.3882900354953
 20
-87.83282168794917
 30
0.0
 10
39.39078680902467
 20
-87.85071027426658
 30
0.0
 10
39.39311538208838
 20
-87.87995430441814
 30
0.0
 10
39.39494275101414
 20
-87.91341900698625
 30
0.0
 10
39.39599446688338
 20
-87.95027833669438
 30
0.0
 10
39.3963059992464
 20
-87.98958099431535
 30
0.0
 10
39.39581777105425
 20
-88.03030316806344
 30
0.0
 10
39.39461983474826
 20
-88.07131330813261
 30
0.0
 10
39.39314542248962
 20
-88.09860224391057
 30
0.0
 10
39.39241629824012
 20
-88.11209712955223
 30
0.0
 11
39.38715619690675
 21
-87.82469809595223
 31
0.0
 11
39.3903385542401
 21
-87.84909393275224
 31
0.0
 11
39.39288920490678
 21
-87.87855729168557
 31
0.0
 11
39.39474179797345
 21
-87.91229916048557
 31
0.0
 11
39.39584750357342
 21
-87.94945913808557
 31
0.0
 11
39.39617295637343
 21
-87.98909815995223
 31
0.0
 11
39.39570182037344
 21
-88.03018327035223
 31
0.0
 11
39.39443825557343
 21
-88.07160517861889
 31
0.0
 11
39.39241629824012
 21
-88.11209712955223
 31
0.0
  0
SPLINE
  5
2E7
100
AcDbEntity
  8
0
  6
HIDDEN
 62
     8
100
AcDbSpline
210
0.0
220
0.0
230
1.0
 70
     8
 71
     3
 72
    22
 73
    18
 74
    16
 42
0.0000001
 43
0.0000001
 44
0.0000000001
 40
0.0
 40
0.0
 40
0.0
 40
0.0
 40
0.0041342799284231
 40
0.0179609170422486
 40
0.0341334883012578
 40
0.0518207804820634
 40
0.0704569236426144
 40
0.0901873931462387
 40
0.1110820555350272
 40
0.1332247463343107
 40
0.1567062761767335
 40
0.1816151534668037
 40
0.2080312939859439
 40
0.2360201495430931
 40
0.2656287639752249
 40
0.2968863161404669
 40
0.3297938692406302
 40
0.3297938692406302
 40
0.3297938692406302
 40
0.3297938692406302
 10
39.20119994624009
 20
-88.15551480208556
 30
0.0
 10
39.2012806678014
 20
-88.15689052337459
 30
0.0
 10
39.20163135360187
 20
-88.16286719074433
 30
0.0
 10
39.20215952342647
 20
-88.17423411636239
 30
0.0
 10
39.20244683370188
 20
-88.19012811774207
 30
0.0
 10
39.20267581184984
 20
-88.20762505129867
 30
0.0
 10
39.20282649886434
 20
-88.22630921405894
 30
0.0
 10
39.20294887422221
 20
-88.2460625647848
 30
0.0
 10
39.20305844403661
 20
-88.2669848959844
 30
0.0
 10
39.20317360191286
 20
-88.28915755499764
 30
0.0
 10
39.20330885523508
 20
-88.31266820194347
 30
0.0
 10
39.20347912987758
 20
-88.33760314344592
 30
0.0
 10
39.20370003607141
 20
-88.36404019050181
 30
0.0
 10
39.20398787486004
 20
-88.39204327271735
 30
0.0
 10
39.20436342573546
 20
-88.42165925366888
 30
0.0
 10
39.20483829380073
 20
-88.45291362555746
 30
0.0
 10
39.20524875955041
 20
-88.47429807398425
 30
0.0
 10
39.20545926997344
 20
-88.48526524795223
 30
0.0
 11
39.20119994624009
 21
-88.15551480208556
 31
0.0
 11
39.20143825557342
 21
-88.15964220795223
 31
0.0
 11
39.20206300970678
 21
-88.17345472315222
 31
0.0
 11
39.20242486037342
 21
-88.18962324581891
 31
0.0
 11
39.20265725930677
 21
-88.20730901115222
 31
0.0
 11
39.20281791530676
 21
-88.2259444618189
 31
0.0
 11
39.20294340970677
 21
-88.2456745322189
 31
0.0
 11
39.20305611904011
 21
-88.2665688906189
 31
0.0
 11
39.20317328704011
 21
-88.28871127141891
 31
0.0
 11
39.20331020437343
 21
-88.31219240208556
 31
0.0
 11
39.20348185237342
 21
-88.33710068795223
 31
0.0
 11
39.2037038758401
 21
-88.36351589541889
 31
0.0
 11
39.20399321237342
 21
-88.3915032554189
 31
0.0
 11
39.20436851797343
 21
-88.42110949115221
 31
0.0
 11
39.20485023637344
 21
-88.45236333115222
 31
0.0
 11
39.20545926997344
 21
-88.48526524795223
 31
0.0
  0
LWPOLYLINE
  5
2E8
100
AcDbEntity
  8
0
  6
HIDDEN
 62
     8
100
AcDbPolyline
 90
       10
 70
     0
 43
0.0
 10
39.340463
 20
-87.998726
 10
39.34515
 20
-88.002821
 10
39.350015
 20
-88.016928
 10
39.354186
 20
-88.040484
 10
39.357482
 20
-88.07246
 10
39.359758
 20
-88.111459
 10
39.360916
 20
-88.155775
 10
39.360904
 20
-88.203473
 10
39.359723
 20
-88.252467
 10
39.357425
 20
-88.300617
  0
LWPOLYLINE
  5
2E9
100
AcDbEntity
  8
0
  6
HIDDEN
 62
     8
100
AcDbPolyline
 90
       10
 70
     0
 43
0.0
 10
39.327851
 20
-88.467553
 10
39.323163
 20
-88.463457
 10
39.318299
 20
-88.449351
 10
39.314128
 20
-88.425795
 10
39.310832
 20
-88.393819
 10
39.308555
 20
-88.35482
 10
39.307398
 20
-88.310504
 10
39.307409
 20
-88.262806
 10
39.30859
 20
-88.213812
 10
39.310889
 20
-88.165662
  0
LWPOLYLINE
  5
2EA
100
AcDbEntity
  8
0
  6
HIDDEN
 62
     8
100
AcDbPolyline
 90
        8
 70
     0
 43
0.0
 10
39.357425
 20
-88.300617
 10
39.35411
 20
-88.345817
 10
39.349922
 20
-88.386093
 10
39.345046
 20
-88.419684
 10
39.339694
 20
-88.445122
 10
39.3341
 20
-88.461296
 10
39.328508
 20
-88.467498
 10
39.327851
 20
-88.467553
  0
LWPOLYLINE
  5
2EB
100
AcDbEntity
  8
0
  6
HIDDEN
 62
     8
100
AcDbPolyline
 90
        8
 70
     0
 43
0.0
 10
39.310889
 20
-88.165662
 10
39.314204
 20
-88.120462
 10
39.318391
 20
-88.080186
 10
39.323267
 20
-88.046595
 10
39.32862
 20
-88.021156
 10
39.334214
 20
-88.004983
 10
39.339805
 20
-87.998781
 10
39.340463
 20
-87.998726
  0
SPLINE
  5
2EC
100
AcDbEntity
  8
0
  6
HIDDEN
 62
     8
100
AcDbSpline
210
-0.9986198510142642
220
0.0525204070838092
230
0.0
 70
    24
 71
     3
 72
     9
 73
     5
 74
     3
 42
0.0000001
 43
0.0000001
 44
0.0000000001
 40
0.0
 40
0.0
 40
0.0
 40
0.0
 40
0.0025173164468731
 40
0.0050396714410111
 40
0.0050396714410111
 40
0.0050396714410111
 40
0.0050396714410111
 10
39.32583498517344
 20
-90.01952389861889
 30
0.0
 10
39.32588377163838
 20
-90.01868620520154
 30
0.0
 10
39.32598144221707
 20
-90.01700914167741
 30
0.0
 10
39.32606023375221
 20
-90.01533108517691
 30
0.0
 10
39.32609966890676
 20
-90.01449121808555
 30
0.0
 11
39.32583498517344
 21
-90.01952389861889
 31
0.0
 11
39.32597663424009
 21
-90.0170105706189
 31
0.0
 11
39.32609966890676
 21
-90.01449121808555
 31
0.0
  0
SPLINE
  5
2ED
100
AcDbEntity
  8
0
  6
HIDDEN
 62
     8
100
AcDbSpline
210
0.0
220
0.0
230
1.0
 70
     8
 71
     3
 72
    19
 73
    15
 74
    13
 42
0.0000001
 43
0.0000001
 44
0.0000000001
 40
0.0
 40
0.0
 40
0.0
 40
0.0
 40
0.0688366126005513
 40
0.1399230287563336
 40
0.2070019370510592
 40
0.2652778475443403
 40
0.3134624189432187
 40
0.352952572344112
 40
0.3851493670205245
 40
0.4114359818069115
 40
0.4321637408530263
 40
0.4480217273339059
 40
0.4624976548044847
 40
0.4848683770267381
 40
0.4848683770267381
 40
0.4848683770267381
 40
0.4848683770267381
 10
39.32609967210676
 20
-90.01449113915224
 30
0.0
 10
39.32755274514418
 20
-89.99158533947172
 30
0.0
 10
39.33050638235438
 20
-89.94502510435401
 30
0.0
 10
39.33988218376672
 20
-89.87660746012885
 30
0.0
 10
39.35187841529096
 20
-89.81221482668843
 30
0.0
 10
39.36533301734989
 20
-89.75592893953511
 30
0.0
 10
39.37874198766062
 20
-89.70915145330762
 30
0.0
 10
39.3912744951489
 20
-89.6711933245062
 30
0.0
 10
39.40240962952233
 20
-89.64051334160444
 30
0.0
 10
39.41186090366387
 20
-89.61579291342642
 30
0.0
 10
39.41848371380168
 20
-89.59606799256901
 30
0.0
 10
39.42256417224665
 20
-89.5790572407615
 30
0.0
 10
39.41476676831406
 20
-89.56147012197716
 30
0.0
 10
39.40254139643984
 20
-89.55738400622625
 30
0.0
 10
39.39511900117345
 20
-89.55490320101889
 30
0.0
 11
39.32609967210676
 21
-90.01449113915224
 31
0.0
 11
39.33127788970678
 21
-89.94584956795224
 31
0.0
 11
39.34064063530676
 21
-89.87538242981889
 31
0.0
 11
39.35300692117344
 21
-89.80945326395222
 31
0.0
 11
39.36657293824011
 21
-89.75277835835223
 31
0.0
 11
39.37987645610677
 21
-89.70646670395224
 31
0.0
 11
39.39223508117343
 21
-89.66896021648556
 31
0.0
 11
39.40318172544012
 21
-89.63868143568557
 31
0.0
 11
39.41231870250677
 21
-89.61403388475224
 31
0.0
 11
39.41869810730675
 21
-89.59431224208556
 31
0.0
 11
39.42078561877345
 21
-89.5785922538189
 31
0.0
 11
39.4148892102401
 21
-89.56537163195223
 31
0.0
 11
39.39511900117345
 21
-89.55490320101889
 31
0.0
  0
SPLINE
  5
2EE
100
AcDbEntity
  8
0
  6
HIDDEN
 62
     8
100
AcDbSpline
210
-0.0628225635276394
220
0.9980247118743182
230
0.0
 70
    24
 71
     3
 72
     8
 73
     4
 74
     2
 42
0.0000001
 43
0.0000001
 44
0.0000000001
 40
0.0
 40
0.0
 40
0.0
 40
0.0
 40
0.2034599261094308
 40
0.2034599261094308
 40
0.2034599261094308
 40
0.2034599261094308
 10
39.33107940970678
 20
-88.78230625808557
 30
0.0
 10
39.263393398329
 20
-88.78656688279669
 30
0.0
 10
39.19570738695123
 20
-88.79082750750781
 30
0.0
 10
39.12802137557345
 20
-88.79508813221891
 30
0.0
 11
39.33107940970678
 21
-88.78230625808557
 31
0.0
 11
39.12802137557345
 21
-88.79508813221891
 31
0.0
  0
SPLINE
  5
2EF
100
AcDbEntity
  8
0
  6
HIDDEN
 62
     8
100
AcDbSpline
210
0.2324587382204964
220
0.9726062589891835
230
0.0
 70
    24
 71
     3
 72
     8
 73
     4
 74
     2
 42
0.0000001
 43
0.0000001
 44
0.0000000001
 40
0.0
 40
0.0
 40
0.0
 40
0.0
 40
0.0879648423767773
 40
0.0879648423767773
 40
0.0879648423767773
 40
0.0879648423767773
 10
39.1917583942401
 20
-89.2945116970189
 30
0.0
 10
39.16324000881788
 20
-89.28769563159667
 30
0.0
 10
39.13472162339566
 20
-89.28087956617446
 30
0.0
 10
39.10620323797344
 20
-89.27406350075223
 30
0.0
 11
39.1917583942401
 21
-89.2945116970189
 31
0.0
 11
39.10620323797344
 21
-89.27406350075223
 31
0.0
  0
LWPOLYLINE
  5
2F0
100
AcDbEntity
  8
0
  6
HIDDEN
 62
     8
100
AcDbPolyline
 90
        8
 70
     0
 43
0.0
 10
39.274365
 20
-88.621884
 10
39.266627
 20
-88.588871
 10
39.260359
 20
-88.539513
 10
39.255876
 20
-88.476283
 10
39.253402
 20
-88.402352
 10
39.253062
 20
-88.321428
 10
39.254873
 20
-88.237568
 10
39.258744
 20
-88.154978
  0
LWPOLYLINE
  5
2F1
100
AcDbEntity
  8
0
  6
HIDDEN
 62
     8
100
AcDbPolyline
 90
        6
 70
     0
 43
0.0
 10
39.205459
 20
-88.485265
 10
39.213831
 20
-88.695165
 10
39.229272
 20
-88.862295
 10
39.250574
 20
-88.973647
 10
39.276074
 20
-89.020579
 10
39.296943
 20
-89.010814
  0
SPLINE
  5
2F2
100
AcDbEntity
  8
0
  6
HIDDEN
 62
     8
100
AcDbSpline
210
0.0
220
0.0
230
1.0
 70
     8
 71
     3
 72
    15
 73
    11
 74
     9
 42
0.0000001
 43
0.0000001
 44
0.0000000001
 40
0.0
 40
0.0
 40
0.0
 40
0.0
 40
0.0386619634996756
 40
0.0743225383545976
 40
0.10586365045624
 40
0.1324543514875508
 40
0.1535121471646037
 40
0.16871835290027
 40
0.1780778093093994
 40
0.1816888147410617
 40
0.1816888147410617
 40
0.1816888147410617
 40
0.1816888147410617
 10
39.36271828224009
 20
-88.6059629194189
 30
0.0
 10
39.36187123004762
 20
-88.61882376468049
 30
0.0
 10
39.36024288364809
 20
-88.64354704768794
 30
0.0
 10
39.35690548777529
 20
-88.67867084057342
 30
0.0
 10
39.35313691568735
 20
-88.70974621094864
 30
0.0
 10
39.34892039062219
 20
-88.73571434566647
 30
0.0
 10
39.34467516001667
 20
-88.75649585714914
 30
0.0
 10
39.33993439716319
 20
-88.77043228108991
 30
0.0
 10
39.33631454637398
 20
-88.78009702292411
 30
0.0
 10
39.33221120046876
 20
-88.78175072548135
 30
0.0
 10
39.33106881984009
 20
-88.78221111995223
 30
0.0
 11
39.36271828224009
 21
-88.6059629194189
 31
0.0
 11
39.35998372757343
 21
-88.64452805435222
 31
0.0
 11
39.35661184810676
 21
-88.68002885755222
 31
0.0
 11
39.35271440277343
 21
-88.71132824528556
 31
0.0
 11
39.34841366784009
 21
-88.73756884475223
 31
0.0
 11
39.34383521130676
 21
-88.75812288315223
 31
0.0
 11
39.33909569024008
 21
-88.77257160741889
 31
0.0
 11
39.3343070726401
 21
-88.78061328421889
 31
0.0
 11
39.33106881984009
 21
-88.78221111995223
 31
0.0
  0
LINE
  5
2F3
100
AcDbEntity
  8
0
  6
HIDDEN
 62
     8
100
AcDbLine
 10
39.35721
 20
-88.764903
 30
0.0
 11
39.378763
 21
-88.569736
 31
0.0
  0
LINE
  5
2F4
100
AcDbEntity
  8
0
  6
HIDDEN
 62
     8
100
AcDbLine
 10
39.33108
 20
-88.782298
 30
0.0
 11
39.329588
 21
-88.78203
 31
0.0
  0
LINE
  5
2F5
100
AcDbEntity
  8
0
  6
HIDDEN
 62
     8
100
AcDbLine
 10
39.331552
 20
-88.911963
 30
0.0
 11
39.35721
 21
-88.764903
 31
0.0
  0
LINE
  5
2F6
100
AcDbEntity
  8
0
  6
HIDDEN
 62
     8
100
AcDbLine
 10
39.274365
 20
-88.621884
 30
0.0
 11
39.329588
 21
-88.78203
 31
0.0
  0
LINE
  5
2F7
100
AcDbEntity
  8
0
  6
HIDDEN
 62
     8
100
AcDbLine
 10
39.258744
 20
-88.154978
 30
0.0
 11
39.273136
 21
-87.915645
 31
0.0
  0
LINE
  5
2F8
100
AcDbEntity
  8
0
  6
HIDDEN
 62
     8
100
AcDbLine
 10
39.40329
 20
-88.098485
 30
0.0
 11
39.404357
 21
-87.859081
 31
0.0
  0
LINE
  5
2F9
100
AcDbEntity
  8
0
  6
HIDDEN
 62
     8
100
AcDbLine
 10
39.394532
 20
-88.341673
 30
0.0
 11
39.40329
 21
-88.098485
 31
0.0
  0
LINE
  5
2FA
100
AcDbEntity
  8
0
  6
HIDDEN
 62
     8
100
AcDbLine
 10
39.362718
 20
-88.605963
 30
0.0
 11
39.392416
 21
-88.112097
 31
0.0
  0
LINE
  5
2FB
100
AcDbEntity
  8
0
  6
HIDDEN
 62
     8
100
AcDbLine
 10
39.378763
 20
-88.569736
 30
0.0
 11
39.394532
 21
-88.341673
 31
0.0
  0
SPLINE
  5
2FC
100
AcDbEntity
  8
0
  6
HIDDEN
 62
     8
100
AcDbSpline
210
0.0
220
0.0
230
-1.0
 70
     8
 71
     3
 72
    19
 73
    15
 74
    13
 42
0.0000001
 43
0.0000001
 44
0.0000000001
 40
0.0
 40
0.0
 40
0.0
 40
0.0
 40
0.0684117376528402
 40
0.1392844606370832
 40
0.2067798972508156
 40
0.2662585843924494
 40
0.3163077220915273
 40
0.358175208624971
 40
0.3931053849556882
 40
0.4223316902326612
 40
0.4458740032710842
 40
0.4636869792061118
 40
0.4768343682566184
 40
0.4937162816000451
 40
0.4937162816000451
 40
0.4937162816000451
 40
0.4937162816000451
 10
38.57933313557343
 20
-88.14173196901888
 30
0.0
 10
38.57841135780096
 20
-88.16453606105794
 30
0.0
 10
38.5765346430109
 20
-88.21096458003658
 30
0.0
 10
38.58246686862083
 20
-88.27980663200028
 30
0.0
 10
38.5936673930265
 20
-88.34486311983098
 30
0.0
 10
38.60880464072952
 20
-88.40197422558071
 30
0.0
 10
38.62556291961222
 20
-88.44962853768778
 30
0.0
 10
38.64246531324777
 20
-88.48841165524262
 30
0.0
 10
38.65857788593839
 20
-88.51991463311177
 30
0.0
 10
38.67328840571664
 20
-88.54511520335128
 30
0.0
 10
38.68525131850165
 20
-88.56555423214055
 30
0.0
 10
38.69447002362194
 20
-88.58075399921338
 30
0.0
 10
38.69644512424698
 20
-88.59905680751195
 30
0.0
 10
38.68604047204851
 20
-88.60343223052813
 30
0.0
 10
38.68019117077342
 20
-88.60589201168556
 30
0.0
 11
38.57933313557343
 21
-88.14173196901888
 31
0.0
 11
38.57798452757343
 21
-88.21013041275223
 31
0.0
 11
38.58357741717343
 21
-88.28078211088557
 31
0.0
 11
38.59515804757343
 21
-88.34727664421889
 31
0.0
 11
38.61042433984012
 21
-88.40476276901888
 31
0.0
 11
38.62708332330676
 21
-88.45195804901889
 31
0.0
 11
38.64381700544011
 21
-88.49033604155222
 31
0.0
 11
38.65974458410677
 21
-88.52142349008556
 31
0.0
 11
38.67427018410678
 21
-88.54678455995223
 31
0.0
 11
38.6862177190401
 21
-88.56706994661889
 31
0.0
 11
38.69394879210678
 21
-88.58311776955224
 31
0.0
 11
38.6940588966401
 21
-88.59626469755223
 31
0.0
 11
38.68019117077342
 21
-88.60589201168556
 31
0.0
  0
SPLINE
  5
2FD
100
AcDbEntity
  8
0
  6
HIDDEN
 62
     8
100
AcDbSpline
210
-0.9978305091101731
220
0.0658352116191072
230
0.0
 70
    24
 71
     3
 72
     9
 73
     5
 74
     3
 42
0.0000001
 43
0.0000001
 44
0.0000000001
 40
0.0
 40
0.0
 40
0.0
 40
0.0
 40
0.002517895752182
 40
0.0050418298163299
 40
0.0050418298163299
 40
0.0050418298163299
 40
0.0050418298163299
 10
38.57966506837344
 20
-88.13670101861889
 30
0.0
 10
38.57961346264424
 20
-88.13753873359228
 30
0.0
 10
38.57951012742714
 20
-88.13921617251194
 30
0.0
 10
38.57939218278764
 20
-88.14089264757706
 30
0.0
 10
38.5793331398401
 20
-88.14173188901889
 30
0.0
 11
38.57966506837344
 21
-88.13670101861889
 31
0.0
 11
38.57950660757343
 21
-88.13921392315224
 31
0.0
 11
38.5793331398401
 21
-88.14173188901889
 31
0.0
  0
SPLINE
  5
2FE
100
AcDbEntity
  8
0
  6
HIDDEN
 62
     8
100
AcDbSpline
210
-0.9985308049589958
220
0.0541870053420568
230
0.0
 70
    24
 71
     3
 72
     9
 73
     5
 74
     3
 42
0.0000001
 43
0.0000001
 44
0.0000000001
 40
0.0
 40
0.0
 40
0.0
 40
0.0
 40
0.0025071827582338
 40
0.0050189665592504
 40
0.0050189665592504
 40
0.0050189665592504
 40
0.0050189665592504
 10
38.59432903210678
 20
-87.89235637328557
 30
0.0
 10
38.59428741602199
 20
-87.8931910685525
 30
0.0
 10
38.59420410748088
 20
-87.8948619908729
 30
0.0
 10
38.5941061127764
 20
-87.89653211626271
 30
0.0
 10
38.59405707050676
 20
-87.89736794448556
 30
0.0
 11
38.59432903210678
 21
-87.89235637328557
 31
0.0
 11
38.59420051904011
 21
-87.89486026021888
 31
0.0
 11
38.59405707050676
 21
-87.89736794448556
 31
0.0
  0
LWPOLYLINE
  5
2FF
100
AcDbEntity
  8
0
  6
HIDDEN
 62
     8
100
AcDbPolyline
 90
        7
 70
     0
 43
0.0
 10
38.860726
 20
-88.287249
 10
38.857138
 20
-88.335511
 10
38.852564
 20
-88.377971
 10
38.847232
 20
-88.412497
 10
38.84141
 20
-88.437359
 10
38.83539
 20
-88.451311
 10
38.831144
 20
-88.454177
  0
LWPOLYLINE
  5
300
100
AcDbEntity
  8
0
  6
HIDDEN
 62
     8
100
AcDbPolyline
 90
        7
 70
     0
 43
0.0
 10
38.814189
 20
-88.152294
 10
38.817777
 20
-88.104031
 10
38.822351
 20
-88.061572
 10
38.827683
 20
-88.027045
 10
38.833505
 20
-88.002183
 10
38.839525
 20
-87.988231
 10
38.843771
 20
-87.985366
  0
LWPOLYLINE
  5
301
100
AcDbEntity
  8
0
  6
HIDDEN
 62
     8
100
AcDbPolyline
 90
       10
 70
     0
 43
0.0
 10
38.843771
 20
-87.985366
 10
38.845441
 20
-87.98589
 10
38.850957
 20
-87.995277
 10
38.855796
 20
-88.01592
 10
38.859716
 20
-88.046786
 10
38.862519
 20
-88.086326
 10
38.864066
 20
-88.132557
 10
38.864279
 20
-88.183162
 10
38.863146
 20
-88.235602
 10
38.860726
 20
-88.287249
  0
LWPOLYLINE
  5
302
100
AcDbEntity
  8
0
  6
HIDDEN
 62
     8
100
AcDbPolyline
 90
       10
 70
     0
 43
0.0
 10
38.831144
 20
-88.454177
 10
38.829474
 20
-88.453652
 10
38.823958
 20
-88.444266
 10
38.819119
 20
-88.423622
 10
38.815199
 20
-88.392756
 10
38.812396
 20
-88.353217
 10
38.810849
 20
-88.306985
 10
38.810636
 20
-88.256381
 10
38.811769
 20
-88.20394
 10
38.814189
 20
-88.152294
  0
LINE
  5
303
100
AcDbEntity
  8
0
  6
HIDDEN
 62
     8
100
AcDbLine
 10
38.579665
 20
-88.136701
 30
0.0
 11
38.594057
 21
-87.897368
 31
0.0
  0
LINE
  5
304
100
AcDbEntity
  8
0
  6
HIDDEN
 62
     8
100
AcDbLine
 10
38.73814
 20
-87.633015
 30
0.0
 11
39.320434
 21
-87.648687
 31
0.0
  0
LINE
  5
305
100
AcDbEntity
  8
0
  6
HIDDEN
 62
     8
100
AcDbLine
 10
38.737759
 20
-87.64856
 30
0.0
 11
39.331933
 21
-87.664551
 31
0.0
  0
LWPOLYLINE
  5
306
100
AcDbEntity
  8
0
  6
HIDDEN
 62
     8
100
AcDbPolyline
 90
        3
 70
     0
 43
0.0
 10
39.320441
 20
-87.648702
 10
39.323112
 20
-87.649541
 10
39.331933
 20
-87.664551
  0
LWPOLYLINE
  5
307
100
AcDbEntity
  8
0
  6
HIDDEN
 62
     8
100
AcDbPolyline
 90
        4
 70
     0
 43
0.0
 10
39.294714
 20
-87.715354
 10
39.304024
 20
-87.675595
 10
39.313651
 20
-87.653285
 10
39.320441
 20
-87.648702
  0
SPLINE
  5
308
100
AcDbEntity
  8
0
  6
HIDDEN
 62
     8
100
AcDbSpline
210
0.0
220
0.0
230
-1.0
 70
     8
 71
     3
 72
    11
 73
     7
 74
     5
 42
0.0000001
 43
0.0000001
 44
0.0000000001
 40
0.0
 40
0.0
 40
0.0
 40
0.0
 40
0.0150171584073203
 40
0.020959074370489
 40
0.0325438610301257
 40
0.0335498752112309
 40
0.0335498752112309
 40
0.0335498752112309
 40
0.0335498752112309
 10
38.73775917930676
 20
-87.64855971728556
 30
0.0
 10
38.74371787077207
 20
-87.64751273759861
 30
0.0
 10
38.75203426820124
 20
-87.6460514940978
 30
0.0
 10
38.75133137790628
 20
-87.63262588137706
 30
0.0
 10
38.74279180620334
 20
-87.63290455117617
 30
0.0
 10
38.73864291056452
 20
-87.63308803690824
 30
0.0
 10
38.73831141077342
 20
-87.63310269755223
 30
0.0
 11
38.73775917930676
 21
-87.64855971728556
 31
0.0
 11
38.75113346410678
 21
-87.64173010875223
 31
0.0
 11
38.7505685446401
 21
-87.63581510821889
 31
0.0
 11
38.73931646144011
 21
-87.63305867835224
 31
0.0
 11
38.73831141077342
 21
-87.63310269755223
 31
0.0
  0
SPLINE
  5
309
100
AcDbEntity
  8
0
  6
HIDDEN
 62
     8
100
AcDbSpline
210
0.0
220
0.0
230
-1.0
 70
     8
 71
     3
 72
     9
 73
     5
 74
     3
 42
0.0000001
 43
0.0000001
 44
0.0000000001
 40
0.0
 40
0.0
 40
0.0
 40
0.0
 40
0.015744547692627
 40
0.0238853855130029
 40
0.0238853855130029
 40
0.0238853855130029
 40
0.0238853855130029
 10
38.73831141077342
 20
-87.63310269755223
 30
0.0
 10
38.7330371416437
 20
-87.63335101534149
 30
0.0
 10
38.72503577165062
 20
-87.63372772772736
 30
0.0
 10
38.71740120201572
 20
-87.63606346374949
 30
0.0
 10
38.7147991174401
 20
-87.63685955088558
 30
0.0
 11
38.73831141077342
 21
-87.63310269755223
 31
0.0
 11
38.72264798037345
 21
-87.63469885861891
 31
0.0
 11
38.7147991174401
 21
-87.63685955088558
 31
0.0
  0
SPLINE
  5
30A
100
AcDbEntity
  8
0
  6
HIDDEN
 62
     8
100
AcDbSpline
210
0.0
220
0.0
230
-1.0
 70
     8
 71
     3
 72
    12
 73
     8
 74
     6
 42
0.0000001
 43
0.0000001
 44
0.0000000001
 40
0.0
 40
0.0
 40
0.0
 40
0.0
 40
0.0124160861261227
 40
0.0362122696089771
 40
0.0633629491773948
 40
0.0947587555002753
 40
0.1069705004877601
 40
0.1069705004877601
 40
0.1069705004877601
 40
0.1069705004877601
 10
38.7147991174401
 20
-87.63685955088558
 30
0.0
 10
38.71094034087867
 20
-87.63836998471232
 30
0.0
 10
38.69968598457154
 20
-87.64277525674451
 30
0.0
 10
38.68191580252041
 20
-87.65460870464352
 30
0.0
 10
38.66225616157743
 20
-87.67391511861424
 30
0.0
 10
38.6483783246662
 20
-87.69315034691047
 30
0.0
 10
38.64119517553127
 20
-87.70578679086325
 30
0.0
 10
38.63918362517343
 20
-87.70932546768555
 30
0.0
 11
38.7147991174401
 21
-87.63685955088558
 31
0.0
 11
38.70335193877345
 21
-87.64166801168554
 31
0.0
 11
38.68332001877344
 21
-87.65451248635223
 31
0.0
 11
38.66380637717343
 21
-87.67339044155223
 31
0.0
 11
38.64532568277344
 21
-87.69877076048556
 31
0.0
 11
38.63918362517343
 21
-87.70932546768555
 31
0.0
  0
SPLINE
  5
30B
100
AcDbEntity
  8
0
  6
HIDDEN
 62
     8
100
AcDbSpline
210
0.0
220
0.0
230
-1.0
 70
     8
 71
     3
 72
    14
 73
    10
 74
     8
 42
0.0000001
 43
0.0000001
 44
0.0000000001
 40
0.0
 40
0.0
 40
0.0
 40
0.0
 40
0.0617333542356938
 40
0.3728673378450935
 40
0.657938019635216
 40
0.9124199840424889
 40
1.136349405530329
 40
1.336728554880527
 40
1.524049946190639
 40
1.524049946190639
 40
1.524049946190639
 40
1.524049946190639
 10
38.51959716224008
 20
-87.70811588155224
 30
0.0
 10
38.50049581273698
 20
-87.71576782721211
 30
0.0
 10
38.38512431824018
 20
-87.76198531600503
 30
0.0
 10
38.1860822518136
 20
-87.85520195625649
 30
0.0
 10
37.94469056718097
 20
-88.00551503752966
 30
0.0
 10
37.75167027689892
 20
-88.17386845513999
 30
0.0
 10
37.6143674103955
 20
-88.35533349779806
 30
0.0
 10
37.52733374701242
 20
-88.54293552267291
 30
0.0
 10
37.51043085872717
 20
-88.67167602595554
 30
0.0
 10
37.50226405930677
 20
-88.73387828688557
 30
0.0
 11
38.51959716224008
 21
-87.70811588155224
 31
0.0
 11
38.46236356544009
 21
-87.73125291728558
 31
0.0
 11
38.18124398784012
 21
-87.86458010448557
 31
0.0
 11
37.94067153344009
 21
-88.01751861435223
 31
0.0
 11
37.75078755584009
 21
-88.18694454288557
 31
0.0
 11
37.61669188650678
 21
-88.36628426875224
 31
0.0
 11
37.53569742997344
 21
-88.54956465915224
 31
0.0
 11
37.50226405930677
 21
-88.73387828688557
 31
0.0
  0
LWPOLYLINE
  5
30C
100
AcDbEntity
  8
0
  6
HIDDEN
 62
     8
100
AcDbPolyline
 90
        7
 70
     0
 43
0.0
 10
38.053273
 20
-89.131157
 10
37.985955
 20
-89.261306
 10
37.964388
 20
-89.395206
 10
37.988773
 20
-89.531609
 10
38.058882
 20
-89.669242
 10
38.174064
 20
-89.806822
 10
38.333242
 20
-89.943068
  0
LWPOLYLINE
  5
30D
100
AcDbEntity
  8
0
  6
HIDDEN
 62
     8
100
AcDbPolyline
 90
        3
 70
     0
 43
0.0
 10
38.468875
 20
-89.020802
 10
38.437026
 20
-89.001443
 10
38.39081
 20
-88.985735
  0
LWPOLYLINE
  5
30E
100
AcDbEntity
  8
0
  6
HIDDEN
 62
     8
100
AcDbPolyline
 90
        6
 70
     0
 43
0.0
 10
38.195875
 20
-88.652901
 10
38.195209
 20
-88.6798
 10
38.218668
 20
-88.811023
 10
38.286115
 20
-88.943429
 10
38.396922
 20
-89.075785
 10
38.550056
 20
-89.206857
  0
LWPOLYLINE
  5
30F
100
AcDbEntity
  8
0
  6
HIDDEN
 62
     8
100
AcDbPolyline
 90
        6
 70
     0
 43
0.0
 10
38.550056
 20
-89.206856
 10
38.547643
 20
-89.15504
 10
38.534246
 20
-89.106395
 10
38.51051
 20
-89.063259
 10
38.477575
 20
-89.027705
 10
38.468875
 20
-89.020802
  0
LWPOLYLINE
  5
310
100
AcDbEntity
  8
0
  6
HIDDEN
 62
     8
100
AcDbPolyline
 90
        7
 70
     0
 43
0.0
 10
38.333242
 20
-89.943067
 10
38.381696
 20
-89.921558
 10
38.425715
 20
-89.890114
 10
38.463185
 20
-89.850246
 10
38.492304
 20
-89.803871
 10
38.511672
 20
-89.753218
 10
38.520358
 20
-89.700722
  0
LWPOLYLINE
  5
311
100
AcDbEntity
  8
0
  6
HIDDEN
 62
     8
100
AcDbPolyline
 90
        3
 70
     0
 43
0.0
 10
38.280719
 20
-88.425778
 10
38.215957
 20
-88.550985
 10
38.195875
 20
-88.652901
  0
LINE
  5
312
100
AcDbEntity
  8
0
  6
HIDDEN
 62
     8
100
AcDbLine
 10
38.550056
 20
-89.206857
 30
0.0
 11
38.520358
 21
-89.700722
 31
0.0
  0
LINE
  5
313
100
AcDbEntity
  8
0
  6
HIDDEN
 62
     8
100
AcDbLine
 10
37.487268
 20
-88.983254
 30
0.0
 11
37.502264
 21
-88.733878
 31
0.0
  0
LINE
  5
316
100
AcDbEntity
  8
0
100
AcDbLine
 10
18.516373
 20
-104.459639
 30
0.0
 11
36.96763
 21
-104.459639
 31
0.0
  0
LINE
  5
31B
100
AcDbEntity
  8
0
100
AcDbLine
 10
11.304501
 20
-87.709639
 30
0.0
 11
11.5087
 21
-86.420526
 31
0.0
  0
ARC
  5
31C
100
AcDbEntity
  8
0
100
AcDbCircle
 10
11.755621
 20
-86.459639
 30
0.0
 40
0.25
100
AcDbArc
 50
90.0
 51
170.999005
  0
LINE
  5
31D
100
AcDbEntity
  8
0
100
AcDbLine
 10
44.179501
 20
-87.709639
 30
0.0
 11
43.975303
 21
-86.420526
 31
0.0
  0
ARC
  5
31E
100
AcDbEntity
  8
0
100
AcDbCircle
 10
43.728382
 20
-86.459639
 30
0.0
 40
0.25
100
AcDbArc
 50
9.000995
 51
90.0
  0
VIEWPORT
  5
209
102
{ACAD_XDICTIONARY
360
279
102
}
100
AcDbEntity
 67
     1
  8
0
100
AcDbViewport
 10
5.31375
 20
3.96875
 30
0.0
 40
15.253385
 41
8.746133
 68
    -1
 69
     1
1001
ACAD
1000
MVIEW
1002
{
1070
    16
1010
0.0
1020
0.0
1030
0.0
1010
0.0
1020
0.0
1030
1.0
1040
0.0
1040
8.746133
1040
5.31375
1040
3.96875
1040
50.0
1040
0.0
1040
0.0
1070
     0
1070
   100
1070
     1
1070
     1
1070
     0
1070
     0
1070
     0
1070
     0
1040
0.0
1040
0.0
1040
0.0
1040
10.0
1040
10.0
1040
10.0
1040
10.0
1070
     0
1002
{
1002
}
1002
}
  0
ENDSEC
  0
SECTION
  2
OBJECTS
  0
DICTIONARY
  5
7
102
{ACAD_XDICTIONARY
360
270
102
}
100
AcDbDictionary
  3
ACAD_GROUP
350
26
  3
ACAD_LAYOUT
350
B
  3
ACAD_MLINESTYLE
350
27
  3
ACAD_PLOTSETTINGS
350
28
  3
ACAD_PLOTSTYLENAME
350
6
  3
ACDBHEADERROUNDTRIPXREC
350
24D
  3
ACDBVARIABLEDICTIONARY
350
1C3
  0
DICTIONARY
  5
11
100
AcDbDictionary
280
     1
  3
ACAD_LAYERFILTERS
360
12
  0
DICTIONARY
  5
249
100
AcDbDictionary
280
     1
  3
ACAD_XREC_ROUNDTRIP
360
24A
  0
DICTIONARY
  5
276
100
AcDbDictionary
280
     1
  3
ACAD_XREC_ROUNDTRIP
360
277
  0
DICTIONARY
  5
26E
100
AcDbDictionary
280
     1
  3
ACAD_LAYOUTSELFREF
360
26F
  0
DICTIONARY
  5
247
100
AcDbDictionary
280
     1
  3
ACAD_LAYOUTSELFREF
360
278
  3
ACAD_XREC_ROUNDTRIP
360
248
  0
DICTIONARY
  5
279
100
AcDbDictionary
280
     1
  3
ACAD_XREC_ROUNDTRIP
360
27A
  0
DICTIONARY
  5
270
100
AcDbDictionary
280
     1
  3
ACAD_XREC_ROUNDTRIP
360
271
  0
DICTIONARY
  5
26
102
{ACAD_REACTORS
330
7
102
}
100
AcDbDictionary
  0
DICTIONARY
  5
B
102
{ACAD_XDICTIONARY
360
272
102
}
102
{ACAD_REACTORS
330
7
102
}
100
AcDbDictionary
  3
LAYOUT1
350
202
  3
MODEL
350
A
  0
DICTIONARY
  5
27
102
{ACAD_REACTORS
330
7
102
}
100
AcDbDictionary
  3
STANDARD
350
29
  0
DICTIONARY
  5
28
102
{ACAD_REACTORS
330
7
102
}
100
AcDbDictionary
  0
ACAD_PROXY_OBJECT
  5
6
102
{ACAD_REACTORS
330
7
102
}
100
AcDbProxyObject
 90
      499
 91
      517
 93
       86
310
405010041939BDC9B585B0
350
5
340
5
 94
        0
  0
DICTIONARY
  5
24D
102
{ACAD_REACTORS
330
7
102
}
100
AcDbDictionary
  3
CEPSNTYPE
350
257
  3
DIMSTYLEDATA
350
25B
  3
FINGERPRINTGUID
350
258
  3
HYPERLINKBASE
350
250
  3
INSUNITS
350
256
  3
LAYOUTDICT
350
252
  3
LWETCUNION
350
255
  3
PLOTSETDICT
350
253
  3
PLOTSTYLNAMDICT
350
254
  3
PSVPSCALE
350
25A
  3
PUCSBASE
350
25E
  3
PUCSORGBACK
350
264
  3
PUCSORGBOTTOM
350
260
  3
PUCSORGFRONT
350
263
  3
PUCSORGLEFT
350
261
  3
PUCSORGRIGHT
350
262
  3
PUCSORGTOP
350
25F
  3
PUCSORTHOREF
350
25C
  3
PUCSORTHOVIEW
350
25D
  3
STYLESHEET
350
251
  3
TSTACKALIGN
350
24E
  3
TSTACKSIZE
350
24F
  3
UCSBASE
350
267
  3
UCSORGBACK
350
26D
  3
UCSORGBOTTOM
350
269
  3
UCSORGFRONT
350
26C
  3
UCSORGLEFT
350
26A
  3
UCSORGRIGHT
350
26B
  3
UCSORGTOP
350
268
  3
UCSORTHOREF
350
265
  3
UCSORTHOVIEW
350
266
  3
VERSIONGUID
350
259
  0
DICTIONARY
  5
1C3
102
{ACAD_REACTORS
330
7
102
}
100
AcDbDictionary
  3
DIMASSOC
350
1C5
  3
HIDETEXT
350
1C4
  0
DICTIONARY
  5
12
102
{ACAD_XDICTIONARY
360
274
102
}
102
{ACAD_REACTORS
330
11
102
}
100
AcDbDictionary
280
     1
  3
DIM-1_12
360
13
  3
DIM-1_16
360
14
  0
XRECORD
  5
24A
102
{ACAD_REACTORS
330
249
102
}
100
AcDbXrecord
102
EXTNAMES
  1
DEFPOINTS
  2
Defpoints
102
PLOTBIT
280
     0
  0
XRECORD
  5
277
102
{ACAD_REACTORS
330
276
102
}
100
AcDbXrecord
102
ACADR14ROUNDTRIP
1000
DSTYLE
1002
{
1070
    79
 70
     1
1070
   276
 70
     1
1070
   277
 70
     5
1070
   289
 70
     0
1002
}
  0
XRECORD
  5
26F
102
{ACAD_REACTORS
330
26E
102
}
100
AcDbXrecord
340
2
  0
XRECORD
  5
278
102
{ACAD_REACTORS
330
247
102
}
100
AcDbXrecord
340
201
  0
XRECORD
  5
248
102
{ACAD_REACTORS
330
247
102
}
100
AcDbXrecord
102
EXTNAMES
  1
*PAPER_SPACE
  2
*Paper_Space
  0
XRECORD
  5
27A
102
{ACAD_REACTORS
330
279
102
}
100
AcDbXrecord
102
UCS
 74
     0
 71
     1
 10
0.0
 20
0.0
 30
0.0
 10
1.0
 20
0.0
 30
0.0
 10
0.0
 20
1.0
 30
0.0
146
0.0
 79
     0
102
VIEW
281
     0
102
NEWVIEWCONTROL
280
     4
  0
XRECORD
  5
271
102
{ACAD_REACTORS
330
270
102
}
100
AcDbXrecord
102
EXTNAMES
  1
ACDBVARIABLEDICTIONARY
  2
AcDbVariableDictionary
  0
DICTIONARY
  5
272
100
AcDbDictionary
280
     1
  3
ACAD_XREC_ROUNDTRIP
360
273
  0
ACAD_PROXY_OBJECT
  5
202
102
{ACAD_REACTORS
330
B
102
}
100
AcDbProxyObject
 90
      499
 91
      515
 93
     1268
310
9104850204465736B4A65742031313230432C008000000C0CCFC2A40000000382F2E041000000000050690F4000000000302E04100000000E0D08E724000000020094FDA901024134AA416AA591069074C61796F75743140501AAFF7FBFDFFFFF82FE8F45A0D0384716FCFA7F3E9D1D4499030580C12110D08102A6A6A2E36
310
FB5D93A6FC4FC3097CB656666E93F82E97CB45B8CE234004C2A14C8CE4C71020
330
201
330
209
340
0
340
0
 94
        0
  0
ACAD_PROXY_OBJECT
  5
A
102
{ACAD_REACTORS
330
B
102
}
100
AcDbProxyObject
 90
      499
 91
      515
 93
      468
310
9044E6F6E652C01AAAAAAAAA5A69054D6F64656C901A800000000000000000000000000000000000000000000A1000000000000008902A6A6AAAA6
330
2
330
0
340
0
340
0
 94
        0
  0
MLINESTYLE
  5
29
102
{ACAD_REACTORS
330
27
102
}
100
AcDbMlineStyle
  2
STANDARD
 70
     0
  3

 62
     0
 51
90.0
 52
90.0
 71
     2
 49
0.5
 62
   256
  6
BYLAYER
 49
-0.5
 62
   256
  6
BYLAYER
  0
ACAD_PROXY_OBJECT
  5
5
102
{ACAD_REACTORS
330
6
102
}
100
AcDbProxyObject
 90
      499
 91
      518
 93
        0
 94
        0
  0
XRECORD
  5
257
102
{ACAD_REACTORS
330
24D
102
}
100
AcDbXrecord
 90
        0
  0
XRECORD
  5
25B
102
{ACAD_REACTORS
330
24D
102
}
100
AcDbXrecord
1000
DSTYLE
1002
{
1070
    79
 70
     1
1070
   276
 70
     1
1070
   277
 70
     5
1070
   289
 70
     0
1002
}
  0
XRECORD
  5
258
102
{ACAD_REACTORS
330
24D
102
}
100
AcDbXrecord
  1
{AE98BB68-3F44-45E5-9613-1524D8A29712}
  0
XRECORD
  5
250
102
{ACAD_REACTORS
330
24D
102
}
100
AcDbXrecord
  1

  0
XRECORD
  5
256
102
{ACAD_REACTORS
330
24D
102
}
100
AcDbXrecord
 90
        0
  0
XRECORD
  5
252
102
{ACAD_REACTORS
330
24D
102
}
100
AcDbXrecord
340
B
  0
XRECORD
  5
255
102
{ACAD_REACTORS
330
24D
102
}
100
AcDbXrecord
 90
    10781
  0
XRECORD
  5
253
102
{ACAD_REACTORS
330
24D
102
}
100
AcDbXrecord
340
28
  0
XRECORD
  5
254
102
{ACAD_REACTORS
330
24D
102
}
100
AcDbXrecord
340
6
  0
XRECORD
  5
25A
102
{ACAD_REACTORS
330
24D
102
}
100
AcDbXrecord
 40
0.0
  0
XRECORD
  5
25E
102
{ACAD_REACTORS
330
24D
102
}
100
AcDbXrecord
340
0
  0
XRECORD
  5
264
102
{ACAD_REACTORS
330
24D
102
}
100
AcDbXrecord
 10
0.0
 20
0.0
 30
0.0
  0
XRECORD
  5
260
102
{ACAD_REACTORS
330
24D
102
}
100
AcDbXrecord
 10
0.0
 20
0.0
 30
0.0
  0
XRECORD
  5
263
102
{ACAD_REACTORS
330
24D
102
}
100
AcDbXrecord
 10
0.0
 20
0.0
 30
0.0
  0
XRECORD
  5
261
102
{ACAD_REACTORS
330
24D
102
}
100
AcDbXrecord
 10
0.0
 20
0.0
 30
0.0
  0
XRECORD
  5
262
102
{ACAD_REACTORS
330
24D
102
}
100
AcDbXrecord
 10
0.0
 20
0.0
 30
0.0
  0
XRECORD
  5
25F
102
{ACAD_REACTORS
330
24D
102
}
100
AcDbXrecord
 10
0.0
 20
0.0
 30
0.0
  0
XRECORD
  5
25C
102
{ACAD_REACTORS
330
24D
102
}
100
AcDbXrecord
340
0
  0
XRECORD
  5
25D
102
{ACAD_REACTORS
330
24D
102
}
100
AcDbXrecord
 70
     0
  0
XRECORD
  5
251
102
{ACAD_REACTORS
330
24D
102
}
100
AcDbXrecord
  1

  0
XRECORD
  5
24E
102
{ACAD_REACTORS
330
24D
102
}
100
AcDbXrecord
 90
        1
  0
XRECORD
  5
24F
102
{ACAD_REACTORS
330
24D
102
}
100
AcDbXrecord
 90
       70
  0
XRECORD
  5
267
102
{ACAD_REACTORS
330
24D
102
}
100
AcDbXrecord
340
0
  0
XRECORD
  5
26D
102
{ACAD_REACTORS
330
24D
102
}
100
AcDbXrecord
 10
0.0
 20
0.0
 30
0.0
  0
XRECORD
  5
269
102
{ACAD_REACTORS
330
24D
102
}
100
AcDbXrecord
 10
0.0
 20
0.0
 30
0.0
  0
XRECORD
  5
26C
102
{ACAD_REACTORS
330
24D
102
}
100
AcDbXrecord
 10
0.0
 20
0.0
 30
0.0
  0
XRECORD
  5
26A
102
{ACAD_REACTORS
330
24D
102
}
100
AcDbXrecord
 10
0.0
 20
0.0
 30
0.0
  0
XRECORD
  5
26B
102
{ACAD_REACTORS
330
24D
102
}
100
AcDbXrecord
 10
0.0
 20
0.0
 30
0.0
  0
XRECORD
  5
268
102
{ACAD_REACTORS
330
24D
102
}
100
AcDbXrecord
 10
0.0
 20
0.0
 30
0.0
  0
XRECORD
  5
265
102
{ACAD_REACTORS
330
24D
102
}
100
AcDbXrecord
340
0
  0
XRECORD
  5
266
102
{ACAD_REACTORS
330
24D
102
}
100
AcDbXrecord
 70
     0
  0
XRECORD
  5
259
102
{ACAD_REACTORS
330
24D
102
}
100
AcDbXrecord
  1
{846B1EDA-2E8E-4486-961D-AD596FC777F6}
  0
DICTIONARYVAR
  5
1C5
102
{ACAD_REACTORS
330
1C3
102
}
100
DictionaryVariables
280
     0
  1
1
  0
DICTIONARYVAR
  5
1C4
102
{ACAD_REACTORS
330
1C3
102
}
100
DictionaryVariables
280
     0
  1
1
  0
DICTIONARY
  5
274
100
AcDbDictionary
280
     1
  3
ACAD_XREC_ROUNDTRIP
360
275
  0
XRECORD
  5
13
102
{ACAD_REACTORS
330
12
102
}
100
AcDbXrecord
  1
DIM-1_12
  1
DIM-1_12
  1
*
  1
*
 70
     0
  1
*
  1
*
  0
XRECORD
  5
14
102
{ACAD_REACTORS
330
12
102
}
100
AcDbXrecord
  1
dim-1_16
  1
*
  1
*
  1
*
 70
     0
  1
*
  1
*
  0
XRECORD
  5
273
102
{ACAD_REACTORS
330
272
102
}
100
AcDbXrecord
102
EXTNAMES
  1
LAYOUT1
  2
Layout1
  1
MODEL
  2
Model
  0
XRECORD
  5
275
102
{ACAD_REACTORS
330
274
102
}
100
AcDbXrecord
102
EXTNAMES
  1
DIM-1_16
  2
dim-1_16
  0
ENDSEC
  0
EOF
