  0
SECTION
  2
HEADER
  9
$ACADVER
  1
AC1014
  9
$ACADMAINTVER
 70
     9
  9
$DWGCODEPAGE
  3
ANSI_1252
  9
$INSBASE
 10
84.99325029895635
 20
-8.753722579794612
 30
0.0
  9
$EXTMIN
 10
49.01159300179234
 20
-10.34708049991098
 30
-1.082809321517763
  9
$EXTMAX
 10
120.9798631828255
 20
12.87563763767099
 30
1.082809341684813
  9
$LIMMIN
 10
0.0
 20
0.0
  9
$LIMMAX
 10
187.3118571637889
 20
134.3269220688476
  9
$ORTHOMODE
 70
     1
  9
$REGENMODE
 70
     1
  9
$FILLMODE
 70
     1
  9
$QTEXTMODE
 70
     0
  9
$MIRRTEXT
 70
     1
  9
$DRAGMODE
 70
     2
  9
$LTSCALE
 40
2.0
  9
$OSMODE
 70
    55
  9
$ATTMODE
 70
     1
  9
$TEXTSIZE
 40
2.0
  9
$TRACEWID
 40
1.0
  9
$TEXTSTYLE
  7
CARTOUCHE
  9
$CLAYER
  8
0
  9
$CELTYPE
  6
BYLAYER
  9
$CECOLOR
 62
   256
  9
$CELTSCALE
 40
0.1
  9
$DELOBJ
 70
     1
  9
$DISPSILH
 70
     0
  9
$DIMSCALE
 40
16.0
  9
$DIMASZ
 40
0.1
  9
$DIMEXO
 40
0.0625
  9
$DIMDLI
 40
0.25
  9
$DIMRND
 40
0.0
  9
$DIMDLE
 40
0.0
  9
$DIMEXE
 40
0.1
  9
$DIMTP
 40
0.0
  9
$DIMTM
 40
0.0
  9
$DIMTXT
 40
0.1
  9
$DIMCEN
 40
0.09
  9
$DIMTSZ
 40
0.0
  9
$DIMTOL
 70
     0
  9
$DIMLIM
 70
     0
  9
$DIMTIH
 70
     1
  9
$DIMTOH
 70
     1
  9
$DIMSE1
 70
     0
  9
$DIMSE2
 70
     0
  9
$DIMTAD
 70
     0
  9
$DIMZIN
 70
     4
  9
$DIMBLK
  1

  9
$DIMASO
 70
     1
  9
$DIMSHO
 70
     1
  9
$DIMPOST
  1
\X
  9
$DIMAPOST
  1
cm
  9
$DIMALT
 70
     1
  9
$DIMALTD
 70
     1
  9
$DIMALTF
 40
2.54
  9
$DIMLFAC
 40
1.0
  9
$DIMTOFL
 70
     0
  9
$DIMTVP
 40
0.0
  9
$DIMTIX
 70
     0
  9
$DIMSOXD
 70
     0
  9
$DIMSAH
 70
     0
  9
$DIMBLK1
  1

  9
$DIMBLK2
  1

  9
$DIMSTYLE
  2
STANDARD
  9
$DIMCLRD
 70
     0
  9
$DIMCLRE
 70
     0
  9
$DIMCLRT
 70
     0
  9
$DIMTFAC
 40
1.0
  9
$DIMGAP
 40
0.08
  9
$DIMJUST
 70
     0
  9
$DIMSD1
 70
     0
  9
$DIMSD2
 70
     0
  9
$DIMTOLJ
 70
     1
  9
$DIMTZIN
 70
     4
  9
$DIMALTZ
 70
     4
  9
$DIMALTTZ
 70
     4
  9
$DIMFIT
 70
     1
  9
$DIMUPT
 70
     0
  9
$DIMUNIT
 70
     5
  9
$DIMDEC
 70
     3
  9
$DIMTDEC
 70
     3
  9
$DIMALTU
 70
     2
  9
$DIMALTTD
 70
     1
  9
$DIMTXSTY
  7
ROMANS
  9
$DIMAUNIT
 70
     0
  9
$LUNITS
 70
     2
  9
$LUPREC
 70
     2
  9
$SKETCHINC
 40
1.0
  9
$FILLETRAD
 40
0.5
  9
$AUNITS
 70
     0
  9
$AUPREC
 70
     0
  9
$MENU
  1
.
  9
$ELEVATION
 40
0.0
  9
$PELEVATION
 40
0.0
  9
$THICKNESS
 40
0.0
  9
$LIMCHECK
 70
     0
  9
$BLIPMODE
 70
     0
  9
$CHAMFERA
 40
0.0
  9
$CHAMFERB
 40
0.0
  9
$CHAMFERC
 40
20.0
  9
$CHAMFERD
 40
0.0
  9
$SKPOLY
 70
     0
  9
$TDCREATE
 40
2452072.673626736
  9
$TDUPDATE
 40
2453690.427089965
  9
$TDINDWG
 40
2.2581131829
  9
$TDUSRTIMER
 40
2.2581036921
  9
$USRTIMER
 70
     1
  9
$ANGBASE
 50
0.0
  9
$ANGDIR
 70
     0
  9
$PDMODE
 70
    33
  9
$PDSIZE
 40
0.25
  9
$PLINEWID
 40
0.0
  9
$COORDS
 70
     1
  9
$SPLFRAME
 70
     0
  9
$SPLINETYPE
 70
     6
  9
$SPLINESEGS
 70
     8
  9
$ATTDIA
 70
     0
  9
$ATTREQ
 70
     1
  9
$HANDLING
 70
 22529
  9
$HANDSEED
  5
2F7
  9
$SURFTAB1
 70
     6
  9
$SURFTAB2
 70
     6
  9
$SURFTYPE
 70
     6
  9
$SURFU
 70
     6
  9
$SURFV
 70
     6
  9
$UCSNAME
  2

  9
$UCSORG
 10
0.0
 20
0.0
 30
0.0
  9
$UCSXDIR
 10
1.0
 20
0.0
 30
0.0
  9
$UCSYDIR
 10
0.0
 20
1.0
 30
0.0
  9
$PUCSNAME
  2

  9
$PUCSORG
 10
0.0
 20
0.0
 30
0.0
  9
$PUCSXDIR
 10
1.0
 20
0.0
 30
0.0
  9
$PUCSYDIR
 10
0.0
 20
1.0
 30
0.0
  9
$USERI1
 70
     0
  9
$USERI2
 70
     0
  9
$USERI3
 70
     0
  9
$USERI4
 70
     0
  9
$USERI5
 70
     0
  9
$USERR1
 40
0.0
  9
$USERR2
 40
0.0
  9
$USERR3
 40
0.0
  9
$USERR4
 40
0.0
  9
$USERR5
 40
0.0
  9
$WORLDVIEW
 70
     1
  9
$SHADEDGE
 70
     3
  9
$SHADEDIF
 70
    70
  9
$TILEMODE
 70
     1
  9
$MAXACTVP
 70
    48
  9
$PINSBASE
 10
0.0
 20
0.0
 30
0.0
  9
$PLIMCHECK
 70
     0
  9
$PEXTMIN
 10
0.0
 20
0.0
 30
0.0
  9
$PEXTMAX
 10
0.0
 20
0.0
 30
0.0
  9
$PLIMMIN
 10
0.0
 20
0.0
  9
$PLIMMAX
 10
12.0
 20
9.0
  9
$UNITMODE
 70
     0
  9
$VISRETAIN
 70
     1
  9
$PLINEGEN
 70
     0
  9
$PSLTSCALE
 70
     1
  9
$TREEDEPTH
 70
  3020
  9
$PICKSTYLE
 70
     1
  9
$CMLSTYLE
  2
STANDARD
  9
$CMLJUST
 70
     0
  9
$CMLSCALE
 40
20.0
  9
$PROXYGRAPHICS
 70
     1
  9
$MEASUREMENT
 70
     0
  0
ENDSEC
  0
SECTION
  2
CLASSES
  0
CLASS
  1
ACDBDICTIONARYWDFLT
  2
AcDbDictionaryWithDefault
  3
AutoCAD 2000
 90
        0
280
     0
281
     0
  0
CLASS
  1
ACDBPLACEHOLDER
  2
AcDbPlaceHolder
  3
AutoCAD 2000
 90
        0
280
     0
281
     0
  0
CLASS
  1
LAYOUT
  2
AcDbLayout
  3
AutoCAD 2000
 90
        0
280
     0
281
     0
  0
CLASS
  1
DICTIONARYVAR
  2
AcDbDictionaryVar
  3
AutoCAD 2000
 90
        0
280
     0
281
     0
  0
CLASS
  1
IMAGEDEF
  2
AcDbRasterImageDef
  3
ISM
 90
        0
280
     0
281
     0
  0
CLASS
  1
LONG_TRANSACTION
  2
AcDbLongTransaction
  3
AutoCAD 2000
 90
        0
280
     0
281
     0
  0
CLASS
  1
LWPOLYLINE
  2
AcDbPolyline
  3
AutoCAD 2000
 90
        0
280
     0
281
     1
  0
CLASS
  1
HATCH
  2
AcDbHatch
  3
AutoCAD 2000
 90
        0
280
     0
281
     1
  0
CLASS
  1
XRECORD
  2
AcDbXrecord
  3
AutoCAD 2000
 90
        0
280
     0
281
     0
  0
CLASS
  1
LONG_TRANSACTION
  2
AcDbLongTransaction
  3
AutoCAD 2000
 90
        0
280
     0
281
     0
  0
CLASS
  1
LWPOLYLINE
  2
AcDbPolyline
  3
AutoCAD 2000
 90
        0
280
     0
281
     1
  0
CLASS
  1
HATCH
  2
AcDbHatch
  3
AutoCAD 2000
 90
        0
280
     0
281
     1
  0
CLASS
  1
XRECORD
  2
AcDbXrecord
  3
AutoCAD 2000
 90
        0
280
     0
281
     0
  0
CLASS
  1
LONG_TRANSACTION
  2
AcDbLongTransaction
  3
AutoCAD 2000
 90
        0
280
     0
281
     0
  0
CLASS
  1
LWPOLYLINE
  2
AcDbPolyline
  3
AutoCAD 2000
 90
        0
280
     0
281
     1
  0
CLASS
  1
HATCH
  2
AcDbHatch
  3
AutoCAD 2000
 90
        0
280
     0
281
     1
  0
CLASS
  1
XRECORD
  2
AcDbXrecord
  3
AutoCAD 2000
 90
        0
280
     0
281
     0
  0
ENDSEC
  0
SECTION
  2
TABLES
  0
TABLE
  2
VPORT
  5
1D
330
0
100
AcDbSymbolTable
 70
     3
  0
VPORT
  5
2D3
330
1D
100
AcDbSymbolTableRecord
100
AcDbViewportTableRecord
  2
*ACTIVE
 70
     0
 10
0.0
 20
0.0
 11
1.0
 21
1.0
 12
84.99572802317576
 22
1.264278540193586
 13
0.0
 23
0.0
 14
10.0
 24
10.0
 15
10.0
 25
10.0
 16
0.0
 26
0.0
 36
1.0
 17
0.0
 27
0.0
 37
0.0
 40
48.63914956227157
 41
1.786792452830188
 42
50.0
 43
0.0
 44
0.0
 50
0.0
 51
0.0
 71
     0
 72
   100
 73
     1
 74
     3
 75
     0
 76
     0
 77
     0
 78
     2
  0
ENDTAB
  0
TABLE
  2
LTYPE
  5
18
330
0
100
AcDbSymbolTable
 70
     3
  0
LTYPE
  5
19
330
18
100
AcDbSymbolTableRecord
100
AcDbLinetypeTableRecord
  2
BYBLOCK
 70
     0
  3

 72
    65
 73
     0
 40
0.0
  0
LTYPE
  5
1A
330
18
100
AcDbSymbolTableRecord
100
AcDbLinetypeTableRecord
  2
BYLAYER
 70
     0
  3

 72
    65
 73
     0
 40
0.0
  0
LTYPE
  5
8
330
18
100
AcDbSymbolTableRecord
100
AcDbLinetypeTableRecord
  2
CONTINUOUS
 70
     0
  3
Solid line
 72
    65
 73
     0
 40
0.0
  0
LTYPE
  5
1C2
330
18
100
AcDbSymbolTableRecord
100
AcDbLinetypeTableRecord
  2
CENTER
 70
     0
  3
Center ____ _ ____ _ ____ _ ____ _ ____ _ ____
 72
    65
 73
     4
 40
50.8
 49
31.75
 74
     0
 49
-6.349999999999999
 74
     0
 49
6.349999999999999
 74
     0
 49
-6.349999999999999
 74
     0
  0
LTYPE
  5
1F2
330
18
100
AcDbSymbolTableRecord
100
AcDbLinetypeTableRecord
  2
HIDDEN
 70
     0
  3
Hidden __ __ __ __ __ __ __ __ __ __ __ __ __ _
 72
    65
 73
     2
 40
0.375
 49
0.25
 74
     0
 49
-0.125
 74
     0
  0
ENDTAB
  0
TABLE
  2
LAYER
  5
10
102
{ACAD_XDICTIONARY
360
11
102
}
330
0
100
AcDbSymbolTable
 70
     2
  0
LAYER
  5
4
330
10
100
AcDbSymbolTableRecord
100
AcDbLayerTableRecord
  2
0
 70
     0
 62
     7
  6
CONTINUOUS
  0
LAYER
  5
1C1
330
10
100
AcDbSymbolTableRecord
100
AcDbLayerTableRecord
  2
CENTER
 70
     0
 62
     1
  6
CENTER
  0
ENDTAB
  0
TABLE
  2
STYLE
  5
15
330
0
100
AcDbSymbolTable
 70
     4
  0
STYLE
  5
16
330
15
100
AcDbSymbolTableRecord
100
AcDbTextStyleTableRecord
  2
STANDARD
 70
     0
 40
0.0
 41
1.0
 50
0.0
 71
     0
 42
0.125
  3
txt
  4

  0
STYLE
  5
2B
330
15
100
AcDbSymbolTableRecord
100
AcDbTextStyleTableRecord
  2
CARTOUCHE
 70
     0
 40
0.0
 41
1.0
 50
0.0
 71
     0
 42
2.0
  3
romans.shx
  4

  0
STYLE
  5
23
330
15
100
AcDbSymbolTableRecord
100
AcDbTextStyleTableRecord
  2
ROMANS
 70
     0
 40
0.0
 41
1.0
 50
0.0
 71
     0
 42
1.0
  3
romans.shx
  4

  0
STYLE
  5
1F1
330
15
100
AcDbSymbolTableRecord
100
AcDbTextStyleTableRecord
  2

 70
     1
 40
0.0
 41
1.0
 50
0.0
 71
     0
 42
2.0
  3
ltypeshp.shx
  4

  0
ENDTAB
  0
TABLE
  2
VIEW
  5
1B
330
0
100
AcDbSymbolTable
 70
     0
  0
ENDTAB
  0
TABLE
  2
UCS
  5
1C
330
0
100
AcDbSymbolTable
 70
     0
  0
ENDTAB
  0
TABLE
  2
APPID
  5
1F
330
0
100
AcDbSymbolTable
 70
     1
  0
APPID
  5
20
330
1F
100
AcDbSymbolTableRecord
100
AcDbRegAppTableRecord
  2
ACAD
 70
     0
  0
ENDTAB
  0
TABLE
  2
DIMSTYLE
  5
21
330
0
100
AcDbSymbolTable
 70
     1
  0
DIMSTYLE
105
22
330
21
100
AcDbSymbolTableRecord
100
AcDbDimStyleTableRecord
  2
STANDARD
 70
     0
  3
\X
  4
cm
  5

  6

  7

 40
16.0
 41
0.1
 42
0.0625
 43
0.25
 44
0.1
 45
0.0
 46
0.0
 47
0.0
 48
0.0
140
0.1
141
0.09
142
0.0
143
2.54
144
1.0
145
0.0
146
1.0
147
0.08
 71
     0
 72
     0
 73
     1
 74
     1
 75
     0
 76
     0
 77
     0
 78
     4
170
     1
171
     1
172
     0
173
     0
174
     0
175
     0
176
     0
177
     0
178
     0
270
     5
271
     3
272
     3
273
     2
274
     1
340
23
275
     0
280
     0
281
     0
282
     0
283
     1
284
     4
285
     4
286
     4
287
     1
288
     0
  0
ENDTAB
  0
TABLE
  2
BLOCK_RECORD
  5
1
330
0
100
AcDbSymbolTable
 70
     0
  0
BLOCK_RECORD
  5
2
102
{ACAD_XDICTIONARY
360
1FA
102
}
330
1
100
AcDbSymbolTableRecord
100
AcDbBlockTableRecord
  2
*MODEL_SPACE
  0
BLOCK_RECORD
  5
1EB
102
{ACAD_XDICTIONARY
360
1FC
102
}
330
1
100
AcDbSymbolTableRecord
100
AcDbBlockTableRecord
  2
*PAPER_SPACE
  0
ENDTAB
  0
ENDSEC
  0
SECTION
  2
BLOCKS
  0
BLOCK
  5
3
330
2
100
AcDbEntity
  8
0
100
AcDbBlockBegin
  2
*MODEL_SPACE
 70
     0
 10
0.0
 20
0.0
 30
0.0
  3
*MODEL_SPACE
  1

  0
ENDBLK
  5
9
330
2
100
AcDbEntity
  8
0
100
AcDbBlockEnd
  0
BLOCK
  5
1ED
330
1EB
100
AcDbEntity
 67
     1
  8
0
 48
0.1
100
AcDbBlockBegin
  2
*PAPER_SPACE
 70
     0
 10
0.0
 20
0.0
 30
0.0
  3
*PAPER_SPACE
  1

  0
ENDBLK
  5
1EE
330
1EB
100
AcDbEntity
 67
     1
  8
0
 48
0.1
100
AcDbBlockEnd
  0
ENDSEC
  0
SECTION
  2
ENTITIES
  0
LINE
  5
2D
330
2
100
AcDbEntity
  8
0
 48
0.1
100
AcDbLine
 10
84.99325029895635
 20
11.37127742020538
 30
1.082677164828
 11
84.99325029895635
 21
11.37127742020538
 31
-1.082677164828
210
0.0
220
1.0
230
-0.0000000000000002
  0
LINE
  5
EA
330
2
100
AcDbEntity
  8
0
 48
0.1
100
AcDbLine
 10
49.11825029895635
 20
9.871277420205387
 30
0.0
 11
120.8682502989563
 21
9.871277420205387
 31
0.0
  0
LINE
  5
EB
330
2
100
AcDbEntity
  8
0
 48
0.1
100
AcDbLine
 10
49.61825029895635
 20
11.37127742020538
 30
0.0
 11
120.3682502989563
 21
11.37127742020538
 31
0.0
  0
SPLINE
  5
EC
330
2
100
AcDbEntity
  8
0
 48
0.1
100
AcDbSpline
210
0.0
220
0.0
230
1.0
 70
     8
 71
     3
 72
    11
 73
     7
 74
     5
 42
0.0000000001
 43
0.0000000001
 44
0.0000000001
 40
0.0
 40
0.0
 40
0.0
 40
0.0
 40
0.1414841073242979
 40
3.797420391928783
 40
8.763605288808028
 40
13.21949107909986
 40
13.21949107909986
 40
13.21949107909986
 40
13.21949107909986
 10
51.80691038857151
 20
12.87177672067408
 30
0.0
 10
51.85408808162428
 20
12.87161054370653
 30
0.0
 10
53.12033301210356
 20
12.86715036922355
 30
0.0
 10
55.95484338197635
 20
11.96578493311557
 30
0.0
 10
60.30332814024148
 20
11.58926664760318
 30
0.0
 10
63.4401795906721
 20
11.44126863990519
 30
0.0
 10
64.92365941886544
 20
11.37127742020538
 30
0.0
 11
51.80691038857151
 21
12.87177672067408
 31
0.0
 11
51.94839071367567
 21
12.87074219963896
 31
0.0
 11
55.54510363344252
 21
12.21535964733084
 31
0.0
 11
60.47410979916958
 21
11.60881974904207
 31
0.0
 11
64.92365941886544
 21
11.37127742020538
 31
0.0
  0
LINE
  5
ED
330
2
100
AcDbEntity
  8
0
 48
0.1
100
AcDbLine
 10
53.56771178618885
 20
9.871277420205387
 30
0.0
 11
57.78091757790168
 21
0.8360284423461479
 31
0.0
  0
LINE
  5
EE
330
2
100
AcDbEntity
  8
0
 48
0.1
100
AcDbLine
 10
49.11825029895635
 20
9.871277420205387
 30
0.0
 11
49.11825029895635
 21
10.87127742020538
 31
0.0
  0
ARC
  5
EF
330
2
100
AcDbEntity
  8
0
 48
0.1
100
AcDbCircle
 10
49.61825029895635
 20
10.87127742020538
 30
0.0
 40
0.5
100
AcDbArc
 50
90.0
 51
180.0
  0
SPLINE
  5
F0
330
2
100
AcDbEntity
  8
0
  6
HIDDEN
 62
     8
100
AcDbSpline
210
0.0
220
0.0
230
1.0
 70
     8
 71
     3
 72
    10
 73
     6
 74
     4
 42
0.0000000001
 43
0.0000000001
 44
0.0000000001
 13
0.4226182617406984
 23
-0.9063077870366505
 33
0.0
 40
0.0
 40
0.0
 40
0.0
 40
0.0
 40
0.1225572403558965
 40
1.317397957708104
 40
1.896583803633835
 40
1.896583803633835
 40
1.896583803633835
 40
1.896583803633835
 10
51.80691038857156
 20
12.87177672067408
 30
0.0
 10
51.84829659129379
 20
12.86968389035692
 30
0.0
 10
52.29316707618084
 20
12.84718754189434
 30
0.0
 10
52.58805561634037
 20
12.0640835703482
 30
0.0
 10
52.78665879381303
 20
11.54625096764002
 30
0.0
 10
52.86825029895635
 20
11.37127742020538
 30
0.0
 11
51.80691038857156
 21
12.87177672067408
 31
0.0
 11
51.92899159470494
 21
12.860985229921
 31
0.0
 11
52.64874659824215
 21
11.90725724211427
 31
0.0
 11
52.86825029895635
 21
11.37127742020538
 31
0.0
  0
SPLINE
  5
F1
330
2
100
AcDbEntity
  8
0
 48
0.1
100
AcDbSpline
210
0.0
220
0.0
230
1.0
 70
     8
 71
     3
 72
    10
 73
     6
 74
     0
 42
0.0000000001
 43
0.0000000001
 40
0.0
 40
0.0
 40
0.0
 40
0.0
 40
1.54558348937927
 40
1.861442349405863
 40
1.887682500427487
 40
1.887682500427487
 40
1.887682500427487
 40
1.887682500427487
 10
50.86825029895635
 20
11.37127742020536
 30
0.0
 10
50.94775576727619
 20
11.97236683450752
 30
0.0
 10
51.04350914893235
 20
12.69629621085649
 30
0.0
 10
51.68055284112324
 20
12.86961269698669
 30
0.0
 10
51.79790856258285
 20
12.87178228003477
 30
0.0
 10
51.80691038857151
 20
12.87177672067408
 30
0.0
  0
LINE
  5
F2
330
2
100
AcDbEntity
  8
0
  6
HIDDEN
 62
     8
100
AcDbLine
 10
52.86825029895635
 20
11.37127742020538
 30
0.0
 11
53.56771178618885
 21
9.871277420205387
 31
0.0
  0
LINE
  5
F3
330
2
100
AcDbEntity
  8
0
 48
0.1
100
AcDbLine
 10
106.3399341879227
 20
-7.381114826510582
 30
0.0
 11
84.99325029895635
 21
-7.753722579794612
 31
0.0
  0
ARC
  5
F4
330
2
100
AcDbEntity
  8
0
 48
0.1
100
AcDbCircle
 10
82.54636581955347
 20
-388.4850169878411
 30
0.0
 40
390.4491587643617
100
AcDbArc
 50
85.64351350147861
 51
89.01430420431424
  0
LINE
  5
1AF
330
2
100
AcDbEntity
  8
0
 48
0.1
100
AcDbLine
 10
84.99325029895635
 20
-8.753722579794612
 30
0.0
 11
68.30879141324934
 21
-8.753722579794612
 31
0.0
  0
LINE
  5
1B0
330
2
100
AcDbEntity
  8
0
 48
0.1
100
AcDbLine
 10
63.64656640998998
 20
-7.381114826510582
 30
0.0
 11
84.99325029895635
 21
-7.753722579794612
 31
0.0
  0
LINE
  5
1B1
330
2
100
AcDbEntity
  8
0
  6
HIDDEN
 62
     8
100
AcDbLine
 10
84.99325029895635
 20
10.62127742020538
 30
0.0
 11
75.1255650657438
 21
10.62127742020538
 31
0.0
  0
LWPOLYLINE
  5
1B2
330
2
100
AcDbEntity
  8
0
  6
HIDDEN
 62
     8
100
AcDbPolyline
 90
        3
 70
     0
 43
0.0
 10
75.12633802636473
 20
8.873139688871503
 10
84.99325029895635
 20
8.873139688871471
 10
94.86016257154799
 20
8.873139688871535
  0
ARC
  5
1B3
330
2
100
AcDbEntity
  8
0
 48
0.1
100
AcDbCircle
 10
81.35985334904345
 20
3.161926252886374
 30
0.0
 40
1.302205915074203
100
AcDbArc
 50
182.5551580530952
 51
277.6391251337493
  0
ARC
  5
1B4
330
2
100
AcDbEntity
  8
0
 48
0.1
100
AcDbCircle
 10
87.44013477835926
 20
-388.4850169878411
 30
0.0
 40
390.4491587643617
100
AcDbArc
 50
90.98569579568577
 51
94.3564864985214
  0
ARC
  5
1B5
330
2
100
AcDbEntity
  8
0
 48
0.1
100
AcDbCircle
 10
44.58237870735175
 20
-9.706153528141605
 30
0.0
 40
16.89198120459215
100
AcDbArc
 50
13.89580389676253
 51
38.6157109945685
  0
ARC
  5
1B6
330
2
100
AcDbEntity
  8
0
 48
0.1
100
AcDbCircle
 10
63.69892362930184
 20
-4.381571741041412
 30
0.0
 40
3.0
100
AcDbArc
 50
205.0
 51
269.0
  0
LINE
  5
1B7
330
2
100
AcDbEntity
  8
0
 48
0.1
100
AcDbLine
 10
67.33092553417901
 20
-7.962955279318514
 30
0.0
 11
67.219775238825
 21
-7.443485418619964
 31
0.0
  0
ARC
  5
1B8
330
2
100
AcDbEntity
  8
0
 48
0.1
100
AcDbCircle
 10
68.30879141324934
 20
-7.753722579794612
 30
0.0
 40
1.0
100
AcDbArc
 50
192.0773902765357
 51
270.0
  0
LINE
  5
1B9
330
2
100
AcDbEntity
  8
0
  6
HIDDEN
 62
     8
100
AcDbLine
 10
75.00133802636473
 20
10.51015699826491
 30
0.0
 11
75.00133802636473
 21
8.9981396888715
 31
0.0
  0
LINE
  5
1BA
330
2
100
AcDbEntity
  8
0
 48
0.1
100
AcDbLine
 10
79.53295977859889
 20
9.87127742020538
 30
0.0
 11
80.05894213043834
 21
3.103872428192602
 31
0.0
  0
ARC
  5
1BB
330
2
100
AcDbEntity
  8
0
 62
     8
 48
20.0
100
AcDbCircle
 10
75.12633802636473
 20
8.9981396888715
 30
0.0
 40
0.125
100
AcDbArc
 50
179.9999999999983
 51
270.0
  0
ARC
  5
1BC
330
2
100
AcDbEntity
  8
0
 62
     8
 48
20.0
100
AcDbCircle
 10
75.1255650657438
 20
10.49627742020538
 30
0.0
 40
0.125
100
AcDbArc
 50
90.0
 51
179.9999999999983
  0
LINE
  5
1BD
330
2
100
AcDbEntity
  8
0
 48
0.1
100
AcDbLine
 10
88.81900645261781
 20
1.80169961152319
 30
0.0
 11
87.87857464083279
 21
-7.6840594426437
 31
0.0
  0
LINE
  5
1BE
330
2
100
AcDbEntity
  8
0
 48
0.1
100
AcDbLine
 10
81.1674941452949
 20
1.80169961152319
 30
0.0
 11
82.10792595707992
 21
-7.6840594426437
 31
0.0
  0
LINE
  5
1BF
330
2
100
AcDbEntity
  8
0
 48
0.1
100
AcDbLine
 10
84.99325029895635
 20
-8.753722579794612
 30
0.0
 11
101.6777091846633
 21
-8.753722579794612
 31
0.0
  0
LINE
  5
1C0
330
2
100
AcDbEntity
  8
CENTER
 48
0.05
100
AcDbLine
 10
84.99325029895635
 20
-10.33825137737582
 30
0.0
 11
84.99325029895635
 21
-5.169193782213405
 31
0.0
  0
LINE
  5
1C3
330
2
100
AcDbEntity
  8
0
100
AcDbLine
 10
86.26469690836307
 20
-8.213156118823519
 30
0.0
 11
83.72180368954962
 21
-8.213156118823519
 31
0.0
  0
LINE
  5
1C4
330
2
100
AcDbEntity
  8
0
100
AcDbLine
 10
83.72180368954962
 20
-8.213156118823519
 30
0.0
 11
86.26469690836307
 21
-8.213156118823519
 31
0.0
  0
ARC
  5
1C5
330
2
100
AcDbEntity
  8
0
100
AcDbCircle
 10
82.89593000329707
 20
-8.261268908403888
 30
0.0
 40
0.5448480609260762
100
AcDbArc
 50
45.91583050408121
 51
85.94218111629334
  0
ARC
  5
1C6
330
2
100
AcDbEntity
  8
0
 48
0.1
100
AcDbCircle
 10
82.39041807099674
 20
-7.753722579794612
 30
0.0
 40
1.0
100
AcDbArc
 50
270.0
 51
347.9226097234643
  0
ARC
  5
1C7
330
2
100
AcDbEntity
  8
0
100
AcDbCircle
 10
83.72180368954962
 20
-7.963156118823519
 30
0.0
 40
0.25
100
AcDbArc
 50
224.9999999999997
 51
270.0
  0
LINE
  5
1C8
330
2
100
AcDbEntity
  8
0
100
AcDbLine
 10
83.54502699425299
 20
-8.139932814120157
 30
0.0
 11
83.27498862098293
 21
-7.869894440850089
 31
0.0
  0
LINE
  5
1C9
330
2
100
AcDbEntity
  8
0
100
AcDbLine
 10
83.54502699425299
 20
-8.139932814120157
 30
0.0
 11
83.27498862098293
 21
-7.869894440850103
 31
0.0
  0
ARC
  5
1CA
330
2
100
AcDbEntity
  8
0
100
AcDbCircle
 10
87.09057059461562
 20
-8.261268908403888
 30
0.0
 40
0.5448480609260762
100
AcDbArc
 50
94.05781888370666
 51
134.0841694959187
  0
ARC
  5
1CB
330
2
100
AcDbEntity
  8
0
100
AcDbCircle
 10
86.26469690836307
 20
-7.963156118823519
 30
0.0
 40
0.25
100
AcDbArc
 50
270.0
 51
315.0000000000003
  0
LINE
  5
1CC
330
2
100
AcDbEntity
  8
0
100
AcDbLine
 10
86.44147360365971
 20
-8.139932814120157
 30
0.0
 11
86.71151197692978
 21
-7.869894440850089
 31
0.0
  0
LINE
  5
1CD
330
2
100
AcDbEntity
  8
0
100
AcDbLine
 10
86.44147360365971
 20
-8.139932814120157
 30
0.0
 11
86.71151197692978
 21
-7.869894440850103
 31
0.0
  0
ARC
  5
1CE
330
2
100
AcDbEntity
  8
0
 48
0.1
100
AcDbCircle
 10
87.59608252691597
 20
-7.753722579794612
 30
0.0
 40
1.0
100
AcDbArc
 50
192.0773902765357
 51
270.0
  0
LINE
  5
1CF
330
2
100
AcDbEntity
  8
0
 48
0.1
100
AcDbLine
 10
102.6555750637336
 20
-7.962955279318514
 30
0.0
 11
102.7667253590876
 21
-7.443485418619971
 31
0.0
  0
ARC
  5
1D0
330
2
100
AcDbEntity
  8
0
 48
0.1
100
AcDbCircle
 10
101.6777091846633
 20
-7.753722579794612
 30
0.0
 40
1.0
100
AcDbArc
 50
270.0
 51
347.9226097234647
  0
LWPOLYLINE
  5
1D1
330
2
100
AcDbEntity
  8
0
  6
HIDDEN
 62
     8
100
AcDbPolyline
 90
        2
 70
     0
 43
0.0
 10
84.99247733833541
 20
10.62127742020538
 10
94.86016257154794
 20
10.62127742020538
  0
LINE
  5
1D2
330
2
100
AcDbEntity
  8
0
 48
0.1
100
AcDbLine
 10
90.45354081931382
 20
9.87127742020538
 30
0.0
 11
89.92755846747437
 21
3.103872428192602
 31
0.0
  0
LINE
  5
1D3
330
2
100
AcDbEntity
  8
CENTER
 48
0.05
100
AcDbLine
 10
84.99325029895635
 20
5.145689994503833
 30
0.0
 11
84.99325029895635
 21
10.72186484590694
 31
0.0
  0
CIRCLE
  5
1D4
330
2
100
AcDbEntity
  8
0
 48
0.1
100
AcDbCircle
 10
84.99325029895635
 20
7.933777420205387
 30
0.0
 40
1.1875
  0
LINE
  5
1D5
330
2
100
AcDbEntity
  8
CENTER
 48
0.05
100
AcDbLine
 10
82.23568145488538
 20
7.933777420205387
 30
0.0
 11
87.75081914302731
 21
7.933777420205387
 31
0.0
  0
ARC
  5
1D6
330
2
100
AcDbEntity
  8
0
 48
0.1
100
AcDbCircle
 10
88.62664724886926
 20
3.161926252886374
 30
0.0
 40
1.302205915074203
100
AcDbArc
 50
262.3608748662506
 51
357.4448419469047
  0
LINE
  5
1D7
330
2
100
AcDbEntity
  8
0
 48
0.1
100
AcDbLine
 10
82.23734478745935
 20
11.37127742020538
 30
-0.0000000000000005
 11
87.74915581045336
 21
11.37127742020538
 31
0.0000000000000002
210
0.0
220
1.0
230
-0.0000000000000002
  0
LINE
  5
1D8
330
2
100
AcDbEntity
  8
0
  6
HIDDEN
 62
     8
100
AcDbLine
 10
94.9851625715479
 20
10.49627742020539
 30
0.0
 11
94.985162571548
 21
8.998139688871528
 31
0.0
  0
ARC
  5
1D9
330
2
100
AcDbEntity
  8
0
 62
     8
 48
20.0
100
AcDbCircle
 10
94.86016257154799
 20
8.998139688871528
 30
0.0
 40
0.125
100
AcDbArc
 50
270.0
 51
0.0000000000032569
  0
ARC
  5
1DA
330
2
100
AcDbEntity
  8
0
 62
     8
 48
20.0
100
AcDbCircle
 10
94.86016257154794
 20
10.49627742020538
 30
0.0
 40
0.125
100
AcDbArc
 50
0.0000000000016284
 51
90.0
  0
ARC
  5
1DB
330
2
100
AcDbEntity
  8
0
 48
0.1
100
AcDbCircle
 10
125.4041218905609
 20
-9.706153528141605
 30
0.0
 40
16.89198120459215
100
AcDbArc
 50
141.3842890054314
 51
166.1041961032374
  0
ARC
  5
1DC
330
2
100
AcDbEntity
  8
0
 48
0.1
100
AcDbCircle
 10
106.2875769686108
 20
-4.381571741041412
 30
0.0
 40
3.0
100
AcDbArc
 50
271.0
 51
335.0
  0
SPLINE
  5
1DD
330
2
100
AcDbEntity
  8
0
 48
0.1
100
AcDbSpline
210
0.0
220
0.0
230
1.0
 70
     8
 71
     3
 72
    11
 73
     7
 74
     5
 42
0.0000000001
 43
0.0000000001
 44
0.0000000001
 40
0.0
 40
0.0
 40
0.0
 40
0.0
 40
0.1414841073242979
 40
3.797420391928783
 40
8.763605288808028
 40
13.21949107909986
 40
13.21949107909986
 40
13.21949107909986
 40
13.21949107909986
 10
118.1795902093412
 20
12.87177672067408
 30
0.0
 10
118.1324125162884
 20
12.87161054370653
 30
0.0
 10
116.8661675858089
 20
12.86715036922355
 30
0.0
 10
114.0316572159364
 20
11.96578493311557
 30
0.0
 10
109.6831724576711
 20
11.58926664760318
 30
0.0
 10
106.5463210072406
 20
11.44126863990519
 30
0.0
 10
105.0628411790472
 20
11.37127742020538
 30
0.0
 11
118.1795902093412
 21
12.87177672067408
 31
0.0
 11
118.038109884237
 21
12.87074219963896
 31
0.0
 11
114.4413969644701
 21
12.21535964733084
 31
0.0
 11
109.5123907987431
 21
11.60881974904207
 31
0.0
 11
105.0628411790472
 21
11.37127742020538
 31
0.0
  0
LINE
  5
1DE
330
2
100
AcDbEntity
  8
0
 48
0.1
100
AcDbLine
 10
116.4187888117238
 20
9.871277420205387
 30
0.0
 11
112.205583020011
 21
0.8360284423461479
 31
0.0
  0
SPLINE
  5
1DF
330
2
100
AcDbEntity
  8
0
 48
0.1
100
AcDbSpline
210
0.0
220
0.0
230
1.0
 70
     8
 71
     3
 72
    10
 73
     6
 74
     0
 42
0.0000000001
 43
0.0000000001
 40
0.0
 40
0.0
 40
0.0
 40
0.0
 40
1.54558348937927
 40
1.861442349405863
 40
1.887682500427487
 40
1.887682500427487
 40
1.887682500427487
 40
1.887682500427487
 10
119.1182502989563
 20
11.37127742020536
 30
0.0
 10
119.0387448306365
 20
11.97236683450752
 30
0.0
 10
118.9429914489803
 20
12.69629621085649
 30
0.0
 10
118.3059477567894
 20
12.86961269698669
 30
0.0
 10
118.1885920353298
 20
12.87178228003477
 30
0.0
 10
118.1795902093412
 20
12.87177672067408
 30
0.0
  0
LINE
  5
1E0
330
2
100
AcDbEntity
  8
0
  6
HIDDEN
 62
     8
100
AcDbLine
 10
117.1182502989563
 20
11.37127742020538
 30
0.0
 11
116.4187888117238
 21
9.871277420205387
 31
0.0
  0
SPLINE
  5
1E1
330
2
100
AcDbEntity
  8
0
  6
HIDDEN
 62
     8
100
AcDbSpline
210
0.0
220
0.0
230
1.0
 70
     8
 71
     3
 72
    10
 73
     6
 74
     4
 42
0.0000000001
 43
0.0000000001
 44
0.0000000001
 13
-0.4226182617406984
 23
-0.9063077870366505
 33
0.0
 40
0.0
 40
0.0
 40
0.0
 40
0.0
 40
0.1225572403558965
 40
1.317397957708104
 40
1.896583803633835
 40
1.896583803633835
 40
1.896583803633835
 40
1.896583803633835
 10
118.1795902093411
 20
12.87177672067408
 30
0.0
 10
118.1382040066189
 20
12.86968389035692
 30
0.0
 10
117.6933335217317
 20
12.84718754189434
 30
0.0
 10
117.3984449815723
 20
12.0640835703482
 30
0.0
 10
117.1998418040996
 20
11.54625096764002
 30
0.0
 10
117.1182502989563
 20
11.37127742020538
 30
0.0
 11
118.1795902093411
 21
12.87177672067408
 31
0.0
 11
118.0575090032077
 21
12.860985229921
 31
0.0
 11
117.3377539996705
 21
11.90725724211427
 31
0.0
 11
117.1182502989563
 21
11.37127742020538
 31
0.0
  0
LINE
  5
1E2
330
2
100
AcDbEntity
  8
0
 48
0.1
100
AcDbLine
 10
120.8682502989563
 20
9.871277420205387
 30
0.0
 11
120.8682502989563
 21
10.87127742020538
 31
0.0
  0
ARC
  5
1E3
330
2
100
AcDbEntity
  8
0
 48
0.1
100
AcDbCircle
 10
120.3682502989563
 20
10.87127742020538
 30
0.0
 40
0.5
100
AcDbArc
 50
0.000000000000007
 51
90.0
  0
ENDSEC
  0
SECTION
  2
OBJECTS
  0
DICTIONARY
  5
7
330
0
100
AcDbDictionary
  3
ACAD_GROUP
350
28
  3
ACAD_LAYOUT
350
B
  3
ACAD_MLINESTYLE
350
29
  3
ACAD_PLOTSETTINGS
350
2A
  3
ACAD_PLOTSTYLENAME
350
6
  3
ACDBHEADERROUNDTRIPXREC
350
2D4
  3
ACDBVARIABLEDICTIONARY
350
1E4
  0
DICTIONARY
  5
11
330
10
100
AcDbDictionary
280
     1
  3
ACAD_LAYERFILTERS
360
12
  0
DICTIONARY
  5
1FA
330
2
100
AcDbDictionary
280
     1
  3
ACAD_LAYOUTSELFREF
360
2F5
  0
DICTIONARY
  5
1FC
330
1EB
100
AcDbDictionary
280
     1
  3
ACAD_LAYOUTSELFREF
360
2F6
  0
DICTIONARY
  5
28
102
{ACAD_REACTORS
330
7
102
}
330
7
100
AcDbDictionary
  0
DICTIONARY
  5
B
102
{ACAD_REACTORS
330
7
102
}
330
7
100
AcDbDictionary
  0
DICTIONARY
  5
29
102
{ACAD_REACTORS
330
7
102
}
330
7
100
AcDbDictionary
  3
STANDARD
350
2C
  0
DICTIONARY
  5
2A
102
{ACAD_REACTORS
330
7
102
}
330
7
100
AcDbDictionary
  0
ACDBDICTIONARYWDFLT
  5
6
102
{ACAD_REACTORS
330
7
102
}
330
7
100
AcDbDictionary
281
     1
  3
Normal
350
5
100
AcDbDictionaryWithDefault
340
5
  0
DICTIONARY
  5
2D4
102
{ACAD_REACTORS
330
7
102
}
330
7
100
AcDbDictionary
  3
CEPSNTYPE
350
2DE
  3
DIMSTYLEDATA
350
2E2
  3
FINGERPRINTGUID
350
2DF
  3
HYPERLINKBASE
350
2D7
  3
INSUNITS
350
2DD
  3
LAYOUTDICT
350
2D9
  3
LWETCUNION
350
2DC
  3
PLOTSETDICT
350
2DA
  3
PLOTSTYLNAMDICT
350
2DB
  3
PSVPSCALE
350
2E1
  3
PUCSBASE
350
2E5
  3
PUCSORGBACK
350
2EB
  3
PUCSORGBOTTOM
350
2E7
  3
PUCSORGFRONT
350
2EA
  3
PUCSORGLEFT
350
2E8
  3
PUCSORGRIGHT
350
2E9
  3
PUCSORGTOP
350
2E6
  3
PUCSORTHOREF
350
2E3
  3
PUCSORTHOVIEW
350
2E4
  3
STYLESHEET
350
2D8
  3
TSTACKALIGN
350
2D5
  3
TSTACKSIZE
350
2D6
  3
UCSBASE
350
2EE
  3
UCSORGBACK
350
2F4
  3
UCSORGBOTTOM
350
2F0
  3
UCSORGFRONT
350
2F3
  3
UCSORGLEFT
350
2F1
  3
UCSORGRIGHT
350
2F2
  3
UCSORGTOP
350
2EF
  3
UCSORTHOREF
350
2EC
  3
UCSORTHOVIEW
350
2ED
  3
VERSIONGUID
350
2E0
  0
DICTIONARY
  5
1E4
102
{ACAD_REACTORS
330
7
102
}
330
7
100
AcDbDictionary
  3
DIMASSOC
350
1E6
  3
HIDETEXT
350
1E5
  0
DICTIONARY
  5
12
102
{ACAD_REACTORS
330
11
102
}
330
11
100
AcDbDictionary
280
     1
  3
DIM-1_12
360
13
  3
DIM-1_16
360
14
  0
XRECORD
  5
2F5
102
{ACAD_REACTORS
330
1FA
102
}
330
1FA
100
AcDbXrecord
340
2
  0
XRECORD
  5
2F6
102
{ACAD_REACTORS
330
1FC
102
}
330
1FC
100
AcDbXrecord
340
1EB
  0
MLINESTYLE
  5
2C
102
{ACAD_REACTORS
330
29
102
}
330
29
100
AcDbMlineStyle
  2
STANDARD
 70
     0
  3

 62
   256
 51
90.0
 52
90.0
 71
     2
 49
0.5
 62
   256
  6
BYLAYER
 49
-0.5
 62
   256
  6
BYLAYER
  0
ACDBPLACEHOLDER
  5
5
102
{ACAD_REACTORS
330
6
102
}
330
6
100
AcDbPlaceHolder
280
     0
  0
XRECORD
  5
2DE
102
{ACAD_REACTORS
330
2D4
102
}
330
2D4
100
AcDbXrecord
 90
        0
  0
XRECORD
  5
2E2
102
{ACAD_REACTORS
330
2D4
102
}
330
2D4
100
AcDbXrecord
1000
DSTYLE
1002
{
1070
    79
 70
     1
1070
   276
 70
     1
1070
   277
 70
     5
1070
   289
 70
     1
1002
}
  0
XRECORD
  5
2DF
102
{ACAD_REACTORS
330
2D4
102
}
330
2D4
100
AcDbXrecord
  1
{6A4AC8E0-4F58-11D5-8420-0003476D26AB}
  0
XRECORD
  5
2D7
102
{ACAD_REACTORS
330
2D4
102
}
330
2D4
100
AcDbXrecord
  1

  0
XRECORD
  5
2DD
102
{ACAD_REACTORS
330
2D4
102
}
330
2D4
100
AcDbXrecord
 90
        1
  0
XRECORD
  5
2D9
102
{ACAD_REACTORS
330
2D4
102
}
330
2D4
100
AcDbXrecord
340
B
  0
XRECORD
  5
2DC
102
{ACAD_REACTORS
330
2D4
102
}
330
2D4
100
AcDbXrecord
 90
    10781
  0
XRECORD
  5
2DA
102
{ACAD_REACTORS
330
2D4
102
}
330
2D4
100
AcDbXrecord
340
2A
  0
XRECORD
  5
2DB
102
{ACAD_REACTORS
330
2D4
102
}
330
2D4
100
AcDbXrecord
340
6
  0
XRECORD
  5
2E1
102
{ACAD_REACTORS
330
2D4
102
}
330
2D4
100
AcDbXrecord
 40
0.0
  0
XRECORD
  5
2E5
102
{ACAD_REACTORS
330
2D4
102
}
330
2D4
100
AcDbXrecord
340
0
  0
XRECORD
  5
2EB
102
{ACAD_REACTORS
330
2D4
102
}
330
2D4
100
AcDbXrecord
 10
0.0
 20
0.0
 30
0.0
  0
XRECORD
  5
2E7
102
{ACAD_REACTORS
330
2D4
102
}
330
2D4
100
AcDbXrecord
 10
0.0
 20
0.0
 30
0.0
  0
XRECORD
  5
2EA
102
{ACAD_REACTORS
330
2D4
102
}
330
2D4
100
AcDbXrecord
 10
0.0
 20
0.0
 30
0.0
  0
XRECORD
  5
2E8
102
{ACAD_REACTORS
330
2D4
102
}
330
2D4
100
AcDbXrecord
 10
0.0
 20
0.0
 30
0.0
  0
XRECORD
  5
2E9
102
{ACAD_REACTORS
330
2D4
102
}
330
2D4
100
AcDbXrecord
 10
0.0
 20
0.0
 30
0.0
  0
XRECORD
  5
2E6
102
{ACAD_REACTORS
330
2D4
102
}
330
2D4
100
AcDbXrecord
 10
0.0
 20
0.0
 30
0.0
  0
XRECORD
  5
2E3
102
{ACAD_REACTORS
330
2D4
102
}
330
2D4
100
AcDbXrecord
340
0
  0
XRECORD
  5
2E4
102
{ACAD_REACTORS
330
2D4
102
}
330
2D4
100
AcDbXrecord
 70
     0
  0
XRECORD
  5
2D8
102
{ACAD_REACTORS
330
2D4
102
}
330
2D4
100
AcDbXrecord
  1

  0
XRECORD
  5
2D5
102
{ACAD_REACTORS
330
2D4
102
}
330
2D4
100
AcDbXrecord
 90
        1
  0
XRECORD
  5
2D6
102
{ACAD_REACTORS
330
2D4
102
}
330
2D4
100
AcDbXrecord
 90
       70
  0
XRECORD
  5
2EE
102
{ACAD_REACTORS
330
2D4
102
}
330
2D4
100
AcDbXrecord
340
0
  0
XRECORD
  5
2F4
102
{ACAD_REACTORS
330
2D4
102
}
330
2D4
100
AcDbXrecord
 10
0.0
 20
0.0
 30
0.0
  0
XRECORD
  5
2F0
102
{ACAD_REACTORS
330
2D4
102
}
330
2D4
100
AcDbXrecord
 10
0.0
 20
0.0
 30
0.0
  0
XRECORD
  5
2F3
102
{ACAD_REACTORS
330
2D4
102
}
330
2D4
100
AcDbXrecord
 10
0.0
 20
0.0
 30
0.0
  0
XRECORD
  5
2F1
102
{ACAD_REACTORS
330
2D4
102
}
330
2D4
100
AcDbXrecord
 10
0.0
 20
0.0
 30
0.0
  0
XRECORD
  5
2F2
102
{ACAD_REACTORS
330
2D4
102
}
330
2D4
100
AcDbXrecord
 10
0.0
 20
0.0
 30
0.0
  0
XRECORD
  5
2EF
102
{ACAD_REACTORS
330
2D4
102
}
330
2D4
100
AcDbXrecord
 10
0.0
 20
0.0
 30
0.0
  0
XRECORD
  5
2EC
102
{ACAD_REACTORS
330
2D4
102
}
330
2D4
100
AcDbXrecord
340
0
  0
XRECORD
  5
2ED
102
{ACAD_REACTORS
330
2D4
102
}
330
2D4
100
AcDbXrecord
 70
     1
  0
XRECORD
  5
2E0
102
{ACAD_REACTORS
330
2D4
102
}
330
2D4
100
AcDbXrecord
  1
{E9807FBF-C1D9-4D6F-B7A1-F42A1A7E5A80}
  0
DICTIONARYVAR
  5
1E6
102
{ACAD_REACTORS
330
1E4
102
}
330
1E4
100
DictionaryVariables
280
     0
  1
1
  0
DICTIONARYVAR
  5
1E5
102
{ACAD_REACTORS
330
1E4
102
}
330
1E4
100
DictionaryVariables
280
     0
  1
1
  0
XRECORD
  5
13
102
{ACAD_REACTORS
330
12
102
}
330
12
100
AcDbXrecord
  1
DIM-1_12
  1
DIM-1_12
  1
*
  1
*
 70
     0
  1
*
  1
*
  0
XRECORD
  5
14
102
{ACAD_REACTORS
330
12
102
}
330
12
100
AcDbXrecord
  1
dim-1_16
  1
*
  1
*
  1
*
 70
     0
  1
*
  1
*
  0
ENDSEC
  0
EOF
