  0
SECTION
  2
HEADER
  9
$ACADVER
  1
AC1014
  9
$ACADMAINTVER
 70
     0
  9
$DWGCODEPAGE
  3
ANSI_1252
  9
$INSBASE
 10
442.143834
 20
38.27011
 30
0.0
  9
$EXTMIN
 10
399.809659
 20
35.388104
 30
-1.077856
  9
$EXTMAX
 10
484.478721
 20
61.604436
 30
1.077794
  9
$LIMMIN
 10
0.0
 20
0.0
  9
$LIMMAX
 10
100.502416
 20
51.698548
  9
$ORTHOMODE
 70
     0
  9
$REGENMODE
 70
     1
  9
$FILLMODE
 70
     1
  9
$QTEXTMODE
 70
     0
  9
$MIRRTEXT
 70
     1
  9
$DRAGMODE
 70
     2
  9
$LTSCALE
 40
2.0
  9
$OSMODE
 70
    53
  9
$ATTMODE
 70
     1
  9
$TEXTSIZE
 40
0.1
  9
$TRACEWID
 40
1.0
  9
$TEXTSTYLE
  7
CARTOUCHE
  9
$CLAYER
  8
0
  9
$CELTYPE
  6
BYLAYER
  9
$CECOLOR
 62
   256
  9
$CELTSCALE
 40
1.0
  9
$DELOBJ
 70
     1
  9
$DISPSILH
 70
     0
  9
$DIMSCALE
 40
16.0
  9
$DIMASZ
 40
0.1
  9
$DIMEXO
 40
0.0625
  9
$DIMDLI
 40
0.25
  9
$DIMRND
 40
0.0
  9
$DIMDLE
 40
0.0
  9
$DIMEXE
 40
0.1
  9
$DIMTP
 40
0.0
  9
$DIMTM
 40
0.0
  9
$DIMTXT
 40
0.1
  9
$DIMCEN
 40
0.09
  9
$DIMTSZ
 40
0.0
  9
$DIMTOL
 70
     0
  9
$DIMLIM
 70
     0
  9
$DIMTIH
 70
     1
  9
$DIMTOH
 70
     1
  9
$DIMSE1
 70
     0
  9
$DIMSE2
 70
     0
  9
$DIMTAD
 70
     0
  9
$DIMZIN
 70
     4
  9
$DIMBLK
  1

  9
$DIMASO
 70
     1
  9
$DIMSHO
 70
     1
  9
$DIMPOST
  1
\X
  9
$DIMAPOST
  1
cm
  9
$DIMALT
 70
     1
  9
$DIMALTD
 70
     1
  9
$DIMALTF
 40
2.54
  9
$DIMLFAC
 40
1.0
  9
$DIMTOFL
 70
     0
  9
$DIMTVP
 40
0.0
  9
$DIMTIX
 70
     0
  9
$DIMSOXD
 70
     0
  9
$DIMSAH
 70
     0
  9
$DIMBLK1
  1

  9
$DIMBLK2
  1

  9
$DIMSTYLE
  2
STANDARD
  9
$DIMCLRD
 70
     0
  9
$DIMCLRE
 70
     0
  9
$DIMCLRT
 70
     0
  9
$DIMTFAC
 40
1.0
  9
$DIMGAP
 40
0.08
  9
$DIMJUST
 70
     0
  9
$DIMSD1
 70
     0
  9
$DIMSD2
 70
     0
  9
$DIMTOLJ
 70
     1
  9
$DIMTZIN
 70
     4
  9
$DIMALTZ
 70
     4
  9
$DIMALTTZ
 70
     4
  9
$DIMFIT
 70
     1
  9
$DIMUPT
 70
     0
  9
$DIMUNIT
 70
     2
  9
$DIMDEC
 70
     4
  9
$DIMTDEC
 70
     3
  9
$DIMALTU
 70
     2
  9
$DIMALTTD
 70
     1
  9
$DIMTXSTY
  7
ROMANS
  9
$DIMAUNIT
 70
     0
  9
$LUNITS
 70
     2
  9
$LUPREC
 70
     2
  9
$SKETCHINC
 40
1.0
  9
$FILLETRAD
 40
0.25
  9
$AUNITS
 70
     0
  9
$AUPREC
 70
     0
  9
$MENU
  1
.
  9
$ELEVATION
 40
0.0
  9
$PELEVATION
 40
0.0
  9
$THICKNESS
 40
0.0
  9
$LIMCHECK
 70
     0
  9
$BLIPMODE
 70
     0
  9
$CHAMFERA
 40
0.0
  9
$CHAMFERB
 40
0.0
  9
$CHAMFERC
 40
20.0
  9
$CHAMFERD
 40
0.0
  9
$SKPOLY
 70
     0
  9
$TDCREATE
 40
2452062.343093519
  9
$TDUPDATE
 40
2453690.644795752
  9
$TDINDWG
 40
3.2432167824
  9
$TDUSRTIMER
 40
3.2432167824
  9
$USRTIMER
 70
     1
  9
$ANGBASE
 50
0.0
  9
$ANGDIR
 70
     0
  9
$PDMODE
 70
    34
  9
$PDSIZE
 40
-5.0
  9
$PLINEWID
 40
0.0
  9
$COORDS
 70
     1
  9
$SPLFRAME
 70
     0
  9
$SPLINETYPE
 70
     6
  9
$SPLINESEGS
 70
     8
  9
$ATTDIA
 70
     0
  9
$ATTREQ
 70
     1
  9
$HANDLING
 70
     1
  9
$HANDSEED
  5
A0
  9
$SURFTAB1
 70
     6
  9
$SURFTAB2
 70
     6
  9
$SURFTYPE
 70
     6
  9
$SURFU
 70
     6
  9
$SURFV
 70
     6
  9
$UCSNAME
  2

  9
$UCSORG
 10
0.0
 20
0.0
 30
0.0
  9
$UCSXDIR
 10
1.0
 20
0.0
 30
0.0
  9
$UCSYDIR
 10
0.0
 20
1.0
 30
0.0
  9
$PUCSNAME
  2

  9
$PUCSORG
 10
0.0
 20
0.0
 30
0.0
  9
$PUCSXDIR
 10
1.0
 20
0.0
 30
0.0
  9
$PUCSYDIR
 10
0.0
 20
1.0
 30
0.0
  9
$USERI1
 70
     0
  9
$USERI2
 70
     0
  9
$USERI3
 70
     0
  9
$USERI4
 70
     0
  9
$USERI5
 70
     0
  9
$USERR1
 40
0.0
  9
$USERR2
 40
0.0
  9
$USERR3
 40
0.0
  9
$USERR4
 40
0.0
  9
$USERR5
 40
0.0
  9
$WORLDVIEW
 70
     1
  9
$SHADEDGE
 70
     3
  9
$SHADEDIF
 70
    70
  9
$TILEMODE
 70
     1
  9
$MAXACTVP
 70
    48
  9
$PINSBASE
 10
0.0
 20
0.0
 30
0.0
  9
$PLIMCHECK
 70
     0
  9
$PEXTMIN
 10
0.0
 20
0.0
 30
0.0
  9
$PEXTMAX
 10
0.0
 20
0.0
 30
0.0
  9
$PLIMMIN
 10
0.0
 20
0.0
  9
$PLIMMAX
 10
12.0
 20
9.0
  9
$UNITMODE
 70
     0
  9
$VISRETAIN
 70
     1
  9
$PLINEGEN
 70
     0
  9
$PSLTSCALE
 70
     1
  9
$TREEDEPTH
 70
  3020
  9
$PICKSTYLE
 70
     1
  9
$CMLSTYLE
  2
STANDARD
  9
$CMLJUST
 70
     0
  9
$CMLSCALE
 40
20.0
  9
$PROXYGRAPHICS
 70
     1
  9
$MEASUREMENT
 70
     0
  0
ENDSEC
  0
SECTION
  2
CLASSES
  0
CLASS
  1
ACDBDICTIONARYWDFLT
  2
AcDbDictionaryWithDefault
  3
AutoCAD 2000
 90
        0
280
     1
281
     0
  0
CLASS
  1
ACDBPLACEHOLDER
  2
AcDbPlaceHolder
  3
AutoCAD 2000
 90
        0
280
     1
281
     0
  0
CLASS
  1
LAYOUT
  2
AcDbLayout
  3
AutoCAD 2000
 90
        0
280
     1
281
     0
  0
CLASS
  1
DICTIONARYVAR
  2
AcDbDictionaryVar
  3
"AutoCAD"
 90
        0
280
     0
281
     0
  0
CLASS
  1
IMAGEDEF
  2
AcDbRasterImageDef
  3
ISM
 90
        0
280
     1
281
     0
  0
CLASS
  1
LONG_TRANSACTION
  2
AcDbLongTransaction
  3
AutoCAD 2000
 90
        0
280
     1
281
     0
  0
CLASS
  1
LWPOLYLINE
  2
AcDbPolyline
  3
"AutoCAD"
 90
        0
280
     0
281
     1
  0
CLASS
  1
HATCH
  2
AcDbHatch
  3
"ACAD_SEDONA"
 90
        0
280
     0
281
     1
  0
CLASS
  1
XRECORD
  2
AcDbXrecord
  3
"<Built In>"
 90
        0
280
     0
281
     0
  0
ENDSEC
  0
SECTION
  2
TABLES
  0
TABLE
  2
VPORT
  5
26
100
AcDbSymbolTable
 70
     2
  0
VPORT
  5
9F
100
AcDbSymbolTableRecord
100
AcDbViewportTableRecord
  2
*ACTIVE
 70
     0
 10
0.0
 20
0.0
 11
1.0
 21
1.0
 12
442.14419
 22
48.49627
 13
0.0
 23
0.0
 14
10.0
 24
10.0
 15
10.0
 25
10.0
 16
0.0
 26
0.0
 36
1.0
 17
0.0
 27
0.0
 37
0.0
 40
57.178395
 41
1.487748
 42
50.0
 43
0.0
 44
0.0
 50
0.0
 51
0.0
 71
     0
 72
   100
 73
     1
 74
     3
 75
     0
 76
     0
 77
     0
 78
     2
  0
ENDTAB
  0
TABLE
  2
LTYPE
  5
1D
100
AcDbSymbolTable
 70
     3
  0
LTYPE
  5
1E
102
{ACAD_XDICTIONARY
360
1F
102
}
100
AcDbSymbolTableRecord
100
AcDbLinetypeTableRecord
  2
BYBLOCK
 70
     0
  3

 72
    65
 73
     0
 40
0.0
  0
LTYPE
  5
21
102
{ACAD_XDICTIONARY
360
22
102
}
100
AcDbSymbolTableRecord
100
AcDbLinetypeTableRecord
  2
BYLAYER
 70
     0
  3

 72
    65
 73
     0
 40
0.0
  0
LTYPE
  5
8
102
{ACAD_XDICTIONARY
360
9
102
}
100
AcDbSymbolTableRecord
100
AcDbLinetypeTableRecord
  2
CONTINUOUS
 70
     0
  3
Solid line
 72
    65
 73
     0
 40
0.0
  0
LTYPE
  5
71
100
AcDbSymbolTableRecord
100
AcDbLinetypeTableRecord
  2
CENTER
 70
     0
  3
Center ____ _ ____ _ ____ _ ____ _ ____ _ ____
 72
    65
 73
     4
 40
50.8
 49
31.75
 74
     0
 49
-6.35
 74
     0
 49
6.35
 74
     0
 49
-6.35
 74
     0
  0
LTYPE
  5
41
100
AcDbSymbolTableRecord
100
AcDbLinetypeTableRecord
  2
HIDDEN
 70
     0
  3
Hidden __ __ __ __ __ __ __ __ __ __ __ __ __ _
 72
    65
 73
     2
 40
0.375
 49
0.25
 74
     0
 49
-0.125
 74
     0
  0
ENDTAB
  0
TABLE
  2
LAYER
  5
12
102
{ACAD_XDICTIONARY
360
13
102
}
100
AcDbSymbolTable
 70
     2
  0
LAYER
  5
7
100
AcDbSymbolTableRecord
100
AcDbLayerTableRecord
  2
0
 70
     0
 62
     7
  6
CONTINUOUS
  0
LAYER
  5
6E
102
{ACAD_XDICTIONARY
360
6F
102
}
100
AcDbSymbolTableRecord
100
AcDbLayerTableRecord
  2
CENTER
 70
     0
 62
     1
  6
CENTER
  0
ENDTAB
  0
TABLE
  2
STYLE
  5
19
100
AcDbSymbolTable
 70
     3
  0
STYLE
  5
1A
102
{ACAD_XDICTIONARY
360
1B
102
}
100
AcDbSymbolTableRecord
100
AcDbTextStyleTableRecord
  2
STANDARD
 70
     0
 40
0.0
 41
1.0
 50
0.0
 71
     0
 42
0.125
  3
txt
  4

  0
STYLE
  5
36
100
AcDbSymbolTableRecord
100
AcDbTextStyleTableRecord
  2
CARTOUCHE
 70
     0
 40
0.0
 41
1.0
 50
0.0
 71
     0
 42
0.1
  3
romans.shx
  4

  0
STYLE
  5
33
102
{ACAD_XDICTIONARY
360
34
102
}
100
AcDbSymbolTableRecord
100
AcDbTextStyleTableRecord
  2
ROMANS
 70
     0
 40
0.0
 41
1.0
 50
0.0
 71
     0
 42
1.0
  3
romans.shx
  4

  0
ENDTAB
  0
TABLE
  2
VIEW
  5
24
100
AcDbSymbolTable
 70
     0
  0
ENDTAB
  0
TABLE
  2
UCS
  5
25
100
AcDbSymbolTable
 70
     0
  0
ENDTAB
  0
TABLE
  2
APPID
  5
28
100
AcDbSymbolTable
 70
     1
  0
APPID
  5
29
100
AcDbSymbolTableRecord
100
AcDbRegAppTableRecord
  2
ACAD
 70
     0
  0
ENDTAB
  0
TABLE
  2
DIMSTYLE
  5
2A
100
AcDbSymbolTable
 70
     1
  0
DIMSTYLE
105
38
102
{ACAD_XDICTIONARY
360
39
102
}
100
AcDbSymbolTableRecord
100
AcDbDimStyleTableRecord
  2
STANDARD
 70
     0
  3
\X
  4
cm
  5

  6

  7

 40
16.0
 41
0.1
 42
0.0625
 43
0.25
 44
0.1
 45
0.0
 46
0.0
 47
0.0
 48
0.0
140
0.1
141
0.09
142
0.0
143
2.54
144
1.0
145
0.0
146
1.0
147
0.08
 71
     0
 72
     0
 73
     1
 74
     1
 75
     0
 76
     0
 77
     0
 78
     4
170
     1
171
     1
172
     0
173
     0
174
     0
175
     0
176
     0
177
     0
178
     0
270
     5
271
     3
272
     3
273
     2
274
     1
340
33
275
     0
280
     0
281
     0
282
     0
283
     1
284
     4
285
     4
286
     4
287
     1
288
     0
  0
ENDTAB
  0
TABLE
  2
BLOCK_RECORD
  5
1
100
AcDbSymbolTable
 70
     0
  0
BLOCK_RECORD
  5
2
102
{ACAD_XDICTIONARY
360
3
102
}
100
AcDbSymbolTableRecord
100
AcDbBlockTableRecord
  2
*MODEL_SPACE
  0
BLOCK_RECORD
  5
C
102
{ACAD_XDICTIONARY
360
D
102
}
100
AcDbSymbolTableRecord
100
AcDbBlockTableRecord
  2
*PAPER_SPACE
  0
ENDTAB
  0
ENDSEC
  0
SECTION
  2
BLOCKS
  0
BLOCK
  5
6
100
AcDbEntity
  8
0
100
AcDbBlockBegin
  2
*MODEL_SPACE
 70
     0
 10
0.0
 20
0.0
 30
0.0
  3
*MODEL_SPACE
  1

  0
ENDBLK
  5
B
100
AcDbEntity
  8
0
100
AcDbBlockEnd
  0
BLOCK
  5
10
100
AcDbEntity
 67
     1
  8
0
100
AcDbBlockBegin
  2
*PAPER_SPACE
 70
     0
 10
0.0
 20
0.0
 30
0.0
  3
*PAPER_SPACE
  1

  0
ENDBLK
  5
11
100
AcDbEntity
 67
     1
  8
0
100
AcDbBlockEnd
  0
ENDSEC
  0
SECTION
  2
ENTITIES
  0
LINE
  5
3B
100
AcDbEntity
  8
0
100
AcDbLine
 10
484.393464
 20
58.02011
 30
0.0
 11
399.894204
 21
58.02011
 31
0.0
  0
LINE
  5
3C
100
AcDbEntity
  8
0
100
AcDbLine
 10
483.589187
 20
59.52011
 30
0.0
 11
400.69848
 21
59.52011
 31
0.0
  0
ARC
  5
3D
100
AcDbEntity
  8
0
 48
0.5
100
AcDbCircle
 10
436.480135
 20
39.4926
 30
0.0
 40
1.250932
100
AcDbArc
 50
282.241197
 51
351.672431
  0
LINE
  5
3E
100
AcDbEntity
  8
0
100
AcDbLine
 10
440.219411
 20
39.267761
 30
0.0
 11
420.145003
 21
39.618161
 31
0.0
  0
LINE
  5
3F
100
AcDbEntity
  8
0
100
AcDbLine
 10
440.272088
 20
39.39186
 30
0.0
 11
420.147185
 21
39.743142
 31
0.0
  0
ARC
  5
40
100
AcDbEntity
  8
0
  6
HIDDEN
100
AcDbCircle
 10
437.314685
 20
57.518409
 30
0.0
 40
0.5
100
AcDbArc
 50
14.0
 51
104.0
  0
ARC
  5
42
100
AcDbEntity
  8
0
  6
HIDDEN
 62
     8
100
AcDbCircle
 10
437.330203
 20
57.456171
 30
0.0
 40
0.5
100
AcDbArc
 50
283.880283
 51
14.0
  0
LWPOLYLINE
  5
43
100
AcDbEntity
  8
0
  6
HIDDEN
 62
     8
100
AcDbPolyline
 90
        2
 70
     0
 43
0.0
 10
435.839869
 20
56.493142
 10
448.441097
 20
56.493142
  0
ELLIPSE
  5
44
100
AcDbEntity
  8
0
  6
HIDDEN
 62
     8
100
AcDbEllipse
 10
468.205431
 20
56.564622
 30
0.0
 11
-34.80224148903565
 21
0.006214501258227
 31
0.0
210
0.0
220
0.0
230
0.9999999999999998
 40
0.107936
 41
-0.9039234974092137
 42
0.020684296490036
  0
LINE
  5
45
100
AcDbEntity
  8
0
100
AcDbLine
 10
411.116189
 20
57.996796
 30
0.0
 11
473.40312
 21
57.996796
 31
0.0
  0
LINE
  5
46
100
AcDbEntity
  8
0
100
AcDbLine
 10
417.084265
 20
46.788284
 30
0.0
 11
440.668907
 21
52.506963
 31
0.0
  0
ELLIPSE
  5
47
100
AcDbEntity
  8
0
  6
HIDDEN
 62
     8
100
AcDbEllipse
 10
442.140483
 20
56.493142
 30
0.0
 11
8.729862606810854
 21
0.0
 31
0.0
210
0.0
220
0.0
230
1.0
 40
0.209619
 41
3.141592653589793
 42
4.712388980384689
  0
LINE
  5
48
100
AcDbEntity
  8
0
100
AcDbLine
 10
446.679665
 20
59.52011
 30
0.0
 11
425.980211
 21
59.52011
 31
0.0
  0
LINE
  5
49
100
AcDbEntity
  8
0
100
AcDbLine
 10
441.05117
 20
59.52011
 30
0.0
 11
425.980211
 21
59.52011
 31
0.0
  0
LINE
  5
4A
100
AcDbEntity
  8
0
100
AcDbLine
 10
422.923419
 20
38.27011
 30
0.0
 11
461.364248
 21
38.27011
 31
0.0
  0
LINE
  5
4B
100
AcDbEntity
  8
0
100
AcDbLine
 10
424.744197
 20
59.52011
 30
-1.077783
 11
424.538546
 21
59.52011
 31
1.077783
210
-0.0000000000000023
220
1.0
230
-0.0000000000000002
  0
LINE
  5
4C
100
AcDbEntity
  8
0
100
AcDbLine
 10
427.384819
 20
59.52011
 30
0.261738
 11
421.897923
 21
59.52011
 31
-0.261738
210
-0.0000000000000023
220
1.0
230
-0.0000000000000002
  0
ARC
  5
4D
100
AcDbEntity
  8
0
100
AcDbCircle
 10
406.364809
 20
59.77011
 30
0.0
 40
0.25
100
AcDbArc
 50
270.0
 51
352.819244
  0
ARC
  5
4E
100
AcDbEntity
  8
0
100
AcDbCircle
 10
408.349123
 20
59.52011
 30
0.0
 40
1.75
100
AcDbArc
 50
90.0
 51
172.819244
  0
ARC
  5
4F
100
AcDbEntity
  8
0
100
AcDbCircle
 10
400.69848
 20
58.77011
 30
0.0
 40
0.75
100
AcDbArc
 50
90.0
 51
176.0
  0
LINE
  5
50
100
AcDbEntity
  8
0
100
AcDbLine
 10
399.950307
 20
58.822427
 30
0.0
 11
399.894204
 21
58.02011
 31
0.0
  0
LWPOLYLINE
  5
51
100
AcDbEntity
  8
0
100
AcDbPolyline
 90
        2
 70
     0
 43
0.0
 10
417.644185
 20
42.243142
 42
0.414214
 10
420.144185
 20
39.743142
  0
LWPOLYLINE
  5
52
100
AcDbEntity
  8
0
100
AcDbPolyline
 90
        2
 70
     0
 43
0.0
 10
417.519309
 20
42.21753
 42
0.411359
 10
420.144185
 20
39.618142
  0
ARC
  5
53
100
AcDbEntity
  8
0
 48
0.5
100
AcDbCircle
 10
423.188674
 20
39.492596
 30
0.0
 40
1.250932
100
AcDbArc
 50
175.106753
 51
257.758803
  0
ARC
  5
54
100
AcDbEntity
  8
0
 48
0.5
100
AcDbCircle
 10
426.506473
 20
39.518645
 30
0.0
 40
1.280004
100
AcDbArc
 50
179.515766
 51
257.268817
  0
ARC
  5
55
100
AcDbEntity
  8
0
100
AcDbCircle
 10
425.980209
 20
149.210874
 30
0.0
 40
89.690764
100
AcDbArc
 50
258.663174
 51
270.000001
  0
LINE
  5
56
100
AcDbEntity
  8
0
100
AcDbLine
 10
410.748855
 20
57.996796
 30
0.0
 11
417.519309
 21
42.21753
 31
0.0
  0
LINE
  5
57
100
AcDbEntity
  8
0
100
AcDbLine
 10
410.884548
 20
57.996796
 30
0.0
 11
417.644185
 21
42.243142
 31
0.0
  0
LINE
  5
58
100
AcDbEntity
  8
0
 62
     8
100
AcDbLine
 10
410.550798
 20
59.058645
 30
0.0
 11
410.089576
 21
59.951824
 31
0.0
  0
LINE
  5
59
100
AcDbEntity
  8
0
 62
     8
100
AcDbLine
 10
411.116189
 20
57.996796
 30
0.0
 11
410.800858
 21
58.589012
 31
0.0
  0
ARC
  5
5A
100
AcDbEntity
  8
0
 62
     8
100
AcDbCircle
 10
408.349123
 20
59.52011
 30
0.0
 40
1.75
100
AcDbArc
 50
34.247161
 51
90.0
  0
LINE
  5
5B
100
AcDbEntity
  8
0
  6
HIDDEN
 62
     8
100
AcDbLine
 10
437.45015
 20
56.970771
 30
0.0
 11
427.420968
 21
54.471908
 31
0.0
  0
LINE
  5
5C
100
AcDbEntity
  8
0
  6
HIDDEN
 62
     8
100
AcDbLine
 10
437.193724
 20
58.003557
 30
0.0
 11
427.164004
 21
55.502867
 31
0.0
  0
ARC
  5
5D
100
AcDbEntity
  8
0
  6
HIDDEN
 62
     8
100
AcDbCircle
 10
427.909841
 20
55.173494
 30
0.0
 40
0.5
100
AcDbArc
 50
14.0
 51
104.0
  0
ARC
  5
5E
100
AcDbEntity
  8
0
  6
HIDDEN
 62
     8
100
AcDbCircle
 10
427.300085
 20
54.957075
 30
0.0
 40
0.5
100
AcDbArc
 50
194.0
 51
284.0
  0
ARC
  5
5F
100
AcDbEntity
  8
0
  6
HIDDEN
 62
     8
100
AcDbCircle
 10
427.284965
 20
55.017719
 30
0.0
 40
0.5
100
AcDbArc
 50
104.0
 51
194.0
  0
ELLIPSE
  5
60
100
AcDbEntity
  8
0
  6
HIDDEN
 62
     8
100
AcDbEllipse
 10
427.570048
 20
55.056596
 30
0.0
 11
-0.0565623248486577
 21
0.2268590940594566
 31
0.0
210
0.0
220
0.0
230
1.0
 40
0.95864
 41
0.0
 42
6.283185307179586
  0
ELLIPSE
  5
61
100
AcDbEntity
  8
0
  6
HIDDEN
 62
     8
100
AcDbEllipse
 10
427.570048
 20
55.056596
 30
0.0
 11
0.0301665732526174
 21
-0.1209915168317102
 31
0.0
210
0.0
220
0.0
230
1.0
 40
0.95864
 41
0.0
 42
6.283185307179586
  0
ARC
  5
62
100
AcDbEntity
  8
0
  6
HIDDEN
 62
     8
100
AcDbCircle
 10
427.92498
 20
55.112774
 30
0.0
 40
0.5
100
AcDbArc
 50
283.990896
 51
14.0
  0
CIRCLE
  5
63
100
AcDbEntity
  8
0
  6
HIDDEN
 62
     8
100
AcDbCircle
 10
436.593944
 20
57.306506
 30
0.0
 40
0.234375
  0
ARC
  5
64
100
AcDbEntity
  8
0
 62
     8
100
AcDbCircle
 10
435.860713
 20
57.155893
 30
0.0
 40
0.5
100
AcDbArc
 50
104.0
 51
197.663948
  0
ARC
  5
65
100
AcDbEntity
  8
0
 62
     8
100
AcDbCircle
 10
435.876173
 20
57.093887
 30
0.0
 40
0.5
100
AcDbArc
 50
190.336052
 51
283.990896
  0
ARC
  5
66
100
AcDbEntity
  8
0
  6
HIDDEN
 62
     8
100
AcDbCircle
 10
435.839869
 20
55.743142
 30
0.0
 40
0.75
100
AcDbArc
 50
90.0
 51
176.0
  0
LINE
  5
67
100
AcDbEntity
  8
0
 62
     8
100
AcDbLine
 10
435.065519
 20
55.421103
 30
0.0
 11
435.091696
 21
55.795459
 31
0.0
  0
CIRCLE
  5
68
100
AcDbEntity
  8
0
  6
HIDDEN
 62
     8
100
AcDbCircle
 10
436.593944
 20
57.306506
 30
0.0
 40
0.125
  0
LINE
  5
69
100
AcDbEntity
  8
0
100
AcDbLine
 10
473.40312
 20
57.996796
 30
0.0
 11
466.643483
 21
42.243142
 31
0.0
  0
LINE
  5
6A
100
AcDbEntity
  8
0
100
AcDbLine
 10
473.538813
 20
57.996796
 30
0.0
 11
466.768358
 21
42.21753
 31
0.0
  0
ARC
  5
6B
100
AcDbEntity
  8
0
100
AcDbCircle
 10
454.868405
 20
238.112585
 30
0.0
 40
178.092475
100
AcDbArc
 50
270.0
 51
276.792415
  0
ARC
  5
6C
100
AcDbEntity
  8
0
100
AcDbCircle
 10
458.307458
 20
149.210874
 30
0.0
 40
89.690764
100
AcDbArc
 50
269.999999
 51
281.336826
  0
LINE
  5
6D
100
AcDbEntity
  8
CENTER
 48
0.05
100
AcDbLine
 10
442.143834
 20
41.15107
 30
0.0
 11
442.143834
 21
35.38915
 31
0.0
  0
LWPOLYLINE
  5
72
100
AcDbEntity
  8
0
100
AcDbPolyline
 90
        2
 70
     0
 43
0.0
 10
466.768358
 20
42.21753
 42
-0.411359
 10
464.143483
 20
39.618142
  0
LWPOLYLINE
  5
73
100
AcDbEntity
  8
0
100
AcDbPolyline
 90
        2
 70
     0
 43
0.0
 10
466.643483
 20
42.243142
 42
-0.414214
 10
464.143483
 20
39.743142
  0
LINE
  5
74
100
AcDbEntity
  8
0
100
AcDbLine
 10
444.015579
 20
39.39186
 30
0.0
 11
464.140483
 21
39.743142
 31
0.0
  0
LINE
  5
75
100
AcDbEntity
  8
0
100
AcDbLine
 10
444.068257
 20
39.267761
 30
0.0
 11
464.142665
 21
39.618161
 31
0.0
  0
LINE
  5
76
100
AcDbEntity
  8
0
100
AcDbLine
 10
440.768834
 20
38.895115
 30
0.0
 11
443.518834
 21
38.895115
 31
0.0
  0
LINE
  5
77
100
AcDbEntity
  8
0
100
AcDbLine
 10
440.717057
 20
38.770115
 30
0.0
 11
443.570611
 21
38.770115
 31
0.0
  0
LINE
  5
78
100
AcDbEntity
  8
0
100
AcDbLine
 10
440.717057
 20
38.770115
 30
0.0
 11
440.219411
 21
39.267761
 31
0.0
  0
LINE
  5
79
100
AcDbEntity
  8
0
100
AcDbLine
 10
440.768834
 20
38.895115
 30
0.0
 11
440.272088
 21
39.39186
 31
0.0
  0
LINE
  5
7A
100
AcDbEntity
  8
0
100
AcDbLine
 10
443.518834
 20
38.895115
 30
0.0
 11
444.015579
 21
39.39186
 31
0.0
  0
LINE
  5
7B
100
AcDbEntity
  8
0
100
AcDbLine
 10
443.570611
 20
38.770115
 30
0.0
 11
444.068257
 21
39.267761
 31
0.0
  0
ARC
  5
7C
100
AcDbEntity
  8
0
 48
0.5
100
AcDbCircle
 10
447.807532
 20
39.4926
 30
0.0
 40
1.250932
100
AcDbArc
 50
188.327569
 51
257.758803
  0
ARC
  5
7D
100
AcDbEntity
  8
0
 48
0.5
100
AcDbCircle
 10
457.781194
 20
39.518645
 30
0.0
 40
1.280004
100
AcDbArc
 50
282.731183
 51
0.484234
  0
ARC
  5
7E
100
AcDbEntity
  8
0
 48
0.5
100
AcDbCircle
 10
461.098994
 20
39.492596
 30
0.0
 40
1.250932
100
AcDbArc
 50
282.241197
 51
4.893247
  0
ELLIPSE
  5
7F
100
AcDbEntity
  8
0
100
AcDbEllipse
 10
468.190977
 20
56.521057
 30
0.0
 11
-34.78764153313965
 21
0.0768389495592681
 31
0.0
210
0.0
220
0.0
230
1.0
 40
0.107979
 41
-1.177550139421191
 42
-0.9039026852423116
  0
LINE
  5
80
100
AcDbEntity
  8
0
100
AcDbLine
 10
468.630011
 20
46.440742
 30
0.0
 11
443.612059
 21
52.506963
 31
0.0
  0
LINE
  5
81
100
AcDbEntity
  8
0
  6
HIDDEN
 62
     8
100
AcDbLine
 10
446.837518
 20
56.970771
 30
0.0
 11
456.866699
 21
54.471908
 31
0.0
  0
LINE
  5
82
100
AcDbEntity
  8
0
  6
HIDDEN
 62
     8
100
AcDbLine
 10
447.093944
 20
58.003557
 30
0.0
 11
457.123664
 21
55.502867
 31
0.0
  0
LINE
  5
83
100
AcDbEntity
  8
0
  6
HIDDEN
 62
     8
100
AcDbLine
 10
449.418545
 20
52.516673
 30
0.0
 11
449.18927
 21
55.795459
 31
0.0
  0
LINE
  5
84
100
AcDbEntity
  8
CENTER
 48
0.05
100
AcDbLine
 10
442.143834
 20
52.907357
 30
0.0
 11
442.143834
 21
58.078926
 31
0.0
  0
LINE
  5
85
100
AcDbEntity
  8
CENTER
 48
0.05
100
AcDbLine
 10
439.304858
 20
55.493142
 30
0.0
 11
444.982809
 21
55.493142
 31
0.0
  0
CIRCLE
  5
86
100
AcDbEntity
  8
0
 48
0.1
100
AcDbCircle
 10
442.143834
 20
55.493142
 30
0.0
 40
1.3125
  0
ARC
  5
87
100
AcDbEntity
  8
0
  6
HIDDEN
 62
     8
100
AcDbCircle
 10
448.426955
 20
57.155893
 30
0.0
 40
0.5
100
AcDbArc
 50
342.336052
 51
76.0
  0
CIRCLE
  5
88
100
AcDbEntity
  8
0
  6
HIDDEN
 62
     8
100
AcDbCircle
 10
447.693723
 20
57.306506
 30
0.0
 40
0.234375
  0
ARC
  5
89
100
AcDbEntity
  8
0
  6
HIDDEN
 62
     8
100
AcDbCircle
 10
446.957465
 20
57.456171
 30
0.0
 40
0.5
100
AcDbArc
 50
166.0
 51
256.119717
  0
ARC
  5
8A
100
AcDbEntity
  8
0
  6
HIDDEN
 62
     8
100
AcDbCircle
 10
448.411495
 20
57.093887
 30
0.0
 40
0.5
100
AcDbArc
 50
256.009104
 51
349.663948
  0
ARC
  5
8B
100
AcDbEntity
  8
0
  6
HIDDEN
 62
     8
100
AcDbCircle
 10
448.441097
 20
55.743142
 30
0.0
 40
0.75
100
AcDbArc
 50
4.0
 51
90.0
  0
ARC
  5
8C
100
AcDbEntity
  8
0
  6
HIDDEN
 62
     8
100
AcDbCircle
 10
446.972983
 20
57.518409
 30
0.0
 40
0.5
100
AcDbArc
 50
76.0
 51
166.0
  0
CIRCLE
  5
8D
100
AcDbEntity
  8
0
  6
HIDDEN
 62
     8
100
AcDbCircle
 10
447.693723
 20
57.306506
 30
0.0
 40
0.125
  0
ARC
  5
8E
100
AcDbEntity
  8
0
  6
HIDDEN
 62
     8
100
AcDbCircle
 10
456.987583
 20
54.957075
 30
0.0
 40
0.5
100
AcDbArc
 50
256.0
 51
346.0
  0
ARC
  5
8F
100
AcDbEntity
  8
0
  6
HIDDEN
 62
     8
100
AcDbCircle
 10
457.002703
 20
55.017719
 30
0.0
 40
0.5
100
AcDbArc
 50
346.0
 51
76.0
  0
ARC
  5
90
100
AcDbEntity
  8
0
  6
HIDDEN
 62
     8
100
AcDbCircle
 10
456.377827
 20
55.173494
 30
0.0
 40
0.5
100
AcDbArc
 50
76.0
 51
166.0
  0
ARC
  5
91
100
AcDbEntity
  8
0
  6
HIDDEN
 62
     8
100
AcDbCircle
 10
456.362688
 20
55.112774
 30
0.0
 40
0.5
100
AcDbArc
 50
166.0
 51
256.009104
  0
ELLIPSE
  5
92
100
AcDbEntity
  8
0
  6
HIDDEN
 62
     8
100
AcDbEllipse
 10
456.717619
 20
55.056596
 30
0.0
 11
-0.0301665732526174
 21
-0.1209915168317102
 31
0.0
210
0.0
220
0.0
230
-1.0
 40
0.95864
 41
0.0
 42
6.283185307179586
  0
ELLIPSE
  5
93
100
AcDbEntity
  8
0
  6
HIDDEN
 62
     8
100
AcDbEllipse
 10
456.717619
 20
55.056596
 30
0.0
 11
0.0565623248486577
 21
0.2268590940594566
 31
0.0
210
0.0
220
0.0
230
-1.0
 40
0.95864
 41
0.0
 42
6.283185307179586
  0
LINE
  5
94
100
AcDbEntity
  8
0
100
AcDbLine
 10
484.33736
 20
58.822427
 30
0.0
 11
484.393464
 21
58.02011
 31
0.0
  0
ARC
  5
95
100
AcDbEntity
  8
0
100
AcDbCircle
 10
483.589187
 20
58.77011
 30
0.0
 40
0.75
100
AcDbArc
 50
4.0
 51
90.0
  0
ARC
  5
96
100
AcDbEntity
  8
0
100
AcDbCircle
 10
475.93185
 20
59.52011
 30
0.0
 40
1.75
100
AcDbArc
 50
7.180756
 51
90.0
  0
LINE
  5
97
100
AcDbEntity
  8
0
 62
     8
100
AcDbLine
 10
473.850161
 20
59.058645
 30
0.0
 11
474.214839
 21
59.951824
 31
0.0
  0
LINE
  5
98
100
AcDbEntity
  8
0
 62
     8
100
AcDbLine
 10
473.40312
 20
57.996796
 30
0.0
 11
473.652445
 21
58.589012
 31
0.0
  0
ARC
  5
99
100
AcDbEntity
  8
0
 62
     8
100
AcDbCircle
 10
475.93185
 20
59.52011
 30
0.0
 40
1.75
100
AcDbArc
 50
90.0
 51
145.752839
  0
ARC
  5
9A
100
AcDbEntity
  8
0
100
AcDbCircle
 10
477.916163
 20
59.77011
 30
0.0
 40
0.25
100
AcDbArc
 50
187.180756
 51
270.0
  0
ENDSEC
  0
SECTION
  2
OBJECTS
  0
DICTIONARY
  5
30
102
{ACAD_XDICTIONARY
360
31
102
}
100
AcDbDictionary
  3
ACAD_GROUP
350
2C
  3
ACAD_MLINESTYLE
350
2D
  0
DICTIONARY
  5
1F
100
AcDbDictionary
280
     1
  3
ACAD_XREC_ROUNDTRIP
360
20
  0
DICTIONARY
  5
22
100
AcDbDictionary
280
     1
  3
ACAD_XREC_ROUNDTRIP
360
23
  0
DICTIONARY
  5
9
100
AcDbDictionary
280
     1
  3
ACAD_XREC_ROUNDTRIP
360
A
  0
DICTIONARY
  5
13
100
AcDbDictionary
280
     1
  3
ACAD_LAYERFILTERS
360
14
  0
DICTIONARY
  5
6F
100
AcDbDictionary
280
     1
  3
ACAD_XREC_ROUNDTRIP
360
70
  0
DICTIONARY
  5
1B
100
AcDbDictionary
280
     1
  3
ACAD_XREC_ROUNDTRIP
360
1C
  0
DICTIONARY
  5
34
100
AcDbDictionary
280
     1
  3
ACAD_XREC_ROUNDTRIP
360
35
  0
DICTIONARY
  5
39
100
AcDbDictionary
280
     1
  3
ACAD_XREC_ROUNDTRIP
360
3A
  0
DICTIONARY
  5
3
100
AcDbDictionary
280
     1
  3
ACAD_LAYOUTSELFREF
360
4
  3
ACAD_XREC_ROUNDTRIP
360
5
  0
DICTIONARY
  5
D
100
AcDbDictionary
280
     1
  3
ACAD_LAYOUTSELFREF
360
E
  3
ACAD_XREC_ROUNDTRIP
360
F
  0
DICTIONARY
  5
31
100
AcDbDictionary
280
     1
  3
ACAD_XREC_ROUNDTRIP
360
32
  0
DICTIONARY
  5
2C
102
{ACAD_REACTORS
330
30
102
}
100
AcDbDictionary
  0
DICTIONARY
  5
2D
102
{ACAD_XDICTIONARY
360
2E
102
}
102
{ACAD_REACTORS
330
30
102
}
100
AcDbDictionary
  3
STANDARD
350
37
  0
XRECORD
  5
20
102
{ACAD_REACTORS
330
1F
102
}
100
AcDbXrecord
102
EXTNAMES
  1
BYBLOCK
  2
ByBlock
  0
XRECORD
  5
23
102
{ACAD_REACTORS
330
22
102
}
100
AcDbXrecord
102
EXTNAMES
  1
BYLAYER
  2
ByLayer
  0
XRECORD
  5
A
102
{ACAD_REACTORS
330
9
102
}
100
AcDbXrecord
102
EXTNAMES
  1
CONTINUOUS
  2
Continuous
  0
DICTIONARY
  5
14
102
{ACAD_XDICTIONARY
360
15
102
}
102
{ACAD_REACTORS
330
13
102
}
100
AcDbDictionary
280
     1
  3
DIM-1_12
360
17
  3
DIM-1_16
360
18
  0
XRECORD
  5
70
102
{ACAD_REACTORS
330
6F
102
}
100
AcDbXrecord
102
LINEWEIGHT
280
     3
  0
XRECORD
  5
1C
102
{ACAD_REACTORS
330
1B
102
}
100
AcDbXrecord
102
EXTNAMES
  1
STANDARD
  2
Standard
  0
XRECORD
  5
35
102
{ACAD_REACTORS
330
34
102
}
100
AcDbXrecord
102
EXTNAMES
  1
ROMANS
  2
romans
  0
XRECORD
  5
3A
102
{ACAD_REACTORS
330
39
102
}
100
AcDbXrecord
102
ACADR14ROUNDTRIP
1000
DSTYLE
1002
{
1070
    79
 70
     1
1070
   276
 70
     1
1070
   277
 70
     5
1070
   289
 70
     1
1002
}
  0
XRECORD
  5
4
102
{ACAD_REACTORS
330
3
102
}
100
AcDbXrecord
340
2
  0
XRECORD
  5
5
102
{ACAD_REACTORS
330
3
102
}
100
AcDbXrecord
102
EXTNAMES
  1
*MODEL_SPACE
  2
*Model_Space
  0
XRECORD
  5
E
102
{ACAD_REACTORS
330
D
102
}
100
AcDbXrecord
340
C
  0
XRECORD
  5
F
102
{ACAD_REACTORS
330
D
102
}
100
AcDbXrecord
102
EXTNAMES
  1
*PAPER_SPACE
  2
*Paper_Space
  0
XRECORD
  5
32
102
{ACAD_REACTORS
330
31
102
}
100
AcDbXrecord
102
EXTNAMES
  1
ACDBVARIABLEDICTIONARY
  2
AcDbVariableDictionary
  0
DICTIONARY
  5
2E
100
AcDbDictionary
280
     1
  3
ACAD_XREC_ROUNDTRIP
360
2F
  0
MLINESTYLE
  5
37
102
{ACAD_REACTORS
330
2D
102
}
100
AcDbMlineStyle
  2
STANDARD
 70
     0
  3

 62
   256
 51
90.0
 52
90.0
 71
     2
 49
0.5
 62
   256
  6
BYLAYER
 49
-0.5
 62
   256
  6
BYLAYER
  0
DICTIONARY
  5
15
100
AcDbDictionary
280
     1
  3
ACAD_XREC_ROUNDTRIP
360
16
  0
XRECORD
  5
17
102
{ACAD_REACTORS
330
14
102
}
100
AcDbXrecord
  1
DIM-1_12
  1
DIM-1_12
  1
*
  1
*
 70
     0
  1
*
  1
*
  0
XRECORD
  5
18
102
{ACAD_REACTORS
330
14
102
}
100
AcDbXrecord
  1
dim-1_16
  1
*
  1
*
  1
*
 70
     0
  1
*
  1
*
  0
XRECORD
  5
2F
102
{ACAD_REACTORS
330
2E
102
}
100
AcDbXrecord
102
EXTNAMES
  1
STANDARD
  2
Standard
  0
XRECORD
  5
16
102
{ACAD_REACTORS
330
15
102
}
100
AcDbXrecord
102
EXTNAMES
  1
DIM-1_16
  2
dim-1_16
  0
ENDSEC
  0
EOF
