  0
SECTION
  2
HEADER
  9
$ACADVER
  1
AC1014
  9
$ACADMAINTVER
 70
     9
  9
$DWGCODEPAGE
  3
ANSI_1252
  9
$INSBASE
 10
10.8174772866
 20
2.6482724472
 30
0.0
  9
$EXTMIN
 10
-6.666271971439627
 20
-13.28947843254617
 30
-0.0000000349181948
  9
$EXTMAX
 10
29.33812269392595
 20
11.39812783541634
 30
0.0000000814935746
  9
$LIMMIN
 10
0.0
 20
0.0
  9
$LIMMAX
 10
17.0
 20
11.0
  9
$ORTHOMODE
 70
     1
  9
$REGENMODE
 70
     1
  9
$FILLMODE
 70
     1
  9
$QTEXTMODE
 70
     0
  9
$MIRRTEXT
 70
     1
  9
$DRAGMODE
 70
     2
  9
$LTSCALE
 40
0.9350000000000001
  9
$OSMODE
 70
    55
  9
$ATTMODE
 70
     1
  9
$TEXTSIZE
 40
0.2
  9
$TRACEWID
 40
0.05
  9
$TEXTSTYLE
  7
STANDARD
  9
$CLAYER
  8
0
  9
$CELTYPE
  6
BYLAYER
  9
$CECOLOR
 62
   256
  9
$CELTSCALE
 40
1.0
  9
$DELOBJ
 70
     1
  9
$DISPSILH
 70
     0
  9
$DIMSCALE
 40
1.0
  9
$DIMASZ
 40
0.1875
  9
$DIMEXO
 40
0.0625
  9
$DIMDLI
 40
0.38
  9
$DIMRND
 40
0.0
  9
$DIMDLE
 40
0.0
  9
$DIMEXE
 40
0.18
  9
$DIMTP
 40
0.00001
  9
$DIMTM
 40
0.00001
  9
$DIMTXT
 40
0.125
  9
$DIMCEN
 40
0.09
  9
$DIMTSZ
 40
0.0
  9
$DIMTOL
 70
     0
  9
$DIMLIM
 70
     0
  9
$DIMTIH
 70
     1
  9
$DIMTOH
 70
     1
  9
$DIMSE1
 70
     0
  9
$DIMSE2
 70
     0
  9
$DIMTAD
 70
     0
  9
$DIMZIN
 70
     4
  9
$DIMBLK
  1
_FILLED
  9
$DIMASO
 70
     1
  9
$DIMSHO
 70
     1
  9
$DIMPOST
  1

  9
$DIMAPOST
  1

  9
$DIMALT
 70
     0
  9
$DIMALTD
 70
     2
  9
$DIMALTF
 40
25.4
  9
$DIMLFAC
 40
1.0
  9
$DIMTOFL
 70
     0
  9
$DIMTVP
 40
0.0
  9
$DIMTIX
 70
     0
  9
$DIMSOXD
 70
     0
  9
$DIMSAH
 70
     0
  9
$DIMBLK1
  1

  9
$DIMBLK2
  1

  9
$DIMSTYLE
  2
STANDARD
  9
$DIMCLRD
 70
     0
  9
$DIMCLRE
 70
     0
  9
$DIMCLRT
 70
     0
  9
$DIMTFAC
 40
1.0
  9
$DIMGAP
 40
0.09
  9
$DIMJUST
 70
     0
  9
$DIMSD1
 70
     0
  9
$DIMSD2
 70
     0
  9
$DIMTOLJ
 70
     1
  9
$DIMTZIN
 70
     4
  9
$DIMALTZ
 70
     0
  9
$DIMALTTZ
 70
     0
  9
$DIMFIT
 70
     3
  9
$DIMUPT
 70
     0
  9
$DIMUNIT
 70
     2
  9
$DIMDEC
 70
     2
  9
$DIMTDEC
 70
     2
  9
$DIMALTU
 70
     2
  9
$DIMALTTD
 70
     2
  9
$DIMTXSTY
  7
STANDARD
  9
$DIMAUNIT
 70
     0
  9
$LUNITS
 70
     2
  9
$LUPREC
 70
     4
  9
$SKETCHINC
 40
0.1
  9
$FILLETRAD
 40
0.0
  9
$AUNITS
 70
     0
  9
$AUPREC
 70
     0
  9
$MENU
  1
acad
  9
$ELEVATION
 40
0.0
  9
$PELEVATION
 40
0.0
  9
$THICKNESS
 40
0.0
  9
$LIMCHECK
 70
     0
  9
$BLIPMODE
 70
     0
  9
$CHAMFERA
 40
0.0
  9
$CHAMFERB
 40
0.0
  9
$CHAMFERC
 40
0.0
  9
$CHAMFERD
 40
0.0
  9
$SKPOLY
 70
     0
  9
$TDCREATE
 40
2453676.830066007
  9
$TDUPDATE
 40
2453685.551748159
  9
$TDINDWG
 40
0.0278781944
  9
$TDUSRTIMER
 40
0.0278781944
  9
$USRTIMER
 70
     1
  9
$ANGBASE
 50
0.0
  9
$ANGDIR
 70
     0
  9
$PDMODE
 70
     3
  9
$PDSIZE
 40
0.3125
  9
$PLINEWID
 40
0.0
  9
$COORDS
 70
     1
  9
$SPLFRAME
 70
     0
  9
$SPLINETYPE
 70
     6
  9
$SPLINESEGS
 70
     8
  9
$ATTDIA
 70
     0
  9
$ATTREQ
 70
     1
  9
$HANDLING
 70
 22529
  9
$HANDSEED
  5
707
  9
$SURFTAB1
 70
     6
  9
$SURFTAB2
 70
     6
  9
$SURFTYPE
 70
     6
  9
$SURFU
 70
     6
  9
$SURFV
 70
     6
  9
$UCSNAME
  2

  9
$UCSORG
 10
0.0
 20
0.0
 30
0.0
  9
$UCSXDIR
 10
1.0
 20
0.0
 30
0.0
  9
$UCSYDIR
 10
0.0
 20
1.0
 30
0.0
  9
$PUCSNAME
  2

  9
$PUCSORG
 10
0.0
 20
0.0
 30
0.0
  9
$PUCSXDIR
 10
1.0
 20
0.0
 30
0.0
  9
$PUCSYDIR
 10
0.0
 20
1.0
 30
0.0
  9
$USERI1
 70
     0
  9
$USERI2
 70
     0
  9
$USERI3
 70
     0
  9
$USERI4
 70
     0
  9
$USERI5
 70
     0
  9
$USERR1
 40
0.0
  9
$USERR2
 40
0.0
  9
$USERR3
 40
0.0
  9
$USERR4
 40
0.0
  9
$USERR5
 40
0.0
  9
$WORLDVIEW
 70
     1
  9
$SHADEDGE
 70
     3
  9
$SHADEDIF
 70
    70
  9
$TILEMODE
 70
     1
  9
$MAXACTVP
 70
    16
  9
$PINSBASE
 10
0.0
 20
0.0
 30
0.0
  9
$PLIMCHECK
 70
     0
  9
$PEXTMIN
 10
1.000000000000000E+20
 20
1.000000000000000E+20
 30
1.000000000000000E+20
  9
$PEXTMAX
 10
-1.000000000000000E+20
 20
-1.000000000000000E+20
 30
-1.000000000000000E+20
  9
$PLIMMIN
 10
0.0
 20
0.0
  9
$PLIMMAX
 10
12.0
 20
9.0
  9
$UNITMODE
 70
     0
  9
$VISRETAIN
 70
     0
  9
$PLINEGEN
 70
     1
  9
$PSLTSCALE
 70
     0
  9
$TREEDEPTH
 70
  3020
  9
$PICKSTYLE
 70
     1
  9
$CMLSTYLE
  2
STANDARD
  9
$CMLJUST
 70
     0
  9
$CMLSCALE
 40
1.0
  9
$PROXYGRAPHICS
 70
     0
  9
$MEASUREMENT
 70
     0
  0
ENDSEC
  0
SECTION
  2
CLASSES
  0
CLASS
  1
ACDBDICTIONARYWDFLT
  2
AcDbDictionaryWithDefault
  3
AutoCAD 2000
 90
        0
280
     0
281
     0
  0
CLASS
  1
ACDBPLACEHOLDER
  2
AcDbPlaceHolder
  3
AutoCAD 2000
 90
        0
280
     0
281
     0
  0
CLASS
  1
LAYOUT
  2
AcDbLayout
  3
AutoCAD 2000
 90
        0
280
     0
281
     0
  0
CLASS
  1
LWPOLYLINE
  2
AcDbPolyline
  3
AutoCAD 2000
 90
        0
280
     0
281
     1
  0
CLASS
  1
IMAGE
  2
AcDbRasterImage
  3
ISM
 90
      127
280
     1
281
     1
  0
CLASS
  1
OLE2FRAME
  2
AcDbOle2Frame
  3
AutoCAD 2000
 90
        0
280
     0
281
     1
  0
CLASS
  1
HATCH
  2
AcDbHatch
  3
AutoCAD 2000
 90
        0
280
     0
281
     1
  0
CLASS
  1
DICTIONARYVAR
  2
AcDbDictionaryVar
  3
AutoCAD 2000
 90
        0
280
     0
281
     0
  0
CLASS
  1
RASTERVARIABLES
  2
AcDbRasterVariables
  3
ISM
 90
        0
280
     1
281
     0
  0
CLASS
  1
IMAGEDEF
  2
AcDbRasterImageDef
  3
ISM
 90
        0
280
     1
281
     0
  0
CLASS
  1
IMAGEDEF_REACTOR
  2
AcDbRasterImageDefReactor
  3
ISM
 90
        1
280
     1
281
     0
  0
CLASS
  1
IDBUFFER
  2
AcDbIdBuffer
  3
AutoCAD 2000
 90
        0
280
     0
281
     0
  0
CLASS
  1
SPATIAL_FILTER
  2
AcDbSpatialFilter
  3
AutoCAD 2000
 90
        0
280
     0
281
     0
  0
CLASS
  1
XRECORD
  2
AcDbXrecord
  3
AutoCAD 2000
 90
        0
280
     0
281
     0
  0
CLASS
  1
SORTENTSTABLE
  2
AcDbSortentsTable
  3
AutoCAD 2000
 90
        0
280
     0
281
     0
  0
CLASS
  1
LAYER_INDEX
  2
AcDbLayerIndex
  3
AutoCAD 2000
 90
        0
280
     0
281
     0
  0
CLASS
  1
SPATIAL_INDEX
  2
AcDbSpatialIndex
  3
AutoCAD 2000
 90
        0
280
     0
281
     0
  0
CLASS
  1
OBJECT_PTR
  2
CAseDLPNTableRecord
  3
ASE-LPNTableRecord
 90
        1
280
     1
281
     0
  0
CLASS
  1
PLOTSETTINGS
  2
AcDbPlotSettings
  3
AutoCAD 2000
 90
        0
280
     0
281
     0
  0
CLASS
  1
VBA_PROJECT
  2
AcDbVbaProject
  3
acadvba
 90
        0
280
     0
281
     0
  0
CLASS
  1
WIPEOUT
  2
AcDbWipeout
  3
"WipeOut|Product Desc: Object Enabler for WipeOut entity^I^I^I^I^I^I|Company: Autodesk, Inc.^I^I^I^I^I^I|WEB Address: www.autodesk.com"
 90
      127
280
     1
281
     1
  0
CLASS
  1
WIPEOUTVARIABLES
  2
AcDbWipeoutVariables
  3
"WipeOut|Product Desc:     WipeOut Dbx Application|Company:          Autodesk, Inc.|WEB Address:      www.autodesk.com"
 90
        0
280
     1
281
     0
  0
CLASS
  1
RTEXT
  2
RText
  3
RText|AutoCAD Express Tool|expresstools@autodesk.com
 90
        0
280
     1
281
     1
  0
CLASS
  1
ARCALIGNEDTEXT
  2
AcDbArcAlignedText
  3
ATEXT|AutoCAD Express Tool|expresstools@autodesk.com
 90
        0
280
     1
281
     1
  0
CLASS
  1
TABLESTYLE
  2
AcDbTableStyle
  3
ObjectDBX Classes
 90
     2047
280
     0
281
     0
  0
CLASS
  1
ACAD_PROXY_OBJECT_WRAPPER
  2
AcDbProxyObjectWrapper
  3
AutoCAD 2000
 90
        0
280
     0
281
     0
  0
CLASS
  1
LONG_TRANSACTION
  2
AcDbLongTransaction
  3
AutoCAD 2000
 90
        0
280
     0
281
     0
  0
CLASS
  1
LWPOLYLINE
  2
AcDbPolyline
  3
AutoCAD 2000
 90
        0
280
     0
281
     1
  0
CLASS
  1
HATCH
  2
AcDbHatch
  3
AutoCAD 2000
 90
        0
280
     0
281
     1
  0
CLASS
  1
XRECORD
  2
AcDbXrecord
  3
AutoCAD 2000
 90
        0
280
     0
281
     0
  0
CLASS
  1
LONG_TRANSACTION
  2
AcDbLongTransaction
  3
AutoCAD 2000
 90
        0
280
     0
281
     0
  0
CLASS
  1
LWPOLYLINE
  2
AcDbPolyline
  3
AutoCAD 2000
 90
        0
280
     0
281
     1
  0
CLASS
  1
HATCH
  2
AcDbHatch
  3
AutoCAD 2000
 90
        0
280
     0
281
     1
  0
CLASS
  1
XRECORD
  2
AcDbXrecord
  3
AutoCAD 2000
 90
        0
280
     0
281
     0
  0
CLASS
  1
LONG_TRANSACTION
  2
AcDbLongTransaction
  3
AutoCAD 2000
 90
        0
280
     0
281
     0
  0
CLASS
  1
LWPOLYLINE
  2
AcDbPolyline
  3
AutoCAD 2000
 90
        0
280
     0
281
     1
  0
CLASS
  1
HATCH
  2
AcDbHatch
  3
AutoCAD 2000
 90
        0
280
     0
281
     1
  0
CLASS
  1
XRECORD
  2
AcDbXrecord
  3
AutoCAD 2000
 90
        0
280
     0
281
     0
  0
CLASS
  1
LONG_TRANSACTION
  2
AcDbLongTransaction
  3
AutoCAD 2000
 90
        0
280
     0
281
     0
  0
CLASS
  1
LWPOLYLINE
  2
AcDbPolyline
  3
AutoCAD 2000
 90
        0
280
     0
281
     1
  0
CLASS
  1
HATCH
  2
AcDbHatch
  3
AutoCAD 2000
 90
        0
280
     0
281
     1
  0
CLASS
  1
XRECORD
  2
AcDbXrecord
  3
AutoCAD 2000
 90
        0
280
     0
281
     0
  0
CLASS
  1
LONG_TRANSACTION
  2
AcDbLongTransaction
  3
AutoCAD 2000
 90
        0
280
     0
281
     0
  0
CLASS
  1
LWPOLYLINE
  2
AcDbPolyline
  3
AutoCAD 2000
 90
        0
280
     0
281
     1
  0
CLASS
  1
HATCH
  2
AcDbHatch
  3
AutoCAD 2000
 90
        0
280
     0
281
     1
  0
CLASS
  1
XRECORD
  2
AcDbXrecord
  3
AutoCAD 2000
 90
        0
280
     0
281
     0
  0
ENDSEC
  0
SECTION
  2
TABLES
  0
TABLE
  2
VPORT
  5
1E
330
0
100
AcDbSymbolTable
 70
     3
  0
VPORT
  5
6E3
330
1E
100
AcDbSymbolTableRecord
100
AcDbViewportTableRecord
  2
*ACTIVE
 70
     0
 10
0.0
 20
0.0
 11
1.0
 21
1.0
 12
11.3359252861624
 22
-0.9456753329125717
 13
0.0
 23
0.0
 14
1.0
 24
1.0
 15
0.0
 25
0.0
 16
0.0
 26
0.0
 36
1.0
 17
0.0
 27
0.0
 37
0.0
 40
28.96121215343268
 41
1.786792452830188
 42
50.0
 43
0.0
 44
0.0
 50
0.0
 51
0.0
 71
     0
 72
   100
 73
     1
 74
     1
 75
     0
 76
     0
 77
     0
 78
     0
  0
ENDTAB
  0
TABLE
  2
LTYPE
  5
19
330
0
100
AcDbSymbolTable
 70
     3
  0
LTYPE
  5
1A
330
19
100
AcDbSymbolTableRecord
100
AcDbLinetypeTableRecord
  2
BYBLOCK
 70
     0
  3

 72
    65
 73
     0
 40
0.0
  0
LTYPE
  5
1B
330
19
100
AcDbSymbolTableRecord
100
AcDbLinetypeTableRecord
  2
BYLAYER
 70
     0
  3

 72
    65
 73
     0
 40
0.0
  0
LTYPE
  5
8
330
19
100
AcDbSymbolTableRecord
100
AcDbLinetypeTableRecord
  2
CONTINUOUS
 70
     0
  3
Solid line
 72
    65
 73
     0
 40
0.0
  0
LTYPE
  5
BD
330
19
100
AcDbSymbolTableRecord
100
AcDbLinetypeTableRecord
  2
CENTER
 70
     0
  3
____ _ ____ _ ____ _ ____ _ ____ _ ____ _ ____
 72
    65
 73
     4
 40
0.6
 49
0.375
 74
     0
 49
-0.075
 74
     0
 49
0.075
 74
     0
 49
-0.075
 74
     0
  0
LTYPE
  5
1C2
330
19
100
AcDbSymbolTableRecord
100
AcDbLinetypeTableRecord
  2
HIDDEN
 70
     0
  3
Hidden __ __ __ __ __ __ __ __ __ __ __ __ __ _
 72
    65
 73
     2
 40
0.375
 49
0.25
 74
     0
 49
-0.125
 74
     0
  0
ENDTAB
  0
TABLE
  2
LAYER
  5
11
102
{ACAD_XDICTIONARY
360
12
102
}
330
0
100
AcDbSymbolTable
 70
     3
  0
LAYER
  5
6
330
11
100
AcDbSymbolTableRecord
100
AcDbLayerTableRecord
  2
0
 70
     0
 62
     7
  6
CONTINUOUS
  0
LAYER
  5
BC
330
11
100
AcDbSymbolTableRecord
100
AcDbLayerTableRecord
  2
CENTER
 70
     0
 62
     1
  6
CENTER
1001
ACAECLAYERSTANDARD
1000

1000

  0
LAYER
  5
1C4
330
11
100
AcDbSymbolTableRecord
100
AcDbLayerTableRecord
  2
DEFPOINTS
 70
     0
 62
     7
  6
CONTINUOUS
  0
ENDTAB
  0
TABLE
  2
STYLE
  5
16
330
0
100
AcDbSymbolTable
 70
     1
  0
STYLE
  5
17
330
16
100
AcDbSymbolTableRecord
100
AcDbTextStyleTableRecord
  2
STANDARD
 70
     0
 40
0.0
 41
0.8
 50
0.0
 71
     0
 42
0.2
  3
txt
  4

  0
ENDTAB
  0
TABLE
  2
VIEW
  5
1C
330
0
100
AcDbSymbolTable
 70
     0
  0
ENDTAB
  0
TABLE
  2
UCS
  5
1D
330
0
100
AcDbSymbolTable
 70
     0
  0
ENDTAB
  0
TABLE
  2
APPID
  5
20
330
0
100
AcDbSymbolTable
 70
     3
  0
APPID
  5
15
330
20
100
AcDbSymbolTableRecord
100
AcDbRegAppTableRecord
  2
ACAD
 70
     0
  0
APPID
  5
BE
330
20
100
AcDbSymbolTableRecord
100
AcDbRegAppTableRecord
  2
ACAECLAYERSTANDARD
 70
     0
  0
APPID
  5
1B2
330
20
100
AcDbSymbolTableRecord
100
AcDbRegAppTableRecord
  2
DCO15
 70
     0
  0
ENDTAB
  0
TABLE
  2
DIMSTYLE
  5
21
330
0
100
AcDbSymbolTable
 70
     2
  0
DIMSTYLE
105
27
330
21
100
AcDbSymbolTableRecord
100
AcDbDimStyleTableRecord
  2
STANDARD
 70
     0
  3

  4

  5
_FILLED
  6

  7

 40
1.0
 41
0.1875
 42
0.0625
 43
0.38
 44
0.18
 45
0.0
 46
0.0
 47
0.00001
 48
0.00001
140
0.125
141
0.09
142
0.0
143
25.4
144
1.0
145
0.0
146
1.0
147
0.09
 71
     0
 72
     0
 73
     1
 74
     1
 75
     0
 76
     0
 77
     0
 78
     4
170
     0
171
     2
172
     0
173
     0
174
     0
175
     0
176
     0
177
     0
178
     0
270
     2
271
     2
272
     2
273
     2
274
     2
340
17
275
     0
280
     0
281
     0
282
     0
283
     1
284
     4
285
     0
286
     0
287
     3
288
     0
  0
DIMSTYLE
105
22
330
21
100
AcDbSymbolTableRecord
100
AcDbDimStyleTableRecord
  2
DIMSTYLE_2
 70
     0
  3

  4

  5
_FILLED
  6

  7

 40
1.0
 41
0.1875
 42
0.0625
 43
0.38
 44
0.18
 45
0.0
 46
0.0
 47
0.0
 48
0.0
140
0.125
141
0.09
142
0.0
143
25.4
144
16.0
145
0.0
146
1.0
147
0.09
 71
     0
 72
     0
 73
     1
 74
     1
 75
     0
 76
     0
 77
     0
 78
     4
170
     0
171
     2
172
     0
173
     0
174
     0
175
     0
176
     0
177
     0
178
     0
270
     5
271
     4
272
     4
273
     2
274
     2
340
17
275
     0
280
     0
281
     0
282
     0
283
     1
284
     4
285
     0
286
     0
287
     3
288
     0
  0
ENDTAB
  0
TABLE
  2
BLOCK_RECORD
  5
1
330
0
100
AcDbSymbolTable
 70
     2
  0
BLOCK_RECORD
  5
2
102
{ACAD_XDICTIONARY
360
3
102
}
330
1
100
AcDbSymbolTableRecord
100
AcDbBlockTableRecord
  2
*MODEL_SPACE
  0
BLOCK_RECORD
  5
D
102
{ACAD_XDICTIONARY
360
211
102
}
330
1
100
AcDbSymbolTableRecord
100
AcDbBlockTableRecord
  2
*PAPER_SPACE
  0
BLOCK_RECORD
  5
23
330
1
100
AcDbSymbolTableRecord
100
AcDbBlockTableRecord
  2
_FILLED
  0
BLOCK_RECORD
  5
2E6
330
1
100
AcDbSymbolTableRecord
100
AcDbBlockTableRecord
  2
TMU-AMMA-OVAL-7242-PRO
1001
ACAD
1000
DesignCenter Data
1002
{
1070
     1
1070
     1
1002
}
  0
ENDTAB
  0
ENDSEC
  0
SECTION
  2
BLOCKS
  0
BLOCK
  5
5
330
2
100
AcDbEntity
  8
0
100
AcDbBlockBegin
  2
*MODEL_SPACE
 70
     0
 10
0.0
 20
0.0
 30
0.0
  3
*MODEL_SPACE
  1

  0
ENDBLK
  5
9
330
2
100
AcDbEntity
  8
0
100
AcDbBlockEnd
  0
BLOCK
  5
E
330
D
100
AcDbEntity
 67
     1
  8
0
100
AcDbBlockBegin
  2
*PAPER_SPACE
 70
     0
 10
0.0
 20
0.0
 30
0.0
  3
*PAPER_SPACE
  1

  0
ENDBLK
  5
F
330
D
100
AcDbEntity
 67
     1
  8
0
100
AcDbBlockEnd
  0
BLOCK
  5
24
330
23
100
AcDbEntity
  8
0
100
AcDbBlockBegin
  2
_FILLED
 70
     0
 10
0.0
 20
0.0
 30
0.0
  3
_FILLED
  1

  0
SOLID
  5
25
330
23
100
AcDbEntity
  8
0
  6
BYBLOCK
 62
     0
100
AcDbTrace
 10
0.0
 20
0.0
 30
0.0
 11
-1.0
 21
0.1666666667
 31
0.0
 12
-1.0
 22
-0.1666666667
 32
0.0
 13
-1.0
 23
-0.1666666667
 33
0.0
  0
ENDBLK
  5
26
330
23
100
AcDbEntity
  8
0
  6
BYBLOCK
 62
     0
100
AcDbBlockEnd
  0
BLOCK
  5
4C5
330
2E6
100
AcDbEntity
  8
0
100
AcDbBlockBegin
  2
TMU-AMMA-OVAL-7242-PRO
 70
     0
 10
0.0
 20
0.0
 30
0.0
  3
TMU-AMMA-OVAL-7242-PRO
  1

  0
LWPOLYLINE
  5
2E7
330
2E6
100
AcDbEntity
  8
0
100
AcDbPolyline
 90
      112
 70
     0
 43
0.0
 10
20.41749282239999
 20
11.4495609056
 10
20.46339506879999
 20
11.466740064
 10
20.50936790399998
 20
11.4840364144
 10
20.5553638128
 20
11.5014431184
 10
20.60134712799998
 20
11.518957664
 10
20.6472880224
 20
11.5365796032
 10
20.69315717919999
 20
11.554308536
 10
20.7389257664
 20
11.5721440672
 10
20.78456544159999
 20
11.5900857872
 10
20.8300483792
 20
11.6081332704
 10
20.8753472976
 20
11.6262860528
 10
20.9204354848
 20
11.6445436352
 10
20.9652868272
 20
11.66290548
 10
21.0098758416
 20
11.6813710128
 10
21.05417645759999
 20
11.6999390688
 10
21.0981627568
 20
11.7186080368
 10
21.14181230080001
 20
11.7373773024
 10
21.18510422879998
 20
11.7562465408
 10
21.22802447199998
 20
11.7752180528
 10
21.2705670352
 20
11.794297536
 10
21.31273862239999
 20
11.8134963408
 10
21.35452834879998
 20
11.8328178976
 10
21.39592386559999
 20
11.8522648688
 10
21.436913368
 20
11.871840064
 10
21.47748560479999
 20
11.8915464624
 10
21.51762988799998
 20
11.9113872416
 10
21.5573358144
 20
11.9313656672
 10
21.5965774752
 20
11.951476552
 10
21.63533726719998
 20
11.9717173376
 10
21.67360776320001
 20
11.9920901248
 10
21.711381936
 20
12.0125969568
 10
21.7486531376
 20
12.0332397952
 10
21.7854150752
 20
12.054020512
 10
21.82166178239998
 20
12.074940872
 10
21.8573875968
 20
12.0960025152
 10
21.8925871312
 20
12.1172069344
 10
21.92726450879999
 20
12.138561216
 10
21.9614776928
 20
12.1601069328
 10
21.9953019168
 20
12.1819003248
 10
22.0288819232
 20
12.2040488352
 10
22.06232091999999
 20
12.2266409408
 10
22.09568031040001
 20
12.2497439904
 10
22.12901609759998
 20
12.273427768
 10
22.1623789088
 20
12.2977648528
 10
22.1958139552
 20
12.322831
 10
22.22936096000001
 20
12.3487055536
 10
22.26305486559999
 20
12.3754725744
 10
22.29742029600001
 20
12.4036332224
 10
22.33371793759999
 20
12.4343899728
 10
22.37129243519999
 20
12.4674121984
 10
22.4090331904
 20
12.5018984576
 10
22.44591121600001
 20
12.5369894256
 10
22.4812687952
 20
12.5720479984
 10
22.51510248959999
 20
12.607014248
 10
22.54748178720001
 20
12.6418988576
 10
22.57847184639999
 20
12.6767109424
 10
22.6081343376
 20
12.7114587232
 10
22.6365318672
 20
12.7461549024
 10
22.6637542624
 20
12.780852088
 10
22.68989279679999
 20
12.8156163168
 10
22.71503322079999
 20
12.8505190192
 10
22.73921940479999
 20
12.8855840416
 10
22.76252813599998
 20
12.9208924208
 10
22.785101112
 20
12.956647008
 10
22.807030776
 20
12.9930054928
 10
22.82840200160001
 20
13.0301394048
 10
22.84925427199999
 20
13.0681649888
 10
22.86960279999999
 20
13.1071683344
 10
22.8893805456
 20
13.1470772592
 10
22.90854973119999
 20
13.1878617808
 10
22.92714956
 20
13.229653408
 10
22.94523277600001
 20
13.2726369792
 10
22.96286074080001
 20
13.3170511184
 10
22.98001811520001
 20
13.3629657248
 10
22.99660815359999
 20
13.4102105632
 10
23.01260246079999
 20
13.4587612688
 10
23.02802017120001
 20
13.5087212912
 10
23.04289916799999
 20
13.5602635216
 10
23.05719649439998
 20
13.6132740992
 10
23.07070041919999
 20
13.6668894336
 10
23.08314077599999
 20
13.7197174736
 10
23.0948839744
 20
13.7729721808
 10
23.10667362719999
 20
13.8301353648
 10
23.11871055360001
 20
13.8927767536
 10
23.13070456319999
 20
13.9600196
 10
23.14237290720001
 20
14.0306282176
 10
23.1534920448
 20
14.1032752896
 10
23.16407535839999
 20
14.1778777152
 10
23.17422583839999
 20
14.2550143088
 10
23.18401197759999
 20
14.3351396464
 10
23.19344598879999
 20
14.41829164
 10
23.20249958400001
 20
14.5040746016
 10
23.21113294400001
 20
14.5918255952
 10
23.21933793759999
 20
14.6810194992
 10
23.22717298879999
 20
14.771813136
 10
23.234677368
 20
14.8642022128
 10
23.24188879359999
 20
14.9581742352
 10
23.2488459088
 20
15.053741736
 10
23.25558793600001
 20
15.150946072
 10
23.2621713904
 20
15.2501515104
 10
23.26864021439999
 20
15.3516751072
 10
23.27503599519999
 20
15.4558731888
 10
23.28139477759998
 20
15.5630699392
 10
23.2877464416
 20
15.67352735840001
 10
23.29411711520001
 20
15.7874723136
 10
23.30052937919998
 20
15.9051172992
 10
23.3070015488
 20
16.026624392
 10
23.3135518448
 20
16.1521553168
 10
23.3201966368
 20
16.2818315552
 10
23.32694813919999
 20
16.415680088
 10
23.33381751359999
 20
16.5537104496
 10
23.34796299839999
 20
16.8425588144
  0
LWPOLYLINE
  5
2E8
330
2E6
100
AcDbEntity
  8
0
100
AcDbPolyline
 90
      115
 70
     0
 43
0.0
 10
-8.330446150400007
 20
16.5978076
 10
-8.323331227200014
 20
16.4543284192
 10
-8.316343582400008
 20
16.3152753568
 10
-8.309470801600014
 20
16.1806237072
 10
-8.3027018736
 20
16.0503925152
 10
-8.296019408000006
 20
15.9244622176
 10
-8.289403953600015
 20
15.8026660672
 10
-8.282834963200002
 20
15.6848174432
 10
-8.276289841600004
 20
15.570711688
 10
-8.26973938559999
 20
15.4600847248
 10
-8.263151596800014
 20
15.3526617728
 10
-8.2564874416
 20
15.248094256
 10
-8.249700873600005
 20
15.14598480640001
 10
-8.242745324800011
 20
15.0460079424
 10
-8.235557676799999
 20
14.9477441328
 10
-8.228086884800006
 20
14.8510533488
 10
-8.220290324800004
 20
14.7559435408
 10
-8.2121292912
 20
14.6624819664
 10
-8.203563400000007
 20
14.5707175696
 10
-8.194530747199991
 20
14.48051350880001
 10
-8.185037252800015
 20
14.3924119088
 10
-8.175112147199996
 20
14.3070074048
 10
-8.164777134399997
 20
14.2246730992
 10
-8.154042958399998
 20
14.145566528
 10
-8.142888128000009
 20
14.0695425072
 10
-8.131283472000006
 20
13.996407872
 10
-8.119369121600016
 20
13.9269292144
 10
-8.107435899199998
 20
13.8623983424
 10
-8.095677424000001
 20
13.8032268864
 10
-8.083841337600006
 20
13.7476164384
 10
-8.071513537599997
 20
13.6934610896
 10
-8.05842169600001
 20
13.6397042384
 10
-8.0446391392
 20
13.5868286768
 10
-8.030293406400005
 20
13.5353817232
 10
-8.015447025599996
 20
13.4855503248
 10
-8.000086129599992
 20
13.4372271024
 10
-7.98413810400001
 20
13.3901398016
 10
-7.967566652800002
 20
13.3441568176
 10
-7.950414967999989
 20
13.2993619488
 10
-7.932791478399991
 20
13.2559636208
 10
-7.914708206400007
 20
13.2138952192
 10
-7.896108379200001
 20
13.1729424656
 10
-7.876946152000016
 20
13.1329447504
 10
-7.857194414399998
 20
13.0937998576
 10
-7.836880280000002
 20
13.055516688
 10
-7.816075969600007
 20
13.0181769696
 10
-7.794783764800001
 20
12.9817268224
 10
-7.77298402400001
 20
12.946081144
 10
-7.750591283200009
 20
12.911063728
 10
-7.727489870400006
 20
12.8764796096
 10
-7.703531446400006
 20
12.8421187888
 10
-7.678617963199997
 20
12.8078725664
 10
-7.652692075200008
 20
12.7737027616
 10
-7.625669248000008
 20
12.7395454944
 10
-7.597436342400015
 20
12.705314112
 10
-7.567881883200016
 20
12.6709392192
 10
-7.537005031999996
 20
12.636485456
 10
-7.504866601600014
 20
12.6020738064
 10
-7.471536147199998
 20
12.5678160192
 10
-7.437092540799994
 20
12.5338153728
 10
-7.401622990399999
 20
12.5001660448
 10
-7.365264840000008
 20
12.4669908448
 10
-7.328642488000014
 20
12.4348119664
 10
-7.292614644800011
 20
12.404271336
 10
-7.258112443199991
 20
12.3759849456
 10
-7.225407388799993
 20
12.3499806528
 10
-7.192961787200005
 20
12.3249106448
 10
-7.160640076800007
 20
12.3006134384
 10
-7.128420534399992
 20
12.277025944
 10
-7.096276971200012
 20
12.2540876496
 10
-7.064178907200016
 20
12.2317404096
 10
-7.032091694400008
 20
12.209928232
 10
-6.999976590399995
 20
12.1885970688
 10
-6.967790456000017
 20
12.167694384
 10
-6.935478136
 20
12.1471643904
 10
-6.902980619200008
 20
12.1269535648
 10
-6.870181236799993
 20
12.1069772768
 10
-6.837005830400016
 20
12.0871818512
 10
-6.803394007999997
 20
12.0675254208
 10
-6.769305265599996
 20
12.047980304
 10
-6.734742188799998
 20
12.0285445936
 10
-6.699712518399991
 20
12.0092190128
 10
-6.664224569600008
 20
11.9900042032
 10
-6.628287263999993
 20
11.9709007392
 10
-6.591910147199996
 20
11.9519091472
 10
-6.555103414400008
 20
11.933029904
 10
-6.517884756800015
 20
11.9142667824
 10
-6.480282428799995
 20
11.8956274816
 10
-6.442310534400007
 20
11.8771117696
 10
-6.403983288000006
 20
11.8587192688
 10
-6.365315680000009
 20
11.8404497712
 10
-6.326323470400012
 20
11.8223032304
 10
-6.287023179199991
 20
11.804279736
 10
-6.247432078400009
 20
11.7863795072
 10
-6.20756605599999
 20
11.7686019408
 10
-6.167436673600008
 20
11.7509443744
 10
-6.127055264000006
 20
11.7334039968
 10
-6.086424812800004
 20
11.7159743232
 10
-6.045554470399991
 20
11.6986514976
 10
-6.004455163199992
 20
11.68143236
 10
-5.963140191999997
 20
11.6643146016
 10
-5.921622292800009
 20
11.6472954816
 10
-5.879913110399996
 20
11.6303717312
 10
-5.83802424640001
 20
11.613540016
 10
-5.79596724480001
 20
11.5967969248
 10
-5.753753564800007
 20
11.5801389584
 10
-5.711394577600003
 20
11.56356252
 10
-5.668901548799993
 20
11.547063912
 10
-5.62628561919999
 20
11.5306393248
 10
-5.583557804799994
 20
11.5142848384
 10
-5.540728982399997
 20
11.4979964112
 10
-5.497810254400008
 20
11.4817700208
 10
-5.454826740800001
 20
11.4656068304
 10
-5.411819551999997
 20
11.4495138032
 10
-5.325913878400001
 20
11.417570568
  0
LWPOLYLINE
  5
2E9
330
2E6
100
AcDbEntity
  8
0
  6
HIDDEN
100
AcDbPolyline
 90
       89
 70
     0
 43
0.0
 10
18.22878508319999
 20
1.932532438400002
 10
18.26588562239999
 20
2.362512612800003
 10
18.30133245760001
 20
2.775070112000001
 10
18.335479784
 20
3.1741772624
 10
18.36858981599999
 20
3.562763585600002
 10
18.400692136
 20
3.941033584000003
 10
18.43181795679998
 20
4.309137905600003
 10
18.4621897264
 20
4.669388908800002
 10
18.49216856480001
 20
5.025618262400001
 10
18.52224938879999
 20
5.383110220799999
 10
18.553127184
 20
5.749181408000005
 10
18.5860744544
 20
6.137195587200004
 10
18.6231220816
 20
6.567808283200001
 10
18.66652827199999
 20
7.061228998400004
 10
18.71448867199998
 20
7.589820960000004
 10
18.76082742720001
 20
8.0846348496
 10
18.80326575199998
 20
8.526486095999999
 10
18.8455400256
 20
8.845917638400003
 10
18.89218884639999
 20
9.318152918400002
 10
18.93910305919999
 20
9.796762556800004
 10
18.98133105279998
 20
10.2370383904
 10
19.0183981952
 20
10.635835528
 10
19.05051466879999
 20
10.9956491856
 10
19.0778667152
 20
11.317763192
 10
19.10084835359998
 20
11.6052390192
 10
19.1199284976
 20
11.8614688352
 10
19.1356336192
 20
12.0898728048
 10
19.14842851520001
 20
12.2935954176
 10
19.1587885664
 20
12.4755085712
 10
19.16861876159998
 20
12.638017744
 10
19.1806780304
 20
12.782921728
 10
19.1971807424
 20
12.9114063712
 10
19.2196662032
 20
13.0234296848
 10
19.24760608959999
 20
13.1192238528
 10
19.2796699344
 20
13.2004880048
 10
19.31517922079999
 20
13.2700046832
 10
19.35406527679998
 20
13.3304034768
 10
19.39658271519999
 20
13.383608624
 10
19.4428483888
 20
13.4306279856
 10
19.49306719680001
 20
13.472025904
 10
19.54870753439999
 20
13.5088372048
 10
19.612743168
 20
13.5422827872
 10
19.68840946239998
 20
13.57276228
 10
19.77765239199999
 20
13.5997908576
 10
19.8809588544
 20
13.6228602944
 10
19.99863442879998
 20
13.6420904512
 10
20.13099264639998
 20
13.6579319472
 10
20.27911841599999
 20
13.6708760992
 10
20.444828368
 20
13.681402296
 10
20.6307809232
 20
13.6900158896
 10
20.8427967904
 20
13.6974114528
 10
21.0763258192
 20
13.7044012352
 10
21.30368753440001
 20
13.7117323408
 10
21.5072298192
 20
13.7201112096
 10
21.68973844959998
 20
13.730345232
 10
21.8524857856
 20
13.7429554688
 10
21.9972530656
 20
13.7583573296
 10
22.1256440976
 20
13.7769731328
 10
22.2387028752
 20
13.7992990928
 10
22.3371499136
 20
13.8256036496
 10
22.42136689599999
 20
13.8555642992
 10
22.49211573919998
 20
13.8884126256
 10
22.5515550096
 20
13.9236598848
 10
22.60308106240001
 20
13.961997296
 10
22.64934653599999
 20
14.0047177472
 10
22.69174353599999
 20
14.053079912
 10
22.73098829599999
 20
14.108591712
 10
22.76773236319999
 20
14.1737289504
 10
22.80213320959998
 20
14.2515223648
 10
22.83341750720001
 20
14.3438045216
 10
22.86069702079998
 20
14.4512033264
 10
22.88367203039999
 20
14.5743872464
 10
22.902706832
 20
14.7139013536
 10
22.91855755680001
 20
14.8710290976
 10
22.932173024
 20
15.0475117824
 10
22.9447263984
 20
15.2453696656
 10
22.95764674879998
 20
15.4669960624
 10
22.97305958079999
 20
15.7161766752
 10
22.99346770880001
 20
15.997761152
 10
23.01823832479999
 20
16.2989929568
 10
23.04370228639999
 20
16.5841244336
 10
23.067633712
 20
16.8388565312
 10
23.08936728
 20
17.0633226048
 10
23.10879306559999
 20
17.2614715536
 10
23.12629761759998
 20
17.4408048688
 10
23.1429131152
 20
17.613057944
 10
23.1599032384
 20
17.7928567136
 10
23.177683656
 20
17.9874266464
 10
23.1956889216
 20
18.1925542384
  0
LWPOLYLINE
  5
2EA
330
2E6
100
AcDbEntity
  8
0
  6
HIDDEN
100
AcDbPolyline
 90
       85
 70
     0
 43
0.0
 10
-8.102506497600018
 20
17.273676848
 10
-8.0832401296
 20
17.077184152
 10
-8.061694595200009
 20
16.8549699984
 10
-8.037916857600009
 20
16.6025389968
 10
-8.012494732800007
 20
16.31909484
 10
-7.987615964799999
 20
16.0186499808
 10
-7.966860411200002
 20
15.735312704
 10
-7.951153524799991
 20
15.4838615312
 10
-7.938143819200007
 20
15.2605347664
 10
-7.925625315199994
 20
15.0611681808
 10
-7.912137998399998
 20
14.8833082224
 10
-7.896497568
 20
14.7249194288
 10
-7.877739387199994
 20
14.5842327712
 10
-7.855095817600016
 20
14.4599306208
 10
-7.82816300959999
 20
14.3514513888
 10
-7.797197019200012
 20
14.2581356928
 10
-7.763041555200004
 20
14.1793458128
 10
-7.726479846399996
 20
14.1133275712
 10
-7.687442441600012
 20
14.0571481888
 10
-7.645313425599994
 20
14.00828595040001
 10
-7.599396140799996
 20
13.9651757408
 10
-7.548356608000005
 20
13.9265392112
 10
-7.489641019200007
 20
13.8910776176
 10
-7.419948875199992
 20
13.8580664688
 10
-7.336968467199994
 20
13.8278883424
 10
-7.239842716800012
 20
13.8013084656
 10
-7.128149891199996
 20
13.7786833552
 10
-7.001172752000002
 20
13.7597917184
 10
-6.857965419200013
 20
13.7441490288
 10
-6.696946971199992
 20
13.7313258192
 10
-6.516418172800001
 20
13.720917968
 10
-6.314562960000017
 20
13.71239655200001
 10
-6.089262844800003
 20
13.7050143184
 10
-5.855531166399998
 20
13.6980387088
 10
-5.640842470400002
 20
13.6907046272
 10
-5.452719145600013
 20
13.6822226464
 10
-5.285515368000005
 20
13.67189476640001
 10
-5.135995174399994
 20
13.6591907328
 10
-5.002368611200012
 20
13.6436360352
 10
-4.883448121599997
 20
13.6247373744
 10
-4.778948439999993
 20
13.6020472992
 10
-4.688545150400017
 20
13.5754003552
 10
-4.611779550400001
 20
13.5452521568
 10
-4.546816809600016
 20
13.512100592
 10
-4.490514100799998
 20
13.4756363136
 10
-4.43985003680001
 20
13.4346966016
 10
-4.393235801600013
 20
13.38822216
 10
-4.350379639999999
 20
13.3356329376
 10
-4.311169419200012
 20
13.2759729408
 10
-4.275345588800007
 20
13.2073962592
 10
-4.242941188800017
 20
13.127337128
 10
-4.214579731199989
 20
13.0330260784
 10
-4.191543131200006
 20
12.9226391632
 10
-4.174529099200015
 20
12.7957095776
 10
-4.162137382400004
 20
12.6523681872
 10
-4.152204166399997
 20
12.491556176
 10
-4.142010724800002
 20
12.311527816
 10
-4.129467814400015
 20
12.1099759728
 10
-4.114053430399991
 20
11.8840046624
 10
-4.095310939200004
 20
11.6305187856
 10
-4.072716286400009
 20
11.3461155568
 10
-4.045789950400006
 20
11.0273668608
 10
-4.014137931199996
 20
10.6712399328
 10
-3.977534297600016
 20
10.276085536
 10
-3.935742432000012
 20
9.839248968000006
 10
-3.889228478400013
 20
9.363998067200007
 10
-3.84319398720001
 20
8.897990870400008
 10
-3.800784588800013
 20
8.577967750399999
 10
-3.758496625600002
 20
8.138793472000003
 10
-3.712684481600007
 20
7.651251019200003
 10
-3.664976788800004
 20
7.127559966399999
 10
-3.620779977599994
 20
6.626929792000005
 10
-3.582794329600005
 20
6.186391540800002
 10
-3.54945563199999
 20
5.794234857600002
 10
-3.518446230400002
 20
5.426800702400001
 10
-3.488338683199998
 20
5.069038576000004
 10
-3.458348748800005
 20
4.712635726400002
 10
-3.428039228800003
 20
4.353019100800004
 10
-3.397041488000013
 20
3.986281568000002
 10
-3.365072105600006
 20
3.609401558400001
 10
-3.332041011200004
 20
3.221549689600003
 10
-3.297981643200017
 20
2.823271865599998
 10
-3.262752456000015
 20
2.413039691200005
 10
-3.226029543999999
 20
1.987215384000002
 10
-3.187434379199999
 20
1.541552635199998
  0
LINE
  5
2EB
330
2E6
100
AcDbEntity
  8
CENTER
 48
4.0
100
AcDbLine
 10
0.0
 20
-1.932470170752189
 30
0.0
 11
0.0
 21
4.188362381702312
 31
0.0
  0
LINE
  5
2EC
330
2E6
100
AcDbEntity
  8
0
100
AcDbLine
 10
13.97477797920001
 20
1.913023600000002
 30
0.0
 11
11.9583363312
 21
1.914218948800005
 31
0.0
  0
LWPOLYLINE
  5
2ED
330
2E6
100
AcDbEntity
  8
0
100
AcDbPolyline
 90
       23
 70
     0
 43
0.0
 10
15.0817074768
 20
2.322815508800005
 10
14.99323705599999
 20
2.326579044799998
 10
14.8929357808
 20
2.330732051200001
 10
14.77832839839999
 20
2.335325851200003
 10
14.661711448
 20
2.3398315568
 10
14.55289367360001
 20
2.343877828800003
 10
14.4502159552
 20
2.347542436800004
 10
14.35223851039998
 20
2.350888455999999
 10
14.25772078239998
 20
2.353975236800003
 10
14.1658657872
 20
2.356844086400002
 10
14.0798614784
 20
2.359414956800002
 10
14.0033422976
 20
2.361610630400001
 10
13.93063839199999
 20
2.363620025599999
 10
13.85549257439999
 20
2.365623752000004
 10
13.7773059648
 20
2.367635721600002
 10
13.69594781119999
 20
2.369655683200001
 10
13.6110420384
 20
2.3716881936
 10
13.52218624319999
 20
2.373737447999999
 10
13.42885176799998
 20
2.3758092144
 10
13.3303386336
 20
2.3779111232
 10
13.22577277439998
 20
2.380052056000003
 10
13.11379123840001
 20
2.382247467200002
 10
12.9933708064
 20
2.3845021184
  0
ARC
  5
2EE
330
2E6
100
AcDbEntity
  8
0
100
AcDbCircle
 10
13.89155269279999
 20
0.5125000000000029
 30
0.0
 40
0.5
100
AcDbArc
 50
185.0000000010999
 51
270.0
  0
ARC
  5
2EF
330
2E6
100
AcDbEntity
  8
0
100
AcDbCircle
 10
13.04452941919999
 20
0.2930079712000051
 30
0.0
 40
0.3750000432
100
AcDbArc
 50
14.52761168809979
 51
92.67631441460011
  0
LWPOLYLINE
  5
2F0
330
2E6
100
AcDbEntity
  8
0
100
AcDbPolyline
 90
        6
 70
     0
 43
0.0
 10
13.00863666239999
 20
0.8294213584000047
 10
13.12051743679998
 20
0.8153529936000012
 10
13.22315188319999
 20
0.7686781535999998
 10
13.30725938879999
 20
0.6936173632000049
 10
13.36523462080001
 20
0.5969579152000009
 10
13.3918352272
 20
0.4874401376000037
  0
LWPOLYLINE
  5
2F1
330
2E6
100
AcDbEntity
  8
0
100
AcDbPolyline
 90
        5
 70
     0
 43
0.0
 10
13.00870949759999
 20
0.8107734656000005
 10
13.12094678400001
 20
0.7970908272000017
 10
13.22399552159998
 20
0.7506003632000003
 10
13.30848675839999
 20
0.6755288768000014
 10
13.366738744
 20
0.5787016976000033
  0
LINE
  5
2F2
330
2E6
100
AcDbEntity
  8
0
100
AcDbLine
 10
13.30247781759999
 20
0.862690630400003
 30
0.0
 11
13.38002235999999
 21
0.8650525167999987
 31
0.0
  0
LWPOLYLINE
  5
2F3
330
2E6
100
AcDbEntity
  8
0
100
AcDbPolyline
 90
       14
 70
     0
 43
0.0
 10
14.94764701759999
 20
0.8771360080000007
 10
14.88306817919999
 20
0.879492184
 10
14.7795493568
 20
0.8807511199999993
 10
14.63839082079999
 20
0.8809689791999986
 10
14.4612389296
 20
0.8801377839999986
 10
14.25469174080001
 20
0.8782373808000016
 10
14.03248162560001
 20
0.8753013056000042
 10
13.80834905599999
 20
0.8713559279999998
 10
13.5933873696
 20
0.8663619280000034
 10
13.3984366688
 20
0.8602861327999988
 10
13.2346364288
 20
0.8532290831999986
 10
13.11107802719999
 20
0.8454412287999986
 10
13.03440770559999
 20
0.8373146544000036
 10
13.00863668159999
 20
0.8294206496000029
  0
LWPOLYLINE
  5
2F4
330
2E6
100
AcDbEntity
  8
0
100
AcDbPolyline
 90
       12
 70
     0
 43
0.0
 10
14.9685511408
 20
0.8856457824000045
 10
14.8028011968
 20
0.8857108240000002
 10
14.59913730880001
 20
0.884670062400005
 10
14.36837610399999
 20
0.882680582399999
 10
14.12133639999999
 20
0.8798158848000028
 10
13.86884045759998
 20
0.8760539408000056
 10
13.6217608048
 20
0.8713290415999992
 10
13.39101887679999
 20
0.8655743935999993
 10
13.18753801759999
 20
0.858751686400005
 10
13.02223597759999
 20
0.8509411408000033
 10
12.90343751360001
 20
0.8423816048000034
 10
12.83226230400001
 20
0.8334465088000015
  0
LWPOLYLINE
  5
2F5
330
2E6
100
AcDbEntity
  8
0
100
AcDbPolyline
 90
       12
 70
     0
 43
0.0
 10
12.80693714879999
 20
0.8871020624000038
 10
12.83851599199999
 20
0.8972573727999986
 10
12.92795349759998
 20
0.9070902512000031
 10
13.07307855199999
 20
0.916203982399999
 10
13.26875909759999
 20
0.9242528944000056
 10
13.50468154559999
 20
0.9311163088
 10
13.76808064799999
 20
0.9367735472000049
 10
14.04741635679999
 20
0.9413086031999995
 10
14.32214409439998
 20
0.9446983232000008
 10
14.5761601968
 20
0.9469995904000043
 10
14.79189135519999
 20
0.9481688944000055
 10
14.96183101439999
 20
0.9481579776000046
  0
LINE
  5
2F6
330
2E6
100
AcDbEntity
  8
0
100
AcDbLine
 10
13.40109286239999
 20
0.4154428575999987
 30
0.0
 11
10.24097252959998
 21
0.4154428575999987
 31
0.0
  0
LINE
  5
2F7
330
2E6
100
AcDbEntity
  8
0
100
AcDbLine
 10
13.56270333919999
 20
0.0125000000000029
 30
0.0
 11
9.18855066079999
 21
0.0125000000000029
 31
0.0
  0
LWPOLYLINE
  5
2F8
330
2E6
100
AcDbEntity
  8
0
100
AcDbPolyline
 90
       21
 70
     0
 43
0.0
 10
8.881169593599992
 20
4.698235262400004
 10
8.847180767999986
 20
4.895385505600003
 10
8.808140115199989
 20
5.116036652800005
 10
8.7644065904
 20
5.3604786048
 10
8.716510676799998
 20
5.631188236799999
 10
8.665392411200002
 20
5.9297165376
 10
8.612891311999987
 20
6.252558
 10
8.561126625599996
 20
6.593402251200004
 10
8.507287833600003
 20
6.974707459200004
 10
8.450848238399998
 20
7.403825142400002
 10
8.391708092800001
 20
7.887373947200003
 10
8.330067636800009
 20
8.432292009600004
 10
8.267220305600005
 20
8.924039444800001
 10
8.209536483199997
 20
9.528910163200002
 10
8.161417396800004
 20
10.076975944
 10
8.121739868800005
 20
10.5642110304
 10
8.088490025600009
 20
11.0020246784
 10
8.060595247999998
 20
11.3946597952
 10
8.036796879999997
 20
11.7481347344
 10
8.016107779200012
 20
12.067210616
 10
7.981314784000005
 20
12.61440684
  0
LWPOLYLINE
  5
2F9
330
2E6
100
AcDbEntity
  8
0
100
AcDbPolyline
 90
       20
 70
     0
 43
0.0
 10
6.133761870400007
 20
4.698235262400004
 10
6.167750696000013
 20
4.895385505600003
 10
6.20679134720001
 20
5.116036652800005
 10
6.250524873599999
 20
5.3604786048
 10
6.298420787200001
 20
5.631188236799999
 10
6.349539052799997
 20
5.9297165376
 10
6.402040152000012
 20
6.252558
 10
6.453804838400003
 20
6.593402251200004
 10
6.507643630399996
 20
6.974707459200004
 10
6.564083224
 20
7.403825142400002
 10
6.623223371199998
 20
7.887373947200003
 10
6.68486382559999
 20
8.432292009600004
 10
6.747711158399994
 20
8.924039444800001
 10
6.805394980800002
 20
9.528910163200002
 10
6.853514067199995
 20
10.076975944
 10
6.893191595199994
 20
10.5642110304
 10
6.92644143839999
 20
11.0020246784
 10
6.954336216000001
 20
11.3946597952
 10
6.978134584000002
 20
11.7481347344
 10
6.998823684799987
 20
12.067210616
  0
LWPOLYLINE
  5
2FA
330
2E6
100
AcDbEntity
  8
0
100
AcDbPolyline
 90
       36
 70
     0
 43
0.0
 10
6.280135931199993
 20
14.0231281488
 10
6.266533670400008
 20
13.8421382576
 10
6.250448529599992
 20
13.6442553008
 10
6.230943139200007
 20
13.427309008
 10
6.206939769600012
 20
13.188638752
 10
6.177360833600005
 20
12.9246106144
 10
6.140977128000002
 20
12.63040676
 10
6.096361388800005
 20
12.3023063072
 10
6.042067134399985
 20
11.938331704
 10
5.980132518400012
 20
11.5575458352
 10
5.9141245088
 20
11.1828560752
 10
5.84560952320001
 20
10.8201627248
 10
5.774097971200006
 20
10.463887704
 10
5.696312905599995
 20
10.0983861024
 10
5.606729196799989
 20
9.700903144000001
 10
5.500196047999992
 20
9.254496945600003
 10
5.383921059199991
 20
8.795783163200006
 10
5.267077137600011
 20
8.4722334048
 10
5.155910478399988
 20
8.078383000000002
 10
5.051764910400009
 20
7.726470516799999
 10
4.953386049599998
 20
7.407594950400003
 10
4.859937958399996
 20
7.115804316800002
 10
4.771417070399991
 20
6.848576051200005
 10
4.687787187200001
 20
6.603248585599999
 10
4.609315592000001
 20
6.378593888000004
 10
4.536317475200007
 20
6.173976936000002
 10
4.468985449600012
 20
5.988562448000003
 10
4.40711953600001
 20
5.820673568000003
 10
4.34987309600001
 20
5.667188387199999
 10
4.295835484799994
 20
5.523778395200004
 10
4.243488232000004
 20
5.386112542399999
 10
4.191192432000008
 20
5.250186177599999
 10
4.138075996800012
 20
5.114348676799998
 10
4.083840542399997
 20
4.978509643199998
 10
4.028444179199993
 20
4.843241894400001
 10
3.971807585600004
 20
4.7089855424
  0
LWPOLYLINE
  5
2FB
330
2E6
100
AcDbEntity
  8
0
100
AcDbPolyline
 90
       37
 70
     0
 43
0.0
 10
8.711730590400009
 20
14.341603672
 10
8.734796574400007
 20
14.02312836160001
 10
8.748398863999995
 20
13.8421390448
 10
8.76448400480001
 20
13.6442569088
 10
8.78398933919999
 20
13.4273105744
 10
8.807992625600007
 20
13.1886398528
 10
8.837571470400007
 20
12.924611944
 10
8.8739550624
 20
12.6304081616
 10
8.918570662399986
 20
12.3023074272
 10
8.97286473279999
 20
11.9383329776
 10
9.034799110400001
 20
11.5575471072
 10
9.100806942399998
 20
11.1828566048
 10
9.169321623999991
 20
10.8201657424
 10
9.240833436799988
 20
10.4638821664
 10
9.318618447999995
 20
10.0983867328
 10
9.408202227200007
 20
9.700903024000005
 10
9.514735425600008
 20
9.254498443200006
 10
9.631010275199997
 20
8.795790320000001
 10
9.747854246400009
 20
8.472231820800004
 10
9.859020998400012
 20
8.0783816016
 10
9.963166387200004
 20
7.726469751999999
 10
10.06154517760001
 20
7.407594160000002
 10
10.1549931808
 20
7.115803516799999
 10
10.243513992
 20
6.848575128
 10
10.32714375520001
 20
6.603247903999999
 10
10.405615248
 20
6.378594087999999
 10
10.478613448
 20
6.173976276800004
 10
10.5459455264
 20
5.988561484800001
 10
10.607811376
 20
5.8206729312
 10
10.66505794560001
 20
5.667187705599999
 10
10.7190956432
 20
5.523777683200002
 10
10.77144290399999
 20
5.386111987200003
 10
10.8237388272
 20
5.250185782400002
 10
10.8768553328
 20
5.114348043200003
 10
10.9310909552
 20
4.978509217599999
 10
10.98648717279999
 20
4.843242075200002
 10
11.04312387839999
 20
4.7089855424
  0
LINE
  5
2FC
330
2E6
100
AcDbEntity
  8
0
100
AcDbLine
 10
-4.874143638399999
 20
7.1376260368
 30
0.0
 11
-4.8769700016
 21
6.630342496000004
 31
0.0
  0
LWPOLYLINE
  5
2FD
330
2E6
100
AcDbEntity
  8
0
100
AcDbPolyline
 90
       25
 70
     0
 43
0.0
 10
2.0215642048
 20
2.384502838400003
 10
1.901141132800006
 20
2.382248171200004
 10
1.789163334400001
 20
2.380052863999999
 10
1.684601203200003
 20
2.377912040000005
 10
1.586091140799993
 20
2.375810230399999
 10
1.492756708799987
 20
2.373738499200001
 10
1.403901673599989
 20
2.371689299199999
 10
1.319000411199994
 20
2.369656931200005
 10
1.237649356800005
 20
2.367637171200001
 10
1.159469707200003
 20
2.365625398399998
 10
1.0843201104
 20
2.3636215872
 10
1.011613716799985
 20
2.361612140800005
 10
0.9350839392000125
 20
2.359416195200005
 10
0.8491200592000041
 20
2.356846614400005
 10
0.7573017551999897
 20
2.3539790592
 10
0.6627846336000119
 20
2.350892468800005
 10
0.5648132736000094
 20
2.347546843199999
 10
0.4621454736000033
 20
2.343882793600002
 10
0.3533554432000017
 20
2.339837784000003
 10
0.236629361599995
 20
2.335328035199999
 10
0.1218409583999858
 20
2.330726948799998
 10
0.0215649504000055
 20
2.326574868800001
 10
-0.0668936223999879
 20
2.32281176
 10
-0.148373966399987
 20
2.319270451200004
 10
-0.3140182879999998
 20
2.311881832000004
  0
LINE
  5
2FE
330
2E6
100
AcDbEntity
  8
0
100
AcDbLine
 10
-0.4236028928000053
 20
1.9119267712
 30
0.0
 11
1.821830681600005
 21
1.913531633600001
 31
0.0
  0
LINE
  5
2FF
330
2E6
100
AcDbEntity
  8
0
100
AcDbLine
 10
1.27891234079999
 20
0.0
 30
0.0
 11
-1.26398087679999
 21
0.0
 31
0.0
  0
LWPOLYLINE
  5
300
330
2E6
100
AcDbEntity
  8
0
100
AcDbPolyline
 90
       34
 70
     0
 43
0.0
 10
-1.931944950400009
 20
0.5074330464000028
 10
-1.905498671999993
 20
0.5044219072000047
 10
-1.872757721600009
 20
0.5008939536000057
 10
-1.834403079999987
 20
0.4970263968000026
 10
-1.791112342399998
 20
0.4929857632000037
 10
-1.743430544000005
 20
0.488913592000003
 10
-1.691686737600008
 20
0.4849231296000056
 10
-1.636121259199995
 20
0.4811143664
 10
-1.576865534400013
 20
0.477574832000002
 10
-1.513943011200012
 20
0.4743828655999991
 10
-1.447295092800004
 20
0.4716120016000005
 10
-1.376659857600003
 20
0.4693300592000043
 10
-1.301800942400006
 20
0.4676109440000005
 10
-1.222318438400009
 20
0.4665287167999992
 10
-1.13779018720001
 20
0.4661630016000018
 10
-1.047739099199986
 20
0.4665957152000005
 10
-0.9515893296000115
 20
0.4679087264000046
 10
-0.8489551680000033
 20
0.4701689872000046
 10
-0.7392936287999988
 20
0.4733995312000019
 10
-0.621975241600012
 20
0.4775572783999991
 10
-0.4984628608000037
 20
0.4824305855999996
 10
-0.3721318832000122
 20
0.4876185327999992
 10
-0.2466899023999929
 20
0.4926489792000055
 10
-0.1224963823999872
 20
0.4972048816000055
 10
0.0
 20
0.5010105328000023
 10
0.1222260399999868
 20
0.5039278912000001
 10
0.2449921104000055
 20
0.5060044575999996
 10
0.3682239695999954
 20
0.5073579455999991
 10
0.4911964384000101
 20
0.5080825775999998
 10
0.6132432047999999
 20
0.5082763103999995
 10
0.7336859760000039
 20
0.5080350048
 10
0.8518723599999873
 20
0.5074518288000008
 10
0.9670655056000043
 20
0.5066170063999991
 10
1.078663796799986
 20
0.5056169759999989
  0
LWPOLYLINE
  5
301
330
2E6
100
AcDbEntity
  8
0
100
AcDbPolyline
 90
       30
 70
     0
 43
0.0
 10
-4.866440320000009
 20
4.031764644799999
 10
-4.857740459200016
 20
3.877107251200001
 10
-4.834369712000011
 20
3.704459686399999
 10
-4.79663982080001
 20
3.534269880000003
 10
-4.744861103999994
 20
3.368147011200001
 10
-4.679815868800005
 20
3.208135480000002
 10
-4.602479558400005
 20
3.055766942400005
 10
-4.514384547199995
 20
2.9127781408
 10
-4.417718961600002
 20
2.781063712000005
 10
-4.315265040000014
 20
2.662171657600005
 10
-4.209997302400012
 20
2.557002950400004
 10
-4.104197737600003
 20
2.465217073600001
 10
-3.99921144320001
 20
2.385594044800001
 10
-3.896007068800003
 20
2.316879784000001
 10
-3.795041774400004
 20
2.257712023999999
 10
-3.69662439679999
 20
2.2068800256
 10
-3.600659664000005
 20
2.163196747200004
 10
-3.507830964800007
 20
2.125971833600004
 10
-3.418070145600012
 20
2.094245704000002
 10
-3.331726716800005
 20
2.067307988800003
 10
-3.248432436800015
 20
2.044316548800004
 10
-3.167313860799993
 20
2.0244524768
 10
-3.087292896000008
 20
2.007020367999999
 10
-3.007122947200002
 20
1.991444769600001
 10
-2.926361769599992
 20
1.977412657599998
 10
-2.849003960000004
 20
1.965230001600005
 10
-2.775632412800007
 20
1.954463222400001
 10
-2.705487331200004
 20
1.944594438400002
 10
-2.639045027200012
 20
1.935391857600002
 10
-2.578687977599997
 20
1.926964534399999
  0
LINE
  5
302
330
2E6
100
AcDbEntity
  8
0
100
AcDbLine
 10
-1.52914591999999
 20
0.1098349568000003
 30
0.0
 11
-1.89552591360001
 21
0.4762149503999993
 31
0.0
  0
ARC
  5
303
330
2E6
100
AcDbEntity
  8
0
100
AcDbCircle
 10
-1.26398087679999
 20
0.375
 30
0.0
 40
0.375
100
AcDbArc
 50
225.0
 51
270.0
  0
LWPOLYLINE
  5
304
330
2E6
100
AcDbEntity
  8
0
100
AcDbPolyline
 90
        5
 70
     0
 43
0.0
 10
-2.380596817600007
 20
0.5767924896000026
 10
-2.291719707200002
 20
0.5612905472000023
 10
-2.194008150400009
 20
0.5451396400000022
 10
-2.086319422400009
 20
0.528506500799999
 10
-1.967357171200006
 20
0.5117237056000051
  0
LWPOLYLINE
  5
305
330
2E6
100
AcDbEntity
  8
0
100
AcDbPolyline
 90
       48
 70
     0
 43
0.0
 10
-0.3140182879999998
 20
2.311881832000004
 10
-0.4046529647999933
 20
2.307734150400001
 10
-0.5014239056000065
 20
2.303219062400003
 10
-0.6054342863999978
 20
2.298257921600004
 10
-0.71879865599999
 20
2.292708528000005
 10
-0.8421273600000063
 20
2.286481700800003
 10
-0.965503036799987
 20
2.280030539200005
 10
-1.082648265599999
 20
2.273676035200004
 10
-1.195505702399998
 20
2.267319492799998
 10
-1.303923271999991
 20
2.260975112000004
 10
-1.407713062400006
 20
2.254662388799999
 10
-1.506796388800012
 20
2.248395280000003
 10
-1.601394988799995
 20
2.242167556800005
 10
-1.691996164800002
 20
2.235952398400002
 10
-1.778832478400005
 20
2.229736815999999
 10
-1.861964432000007
 20
2.223519644799999
 10
-1.941482393600011
 20
2.217297028800004
 10
-2.017502185599994
 20
2.211061528000001
 10
-2.09007874880001
 20
2.204808979200002
 10
-2.159141705600006
 20
2.198545209599998
 10
-2.224766110399997
 20
2.192262427199999
 10
-2.287164683199989
 20
2.1859375728
 10
-2.34648658879999
 20
2.179549470400004
 10
-2.402838464000012
 20
2.173076200000004
 10
-2.465710964799995
 20
2.166494140800004
 10
-2.516720327999991
 20
2.159738966399999
 10
-2.565682268800003
 20
2.152718747200005
 10
-2.612445280000002
 20
2.145410820800002
 10
-2.656671864000003
 20
2.137821984000005
 10
-2.698035379200007
 20
2.129960251200003
 10
-2.736287203199992
 20
2.121817366400001
 10
-2.771367987199994
 20
2.113333795199999
 10
-2.80301287360001
 20
2.104472113600003
 10
-2.830736651199998
 20
2.0952465648
 10
-2.854085777600005
 20
2.085677652800001
 10
-2.872664596800007
 20
2.075784686399998
 10
-2.88602260639999
 20
2.065617022400004
 10
-2.893757385599997
 20
2.055208192000002
 10
-2.895530616000002
 20
2.044594158400002
 10
-2.891073887999993
 20
2.033841336000001
 10
-2.880144120000011
 20
2.023009944000001
 10
-2.862603651200004
 20
2.0121715824
 10
-2.838502963199999
 20
2.001417844800002
 10
-2.807961361600007
 20
1.990823945599998
 10
-2.771095707200004
 20
1.980437196800004
 10
-2.728204209599994
 20
1.970327244800003
 10
-2.679511654400016
 20
1.960519681600004
 10
-2.621800307200004
 20
1.950450000000003
  0
LINE
  5
306
330
2E6
100
AcDbEntity
  8
0
100
AcDbLine
 10
-2.339090843200011
 20
1.910229089600001
 30
0.0
 11
-0.4236028928000053
 21
1.9119267712
 31
0.0
  0
LWPOLYLINE
  5
307
330
2E6
100
AcDbEntity
  8
0
100
AcDbPolyline
 90
       45
 70
     0
 43
0.0
 10
-2.339091179200011
 20
1.910229092800001
 10
-2.348437961600012
 20
1.909741014400005
 10
-2.357752313600002
 20
1.908886027200004
 10
-2.36703503679999
 20
1.907675791999999
 10
-2.376276489600002
 20
1.906119406400001
 10
-2.385466403200013
 20
1.904223291200004
 10
-2.394593843199999
 20
1.901991227199999
 10
-2.403646822399991
 20
1.899424462399998
 10
-2.412612147200007
 20
1.896521744000004
 10
-2.42147494400001
 20
1.893279398400004
 10
-2.430218425600003
 20
1.889691272
 10
-2.438824284800006
 20
1.885748590399998
 10
-2.456721075199993
 20
1.881463459199999
 10
-2.465173729599996
 20
1.8768495216
 10
-2.473546254399991
 20
1.871906265600003
 10
-2.481819259199994
 20
1.866631692799998
 10
-2.489971647999993
 20
1.861022331200004
 10
-2.4979884448
 20
1.855076756800002
 10
-2.505875980799999
 20
1.848806588800002
 10
-2.513595793599989
 20
1.842224259200001
 10
-2.521109924800015
 20
1.835339078400004
 10
-2.528391036800002
 20
1.828151332800004
 10
-2.53541133920001
 20
1.820662099199999
 10
-2.542189336000006
 20
1.812893683200002
 10
-2.54872249600001
 20
1.804861569599999
 10
-2.554980456000009
 20
1.7965674832
 10
-2.560934382400006
 20
1.788012566399999
 10
-2.566556560000009
 20
1.779198521600001
 10
-2.571838265600007
 20
1.770137036800001
 10
-2.576808772800006
 20
1.760860608000001
 10
-2.581438320000017
 20
1.751370644800005
 10
-2.585695198400003
 20
1.741666903999998
 10
-2.589551606399993
 20
1.731751382399998
 10
-2.592986609599989
 20
1.721629608
 10
-2.596039968000013
 20
1.711334406399998
 10
-2.598710318400009
 20
1.700878417600002
 10
-2.600962376000012
 20
1.6902604992
 10
-2.602770238400012
 20
1.679484892800005
 10
-2.604121054399996
 20
1.668561824000001
 10
-2.605029009600002
 20
1.657507884800004
 10
-2.605526048000001
 20
1.646357483199999
 10
-2.605585198400007
 20
1.635151707200002
 10
-2.605193771199992
 20
1.623886753600004
 10
-2.60435445760001
 20
1.612541820800004
 10
-2.603084606400017
 20
1.601102340800004
  0
LWPOLYLINE
  5
308
330
2E6
100
AcDbEntity
  8
0
100
AcDbPolyline
 90
        3
 70
     0
 43
0.0
 10
-2.339091179200011
 20
1.910229092800001
 10
-2.466720371200011
 20
1.914886712000004
 10
-2.578691387199995
 20
1.926940214400005
  0
LWPOLYLINE
  5
309
330
2E6
100
AcDbEntity
  8
0
100
AcDbPolyline
 90
        4
 70
     0
 43
0.0
 10
-2.621800307200004
 20
1.950450000000003
 10
-2.548119425599992
 20
1.938997198400002
 10
-2.455758028800005
 20
1.925604912000004
 10
-2.339091164800009
 20
1.910229094400001
  0
LWPOLYLINE
  5
30A
330
2E6
100
AcDbEntity
  8
0
100
AcDbPolyline
 90
        6
 70
     0
 43
0.0
 10
-3.677568953600001
 20
2.198205961600002
 10
-3.676297795200014
 20
2.189404624000005
 10
-3.661462636799996
 20
2.077954508800004
 10
-3.647060519999996
 20
1.960375212800002
 10
-3.633319505600013
 20
1.838287843199999
 10
-3.622230220799991
 20
1.731451361600001
  0
LINE
  5
30B
330
2E6
100
AcDbEntity
  8
0
100
AcDbLine
 10
-3.622198287999992
 20
1.731527599999999
 30
0.0
 11
-3.599431297600006
 21
1.502335536000003
 31
0.0
  0
LWPOLYLINE
  5
30C
330
2E6
100
AcDbEntity
  8
0
100
AcDbPolyline
 90
       14
 70
     0
 43
0.0
 10
-2.895217991999999
 20
0.7277294064000018
 10
-2.854148760000015
 20
0.7208215023999998
 10
-2.820543745599991
 20
0.714139846400002
 10
-2.795026593599999
 20
0.7082564800000029
 10
-2.7797334384
 20
0.7042169216000005
 10
-2.775452744000006
 20
0.7029384208000025
 10
-2.774868518400012
 20
0.7027304096000009
 10
-2.7729612352
 20
0.701978110399999
 10
-2.765454244799997
 20
0.6987883536000013
 10
-2.745790499200012
 20
0.6901991552000056
 10
-2.710459688000014
 20
0.6750212480000002
 10
-2.667482196799994
 20
0.657530707200003
 10
-2.616124803199994
 20
0.6382366480000031
 10
-2.558912721599995
 20
0.6190123008000015
  0
LWPOLYLINE
  5
30D
330
2E6
100
AcDbEntity
  8
0
100
AcDbPolyline
 90
       17
 70
     0
 43
0.0
 10
-2.893410886400005
 20
0.7275930095999997
 10
-2.85223273279999
 20
0.7206710192000046
 10
-2.818674891200004
 20
0.7139966160000029
 10
-2.793334363200017
 20
0.7081479376000033
 10
-2.778308393600013
 20
0.7041733776000001
 10
-2.774370446400013
 20
0.7029983664000028
 10
-2.774234308800004
 20
0.7029481024000006
 10
-2.772788192000007
 20
0.7023744688000022
 10
-2.7658287008
 20
0.6994042880000038
 10
-2.746775920000004
 20
0.6910402944000041
 10
-2.712004422400013
 20
0.6760095344000021
 10
-2.669460819199997
 20
0.6585694000000047
 10
-2.618578108799994
 20
0.6392927568000033
 10
-2.561538143999996
 20
0.6199449600000051
 10
-2.505345726400008
 20
0.6032693711999997
 10
-2.453685665600005
 20
0.5900771551999995
 10
-2.401850436800003
 20
0.5808485471999987
  0
LINE
  5
30E
330
2E6
100
AcDbEntity
  8
0
100
AcDbLine
 10
-2.941583624000003
 20
0.7341181936000041
 30
0.0
 11
-2.895217991999999
 21
0.7277294064000018
 31
0.0
  0
LINE
  5
30F
330
2E6
100
AcDbEntity
  8
0
100
AcDbLine
 10
-2.940218212800004
 20
0.7340265664000043
 30
0.0
 11
-2.893410886400005
 21
0.7275930095999997
 31
0.0
  0
LINE
  5
310
330
2E6
100
AcDbEntity
  8
0
100
AcDbLine
 10
-2.948221420799995
 20
0.7350289184000048
 30
0.0
 11
-2.941610208000014
 21
0.7341214688000051
 31
0.0
  0
LINE
  5
311
330
2E6
100
AcDbEntity
  8
0
100
AcDbLine
 10
-2.949777590400003
 20
0.7351490128000009
 30
0.0
 11
-2.941610195200013
 21
0.7341214688000051
 31
0.0
  0
LINE
  5
312
330
2E6
100
AcDbEntity
  8
0
100
AcDbLine
 10
-2.940264297600009
 20
0.7340322224000034
 30
0.0
 11
-2.940218225600006
 21
0.7340265680000045
 31
0.0
  0
LINE
  5
313
330
2E6
100
AcDbEntity
  8
0
100
AcDbLine
 10
-2.940218225600006
 20
0.7340265680000045
 30
0.0
 11
-2.892260062399998
 21
0.7298477008000006
 31
0.0
  0
LWPOLYLINE
  5
314
330
2E6
100
AcDbEntity
  8
0
100
AcDbPolyline
 90
       14
 70
     0
 43
0.0
 10
-2.590385105600006
 20
1.254198180800003
 10
-2.584891865600013
 20
1.191694171200005
 10
-2.576821241600015
 20
1.131027412800001
 10
-2.566258438400012
 20
1.072834683199999
 10
-2.553313710400004
 20
1.017724017600002
 10
-2.538123894400001
 20
0.966279710400002
 10
-2.520850588800016
 20
0.9190483968000009
 10
-2.501675035200008
 20
0.8765248879999987
 10
-2.480798486400004
 20
0.8391563216000008
 10
-2.458442998400016
 20
0.8073403984000009
 10
-2.425462950400003
 20
0.7814127295999996
 10
-2.400869152000012
 20
0.761644000000004
 10
-2.375539099200011
 20
0.7482438400000007
 10
-2.349740526400012
 20
0.7413544224000006
  0
LWPOLYLINE
  5
315
330
2E6
100
AcDbEntity
  8
0
100
AcDbPolyline
 90
       32
 70
     0
 43
0.0
 10
-3.587081220800001
 20
1.377393790399999
 10
-3.583557292800009
 20
1.347933404800002
 10
-3.574642470399993
 20
1.297510331200001
 10
-3.56248707680001
 20
1.248875923200003
 10
-3.547367841599992
 20
1.202228857600005
 10
-3.529554595200011
 20
1.157737516800004
 10
-3.509310710400001
 20
1.1155391104
 10
-3.486919420800006
 20
1.0757227904
 10
-3.462679479999991
 20
1.038346361600005
 10
-3.436872214400011
 20
1.003445078399998
 10
-3.409760183999992
 20
0.9710332448000045
 10
-3.381587729599999
 20
0.9411063184000028
 10
-3.352585843200017
 20
0.9136435776000055
 10
-3.323016820800006
 20
0.8886150591999992
 10
-3.293157705600009
 20
0.8659740752000004
 10
-3.263268032000013
 20
0.8456526960000019
 10
-3.233568494400003
 20
0.8275526576000018
 10
-3.204251489600011
 20
0.8115594656000055
 10
-3.175475692800006
 20
0.7975437312000011
 10
-3.147381064000001
 20
0.7853716304000003
 10
-3.12017536639999
 20
0.7749279888000018
 10
-3.094183433599994
 20
0.7661168592000039
 10
-3.06972791679999
 20
0.7588171008000018
 10
-3.047278900799994
 20
0.7529246512000043
 10
-3.027282831999997
 20
0.7482998159999994
 10
-3.009924692800012
 20
0.7447395984000025
 10
-2.994970899200012
 20
0.7419925120000031
 10
-2.981905254400004
 20
0.7398177904000037
 10
-2.970139788799997
 20
0.7380232272000029
 10
-2.959103231999989
 20
0.7364646272000002
 10
-2.948221420799995
 20
0.7350289184000048
 10
-2.940264297600009
 20
0.7340322224000034
  0
LWPOLYLINE
  5
316
330
2E6
100
AcDbEntity
  8
0
100
AcDbPolyline
 90
       31
 70
     0
 43
0.0
 10
-3.586993715200009
 20
1.376509779199999
 10
-3.583465337600017
 20
1.347026022400001
 10
-3.574577777600012
 20
1.296772916800001
 10
-3.562466091200008
 20
1.2483007728
 10
-3.54740560319999
 20
1.2018063792
 10
-3.529664630399992
 20
1.157456529600004
 10
-3.509504896000009
 20
1.1153872816
 10
-3.48720743039999
 20
1.075687316799999
 10
-3.463068976000016
 20
1.038413910400002
 10
-3.437369052799994
 20
1.003602028800003
 10
-3.410368550399994
 20
0.9712659168000001
 10
-3.382310283200013
 20
0.9414011600000051
 10
-3.35342344
 20
0.9139872623999991
 10
-3.323967243200002
 20
0.8889945088000033
 10
-3.294216726400009
 20
0.8663768880000048
 10
-3.264429873599993
 20
0.8460674640000007
 10
-3.234826907200016
 20
0.8279695680000003
 10
-3.205599601599999
 20
0.8119699872000012
 10
-3.176906851200016
 20
0.7979408783999986
 10
-3.148887963199996
 20
0.7857494671999988
 10
-3.121743483199992
 20
0.775279923200003
 10
-3.095792835200001
 20
0.7664370415999997
 10
-3.071354878400001
 20
0.7591013135999987
 10
-3.048892115200004
 20
0.7531697647999991
 10
-3.028864784000006
 20
0.7485087200000038
 10
-3.011469488000017
 20
0.7449182176000022
 10
-2.99648710880001
 20
0.7421484800000045
 10
-2.983405585599996
 20
0.7399576287999992
 10
-2.971639140799993
 20
0.7381521872000008
 10
-2.960620304000002
 20
0.7365872320000051
 10
-2.949777590400003
 20
0.7351490128000009
  0
LINE
  5
317
330
2E6
100
AcDbEntity
  8
0
100
AcDbLine
 10
-2.558912721599995
 20
0.6190123008000015
 30
0.0
 11
-2.502611908799991
 21
0.6024733823999995
 31
0.0
  0
LINE
  5
318
330
2E6
100
AcDbEntity
  8
0
100
AcDbLine
 10
-2.502611908799991
 20
0.6024733823999995
 30
0.0
 11
-2.441558028799988
 21
0.5894222208000031
 31
0.0
  0
LINE
  5
319
330
2E6
100
AcDbEntity
  8
0
100
AcDbLine
 10
-2.403097590399994
 20
0.5811338624000016
 30
0.0
 11
-2.401850441600004
 21
0.5808487183999987
 31
0.0
  0
LINE
  5
31A
330
2E6
100
AcDbEntity
  8
0
100
AcDbLine
 10
-2.401850441600004
 20
0.5808487183999987
 30
0.0
 11
-2.380572609599994
 21
0.5768331792000013
 31
0.0
  0
LWPOLYLINE
  5
31B
330
2E6
100
AcDbEntity
  8
0
100
AcDbPolyline
 90
        4
 70
     0
 43
0.0
 10
-2.603084564800013
 20
1.601102358400005
 10
-2.598441969600003
 20
1.494937102400001
 10
-2.59417744480001
 20
1.379327300799999
 10
-2.590383774400009
 20
1.254194294400001
  0
LINE
  5
31C
330
2E6
100
AcDbEntity
  8
0
100
AcDbLine
 10
-3.599476209599998
 20
1.502789819200003
 30
0.0
 11
-3.586990889600002
 21
1.376499729599999
 31
0.0
  0
ARC
  5
31D
330
2E6
100
AcDbEntity
  8
0
100
AcDbCircle
 10
-1.983915262399989
 20
0.3878276144000026
 30
0.0
 40
0.125
100
AcDbArc
 50
45.00000014299989
 51
82.39323715229984
  0
LWPOLYLINE
  5
31E
330
2E6
100
AcDbEntity
  8
0
100
AcDbPolyline
 90
        3
 70
     0
 43
0.0
 10
-1.96736796159999
 20
0.5117275216000011
 10
-1.963372673599991
 20
0.5112234863999987
 10
-1.931944950400009
 20
0.5074330464000028
  0
LINE
  5
31F
330
2E6
100
AcDbEntity
  8
0
100
AcDbLine
 10
-4.878203516799999
 20
4.957505270399998
 30
0.0
 11
-4.875618622399997
 21
4.653291544000005
 31
0.0
  0
LINE
  5
320
330
2E6
100
AcDbEntity
  8
0
100
AcDbLine
 10
-4.875626952000004
 20
4.654093734399999
 30
0.0
 11
-4.87171975679999
 21
4.342111854400002
 31
0.0
  0
LINE
  5
321
330
2E6
100
AcDbEntity
  8
0
100
AcDbLine
 10
-4.871731707200012
 20
4.342925118400003
 30
0.0
 11
-4.866438102399996
 21
4.031823804800005
 31
0.0
  0
LINE
  5
322
330
2E6
100
AcDbEntity
  8
0
100
AcDbLine
 10
-4.878289953600017
 20
6.368583755199999
 30
0.0
 11
-4.87937614079999
 21
6.099038796800002
 31
0.0
  0
LINE
  5
323
330
2E6
100
AcDbEntity
  8
0
100
AcDbLine
 10
-4.879373579200006
 20
6.099787124800002
 30
0.0
 11
-4.88007609920001
 21
5.8237085696
 31
0.0
  0
LINE
  5
324
330
2E6
100
AcDbEntity
  8
0
100
AcDbLine
 10
-4.88007482719999
 20
5.824467664000003
 30
0.0
 11
-4.880233961599998
 21
5.541649465600002
 31
0.0
  0
LINE
  5
325
330
2E6
100
AcDbEntity
  8
0
100
AcDbLine
 10
-4.880234406400006
 20
5.542419297599998
 30
0.0
 11
-4.879670598399997
 21
5.252720459199998
 31
0.0
  0
LINE
  5
326
330
2E6
100
AcDbEntity
  8
0
100
AcDbLine
 10
-4.879673201600013
 20
5.253500999999999
 30
0.0
 11
-4.878198292799993
 21
4.956713985600003
 31
0.0
  0
LINE
  5
327
330
2E6
100
AcDbEntity
  8
0
100
AcDbLine
 10
-4.876966062400015
 20
6.631069455999998
 30
0.0
 11
-4.878293399999989
 21
6.367846123200003
 31
0.0
  0
LWPOLYLINE
  5
328
330
2E6
100
AcDbEntity
  8
0
100
AcDbPolyline
 90
       26
 70
     0
 43
0.0
 10
11.04312390399999
 20
4.708985555200001
 10
11.108388112
 20
4.550686300800002
 10
11.17595392960001
 20
4.393614902400003
 10
11.24579222880001
 20
4.238938372799999
 10
11.3181036016
 20
4.087306019199999
 10
11.39330831039998
 20
3.938804801599999
 10
11.47184887360001
 20
3.793455385600005
 10
11.55384908479999
 20
3.651826155200005
 10
11.6394846048
 20
3.514551302400001
 10
11.7290689104
 20
3.3820607408
 10
11.82288091039998
 20
3.254856648
 10
11.92136713439998
 20
3.133167140800004
 10
12.0248712304
 20
3.017201716800002
 10
12.13321272159999
 20
2.907615835200004
 10
12.2456677072
 20
2.805594305600003
 10
12.36110244959999
 20
2.7125575568
 10
12.47134704800001
 20
2.6340373584
 10
12.57012426239998
 20
2.571700686399999
 10
12.65558029600001
 20
2.523608179200003
 10
12.72966441279999
 20
2.486205620799999
 10
12.79361818559999
 20
2.457104168
 10
12.8482073584
 20
2.43455832
 10
12.89387101439999
 20
2.417277758400004
 10
12.9309848016
 20
2.404298100800005
 10
12.95988331039998
 20
2.394877350400001
 10
12.9933463584
 20
2.384502584000003
  0
LWPOLYLINE
  5
329
330
2E6
100
AcDbEntity
  8
0
100
AcDbPolyline
 90
       25
 70
     0
 43
0.0
 10
3.971807560000002
 20
4.708985555200001
 10
3.906541542399992
 20
4.550682288000004
 10
3.838976113600011
 20
4.393611996800004
 10
3.769138220799987
 20
4.238936507200001
 10
3.696827227200003
 20
4.087305022400002
 10
3.621622953599995
 20
3.938804603200004
 10
3.543083007999996
 20
3.793456166399998
 10
3.461083590399994
 20
3.651828148799999
 10
3.375448723200008
 20
3.514554254400003
 10
3.285865022400002
 20
3.382064371200002
 10
3.192053809599997
 20
3.254860779200001
 10
3.093568723200007
 20
3.133171905600001
 10
2.990066020799986
 20
3.017207412800004
 10
2.881725737599992
 20
2.907622433600003
 10
2.7692716496
 20
2.805601086400002
 10
2.653837462399991
 20
2.712563903999999
 10
2.543592710399991
 20
2.634042836799999
 10
2.444815107199985
 20
2.571705206400004
 10
2.359358766399992
 20
2.523611862400002
 10
2.285274142399998
 20
2.486208649600001
 10
2.221319508800007
 20
2.457106641599999
 10
2.166729521599989
 20
2.434560313600002
 10
2.121065134399998
 20
2.4172793408
 10
2.083950630400011
 20
2.4042993232
 10
2.055051345599991
 20
2.394878256000005
  0
LWPOLYLINE
  5
32A
330
2E6
100
AcDbEntity
  8
0
100
AcDbPolyline
 90
       23
 70
     0
 43
0.0
 10
9.539738681599999
 20
2.418924371199999
 10
9.5060130528
 20
2.422337576000003
 10
9.472718313600012
 20
2.426344283200002
 10
9.439239580800006
 20
2.431780939200002
 10
9.405413534399997
 20
2.440880393600004
 10
9.371384422400012
 20
2.458203713599999
 10
9.337056363199991
 20
2.489967099200001
 10
9.3049889328
 20
2.536903414400001
 10
9.276507681600008
 20
2.595563376000001
 10
9.250051516799999
 20
2.666408623999998
 10
9.224884615999997
 20
2.748754959999999
 10
9.200575572800005
 20
2.842327065600002
 10
9.176801745599988
 20
2.9468146496
 10
9.152916955199998
 20
3.063619707200004
 10
9.128094320000002
 20
3.195433734400005
 10
9.102140900800009
 20
3.342334638400004
 10
9.075024447999993
 20
3.503289697600003
 10
9.04674125919999
 20
3.676731915200001
 10
9.017332819199992
 20
3.8603769216
 10
8.986095652800003
 20
4.056182591999998
 10
8.9528690896
 20
4.263285446400004
 10
8.918031430399992
 20
4.477445180800003
 10
8.881175051199988
 20
4.698235292799999
  0
LWPOLYLINE
  5
32B
330
2E6
100
AcDbEntity
  8
0
100
AcDbPolyline
 90
       23
 70
     0
 43
0.0
 10
5.4751927824
 20
2.418924371199999
 10
5.508918411199999
 20
2.422337576000003
 10
5.542213148799987
 20
2.426344283200002
 10
5.575691883199993
 20
2.431780939200002
 10
5.609517928000002
 20
2.440880393600004
 10
5.643547041599987
 20
2.458203713599999
 10
5.677875100800008
 20
2.489967099200001
 10
5.709942529599999
 20
2.536903414400001
 10
5.738423782399991
 20
2.595563376000001
 10
5.7648799472
 20
2.666408623999998
 10
5.790046848000002
 20
2.748754959999999
 10
5.814355891199994
 20
2.842327065600002
 10
5.838129716800011
 20
2.9468146496
 10
5.862014508800001
 20
3.063619707200004
 10
5.886837143999997
 20
3.195433734400005
 10
5.91279056159999
 20
3.342334638400004
 10
5.939907016000006
 20
3.503289697600003
 10
5.968190204800009
 20
3.676731915200001
 10
5.997598644800007
 20
3.8603769216
 10
6.028835811199996
 20
4.056182591999998
 10
6.062062372799999
 20
4.263285446400004
 10
6.096900033600007
 20
4.477445180800003
 10
6.133756412800011
 20
4.698235292799999
  0
LWPOLYLINE
  5
32C
330
2E6
100
AcDbEntity
  8
0
100
AcDbPolyline
 90
        7
 70
     0
 43
0.0
 10
5.475189527999987
 20
2.418925950400002
 10
5.8828831008
 20
2.420486723199999
 10
6.261587817600002
 20
2.421604902400005
 10
6.610792688000003
 20
2.422368844800004
 10
6.931243206400012
 20
2.422849769599999
 10
7.228272254399996
 20
2.423109577600001
 10
7.507465780800004
 20
2.423189864000001
  0
LINE
  5
32D
330
2E6
100
AcDbEntity
  8
0
100
AcDbLine
 10
8.420722228800002
 20
1.915341817600001
 30
0.0
 11
7.050360353600012
 21
1.915380763200005
 31
0.0
  0
LINE
  5
32E
330
2E6
100
AcDbEntity
  8
0
100
AcDbLine
 10
6.430730289600006
 20
0.6358390768000035
 30
0.0
 11
7.510347999999993
 21
0.6564051984000017
 31
0.0
  0
LINE
  5
32F
330
2E6
100
AcDbEntity
  8
0
100
AcDbLine
 10
8.963798142400008
 20
0.4154428575999987
 30
0.0
 11
5.967414638399986
 21
0.4154428575999987
 31
0.0
  0
LINE
  5
330
330
2E6
100
AcDbEntity
  8
0
100
AcDbLine
 10
9.18855066079999
 20
0.0125000000000029
 30
0.0
 11
4.813496880000002
 21
0.0125000000000029
 31
0.0
  0
ARC
  5
331
330
2E6
100
AcDbEntity
  8
0
100
AcDbCircle
 10
6.103333286399987
 20
0.0670247936000053
 30
0.0
 40
0.3749999664
100
AcDbArc
 50
90.85201873579986
 51
149.3950635938998
  0
LINE
  5
332
330
2E6
100
AcDbEntity
  8
0
100
AcDbLine
 10
6.097757028800003
 20
0.441984270399999
 30
0.0
 11
6.099811327999987
 21
0.4470163520000057
 31
0.0
  0
LWPOLYLINE
  5
333
330
2E6
100
AcDbEntity
  8
0
100
AcDbPolyline
 90
        5
 70
     0
 43
0.0
 10
6.151058919999996
 20
0.5653420160000025
 10
6.044403807999998
 20
0.5461188320000048
 10
5.947755025600002
 20
0.4972194111999997
 10
5.869193172800009
 20
0.4227321296
 10
5.81528663680001
 20
0.3288847120000042
  0
LWPOLYLINE
  5
334
330
2E6
100
AcDbEntity
  8
0
100
AcDbPolyline
 90
        3
 70
     0
 43
0.0
 10
6.097757028800003
 20
0.441984270399999
 10
6.26536955520001
 20
0.4445619648000019
 10
6.428790046399996
 20
0.4472396656000015
  0
LINE
  5
335
330
2E6
100
AcDbEntity
  8
0
100
AcDbLine
 10
1.896253049600005
 20
0.4620106224000012
 30
0.0
 11
1.54407738399999
 21
0.1098349568000003
 31
0.0
  0
LWPOLYLINE
  5
336
330
2E6
100
AcDbEntity
  8
0
100
AcDbPolyline
 90
        3
 70
     0
 43
0.0
 10
4.058477747199987
 20
0.5154813424000011
 10
4.0574996016
 20
0.4655234495999992
 10
4.05605023839999
 20
0.4362126352000005
  0
LINE
  5
337
330
2E6
100
AcDbEntity
  8
0
100
AcDbLine
 10
4.378857232000001
 20
0.4499918512000037
 30
0.0
 11
4.388958943999995
 21
0.4348991904000031
 31
0.0
  0
ARC
  5
338
330
2E6
100
AcDbEntity
  8
0
100
AcDbCircle
 10
4.398308662400012
 20
0.0507497472000012
 30
0.0
 40
0.3749999968
100
AcDbArc
 50
32.64908213869987
 51
90.23220042279998
  0
LWPOLYLINE
  5
339
330
2E6
100
AcDbEntity
  8
0
100
AcDbPolyline
 90
        5
 70
     0
 43
0.0
 10
4.34153588960001
 20
0.5186569520000007
 10
4.448424960000011
 20
0.5051157999999987
 10
4.546999636799995
 20
0.4617565232000019
 10
4.629114323199985
 20
0.3921620624000042
 10
4.687983575999993
 20
0.3020832720000044
  0
LINE
  5
33A
330
2E6
100
AcDbEntity
  8
0
100
AcDbLine
 10
4.458375388799993
 20
0.4154428575999987
 30
0.0
 11
1.724685284799988
 21
0.2904428575999986
 31
0.0
  0
LINE
  5
33B
330
2E6
100
AcDbEntity
  8
0
100
AcDbLine
 10
4.813496880000002
 20
0.0125000000000029
 30
0.0
 11
1.373110972799992
 21
0.0125000000000029
 31
0.0
  0
ARC
  5
33C
330
2E6
100
AcDbEntity
  8
0
100
AcDbCircle
 10
1.27891234079999
 20
0.375
 30
0.0
 40
0.375
100
AcDbArc
 50
270.0
 51
315.0
  0
ARC
  5
33D
330
2E6
100
AcDbEntity
  8
0
100
AcDbCircle
 10
5.14155269279999
 20
0.5125000000000029
 30
0.0
 40
0.5
100
AcDbArc
 50
204.8872106300999
 51
270.0
  0
ARC
  5
33E
330
2E6
100
AcDbEntity
  8
0
100
AcDbCircle
 10
5.35022151839999
 20
0.5125000000000029
 30
0.0
 40
0.5
100
AcDbArc
 50
270.0
 51
338.4551050159998
  0
LINE
  5
33F
330
2E6
100
AcDbEntity
  8
0
100
AcDbLine
 10
4.805396630399997
 20
0.3237281696000025
 30
0.0
 11
4.739370502399992
 21
0.3162356911999993
 31
0.0
  0
LWPOLYLINE
  5
340
330
2E6
100
AcDbEntity
  8
0
100
AcDbPolyline
 90
        3
 70
     0
 43
0.0
 10
4.739370502399992
 20
0.3162356911999993
 10
4.699537547200009
 20
0.3088845728000038
 10
4.687983716800005
 20
0.3020833088000003
  0
LWPOLYLINE
  5
341
330
2E6
100
AcDbEntity
  8
0
100
AcDbPolyline
 90
        3
 70
     0
 43
0.0
 10
5.815286616000008
 20
0.3288850368000027
 10
5.80342335360001
 20
0.3353274191999986
 10
5.763102700800004
 20
0.3408121376000039
  0
LINE
  5
342
330
2E6
100
AcDbEntity
  8
0
100
AcDbLine
 10
5.763102700800004
 20
0.3408121376000039
 30
0.0
 11
5.696397318399988
 21
0.3450565488000024
 31
0.0
  0
LWPOLYLINE
  5
343
330
2E6
100
AcDbEntity
  8
0
100
AcDbPolyline
 90
        9
 70
     0
 43
0.0
 10
5.696397318399988
 20
0.3450565488000024
 10
5.6065692592
 20
0.347858892800005
 10
5.498405076799997
 20
0.3490642192000024
 10
5.377440091199986
 20
0.3485880208000012
 10
5.249900788800005
 20
0.3464115408000055
 10
5.122490452800008
 20
0.3426032063999997
 10
5.001829656000012
 20
0.3373364256000002
 10
4.894282792000012
 20
0.3309089344
 10
4.805396630399997
 20
0.3237281696000025
  0
LINE
  5
344
330
2E6
100
AcDbEntity
  8
0
100
AcDbLine
 10
5.35022151839999
 20
0.0125000000000029
 30
0.0
 11
5.14155269279999
 21
0.0125000000000029
 31
0.0
  0
LINE
  5
345
330
2E6
100
AcDbEntity
  8
0
100
AcDbLine
 10
4.05605023839999
 20
0.4362126352000005
 30
0.0
 11
4.055974975999987
 21
0.4308565888000047
 31
0.0
  0
LINE
  5
346
330
2E6
100
AcDbEntity
  8
0
100
AcDbLine
 10
4.055974975999987
 20
0.4308565888000047
 30
0.0
 11
4.056356865600008
 21
0.4257661856000042
 31
0.0
  0
LINE
  5
347
330
2E6
100
AcDbEntity
  8
0
100
AcDbLine
 10
4.056734822399988
 20
0.4251534480000032
 30
0.0
 11
4.056394916800002
 21
0.4257021072000029
 31
0.0
  0
LWPOLYLINE
  5
348
330
2E6
100
AcDbEntity
  8
0
100
AcDbPolyline
 90
        3
 70
     0
 43
0.0
 10
4.388958943999995
 20
0.4348991904000031
 10
4.394172529600012
 20
0.4282084272000049
 10
4.396311460800006
 20
0.4260450543999994
  0
LINE
  5
349
330
2E6
100
AcDbEntity
  8
0
100
AcDbLine
 10
4.058318273600008
 20
0.4247327536000043
 30
0.0
 11
4.058072675200008
 21
0.4246767440000028
 31
0.0
  0
LINE
  5
34A
330
2E6
100
AcDbEntity
  8
0
100
AcDbLine
 10
4.056356865600008
 20
0.4257661856000042
 30
0.0
 11
4.057450075199994
 21
0.424730836800002
 31
0.0
  0
LINE
  5
34B
330
2E6
100
AcDbEntity
  8
0
100
AcDbLine
 10
4.396311460800006
 20
0.4260450543999994
 30
0.0
 11
4.396792449599985
 21
0.4257463328000029
 31
0.0
  0
LWPOLYLINE
  5
34C
330
2E6
100
AcDbEntity
  8
0
100
AcDbPolyline
 90
        3
 70
     0
 43
0.0
 10
4.057572238400013
 20
0.4246774976000012
 10
4.057149972800004
 20
0.4248194192000057
 10
4.056734822399988
 20
0.4251534480000032
  0
LINE
  5
34D
330
2E6
100
AcDbEntity
  8
0
100
AcDbLine
 10
4.057459318399992
 20
0.4247308560000036
 30
0.0
 11
4.200607272000013
 21
0.4250797920000054
 31
0.0
  0
LINE
  5
34E
330
2E6
100
AcDbEntity
  8
0
100
AcDbLine
 10
4.198351908799992
 20
0.425074696000003
 30
0.0
 11
4.396788920000005
 21
0.4257463056000006
 31
0.0
  0
LINE
  5
34F
330
2E6
100
AcDbEntity
  8
0
100
AcDbLine
 10
4.057450075199994
 20
0.424730836800002
 30
0.0
 11
4.058391796800009
 21
0.4247584928000024
 31
0.0
  0
LWPOLYLINE
  5
350
330
2E6
100
AcDbEntity
  8
0
100
AcDbPolyline
 90
        8
 70
     0
 43
0.0
 10
2.839936443200002
 20
0.6136646624000051
 10
3.070615460800013
 20
0.6127547440000001
 10
3.290504275199992
 20
0.612185371199999
 10
3.492020057600001
 20
0.611902520000001
 10
3.680618831999993
 20
0.6118329584000009
 10
3.859823143999989
 20
0.6119346480000019
 10
4.027983811199987
 20
0.6121770256000048
 10
4.186166407999991
 20
0.6125405567999991
  0
LWPOLYLINE
  5
351
330
2E6
100
AcDbEntity
  8
0
100
AcDbPolyline
 90
        9
 70
     0
 43
0.0
 10
2.021585103999996
 20
2.384502584000003
 10
2.40526792
 20
2.391016436800001
 10
2.821933934399993
 20
2.397076233600003
 10
3.253737603199994
 20
2.402403585600005
 10
3.698337728000012
 20
2.407022611199998
 10
4.155033008000003
 20
2.410990590400004
 10
4.611654558400005
 20
2.414280608000005
 10
5.056068747199987
 20
2.416909784000004
 10
5.4751927824
 20
2.418924371199999
  0
LINE
  5
352
330
2E6
100
AcDbEntity
  8
0
100
AcDbLine
 10
3.914944071999997
 20
1.914612004800005
 30
0.0
 11
5.687961118400011
 21
1.915187950400003
 31
0.0
  0
LINE
  5
353
330
2E6
100
AcDbEntity
  8
0
100
AcDbLine
 10
2.055051345599991
 20
2.394878256000005
 30
0.0
 11
2.021585103999996
 21
2.384502584000003
 31
0.0
  0
LINE
  5
354
330
2E6
100
AcDbEntity
  8
0
100
AcDbLine
 10
1.821830681600005
 20
1.913531633600001
 30
0.0
 11
3.914944071999997
 21
1.914612004800005
 31
0.0
  0
ARC
  5
355
330
2E6
100
AcDbEntity
  8
0
100
AcDbCircle
 10
1.984641664000008
 20
0.3736225600000012
 30
0.0
 40
0.1249999984
100
AcDbArc
 50
102.1620859593998
 51
134.9999997319
  0
LWPOLYLINE
  5
356
330
2E6
100
AcDbEntity
  8
0
100
AcDbPolyline
 90
        3
 70
     0
 43
0.0
 10
1.392868324799991
 20
0.5022326304000018
 10
1.776714988799994
 20
0.4975093008000045
 10
1.976718049600009
 20
0.4952325823999999
  0
LWPOLYLINE
  5
357
330
2E6
100
AcDbEntity
  8
0
100
AcDbPolyline
 90
        5
 70
     0
 43
0.0
 10
1.976718049600009
 20
0.4952325823999999
 10
2.181925694400007
 20
0.4931962640000052
 10
2.393591356799987
 20
0.4914112896000021
 10
2.612724576000005
 20
0.489894236800005
 10
2.839936443200002
 20
0.6136646624000051
  0
LINE
  5
358
330
2E6
100
AcDbEntity
  8
0
100
AcDbLine
 10
1.078663796799986
 20
0.5056169759999989
 30
0.0
 11
1.270495353600011
 21
0.5036279328000007
 31
0.0
  0
LINE
  5
359
330
2E6
100
AcDbEntity
  8
0
100
AcDbLine
 10
1.270495353600011
 20
0.5036279328000007
 30
0.0
 11
1.27053552800001
 21
0.503627496
 31
0.0
  0
LINE
  5
35A
330
2E6
100
AcDbEntity
  8
0
100
AcDbLine
 10
1.270495225600001
 20
0.5036266400000003
 30
0.0
 11
1.392868324799991
 21
0.5022326304000018
 31
0.0
  0
LINE
  5
35B
330
2E6
100
AcDbEntity
  8
0
100
AcDbLine
 10
5.687961118400011
 20
1.915187950400003
 30
0.0
 11
7.050360353600012
 21
1.915380763200005
 31
0.0
  0
LWPOLYLINE
  5
35C
330
2E6
100
AcDbEntity
  8
0
100
AcDbPolyline
 90
        4
 70
     0
 43
0.0
 10
6.099811327999987
 20
0.4470163520000057
 10
6.108076190399998
 20
0.465520478400002
 10
6.125527964799999
 20
0.5037856496000046
 10
6.151058921599997
 20
0.565341924800002
  0
LINE
  5
35D
330
2E6
100
AcDbEntity
  8
0
100
AcDbLine
 10
6.429063479999996
 20
0.5197233391999987
 30
0.0
 11
6.433015782399991
 21
0.5767048752000008
 31
0.0
  0
LINE
  5
35E
330
2E6
100
AcDbEntity
  8
0
100
AcDbLine
 10
6.428221676800006
 20
0.4819273744000015
 30
0.0
 11
6.429063479999996
 21
0.5197233391999987
 31
0.0
  0
LWPOLYLINE
  5
35F
330
2E6
100
AcDbEntity
  8
0
100
AcDbPolyline
 90
        6
 70
     0
 43
0.0
 10
6.433015782399991
 20
0.5767048752000008
 10
6.432737672000001
 20
0.5640539183999991
 10
6.432013356800013
 20
0.5519247600000057
 10
6.431028083200004
 20
0.5403634192000056
 10
6.429967099200013
 20
0.5294159216000054
 10
6.429015651199989
 20
0.5191282848000043
  0
LINE
  5
360
330
2E6
100
AcDbEntity
  8
0
100
AcDbLine
 10
6.428292148800011
 20
0.4784259728000038
 30
0.0
 11
6.428221676800006
 21
0.4819273744000015
 31
0.0
  0
LINE
  5
361
330
2E6
100
AcDbEntity
  8
0
100
AcDbLine
 10
6.430668977599992
 20
0.6390575855999998
 30
0.0
 11
6.433015782399991
 21
0.5767048752000008
 31
0.0
  0
LINE
  5
362
330
2E6
100
AcDbEntity
  8
0
100
AcDbLine
 10
6.431275867199985
 20
0.4547762223999996
 30
0.0
 11
6.428292148800011
 21
0.4784259728000038
 31
0.0
  0
LINE
  5
363
330
2E6
100
AcDbEntity
  8
0
100
AcDbLine
 10
6.433316750399995
 20
0.4473138367999994
 30
0.0
 11
6.431275867199985
 21
0.4547762223999996
 31
0.0
  0
LINE
  5
364
330
2E6
100
AcDbEntity
  8
0
100
AcDbLine
 10
6.433015782399991
 20
0.5767048752000008
 30
0.0
 11
6.409410905599997
 21
0.5901341664000057
 31
0.0
  0
LINE
  5
365
330
2E6
100
AcDbEntity
  8
0
100
AcDbLine
 10
4.082223742400003
 20
0.5297373008000008
 30
0.0
 11
4.058477747199987
 21
0.5154813424000011
 31
0.0
  0
LINE
  5
366
330
2E6
100
AcDbEntity
  8
0
100
AcDbLine
 10
4.05681719040001
 20
0.5325271712000017
 30
0.0
 11
4.057607779199997
 21
0.5778812464000041
 31
0.0
  0
LINE
  5
367
330
2E6
100
AcDbEntity
  8
0
100
AcDbLine
 10
4.057607779199997
 20
0.5778812464000041
 30
0.0
 11
4.058477747199987
 21
0.5154813424000011
 31
0.0
  0
LINE
  5
368
330
2E6
100
AcDbEntity
  8
0
100
AcDbLine
 10
4.341535860800007
 20
0.5186587088000039
 30
0.0
 11
4.362914889600006
 21
0.4769454272000005
 31
0.0
  0
LINE
  5
369
330
2E6
100
AcDbEntity
  8
0
100
AcDbLine
 10
4.362914889600006
 20
0.4769454272000005
 30
0.0
 11
4.378857232000001
 21
0.4499918512000037
 31
0.0
  0
LWPOLYLINE
  5
36A
330
2E6
100
AcDbEntity
  8
0
100
AcDbPolyline
 90
       15
 70
     0
 43
0.0
 10
4.057607779199997
 20
0.5778812464000041
 10
4.086034025599985
 20
0.5935439344000031
 10
4.167855270399996
 20
0.6102314192000052
 10
4.301844555200005
 20
0.6271282240000034
 10
4.485954240000012
 20
0.6432058368
 10
4.710205806400011
 20
0.657570308800004
 10
4.964675526399986
 20
0.6695195711999986
 10
5.237060081599992
 20
0.6782267904000037
 10
5.510293625599985
 20
0.683053784000002
 10
5.766401089600009
 20
0.684082225600001
 10
5.993588627200011
 20
0.681617726399999
 10
6.180944320000008
 20
0.6756863712000012
 10
6.317946609599999
 20
0.6662614240000054
 10
6.401553803199988
 20
0.6538713744000049
 10
6.430668977599992
 20
0.6390575855999998
  0
LWPOLYLINE
  5
36B
330
2E6
100
AcDbEntity
  8
0
100
AcDbPolyline
 90
       83
 70
     0
 43
0.0
 10
4.058477747199987
 20
0.5154813424000011
 10
4.059262631999985
 20
0.5179413952000047
 10
4.061617115199993
 20
0.5204742912000029
 10
4.065541940799988
 20
0.5230738095999996
 10
4.071037844800002
 20
0.5257337264000057
 10
4.078105571200012
 20
0.5284478192000038
 10
4.086745859199993
 20
0.5312098656000046
 10
4.096959449600007
 20
0.534013641600005
 10
4.1087470848
 20
0.5368529264000017
 10
4.122109502400007
 20
0.5397214960000057
 10
4.137047444800003
 20
0.5426131279999993
 10
4.153561651199993
 20
0.5455216000000008
 10
4.171652864000009
 20
0.5484406895999996
 10
4.191321822399999
 20
0.5513641727999996
 10
4.212569268799995
 20
0.5542858272000047
 10
4.235395942400003
 20
0.5571994304000043
 10
4.259802583999999
 20
0.5600987616000026
 10
4.285789934399986
 20
0.5629775952000032
 10
4.31352250239999
 20
0.565847649600002
 10
4.342789944000003
 20
0.5686869968000039
 10
4.373526115200007
 20
0.5714919792000046
 10
4.405664873599988
 20
0.5742589424000002
 10
4.439140076799986
 20
0.5769842272000006
 10
4.473885583999987
 20
0.5796641776000016
 10
4.509835252800002
 20
0.5822951375999992
 10
4.546922939199987
 20
0.5848734480000033
 10
4.585082502400013
 20
0.5873954528000028
 10
4.624247800000006
 20
0.5898574944000004
 10
4.664352689600008
 20
0.5922559167999993
 10
4.705331028800003
 20
0.5945870624000023
 10
4.747116676800004
 20
0.5968472752000054
 10
4.789643489599995
 20
0.5990328976000044
 10
4.83284532479999
 20
0.6011402720000021
 10
4.8766560416
 20
0.6031657408000016
 10
4.92100949600001
 20
0.6051056495999987
 10
4.965839547200005
 20
0.6069563392000035
 10
5.011080052799997
 20
0.6087141552000049
 10
5.056664870399998
 20
0.6103754368000054
 10
5.102527859199994
 20
0.6119365296000013
 10
5.148602873599998
 20
0.6133937760000024
 10
5.194823774399992
 20
0.6147435184000046
 10
5.241124417599991
 20
0.6159821008000037
 10
5.287548155199999
 20
0.6171090911999997
 10
5.333917624000008
 20
0.6181212400000007
 10
5.380164884799995
 20
0.6190190688000002
 10
5.426222001599995
 20
0.6198031007999987
 10
5.472021039999987
 20
0.6204738544000037
 10
5.517494064000004
 20
0.6210318512000015
 10
5.562573135999997
 20
0.6214776143999999
 10
5.60719032
 20
0.6218116639999991
 10
5.651277679999992
 20
0.6220345199999997
 10
5.694767281600007
 20
0.6221467056000023
 10
5.737591185599995
 20
0.6221487424000003
 10
5.779681457599991
 20
0.6220411504000012
 10
5.820970161600001
 20
0.6218244496000054
 10
5.861389361600004
 20
0.6214991631999994
 10
5.900871121600005
 20
0.6210658128000049
 10
5.939347504000011
 20
0.6205249168000009
 10
5.9767505728
 20
0.6198770000000025
 10
6.013012393600007
 20
0.6191225824000029
 10
6.04806503040001
 20
0.6182621840000025
 10
6.081840543999987
 20
0.6172963264000018
 10
6.114271001600002
 20
0.6162255312000014
 10
6.145288465600003
 20
0.6150503200000017
 10
6.174824998399998
 20
0.6137712128000033
 10
6.202812667199992
 20
0.6123887327999995
 10
6.229180329600012
 20
0.6109049232000033
 10
6.253935006400013
 20
0.6093226847999987
 10
6.277078638400013
 20
0.6076463232000009
 10
6.298613163200002
 20
0.6058801408000037
 10
6.318540521599999
 20
0.6040284448000009
 10
6.336862651199993
 20
0.6020955392000005
 10
6.353581494400003
 20
0.6000857280000034
 10
6.368698988799991
 20
0.5980033184000036
 10
6.382217075200003
 20
0.5958526112000016
 10
6.3941376912
 20
0.5936379136000057
 10
6.404462777600002
 20
0.5913635296000024
 10
6.413194273599998
 20
0.5890337631999998
 10
6.420334120000006
 20
0.5866529199999988
 10
6.425884254399989
 20
0.5842253056000004
 10
6.429846615999991
 20
0.5817552240000055
 10
6.432223145600005
 20
0.5792469792000006
 10
6.433015782399991
 20
0.5767048752000008
  0
LWPOLYLINE
  5
36C
330
2E6
100
AcDbEntity
  8
0
100
AcDbPolyline
 90
       15
 70
     0
 43
0.0
 10
6.151058921599997
 20
0.565341924800002
 10
6.132249870399988
 20
0.5765657456
 10
6.067688625599998
 20
0.5861210192000002
 10
5.960661257600008
 20
0.5935134095999999
 10
5.816380734400013
 20
0.5983885808000054
 10
5.642532006399989
 20
0.6004767184000031
 10
5.448026520000013
 20
0.5996306928000053
 10
5.242916299200004
 20
0.5958200992000045
 10
5.038038056000004
 20
0.5891684031999987
 10
4.844099609599993
 20
0.5799828624000014
 10
4.671379969599996
 20
0.568786664000001
 10
4.528812854400001
 20
0.5562914128000003
 10
4.423123318400001
 20
0.5432621664000053
 10
4.359613601599988
 20
0.5304830928000044
 10
4.341535860800007
 20
0.5186587088000039
  0
LWPOLYLINE
  5
36D
330
2E6
100
AcDbEntity
  8
0
100
AcDbPolyline
 90
       14
 70
     0
 43
0.0
 10
6.409410905599997
 20
0.5901341664000057
 10
6.338403395200003
 20
0.6019833056000011
 10
6.219681084799987
 20
0.6114757248000018
 10
6.05423437440001
 20
0.6179422336000045
 10
5.850456102399988
 20
0.6212981408000005
 10
5.619352980799988
 20
0.6215900368000007
 10
5.371939225599987
 20
0.6187437776000025
 10
5.119227500800008
 20
0.6125927711999993
 10
4.872129809600011
 20
0.603252468800001
 10
4.641451043199992
 20
0.5912179263999989
 10
4.437989256000008
 20
0.5770787472000052
 10
4.27253987360001
 20
0.5615170384000053
 10
4.153537451200008
 20
0.545381820800003
 10
4.082223742400003
 20
0.5297373008000008
  0
ARC
  5
36E
330
2E6
100
AcDbEntity
  8
0
100
AcDbCircle
 10
8.731635652800008
 20
0.1258081216000022
 30
0.0
 40
0.3749999904
100
AcDbArc
 50
26.22726997390011
 51
91.68346853479986
  0
ARC
  5
36F
330
2E6
100
AcDbEntity
  8
0
100
AcDbCircle
 10
10.53725452
 20
0.1865738480000019
 30
0.0
 40
0.3750001104
100
AcDbArc
 50
92.15776448530005
 51
158.1310302044001
  0
ARC
  5
370
330
2E6
100
AcDbEntity
  8
0
100
AcDbCircle
 10
9.72522151839999
 20
0.5125000000000029
 30
0.0
 40
0.5
100
AcDbArc
 50
270.0
 51
352.8796875452998
  0
LWPOLYLINE
  5
371
330
2E6
100
AcDbEntity
  8
0
100
AcDbPolyline
 90
        6
 70
     0
 43
0.0
 10
8.644518027200007
 20
0.7047780560000021
 10
8.74903041760001
 20
0.6946425743999996
 10
8.846611102400004
 20
0.6559648944000003
 10
8.929607134399986
 20
0.5917783888000017
 10
8.991509396800012
 20
0.5071170048000014
 10
9.02746309119999
 20
0.4086204704000025
  0
LWPOLYLINE
  5
372
330
2E6
100
AcDbEntity
  8
0
100
AcDbPolyline
 90
        9
 70
     0
 43
0.0
 10
9.10496565759999
 20
0.4265660496000053
 10
9.199322547200011
 20
0.4357294240000016
 10
9.322927966399987
 20
0.4440518880000042
 10
9.467194451199986
 20
0.4510369312000009
 10
9.622155699199993
 20
0.4564091471999987
 10
9.777445585599991
 20
0.4600550576000018
 10
9.922418182400008
 20
0.4619094192000049
 10
10.04685119839999
 20
0.4619114480000022
 10
10.1421082816
 20
0.4600104208000034
  0
ARC
  5
373
330
2E6
100
AcDbEntity
  8
0
100
AcDbCircle
 10
9.51655269279999
 20
0.5125000000000029
 30
0.0
 40
0.5
100
AcDbArc
 50
191.9910694595
 51
270.0
  0
LINE
  5
374
330
2E6
100
AcDbEntity
  8
0
100
AcDbLine
 10
9.72522151839999
 20
0.0125000000000029
 30
0.0
 11
9.51655269279999
 21
0.0125000000000029
 31
0.0
  0
LWPOLYLINE
  5
375
330
2E6
100
AcDbEntity
  8
0
100
AcDbPolyline
 90
        3
 70
     0
 43
0.0
 10
9.027462700799986
 20
0.4086203552000001
 10
9.046327185600006
 20
0.4172595328000029
 10
9.10496565759999
 20
0.4265660496000053
  0
LWPOLYLINE
  5
376
330
2E6
100
AcDbEntity
  8
0
100
AcDbPolyline
 90
       15
 70
     0
 43
0.0
 10
8.431170763199986
 20
0.7591576591999996
 10
8.461272439999987
 20
0.7758045504000038
 10
8.5469155344
 20
0.7930760304000018
 10
8.686053836799999
 20
0.8100601056000016
 10
8.874926916800006
 20
0.8258640544000002
 10
9.103256775999994
 20
0.8398565216000051
 10
9.359803808000009
 20
0.8516179792000002
 10
9.632946881599991
 20
0.8608634240000014
 10
9.905062499199999
 20
0.8673546528000031
 10
10.15991438559999
 20
0.8711774576000053
 10
10.3837831456
 20
0.8723934528000043
 10
10.5663256816
 20
0.8708871183999988
 10
10.6981280704
 20
0.8664566240000013
 10
10.77827836
 20
0.859143380799999
 10
10.80605751679999
 20
0.8489104240000031
  0
LWPOLYLINE
  5
377
330
2E6
100
AcDbEntity
  8
0
100
AcDbPolyline
 90
       15
 70
     0
 43
0.0
 10
10.5811259712
 20
0.7784604944000009
 10
10.558753784
 20
0.787142590400002
 10
10.48955358079999
 20
0.7934806784000017
 10
10.37662972320001
 20
0.797415945600001
 10
10.2248630128
 20
0.7989232960000053
 10
10.041343184
 20
0.7980089552000038
 10
9.836205779199985
 20
0.794720353599999
 10
9.620013084800007
 20
0.7891240480000051
 10
9.403269801600004
 20
0.7812750832000006
 10
9.196551969599994
 20
0.7712674304000018
 10
9.010224947199986
 20
0.7593193728000003
 10
8.854868553599999
 20
0.7459329120000007
 10
8.738510054399995
 20
0.7317907728000037
 10
8.667193932799989
 20
0.7177614464000044
 10
8.6445179408
 20
0.7047800640000049
  0
LWPOLYLINE
  5
378
330
2E6
100
AcDbEntity
  8
0
100
AcDbPolyline
 90
       14
 70
     0
 43
0.0
 10
10.78461170879998
 20
0.7959727488000042
 10
10.71387871999999
 20
0.803197241600003
 10
10.59527258719998
 20
0.8078845584000049
 10
10.42974658559998
 20
0.8098645375999993
 10
10.225898752
 20
0.8093268703999996
 10
9.994720420800007
 20
0.8064859488000024
 10
9.747207022400004
 20
0.8014196848000025
 10
9.494354787199995
 20
0.7940564400000057
 10
9.247095663999999
 20
0.7843651344000051
 10
9.016296758399988
 20
0.7724779135999995
 10
8.812819436799998
 20
0.7586625743999989
 10
8.647515136000009
 20
0.7433922832000022
 10
8.528732331199989
 20
0.7273700112000015
 10
8.457599950400009
 20
0.711508539200004
  0
LWPOLYLINE
  5
379
330
2E6
100
AcDbEntity
  8
0
100
AcDbPolyline
 90
       46
 70
     0
 43
0.0
 10
9.438909904000013
 20
0.7918683872000046
 10
9.48497557600001
 20
0.7935483632000029
 10
9.53124325600001
 20
0.7951531984000014
 10
9.577645838400002
 20
0.7966811904000011
 10
9.624116212800004
 20
0.7981306384000036
 10
9.670666795199991
 20
0.7995023536000048
 10
9.717149764800012
 20
0.8007932416000045
 10
9.763496817599985
 20
0.8020029999999991
 10
9.809639649600001
 20
0.8031313231999988
 10
9.855509960000006
 20
0.8041779071999997
 10
9.901039446400005
 20
0.8051424448000048
 10
9.946159803200004
 20
0.8060246336000034
 10
9.990802728000005
 20
0.8068241680000056
 10
10.03489991999998
 20
0.8075407440000006
 10
10.0783830752
 20
0.8081740560000056
 10
10.12118389119999
 20
0.8087238000000027
 10
10.16323406399999
 20
0.8091896688000019
 10
10.20446529119999
 20
0.8095713615999997
 10
10.24480927199999
 20
0.8098685711999991
 10
10.2841977008
 20
0.8100809936000032
 10
10.3225622752
 20
0.8102083248000013
 10
10.3598346928
 20
0.8102502576000034
 10
10.3959466528
 20
0.8102064895999987
 10
10.430829848
 20
0.8100767152000045
 10
10.46441597919999
 20
0.8098606304000028
 10
10.4966367424
 20
0.8095579296000039
 10
10.52742383520001
 20
0.8091683072000037
 10
10.5567089536
 20
0.8086914607999986
 10
10.58442379519999
 20
0.8081270831999987
 10
10.61010824799998
 20
0.8074861983999994
 10
10.6342094336
 20
0.8067612864000039
 10
10.65673074399998
 20
0.8059533680000043
 10
10.67767556960001
 20
0.8050634704000003
 10
10.69704730239999
 20
0.8040926160000054
 10
10.71484933279998
 20
0.8030418272000048
 10
10.73108505600001
 20
0.8019121280000049
 10
10.74575785920001
 20
0.8007045424000054
 10
10.75887113760001
 20
0.7994200928000055
 10
10.7704282816
 20
0.7980598048000048
 10
10.78043268319998
 20
0.7966247008000025
 10
10.78888773439999
 20
0.7951158048000054
 10
10.7957968256
 20
0.7935341392000055
 10
10.8011633488
 20
0.7918807296000026
 10
10.804990696
 20
0.790156598400003
 10
10.8072822592
 20
0.788362767999999
 10
10.80804142880001
 20
0.7865002640000043
  0
LWPOLYLINE
  5
37A
330
2E6
100
AcDbEntity
  8
0
100
AcDbPolyline
 90
        6
 70
     0
 43
0.0
 10
10.5811259696
 20
0.7784605647999996
 10
10.47705301120001
 20
0.7601787247999994
 10
10.3822253232
 20
0.7136150560000019
 10
10.30417340959999
 20
0.6424672959999996
 10
10.2490955712
 20
0.5523854704000044
 10
10.22136567999999
 20
0.4505232031999995
  0
LWPOLYLINE
  5
37B
330
2E6
100
AcDbEntity
  8
0
100
AcDbPolyline
 90
        9
 70
     0
 43
0.0
 10
12.9933463584
 20
2.384502584000003
 10
12.6096635584
 20
2.391016444800001
 10
12.1929975296
 20
2.397076233600003
 10
11.7611938608
 20
2.402403585600005
 10
11.31659373599998
 20
2.407022611199998
 10
10.85989845599999
 20
2.410990590400004
 10
10.40327690399999
 20
2.414280608000005
 10
9.958862716800013
 20
2.416909784000004
 10
9.539738681599999
 20
2.418924371199999
  0
LINE
  5
37C
330
2E6
100
AcDbEntity
  8
0
100
AcDbLine
 10
11.9583363312
 20
1.914218948800005
 30
0.0
 11
10.22050926399998
 21
1.914940003200001
 31
0.0
  0
LINE
  5
37D
330
2E6
100
AcDbEntity
  8
0
100
AcDbLine
 10
10.22050926399998
 20
1.914940003200001
 30
0.0
 11
8.420722228800002
 21
1.915341817600001
 31
0.0
  0
LWPOLYLINE
  5
37E
330
2E6
100
AcDbEntity
  8
0
100
AcDbPolyline
 90
        7
 70
     0
 43
0.0
 10
9.539741936000012
 20
2.418925950400002
 10
9.132048363199999
 20
2.420486723199999
 10
8.753343646399997
 20
2.421604902400005
 10
8.404138775999996
 20
2.422368844800004
 10
8.083688257599987
 20
2.422849769599999
 10
7.786659208000003
 20
2.423109577600001
 10
7.507465681599995
 20
2.423189864000001
  0
LINE
  5
37F
330
2E6
100
AcDbEntity
  8
0
100
AcDbLine
 10
8.457599950400009
 20
0.711508539200004
 30
0.0
 11
8.433947529600004
 21
0.6968196704000036
 31
0.0
  0
LWPOLYLINE
  5
380
330
2E6
100
AcDbEntity
  8
0
100
AcDbPolyline
 90
       36
 70
     0
 43
0.0
 10
8.433947529600004
 20
0.6968196704000036
 10
8.43473319680001
 20
0.6993740047999993
 10
8.437102198399998
 20
0.7019981744000035
 10
8.441055599999998
 20
0.7046853696
 10
8.446594468799986
 20
0.7074287792000007
 10
8.453719873599993
 20
0.7102215904000034
 10
8.462432879999994
 20
0.7130569920000056
 10
8.472734556799991
 20
0.7159281728000054
 10
8.484625969599989
 20
0.7188283216000002
 10
8.498108185599988
 20
0.7217506272000023
 10
8.513182271999994
 20
0.7246882784000022
 10
8.529849297600009
 20
0.7276344608000045
 10
8.548110328000007
 20
0.7305823664000002
 10
8.567966430399991
 20
0.7335251824000011
 10
8.589418673599993
 20
0.736456097600005
 10
8.612468123199988
 20
0.7393683008000025
 10
8.637115846400007
 20
0.7422549808000057
 10
8.663362910399996
 20
0.745109324800005
 10
8.69129595039999
 20
0.7479348351999989
 10
8.720773139199991
 20
0.7507192320000016
 10
8.75172736799999
 20
0.7534608144000004
 10
8.784091532800005
 20
0.7561578800000035
 10
8.817798524799997
 20
0.7588087280000054
 10
8.852781236800012
 20
0.7614116576000001
 10
8.888972561599985
 20
0.7639649664000033
 10
8.926305393599989
 20
0.766466953600002
 10
8.964712623999986
 20
0.7689159184000048
 10
9.004127147199994
 20
0.7713101568000056
 10
9.044481856000004
 20
0.773647969599999
 10
9.085709643200004
 20
0.7759276560000004
 10
9.127743401599985
 20
0.778147513600004
 10
9.170516022399993
 20
0.7803058400000041
 10
9.21396040159999
 20
0.7824009344000018
 10
9.258009430399994
 20
0.7844310975999989
 10
9.302596001599994
 20
0.7863946256000034
 10
9.347653009600008
 20
0.7882898176000026
  0
LINE
  5
381
330
2E6
100
AcDbEntity
  8
0
100
AcDbLine
 10
8.432801849599997
 20
0.5108922816000004
 30
0.0
 11
8.429595044800009
 21
0.4952858207999995
 31
0.0
  0
LINE
  5
382
330
2E6
100
AcDbEntity
  8
0
100
AcDbLine
 10
8.432788335999987
 20
0.5592453840000005
 30
0.0
 11
8.432529657599985
 21
0.5475891888000036
 31
0.0
  0
LINE
  5
383
330
2E6
100
AcDbEntity
  8
0
100
AcDbLine
 10
8.433552612799985
 20
0.6252410768000019
 30
0.0
 11
8.432788335999987
 21
0.5592453840000005
 31
0.0
  0
LINE
  5
384
330
2E6
100
AcDbEntity
  8
0
100
AcDbLine
 10
8.433420601600005
 20
0.6139728368000022
 30
0.0
 11
8.433824587200007
 21
0.6553711712000024
 31
0.0
  0
LINE
  5
385
330
2E6
100
AcDbEntity
  8
0
100
AcDbLine
 10
8.432771875199989
 20
0.5572966288000032
 30
0.0
 11
8.432788335999987
 21
0.5592453840000005
 31
0.0
  0
LINE
  5
386
330
2E6
100
AcDbEntity
  8
0
100
AcDbLine
 10
8.430541315200002
 20
0.6968540832000017
 30
0.0
 11
8.431170763199986
 21
0.7591576591999996
 31
0.0
  0
LINE
  5
387
330
2E6
100
AcDbEntity
  8
0
100
AcDbLine
 10
8.432529657599985
 20
0.5475891888000036
 30
0.0
 11
8.432455492799988
 21
0.5383301200000048
 31
0.0
  0
LINE
  5
388
330
2E6
100
AcDbEntity
  8
0
100
AcDbLine
 10
8.432634667200005
 20
0.5356095007999997
 30
0.0
 11
8.432771875199989
 21
0.5572966288000032
 31
0.0
  0
LINE
  5
389
330
2E6
100
AcDbEntity
  8
0
100
AcDbLine
 10
8.433947529600004
 20
0.6968196704000036
 30
0.0
 11
8.433552612799985
 21
0.6252410768000019
 31
0.0
  0
LWPOLYLINE
  5
38A
330
2E6
100
AcDbEntity
  8
0
100
AcDbPolyline
 90
        3
 70
     0
 43
0.0
 10
8.433824587200007
 20
0.6553711712000024
 10
8.433935022399992
 20
0.6762413568000057
 10
8.433947529600004
 20
0.6968196704000036
  0
LWPOLYLINE
  5
38B
330
2E6
100
AcDbEntity
  8
0
100
AcDbPolyline
 90
        3
 70
     0
 43
0.0
 10
8.43269415200001
 20
0.5175466688000015
 10
8.432635440000012
 20
0.5260768272000007
 10
8.432634667200005
 20
0.5356095007999997
  0
LINE
  5
38C
330
2E6
100
AcDbEntity
  8
0
100
AcDbLine
 10
8.432455492799988
 20
0.5383301200000048
 30
0.0
 11
8.432801849599997
 21
0.5108922816000004
 31
0.0
  0
LINE
  5
38D
330
2E6
100
AcDbEntity
  8
0
100
AcDbLine
 10
8.433947529600004
 20
0.6968196704000036
 30
0.0
 11
8.431170763199986
 21
0.7591576591999996
 31
0.0
  0
LWPOLYLINE
  5
38E
330
2E6
100
AcDbEntity
  8
0
100
AcDbPolyline
 90
        5
 70
     0
 43
0.0
 10
8.433439335999992
 20
0.4954138096000023
 10
8.433229385599986
 20
0.4990273599999995
 10
8.433008780800008
 20
0.5039526656000036
 10
8.432819567999985
 20
0.5101154720000026
 10
8.432801849599997
 20
0.5108922816000004
  0
LINE
  5
38F
330
2E6
100
AcDbEntity
  8
0
100
AcDbLine
 10
8.433659080000012
 20
0.4924189536000015
 30
0.0
 11
8.433439335999992
 21
0.4954138096000023
 31
0.0
  0
LWPOLYLINE
  5
390
330
2E6
100
AcDbEntity
  8
0
100
AcDbPolyline
 90
        3
 70
     0
 43
0.0
 10
8.6445179408
 20
0.7047800640000049
 10
8.653917849599991
 20
0.6624131104000029
 10
8.665688415999994
 20
0.6229121600000056
  0
LWPOLYLINE
  5
391
330
2E6
100
AcDbEntity
  8
0
100
AcDbPolyline
 90
        6
 70
     0
 43
0.0
 10
8.665688415999994
 20
0.6229121600000056
 10
8.678305112000003
 20
0.5883565520000005
 10
8.690389555199999
 20
0.5597637135999989
 10
8.7012336688
 20
0.5368502704000023
 10
8.710496628800001
 20
0.5188996480000015
 10
8.717625760000004
 20
0.5059056480000024
  0
LINE
  5
392
330
2E6
100
AcDbEntity
  8
0
100
AcDbLine
 10
8.717625760000004
 20
0.5059056480000024
 30
0.0
 11
8.720618971199996
 21
0.5006459408000055
 31
0.0
  0
LINE
  5
393
330
2E6
100
AcDbEntity
  8
0
100
AcDbLine
 10
8.429595044800009
 20
0.4952858207999995
 30
0.0
 11
8.433659119999987
 21
0.4924189552000016
 31
0.0
  0
LWPOLYLINE
  5
394
330
2E6
100
AcDbEntity
  8
0
100
AcDbPolyline
 90
        3
 70
     0
 43
0.0
 10
10.1421082816
 20
0.4600104208000034
 10
10.20164260799998
 20
0.4561898992000053
 10
10.22136555200001
 20
0.4505234144000028
  0
LWPOLYLINE
  5
395
330
2E6
100
AcDbEntity
  8
0
100
AcDbPolyline
 90
        3
 70
     0
 43
0.0
 10
8.720618971199996
 20
0.5006459408000055
 10
8.577062150399996
 20
0.4964782304000011
 10
8.433659041600009
 20
0.4924189520000013
  0
LINE
  5
396
330
2E6
100
AcDbEntity
  8
0
100
AcDbLine
 10
7.510347999999993
 20
0.6564051984000017
 30
0.0
 11
8.430416111999988
 21
0.6844613008000025
 31
0.0
  0
LWPOLYLINE
  5
397
330
2E6
100
AcDbEntity
  8
0
100
AcDbPolyline
 90
       26
 70
     0
 43
0.0
 10
12.808584768
 20
0.8246623695999986
 10
12.80937874719998
 20
0.8262366160000027
 10
12.8117717888
 20
0.8278317327999999
 10
12.8157646736
 20
0.8294443135999998
 10
12.82135818559999
 20
0.8310709488000043
 10
12.8285531072
 20
0.8327082288000013
 10
12.837350216
 20
0.8343527440000002
 10
12.84775029919998
 20
0.8360010880000032
 10
12.85975413439999
 20
0.8376498496000053
 10
12.8733625072
 20
0.8392956224000016
 10
12.88857619679999
 20
0.8409349952000013
 10
12.90539598559999
 20
0.8425645583999994
 10
12.92382265759999
 20
0.8441809072000054
 10
12.943856992
 20
0.8457806288
 10
12.9654997728
 20
0.8473603151999995
 10
12.98875178079998
 20
0.8489165583999991
 10
13.0136137984
 20
0.8504459488000009
 10
13.04008660639999
 20
0.8519450783999999
 10
13.06800476
 20
0.8534033520000008
 10
13.0974506304
 20
0.8548284608000003
 10
13.12835760639998
 20
0.8562205440000028
 10
13.16065908479998
 20
0.8575797487999992
 10
13.1942884528
 20
0.8589062160000011
 10
13.22917910239999
 20
0.8602000895999992
 10
13.2652644272
 20
0.8614615136000054
 10
13.30247781759999
 20
0.862690630400003
  0
LINE
  5
398
330
2E6
100
AcDbEntity
  8
0
100
AcDbLine
 10
12.80741942879998
 20
0.6772264336000049
 30
0.0
 11
12.80140676319999
 21
0.6603466192000056
 31
0.0
  0
LINE
  5
399
330
2E6
100
AcDbEntity
  8
0
100
AcDbLine
 10
12.80699687359998
 20
0.7292697040000036
 30
0.0
 11
12.80673995039998
 21
0.7238341488000018
 31
0.0
  0
LINE
  5
39A
330
2E6
100
AcDbEntity
  8
0
100
AcDbLine
 10
12.805345176
 20
0.8360140336000014
 30
0.0
 11
12.80693714879999
 21
0.8871020624000038
 31
0.0
  0
LINE
  5
39B
330
2E6
100
AcDbEntity
  8
0
100
AcDbLine
 10
12.80703235679999
 20
0.7404715024000055
 30
0.0
 11
12.80834068639998
 21
0.7999334751999996
 31
0.0
  0
LINE
  5
39C
330
2E6
100
AcDbEntity
  8
0
100
AcDbLine
 10
12.808584768
 20
0.8246623695999986
 30
0.0
 11
12.80781317759999
 21
0.7783387440000027
 31
0.0
  0
LINE
  5
39D
330
2E6
100
AcDbEntity
  8
0
100
AcDbLine
 10
12.80781317759999
 20
0.7783387440000027
 30
0.0
 11
12.80699687359998
 21
0.7292697040000036
 31
0.0
  0
LINE
  5
39E
330
2E6
100
AcDbEntity
  8
0
100
AcDbLine
 10
12.80679826560001
 20
0.7254652016000023
 30
0.0
 11
12.80703235679999
 21
0.7404715024000055
 31
0.0
  0
LWPOLYLINE
  5
39F
330
2E6
100
AcDbEntity
  8
0
100
AcDbPolyline
 90
        3
 70
     0
 43
0.0
 10
12.80834068639998
 20
0.7999334751999996
 10
12.8085345952
 20
0.8129923920000052
 10
12.808584768
 20
0.8246623695999986
  0
LINE
  5
3A0
330
2E6
100
AcDbEntity
  8
0
100
AcDbLine
 10
12.80673995039998
 20
0.7238341488000018
 30
0.0
 11
12.80633024799999
 21
0.6950880704000042
 31
0.0
  0
LINE
  5
3A1
330
2E6
100
AcDbEntity
  8
0
100
AcDbLine
 10
13.00863668159999
 20
0.8294206496000029
 30
0.0
 11
13.00870950239999
 21
0.8107732944000005
 31
0.0
  0
LWPOLYLINE
  5
3A2
330
2E6
100
AcDbEntity
  8
0
100
AcDbPolyline
 90
        3
 70
     0
 43
0.0
 10
13.00870950239999
 20
0.8107732944000005
 10
13.00889243520001
 20
0.800883737600003
 10
13.00933283360001
 20
0.7892702736000033
  0
LINE
  5
3A3
330
2E6
100
AcDbEntity
  8
0
100
AcDbLine
 10
12.80693714879999
 20
0.8871020624000038
 30
0.0
 11
12.808584768
 21
0.8246623695999986
 31
0.0
  0
LWPOLYLINE
  5
3A4
330
2E6
100
AcDbEntity
  8
0
100
AcDbPolyline
 90
        6
 70
     0
 43
0.0
 10
12.80734652960001
 20
0.6785980784000003
 10
12.8070647792
 20
0.6848395439999991
 10
12.80681625599999
 20
0.6939447936000036
 10
12.8067024
 20
0.7038495376000001
 10
12.806703104
 20
0.7144057008000005
 10
12.80679826560001
 20
0.7254652016000023
  0
LINE
  5
3A5
330
2E6
100
AcDbEntity
  8
0
100
AcDbLine
 10
12.79602821279999
 20
0.7226495312000055
 30
0.0
 11
12.79731101760001
 21
0.6946744912000043
 31
0.0
  0
LWPOLYLINE
  5
3A6
330
2E6
100
AcDbEntity
  8
0
100
AcDbPolyline
 90
        8
 70
     0
 43
0.0
 10
13.00933283360001
 20
0.7892702736000033
 10
13.0101495376
 20
0.7757107040000051
 10
13.01149741279999
 20
0.7601074192000042
 10
13.01349867679999
 20
0.7426486928000032
 10
13.01615171360001
 20
0.7239120592000035
 10
13.01933619519999
 20
0.7047221024000053
 10
13.02280544639998
 20
0.6866859631999987
 10
13.0257849376
 20
0.6729753408000008
  0
LINE
  5
3A7
330
2E6
100
AcDbEntity
  8
0
100
AcDbLine
 10
12.80633024799999
 20
0.6950880704000042
 30
0.0
 11
12.80741942879998
 21
0.6772264336000049
 31
0.0
  0
LWPOLYLINE
  5
3A8
330
2E6
100
AcDbEntity
  8
0
100
AcDbPolyline
 90
        5
 70
     0
 43
0.0
 10
12.8087029056
 20
0.6608512720000022
 10
12.80839444
 20
0.6640218048000009
 10
12.80804387679998
 20
0.6680975535999992
 10
12.8076837344
 20
0.672986862400002
 10
12.80741942879998
 20
0.6772264336000049
  0
LINE
  5
3A9
330
2E6
100
AcDbEntity
  8
0
100
AcDbLine
 10
13.0257849376
 20
0.6729753408000008
 30
0.0
 11
13.0270193856
 21
0.6675979936000048
 31
0.0
  0
LINE
  5
3AA
330
2E6
100
AcDbEntity
  8
0
100
AcDbLine
 10
12.80140676319999
 20
0.6603466192000056
 30
0.0
 11
12.80907695519999
 21
0.6574833439999992
 31
0.0
  0
LINE
  5
3AB
330
2E6
100
AcDbEntity
  8
0
100
AcDbLine
 10
13.0270193856
 20
0.6675979936000048
 30
0.0
 11
12.80907693439999
 21
0.6574833423999991
 31
0.0
  0
LINE
  5
3AC
330
2E6
100
AcDbEntity
  8
0
100
AcDbLine
 10
12.83226230400001
 20
0.8334465088000015
 30
0.0
 11
12.808584768
 21
0.8246623695999986
 31
0.0
  0
LINE
  5
3AD
330
2E6
100
AcDbEntity
  8
0
100
AcDbLine
 10
10.52313535519999
 20
0.5613069664000037
 30
0.0
 11
10.52664246079999
 21
0.5706179072000026
 31
0.0
  0
LINE
  5
3AE
330
2E6
100
AcDbEntity
  8
0
100
AcDbLine
 10
10.80020508800001
 20
0.5756190880000034
 30
0.0
 11
10.8077844352
 21
0.5968318912000044
 31
0.0
  0
LWPOLYLINE
  5
3AF
330
2E6
100
AcDbEntity
  8
0
100
AcDbPolyline
 90
        5
 70
     0
 43
0.0
 10
10.52664246079999
 20
0.5706179072000026
 10
10.53456122559998
 20
0.5928299040000056
 10
10.543668792
 20
0.6205639040000009
 10
10.55225526559999
 20
0.649432264000005
 10
10.55971678399998
 20
0.6774451711999987
  0
LWPOLYLINE
  5
3B0
330
2E6
100
AcDbEntity
  8
0
100
AcDbPolyline
 90
        6
 70
     0
 43
0.0
 10
10.55971678399998
 20
0.6774451711999987
 10
10.56594210079998
 20
0.7033374832000022
 10
10.57101130079999
 20
0.7263827535999994
 10
10.57510367680001
 20
0.7464438304000041
 10
10.57841995039999
 20
0.7636946512000052
 10
10.5811259712
 20
0.7784604944000009
  0
LINE
  5
3B1
330
2E6
100
AcDbEntity
  8
0
100
AcDbLine
 10
10.8068119616
 20
0.6212158864000017
 30
0.0
 11
10.8077597312
 21
0.6631300495999995
 31
0.0
  0
LINE
  5
3B2
330
2E6
100
AcDbEntity
  8
0
100
AcDbLine
 10
10.80767771199998
 20
0.7246047824000002
 30
0.0
 11
10.80804142880001
 21
0.7865002640000043
 31
0.0
  0
LINE
  5
3B3
330
2E6
100
AcDbEntity
  8
0
100
AcDbLine
 10
10.80767771199998
 20
0.7246047824000002
 30
0.0
 11
10.8075910576
 21
0.700532704000004
 31
0.0
  0
LINE
  5
3B4
330
2E6
100
AcDbEntity
  8
0
100
AcDbLine
 10
10.8075910576
 20
0.700532704000004
 30
0.0
 11
10.80762255039999
 21
0.6394638384000047
 31
0.0
  0
LINE
  5
3B5
330
2E6
100
AcDbEntity
  8
0
100
AcDbLine
 10
10.8077597312
 20
0.6631300495999995
 30
0.0
 11
10.80767771199998
 21
0.7246047824000002
 31
0.0
  0
LINE
  5
3B6
330
2E6
100
AcDbEntity
  8
0
100
AcDbLine
 10
10.80762255039999
 20
0.6394638384000047
 30
0.0
 11
10.807946864
 21
0.5722058943999997
 31
0.0
  0
LINE
  5
3B7
330
2E6
100
AcDbEntity
  8
0
100
AcDbLine
 10
10.80605751679999
 20
0.8489104240000031
 30
0.0
 11
10.80804142880001
 21
0.7865002640000043
 31
0.0
  0
LINE
  5
3B8
330
2E6
100
AcDbEntity
  8
0
100
AcDbLine
 10
10.80780277759998
 20
0.5759142783999991
 30
0.0
 11
10.8079468576
 21
0.5722058927999996
 31
0.0
  0
LINE
  5
3B9
330
2E6
100
AcDbEntity
  8
0
100
AcDbLine
 10
10.8077844352
 20
0.5968318912000044
 30
0.0
 11
10.8068119616
 21
0.6212158864000017
 31
0.0
  0
LINE
  5
3BA
330
2E6
100
AcDbEntity
  8
0
100
AcDbLine
 10
10.807946872
 20
0.5722058943999997
 30
0.0
 11
10.80020508800001
 21
0.5756190880000034
 31
0.0
  0
LINE
  5
3BB
330
2E6
100
AcDbEntity
  8
0
100
AcDbLine
 10
10.80804142880001
 20
0.7865002640000043
 30
0.0
 11
10.7846490544
 21
0.7959576496000054
 31
0.0
  0
LWPOLYLINE
  5
3BC
330
2E6
100
AcDbEntity
  8
0
100
AcDbPolyline
 90
        3
 70
     0
 43
0.0
 10
10.80034800319998
 20
0.5719128735999988
 10
10.665442264
 20
0.5667107728000005
 10
10.52313535359999
 20
0.5613069664000037
  0
LINE
  5
3BD
330
2E6
100
AcDbEntity
  8
0
100
AcDbLine
 10
10.80486135359999
 20
0.7612987183999991
 30
0.0
 11
12.80565215839999
 21
0.8458653984000008
 31
0.0
  0
LINE
  5
3BE
330
2E6
100
AcDbEntity
  8
0
100
AcDbLine
 10
-5.325913878400001
 20
11.417570568
 30
0.0
 11
-5.240539744000017
 21
11.3860322672
 31
0.0
  0
LINE
  5
3BF
330
2E6
100
AcDbEntity
  8
0
100
AcDbLine
 10
-4.893075561599999
 20
9.415435297600005
 30
0.0
 11
-4.88695237760001
 21
9.222459820800004
 31
0.0
  0
LINE
  5
3C0
330
2E6
100
AcDbEntity
  8
0
100
AcDbLine
 10
-4.8729087504
 20
7.381913244800003
 30
0.0
 11
-4.874147440000001
 21
7.136920427200003
 31
0.0
  0
LINE
  5
3C1
330
2E6
100
AcDbEntity
  8
0
100
AcDbLine
 10
-4.871956870399998
 20
7.620368161600005
 30
0.0
 11
-4.872911940800008
 21
7.381218286399999
 31
0.0
  0
LINE
  5
3C2
330
2E6
100
AcDbEntity
  8
0
100
AcDbLine
 10
-4.871401600000012
 20
7.853081289599998
 30
0.0
 11
-4.871959105600012
 21
7.619683823999999
 31
0.0
  0
LINE
  5
3C3
330
2E6
100
AcDbEntity
  8
0
100
AcDbLine
 10
-4.871352223999991
 20
8.080128870400002
 30
0.0
 11
-4.871402540800005
 21
7.852407585600005
 31
0.0
  0
LINE
  5
3C4
330
2E6
100
AcDbEntity
  8
0
100
AcDbLine
 10
-4.871905041600001
 20
8.301659089600001
 30
0.0
 11
-4.871351539199991
 21
8.079465841600004
 31
0.0
  0
LINE
  5
3C5
330
2E6
100
AcDbEntity
  8
0
100
AcDbLine
 10
-4.873151537599994
 20
8.517999988799999
 30
0.0
 11
-4.871902416000011
 21
8.301006662399998
 31
0.0
  0
LINE
  5
3C6
330
2E6
100
AcDbEntity
  8
0
100
AcDbLine
 10
-4.875185476799998
 20
8.729431996800002
 30
0.0
 11
-4.873146659200017
 21
8.517357969599999
 31
0.0
  0
LINE
  5
3C7
330
2E6
100
AcDbEntity
  8
0
100
AcDbLine
 10
-4.878103244800001
 20
8.823651155200003
 30
0.0
 11
-4.875178040000008
 21
8.728800222400003
 31
0.0
  0
LINE
  5
3C8
330
2E6
100
AcDbEntity
  8
0
100
AcDbLine
 10
-4.88200325759999
 20
9.025766208000007
 30
0.0
 11
-4.878092931200001
 21
8.823029524800006
 31
0.0
  0
LINE
  5
3C9
330
2E6
100
AcDbEntity
  8
0
100
AcDbLine
 10
-4.886969395199997
 20
9.223060603200003
 30
0.0
 11
-4.881989740800008
 21
9.025154691200008
 31
0.0
  0
LWPOLYLINE
  5
3CA
330
2E6
100
AcDbEntity
  8
0
100
AcDbPolyline
 90
       40
 70
     0
 43
0.0
 10
-4.830096870400012
 20
11.2349258416
 10
-4.7507608656
 20
11.2053648224
 10
-4.711280699200017
 20
11.19055956
 10
-4.671941609599997
 20
11.1757335232
 10
-4.632775843199993
 20
11.1608912224
 10
-4.59381402400001
 20
11.1460367312
 10
-4.555085057599995
 20
11.131173656
 10
-4.516616043200002
 20
11.1163051408
 10
-4.478432142400009
 20
11.1014338128
 10
-4.44055673599999
 20
11.086561872
 10
-4.403011419199998
 20
11.0716910768
 10
-4.365816088000002
 20
11.0568227792
 10
-4.328989264
 20
11.0419580464
 10
-4.292575321599997
 20
11.0271088848
 10
-4.256646683200017
 20
11.0122999328
 10
-4.2212658336
 20
10.9975531184
 10
-4.186492393599991
 20
10.9828904992
 10
-4.152382103999997
 20
10.9683338432
 10
-4.118972156799998
 20
10.9538982592
 10
-4.08628586719999
 20
10.9395938256
 10
-4.05433742880001
 20
10.92542736
 10
-4.023130145599992
 20
10.9114013536
 10
-3.992667151999995
 20
10.8975185664
 10
-3.962965544000013
 20
10.8837888336
 10
-3.9341151152
 20
10.870257072
 10
-3.906272144000013
 20
10.8570028288
 10
-3.879575915200007
 20
10.8441022064
 10
-3.854054015999992
 20
10.83158064
 10
-3.829621664000001
 20
10.8194084432
 10
-3.806162625599995
 20
10.8075375664
 10
-3.783573528000005
 20
10.7959229312
 10
-3.762125836800009
 20
10.7847134032
 10
-3.742310788800011
 20
10.774184592
 10
-3.724515214400014
 20
10.7645722944
 10
-3.709038679999991
 20
10.7560775456
 10
-3.695978136000007
 20
10.748797544
 10
-3.685173777599999
 20
10.742685592
 10
-3.67642793760001
 20
10.737666944
 10
-3.669699952000001
 20
10.7337520224
 10
-3.665220934399997
 20
10.7311104096
  0
LINE
  5
3CB
330
2E6
100
AcDbEntity
  8
0
100
AcDbLine
 10
-4.910096710400011
 20
11.264531808
 30
0.0
 11
-4.830096870400012
 21
11.2349258416
 31
0.0
  0
LINE
  5
3CC
330
2E6
100
AcDbEntity
  8
0
100
AcDbLine
 10
-4.990970563199994
 20
11.2943198208
 30
0.0
 11
-4.910096710400011
 21
11.264531808
 31
0.0
  0
LINE
  5
3CD
330
2E6
100
AcDbEntity
  8
0
100
AcDbLine
 10
-3.665220934399997
 20
10.7311104096
 30
0.0
 11
-3.662777355200006
 21
10.7296497136
 31
0.0
  0
LINE
  5
3CE
330
2E6
100
AcDbEntity
  8
0
100
AcDbLine
 10
-4.988744438400004
 20
10.7488666256
 30
0.0
 11
-4.972657411200003
 21
10.609979744
 31
0.0
  0
LINE
  5
3CF
330
2E6
100
AcDbEntity
  8
0
100
AcDbLine
 10
-5.005267110400012
 20
10.8755398112
 30
0.0
 11
-4.988688414400002
 21
10.7484115104
 31
0.0
  0
LINE
  5
3D0
330
2E6
100
AcDbEntity
  8
0
100
AcDbLine
 10
-5.021942571200014
 20
10.9900362528
 30
0.0
 11
-5.005208862399996
 21
10.8751178
 31
0.0
  0
LINE
  5
3D1
330
2E6
100
AcDbEntity
  8
0
100
AcDbLine
 10
-5.038503318400017
 20
11.0926997776
 30
0.0
 11
-5.02188353759999
 21
10.9896516656
 31
0.0
  0
LINE
  5
3D2
330
2E6
100
AcDbEntity
  8
0
100
AcDbLine
 10
-5.054952878400001
 20
11.1853889888
 30
0.0
 11
-5.038444465600008
 21
11.092352368
 31
0.0
  0
LINE
  5
3D3
330
2E6
100
AcDbEntity
  8
0
100
AcDbLine
 10
-5.071455062399991
 20
11.2703040608
 30
0.0
 11
-5.054894431999997
 21
11.1850745264
 31
0.0
  0
LINE
  5
3D4
330
2E6
100
AcDbEntity
  8
0
100
AcDbLine
 10
-4.900409985599992
 20
9.603171107200004
 30
0.0
 11
-4.893054744000011
 21
9.414845262400007
 31
0.0
  0
LINE
  5
3D5
330
2E6
100
AcDbEntity
  8
0
100
AcDbLine
 10
-4.909059439999992
 20
9.786306276800004
 30
0.0
 11
-4.900385064000005
 21
9.602591840000002
 31
0.0
  0
LINE
  5
3D6
330
2E6
100
AcDbEntity
  8
0
100
AcDbLine
 10
-4.919096337599995
 20
9.964559376000003
 30
0.0
 11
-4.90903010880001
 21
9.785738062400007
 31
0.0
  0
LINE
  5
3D7
330
2E6
100
AcDbEntity
  8
0
100
AcDbLine
 10
-4.930551400000013
 20
10.1372349328
 30
0.0
 11
-4.919062313599994
 21
9.964003003200005
 31
0.0
  0
LINE
  5
3D8
330
2E6
100
AcDbEntity
  8
0
100
AcDbLine
 10
-4.943368750399997
 20
10.30306508
 30
0.0
 11
-4.930512500800006
 21
10.1366920992
 31
0.0
  0
LINE
  5
3D9
330
2E6
100
AcDbEntity
  8
0
100
AcDbLine
 10
-4.957483302399992
 20
10.4612950416
 30
0.0
 11
-4.943324971200013
 21
10.302538352
 31
0.0
  0
LINE
  5
3DA
330
2E6
100
AcDbEntity
  8
0
100
AcDbLine
 10
-4.972710105600015
 20
10.610463624
 30
0.0
 11
-4.957434787200014
 21
10.4607872544
 31
0.0
  0
LINE
  5
3DB
330
2E6
100
AcDbEntity
  8
0
100
AcDbLine
 10
-5.240539744000017
 20
11.3860322672
 30
0.0
 11
-4.990970563199994
 21
11.2943198208
 31
0.0
  0
LINE
  5
3DC
330
2E6
100
AcDbEntity
  8
0
100
AcDbLine
 10
-5.083789187200011
 20
11.3284153952
 30
0.0
 11
-5.071396595200013
 21
11.2700162832
 31
0.0
  0
LWPOLYLINE
  5
3DD
330
2E6
100
AcDbEntity
  8
0
100
AcDbPolyline
 90
       26
 70
     0
 43
0.0
 10
7.507465731199999
 20
15.9021093632
 10
7.418630895999996
 20
15.8990223696
 10
7.332670089599986
 20
15.8900650144
 10
7.250596502399986
 20
15.8756274032
 10
7.1726107952
 20
15.8560626992
 10
7.097668598399991
 20
15.8312916304
 10
7.024108153599996
 20
15.8007958864
 10
6.951275670400008
 20
15.76412535840001
 10
6.880509777599996
 20
15.7216573552
 10
6.812091415999987
 20
15.6732985808
 10
6.745438439999986
 20
15.6181984016
 10
6.680285862400012
 20
15.5555314176
 10
6.616896691199997
 20
15.484726672
 10
6.556672311999989
 20
15.4065516256
 10
6.503665220800002
 20
15.3263169312
 10
6.461260964800004
 20
15.2513344432
 10
6.427887974399993
 20
15.1803205776
 10
6.401098745599995
 20
15.1080572032
 10
6.379113393599993
 20
15.0290546272
 10
6.361346625599992
 20
14.9398393952
 10
6.347206891199988
 20
14.8398634096
 10
6.335021624000006
 20
14.7304146032
 10
6.324118867199985
 20
14.6112367152
 10
6.313733511999998
 20
14.4819233808
 10
6.30320180160001
 20
14.341601032
 10
6.280135931199993
 20
14.0231281488
  0
LWPOLYLINE
  5
3DE
330
2E6
100
AcDbEntity
  8
0
100
AcDbPolyline
 90
       32
 70
     0
 43
0.0
 10
6.998823684799987
 20
12.067210616
 10
7.033616679999994
 20
12.61440684
 10
7.048924526399986
 20
12.8483108304
 10
7.063498748799986
 20
13.0608067536
 10
7.077637961600004
 20
13.2545708464
 10
7.091473318400005
 20
13.4307215248
 10
7.105063231999992
 20
13.5901567776
 10
7.118481142399986
 20
13.7340209632
 10
7.131816235200005
 20
13.8637453168
 10
7.145128308799996
 20
13.9807761856
 10
7.158476008000008
 20
14.0865675008
 10
7.171943739200003
 20
14.1824193104
 10
7.185615300800009
 20
14.2694233632
 10
7.199576635200003
 20
14.3485808928
 10
7.21390131839999
 20
14.4206569168
 10
7.228649083199996
 20
14.4862768368
 10
7.243845073599999
 20
14.54590684640001
 10
7.2595078688
 20
14.5999068
 10
7.275643078400008
 20
14.6485491104
 10
7.292244511999996
 20
14.6920882624
 10
7.309303496000012
 20
14.7307501248
 10
7.326779465599997
 20
14.7647490496
 10
7.344613878399997
 20
14.7942721952
 10
7.362735403199991
 20
14.819485416
 10
7.381018353600012
 20
14.8405591008
 10
7.399273399999998
 20
14.857712864
 10
7.417215056000003
 20
14.8712197296
 10
7.43476868479999
 20
14.8815605728
 10
7.452227873600008
 20
14.8892618464
 10
7.46996314399999
 20
14.894640216
 10
7.488293294399994
 20
14.8978437168
 10
7.507465731199999
 20
14.8989220192
  0
LWPOLYLINE
  5
3DF
330
2E6
100
AcDbEntity
  8
0
100
AcDbPolyline
 90
       31
 70
     0
 43
0.0
 10
7.981314784000005
 20
12.61440684
 10
7.966006937599985
 20
12.8483108304
 10
7.951432715199985
 20
13.0608067536
 10
7.937293502399995
 20
13.2545708464
 10
7.923458145599994
 20
13.4307215248
 10
7.909868232000007
 20
13.5901567776
 10
7.896450321599985
 20
13.7340209632
 10
7.883115228799994
 20
13.8637453168
 10
7.869803155200003
 20
13.9807761856
 10
7.856455455999991
 20
14.0865675008
 10
7.842987724799996
 20
14.1824193104
 10
7.82931616319999
 20
14.2694233632
 10
7.815354828799996
 20
14.3485808928
 10
7.801030145600009
 20
14.4206569168
 10
7.786282380800003
 20
14.4862768368
 10
7.7710863904
 20
14.54590684640001
 10
7.755423595199999
 20
14.5999068
 10
7.739288385599991
 20
14.6485491104
 10
7.722686952000003
 20
14.6920882624
 10
7.705627967999987
 20
14.7307501248
 10
7.688151998400002
 20
14.7647490496
 10
7.670317585600002
 20
14.7942721952
 10
7.652196059200008
 20
14.819485416
 10
7.633913110399987
 20
14.8405591008
 10
7.615658064000001
 20
14.857712864
 10
7.597716407999996
 20
14.8712197296
 10
7.580162779200009
 20
14.8815605728
 10
7.562703590399991
 20
14.8892618464
 10
7.544968320000009
 20
14.894640216
 10
7.526638169600005
 20
14.8978437168
 10
7.507465731199999
 20
14.8989220192
  0
LWPOLYLINE
  5
3E0
330
2E6
100
AcDbEntity
  8
0
100
AcDbPolyline
 90
       25
 70
     0
 43
0.0
 10
7.507465731199999
 20
15.9021093632
 10
7.596299985600012
 20
15.8990195824
 10
7.682260126399995
 20
15.8900617296
 10
7.764333051199997
 20
15.8756236928
 10
7.842318145599989
 20
15.8560586576
 10
7.917259804800011
 20
15.8312873744
 10
7.990819798399996
 20
15.8007915344
 10
8.063651913600011
 20
15.7641210096
 10
8.134417521599999
 20
15.7216530912
 10
8.202835684799993
 20
15.6732944752
 10
8.269488550400012
 20
15.618194544
 10
8.334641105599985
 20
15.5555279168
 10
8.398030355200006
 20
15.4847236864
 10
8.458254929600002
 20
15.4065494096
 10
8.511262335999987
 20
15.32631577760001
 10
8.553667019199991
 20
15.2513345872
 10
8.587040559999991
 20
15.1803222096
 10
8.613830447999987
 20
15.108060384
 10
8.635816534399992
 20
15.0290593936
 10
8.6535840656
 20
14.939845672
 10
8.667724504000005
 20
14.839870792
 10
8.679910262399999
 20
14.7304224736
 10
8.690813353599992
 20
14.6112437856
 10
8.701198923199996
 20
14.4819283632
 10
8.711730590400009
 20
14.341603672
  0
LINE
  5
3E1
330
2E6
100
AcDbEntity
  8
0
100
AcDbLine
 10
19.8821979104
 20
6.688035510399998
 30
0.0
 11
19.8791145216
 21
7.247689360000002
 31
0.0
  0
LWPOLYLINE
  5
3E2
330
2E6
100
AcDbEntity
  8
0
100
AcDbPolyline
 90
       30
 70
     0
 43
0.0
 10
17.5842390608
 20
1.926964779199998
 10
17.64445590080001
 20
1.935372780800001
 10
17.7109013456
 20
1.944575974400002
 10
17.78104888159998
 20
1.954444873600003
 10
17.85442120799999
 20
1.965210998400003
 10
17.93177878559998
 20
1.977392091200002
 10
18.01255249920001
 20
1.9914243248
 10
18.09273198880001
 20
2.0069996848
 10
18.17276087359999
 20
2.024431300800003
 10
18.2538860752
 20
2.044294636800003
 10
18.33718488799999
 20
2.067284776000001
 10
18.4235293504
 20
2.094219953600003
 10
18.51328701119999
 20
2.125941588800003
 10
18.6061107056
 20
2.1631603824
 10
18.70207411359999
 20
2.206838145600002
 10
18.80050033599999
 20
2.257669352
 10
18.90147584319999
 20
2.3168376112
 10
19.00468764479998
 20
2.385551148800004
 10
19.10967997119999
 20
2.465172694400003
 10
19.2154860464
 20
2.556957617600005
 10
19.32076246400001
 20
2.6621278928
 10
19.42322698399999
 20
2.781024982400005
 10
19.5199037856
 20
2.912747707200004
 10
19.60800914719999
 20
3.055747064000001
 10
19.68535404639999
 20
3.208127433600004
 10
19.75040585119998
 20
3.3681516432
 10
19.8021890928
 20
3.5342879648
 10
19.83992142080001
 20
3.704491873600005
 10
19.86329248000001
 20
3.877154142400002
 10
19.87199002720001
 20
4.031786576000001
  0
ARC
  5
3E3
330
2E6
100
AcDbEntity
  8
0
100
AcDbCircle
 10
14.10022151839999
 20
0.5125000000000029
 30
0.0
 40
0.5
100
AcDbArc
 50
270.0
 51
354.9999999999997
  0
ARC
  5
3E4
330
2E6
100
AcDbEntity
  8
0
100
AcDbCircle
 10
14.9663070016
 20
0.3879168256000014
 30
0.0
 40
0.3750000016
100
AcDbArc
 50
92.9622168864002
 51
171.8143468798
  0
LINE
  5
3E5
330
2E6
100
AcDbEntity
  8
0
100
AcDbLine
 10
16.15492660320001
 20
1.014932131200005
 30
0.0
 11
15.84706051680001
 21
0.3541322304000047
 31
0.0
  0
LINE
  5
3E6
330
2E6
100
AcDbEntity
  8
0
100
AcDbLine
 10
15.77689864479998
 20
0.994445296000002
 30
0.0
 11
15.5071419248
 21
0.4154428575999987
 31
0.0
  0
LINE
  5
3E7
330
2E6
100
AcDbEntity
  8
0
100
AcDbLine
 10
15.5071419248
 20
0.0125000000000029
 30
0.0
 11
15.5071419248
 21
0.4154428575999987
 31
0.0
  0
LWPOLYLINE
  5
3E8
330
2E6
100
AcDbEntity
  8
0
100
AcDbPolyline
 90
        7
 70
     0
 43
0.0
 10
15.5071419248
 20
0.4154428575999987
 10
15.60262024319999
 20
0.3777991648000025
 10
15.69070316159999
 20
0.3508185216000044
 10
15.7641160352
 20
0.336759494399999
 10
15.8170006896
 20
0.3367474448000038
 10
15.84510853439999
 20
0.350786216000003
 10
15.84705613439999
 20
0.3541228288000013
  0
LINE
  5
3E9
330
2E6
100
AcDbEntity
  8
0
100
AcDbLine
 10
15.5071419248
 20
0.4154428575999987
 30
0.0
 11
14.58687017599999
 21
0.4154428575999987
 31
0.0
  0
LWPOLYLINE
  5
3EA
330
2E6
100
AcDbEntity
  8
0
100
AcDbPolyline
 90
        6
 70
     0
 43
0.0
 10
15.5071419248
 20
0.0125000000000029
 10
15.59925247039998
 20
0.0499504589279667
 10
15.68433341279998
 20
0.1274051704612447
 10
15.75810136320001
 20
0.2338526240000007
 10
15.81686267839998
 20
0.3010808544000056
 10
15.84705613439999
 20
0.3541228288000013
  0
LINE
  5
3EB
330
2E6
100
AcDbEntity
  8
0
100
AcDbLine
 10
15.5071419248
 20
0.0125000000000029
 30
0.0
 11
13.56270333919999
 21
0.0125000000000029
 31
0.0
  0
LINE
  5
3EC
330
2E6
100
AcDbEntity
  8
0
100
AcDbLine
 10
13.89155269279999
 20
0.0125000000000029
 30
0.0
 11
14.10022151839999
 21
0.0125000000000029
 31
0.0
  0
LWPOLYLINE
  5
3ED
330
2E6
100
AcDbEntity
  8
0
100
AcDbPolyline
 90
        4
 70
     0
 43
0.0
 10
17.35402237439998
 20
1.910229089600001
 10
17.0599237472
 20
1.910509350400005
 10
16.75569596479999
 20
1.910791204799998
 10
13.97477797920001
 20
1.913023600000002
  0
LWPOLYLINE
  5
3EE
330
2E6
100
AcDbEntity
  8
0
100
AcDbPolyline
 90
       51
 70
     0
 43
0.0
 10
17.55378444319998
 20
1.939015251200004
 10
17.62732713279999
 20
1.950447569600001
 10
17.68495924320001
 20
1.960502307200002
 10
17.73366895359998
 20
1.970311200000004
 10
17.7765831824
 20
1.980424470400002
 10
17.81345935199999
 20
1.990812257600005
 10
17.84400696
 20
2.001406083200002
 10
17.86811373439999
 20
2.012159841600002
 10
17.8856617456
 20
2.022999404800003
 10
17.89659746239999
 20
2.033831920000004
 10
17.90105860959999
 20
2.044585112
 10
17.89928918399999
 20
2.055199796800003
 10
17.89155780639998
 20
2.065608961599998
 10
17.87820315839999
 20
2.075776777600005
 10
17.85962678079999
 20
2.085670281600002
 10
17.83627996639998
 20
2.095239607999999
 10
17.80855787359999
 20
2.104465651200001
 10
17.77691427039999
 20
2.1133278
 10
17.74183468800001
 20
2.121811743999998
 10
17.7035829904
 20
2.129955135999999
 10
17.66221969919999
 20
2.137817265599998
 10
17.61799341599999
 20
2.145406427200001
 10
17.57123067680001
 20
2.152714647999999
 10
17.52226903519999
 20
2.159735137600002
 10
17.471257336
 20
2.166490895999999
 10
17.41776558079999
 20
2.173073355200003
 10
17.361413712
 20
2.179546801600004
 10
17.3020915408
 20
2.185935070399999
 10
17.2396925456
 20
2.192260076800003
 10
17.17406770400001
 20
2.1985429968
 10
17.1050039584
 20
2.204806926400003
 10
17.03242610719999
 20
2.211059667200004
 10
16.95640564159998
 20
2.217295296000003
 10
16.87688675999999
 20
2.223518054400003
 10
16.79375374079998
 20
2.229735368
 10
16.70691623679999
 20
2.2359510912
 10
16.61631429440001
 20
2.242166353600005
 10
16.5217156928
 20
2.2483941232
 10
16.42263055999998
 20
2.254661385600002
 10
16.3188387744
 20
2.260974256000004
 10
16.21041929759999
 20
2.267318771200002
 10
16.09756006079999
 20
2.273675436800004
 10
15.98041452800001
 20
2.280029987200002
 10
15.85701041920001
 20
2.286482640000002
 10
15.7336062992
 20
2.2927131856
 10
15.62023659359999
 20
2.298262707200002
 10
15.5162388624
 20
2.303223137599999
 10
15.41947215039999
 20
2.307737944000002
 10
15.3288372
 20
2.3118855648
 10
15.24372339359999
 20
2.315712353599998
 10
15.0817074768
 20
2.322815508800005
  0
LWPOLYLINE
  5
3EF
330
2E6
100
AcDbEntity
  8
0
100
AcDbPolyline
 90
        3
 70
     0
 43
0.0
 10
14.96788481920001
 20
0.9520007504000034
 10
15.2858450768
 20
0.9678331536000044
 10
17.2940109184
 20
0.951663633599999
  0
LINE
  5
3F0
330
2E6
100
AcDbEntity
  8
0
100
AcDbLine
 10
14.62307107039998
 20
0.5738495776000008
 30
0.0
 11
14.59831888319999
 21
0.4689221264000026
 31
0.0
  0
LINE
  5
3F1
330
2E6
100
AcDbEntity
  8
0
100
AcDbLine
 10
14.94692796000001
 20
0.7624159727999995
 30
0.0
 11
14.94721462879999
 21
0.7636473200000041
 31
0.0
  0
LINE
  5
3F2
330
2E6
100
AcDbEntity
  8
0
100
AcDbLine
 10
15.1780900912
 20
0.7767415136000011
 30
0.0
 11
15.18081285919999
 21
0.7885002816000011
 31
0.0
  0
LWPOLYLINE
  5
3F3
330
2E6
100
AcDbEntity
  8
0
100
AcDbPolyline
 90
        5
 70
     0
 43
0.0
 10
15.1814934912
 20
0.8666606176000044
 10
15.18081078559998
 20
0.8636736320000011
 10
15.18013710880001
 20
0.8605153487999999
 10
15.17952552319999
 20
0.8571653903999987
 10
15.17924830559999
 20
0.8553424880000051
  0
LWPOLYLINE
  5
3F4
330
2E6
100
AcDbEntity
  8
0
100
AcDbPolyline
 90
        6
 70
     0
 43
0.0
 10
14.94721462879999
 20
0.7636473200000041
 10
14.94809833919998
 20
0.7675249135999991
 10
14.94958133279999
 20
0.7742386880000041
 10
14.95160579360001
 20
0.7837206431999988
 10
14.95406017120001
 20
0.7959596528000006
 10
14.95677635199999
 20
0.8107141216000002
  0
LWPOLYLINE
  5
3F5
330
2E6
100
AcDbEntity
  8
0
100
AcDbPolyline
 90
        5
 70
     0
 43
0.0
 10
14.95677635199999
 20
0.8107141216000002
 10
14.9599457408
 20
0.8274574032000003
 10
14.96345950879998
 20
0.8442297280000019
 10
14.9669153728
 20
0.8596794704000032
 10
14.96992049919998
 20
0.8735262112000015
  0
LINE
  5
3F6
330
2E6
100
AcDbEntity
  8
0
100
AcDbLine
 10
15.17924830559999
 20
0.8553424880000051
 30
0.0
 11
15.17887767519999
 21
0.8524120607999989
 31
0.0
  0
LINE
  5
3F7
330
2E6
100
AcDbEntity
  8
0
100
AcDbLine
 10
14.59831886719999
 20
0.4689221280000027
 30
0.0
 11
14.60378151840001
 21
0.5313605199999998
 31
0.0
  0
LWPOLYLINE
  5
3F8
330
2E6
100
AcDbEntity
  8
0
100
AcDbPolyline
 90
        3
 70
     0
 43
0.0
 10
15.17825850560001
 20
0.8305625184000007
 10
15.179011336
 20
0.8536936336000024
 10
15.18024001279999
 20
0.8601664032000044
  0
LINE
  5
3F9
330
2E6
100
AcDbEntity
  8
0
100
AcDbLine
 10
15.17826307839999
 20
0.8203337472000029
 30
0.0
 11
15.17825850560001
 21
0.8305625184000007
 31
0.0
  0
LINE
  5
3FA
330
2E6
100
AcDbEntity
  8
0
100
AcDbLine
 10
15.18204954079999
 20
0.9403232527999989
 30
0.0
 11
15.18334032959998
 21
0.8765071808000044
 31
0.0
  0
LINE
  5
3FB
330
2E6
100
AcDbEntity
  8
0
100
AcDbLine
 10
15.18204954079999
 20
0.9403232527999989
 30
0.0
 11
15.18208178559999
 21
0.9393888512000003
 31
0.0
  0
LINE
  5
3FC
330
2E6
100
AcDbEntity
  8
0
100
AcDbLine
 10
15.18334186239999
 20
0.8765072111999998
 30
0.0
 11
15.18326228480001
 21
0.8778453856000041
 31
0.0
  0
LWPOLYLINE
  5
3FD
330
2E6
100
AcDbEntity
  8
0
100
AcDbPolyline
 90
        7
 70
     0
 43
0.0
 10
15.18080351200001
 20
0.7885524288000028
 10
15.18119720959998
 20
0.7851351680000036
 10
15.18156311359999
 20
0.7821218816000055
 10
15.1818892768
 20
0.7795569407999992
 10
15.182163752
 20
0.7774847248000043
 10
15.1823745968
 20
0.7759496080000048
 10
15.18255760319999
 20
0.7746681712000055
  0
LINE
  5
3FE
330
2E6
100
AcDbEntity
  8
0
100
AcDbLine
 10
15.18081285919999
 20
0.7885002816000011
 30
0.0
 11
15.1801772208
 21
0.7972530223999997
 31
0.0
  0
LINE
  5
3FF
330
2E6
100
AcDbEntity
  8
0
100
AcDbLine
 10
15.1801772208
 20
0.7972530223999997
 30
0.0
 11
15.17826307839999
 21
0.8203337472000029
 31
0.0
  0
LINE
  5
400
330
2E6
100
AcDbEntity
  8
0
100
AcDbLine
 10
15.18255761759999
 20
0.7746681728000056
 30
0.0
 11
15.1780900912
 21
0.7767415136000011
 31
0.0
  0
LINE
  5
401
330
2E6
100
AcDbEntity
  8
0
100
AcDbLine
 10
14.60378158559999
 20
0.5313617920000056
 30
0.0
 11
14.58980307839999
 21
0.5349470415999989
 31
0.0
  0
LINE
  5
402
330
2E6
100
AcDbEntity
  8
0
100
AcDbLine
 10
14.96992049919998
 20
0.8735262112000015
 30
0.0
 11
14.94764701759999
 21
0.8771360080000007
 31
0.0
  0
LINE
  5
403
330
2E6
100
AcDbEntity
  8
0
100
AcDbLine
 10
15.18326228480001
 20
0.8778453856000041
 30
0.0
 11
15.1594329424
 21
0.8816806224000046
 31
0.0
  0
LINE
  5
404
330
2E6
100
AcDbEntity
  8
0
100
AcDbLine
 10
14.58980307839999
 20
0.5349470415999989
 30
0.0
 11
14.5496185824
 21
0.5372894863999989
 31
0.0
  0
LINE
  5
405
330
2E6
100
AcDbEntity
  8
0
100
AcDbLine
 10
15.1594329424
 20
0.8816806224000046
 30
0.0
 11
15.08787672319999
 21
0.8843029472000054
 31
0.0
  0
LWPOLYLINE
  5
406
330
2E6
100
AcDbEntity
  8
0
100
AcDbPolyline
 90
       14
 70
     0
 43
0.0
 10
15.02934383999999
 20
0.8851475136000033
 10
15.07019810240001
 20
0.8845818592000043
 10
15.08826556159999
 20
0.8842395936000002
 10
15.10476025279999
 20
0.8838576416000023
 10
15.11968243679999
 20
0.8834359583999997
 10
15.13303237439998
 20
0.882974499200003
 10
15.1448103264
 20
0.882473216000001
 10
15.1550165536
 20
0.8819320656000044
 10
15.16365131679998
 20
0.8813510016000023
 10
15.17071487519999
 20
0.880729977600005
 10
15.17620749119998
 20
0.8800689504000018
 10
15.180129424
 20
0.8793678720000031
 10
15.18248093439999
 20
0.8786266992000051
 10
15.18326228480001
 20
0.8778453856000041
  0
LINE
  5
407
330
2E6
100
AcDbEntity
  8
0
100
AcDbLine
 10
15.08787672319999
 20
0.8843029472000054
 30
0.0
 11
14.9685511408
 21
0.8856457824000045
 31
0.0
  0
LWPOLYLINE
  5
408
330
2E6
100
AcDbEntity
  8
0
100
AcDbPolyline
 90
        4
 70
     0
 43
0.0
 10
14.96183101439999
 20
0.9481579776000046
 10
15.08195452160001
 20
0.9468861232000023
 10
15.15590663680001
 20
0.9443195184000003
 10
15.18204954079999
 20
0.9403232527999989
  0
LINE
  5
409
330
2E6
100
AcDbEntity
  8
0
100
AcDbLine
 10
14.98219537919999
 20
0.8855549680000009
 30
0.0
 11
15.02934383999999
 21
0.8851475136000033
 31
0.0
  0
LINE
  5
40A
330
2E6
100
AcDbEntity
  8
0
100
AcDbLine
 10
14.9284156928
 20
0.8858056944000054
 30
0.0
 11
14.98219537919999
 21
0.8855549680000009
 31
0.0
  0
LINE
  5
40B
330
2E6
100
AcDbEntity
  8
0
100
AcDbLine
 10
14.86815563839999
 20
0.8858986592000022
 30
0.0
 11
14.9284156928
 21
0.8858056944000054
 31
0.0
  0
LINE
  5
40C
330
2E6
100
AcDbEntity
  8
0
100
AcDbLine
 10
14.80224767039999
 20
0.8858351904000016
 30
0.0
 11
14.86815563839999
 21
0.8858986592000022
 31
0.0
  0
LINE
  5
40D
330
2E6
100
AcDbEntity
  8
0
100
AcDbLine
 10
14.73122803839999
 20
0.8856186832000005
 30
0.0
 11
14.80224767039999
 21
0.8858351904000016
 31
0.0
  0
LINE
  5
40E
330
2E6
100
AcDbEntity
  8
0
100
AcDbLine
 10
14.65563299359999
 20
0.8852525360000029
 30
0.0
 11
14.73122803839999
 21
0.8856186832000005
 31
0.0
  0
LINE
  5
40F
330
2E6
100
AcDbEntity
  8
0
100
AcDbLine
 10
14.5759987824
 20
0.8847401487999988
 30
0.0
 11
14.65563299359999
 21
0.8852525360000029
 31
0.0
  0
LINE
  5
410
330
2E6
100
AcDbEntity
  8
0
100
AcDbLine
 10
14.4928616544
 20
0.8840849167999991
 30
0.0
 11
14.5759987824
 21
0.8847401487999988
 31
0.0
  0
LINE
  5
411
330
2E6
100
AcDbEntity
  8
0
100
AcDbLine
 10
14.40675786080001
 20
0.8832902400000008
 30
0.0
 11
14.4928616544
 21
0.8840849167999991
 31
0.0
  0
LINE
  5
412
330
2E6
100
AcDbEntity
  8
0
100
AcDbLine
 10
14.31822365119998
 20
0.8823595168000011
 30
0.0
 11
14.40675786080001
 21
0.8832902400000008
 31
0.0
  0
LINE
  5
413
330
2E6
100
AcDbEntity
  8
0
100
AcDbLine
 10
14.22779527360001
 20
0.8812961456000039
 30
0.0
 11
14.31822365119998
 21
0.8823595168000011
 31
0.0
  0
LINE
  5
414
330
2E6
100
AcDbEntity
  8
0
100
AcDbLine
 10
14.1360089792
 20
0.8801035215999988
 30
0.0
 11
14.22779527360001
 21
0.8812961456000039
 31
0.0
  0
LINE
  5
415
330
2E6
100
AcDbEntity
  8
0
100
AcDbLine
 10
14.5496185824
 20
0.5372894863999989
 30
0.0
 11
14.48531649919999
 21
0.5385377504000033
 31
0.0
  0
LINE
  5
416
330
2E6
100
AcDbEntity
  8
0
100
AcDbLine
 10
15.178209968
 20
0.7744415631999999
 30
0.0
 11
14.94692796000001
 21
0.7624159727999995
 31
0.0
  0
LWPOLYLINE
  5
417
330
2E6
100
AcDbEntity
  8
0
100
AcDbPolyline
 90
        6
 70
     0
 43
0.0
 10
14.96992049759998
 20
0.8735263392000049
 10
14.8620403456
 20
0.8554370672000004
 10
14.76397216640001
 20
0.8069910640000017
 10
14.6840604736
 20
0.7323105440000007
 10
14.6291048656
 20
0.6377499888000031
 10
14.6037814496
 20
0.5313554527999998
  0
LWPOLYLINE
  5
418
330
2E6
100
AcDbEntity
  8
0
100
AcDbPolyline
 90
        5
 70
     0
 43
0.0
 10
14.9567761136
 20
0.8107200464000001
 10
14.8507399968
 20
0.7909375872000055
 10
14.75472862399999
 20
0.7418060832000038
 10
14.67668645119999
 20
0.6673909216000027
 10
14.62307107039998
 20
0.5738495776000008
  0
LINE
  5
419
330
2E6
100
AcDbEntity
  8
0
100
AcDbLine
 10
13.39345534239998
 20
0.4689221280000027
 30
0.0
 11
13.39183506719999
 21
0.4874419648000057
 31
0.0
  0
LINE
  5
41A
330
2E6
100
AcDbEntity
  8
0
100
AcDbLine
 10
13.366738744
 20
0.5787016976000033
 30
0.0
 11
13.39345534559998
 21
0.4689221296000028
 31
0.0
  0
LINE
  5
41B
330
2E6
100
AcDbEntity
  8
0
100
AcDbLine
 10
13.9507527952
 20
0.8773479824000034
 30
0.0
 11
14.04340101599999
 21
0.8787850464000044
 31
0.0
  0
LINE
  5
41C
330
2E6
100
AcDbEntity
  8
0
100
AcDbLine
 10
13.85859901439999
 20
0.8757944112000046
 30
0.0
 11
13.9507527952
 21
0.8773479824000034
 31
0.0
  0
LINE
  5
41D
330
2E6
100
AcDbEntity
  8
0
100
AcDbLine
 10
13.63280228639999
 20
0.8713777088000043
 30
0.0
 11
13.72200146719998
 21
0.8732364383999993
 31
0.0
  0
LINE
  5
41E
330
2E6
100
AcDbEntity
  8
0
100
AcDbLine
 10
13.5457174624
 20
0.8693949088000039
 30
0.0
 11
13.63280228639999
 21
0.8713777088000043
 31
0.0
  0
LINE
  5
41F
330
2E6
100
AcDbEntity
  8
0
100
AcDbLine
 10
13.38002235999999
 20
0.8650525167999987
 30
0.0
 11
13.461279864
 21
0.8672868944000029
 31
0.0
  0
LINE
  5
420
330
2E6
100
AcDbEntity
  8
0
100
AcDbLine
 10
13.45384352639999
 20
0.5033681680000015
 30
0.0
 11
13.4070994944
 21
0.4952863375999997
 31
0.0
  0
LINE
  5
421
330
2E6
100
AcDbEntity
  8
0
100
AcDbLine
 10
13.4070994944
 20
0.4952863375999997
 30
0.0
 11
13.39183497280001
 21
0.4874430784000055
 31
0.0
  0
LINE
  5
422
330
2E6
100
AcDbEntity
  8
0
100
AcDbLine
 10
14.04340101599999
 20
0.8787850464000044
 30
0.0
 11
14.1360089792
 21
0.8801035215999988
 31
0.0
  0
LWPOLYLINE
  5
423
330
2E6
100
AcDbEntity
  8
0
100
AcDbPolyline
 90
       10
 70
     0
 43
0.0
 10
14.48531649919999
 20
0.5385377504000033
 10
14.39771305759998
 20
0.5387481039999998
 10
14.2878521808
 20
0.5379133312000022
 10
14.15985347840001
 20
0.5360142592000017
 10
14.02225835519999
 20
0.5330853856000033
 10
13.88360508479999
 20
0.5291540848000054
 10
13.7507832304
 20
0.5241818544000055
 10
13.63050971039999
 20
0.5181357680000005
 10
13.5296657648
 20
0.5111143344000056
 10
13.45384352639999
 20
0.5033681680000015
  0
LINE
  5
424
330
2E6
100
AcDbEntity
  8
0
100
AcDbLine
 10
14.59831886719999
 20
0.4689221280000027
 30
0.0
 11
13.39345534239998
 21
0.4689221280000027
 31
0.0
  0
LWPOLYLINE
  5
425
330
2E6
100
AcDbEntity
  8
0
100
AcDbPolyline
 90
        4
 70
     0
 43
0.0
 10
17.60433678239999
 20
1.499271583999998
 10
17.6056967872
 20
1.534344230400002
 10
17.6071395552
 20
1.568287656000002
 10
17.608636552
 20
1.601102339200004
  0
LWPOLYLINE
  5
426
330
2E6
100
AcDbEntity
  8
0
100
AcDbPolyline
 90
       45
 70
     0
 43
0.0
 10
17.35402270239998
 20
1.910229092800001
 10
17.3633806144
 20
1.909740068800005
 10
17.37269950399999
 20
1.9088837376
 10
17.38198544479999
 20
1.907671646400004
 10
17.39122916959999
 20
1.906112913600004
 10
17.4004203728
 20
1.904214008000003
 10
17.40954817919998
 20
1.901978721600002
 10
17.41860061599999
 20
1.899408315199998
 10
17.4275644592
 20
1.896501523200001
 10
17.43642478719999
 20
1.893254652800003
 10
17.4451647264
 20
1.889661513600003
 10
17.45376594559999
 20
1.885713303999999
 10
17.46227587199999
 20
1.881422489600005
 10
17.47072329599999
 20
1.876802619199999
 10
17.47909004479998
 20
1.871853222399998
 10
17.4873567248
 20
1.866572339200004
 10
17.4955022336
 20
1.860956532800003
 10
17.50351188319999
 20
1.855004569600005
 10
17.51139211520001
 20
1.848728063999999
 10
17.51910425599999
 20
1.842139496000001
 10
17.5266103568
 20
1.835248255999999
 10
17.53388312480001
 20
1.828054663999999
 10
17.5408949104
 20
1.820559931200001
 10
17.54766494719999
 20
1.812786820799999
 10
17.554190032
 20
1.804750515200005
 10
17.56043990719999
 20
1.796452859200002
 10
17.5663858112
 20
1.787895198400001
 10
17.57200029119999
 20
1.779079214399999
 10
17.57727531520001
 20
1.770017180800003
 10
17.58223965280001
 20
1.760741576
 10
17.58686358239998
 20
1.751253553600001
 10
17.59111563519999
 20
1.741553235200001
 10
17.59496836479999
 20
1.7316428528
 10
17.59840134719999
 20
1.721528201600001
 10
17.60145478559999
 20
1.711242350399999
 10
17.6041266112
 20
1.700797668799999
 10
17.6063820832
 20
1.690193283200002
 10
17.6081958432
 20
1.6794336576
 10
17.60955552959998
 20
1.668528995199999
 10
17.61047557279999
 20
1.657496633600004
 10
17.61098835519999
 20
1.646359526400004
 10
17.6110661264
 20
1.635152601600005
 10
17.6106954656
 20
1.623887824
 10
17.6098797104
 20
1.612544792000001
 10
17.608636552
 20
1.601102339200004
  0
LWPOLYLINE
  5
427
330
2E6
100
AcDbEntity
  8
0
100
AcDbPolyline
 90
        3
 70
     0
 43
0.0
 10
17.5842390608
 20
1.926964779199998
 10
17.47226910399999
 20
1.914894577600001
 10
17.35402269599998
 20
1.910229094400001
  0
LWPOLYLINE
  5
428
330
2E6
100
AcDbEntity
  8
0
100
AcDbPolyline
 90
        3
 70
     0
 43
0.0
 10
17.35402269599998
 20
1.910229094400001
 10
17.46133906399998
 20
1.925609726400004
 10
17.55378444319998
 20
1.939015251200004
  0
LWPOLYLINE
  5
429
330
2E6
100
AcDbEntity
  8
0
100
AcDbPolyline
 90
        6
 70
     0
 43
0.0
 10
18.62778746719999
 20
1.731531072000002
 10
18.6386783984
 20
1.836569651200001
 10
18.6523814512
 20
1.958520324800005
 10
18.6667482864
 20
2.076008646400005
 10
18.68155271840001
 20
2.187418432000001
 10
18.6831079472
 20
2.198205691200001
  0
LINE
  5
42A
330
2E6
100
AcDbEntity
  8
0
100
AcDbLine
 10
18.61829631520001
 20
1.636482153599999
 30
0.0
 11
18.62775552639999
 21
1.731607172800003
 31
0.0
  0
LINE
  5
42B
330
2E6
100
AcDbEntity
  8
0
100
AcDbLine
 10
17.89512175199999
 20
0.9901993743999994
 30
0.0
 11
17.89921213759998
 21
0.9902840720000014
 31
0.0
  0
LINE
  5
42C
330
2E6
100
AcDbEntity
  8
0
100
AcDbLine
 10
17.7722587744
 20
0.9867353887999996
 30
0.0
 11
17.91432867040001
 21
0.9906509887999987
 31
0.0
  0
LINE
  5
42D
330
2E6
100
AcDbEntity
  8
0
100
AcDbLine
 10
17.91432867040001
 20
0.9906509887999987
 30
0.0
 11
17.92870717919998
 21
0.9910390304000031
 31
0.0
  0
LINE
  5
42E
330
2E6
100
AcDbEntity
  8
0
100
AcDbLine
 10
17.92870717919998
 20
0.9910390304000031
 30
0.0
 11
17.93576829599999
 21
0.9912715920000039
 31
0.0
  0
LINE
  5
42F
330
2E6
100
AcDbEntity
  8
0
100
AcDbLine
 10
17.93576829599999
 20
0.9912715920000039
 30
0.0
 11
17.9424527264
 21
0.9915404175999995
 31
0.0
  0
LINE
  5
430
330
2E6
100
AcDbEntity
  8
0
100
AcDbLine
 10
17.30363651839999
 20
0.9522611695999998
 30
0.0
 11
17.294009544
 21
0.9516803936000002
 31
0.0
  0
LWPOLYLINE
  5
431
330
2E6
100
AcDbEntity
  8
0
100
AcDbPolyline
 90
        4
 70
     0
 43
0.0
 10
17.30363652159999
 20
0.9522611264000033
 10
17.30721271519999
 20
0.9524980095999993
 10
17.333837136
 20
0.9546219552000039
 10
17.35431717759999
 20
0.9566891600000033
  0
LINE
  5
432
330
2E6
100
AcDbEntity
  8
0
100
AcDbLine
 10
17.35431717119999
 20
0.9566891999999995
 30
0.0
 11
17.30363651839999
 21
0.9522611695999998
 31
0.0
  0
LWPOLYLINE
  5
433
330
2E6
100
AcDbEntity
  8
0
100
AcDbPolyline
 90
        5
 70
     0
 43
0.0
 10
17.43981827039999
 20
0.9671163984000017
 10
17.49079911199999
 20
0.9725392208000016
 10
17.5574048336
 20
0.9774266752000002
 10
17.65527581919999
 20
0.9823482368
 10
17.7722587744
 20
0.9867353887999996
  0
LINE
  5
434
330
2E6
100
AcDbEntity
  8
0
100
AcDbLine
 10
17.3609778992
 20
0.9574430880000051
 30
0.0
 11
17.43981827039999
 21
0.9671163984000017
 31
0.0
  0
LWPOLYLINE
  5
435
330
2E6
100
AcDbEntity
  8
0
100
AcDbPolyline
 90
       17
 70
     0
 43
0.0
 10
17.6043296784
 20
1.499275027199999
 10
17.60012294239999
 20
1.446525936
 10
17.59411135199999
 20
1.394990828800004
 10
17.58633208
 20
1.3450627152
 10
17.576829992
 20
1.297129433600005
 10
17.56568666239999
 20
1.251537113600001
 10
17.55299448959999
 20
1.208612544000004
 10
17.53884518879999
 20
1.168681888000001
 10
17.5233329872
 20
1.132071145600001
 10
17.5065764816
 20
1.099048792000004
 10
17.48871028639999
 20
1.069833689600002
 10
17.469868152
 20
1.044642270400004
 10
17.450184688
 20
1.0236925632
 10
17.4298048656
 20
1.0071558112
 10
17.4088863984
 20
0.9951187760000053
 10
17.3875864016
 20
0.9876591503999989
 10
17.3660630352
 20
0.984855624000005
  0
LWPOLYLINE
  5
436
330
2E6
100
AcDbEntity
  8
0
100
AcDbPolyline
 90
       68
 70
     0
 43
0.0
 10
17.9424527264
 20
0.9915404175999995
 10
17.94697062559998
 20
0.9917543120000047
 10
17.95229626560001
 20
0.9920419984000048
 10
17.95857530719999
 20
0.9924319120000006
 10
17.96601720000001
 20
0.9929661792000032
 10
17.97455743360001
 20
0.9936765728000054
 10
17.98384412959998
 20
0.9945677215999992
 10
17.993508864
 20
0.995627025600001
 10
18.00337091840001
 20
0.9968472064000053
 10
18.013397352
 20
0.9982325888000005
 10
18.02358537599999
 20
0.9997906880000044
 10
18.03393512319999
 20
1.001529675200004
 10
18.04444119359999
 20
1.003457009600005
 10
18.05509186399999
 20
1.005578873600001
 10
18.0658702432
 20
1.007899934400001
 10
18.07675542079999
 20
1.010423182400003
 10
18.08772923039998
 20
1.013151310400004
 10
18.09879843999999
 20
1.016093001600005
 10
18.10996068
 20
1.019255155199999
 10
18.1212115072
 20
1.022644318400004
 10
18.13254605119999
 20
1.026267065600002
 10
18.14395898879999
 20
1.030129982400005
 10
18.1554445456
 20
1.034239651200003
 10
18.16699648959999
 20
1.038602631999999
 10
18.17860814720001
 20
1.043225457600001
 10
18.19027300799999
 20
1.048114504000004
 10
18.2019843232
 20
1.053275096
 10
18.2137348704
 20
1.058712184
 10
18.22552283839999
 20
1.064433435200001
 10
18.2373528496
 20
1.070450436800001
 10
18.24922909599999
 20
1.0767758064
 10
18.26115486399999
 20
1.083423003200003
 10
18.27313246719998
 20
1.090406328
 10
18.28516317279999
 20
1.097740915199999
 10
18.297247112
 20
1.105442727999999
 10
18.30938320319998
 20
1.113528553600005
 10
18.32156904639998
 20
1.122015990400001
 10
18.33380066079999
 20
1.13092332
 10
18.346069016
 20
1.140266844800002
 10
18.35836043520001
 20
1.150060659200001
 10
18.3706598896
 20
1.160318894399999
 10
18.38295106719999
 20
1.171055785600003
 10
18.3952162976
 20
1.182285638400003
 10
18.40743710079999
 20
1.194022715199999
 10
18.41959156319998
 20
1.2062757216
 10
18.4316542592
 20
1.219048868800001
 10
18.44359915359999
 20
1.232345379200005
 10
18.45539964319999
 20
1.246167480000003
 10
18.46702856159998
 20
1.260516374400005
 10
18.478458184
 20
1.2753922144
 10
18.4896602448
 20
1.290794086400005
 10
18.5006059472
 20
1.306719979200003
 10
18.5112659792
 20
1.3231667728
 10
18.52161173280001
 20
1.340132256000003
 10
18.53162010240001
 20
1.357624427200001
 10
18.54126790079999
 20
1.375654667200002
 10
18.55052934560001
 20
1.394234014400005
 10
18.55937773599998
 20
1.413374326400003
 10
18.56778772800001
 20
1.433085236800003
 10
18.57573171039999
 20
1.453373379200002
 10
18.58317953599998
 20
1.4742441952
 10
18.59009847199999
 20
1.495701799999999
 10
18.5964534592
 20
1.517750084799999
 10
18.60220628159999
 20
1.540390307199999
 10
18.60731572
 20
1.563621299200001
 10
18.6117376288
 20
1.587439670400002
 10
18.6154248464
 20
1.611839534400004
 10
18.61829603679998
 20
1.636497734400002
  0
LINE
  5
437
330
2E6
100
AcDbEntity
  8
0
100
AcDbLine
 10
19.88274147519999
 20
4.822369907199998
 30
0.0
 11
19.88483519999999
 21
5.155053332800001
 31
0.0
  0
LINE
  5
438
330
2E6
100
AcDbEntity
  8
0
100
AcDbLine
 10
19.87380990560001
 20
4.129376782400001
 30
0.0
 11
19.87917786560001
 21
4.481249833600003
 31
0.0
  0
LINE
  5
439
330
2E6
100
AcDbEntity
  8
0
100
AcDbLine
 10
19.87917066879998
 20
4.480686062400003
 30
0.0
 11
19.8827457824
 21
4.822892068800001
 31
0.0
  0
LINE
  5
43A
330
2E6
100
AcDbEntity
  8
0
100
AcDbLine
 10
19.8719915904
 20
4.031845009600004
 30
0.0
 11
19.8738207952
 21
4.1299841696
 31
0.0
  0
LINE
  5
43B
330
2E6
100
AcDbEntity
  8
0
100
AcDbLine
 10
19.88483308479999
 20
5.154570804800002
 30
0.0
 11
19.88572341119999
 21
5.478190062400003
 31
0.0
  0
LINE
  5
43C
330
2E6
100
AcDbEntity
  8
0
100
AcDbLine
 10
19.8857228976
 20
5.477745604799999
 30
0.0
 11
19.8856689792
 21
5.792773276800005
 31
0.0
  0
LINE
  5
43D
330
2E6
100
AcDbEntity
  8
0
100
AcDbLine
 10
19.88566956959999
 20
5.792365444800005
 30
0.0
 11
19.88491617119999
 21
6.0991152944
 31
0.0
  0
LINE
  5
43E
330
2E6
100
AcDbEntity
  8
0
100
AcDbLine
 10
19.88491746240001
 20
6.098742660799999
 30
0.0
 11
19.88369320000001
 21
6.397509206400002
 31
0.0
  0
LINE
  5
43F
330
2E6
100
AcDbEntity
  8
0
100
AcDbLine
 10
19.8836948512
 20
6.397170505600001
 30
0.0
 11
19.8821961904
 21
6.688341524800001
 31
0.0
  0
LWPOLYLINE
  5
440
330
2E6
100
AcDbEntity
  8
0
100
AcDbPolyline
 90
       38
 70
     0
 43
0.0
 10
18.668455744
 20
10.7297285824
 10
18.67128994559999
 20
10.7314188048
 10
18.67619848800001
 20
10.7343074736
 10
18.6834233152
 20
10.7385013504
 10
18.69294778720001
 20
10.7439512624
 10
18.70479681279999
 20
10.7506304976
 10
18.71903668799999
 20
10.758533488
 10
18.735676896
 20
10.7676211104
 10
18.75461238080001
 20
10.7777922512
 10
18.7757333712
 20
10.7889468064
 10
18.79888400959998
 20
10.8009649568
 10
18.82385858079999
 20
10.813707552
 10
18.85049875999999
 20
10.8270668288
 10
18.8786171056
 20
10.8409272672
 10
18.90800308799998
 20
10.8551693568
 10
18.93847307359999
 20
10.8696936656
 10
18.96983132479999
 20
10.8844012608
 10
19.00186342559999
 20
10.8991907296
 10
19.03450729599998
 20
10.914035472
 10
19.06779131679999
 20
10.928950536
 10
19.1017228384
 20
10.9439411472
 10
19.1363151616
 20
10.9590152704
 10
19.17157503839999
 20
10.9741778624
 10
19.20749732159998
 20
10.9894288576
 10
19.24407124000001
 20
11.0047661568
 10
19.28126060959999
 20
11.0201776368
 10
19.3190235728
 20
11.0356497904
 10
19.3573143552
 20
11.0511685328
 10
19.3960795072
 20
11.066717688
 10
19.43526051679998
 20
11.0822801808
 10
19.4748318288
 20
11.0978530096
 10
19.5147745056
 20
11.1134361472
 10
19.55506776639998
 20
11.129029128
 10
19.59568893599998
 20
11.1446310368
 10
19.63661317439999
 20
11.1602404016
 10
19.6778135584
 20
11.175855216
 10
19.7192611248
 20
11.191472944
 10
19.76092493760001
 20
11.2070905312
  0
LINE
  5
441
330
2E6
100
AcDbEntity
  8
0
100
AcDbLine
 10
18.66908047039999
 20
10.7301094352
 30
0.0
 11
18.668455744
 21
10.7297285824
 31
0.0
  0
LWPOLYLINE
  5
442
330
2E6
100
AcDbEntity
  8
0
100
AcDbPolyline
 90
        6
 70
     0
 43
0.0
 10
19.89355089919999
 20
9.258787603200005
 10
19.89999060959999
 20
9.453350728000003
 10
19.90762536319999
 20
9.641117200000003
 10
19.91650520639998
 20
9.822377038400006
 10
19.9266968528
 20
9.997600609600006
 10
19.93825219839999
 20
10.1668862016
  0
LINE
  5
443
330
2E6
100
AcDbEntity
  8
0
100
AcDbLine
 10
19.87686229600001
 20
8.029672350400005
 30
0.0
 11
19.87734964
 21
8.274988104000001
 31
0.0
  0
LINE
  5
444
330
2E6
100
AcDbEntity
  8
0
100
AcDbLine
 10
19.8770861088
 20
7.776627838400003
 30
0.0
 11
19.87686237599999
 21
8.029840203200002
 31
0.0
  0
LINE
  5
445
330
2E6
100
AcDbEntity
  8
0
100
AcDbLine
 10
19.87788638879999
 20
7.515847038400004
 30
0.0
 11
19.87708572319999
 21
7.776819684800003
 31
0.0
  0
LINE
  5
446
330
2E6
100
AcDbEntity
  8
0
100
AcDbLine
 10
19.87911577759999
 20
7.247443908800001
 30
0.0
 11
19.8778855408
 21
7.516064793600001
 31
0.0
  0
LINE
  5
447
330
2E6
100
AcDbEntity
  8
0
100
AcDbLine
 10
19.8840458912
 20
8.846857268800008
 30
0.0
 11
19.88825592
 21
9.056982278400006
 31
0.0
  0
LINE
  5
448
330
2E6
100
AcDbEntity
  8
0
100
AcDbLine
 10
19.88086392799999
 20
8.740177083200002
 30
0.0
 11
19.88404753759999
 21
8.846952380800004
 31
0.0
  0
LINE
  5
449
330
2E6
100
AcDbEntity
  8
0
100
AcDbLine
 10
19.87865383679999
 20
8.511825921599999
 30
0.0
 11
19.88086524479999
 21
8.740286315200002
 31
0.0
  0
LINE
  5
44A
330
2E6
100
AcDbEntity
  8
0
100
AcDbLine
 10
19.87734911519999
 20
8.274842320000004
 30
0.0
 11
19.87865477759999
 21
8.5119520784
 31
0.0
  0
LINE
  5
44B
330
2E6
100
AcDbEntity
  8
0
100
AcDbLine
 10
19.88825404159999
 20
9.056900860800006
 30
0.0
 11
19.89355288159998
 21
9.258854966400008
 31
0.0
  0
LWPOLYLINE
  5
44C
330
2E6
100
AcDbEntity
  8
0
100
AcDbPolyline
 90
        4
 70
     0
 43
0.0
 10
19.9295114448
 20
11.2696471168
 10
20.0586314336
 20
11.317140944
 10
20.10232261760001
 20
11.3331822368
 10
20.23558501759998
 20
11.3821628512
  0
LINE
  5
44D
330
2E6
100
AcDbEntity
  8
0
100
AcDbLine
 10
20.23558501759998
 20
11.3821628512
 30
0.0
 11
20.32608626079999
 21
11.4155796464
 31
0.0
  0
LINE
  5
44E
330
2E6
100
AcDbEntity
  8
0
100
AcDbLine
 10
19.84480056160001
 20
11.238322496
 30
0.0
 11
19.9295114448
 21
11.2696471168
 31
0.0
  0
LINE
  5
44F
330
2E6
100
AcDbEntity
  8
0
100
AcDbLine
 10
20.32608626079999
 20
11.4155796464
 30
0.0
 11
20.41749282239999
 21
11.4495609056
 31
0.0
  0
LINE
  5
450
330
2E6
100
AcDbEntity
  8
0
100
AcDbLine
 10
19.76092493760001
 20
11.2070905312
 30
0.0
 11
19.84480056160001
 21
11.238322496
 31
0.0
  0
LWPOLYLINE
  5
451
330
2E6
100
AcDbEntity
  8
0
100
AcDbPolyline
 90
        6
 70
     0
 43
0.0
 10
20.01402650719998
 20
10.8985587648
 10
20.03118727520001
 20
11.0138462784
 10
20.04807052960001
 20
11.116144504
 10
20.06452044639999
 20
11.20676888
 10
20.0808953824
 20
11.289256424
 10
20.08937810239999
 20
11.3284296352
  0
LWPOLYLINE
  5
452
330
2E6
100
AcDbEntity
  8
0
100
AcDbPolyline
 90
        6
 70
     0
 43
0.0
 10
19.93825223999999
 20
10.1668869744
 10
19.95115787520001
 20
10.3297005792
 10
19.96535889279999
 20
10.4853740432
 10
19.98073964799999
 20
10.6329933696
 10
19.99706674399999
 20
10.771155824
 10
20.0140215152
 20
10.8985233776
  0
LINE
  5
453
330
2E6
100
AcDbEntity
  8
CENTER
 48
4.0
100
AcDbLine
 10
-4.171520582400006
 20
18.865964176
 30
0.0
 11
-13.0546176992
 21
18.08879388
 31
0.0
  0
LWPOLYLINE
  5
454
330
2E6
100
AcDbEntity
  8
0
100
AcDbPolyline
 90
        9
 70
     0
 43
0.0
 10
-11.158880656
 20
22.3068251312
 10
-11.44823268799999
 20
22.2505626528
 10
-11.70573650400001
 20
22.20148211520001
 10
-11.93486001760001
 20
22.1589843408
 10
-12.13770070079999
 20
22.12256575680001
 10
-12.31340228159999
 20
22.091555856
 10
-12.45960018720001
 20
22.0656084656
 10
-12.57654620479999
 20
22.0444662464
 10
-12.66607471040001
 20
22.02805773920001
  0
LWPOLYLINE
  5
455
330
2E6
100
AcDbEntity
  8
0
100
AcDbPolyline
 90
        8
 70
     0
 43
0.0
 10
-12.5501476624
 20
20.13719614170976
 10
-11.9377024048
 20
20.13718730650976
 10
-11.5762512432
 20
20.13709994330976
 10
-11.17851320639999
 20
20.13697547610976
 10
-10.7448755984
 20
20.13682954330977
 10
-10.27593939679999
 20
20.13667737050977
 10
-9.772382692799993
 20
20.13653263450976
 10
-8.059876988799999
 20
20.13625782810976
  0
LWPOLYLINE
  5
456
330
2E6
100
AcDbEntity
  8
0
100
AcDbPolyline
 90
        4
 70
     0
 43
0.0
 10
-13.3356951872
 20
21.5541341808
 10
-13.38942401279999
 20
21.16374152890976
 10
-13.4454851632
 20
20.64353974650976
 10
-13.5
 20
20.13751006810976
  0
LINE
  5
457
330
2E6
100
AcDbEntity
  8
0
100
AcDbLine
 10
-13.5
 20
20.13751006810976
 30
0.0
 11
-13.32084512
 21
20.13731329850976
 31
0.0
  0
LWPOLYLINE
  5
458
330
2E6
100
AcDbEntity
  8
0
100
AcDbPolyline
 90
        5
 70
     0
 43
0.0
 10
-13.32084512
 20
20.13731329850976
 10
-13.18522141599999
 20
20.13710126330976
 10
-13.01170588639999
 20
20.13703076250977
 10
-12.80002312959999
 20
20.13710198330976
 10
-12.5501476624
 20
20.13719614170976
  0
LWPOLYLINE
  5
459
330
2E6
100
AcDbEntity
  8
0
100
AcDbPolyline
 90
        3
 70
     0
 43
0.0
 10
-12.85833851360001
 20
22.001830096
 10
-12.8988547552
 20
21.99693405440001
 10
-12.90779157759999
 20
21.9955988208
  0
LINE
  5
45A
330
2E6
100
AcDbEntity
  8
0
100
AcDbLine
 10
-12.77608558400001
 20
22.0088355264
 30
0.0
 11
-12.79455793919999
 21
22.006243856
 31
0.0
  0
LINE
  5
45B
330
2E6
100
AcDbEntity
  8
0
100
AcDbLine
 10
-12.90926896799999
 20
21.9953905104
 30
0.0
 11
-12.9111205968
 21
21.9951197312
 31
0.0
  0
LINE
  5
45C
330
2E6
100
AcDbEntity
  8
0
100
AcDbLine
 10
-12.91112042560001
 20
21.9951197552
 30
0.0
 11
-12.91507957920001
 21
21.9945192
 31
0.0
  0
LINE
  5
45D
330
2E6
100
AcDbEntity
  8
0
100
AcDbLine
 10
-12.9111205968
 20
21.9951197312
 30
0.0
 11
-12.9163618272
 21
21.9943176768
 31
0.0
  0
LINE
  5
45E
330
2E6
100
AcDbEntity
  8
0
100
AcDbLine
 10
-12.9160944928
 20
21.99435968
 30
0.0
 11
-12.92128431520001
 21
21.9935136656
 31
0.0
  0
LINE
  5
45F
330
2E6
100
AcDbEntity
  8
0
100
AcDbLine
 10
-12.73120644319999
 20
22.0163245552
 30
0.0
 11
-12.77608558400001
 21
22.0088355264
 31
0.0
  0
LINE
  5
460
330
2E6
100
AcDbEntity
  8
0
100
AcDbLine
 10
-12.92118967839999
 20
21.9935296768
 30
0.0
 11
-12.92134931679999
 21
21.9935026912
 31
0.0
  0
LINE
  5
461
330
2E6
100
AcDbEntity
  8
0
100
AcDbLine
 10
-12.92118643360001
 20
21.9935302064
 30
0.0
 11
-12.921477664
 21
21.9934809888
 31
0.0
  0
LINE
  5
462
330
2E6
100
AcDbEntity
  8
0
100
AcDbLine
 10
-12.92118967839999
 20
21.9935296768
 30
0.0
 11
-12.9268949824
 21
21.9925378288
 31
0.0
  0
LINE
  5
463
330
2E6
100
AcDbEntity
  8
0
100
AcDbLine
 10
-12.92476951520001
 20
21.9929145792
 30
0.0
 11
-12.9294548736
 21
21.9920708368
 31
0.0
  0
LINE
  5
464
330
2E6
100
AcDbEntity
  8
0
100
AcDbLine
 10
-12.66607471040001
 20
22.02805773920001
 30
0.0
 11
-12.73120644319999
 21
22.0163245552
 31
0.0
  0
LINE
  5
465
330
2E6
100
AcDbEntity
  8
0
100
AcDbLine
 10
-12.926808104
 20
21.99255344
 30
0.0
 11
-12.9341508416
 21
21.9911782624
 31
0.0
  0
LINE
  5
466
330
2E6
100
AcDbEntity
  8
0
100
AcDbLine
 10
-12.92940933759999
 20
21.9920792624
 30
0.0
 11
-12.9343789424
 21
21.991134168
 31
0.0
  0
LINE
  5
467
330
2E6
100
AcDbEntity
  8
0
100
AcDbLine
 10
-12.9343116
 20
21.99114732
 30
0.0
 11
-12.9374718704
 21
21.9905198048
 31
0.0
  0
LINE
  5
468
330
2E6
100
AcDbEntity
  8
0
100
AcDbLine
 10
-12.7942193808
 20
22.0062913552
 30
0.0
 11
-12.79933977600001
 21
22.0060340544
 31
0.0
  0
LINE
  5
469
330
2E6
100
AcDbEntity
  8
0
100
AcDbLine
 10
-12.7942193808
 20
22.0062913552
 30
0.0
 11
-12.79911835999999
 21
22.0060452864
 31
0.0
  0
LINE
  5
46A
330
2E6
100
AcDbEntity
  8
0
100
AcDbLine
 10
-12.79932440000001
 20
22.0060348432
 30
0.0
 11
-12.82001566560001
 21
22.004873448
 31
0.0
  0
LINE
  5
46B
330
2E6
100
AcDbEntity
  8
0
100
AcDbLine
 10
-12.82001566560001
 20
22.004873448
 30
0.0
 11
-12.83926985120001
 21
22.0035366832
 31
0.0
  0
LINE
  5
46C
330
2E6
100
AcDbEntity
  8
0
100
AcDbLine
 10
-12.83926985120001
 20
22.0035366832
 30
0.0
 11
-12.85841539840001
 21
22.0018222048
 31
0.0
  0
LINE
  5
46D
330
2E6
100
AcDbEntity
  8
0
100
AcDbLine
 10
-12.85841539840001
 20
22.0018222048
 30
0.0
 11
-12.85833853119999
 21
22.0018300592
 31
0.0
  0
LWPOLYLINE
  5
46E
330
2E6
100
AcDbEntity
  8
0
100
AcDbPolyline
 90
       23
 70
     0
 43
0.0
 10
-12.9456174304
 20
21.9888048448
 10
-12.9511331136
 20
21.9875630496
 10
-12.95804765759999
 20
21.9859134816
 10
-12.9666948592
 20
21.983703608
 10
-12.97731897599999
 20
21.9807616944
 10
-12.98980439999999
 20
21.9769786928
 10
-13.00373659679999
 20
21.9723318864
 10
-13.01930989600001
 20
21.9665904928
 10
-13.0371604576
 20
21.9592717456
 10
-13.0574477952
 20
21.94994991680001
 10
-13.0796058704
 20
21.9384703936
 10
-13.10339472160001
 20
21.9245147664
 10
-13.12897832640001
 20
21.9074259984
 10
-13.1566580704
 20
21.8861836816
 10
-13.18489297920001
 20
21.8610542688
 10
-13.2123674208
 20
21.8324973952
 10
-13.2385249024
 20
21.8004856
 10
-13.26280909440001
 20
21.7650479968
 10
-13.28465397760001
 20
21.7262948512
 10
-13.30349931520001
 20
21.6844164976
 10
-13.31880320319999
 20
21.6396811056
 10
-13.33004984800001
 20
21.5924454784
 10
-13.3357003152
 20
21.5541346928
  0
LINE
  5
46F
330
2E6
100
AcDbEntity
  8
0
100
AcDbLine
 10
-12.94105197120001
 20
21.9897834304
 30
0.0
 11
-12.9456174304
 21
21.9888048448
 31
0.0
  0
LINE
  5
470
330
2E6
100
AcDbEntity
  8
0
100
AcDbLine
 10
-12.93403732320001
 20
21.9911999664
 30
0.0
 11
-12.94539906560001
 21
21.988852664
 31
0.0
  0
LWPOLYLINE
  5
471
330
2E6
100
AcDbEntity
  8
0
100
AcDbPolyline
 90
        5
 70
     0
 43
0.0
 10
15.48169251679999
 20
23.9603880256
 10
14.6417657888
 20
24.0324099904
 10
13.7887618016
 20
24.08780772640001
 10
12.934265592
 20
24.13114574240001
 10
12.09099746399999
 20
24.1655356784
  0
LINE
  5
472
330
2E6
100
AcDbEntity
  8
0
100
AcDbLine
 10
12.474237488
 20
20.13568478010976
 30
0.0
 11
19.59037261279999
 21
20.13609178650976
 31
0.0
  0
LWPOLYLINE
  5
473
330
2E6
100
AcDbEntity
  8
0
100
AcDbPolyline
 90
        5
 70
     0
 43
0.0
 10
2.923930204800001
 20
24.1655355392
 10
2.079840641599986
 20
24.131108456
 10
1.225464555200005
 20
24.0877675808
 10
0.3725896496000018
 20
24.032367304
 10
-0.4665652799999976
 20
23.960407392
  0
LINE
  5
474
330
2E6
100
AcDbEntity
  8
0
100
AcDbLine
 10
-3.806944561600005
 20
20.13605261530976
 30
0.0
 11
2.540693976
 21
20.13568478010976
 31
0.0
  0
LWPOLYLINE
  5
475
330
2E6
100
AcDbEntity
  8
0
100
AcDbPolyline
 90
        5
 70
     0
 43
0.0
 10
-1.323602862400008
 20
20.13589875450976
 10
-1.267347553599989
 20
20.84515110010976
 10
-1.2110871056
 20
21.4468563232
 10
-1.154901462400005
 20
22.1533109488
 10
-1.098726107200008
 20
22.8569986672
  0
LWPOLYLINE
  5
476
330
2E6
100
AcDbEntity
  8
0
100
AcDbPolyline
 90
        3
 70
     0
 43
0.0
 10
-8.059876988799999
 20
20.13625782810976
 10
-7.424236054400012
 20
20.13621612730977
 10
-3.806944561600005
 20
20.13605261530976
  0
LWPOLYLINE
  5
477
330
2E6
100
AcDbEntity
  8
0
  6
HIDDEN
100
AcDbPolyline
 90
      105
 70
     0
 43
0.0
 10
-8.194493275200017
 20
18.3284353536
 10
-8.015220297599995
 20
18.2594467744
 10
-7.836636873600014
 20
18.1920887168
 10
-7.658500292799999
 20
18.1264493344
 10
-7.480567843199992
 20
18.0626167824
 10
-7.302596814400004
 20
18.0006792144
 10
-7.124344494399991
 20
17.9407247872
 10
-6.945568172799994
 20
17.8828416528
 10
-6.766025134399995
 20
17.827117968
 10
-6.59792552479999
 20
17.7772453424
 10
-6.428754536000013
 20
17.7293930304
 10
-6.258316159999992
 20
17.683632224
 10
-6.086414390399994
 20
17.640034112
 10
-6.06455953439999
 20
17.634771488
 10
-6.042654521600013
 20
17.6301009872
 10
-6.020675724800014
 20
17.6265790096
 10
-5.998599518399998
 20
17.62476196
 10
-5.977022643200001
 20
17.62494284
 10
-5.955373139199991
 20
17.62647736
 10
-5.933692875199994
 20
17.6285799984
 10
-5.854274908799993
 20
17.6349807488
 10
-5.774932260799999
 20
17.6388933072
 10
-5.695591001600007
 20
17.6407509008
 10
-5.616177201600009
 20
17.6409867584
 10
-5.536616934400001
 20
17.640034112
 10
-5.498201804800004
 20
17.6391926144
 10
-5.459819750400015
 20
17.637710112
 10
-5.421555070400017
 20
17.6351211424
 10
-5.383492067199995
 20
17.6309602448
 10
-5.345715040000015
 20
17.62476196
 10
-5.304750251200005
 20
17.6152019824
 10
-5.26441152000001
 20
17.6027761088
 10
-5.224880092799992
 20
17.587625096
 10
-5.186337219199998
 20
17.5698896976
 10
-5.14896414559999
 20
17.5497106688
 10
-5.112942118400013
 20
17.527228768
 10
-5.078452387200002
 20
17.5025847472
 10
-5.042667748799999
 20
17.4733063712
 10
-5.009027599999996
 20
17.4417384112
 10
-4.977625814399999
 20
17.408010272
 10
-4.94855626879999
 20
17.37225136
 10
-4.921912833600003
 20
17.33459108
 10
-4.899428364800002
 20
17.298040784
 10
-4.879203523200004
 20
17.260127232
 10
-4.861324996799993
 20
17.2210150992
 10
-4.845879472000007
 20
17.1808690656
 10
-4.832953635199999
 20
17.1398538048
 10
-4.822634172800007
 20
17.0981339952
 10
-4.815007772800015
 20
17.0558743152
 10
-4.810149014399996
 20
17.0134390288
 10
-4.807957228800006
 20
16.9707599648
 10
-4.808346268799994
 20
16.9279649456
 10
-4.811229990399993
 20
16.885181792
 10
-4.816522243200012
 20
16.8425383296
 10
-4.824136884799997
 20
16.8001623792
 10
-4.833987764800014
 20
16.7581817632
 10
-4.845988737600009
 20
16.716724304
 10
-4.860053659199991
 20
16.675917824
 10
-4.876096379199992
 20
16.63589014720001
 10
-4.886269852800012
 20
16.6132091984
 10
-4.897299497600016
 20
16.5910541856
 10
-4.909410444800016
 20
16.5696486
 10
-4.922827828799995
 20
16.549215936
 10
-4.937776780799993
 20
16.5299796848
 10
-4.955767316800006
 20
16.5107958864
 10
-4.975541451200001
 20
16.4932251776
 10
-4.996843264000006
 20
16.4772321344
 10
-5.019416825599989
 20
16.4627813408
 10
-5.043006216000009
 20
16.4498373744
 10
-5.067355508800005
 20
16.438364816
 10
-5.092208777600006
 20
16.4283282432
 10
-5.122640844800002
 20
16.4179585072
 10
-5.153321676800004
 20
16.4089988464
 10
-5.18413697599999
 20
16.4008093824
 10
-5.214972441599996
 20
16.39275024
 10
-5.266068681600017
 20
16.378484896
 10
-5.317002993599999
 20
16.3632990592
 10
-5.367873550399991
 20
16.3476801952
 10
-5.418778520000017
 20
16.3321157664
 10
-5.469816073600014
 20
16.31709324
 10
-5.521084380800004
 20
16.30310008
 10
-5.57268161280001
 20
16.290623752
 10
-5.624705940799998
 20
16.28015172
 10
-5.668779923199991
 20
16.2732092816
 10
-5.713123268799989
 20
16.268003512
 10
-5.7576347472
 20
16.2645130368
 10
-5.815604188799994
 20
16.2624167904
 10
-5.873619894400007
 20
16.2626082544
 10
-5.931615099200001
 20
16.2645130368
 10
-6.024857982399993
 20
16.2700738784
 10
-6.117886579200018
 20
16.2782559104
 10
-6.210712985599997
 20
16.2887259424
 10
-6.303349299199993
 20
16.3011507872
 10
-6.395807616000013
 20
16.315197256
 10
-6.488100033600005
 20
16.3305321552
 10
-6.580238648000005
 20
16.3468222976
 10
-6.748889259200012
 20
16.3784314608
 10
-6.917040384000017
 20
16.4121704048
 10
-7.084669422399997
 20
16.4480755056
 10
-7.251753777600015
 20
16.486183136
 10
-7.418270849599991
 20
16.5265296704
 10
-7.584198039999989
 20
16.5691514848
 10
-7.749512750400015
 20
16.6140849504
 10
-7.901177835200002
 20
16.6575365728
 10
-8.052286777600016
 20
16.70300753760001
  0
LINE
  5
478
330
2E6
100
AcDbEntity
  8
0
100
AcDbLine
 10
-8.194493275200017
 20
18.3284353536
 30
0.0
 11
-8.052286777600016
 21
16.70300753760001
 31
0.0
  0
LWPOLYLINE
  5
479
330
2E6
100
AcDbEntity
  8
0
100
AcDbPolyline
 90
       11
 70
     0
 43
0.0
 10
-8.505257108800009
 20
20.11972767290976
 10
-8.492585401599995
 20
19.90542892410976
 10
-8.479391076799998
 20
19.67464604250976
 10
-8.466888124799993
 20
19.44917501370976
 10
-8.455017416000004
 20
19.1219076448
 10
-8.443721774400017
 20
18.9073457312
 10
-8.432945830400001
 20
18.6982615792
 10
-8.4226403376
 20
18.49464068
 10
-8.412761340800017
 20
18.2964560496
 10
-8.403269545600011
 20
18.1036517824
 10
-8.394130217600007
 20
17.9161533392
  0
LINE
  5
47A
330
2E6
100
AcDbEntity
  8
0
100
AcDbLine
 10
-8.360513209600014
 20
17.2177615344
 30
0.0
 11
-8.3451202432
 21
16.8983648384
 31
0.0
  0
LWPOLYLINE
  5
47B
330
2E6
100
AcDbEntity
  8
0
100
AcDbPolyline
 90
        3
 70
     0
 43
0.0
 10
-8.394130217600007
 20
17.9161533392
 10
-8.376788644800001
 20
17.5567895856
 10
-8.360513209600014
 20
17.2177615344
  0
LINE
  5
47C
330
2E6
100
AcDbEntity
  8
0
100
AcDbLine
 10
-8.3451202432
 20
16.8983648384
 30
0.0
 11
-8.330446150400007
 21
16.5978076
 31
0.0
  0
LINE
  5
47D
330
2E6
100
AcDbEntity
  8
0
100
AcDbLine
 10
-1.32360288480001
 20
20.13589869850976
 30
0.0
 11
-1.317140907200013
 21
20.11972761690976
 31
0.0
  0
LWPOLYLINE
  5
47E
330
2E6
100
AcDbEntity
  8
0
100
AcDbPolyline
 90
       18
 70
     0
 43
0.0
 10
-0.7158426736000081
 20
23.9353408112
 10
-1.577042632000001
 20
23.8433725904
 10
-2.4296698144
 20
23.7444013936
 10
-3.267145875200014
 20
23.6409137728
 10
-4.065170265600016
 20
23.5344620752
 10
-4.827958881600011
 20
23.4266221232
 10
-5.550893161600015
 20
23.318958704
 10
-6.232551081600007
 20
23.2125825136
 10
-6.875762478399991
 20
23.1078328992
 10
-7.483218124800004
 20
23.0048852688
 10
-8.057315171200002
 20
22.9038306752
 10
-8.600353915200003
 20
22.8047209856
 10
-9.114771361599991
 20
22.7078423104
 10
-9.601500057599992
 20
22.61396892
 10
-10.05400575359999
 20
22.5252431344
 10
-10.4658257776
 20
22.4437630272
 10
-10.83316101599999
 20
22.3709842048
 10
-11.158880656
 20
22.3068251312
  0
LWPOLYLINE
  5
47F
330
2E6
100
AcDbEntity
  8
0
100
AcDbPolyline
 90
        4
 70
     0
 43
0.0
 10
-0.4665897728000062
 20
23.96040498560001
 10
-0.546543065599991
 20
23.9524447296
 10
-0.6366419599999916
 20
23.9433841808
 10
-0.7158385520000082
 20
23.935341232
  0
LINE
  5
480
330
2E6
100
AcDbEntity
  8
0
100
AcDbLine
 10
12.474237488
 20
20.13568478010976
 30
0.0
 11
12.37576461279999
 21
22.2397023152
 31
0.0
  0
LINE
  5
481
330
2E6
100
AcDbEntity
  8
0
100
AcDbLine
 10
7.507465731199999
 20
20.11972760250976
 30
0.0
 11
7.507465731199999
 21
23.0344916112
 31
0.0
  0
LWPOLYLINE
  5
482
330
2E6
100
AcDbEntity
  8
0
100
AcDbPolyline
 90
        5
 70
     0
 43
0.0
 10
2.540693976
 20
20.13568478010976
 10
2.573524974399987
 20
20.87388430490976
 10
2.606361872000007
 20
21.50440794400001
 10
2.639166851200002
 20
22.2397023152
 10
2.67197037919999
 20
22.9721235392
  0
LINE
  5
483
330
2E6
100
AcDbEntity
  8
0
100
AcDbLine
 10
2.540693976
 20
20.13568478010976
 30
0.0
 11
7.507465731199999
 21
20.13574003770977
 31
0.0
  0
LINE
  5
484
330
2E6
100
AcDbEntity
  8
0
100
AcDbLine
 10
2.540693959999998
 20
20.13568471130976
 30
0.0
 11
2.544307656
 21
20.11972760410976
 31
0.0
  0
LINE
  5
485
330
2E6
100
AcDbEntity
  8
0
100
AcDbLine
 10
7.507465731199999
 20
20.13574003770977
 30
0.0
 11
12.474237488
 21
20.13568478010976
 31
0.0
  0
LINE
  5
486
330
2E6
100
AcDbEntity
  8
0
100
AcDbLine
 10
12.4742375008
 20
20.13568472250976
 30
0.0
 11
12.4706238048
 21
20.11972761530976
 31
0.0
  0
LINE
  5
487
330
2E6
100
AcDbEntity
  8
0
100
AcDbLine
 10
7.507465731199999
 20
24.2625
 30
0.0
 11
6.522543918400003
 21
24.2572896272
 31
0.0
  0
LWPOLYLINE
  5
488
330
2E6
100
AcDbEntity
  8
0
100
AcDbPolyline
 90
        5
 70
     0
 43
0.0
 10
6.522543918400003
 20
24.2572896272
 10
5.572763790399989
 20
24.2429048912
 10
4.670068708799988
 20
24.2217828752
 10
3.815566161600003
 20
24.1963333024
 10
3.021472572800007
 20
24.1690870656
  0
LINE
  5
489
330
2E6
100
AcDbEntity
  8
0
100
AcDbLine
 10
3.021473264000007
 20
24.1690870912
 30
0.0
 11
2.923929428799993
 21
24.1655355104
 31
0.0
  0
LINE
  5
48A
330
2E6
100
AcDbEntity
  8
0
100
AcDbLine
 10
3.021473264000007
 20
24.1690870912
 30
0.0
 11
2.952294545600011
 21
24.166576408
 31
0.0
  0
LINE
  5
48B
330
2E6
100
AcDbEntity
  8
0
100
AcDbLine
 10
12.37576461279999
 20
22.2397023152
 30
0.0
 11
12.34296108480001
 21
22.9721235392
 31
0.0
  0
LWPOLYLINE
  5
48C
330
2E6
100
AcDbEntity
  8
0
100
AcDbPolyline
 90
        4
 70
     0
 43
0.0
 10
11.99344487679999
 20
24.1690875696
 10
11.19842371679999
 20
24.196363784
 10
10.34391588959999
 20
24.221808376
 10
9.441215414400005
 20
24.2429235616
  0
LINE
  5
48D
330
2E6
100
AcDbEntity
  8
0
100
AcDbLine
 10
9.441215414400005
 20
24.2429235616
 30
0.0
 11
8.491429675200009
 21
24.2572996512
 31
0.0
  0
LINE
  5
48E
330
2E6
100
AcDbEntity
  8
0
100
AcDbLine
 10
8.491429675200009
 20
24.2572996512
 30
0.0
 11
7.507465727999999
 21
24.2625
 31
0.0
  0
LINE
  5
48F
330
2E6
100
AcDbEntity
  8
0
100
AcDbLine
 10
12.09099829600001
 20
24.165535648
 30
0.0
 11
11.99344419519999
 21
24.1690875952
 31
0.0
  0
LWPOLYLINE
  5
490
330
2E6
100
AcDbEntity
  8
0
100
AcDbPolyline
 90
        3
 70
     0
 43
0.0
 10
24.24024779039999
 20
20.13640908410976
 10
24.77793197439999
 20
20.13653263450976
 10
25.74104408799999
 20
20.1368192272
  0
LWPOLYLINE
  5
491
330
2E6
100
AcDbEntity
  8
0
100
AcDbPolyline
 90
       18
 70
     0
 43
0.0
 10
26.15749361760001
 20
22.30708656389024
 10
25.83152413600001
 20
22.37129762629024
 10
25.46003917920001
 20
22.44414029189024
 10
25.0478574592
 20
22.52568973189024
 10
24.6043996848
 20
22.6144848528
 10
24.1174529216
 20
22.7083895136
 10
23.60298253120001
 20
22.805263152
 10
23.06000842079999
 20
22.9043427408
 10
22.48603821759999
 20
23.0053568032
 10
21.8787016064
 20
23.1082667008
 10
21.235592744
 20
23.2129825344
 10
20.55404615040001
 20
23.3193243264
 10
19.83126424159999
 20
23.4269480432
 10
19.06868702400001
 20
23.5347414992
 10
18.27092273919999
 20
23.641142904
 10
17.44312417919999
 20
23.7445795568
 10
16.59081223519999
 20
23.8435021296
 10
15.73079999359998
 20
23.9353381728
  0
LINE
  5
492
330
2E6
100
AcDbEntity
  8
0
100
AcDbLine
 10
16.3385343264
 20
20.13589875450976
 30
0.0
 11
16.2260185696
 21
21.4468563232
 31
0.0
  0
LINE
  5
493
330
2E6
100
AcDbEntity
  8
0
100
AcDbLine
 10
16.33853434720001
 20
20.13589870330976
 30
0.0
 11
16.33207236960001
 21
20.11972762170976
 31
0.0
  0
LWPOLYLINE
  5
494
330
2E6
100
AcDbEntity
  8
0
  6
HIDDEN
100
AcDbPolyline
 90
       25
 70
     0
 43
0.0
 10
23.20197574400001
 20
18.3284353536
 10
23.07500732799999
 20
18.2901497792
 10
22.9485046336
 20
18.24930204
 10
22.82236842239999
 20
18.2063398224
 10
22.69649944799999
 20
18.1617108128
 10
22.5707984688
 20
18.1158626976
 10
22.44516624159999
 20
18.06924316
 10
22.31950352480001
 20
18.022299888
 10
22.19371107679998
 20
17.9754805664
 10
22.06768965119999
 20
17.9292328816
 10
21.94134000799999
 20
17.88400452
 10
21.81456290400001
 20
17.8402431648
 10
21.71685300159998
 20
17.8079132096
 10
21.61878753919998
 20
17.776915168
 10
21.52032156959998
 20
17.7474517888
 10
21.42141014719999
 20
17.719725824
 10
21.32200832640001
 20
17.6939400208
 10
21.22207116160001
 20
17.6702971296
 10
21.1215537088
 20
17.6489998992
 10
21.02041102239999
 20
17.6302510816
 10
20.99611034559998
 20
17.6263502176
 10
20.97172219679998
 20
17.623713544
 10
20.9502072672
 20
17.6230936864
 10
20.9286280512
 20
17.6237160832
 10
20.90702559039999
 20
17.6249946656
  0
LINE
  5
495
330
2E6
100
AcDbEntity
  8
0
100
AcDbLine
 10
23.20197574400001
 20
18.3284353536
 30
0.0
 11
23.0597692464
 21
16.70300753760001
 31
0.0
  0
LWPOLYLINE
  5
496
330
2E6
100
AcDbEntity
  8
0
100
AcDbPolyline
 90
       13
 70
     0
 43
0.0
 10
23.37045331199999
 20
17.309226664
 10
23.39492943199999
 20
17.8181179664
 10
23.40363416479999
 20
17.9975011488
 10
23.412656424
 20
18.1818772432
 10
23.42202541119999
 20
18.3713120624
 10
23.4317748976
 20
18.5658742432
 10
23.44194250559999
 20
18.76560596
 10
23.45257038080001
 20
18.9705293248
 10
23.46370557119999
 20
19.180655576
 10
23.47540058559999
 20
19.50321051930976
 10
23.4877076736
 20
19.72367022330976
 10
23.50068515519998
 20
19.94918902170976
 10
23.510831728
 20
20.11972767290976
  0
LWPOLYLINE
  5
497
330
2E6
100
AcDbEntity
  8
0
  6
HIDDEN
100
AcDbPolyline
 90
       86
 70
     0
 43
0.0
 10
20.90702559039999
 20
17.6249946656
 10
20.7777645312
 20
17.6338866144
 10
20.7132306288
 20
17.6377220416
 10
20.6486847216
 20
17.6403207632
 10
20.58406949120001
 20
17.6410605248
 10
20.51932762079999
 20
17.6393190736
 10
20.47350403999999
 20
17.6362558048
 10
20.4277758
 20
17.6314357664
 10
20.3823301056
 20
17.6246519728
 10
20.33735415999998
 20
17.6156974368
 10
20.29303516959998
 20
17.6043651712
 10
20.249560336
 20
17.5904481888
 10
20.21437329759999
 20
17.5767643408
 10
20.1800665536
 20
17.5607865632
 10
20.14647847200001
 20
17.5424364576
 10
20.11374046239998
 20
17.5218538688
 10
20.0819839248
 20
17.4991786464
 10
20.0513402656
 20
17.4745506368
 10
20.02194088639999
 20
17.448109688
 10
19.99391719359999
 20
17.419995648
 10
19.96740059039998
 20
17.3903483648
 10
19.9425224816
 20
17.3593076848
 10
19.91941427040001
 20
17.327013456
 10
19.89820735999998
 20
17.2936055264
 10
19.8790331568
 20
17.259223744
 10
19.8620230624
 20
17.2240079568
 10
19.8473084832
 20
17.1880980112
 10
19.83502082079999
 20
17.1516337552
 10
19.8252914816
 20
17.1147550368
 10
19.81825186719999
 20
17.077601704
 10
19.81403044960001
 20
17.0411787328
 10
19.81220578239998
 20
17.0046537984
 10
19.81248535520001
 20
16.9680534064
 10
19.81457665919998
 20
16.9314040592
 10
19.81818718240001
 20
16.894732264
 10
19.8230244144
 20
16.8580645248
 10
19.8288484256
 20
16.8216383104
 10
19.8358136944
 20
16.7854060944
 10
19.8441368448
 20
16.7495316272
 10
19.85403450719999
 20
16.7141786576
 10
19.86572330719999
 20
16.6795109376
 10
19.8794198736
 20
16.6456922176
 10
19.89534083359998
 20
16.6128862464
 10
19.91370281440001
 20
16.5812567776
 10
19.92822856800001
 20
16.5597767136
 10
19.94407935519999
 20
16.5392275504
 10
19.9612578528
 20
16.5198733248
 10
19.97976673119998
 20
16.5019780736
 10
19.99960866719999
 20
16.4858058304
 10
20.0238753328
 20
16.4696399872
 10
20.049582856
 20
16.455694696
 10
20.07642665279999
 20
16.4435939728
 10
20.10410214239999
 20
16.43296184
 10
20.13230474080001
 20
16.4234223168
 10
20.16072986559998
 20
16.414599424
 10
20.22514655360001
 20
16.3958000464
 10
20.28925209280001
 20
16.3777949504
 10
20.353158976
 20
16.35961967840001
 10
20.40775958719998
 20
16.3434181664
 10
20.4624234608
 20
16.3270339136
 10
20.51727690239999
 20
16.3111143408
 10
20.572446216
 20
16.2963068688
 10
20.62805770399998
 20
16.28325892
 10
20.67562140640001
 20
16.2740357664
 10
20.72350405599999
 20
16.2668173008
 10
20.77161592799999
 20
16.2618779088
 10
20.82281973439998
 20
16.259299432
 10
20.87412970560001
 20
16.2591081024
 10
20.92549499040001
 20
16.260816896
 10
20.9768647312
 20
16.2639387936
 10
21.0281880736
 20
16.2679867696
 10
21.14365598239999
 20
16.2789237888
 10
21.25868684959999
 20
16.2921436976
 10
21.37333869919999
 20
16.3076943632
 10
21.4832208944
 20
16.3248418576
 10
21.59282143999999
 20
16.3439935872
 10
21.70215519199999
 20
16.364956632
 10
21.8112370016
 20
16.3875380736
 10
21.92008172479998
 20
16.4115449936
 10
22.08400507199999
 20
16.4500652112
 10
22.247472928
 20
16.490731224
 10
22.41053641919998
 20
16.5328790112
 10
22.57324667040001
 20
16.5758445536
 10
22.73565480799999
 20
16.6189638352
 10
22.89781195840001
 20
16.6615728368
 10
23.0597692464
 20
16.70300753760001
  0
LINE
  5
498
330
2E6
100
AcDbEntity
  8
0
100
AcDbLine
 10
23.34796299839999
 20
16.8425588144
 30
0.0
 11
23.37045331199999
 21
17.309226664
 31
0.0
  0
LWPOLYLINE
  5
499
330
2E6
100
AcDbEntity
  8
0
100
AcDbPolyline
 90
        3
 70
     0
 43
0.0
 10
22.429785336
 20
20.13621612730977
 10
23.06542627039999
 20
20.13625782810976
 10
24.24024779039999
 20
20.13640908410976
  0
LINE
  5
49A
330
2E6
100
AcDbEntity
  8
0
100
AcDbLine
 10
19.59037261279999
 20
20.13609178650976
 30
0.0
 11
22.429785336
 21
20.13621612730977
 31
0.0
  0
LWPOLYLINE
  5
49B
330
2E6
100
AcDbEntity
  8
0
100
AcDbPolyline
 90
        3
 70
     0
 43
0.0
 10
16.2260185696
 20
21.4468563232
 10
16.1698329264
 20
22.1533109504
 10
16.1136575712
 20
22.8569986688
  0
LWPOLYLINE
  5
49C
330
2E6
100
AcDbEntity
  8
0
100
AcDbPolyline
 90
        4
 70
     0
 43
0.0
 10
15.73079585279998
 20
23.93533859680001
 10
15.65087541759999
 20
23.9434547408
 10
15.56091090879999
 20
23.9525011072
 10
15.48171642560001
 20
23.9603856432
  0
LWPOLYLINE
  5
49D
330
2E6
100
AcDbEntity
  8
0
100
AcDbPolyline
 90
        4
 70
     0
 43
0.0
 10
28.5
 20
20.1375
 10
28.4454851824
 20
20.6435294976
 10
28.38942403519999
 20
21.1637312512
 10
28.335695208
 20
21.55412391269023
  0
LWPOLYLINE
  5
49E
330
2E6
100
AcDbEntity
  8
0
100
AcDbPolyline
 90
        7
 70
     0
 43
0.0
 10
26.93770243200001
 20
20.1371769904
 10
27.55014768960001
 20
20.1371858256
 10
27.80002315679999
 20
20.1370916672
 10
28.0117059136
 20
20.1370204464
 10
28.18522144319999
 20
20.1370909472
 10
28.3208451472
 20
20.1373029824
 10
28.5
 20
20.1375
  0
LINE
  5
49F
330
2E6
100
AcDbEntity
  8
0
100
AcDbLine
 10
25.74104408799999
 20
20.1368192272
 30
0.0
 11
26.1785132336
 21
20.13696516
 31
0.0
  0
LINE
  5
4A0
330
2E6
100
AcDbEntity
  8
0
100
AcDbLine
 10
26.1785132336
 20
20.13696516
 30
0.0
 11
26.93770243200001
 21
20.1371769904
 31
0.0
  0
LINE
  5
4A1
330
2E6
100
AcDbEntity
  8
0
100
AcDbLine
 10
27.94029732640001
 20
21.98993085349024
 30
0.0
 11
27.9370510784
 21
21.99059450309024
 31
0.0
  0
LINE
  5
4A2
330
2E6
100
AcDbEntity
  8
0
100
AcDbLine
 10
27.9370510784
 20
21.99059450309024
 30
0.0
 11
27.93177260000001
 21
21.99162616389024
 31
0.0
  0
LINE
  5
4A3
330
2E6
100
AcDbEntity
  8
0
100
AcDbLine
 10
27.93304370079999
 20
21.99138308069024
 30
0.0
 11
27.9299277536
 21
21.99197296069024
 31
0.0
  0
LINE
  5
4A4
330
2E6
100
AcDbEntity
  8
0
100
AcDbLine
 10
27.9319843824
 20
21.99158589829024
 30
0.0
 11
27.92806067520001
 21
21.99231671909024
 31
0.0
  0
LINE
  5
4A5
330
2E6
100
AcDbEntity
  8
0
100
AcDbLine
 10
27.9291748928
 20
21.99211244709024
 30
0.0
 11
27.92610471040001
 21
21.99266908709024
 31
0.0
  0
LINE
  5
4A6
330
2E6
100
AcDbEntity
  8
0
100
AcDbLine
 10
27.92645370720001
 20
21.99260679429024
 30
0.0
 11
27.92337424800001
 21
21.99314778469024
 31
0.0
  0
LINE
  5
4A7
330
2E6
100
AcDbEntity
  8
0
100
AcDbLine
 10
27.92437454880001
 20
21.99297419269024
 30
0.0
 11
27.92127632
 21
21.99350520709024
 31
0.0
  0
LINE
  5
4A8
330
2E6
100
AcDbEntity
  8
0
100
AcDbLine
 10
27.92250692800001
 20
21.99329664069024
 30
0.0
 11
27.91911606880001
 21
21.99386387909024
 31
0.0
  0
LWPOLYLINE
  5
4A9
330
2E6
100
AcDbEntity
  8
0
100
AcDbPolyline
 90
        7
 70
     0
 43
0.0
 10
27.77396010079999
 20
22.00915380229024
 10
27.73105326559999
 20
22.01634110149024
 10
27.66584180160001
 20
22.02809002469023
 10
27.57621602720002
 20
22.04451625509024
 10
27.4591552064
 20
22.06567782789024
 10
27.312825352
 20
22.09164729829024
 10
27.13698278399999
 20
22.12268267589024
  0
LINE
  5
4AA
330
2E6
100
AcDbEntity
  8
0
100
AcDbLine
 10
27.9198524944
 20
21.99374267429024
 30
0.0
 11
27.91673808800001
 21
21.99424777829024
 31
0.0
  0
LINE
  5
4AB
330
2E6
100
AcDbEntity
  8
0
100
AcDbLine
 10
27.91754428800001
 20
21.99411890469024
 30
0.0
 11
27.91417715360001
 21
21.99464849349024
 31
0.0
  0
LINE
  5
4AC
330
2E6
100
AcDbEntity
  8
0
100
AcDbLine
 10
27.9146586432
 20
21.99457415589024
 30
0.0
 11
27.89926747839999
 21
21.99686463109024
 31
0.0
  0
LINE
  5
4AD
330
2E6
100
AcDbEntity
  8
0
100
AcDbLine
 10
27.9123224896
 20
21.99488544069024
 30
0.0
 11
27.90900330400001
 21
21.99541817989024
 31
0.0
  0
LINE
  5
4AE
330
2E6
100
AcDbEntity
  8
0
100
AcDbLine
 10
27.7947556784
 20
22.00621061989024
 30
0.0
 11
27.77396010079999
 21
22.00915380229024
 31
0.0
  0
LINE
  5
4AF
330
2E6
100
AcDbEntity
  8
0
100
AcDbLine
 10
27.89926747839999
 20
21.99686463109024
 30
0.0
 11
27.85834292800001
 21
22.00181933669024
 31
0.0
  0
LINE
  5
4B0
330
2E6
100
AcDbEntity
  8
0
100
AcDbLine
 10
27.8584115568
 20
22.00181232389024
 30
0.0
 11
27.85834292640001
 21
22.00181933669024
 31
0.0
  0
LWPOLYLINE
  5
4B1
330
2E6
100
AcDbEntity
  8
0
100
AcDbPolyline
 90
        3
 70
     0
 43
0.0
 10
27.8584115536
 20
22.00181228549024
 10
27.83920536159999
 20
22.00353140869024
 10
27.8199544112
 20
22.00486692549024
  0
LINE
  5
4B2
330
2E6
100
AcDbEntity
  8
0
100
AcDbLine
 10
27.8199544112
 20
22.00486692549024
 30
0.0
 11
27.79932340959999
 21
22.00602457829023
 31
0.0
  0
LINE
  5
4B3
330
2E6
100
AcDbEntity
  8
0
100
AcDbLine
 10
27.79933985120001
 20
22.00602373669024
 30
0.0
 11
27.79427899200001
 21
22.00627808389024
 31
0.0
  0
LWPOLYLINE
  5
4B4
330
2E6
100
AcDbEntity
  8
0
100
AcDbPolyline
 90
        3
 70
     0
 43
0.0
 10
26.70472274720001
 20
22.20166261349024
 10
26.4470473856
 20
22.25078075589024
 10
26.15749361760001
 20
22.30708656389024
  0
LWPOLYLINE
  5
4B5
330
2E6
100
AcDbEntity
  8
0
100
AcDbPolyline
 90
        3
 70
     0
 43
0.0
 10
27.13698278399999
 20
22.12268267589024
 10
26.9340028512
 20
22.15913031589024
 10
26.70472274720001
 20
22.20166261349024
  0
LWPOLYLINE
  5
4B6
330
2E6
100
AcDbEntity
  8
0
100
AcDbPolyline
 90
       14
 70
     0
 43
0.0
 10
28.3357010176
 20
21.55412451429024
 10
28.32963901280001
 20
21.59460582309024
 10
28.31766320319999
 20
21.64354492389024
 10
28.301420984
 20
21.68957419909024
 10
28.28150034399999
 20
21.73240797989024
 10
28.25848077119999
 20
21.77185348709024
 10
28.232930936
 20
21.80778994149024
 10
28.20539776640001
 20
21.84016997669024
 10
28.176397616
 20
21.86901355429024
 10
28.1464742784
 20
21.89434888069024
 10
28.11679454720001
 20
21.91583877669024
 10
28.088948184
 20
21.93318961189024
 10
28.06405074720001
 20
21.94666525029024
 10
28.04166626720001
 20
21.95728575269024
  0
LINE
  5
4B7
330
2E6
100
AcDbEntity
  8
0
100
AcDbLine
 10
28.0419394944
 20
21.95716421989024
 30
0.0
 11
28.02235064800001
 21
21.96539043909024
 31
0.0
  0
LINE
  5
4B8
330
2E6
100
AcDbEntity
  8
0
100
AcDbLine
 10
28.05298783360001
 20
21.95208401669023
 30
0.0
 11
28.00433067200001
 21
21.97211364869024
 31
0.0
  0
LINE
  5
4B9
330
2E6
100
AcDbEntity
  8
0
100
AcDbLine
 10
28.02261943519999
 20
21.96528413189024
 30
0.0
 11
28.00576379040001
 21
21.97160768709024
 31
0.0
  0
LINE
  5
4BA
330
2E6
100
AcDbEntity
  8
0
100
AcDbLine
 10
28.00603764320001
 20
21.97151044549024
 30
0.0
 11
27.99142296639999
 21
21.97645215429024
 31
0.0
  0
LINE
  5
4BB
330
2E6
100
AcDbEntity
  8
0
100
AcDbLine
 10
27.99406647840001
 20
21.97559539269024
 30
0.0
 11
27.9873876048
 21
21.97772882629024
 31
0.0
  0
LINE
  5
4BC
330
2E6
100
AcDbEntity
  8
0
100
AcDbLine
 10
27.9916772688
 20
21.97637044069024
 30
0.0
 11
27.9792012208
 21
21.98020411109024
 31
0.0
  0
LINE
  5
4BD
330
2E6
100
AcDbEntity
  8
0
100
AcDbLine
 10
28.05202688159999
 20
21.95237398149024
 30
0.0
 11
28.05298783360001
 21
21.95208401669023
 31
0.0
  0
LWPOLYLINE
  5
4BE
330
2E6
100
AcDbEntity
  8
0
100
AcDbPolyline
 90
        3
 70
     0
 43
0.0
 10
27.98040429120002
 20
21.97984990309024
 10
27.9734797712
 20
21.98184393349024
 10
27.96705577279999
 20
21.98359779749024
  0
LINE
  5
4BF
330
2E6
100
AcDbEntity
  8
0
100
AcDbLine
 10
27.9691942224
 20
21.98302415909024
 30
0.0
 11
27.96073948
 21
21.98523315109024
 31
0.0
  0
LINE
  5
4C0
330
2E6
100
AcDbEntity
  8
0
100
AcDbLine
 10
27.96086096319999
 20
21.98520252549024
 30
0.0
 11
27.95400223679999
 21
21.98688114949024
 31
0.0
  0
LINE
  5
4C1
330
2E6
100
AcDbEntity
  8
0
100
AcDbLine
 10
27.956434376
 20
21.98629762949024
 30
0.0
 11
27.95220382240001
 21
21.98730437509024
 31
0.0
  0
LINE
  5
4C2
330
2E6
100
AcDbEntity
  8
0
100
AcDbLine
 10
27.9485804976
 20
21.98813584229024
 30
0.0
 11
27.94397087519999
 21
21.98915285989024
 31
0.0
  0
LWPOLYLINE
  5
4C3
330
2E6
100
AcDbEntity
  8
0
100
AcDbPolyline
 90
        7
 70
     0
 43
0.0
 10
27.99927302400002
 20
21.97386027109024
 10
27.9823264432
 20
21.97927716869024
 10
27.966509752
 20
21.98374264389024
 10
27.9544358864
 20
21.98677804869024
 10
27.94597309440002
 20
21.98871670469024
 10
27.93989928319999
 20
21.99001342949024
 10
27.93437955039999
 20
21.99112396389024
  0
LINE
  5
4C4
330
2E6
100
AcDbEntity
  8
0
100
AcDbLine
 10
27.90984770560001
 20
21.99527599429024
 30
0.0
 11
27.99927302400002
 21
21.97386027109024
 31
0.0
  0
ENDBLK
  5
4C6
330
2E6
100
AcDbEntity
  8
0
100
AcDbBlockEnd
  0
ENDSEC
  0
SECTION
  2
ENTITIES
  0
LINE
  5
34
330
2
100
AcDbEntity
  8
0
100
AcDbLine
 10
28.99519679199998
 20
9.270837508900005
 30
0.0
 11
25.79534574879998
 21
9.167450208100003
 31
0.0
  0
LINE
  5
35
330
2
100
AcDbEntity
  8
0
100
AcDbLine
 10
-6.319597387200008
 20
9.271308161700002
 30
0.0
 11
-3.119746342400009
 21
9.1679208609
 31
0.0
  0
LWPOLYLINE
  5
39
330
2
100
AcDbEntity
  8
0
100
AcDbPolyline
 90
       32
 70
     0
 43
0.0
 10
25.79037416159997
 20
9.240821726500001
 10
25.60713394879996
 20
9.361067076900006
 10
25.41988095999997
 20
9.472275979300007
 10
25.22893479519999
 20
9.575034339300003
 10
25.03461505119997
 20
9.669928060900005
 10
24.83724132959997
 20
9.757543044900003
 10
24.63713323039996
 20
9.838465198500003
 10
24.43461035039996
 20
9.913280425700008
 10
24.19236287519999
 20
9.994698460900011
 10
23.94771264799996
 20
10.06936079689999
 10
23.70118868639997
 20
10.13823724330001
 10
23.45332000479999
 20
10.20229761610001
 10
23.04950550399996
 20
10.2979716753
 10
22.64387634399998
 20
10.3848523841
 10
22.23676335679996
 20
10.46426292170001
 10
21.82849736799997
 20
10.53752646090001
 10
21.19682339519997
 20
10.6409898337
 10
20.56352312799998
 20
10.7342265921
 10
19.92892821439997
 20
10.81849769770001
 10
19.29337029759997
 20
10.8950641137
 10
18.65269188799996
 20
10.9655931761
 10
18.01144861599996
 20
11.0304932945
 10
17.36971582879997
 20
11.09066958889999
 10
16.61388379679996
 20
11.1562843377
 10
15.85751836799997
 20
11.2157655233
 10
15.10065987199996
 20
11.2682693809
 10
14.34334863039998
 20
11.31295214570001
 10
13.58562497119999
 20
11.3489700497
 10
13.02346585919997
 20
11.3695869697
 10
12.46111856159998
 20
11.3846305201
 10
11.89859952479997
 20
11.3937565841
 10
11.33592519359999
 20
11.3966210465
  0
LWPOLYLINE
  5
3A
330
2
100
AcDbEntity
  8
0
100
AcDbPolyline
 90
       57
 70
     0
 43
0.0
 10
-2.637781550400035
 20
8.711600097700006
 10
-2.639073955200018
 20
8.724491838500007
 10
-2.640700420800015
 20
8.737349168100003
 10
-2.64265960640003
 20
8.750161875300001
 10
-2.644950164800036
 20
8.762919745700003
 10
-2.647570635200025
 20
8.775612931300003
 10
-2.650519083200009
 20
8.788233035300002
 10
-2.653793452800016
 20
8.800772025700005
 10
-2.657391691200018
 20
8.813221870500008
 10
-2.661311587200032
 20
8.825574491300002
 10
-2.665550331200023
 20
8.837821624100001
 10
-2.670104956800031
 20
8.849954963300007
 10
-2.674972497600009
 20
8.861966200100006
 10
-2.680149856000014
 20
8.873847113700001
 10
-2.685633379200027
 20
8.885589801700007
 10
-2.691419281600019
 20
8.897186448100008
 10
-2.697503779200019
 20
8.908629240100005
 10
-2.703882948800014
 20
8.919910416100002
 10
-2.710552345600035
 20
8.931022505700006
 10
-2.717507392000015
 20
8.941958086500008
 10
-2.724743505600031
 20
8.952709739300004
 10
-2.732255985600033
 20
8.963270139300007
 10
-2.740039633600019
 20
8.973632297700007
 10
-2.748089124800031
 20
8.983789321700008
 10
-2.756399137600027
 20
8.993734313700002
 10
-2.764964240000011
 20
9.003460480100002
 10
-2.773778536000008
 20
9.012961412900004
 10
-2.782836017600033
 20
9.022230800100004
 10
-2.792130680000013
 20
9.031262332900006
 10
-2.801656411200013
 20
9.040049811300008
 10
-2.811406688000033
 20
9.048587470500002
 10
-2.821374880000036
 20
9.056869660900005
 10
-2.831554358400012
 20
9.064890726500003
 10
-2.841938406400032
 20
9.072645132900007
 10
-2.852519937600021
 20
9.080127824100003
 10
-2.863291777600011
 20
9.087333864100003
 10
-2.874246750400033
 20
9.094258313700002
 10
-2.885377601600026
 20
9.100896364900002
 10
-2.896676753600019
 20
9.107243721700008
 10
-2.908136545600029
 20
9.113296214500003
 10
-2.919749323200022
 20
9.119049676900004
 10
-2.931507364800012
 20
9.124500073700005
 10
-2.943402721600023
 20
9.129643916900008
 10
-2.955427385600017
 20
9.134477857700005
 10
-2.967573347200016
 20
9.138998539300004
 10
-2.97983252320003
 20
9.143202752100002
 10
-2.992196528000022
 20
9.147087846500006
 10
-3.004656905600029
 20
9.150651315300002
 10
-3.017205195200034
 20
9.153890652900003
 10
-3.029832992000024
 20
9.156803497700003
 10
-3.042532112000031
 20
9.159388089700001
 10
-3.05529442240001
 20
9.161642817700005
 10
-3.068111790400024
 20
9.163566065700003
 10
-3.080975721600026
 20
9.165156360100006
 10
-3.09387630880002
 20
9.166412779300003
 10
-3.106803278400036
 20
9.167334540900007
 10
-3.119746360000021
 20
9.167920860900004
  0
LWPOLYLINE
  5
3B
330
2
100
AcDbEntity
  8
0
100
AcDbPolyline
 90
       10
 70
     0
 43
0.0
 10
-2.316601041600023
 20
4.996283129700003
 10
-2.288973588800018
 20
4.717519480100001
 10
-2.280301340800036
 20
4.629472388900005
 10
-2.271841267200017
 20
4.542986984100004
 10
-2.263551755200012
 20
4.457496998500005
 10
-2.255699393600025
 20
4.375641571300008
 10
-2.248519256000037
 20
4.299845838500004
 10
-2.242178720000026
 20
4.231984364900007
 10
-2.236748465600015
 20
4.173034076900002
 10
-2.23229923040003
 20
4.124064091300006
  0
LINE
  5
3C
330
2
100
AcDbEntity
  8
0
100
AcDbLine
 10
-2.23229923040002
 20
4.124064091300002
 30
0.0
 11
-2.226435174400013
 21
4.0584416945
 31
0.0
  0
LINE
  5
3D
330
2
100
AcDbEntity
  8
0
100
AcDbLine
 10
-2.226435174400013
 20
4.0584416945
 30
0.0
 11
-2.224492470400026
 21
4.036393267300002
 31
0.0
  0
LINE
  5
3E
330
2
100
AcDbEntity
  8
0
100
AcDbLine
 10
-2.436435203200023
 20
6.411218012900004
 30
0.0
 11
-2.376130752000012
 21
5.721934979299998
 31
0.0
  0
LINE
  5
3F
330
2
100
AcDbEntity
  8
0
100
AcDbLine
 10
-2.293890497600006
 20
4.7819245809
 30
0.0
 11
-2.376130752000012
 21
5.721934979299998
 31
0.0
  0
LINE
  5
40
330
2
100
AcDbEntity
  8
0
100
AcDbLine
 10
-2.532764188800019
 20
7.500423160100002
 30
0.0
 11
-2.530367876800017
 21
7.472885577700001
 31
0.0
  0
LINE
  5
41
330
2
100
AcDbEntity
  8
0
100
AcDbLine
 10
-2.63778149760002
 20
8.711599560100001
 30
0.0
 11
-2.532764188800019
 21
7.500423160100002
 31
0.0
  0
LINE
  5
42
330
2
100
AcDbEntity
  8
0
100
AcDbLine
 10
-2.530367876800017
 20
7.472885577700001
 30
0.0
 11
-2.517621411200014
 21
7.3260343713
 31
0.0
  0
LINE
  5
43
330
2
100
AcDbEntity
  8
0
100
AcDbLine
 10
-2.517621411200014
 20
7.3260343713
 30
0.0
 11
-2.505293331200011
 21
7.183342990499998
 31
0.0
  0
LINE
  5
44
330
2
100
AcDbEntity
  8
0
100
AcDbLine
 10
-2.505293331200011
 20
7.183342990499998
 30
0.0
 11
-2.491826409600026
 21
7.026591044899998
 31
0.0
  0
LWPOLYLINE
  5
45
330
2
100
AcDbEntity
  8
0
100
AcDbPolyline
 90
       12
 70
     0
 43
0.0
 10
-2.491826409600037
 20
7.026591044900001
 10
-2.47800576320003
 20
6.864588752100004
 10
-2.470951849600027
 20
6.781398297700008
 10
-2.46370635040003
 20
6.695552052900005
 10
-2.456173240000026
 20
6.605836030500007
 10
-2.44825526240001
 20
6.510984870500003
 10
-2.439884040000009
 20
6.410036963300008
 10
-2.430985264000014
 20
6.301915803300005
 10
-2.421308880000026
 20
6.183344070500005
 10
-2.410903075200025
 20
6.054719251300006
 10
-2.399894452800026
 20
5.918049152100003
 10
-2.388563942400026
 20
5.778723588900007
  0
LWPOLYLINE
  5
46
330
2
100
AcDbEntity
  8
0
100
AcDbPolyline
 90
       14
 70
     0
 43
0.0
 10
-2.388563942400026
 20
5.778723588900007
 10
-2.38434804800002
 20
5.727831088100003
 10
-2.380058836800031
 20
5.676802384100007
 10
-2.375713726400022
 20
5.625957360100002
 10
-2.371325982400009
 20
5.575506280100007
 10
-2.366836756800012
 20
5.524783134500005
 10
-2.36208103200002
 20
5.471951606500006
 10
-2.356962409600015
 20
5.416003380900008
 10
-2.351575438400033
 20
5.358005940900007
 10
-2.345962043200017
 20
5.298396131300002
 10
-2.339878073600033
 20
5.234599120100007
 10
-2.333040686400011
 20
5.163757163300005
 10
-2.325271177600029
 20
5.084193468900004
 10
-2.316601041600023
 20
4.996283129700003
  0
LWPOLYLINE
  5
47
330
2
100
AcDbEntity
  8
0
100
AcDbPolyline
 90
       79
 70
     0
 43
0.0
 10
-2.224492470400036
 20
4.036393267300006
 10
-2.20499060000003
 20
3.771886192100005
 10
-2.190123502400012
 20
3.535601891300004
 10
-2.17774093440002
 20
3.325987035300002
 10
-2.165658828800019
 20
3.139300160100006
 10
-2.152335033600024
 20
2.972939691300005
 10
-2.136494494400011
 20
2.824889563300004
 10
-2.117088561600013
 20
2.693398379300006
 10
-2.093350041600018
 20
2.577563120100002
 10
-2.06523844640003
 20
2.477168161700006
 10
-2.033414835200034
 20
2.391574752100005
 10
-1.998737113600014
 20
2.319439516900004
 10
-1.961577716800036
 20
2.258302542500004
 10
-1.921543996800011
 20
2.205382286500004
 10
-1.877970078400011
 20
2.158702369700002
 10
-1.830238499200021
 20
2.117161377700007
 10
-1.777045267200008
 20
2.079814728100004
 10
-1.715754584000023
 20
2.045556888100001
 10
-1.643165777600017
 20
2.013909369700002
 10
-1.55717363680003
 20
1.985408494500006
 10
-1.456978636800016
 20
1.960848953700008
 10
-1.342074902400014
 20
1.940599686500007
 10
-1.211842259200011
 20
1.924323132900006
 10
-1.065312339200033
 20
1.911411028900005
 10
-0.9012273680000362
 20
1.901320966500001
 10
-0.7176040336000256
 20
1.893373440100006
 10
-0.5142520048000279
 20
1.886645038500006
 10
-0.3086794576000216
 20
1.880248374500006
 10
-0.1211368464000202
 20
1.873191110500002
 10
0.0442712175999702
 20
1.864470556900002
 10
0.1913294991999805
 20
1.853269761700005
 10
0.3227305503999673
 20
1.838910523300008
 10
0.4396248191999633
 20
1.820761763300005
 10
0.5420790943999805
 20
1.798379504100005
 10
0.6304762559999802
 20
1.771837528100007
 10
0.7055065775999765
 20
1.741769800100001
 10
0.7692414335999729
 20
1.708681342500007
 10
0.824869195199966
 20
1.672179331300007
 10
0.8752040191999697
 20
1.631122784100007
 10
0.9216065951999894
 20
1.584574932900004
 10
0.9642003119999742
 20
1.532120145700005
 10
1.003041119999977
 20
1.472946008100002
 10
1.038420059199978
 20
1.405293795300003
 10
1.070347441599977
 20
1.326698708900003
 10
1.098260185599968
 20
1.234475913700002
 10
1.120949799999976
 20
1.126772457700006
 10
1.137671502399967
 20
1.002970366500008
 10
1.149789803199979
 20
0.8631462401000078
 10
1.159515964799965
 20
0.7062660305000037
 10
1.169612363199973
 20
0.530625816100006
 10
1.182062294399969
 20
0.3339586129000054
 10
1.197339300799967
 20
0.1134147953000024
 10
1.215873327999986
 20
-0.1340021198999963
 10
1.238148353599967
 20
-0.411507214299995
 10
1.264592887999981
 20
-0.7222541966999927
 10
1.295516308799989
 20
-1.068522459099995
 10
1.331125350399986
 20
-1.451939804699996
 10
1.371599316799972
 20
-1.874608676699992
 10
1.414808031999967
 20
-2.316361022299993
 10
1.455106166399986
 20
-2.724975020699993
 10
1.491100523199975
 20
-3.092230625499993
 10
1.52659230719999
 20
-3.459886211099991
 10
1.564678561599976
 20
-3.862792886299992
 10
1.605026092799988
 20
-4.301912939099992
 10
1.643878131199983
 20
-4.738392236699993
 10
1.678184020799989
 20
-5.134096409499996
 10
1.708181708799969
 20
-5.485872100699992
 10
1.735637425599975
 20
-5.810669086299995
 10
1.762164249599976
 20
-6.375631737499993
 10
1.78868664159998
 20
-6.690727983899996
 10
1.815665911999985
 20
-7.010853214299991
 10
1.843446471999982
 20
-7.339688764699992
 10
1.87226992639998
 20
-7.679771689499993
 10
1.902125222399973
 20
-8.030747331099995
 10
1.932907851199985
 20
-8.391251310299992
 10
1.96476808319997
 20
-8.762958628699998
 10
1.998104063999988
 20
-9.150411625499991
 10
2.033389543999987
 20
-9.558974916699995
 10
2.047915727999964
 20
-9.448326727899996
  0
LWPOLYLINE
  5
48
330
2
100
AcDbEntity
  8
0
100
AcDbPolyline
 90
       32
 70
     0
 43
0.0
 10
-3.115591060800028
 20
9.221248990500008
 10
-2.932513857600014
 20
9.341742380900008
 10
-2.745411643200014
 20
9.453204766500007
 10
-2.554604811200022
 20
9.556221617700003
 10
-2.360413753600028
 20
9.651378406500008
 10
-2.163158865600024
 20
9.739260601700003
 10
-1.963160536000032
 20
9.820453673700008
 10
-1.760739160000014
 20
9.895543094500006
 10
-1.518602164800029
 20
9.97728911690001
 10
-1.274053273600031
 20
10.0522826961
 10
-1.027622812800018
 20
10.12149293130001
 10
-0.779841112000014
 20
10.18588891690001
 10
-0.3761565456000255
 20
10.28210974889999
 10
0.0293545855999753
 20
10.3695396961
 10
0.4363596591999795
 20
10.44950148650001
 10
0.844526055999978
 20
10.5233178465
 10
1.476059337599963
 20
10.6276365585
 10
2.109232759999969
 20
10.72173086890001
 10
2.743712967999982
 20
10.8068612881
 10
3.379166614399963
 20
10.88428832809999
 10
4.019748923199983
 20
10.9556849537
 10
4.660903716799964
 20
11.0214534065
 10
5.302554422399964
 20
11.0824987025
 10
6.058296903999973
 20
11.14913696490001
 10
6.814581086399982
 20
11.2096423921
 10
7.571367787199989
 20
11.2631711665
 10
8.328617823999991
 20
11.3088794657
 10
9.086292011199986
 20
11.34592347210001
 10
9.648422687999982
 20
11.36730166890001
 10
10.21074909759997
 20
11.3831067553
 10
10.77325525919997
 20
11.3929945937
 10
11.33592519359999
 20
11.3966210465
  0
LWPOLYLINE
  5
4C
330
2
100
AcDbEntity
  8
0
100
AcDbPolyline
 90
        9
 70
     0
 43
0.0
 10
20.88642841919997
 20
-6.696950542299994
 10
20.85907125919996
 20
-7.021543801499994
 10
20.83087038239998
 20
-7.355316935899992
 10
20.80160970239998
 20
-7.700495678299994
 10
20.77138692319997
 20
-8.055706214299995
 10
20.74022025919998
 20
-8.420604751899993
 10
20.70779576799998
 20
-8.798771740699997
 10
20.67363399359996
 20
-9.195667735899995
 10
20.63719508639997
 20
-9.617387735899995
  0
LWPOLYLINE
  5
4E
330
2
100
AcDbEntity
  8
0
100
AcDbPolyline
 90
       17
 70
     0
 43
0.0
 10
25.31338090399998
 20
8.711128907300007
 10
25.28379376159998
 20
8.371225350500004
 10
25.25704193279997
 20
8.063039089700005
 10
25.23214235359998
 20
7.775343875300002
 10
25.20869311999996
 20
7.503532604900001
 10
25.18664774719997
 20
7.247079259300008
 10
25.16614644959997
 20
7.007632326500008
 10
25.14723204479997
 20
6.785752129700007
 10
25.13002773919998
 20
6.583041884900005
 10
25.11454629279998
 20
6.399901947300001
 10
25.10056621119997
 20
6.234066835300005
 10
25.08742198719997
 20
6.078197368100006
 10
25.07379571359996
 20
5.918159560100008
 10
25.05887734239996
 20
5.748250248100006
 10
25.04465385439996
 20
5.593506225700004
 10
25.03077812959998
 20
5.447623873700003
 10
25.01661978079997
 20
5.301426379300004
  0
LINE
  5
4F
330
2
100
AcDbEntity
  8
0
100
AcDbLine
 10
24.94248649919999
 20
4.681155566499999
 30
0.0
 11
25.08503120319998
 21
6.310449000100003
 31
0.0
  0
LWPOLYLINE
  5
50
330
2
100
AcDbEntity
  8
0
100
AcDbPolyline
 90
       73
 70
     0
 43
0.0
 10
25.01661978079997
 20
5.301426379300004
 10
24.98366796959996
 20
4.964351803300004
 10
24.96445920159996
 20
4.765043568100004
 10
24.94347800959997
 20
4.540714683300002
 10
24.92088917759997
 20
4.287249009700005
 10
24.89823618559998
 20
4.012265952100001
 10
24.87891767839997
 20
3.746576147300004
 10
24.86424116799998
 20
3.510082152100004
 10
24.85182678879997
 20
3.300614201700007
 10
24.83949411839998
 20
3.114298744100004
 10
24.82568914719996
 20
2.948539588900004
 10
24.80911859359997
 20
2.801288819300005
 10
24.78872923039998
 20
2.670816881700005
 10
24.76381546879997
 20
2.556391832100004
 10
24.73449678879998
 20
2.457709320100008
 10
24.70154325439998
 20
2.374012630500004
 10
24.66581278719996
 20
2.303689262500007
 10
24.62752192799996
 20
2.244007376100007
 10
24.58612307839996
 20
2.192166800100004
 10
24.54091848959999
 20
2.146355254500008
 10
24.49116638399996
 20
2.105553187300003
 10
24.43519180799998
 20
2.068746064100004
 10
24.36995113919997
 20
2.034877641700006
 10
24.29229312799998
 20
2.003770144100002
 10
24.20046966079997
 20
1.976153230500003
 10
24.09389954399998
 20
1.952769452900007
 10
23.97201539679997
 20
1.933769475300003
 10
23.83416100479996
 20
1.918617729700002
 10
23.67904915999997
 20
1.906697736100007
 10
23.50537216959998
 20
1.897440361700006
 10
23.31113413119996
 20
1.890028424100002
 10
23.10087106879998
 20
1.883457355300002
 10
22.89802668479998
 20
1.876784184100003
 10
22.71822390879998
 20
1.868974910500007
 10
22.55955725279997
 20
1.859044448100007
 10
22.41814328799998
 20
1.846209891300006
 10
22.29214045439996
 20
1.829801283300007
 10
22.18101105439998
 20
1.809211235300004
 10
22.08449729119996
 20
1.784192963300007
 10
22.00223502879998
 20
1.755193833700005
 10
21.93288800959996
 20
1.722975505700006
 10
21.87344627199996
 20
1.687609652900007
 10
21.82050583519998
 20
1.648104139300002
 10
21.77192448959996
 20
1.603224886500008
 10
21.72721570399997
 20
1.552418635300007
 10
21.68647134239998
 20
1.495181622500005
 10
21.64938831359998
 20
1.430023100900008
 10
21.61580113599999
 20
1.354610665700008
 10
21.58605734559998
 20
1.266139232100002
 10
21.56120012799996
 20
1.162232862500005
 10
21.54243571839998
 20
1.041814553700007
 10
21.52897577599998
 20
0.9049832913000059
 10
21.51868534399997
 20
0.7510435569000081
 10
21.50884393919997
 20
0.5783439825000017
 10
21.49689711839997
 20
0.3847485393000056
 10
21.48214641599997
 20
0.1673614737000051
 10
21.46416129599998
 20
-0.0768672398999968
 10
21.44244464959996
 20
-0.3512545902999946
 10
21.41653354399997
 20
-0.6590882430999941
 10
21.38605562879996
 20
-1.003244849499992
 10
21.35085332639997
 20
-1.384662403099994
 10
21.31073396479996
 20
-1.805491028699997
 10
21.26717030879999
 20
-2.252003055899997
 10
21.22589318079997
 20
-2.670667921499997
 10
21.18931729599998
 20
-3.043253324699996
 10
21.15348447679997
 20
-3.413607950299997
 10
21.11546395199997
 20
-3.814661414299997
 10
21.07472535999997
 20
-4.256540774299992
 10
21.03428349759997
 20
-4.709669121499992
 10
20.99860189919997
 20
-5.120747614299993
 10
20.96795538719996
 20
-5.480003310299991
 10
20.94016843999998
 20
-5.808691265499994
 10
20.88642841919997
 20
-6.696950542299994
  0
LWPOLYLINE
  5
51
330
2
100
AcDbEntity
  8
0
100
AcDbPolyline
 90
       57
 70
     0
 43
0.0
 10
25.31338095519998
 20
8.711129444900002
 10
25.31467335999997
 20
8.724021185700003
 10
25.31629982719997
 20
8.736878515300006
 10
25.31825901119998
 20
8.749691222500004
 10
25.32054956959999
 20
8.762449094500006
 10
25.32317004159998
 20
8.775142278500005
 10
25.32611848959996
 20
8.787762382500005
 10
25.32939285919997
 20
8.800301372900001
 10
25.33299109599997
 20
8.812751217700004
 10
25.33691099359998
 20
8.825103838500005
 10
25.34114973759997
 20
8.837350971300004
 10
25.34570436319998
 20
8.849484310500002
 10
25.35057190399996
 20
8.861495547300002
 10
25.35574926079997
 20
8.873376460900004
 10
25.36123278399998
 20
8.885119148900002
 10
25.36701868799997
 20
8.896715795300004
 10
25.37310318559997
 20
8.908158587300007
 10
25.37948235359996
 20
8.919439763300005
 10
25.38615175199999
 20
8.930551852900002
 10
25.39310679679997
 20
8.941487433700004
 10
25.40034291199998
 20
8.952239088100007
 10
25.40785539199998
 20
8.962799486500003
 10
25.41563903839997
 20
8.973161644900002
 10
25.42368852959998
 20
8.983318668900004
 10
25.43199854399998
 20
8.993263662500005
 10
25.44056364639996
 20
9.002989828900005
 10
25.44937794079999
 20
9.012490760100007
 10
25.45843542399998
 20
9.021760147300007
 10
25.46773008639997
 20
9.030791680100001
 10
25.47725581759996
 20
9.039579158500004
 10
25.48700609439999
 20
9.048116819300005
 10
25.49697428479999
 20
9.056399008100008
 10
25.50715376479996
 20
9.064420073700006
 10
25.51753781279998
 20
9.072174480100002
 10
25.52811934399997
 20
9.079657171300006
 10
25.53889118239996
 20
9.086863211300006
 10
25.54984615679998
 20
9.093787660900005
 10
25.56097700799998
 20
9.100425712100005
 10
25.57227615839997
 20
9.106773068900004
 10
25.58373595199998
 20
9.112825561700006
 10
25.59534872959997
 20
9.118579024100007
 10
25.60710676959996
 20
9.124029420900008
 10
25.61900212799997
 20
9.129173264100003
 10
25.63102679199997
 20
9.134007204900008
 10
25.64317275359996
 20
9.138527886500007
 10
25.65543192959998
 20
9.142732099300005
 10
25.66779593439997
 20
9.146617193700002
 10
25.68025631039998
 20
9.150180662500005
 10
25.69280459999998
 20
9.153420000100005
 10
25.70543239839997
 20
9.156332844900006
 10
25.71813151839998
 20
9.158917438500004
 10
25.73089382879996
 20
9.161172164900001
 10
25.74371119679998
 20
9.163095412900005
 10
25.75657512799998
 20
9.164685707300002
 10
25.76947571359997
 20
9.165942126500006
 10
25.78240268319999
 20
9.166863888100003
 10
25.79534576639997
 20
9.167450208100007
  0
LWPOLYLINE
  5
52
330
2
100
AcDbEntity
  8
0
100
AcDbPolyline
 90
        3
 70
     0
 43
0.0
 10
-6.53886312480003
 20
9.106976459300007
 10
-6.547890742400028
 20
9.075810976100008
 10
-6.552803097600019
 20
9.043771876900002
  0
LINE
  5
53
330
2
100
AcDbEntity
  8
0
100
AcDbLine
 10
-6.664074806399998
 20
7.771930433700003
 30
0.0
 11
-6.552806264000015
 21
9.043735684900003
 31
0.0
  0
LWPOLYLINE
  5
55
330
2
100
AcDbEntity
  8
0
100
AcDbPolyline
 90
        4
 70
     0
 43
0.0
 10
-6.488956561600019
 20
9.189911996900008
 10
-6.509145747200022
 20
9.164511548900001
 10
-6.52587520160003
 20
9.136710268900003
 10
-6.53886312480003
 20
9.106976459300007
  0
LINE
  5
56
330
2
100
AcDbEntity
  8
0
100
AcDbLine
 10
-6.465274299200007
 20
9.212800470500003
 30
0.0
 11
-6.488956561600009
 21
9.189911996900004
 31
0.0
  0
LINE
  5
58
330
2
100
AcDbEntity
  8
0
100
AcDbLine
 10
-6.439134708800015
 20
9.232154723300002
 30
0.0
 11
-6.46564772320001
 21
9.212483752100002
 31
0.0
  0
LINE
  5
59
330
2
100
AcDbEntity
  8
0
100
AcDbLine
 10
-6.411287537600021
 20
9.247674387299998
 30
0.0
 11
-6.439611860800017
 21
9.231846601700002
 31
0.0
  0
LWPOLYLINE
  5
5A
330
2
100
AcDbEntity
  8
0
100
AcDbPolyline
 90
       15
 70
     0
 43
0.0
 10
-2.609434470400032
 20
7.766483200100005
 10
-2.59639168320001
 20
7.575455996900004
 10
-2.577966379200034
 20
7.289866294500008
 10
-2.561163235200012
 20
7.013819961700008
 10
-2.545865382400023
 20
6.746995446500008
 10
-2.531957489600017
 20
6.489067086500007
 10
-2.519323627200009
 20
6.239715294500008
 10
-2.507855574400025
 20
5.998626638500006
 10
-2.497452515200023
 20
5.765493808100004
 10
-2.48801926560003
 20
5.540047811300006
 10
-2.479462510400026
 20
5.321926752100004
 10
-2.471710251200022
 20
5.111173028900005
 10
-2.464717603200028
 20
4.908708659300003
 10
-2.458426985600027
 20
4.715442968100006
 10
-2.452740188800021
 20
4.531008697700002
  0
LWPOLYLINE
  5
5B
330
2
100
AcDbEntity
  8
0
100
AcDbPolyline
 90
       56
 70
     0
 43
0.0
 10
-2.417571792000018
 20
3.284485073700004
 10
-2.413279529600032
 20
3.152042340900003
 10
-2.408542544000027
 20
3.017902195300003
 10
-2.403148481600027
 20
2.880127862500003
 10
-2.396862291200022
 20
2.738026708900008
 10
-2.389344563200012
 20
2.590644062500004
 10
-2.380161955200009
 20
2.437771668900005
 10
-2.368787705600027
 20
2.280441376100007
 10
-2.355077136000033
 20
2.125678368100004
 10
-2.339420180800033
 20
1.982269292900006
 10
-2.322761947200035
 20
1.857252072100003
 10
-2.305579041600026
 20
1.749541758500008
 10
-2.285905072000019
 20
1.645339939300008
 10
-2.263343577600011
 20
1.544063451300004
 10
-2.238540395200033
 20
1.449026188900006
 10
-2.212162614400028
 20
1.361668851300002
 10
-2.184819449600013
 20
1.282223305700007
 10
-2.15678726080003
 20
1.209701224100008
 10
-2.128413254400015
 20
1.143449190500007
 10
-2.099944633600017
 20
1.082733454500008
 10
-2.071321206400028
 20
1.026425774500005
 10
-2.042476460800031
 20
0.9736694657000057
 10
-2.013357528000028
 20
0.9238298081000024
 10
-1.983796641600036
 20
0.8762282641000069
 10
-1.953633692800025
 20
0.8303324449000086
 10
-1.922838102400021
 20
0.785890627300006
 10
-1.891418491200028
 20
0.7427447473000087
 10
-1.859368356800018
 20
0.7007409761000077
 10
-1.82667222400002
 20
0.6597360881000043
 10
-1.793314588800029
 20
0.6196062337000044
 10
-1.759279468800031
 20
0.5802429441000072
 10
-1.72448528160001
 20
0.5414779425000021
 10
-1.688866278400013
 20
0.503176193700007
 10
-1.652432926400024
 20
0.4652965553000073
 10
-1.615208968000018
 20
0.4278158209000083
 10
-1.577179374400031
 20
0.3906776785000048
 10
-1.538365928000018
 20
0.3538690161000062
 10
-1.498626720000032
 20
0.3172263153000046
 10
-1.457815993600036
 20
0.2805884241000029
 10
-1.415962257600028
 20
0.2439569153000036
 10
-1.373094924800028
 20
0.2073323377000023
 10
-1.329244115200026
 20
0.1707142881000081
 10
-1.284440476800028
 20
0.1341014529000049
 10
-1.238743326400026
 20
0.0975144401000066
 10
-1.192244587200036
 20
0.0609974673000053
 10
-1.145025454400013
 20
0.0245820033000044
 10
-1.09716846720002
 20
-0.0117022622999983
 10
-1.048761230400032
 20
-0.0478241278999931
 10
-0.9998955648000276
 20
-0.0837513022999943
 10
-0.9506513776000247
 20
-0.1194620366999928
 10
-0.9011222720000091
 20
-0.1549261886999957
 10
-0.8514224048000187
 20
-0.1901001358999963
 10
-0.8017117856000197
 20
-0.224908031899993
 10
-0.7519962352000107
 20
-0.2593807838999922
 10
-0.7022542496000313
 20
-0.2935662542999964
 10
-0.6026886560000265
 20
-0.3612014446999936
  0
LINE
  5
5C
330
2
100
AcDbEntity
  8
0
100
AcDbLine
 10
-2.425598902400015
 20
3.557241118499999
 30
0.0
 11
-2.417571792000007
 21
3.284485073700001
 31
0.0
  0
LINE
  5
5D
330
2
100
AcDbEntity
  8
0
100
AcDbLine
 10
-2.45274018880001
 20
4.531008697699999
 30
0.0
 11
-2.442642833600007
 21
4.180956150499998
 31
0.0
  0
LINE
  5
5E
330
2
100
AcDbEntity
  8
0
100
AcDbLine
 10
-2.442642833600007
 20
4.180956150499998
 30
0.0
 11
-2.425598902400015
 21
3.557241118499999
 31
0.0
  0
LINE
  5
5F
330
2
100
AcDbEntity
  8
0
100
AcDbLine
 10
-6.38115186400002
 20
9.259700496099998
 30
0.0
 11
-6.411287537600021
 21
9.247674387299998
 31
0.0
  0
LWPOLYLINE
  5
60
330
2
100
AcDbEntity
  8
0
100
AcDbPolyline
 90
       31
 70
     0
 43
0.0
 10
0.4273692831999654
 20
-7.577097321499998
 10
0.4350068863999752
 20
-7.736116278299995
 10
0.457788129599976
 20
-7.905671486299993
 10
0.495572867199968
 20
-8.072185332699994
 10
0.5477828607999698
 20
-8.233513366299995
 10
0.6131432767999741
 20
-8.387033665499991
 10
0.6901978319999671
 20
-8.531201167899993
 10
0.7773983119999742
 20
-8.664996111899995
 10
0.8721504639999864
 20
-8.786551049499998
 10
0.9714659295999865
 20
-8.894644431899997
 10
1.072179803199986
 20
-8.988657574299992
 10
1.172182283199987
 20
-9.069462387099996
 10
1.27025817759997
 20
-9.138521095899996
 10
1.365775137599968
 20
-9.197389635099995
 10
1.457939622399976
 20
-9.247282430299996
 10
1.545326846399973
 20
-9.288983950299993
 10
1.627706334399988
 20
-9.323779601499992
 10
1.705402511999977
 20
-9.352960436699994
 10
1.778799683199963
 20
-9.377606203099993
 10
1.848704470399979
 20
-9.398710446299993
 10
1.916161702399989
 20
-9.417118020699994
 10
1.982283006399967
 20
-9.433501238299996
 10
2.047915727999964
 20
-9.448326727899996
 10
2.113870718399965
 20
-9.461959185499992
 10
2.181074068799972
 20
-9.474709700699996
 10
2.25056461119999
 20
-9.486832209499993
 10
2.322123555199965
 20
-9.498332579099994
 10
2.395299017599967
 20
-9.509234951899998
 10
2.468743659199986
 20
-9.519495673499996
 10
2.541653675199967
 20
-9.529222924699993
 10
2.611590819199989
 20
-9.538307727899997
  0
LWPOLYLINE
  5
62
330
2
100
AcDbEntity
  8
0
100
AcDbPolyline
 90
        3
 70
     0
 43
0.0
 10
2.627952022399966
 20
-10.87955543989999
 10
2.665528356799967
 20
-10.89431596789999
 10
2.70872745119999
 20
-10.90988670549999
  0
LWPOLYLINE
  5
63
330
2
100
AcDbEntity
  8
0
100
AcDbPolyline
 90
        5
 70
     0
 43
0.0
 10
2.570824041599991
 20
-10.85527003669999
 10
2.57283672799997
 20
-10.85607317429999
 10
2.578225492799987
 20
-10.85832944309999
 10
2.592889071999991
 20
-10.86464265109999
 10
2.627952022399966
 20
-10.87955543989999
  0
LINE
  5
64
330
2
100
AcDbEntity
  8
0
100
AcDbLine
 10
2.575208801599995
 20
-10.85728996469999
 30
0.0
 11
2.597997083199981
 21
-10.86704419989999
 31
0.0
  0
LINE
  5
65
330
2
100
AcDbEntity
  8
0
100
AcDbLine
 10
3.478117297599975
 20
-11.0836500175
 30
0.0
 11
3.843507715200001
 21
-11.44904043509999
 31
0.0
  0
LWPOLYLINE
  5
66
330
2
100
AcDbEntity
  8
0
100
AcDbPolyline
 90
        6
 70
     0
 43
0.0
 10
4.514184860799986
 20
-11.54056956629999
 10
4.540847809599966
 20
-11.58407419029999
 10
4.599926399999986
 20
-11.64423382869999
 10
4.671326539199981
 20
-11.68985671189999
 10
4.751192299199971
 20
-11.71829601269999
 10
4.836249001599981
 20
-11.72806956629999
  0
LWPOLYLINE
  5
67
330
2
100
AcDbEntity
  8
0
100
AcDbPolyline
 90
       18
 70
     0
 43
0.0
 10
1.757113233599966
 20
-10.38849547189999
 10
1.77351975679997
 20
-10.42885365109999
 10
1.792142305599981
 20
-10.46709340789999
 10
1.812714614399965
 20
-10.50313569269999
 10
1.83496004159997
 20
-10.53693034869999
 10
1.85861939679998
 20
-10.56844838229999
 10
1.883451492799963
 20
-10.59768004149999
 10
1.909232431999981
 20
-10.62463272309999
 10
1.935748185599976
 20
-10.64932775349999
 10
1.962748150399988
 20
-10.67179183989999
 10
1.989972108799975
 20
-10.69206781749999
 10
2.017176875199965
 20
-10.71021969269999
 10
2.04416463839999
 20
-10.72634544789999
 10
2.070771161599964
 20
-10.74056014069999
 10
2.096866934399969
 20
-10.75299120949999
 10
2.122330839999989
 20
-10.76376418869999
 10
2.146896655999967
 20
-10.77295995189999
 10
2.170118289599969
 20
-10.78063084309999
  0
LWPOLYLINE
  5
68
330
2
100
AcDbEntity
  8
0
100
AcDbPolyline
 90
       18
 70
     0
 43
0.0
 10
1.757016798399973
 20
-10.38759636949999
 10
1.773428806399977
 20
-10.42800321269999
 10
1.79205826719999
 20
-10.46629200469999
 10
1.812639297599986
 20
-10.50238352149999
 10
1.834895398399964
 20
-10.53622746069999
 10
1.858567454399974
 20
-10.56779466229999
 10
1.883414326399986
 20
-10.59707521109999
 10
1.909212142399979
 20
-10.62407633589999
 10
1.935747121599973
 20
-10.64881924789999
 10
1.962769294399976
 20
-10.67133058389999
 10
1.990018566399982
 20
-10.69165296309999
 10
2.017251743999963
 20
-10.70985008629999
 10
2.044270499199967
 20
-10.72601940309999
 10
2.070909979199967
 20
-10.74027552629999
 10
2.097039991999963
 20
-10.75274556309999
 10
2.122539628799984
 20
-10.76355511669999
 10
2.147147886399977
 20
-10.77278657109999
 10
2.170422558399963
 20
-10.78049258229999
  0
LINE
  5
69
330
2
100
AcDbEntity
  8
0
100
AcDbLine
 10
1.743067732799982
 20
-10.34519403349999
 30
0.0
 11
1.757113233599977
 21
-10.38849547189999
 31
0.0
  0
LINE
  5
6A
330
2
100
AcDbEntity
  8
0
100
AcDbLine
 10
1.723680809599994
 20
-10.25608050709999
 30
0.0
 11
1.731937702399999
 21
-10.3019429487
 31
0.0
  0
LWPOLYLINE
  5
6B
330
2
100
AcDbEntity
  8
0
100
AcDbPolyline
 90
        3
 70
     0
 43
0.0
 10
1.723573935999979
 20
-10.25503834709999
 10
1.731833567999984
 20
-10.30094797909999
 10
1.74316848159998
 20
-10.34614132309999
  0
LINE
  5
6C
330
2
100
AcDbEntity
  8
0
100
AcDbLine
 10
1.684143137599999
 20
-9.868288903899998
 30
0.0
 11
1.684135771199986
 21
-9.868216155099997
 31
0.0
  0
LINE
  5
6D
330
2
100
AcDbEntity
  8
0
100
AcDbLine
 10
1.720363519999988
 20
-10.22939264149999
 30
0.0
 11
1.720367236799983
 21
-10.22942983829999
 31
0.0
  0
LINE
  5
6E
330
2
100
AcDbEntity
  8
0
100
AcDbLine
 10
1.684135771199986
 20
-9.868216155099997
 30
0.0
 11
1.7203674432
 21
-10.2294318671
 31
0.0
  0
LWPOLYLINE
  5
6F
330
2
100
AcDbEntity
  8
0
100
AcDbPolyline
 90
        9
 70
     0
 43
0.0
 10
0.4384431087999872
 20
-5.523378494299997
 10
0.4350648623999689
 20
-5.751915924699993
 10
0.4320488591999663
 20
-6.235057219099992
 10
0.4295093759999702
 20
-6.472678766299992
 10
0.4275700751999807
 20
-6.714660246299992
 10
0.4263661007999815
 20
-6.960900089499993
 10
0.4260372863999749
 20
-7.211307822299993
 10
0.4267275631999894
 20
-7.465755827099997
 10
0.4273756767999828
 20
-7.576578025499998
  0
LINE
  5
70
330
2
100
AcDbEntity
  8
0
100
AcDbLine
 10
0.4458486863999945
 20
-5.0806066351
 30
0.0
 11
0.4384431087999979
 21
-5.523378494300001
 31
0.0
  0
LINE
  5
71
330
2
100
AcDbEntity
  8
0
100
AcDbLine
 10
0.4637496399999855
 20
-4.055491566299995
 30
0.0
 11
0.4571093503999855
 21
-4.4517855791
 31
0.0
  0
LINE
  5
72
330
2
100
AcDbEntity
  8
0
100
AcDbLine
 10
0.4571093503999855
 20
-4.4517855791
 30
0.0
 11
0.4458486863999945
 21
-5.0806066351
 31
0.0
  0
LINE
  5
73
330
2
100
AcDbEntity
  8
0
100
AcDbLine
 10
2.873111279999999
 20
-10.95522702069999
 30
0.0
 11
2.902905931199978
 21
-10.96099982709999
 31
0.0
  0
LWPOLYLINE
  5
74
330
2
100
AcDbEntity
  8
0
100
AcDbPolyline
 90
        7
 70
     0
 43
0.0
 10
2.483411039999964
 20
-10.83588855029999
 10
2.51854180799998
 20
-10.84255213429999
 10
2.54086846879997
 20
-10.84741025109999
 10
2.556323983999988
 20
-10.85117371029999
 10
2.565701262399983
 20
-10.85372894229999
 10
2.570536409599981
 20
-10.85519098869999
 10
2.57120623679998
 20
-10.85540813589999
  0
LINE
  5
75
330
2
100
AcDbEntity
  8
0
100
AcDbLine
 10
2.229015707199987
 20
-10.7959603295
 30
0.0
 11
2.245423347199999
 21
-10.79911965269999
 31
0.0
  0
LWPOLYLINE
  5
76
330
2
100
AcDbEntity
  8
0
100
AcDbPolyline
 90
        6
 70
     0
 43
0.0
 10
2.513133345599982
 20
-10.84157793109999
 10
2.53581962719997
 20
-10.84640664629999
 10
2.552224331199965
 20
-10.85029595829999
 10
2.56273219359997
 20
-10.85307184309999
 10
2.568837153599986
 20
-10.85486145589999
 10
2.570453537599973
 20
-10.85537431989999
  0
LINE
  5
77
330
2
100
AcDbEntity
  8
0
100
AcDbLine
 10
2.902905931199978
 20
-10.96099982709999
 30
0.0
 11
2.901380449599979
 21
-10.9606718799
 31
0.0
  0
LINE
  5
78
330
2
100
AcDbEntity
  8
0
100
AcDbLine
 10
2.836977302399997
 20
-10.9471767807
 30
0.0
 11
2.873111279999999
 21
-10.95522702069999
 31
0.0
  0
LINE
  5
79
330
2
100
AcDbEntity
  8
0
100
AcDbLine
 10
2.211269673599996
 20
-10.7919352031
 30
0.0
 11
2.229494875199986
 21
-10.79590487669999
 31
0.0
  0
LINE
  5
7A
330
2
100
AcDbEntity
  8
0
100
AcDbLine
 10
2.795487084799997
 20
-10.93658502389999
 30
0.0
 11
2.836977302399997
 21
-10.9471767807
 31
0.0
  0
LINE
  5
7B
330
2
100
AcDbEntity
  8
0
100
AcDbLine
 10
2.1916291488
 20
-10.78689353429999
 30
0.0
 11
2.211697406399974
 21
-10.79185805269999
 31
0.0
  0
LINE
  5
7C
330
2
100
AcDbEntity
  8
0
100
AcDbLine
 10
2.752221590399994
 20
-10.9240339247
 30
0.0
 11
2.795487084799997
 21
-10.93658502389999
 31
0.0
  0
LINE
  5
7D
330
2
100
AcDbEntity
  8
0
100
AcDbLine
 10
2.170118289599979
 20
-10.78063084309999
 30
0.0
 11
2.191995055999978
 21
-10.78678819029999
 31
0.0
  0
LINE
  5
7E
330
2
100
AcDbEntity
  8
0
100
AcDbLine
 10
2.708727451200001
 20
-10.90988670549999
 30
0.0
 11
2.752221590399994
 21
-10.9240339247
 31
0.0
  0
LWPOLYLINE
  5
80
330
2
100
AcDbEntity
  8
0
100
AcDbPolyline
 90
        4
 70
     0
 43
0.0
 10
2.570692207999968
 20
-10.85544926869999
 10
2.57041159359997
 20
-10.85534784789999
 10
2.571605811199987
 20
-10.85581402229999
 10
2.575208801599984
 20
-10.85728996469999
  0
LWPOLYLINE
  5
81
330
2
100
AcDbEntity
  8
0
100
AcDbPolyline
 90
        7
 70
     0
 43
0.0
 10
2.626591897599979
 20
-10.87882260629999
 10
2.671064931199964
 20
-10.89626070389999
 10
2.721141748799965
 20
-10.91398725429999
 10
2.771053676799965
 20
-10.92962761429999
 10
2.820403553599987
 20
-10.94308951189999
 10
2.864393647999975
 20
-10.95337896469999
 10
2.901369585599979
 20
-10.96072241269999
  0
LWPOLYLINE
  5
82
330
2
100
AcDbEntity
  8
0
100
AcDbPolyline
 90
        7
 70
     0
 43
0.0
 10
1.617543895999972
 20
-9.319487166299992
 10
1.619843670399973
 20
-9.334795723099993
 10
1.633354393599972
 20
-9.431310171099994
 10
1.646856865599971
 20
-9.534977742299993
 10
1.660218447999966
 20
-9.645577214299997
 10
1.67330225439997
 20
-9.762789086299996
 10
1.684191777599977
 20
-9.868284070299992
  0
LINE
  5
83
330
2
100
AcDbEntity
  8
0
100
AcDbLine
 10
1.720309744000001
 20
-10.2283129743
 30
0.0
 11
1.723680809599994
 21
-10.25608050709999
 31
0.0
  0
LWPOLYLINE
  5
84
330
2
100
AcDbEntity
  8
0
100
AcDbPolyline
 90
       22
 70
     0
 43
0.0
 10
0.3855024975999868
 20
-1.020651244699998
 10
0.3952898703999779
 20
-1.104009271899997
 10
0.4063149583999746
 20
-1.209272193499991
 10
0.4166077087999725
 20
-1.320177001499992
 10
0.4260894527999711
 20
-1.436310166299996
 10
0.4347011567999744
 20
-1.557196505499994
 10
0.4424116671999912
 20
-1.682445702299993
 10
0.4492111663999765
 20
-1.811757089499991
 10
0.4551055727999654
 20
-1.944924571099996
 10
0.4601155407999898
 20
-2.081856495899991
 10
0.4642697967999823
 20
-2.222447673499992
 10
0.4675999423999713
 20
-2.366543220699995
 10
0.4701432591999719
 20
-2.514097491099995
 10
0.4719422159999738
 20
-2.665498190299992
 10
0.4730325999999821
 20
-2.821211563099993
 10
0.4734462575999885
 20
-2.981713791899991
 10
0.4732159439999748
 20
-3.147479134299992
 10
0.4723733727999786
 20
-3.318842982299997
 10
0.4709560031999729
 20
-3.495610023899992
 10
0.4690096895999716
 20
-3.677481259099991
 10
0.4665870607999807
 20
-3.864180550299991
 10
0.4637496399999748
 20
-4.055491566299991
  0
LINE
  5
86
330
2
100
AcDbEntity
  8
0
100
AcDbLine
 10
19.68411938079999
 20
-10.59786544949999
 30
0.0
 11
19.71012429279998
 21
-10.59294019029999
 31
0.0
  0
LWPOLYLINE
  5
87
330
2
100
AcDbEntity
  8
0
100
AcDbPolyline
 90
        3
 70
     0
 43
0.0
 10
19.71012429279997
 20
-10.59294019029999
 10
19.73194891519997
 20
-10.58893025909999
 10
19.76013905759998
 20
-10.58415560149999
  0
LWPOLYLINE
  5
89
330
2
100
AcDbEntity
  8
0
100
AcDbPolyline
 90
        6
 70
     0
 43
0.0
 10
19.78517330399998
 20
-10.58624331829999
 10
19.84970171199998
 20
-10.57544047669999
 10
19.87583558239998
 20
-10.57256959189999
 10
19.95123215839998
 20
-10.56713883029999
 10
20.05920283999998
 20
-10.56170889589999
 10
20.18956721759997
 20
-10.55663368309999
  0
LINE
  5
8A
330
2
100
AcDbEntity
  8
0
100
AcDbLine
 10
19.77740920799997
 20
-10.5874834111
 30
0.0
 11
19.78495246239999
 21
-10.58627957109999
 31
0.0
  0
LWPOLYLINE
  5
8B
330
2
100
AcDbEntity
  8
0
100
AcDbPolyline
 90
        6
 70
     0
 43
0.0
 10
17.83560138719997
 20
-11.72806956629999
 10
17.92771193279998
 20
-11.71658111669999
 10
18.01279287519997
 20
-11.68356643029999
 10
18.08656082559997
 20
-11.63171694229999
 10
18.14532214079997
 20
-11.56448871189999
 10
18.17551559679998
 20
-11.51144673749999
  0
LINE
  5
8C
330
2
100
AcDbEntity
  8
0
100
AcDbLine
 10
17.83560138719998
 20
-11.72806956629999
 30
0.0
 11
4.836249001599991
 21
-11.72806956629999
 31
0.0
  0
LINE
  5
8D
330
2
100
AcDbEntity
  8
0
100
AcDbLine
 10
6.607371803199992
 20
-11.54056956629999
 30
0.0
 11
4.064478585599982
 21
-11.54056956629999
 31
0.0
  0
LINE
  5
8E
330
2
100
AcDbEntity
  8
0
100
AcDbLine
 10
2.349764422399982
 20
-10.8121642911
 30
0.0
 11
2.303551860799995
 21
-10.80810092469999
 31
0.0
  0
LWPOLYLINE
  5
8F
330
2
100
AcDbEntity
  8
0
100
AcDbPolyline
 90
       19
 70
     0
 43
0.0
 10
3.494117076799966
 20
-11.04334767989999
 10
3.534875708799972
 20
-11.04701000949999
 10
3.579939686399967
 20
-11.05074320949999
 10
3.628921995199988
 20
-11.05443974389999
 10
3.68171617439998
 20
-11.05801785749999
 10
3.738200484799989
 20
-11.06139572789999
 10
3.798234363199981
 20
-11.06449295829999
 10
3.861888903999982
 20
-11.06724143189999
 10
3.929362489599981
 20
-11.06957560629999
 10
4.000844593599964
 20
-11.07142529589999
 10
4.07669246879999
 20
-11.07271999349999
 10
4.157335791999969
 20
-11.07338415989999
 10
4.243227335999989
 20
-11.07333798389999
 10
4.334851361599987
 20
-11.07250078069999
 10
4.43281539519998
 20
-11.07079491989999
 10
4.537520390399976
 20
-11.06816830549999
 10
4.649689558399984
 20
-11.06462001429999
 10
4.769158350399976
 20
-11.06024983669999
 10
5.017037169599973
 20
-11.05041588949999
  0
LWPOLYLINE
  5
90
330
2
100
AcDbEntity
  8
0
100
AcDbPolyline
 90
        4
 70
     0
 43
0.0
 10
3.402249115199964
 20
-11.03401280149999
 10
3.42721706719999
 20
-11.03670764469999
 10
3.458053302399974
 20
-11.03986931029999
 10
3.494117076799966
 20
-11.04334767989999
  0
LWPOLYLINE
  5
91
330
2
100
AcDbEntity
  8
0
100
AcDbPolyline
 90
        3
 70
     0
 43
0.0
 10
3.368438094399976
 20
-11.03013556309999
 10
3.372357228799984
 20
-11.03060348469999
 10
3.402249115199964
 20
-11.03401280149999
  0
LINE
  5
92
330
2
100
AcDbEntity
  8
0
100
AcDbLine
 10
2.294662959999993
 20
-10.80703797429999
 30
0.0
 11
2.303530510399991
 21
-10.8080982399
 31
0.0
  0
LINE
  5
93
330
2
100
AcDbEntity
  8
0
100
AcDbLine
 10
2.302602937599981
 20
-10.8080598527
 30
0.0
 11
2.353766724799992
 21
-10.81486834069999
 31
0.0
  0
LINE
  5
94
330
2
100
AcDbEntity
  8
0
100
AcDbLine
 10
2.283430727999995
 20
-10.80550101269999
 30
0.0
 11
2.295311854399994
 21
-10.80703909429999
 31
0.0
  0
LINE
  5
95
330
2
100
AcDbEntity
  8
0
100
AcDbLine
 10
2.302581006399986
 20
-10.8080570959
 30
0.0
 11
2.296205907199986
 21
-10.80715431189999
 31
0.0
  0
LINE
  5
96
330
2
100
AcDbEntity
  8
0
100
AcDbLine
 10
2.271730449599981
 20
-10.80376548309999
 30
0.0
 11
2.284050748799995
 21
-10.80549465589999
 31
0.0
  0
LINE
  5
97
330
2
100
AcDbEntity
  8
0
100
AcDbLine
 10
2.351785251199981
 20
-10.8146765007
 30
0.0
 11
2.403753195199993
 21
-10.82239932469999
 31
0.0
  0
LINE
  5
98
330
2
100
AcDbEntity
  8
0
100
AcDbLine
 10
2.400314847999975
 20
-10.82195980309999
 30
0.0
 11
2.450294019199997
 21
-10.8299774111
 31
0.0
  0
LINE
  5
99
330
2
100
AcDbEntity
  8
0
100
AcDbLine
 10
2.259031638399999
 20
-10.80170172149999
 30
0.0
 11
2.272319969599987
 21
-10.80375030549999
 31
0.0
  0
LWPOLYLINE
  5
9A
330
2
100
AcDbEntity
  8
0
100
AcDbPolyline
 90
        5
 70
     0
 43
0.0
 10
2.912702607999989
 20
-10.96275518229999
 10
3.010200727999972
 20
-10.97887873589999
 10
3.117699583999979
 20
-10.99562473109999
 10
3.236453406399988
 20
-11.01279813589999
 10
3.368261847999974
 20
-11.03006935349999
  0
LINE
  5
9B
330
2
100
AcDbEntity
  8
0
100
AcDbLine
 10
2.912598315199982
 20
-10.96269611829999
 30
0.0
 11
2.902905931199978
 21
-10.96099982709999
 31
0.0
  0
LINE
  5
9C
330
2
100
AcDbEntity
  8
0
100
AcDbLine
 10
2.445591500799974
 20
-10.82929106869999
 30
0.0
 11
2.488776332799982
 21
-10.83675954869999
 31
0.0
  0
LINE
  5
9D
330
2
100
AcDbEntity
  8
0
100
AcDbLine
 10
2.244902063999983
 20
-10.79915846069999
 30
0.0
 11
2.259588716799992
 21
-10.80167595349999
 31
0.0
  0
LINE
  5
9E
330
2
100
AcDbEntity
  8
0
100
AcDbLine
 10
1.684135771199986
 20
-9.868216155099997
 30
0.0
 11
1.684167655999981
 21
-9.868050383900001
 31
0.0
  0
LWPOLYLINE
  5
9F
330
2
100
AcDbEntity
  8
0
100
AcDbPolyline
 90
        3
 70
     0
 43
0.0
 10
20.08786397439996
 20
-9.520811606299993
 10
19.99043512479997
 20
-9.534799953499991
 10
19.87071915199996
 20
-9.550758203099995
  0
LINE
  5
A0
330
2
100
AcDbEntity
  8
0
100
AcDbLine
 10
19.76013905759999
 20
-10.58415560149999
 30
0.0
 11
19.79024708319998
 21
-10.57996979669999
 31
0.0
  0
LWPOLYLINE
  5
A1
330
2
100
AcDbEntity
  8
0
100
AcDbPolyline
 90
       31
 70
     0
 43
0.0
 10
20.06025957119996
 20
-9.538307724699997
 10
20.13003878559996
 20
-9.529243627099994
 10
20.20295023199997
 20
-9.519516921499992
 10
20.27639643519998
 20
-9.509257164699995
 10
20.34957688479997
 20
-9.498355660699992
 10
20.42114166559997
 20
-9.486856217499997
 10
20.49064005759999
 20
-9.474734332699995
 10
20.55784876319998
 20
-9.461984871899993
 10
20.62380647999998
 20
-9.448354105499994
 10
20.68944051679997
 20
-9.433530849499994
 10
20.75556177919998
 20
-9.417150521499998
 10
20.82301774559997
 20
-9.398746617499995
 10
20.89291981279998
 20
-9.377647119899997
 10
20.96631386399997
 20
-9.353007107099998
 10
21.04400753759998
 20
-9.323832871899995
 10
21.12638521279998
 20
-9.289044755099993
 10
21.21377196959997
 20
-9.247351454299995
 10
21.30593892959999
 20
-9.197466639899992
 10
21.40146176799999
 20
-9.138605033499992
 10
21.49954528959998
 20
-9.069552737499996
 10
21.59955817119998
 20
-8.988752577499994
 10
21.70028560319997
 20
-8.894741108699996
 10
21.79961775359998
 20
-8.786644830299991
 10
21.89438706879997
 20
-8.665083593499993
 10
21.98160275199998
 20
-8.531281409499996
 10
22.05867092319997
 20
-8.387104844699997
 10
22.12404648799997
 20
-8.233564878299993
 10
22.17626906719996
 20
-8.072210935899995
 10
22.21406168319998
 20
-7.905669107099996
 10
22.23684544159997
 20
-7.736088751899991
 10
22.24448144959998
 20
-7.577048161499995
  0
LWPOLYLINE
  5
A2
330
2
100
AcDbEntity
  8
0
100
AcDbPolyline
 90
        3
 70
     0
 43
0.0
 10
19.70651051999996
 20
-10.59611874709999
 10
19.76734879039997
 20
-10.58900305109999
 10
19.77740920799996
 20
-10.58748341109999
  0
LWPOLYLINE
  5
A3
330
2
100
AcDbEntity
  8
0
100
AcDbPolyline
 90
        7
 70
     0
 43
0.0
 10
19.79024708319997
 20
-10.57996979669999
 10
19.82302344799998
 20
-10.57635750869999
 10
19.86138258559998
 20
-10.57293477909999
 10
19.90609376479997
 20
-10.56965615189999
 10
19.95801954079996
 20
-10.56650631989999
 10
20.01851406399998
 20
-10.56345152149999
 10
20.05920283999998
 20
-10.56170889589999
  0
LWPOLYLINE
  5
A4
330
2
100
AcDbEntity
  8
0
100
AcDbPolyline
 90
        4
 70
     0
 43
0.0
 10
19.70651051999996
 20
-10.59611874709999
 10
19.71882579039998
 20
-10.59496410069999
 10
19.75153834879998
 20
-10.59119369429999
 10
19.77740920799996
 20
-10.58748341109999
  0
LINE
  5
A5
330
2
100
AcDbEntity
  8
0
100
AcDbLine
 10
19.68411787999998
 20
-10.5978486063
 30
0.0
 11
19.70651051999997
 21
-10.59611874709999
 31
0.0
  0
LWPOLYLINE
  5
A6
330
2
100
AcDbEntity
  8
0
100
AcDbPolyline
 90
       62
 70
     0
 43
0.0
 10
20.36847455839998
 20
-10.55079586069999
 10
20.37263739519997
 20
-10.55058966389999
 10
20.37786896159997
 20
-10.55029545589999
 10
20.38434510239997
 20
-10.54987435349999
 10
20.39190884959998
 20
-10.54930053429999
 10
20.40036909599996
 20
-10.54855237589999
 10
20.40944334079998
 20
-10.54762397589999
 10
20.41906245919997
 20
-10.54649655829999
 10
20.42910813919996
 20
-10.54516081749999
 10
20.43952200479998
 20
-10.54360430869999
 10
20.45025232479997
 20
-10.54181626709999
 10
20.46122493599998
 20
-10.53979291989999
 10
20.47234368479996
 20
-10.53753968789999
 10
20.48353164799996
 20
-10.53506402709999
 10
20.49479660479997
 20
-10.53235755829999
 10
20.50613616639998
 20
-10.52941357589999
 10
20.51754732639997
 20
-10.52622521909999
 10
20.52902649919997
 20
-10.52278548949999
 10
20.54056930399997
 20
-10.51908732629999
 10
20.55217052639997
 20
-10.51512366709999
 10
20.56382414239996
 20
-10.51088748469999
 10
20.57552335039997
 20
-10.50637181109999
 10
20.58726075039996
 20
-10.50156975989999
 10
20.59902901919997
 20
-10.49647523989999
 10
20.61082040319996
 20
-10.49108319029999
 10
20.62263475039998
 20
-10.48538476789999
 10
20.63447832479997
 20
-10.47936688469999
 10
20.64635638239997
 20
-10.47301531189999
 10
20.65827301119998
 20
-10.46631470549999
 10
20.67023104159997
 20
-10.45924863349999
 10
20.68223192799996
 20
-10.45179957109999
 10
20.69427564319997
 20
-10.44394891669999
 10
20.70636055039997
 20
-10.43567700949999
 10
20.71848326719998
 20
-10.42696313589999
 10
20.73063861279996
 20
-10.41778547829999
 10
20.74282306079996
 20
-10.40811818069999
 10
20.75503525759998
 20
-10.39793000789999
 10
20.76727096639999
 20
-10.38718764629999
 10
20.77952244639996
 20
-10.37585597429999
 10
20.79177599679997
 20
-10.36390184469999
 10
20.80399370559996
 20
-10.35131690709999
 10
20.81612840639996
 20
-10.33810439029999
 10
20.82813312479999
 20
-10.32427021429999
 10
20.83996123199998
 20
-10.30982299989999
 10
20.85156659839998
 20
-10.29477406869999
 10
20.86290375519996
 20
-10.27913743829999
 10
20.87392805599998
 20
-10.26292977429999
 10
20.88459961439997
 20
-10.24616420149999
 10
20.89489239039997
 20
-10.22883243189999
 10
20.90478075679996
 20
-10.21092105909999
 10
20.91423566239999
 20
-10.19241693909999
 10
20.92322544799998
 20
-10.17330662709999
 10
20.93172005439999
 20
-10.15357790229999
 10
20.93968724639998
 20
-10.13322276789999
 10
20.94709131519997
 20
-10.11223479829999
 10
20.95389295199999
 20
-10.09060938389999
 10
20.96004937919997
 20
-10.06834309109999
 10
20.96551392159998
 20
-10.04543455349999
 10
20.97023553439999
 20
-10.02188637429999
 10
20.97415909119996
 20
-9.997704273499998
 10
20.97722526399997
 20
-9.972897510299993
 10
20.98771448639996
 20
-9.868216596699994
  0
LINE
  5
A7
330
2
100
AcDbEntity
  8
0
100
AcDbLine
 10
20.36214897599999
 20
-10.55106688469999
 30
0.0
 11
20.36847455839999
 21
-10.55079586069999
 31
0.0
  0
LWPOLYLINE
  5
A8
330
2
100
AcDbEntity
  8
0
100
AcDbPolyline
 90
       11
 70
     0
 43
0.0
 10
5.017037169599973
 20
-11.05041588949999
 10
5.140262358399979
 20
-11.04573987829999
 10
5.262174207999976
 20
-11.04162172629999
 10
5.383096371199968
 20
-11.03828597109999
 10
5.504384985599983
 20
-11.03575077909999
 10
5.626184319999964
 20
-11.03394472309999
 10
5.747937575999969
 20
-11.03276887669999
 10
5.869035129599978
 20
-11.03214282229999
 10
5.988855121599982
 20
-11.03198104949999
 10
6.106755627199987
 20
-11.03220079989999
 10
6.222053579199979
 20
-11.03272232469999
  0
LWPOLYLINE
  5
A9
330
2
100
AcDbEntity
  8
0
100
AcDbPolyline
 90
        3
 70
     0
 43
0.0
 10
19.87071915199996
 20
-9.550758203099995
 10
19.97645985279999
 20
-9.546765452699993
 10
20.06025957119996
 20
-9.538307724699997
  0
LINE
  5
AA
330
2
100
AcDbEntity
  8
0
100
AcDbLine
 10
20.3545647856
 20
-10.55134103669999
 30
0.0
 11
20.36214897599999
 21
-10.55106688469999
 31
0.0
  0
LWPOLYLINE
  5
AB
330
2
100
AcDbEntity
  8
0
100
AcDbPolyline
 90
        5
 70
     0
 43
0.0
 10
11.33747608959998
 20
-11.00960048149999
 10
13.77440127679997
 20
-10.92788974389999
 10
15.97422755359997
 20
-10.82269478229999
 10
17.94252554399997
 20
-10.70924348629999
 10
19.68411938079998
 20
-10.59786544949999
  0
LINE
  5
AC
330
2
100
AcDbEntity
  8
0
100
AcDbLine
 10
20.18956721759998
 20
-10.5566336831
 30
0.0
 11
20.3545647856
 21
-10.55134103669999
 31
0.0
  0
LINE
  5
AD
330
2
100
AcDbEntity
  8
0
100
AcDbLine
 10
17.9296751936
 20
-11.06321458229999
 30
0.0
 11
8.960925193600001
 21
-11.29806956629999
 31
0.0
  0
LINE
  5
AE
330
2
100
AcDbEntity
  8
0
100
AcDbLine
 10
8.960925193600001
 20
-11.23556956629999
 30
0.0
 11
17.9296751936
 21
-11.00071458229999
 31
0.0
  0
LINE
  5
AF
330
2
100
AcDbEntity
  8
0
100
AcDbLine
 10
20.32710381599998
 20
-10.55214685589999
 30
0.0
 11
20.33158814079997
 21
-10.55203569909999
 31
0.0
  0
LWPOLYLINE
  5
B0
330
2
100
AcDbEntity
  8
0
100
AcDbPolyline
 90
        3
 70
     0
 43
0.0
 10
8.545854001599963
 20
-11.04707363829999
 10
9.995255939199978
 20
-11.03580259029999
 10
11.33747608959998
 20
-11.00960048149999
  0
LINE
  5
B1
330
2
100
AcDbEntity
  8
0
100
AcDbLine
 10
8.25458313439999
 20
-11.04711342389999
 30
0.0
 11
8.545854001599973
 21
-11.04707363829999
 31
0.0
  0
LINE
  5
B2
330
2
100
AcDbEntity
  8
0
100
AcDbLine
 10
7.916247020799982
 20
-11.0463838671
 30
0.0
 11
8.25458313439999
 21
-11.04711342389999
 31
0.0
  0
LINE
  5
B3
330
2
100
AcDbEntity
  8
0
100
AcDbLine
 10
7.738156417599991
 20
-11.04566063669999
 30
0.0
 11
7.916393588800001
 21
-11.04638431509999
 31
0.0
  0
LINE
  5
B4
330
2
100
AcDbEntity
  8
0
100
AcDbLine
 10
7.559559606399982
 20
-11.04468284789999
 30
0.0
 11
7.73797331359999
 21
-11.04565981749999
 31
0.0
  0
LINE
  5
B5
330
2
100
AcDbEntity
  8
0
100
AcDbLine
 10
6.22205357919999
 20
-11.03272232469999
 30
0.0
 11
6.442632787199993
 21
-11.0343703823
 31
0.0
  0
LWPOLYLINE
  5
B6
330
2
100
AcDbEntity
  8
0
100
AcDbPolyline
 90
        3
 70
     0
 43
0.0
 10
6.847652815999964
 20
-11.03849356949999
 10
6.877701692799973
 20
-11.03880418389999
 10
7.559559606399972
 20
-11.04468284789999
  0
LWPOLYLINE
  5
B7
330
2
100
AcDbEntity
  8
0
100
AcDbPolyline
 90
        3
 70
     0
 43
0.0
 10
6.442632787199983
 20
-11.03437038229999
 10
6.828660654399982
 20
-11.03828379669999
 10
6.845664163199984
 20
-11.03845973109999
  0
LWPOLYLINE
  5
B8
330
2
100
AcDbEntity
  8
0
100
AcDbPolyline
 90
        3
 70
     0
 43
0.0
 10
2.80113032959997
 20
-9.550757822299992
 10
2.695389969599972
 20
-9.546772467099991
 10
2.611588324799981
 20
-9.538327487899991
  0
LWPOLYLINE
  5
B9
330
2
100
AcDbEntity
  8
0
100
AcDbPolyline
 90
        3
 70
     0
 43
0.0
 10
2.584356201599973
 20
-9.520867747099991
 10
2.681616691199963
 20
-9.534827655899995
 10
2.801131212799987
 20
-9.550758203099995
  0
LINE
  5
BA
330
2
100
AcDbEntity
  8
0
100
AcDbLine
 10
9.403070780799975
 20
-11.35186913589999
 30
0.0
 11
9.54810141759999
 21
-11.60306956629999
 31
0.0
  0
LINE
  5
BB
330
2
100
AcDbEntity
  8
CENTER
 62
     1
 48
4.0
100
AcDbLine
 10
5.335925193600001
 20
-13.28797187353005
 30
0.0
 11
5.335925193600001
 21
-9.793167259069937
 31
0.0
  0
LWPOLYLINE
  5
C0
330
2
100
AcDbEntity
  8
0
100
AcDbPolyline
 90
       24
 70
     0
 43
0.0
 10
9.251245331199982
 20
-9.110241598299992
 10
9.283032063999968
 20
-9.107593299099995
 10
9.314023475199974
 20
-9.104839123099992
 10
9.344727094399985
 20
-9.101692433499991
 10
9.375643175999982
 20
-9.097334750299992
 10
9.407333148799978
 20
-9.089878790299991
 10
9.440119523199967
 20
-9.076079379099994
 10
9.473060691199975
 20
-9.052455140699997
 10
9.503385635199975
 20
-9.019715043099992
 10
9.530594873599966
 20
-8.979663649499997
 10
9.555522300799964
 20
-8.932830681499993
 10
9.579036137599985
 20
-8.879004846299991
 10
9.601693063999988
 20
-8.817766409499995
 10
9.623911497599976
 20
-8.748424103899992
 10
9.645940129599978
 20
-8.670410961499996
 10
9.668040935999982
 20
-8.582877947099994
 10
9.690702068799964
 20
-8.483791183899995
 10
9.714269369599975
 20
-8.371417351899992
 10
9.738781375999963
 20
-8.245596609499997
 10
9.763943927999974
 20
-8.108221187099992
 10
9.789474134399966
 20
-7.961685207899996
 10
9.815562988799968
 20
-7.806130993499998
 10
9.842520452799988
 20
-7.641177601499997
 10
9.899219419199965
 20
-7.289091233499995
  0
LWPOLYLINE
  5
C1
330
2
100
AcDbEntity
  8
0
100
AcDbPolyline
 90
       32
 70
     0
 43
0.0
 10
3.039133447999972
 20
-9.255231646299996
 10
2.974074047999977
 20
-9.260032079899993
 10
2.911196998399987
 20
-9.264938923099997
 10
2.850341895999974
 20
-9.269974631899991
 10
2.791449078399978
 20
-9.275155577499994
 10
2.734594662399985
 20
-9.280487791899993
 10
2.679852814399964
 20
-9.285978806299993
 10
2.627187187199979
 20
-9.291650302299991
 10
2.576604044799978
 20
-9.297525372699993
 10
2.528161742399987
 20
-9.303627734299993
 10
2.482091206399985
 20
-9.309963895899997
 10
2.438868102399965
 20
-9.316503212699991
 10
2.398704862399966
 20
-9.323246348699996
 10
2.36141059679997
 20
-9.330270270299998
 10
2.326855908799984
 20
-9.337676379099995
 10
2.295491153599982
 20
-9.345467766299996
 10
2.267760295999977
 20
-9.353637579099995
 10
2.244095430399966
 20
-9.362174935899993
 10
2.224828951999967
 20
-9.371108113499992
 10
2.210276966399987
 20
-9.380529028699996
 10
2.201019964799968
 20
-9.390448420699996
 10
2.197623486399976
 20
-9.400846918299997
 10
2.200601615999971
 20
-9.411680729499991
 10
2.210511233599987
 20
-9.422915342299994
 10
2.227867567999965
 20
-9.434527079899993
 10
2.25306486079998
 20
-9.446445180699996
 10
2.286467563199977
 20
-9.458603081499994
 10
2.328318534399983
 20
-9.470931780699991
 10
2.378774646399989
 20
-9.483359235099996
 10
2.437901140799965
 20
-9.495814443099995
 10
2.50604660159999
 20
-9.508284771099994
 10
2.584356201599973
 20
-9.520867747099991
  0
LINE
  5
C2
330
2
100
AcDbEntity
  8
0
100
AcDbLine
 10
3.17128414879998
 20
-9.246214230300001
 30
0.0
 11
3.039133447999983
 21
-9.2552316463
 31
0.0
  0
LINE
  5
C3
330
2
100
AcDbEntity
  8
0
100
AcDbLine
 10
3.294431263999978
 20
-9.238540611099995
 30
0.0
 11
3.17128414879998
 21
-9.246214230300001
 31
0.0
  0
LINE
  5
C4
330
2
100
AcDbEntity
  8
0
100
AcDbLine
 10
3.465435651199992
 20
-9.228804755099996
 30
0.0
 11
3.294431263999978
 21
-9.238540611099995
 31
0.0
  0
LINE
  5
C5
330
2
100
AcDbEntity
  8
0
100
AcDbLine
 10
3.676263038399991
 20
-9.2179449759
 30
0.0
 11
3.465435651199992
 21
-9.228804755099996
 31
0.0
  0
LINE
  5
C6
330
2
100
AcDbEntity
  8
0
100
AcDbLine
 10
3.976217873599988
 20
-9.204023817499997
 30
0.0
 11
3.676263038399991
 21
-9.2179449759
 31
0.0
  0
LINE
  5
C7
330
2
100
AcDbEntity
  8
0
100
AcDbLine
 10
4.39899562399999
 20
-9.186206326299998
 30
0.0
 11
3.976217873599988
 21
-9.204023817499997
 31
0.0
  0
LINE
  5
C8
330
2
100
AcDbEntity
  8
0
100
AcDbLine
 10
4.770991412799997
 20
-9.171796683099994
 30
0.0
 11
4.39899562399999
 21
-9.186206326299998
 31
0.0
  0
LINE
  5
C9
330
2
100
AcDbEntity
  8
0
100
AcDbLine
 10
4.988940548799984
 20
-9.163999547100001
 30
0.0
 11
4.770991412799997
 21
-9.171796683099994
 31
0.0
  0
LINE
  5
CA
330
2
100
AcDbEntity
  8
0
100
AcDbLine
 10
5.184652521599996
 20
-9.1575377823
 30
0.0
 11
4.988940548799984
 21
-9.163999547100001
 31
0.0
  0
LINE
  5
CB
330
2
100
AcDbEntity
  8
0
100
AcDbLine
 10
5.415115383999999
 20
-9.150766439899999
 30
0.0
 11
5.184652521599996
 21
-9.1575377823
 31
0.0
  0
LWPOLYLINE
  5
CC
330
2
100
AcDbEntity
  8
0
100
AcDbPolyline
 90
       10
 70
     0
 43
0.0
 10
5.415115383999989
 20
-9.150766439899996
 10
5.656658371199966
 20
-9.144663742299997
 10
5.832271383999966
 20
-9.140807363099995
 10
6.016721628799984
 20
-9.137216812699996
 10
6.215172494399979
 20
-9.133810972699997
 10
6.427743167999977
 20
-9.130606862299991
 10
6.648871550399974
 20
-9.127683265499996
 10
6.872731150399971
 20
-9.125081428699992
 10
7.100196686399982
 20
-9.122748011099993
 10
7.335078492799965
 20
-9.120618431899991
  0
LINE
  5
CD
330
2
100
AcDbEntity
  8
0
100
AcDbLine
 10
7.335078492799976
 20
-9.120618431899995
 30
0.0
 11
7.834984614399996
 21
-9.116860990300001
 31
0.0
  0
LINE
  5
CE
330
2
100
AcDbEntity
  8
0
100
AcDbLine
 10
7.834984614399996
 20
-9.116860990300001
 30
0.0
 11
8.371061110399988
 21
-9.113762471899999
 31
0.0
  0
LINE
  5
CF
330
2
100
AcDbEntity
  8
0
100
AcDbLine
 10
8.371061110399988
 20
-9.113762471899999
 30
0.0
 11
8.943613412799987
 21
-9.111281801499995
 31
0.0
  0
LINE
  5
D0
330
2
100
AcDbEntity
  8
0
100
AcDbLine
 10
8.943613412799987
 20
-9.111281801499995
 30
0.0
 11
9.488508721599981
 21
-9.1095624495
 31
0.0
  0
LINE
  5
D1
330
2
100
AcDbEntity
  8
0
100
AcDbLine
 10
9.488508721599981
 20
-9.1095624495
 30
0.0
 11
9.939847048
 21
-9.108540879900001
 31
0.0
  0
LINE
  5
D2
330
2
100
AcDbEntity
  8
0
100
AcDbLine
 10
9.939847048
 20
-9.108540879900001
 30
0.0
 11
10.60745419519998
 21
-9.107605900699997
 31
0.0
  0
LINE
  5
D3
330
2
100
AcDbEntity
  8
0
100
AcDbLine
 10
2.80113135039998
 20
-9.550758206299999
 30
0.0
 11
5.65697832479999
 21
-9.548817372699996
 31
0.0
  0
LINE
  5
D4
330
2
100
AcDbEntity
  8
0
100
AcDbLine
 10
5.65697832479999
 20
-9.548817372699996
 30
0.0
 11
7.832756940799992
 21
-9.547784953499995
 31
0.0
  0
LINE
  5
D5
330
2
100
AcDbEntity
  8
0
100
AcDbLine
 10
7.832756940799992
 20
-9.547784953499995
 30
0.0
 11
10.15396514719999
 21
-9.547175599899997
 31
0.0
  0
LINE
  5
D6
330
2
100
AcDbEntity
  8
0
100
AcDbLine
 10
10.60745419519998
 20
-9.107605900699997
 30
0.0
 11
11.33592512159999
 21
-9.1072749631
 31
0.0
  0
LINE
  5
D7
330
2
100
AcDbEntity
  8
0
100
AcDbLine
 10
10.15396514719999
 20
-9.547175599899997
 30
0.0
 11
12.51788465599998
 21
-9.547175599899997
 31
0.0
  0
LINE
  5
D8
330
2
100
AcDbEntity
  8
0
100
AcDbLine
 10
12.51788465599998
 20
-9.547175599899997
 30
0.0
 11
14.83909322239999
 21
-9.547784953499995
 31
0.0
  0
LINE
  5
D9
330
2
100
AcDbEntity
  8
0
100
AcDbLine
 10
14.83909322239999
 20
-9.547784953499995
 30
0.0
 11
17.01487055999997
 21
-9.548817371099996
 31
0.0
  0
LINE
  5
DA
330
2
100
AcDbEntity
  8
0
100
AcDbLine
 10
17.01487055999997
 20
-9.548817371099996
 30
0.0
 11
19.87071901439999
 21
-9.550758206299999
 31
0.0
  0
LINE
  5
DB
330
2
100
AcDbEntity
  8
0
100
AcDbLine
 10
12.28784981439998
 20
-9.107848950299999
 30
0.0
 11
11.33592526399997
 21
-9.1072749631
 31
0.0
  0
LINE
  5
DC
330
2
100
AcDbEntity
  8
0
100
AcDbLine
 10
12.95532435999997
 20
-9.109003094299996
 30
0.0
 11
12.28784981439998
 21
-9.107848950299999
 31
0.0
  0
LINE
  5
DD
330
2
100
AcDbEntity
  8
0
100
AcDbLine
 10
13.42060505439998
 20
-9.110241598299996
 30
0.0
 11
12.95532435999997
 21
-9.109003094299996
 31
0.0
  0
LINE
  5
DE
330
2
100
AcDbEntity
  8
0
100
AcDbLine
 10
14.02031846399999
 20
-9.112451790299996
 30
0.0
 11
13.42058834879999
 21
-9.1102413887
 31
0.0
  0
LINE
  5
DF
330
2
100
AcDbEntity
  8
0
100
AcDbLine
 10
14.57272862239999
 20
-9.115228766299996
 30
0.0
 11
14.02031846399999
 21
-9.112451790299996
 31
0.0
  0
LWPOLYLINE
  5
E0
330
2
100
AcDbEntity
  8
0
100
AcDbPolyline
 90
       11
 70
     0
 43
0.0
 10
17.01518212639996
 20
-9.144663503899991
 10
16.83958223359996
 20
-9.140807444699994
 10
16.65512872799996
 20
-9.137216814299996
 10
16.45667787199997
 20
-9.133810972699997
 10
16.24410721439997
 20
-9.130606862299991
 10
16.02297885119997
 20
-9.127683265499996
 10
15.79911926719998
 20
-9.125081428699992
 10
15.57165374239997
 20
-9.122748011099993
 10
15.33677193599999
 20
-9.120618431899991
 10
15.09205644639996
 20
-9.118659486299996
 10
14.57272862239998
 20
-9.115228766299992
  0
LINE
  5
E1
330
2
100
AcDbEntity
  8
0
100
AcDbLine
 10
17.01518212639997
 20
-9.144663503899995
 30
0.0
 11
17.25676137119999
 21
-9.150767631899999
 31
0.0
  0
LINE
  5
E2
330
2
100
AcDbEntity
  8
0
100
AcDbLine
 10
17.25676137119999
 20
-9.150767631899999
 30
0.0
 11
17.40640188159998
 21
-9.1550551919
 31
0.0
  0
LINE
  5
E3
330
2
100
AcDbEntity
  8
0
100
AcDbLine
 10
17.40640188159998
 20
-9.1550551919
 30
0.0
 11
17.57846687359998
 21
-9.160478878300001
 31
0.0
  0
LINE
  5
E4
330
2
100
AcDbEntity
  8
0
100
AcDbLine
 10
17.57846687359998
 20
-9.160478878300001
 30
0.0
 11
17.79630408159998
 21
-9.167987651099995
 31
0.0
  0
LINE
  5
E5
330
2
100
AcDbEntity
  8
0
100
AcDbLine
 10
17.79630408159998
 20
-9.167987651099995
 30
0.0
 11
18.06908639999998
 21
-9.178160131099996
 31
0.0
  0
LINE
  5
E6
330
2
100
AcDbEntity
  8
0
100
AcDbLine
 10
18.06908639999998
 20
-9.178160131099996
 30
0.0
 11
18.33292325279999
 21
-9.1886456639
 31
0.0
  0
LINE
  5
E7
330
2
100
AcDbEntity
  8
0
100
AcDbLine
 10
18.33292325279999
 20
-9.1886456639
 30
0.0
 11
18.59710083359997
 21
-9.199726067099998
 31
0.0
  0
LINE
  5
E8
330
2
100
AcDbEntity
  8
0
100
AcDbLine
 10
18.59710083359997
 20
-9.199726067099998
 30
0.0
 11
18.79435462559997
 21
-9.208451076699997
 31
0.0
  0
LINE
  5
E9
330
2
100
AcDbEntity
  8
0
100
AcDbLine
 10
18.79435462559997
 20
-9.208451076699997
 30
0.0
 11
18.94458135679998
 21
-9.215470259099998
 31
0.0
  0
LINE
  5
EA
330
2
100
AcDbEntity
  8
0
100
AcDbLine
 10
18.94458135679998
 20
-9.215470259099998
 30
0.0
 11
19.0988852832
 21
-9.2231298431
 31
0.0
  0
LINE
  5
EB
330
2
100
AcDbEntity
  8
0
100
AcDbLine
 10
19.0988852832
 20
-9.2231298431
 30
0.0
 11
19.20624809919997
 21
-9.228796438299998
 31
0.0
  0
LINE
  5
EC
330
2
100
AcDbEntity
  8
0
100
AcDbLine
 10
19.20624809919997
 20
-9.228796438299998
 30
0.0
 11
19.31867466879999
 21
-9.235087439899995
 31
0.0
  0
LINE
  5
ED
330
2
100
AcDbEntity
  8
0
100
AcDbLine
 10
19.31867466879999
 20
-9.235087439899995
 30
0.0
 11
19.43768135519998
 21
-9.242218337499995
 31
0.0
  0
LWPOLYLINE
  5
EE
330
2
100
AcDbEntity
  8
0
100
AcDbPolyline
 90
       34
 70
     0
 43
0.0
 10
19.43768135519997
 20
-9.242218337499991
 10
19.56576943519996
 20
-9.250551035099995
 10
19.63249233599998
 20
-9.255216273499996
 10
19.69755436799997
 20
-9.260016025499993
 10
19.76043461759997
 20
-9.264922169499996
 10
19.82129250719998
 20
-9.269957071899995
 10
19.88018818719999
 20
-9.275137131099995
 10
19.93704637759998
 20
-9.280468451099991
 10
19.99179250239999
 20
-9.285958513499991
 10
20.04446294559997
 20
-9.291628996699998
 10
20.09505130559998
 20
-9.297502951899993
 10
20.14349791999998
 20
-9.303603900699997
 10
20.18957347359997
 20
-9.309938492699991
 10
20.23280615839996
 20
-9.316476651099996
 10
20.27297932959999
 20
-9.323218443099996
 10
20.31028560959998
 20
-9.330241103899993
 10
20.34485099199997
 20
-9.337645276699994
 10
20.37622716159998
 20
-9.345434310299992
 10
20.40397505919997
 20
-9.353602734299997
 10
20.42765737119998
 20
-9.362138262299993
 10
20.44694333919997
 20
-9.371069591899995
 10
20.46151607839996
 20
-9.380487769499993
 10
20.47079686879996
 20
-9.390403991899994
 10
20.47422065759997
 20
-9.400799996699994
 10
20.47127279999997
 20
-9.411631345499998
 10
20.46139726719997
 20
-9.422863033499993
 10
20.44407795039998
 20
-9.434472343899997
 10
20.41892100799998
 20
-9.446388145499994
 10
20.38556364159998
 20
-9.458543332699996
 10
20.34375798399997
 20
-9.470870495899994
 10
20.29335099199997
 20
-9.483296300699997
 10
20.23428491359996
 20
-9.495748367899992
 10
20.16618059199998
 20
-9.508220116699995
 10
20.08786397439996
 20
-9.520811606299993
  0
LWPOLYLINE
  5
EF
330
2
100
AcDbEntity
  8
0
100
AcDbPolyline
 90
       23
 70
     0
 43
0.0
 10
13.42060505439997
 20
-9.110241598299992
 10
13.38881832319998
 20
-9.107593299099995
 10
13.35782691199997
 20
-9.104839123099992
 10
13.32712329279996
 20
-9.101692433499991
 10
13.29620721119997
 20
-9.097334750299992
 10
13.26451723839997
 20
-9.089878790299991
 10
13.23173086399998
 20
-9.076079379099994
 10
13.19878969599997
 20
-9.052455140699997
 10
13.16846475199997
 20
-9.019715043099992
 10
13.14125551359998
 20
-8.979663649499997
 10
13.11632808639998
 20
-8.932830681499993
 10
13.09281425119996
 20
-8.879004846299991
 10
13.07015732479996
 20
-8.817766409499995
 10
13.04793889119997
 20
-8.748424103899992
 10
13.02591025919997
 20
-8.670410961499996
 10
13.00380945439997
 20
-8.582877947099994
 10
12.98114831999998
 20
-8.483791183899995
 10
12.95758101919997
 20
-8.371417351899992
 10
12.93306901279999
 20
-8.245596609499997
 10
12.90790646079997
 20
-8.108221187099992
 10
12.88237625439998
 20
-7.961685207899996
 10
12.85628739999998
 20
-7.806130993499998
 10
12.82932993759996
 20
-7.641177601499997
  0
LINE
  5
F1
330
2
100
AcDbEntity
  8
0
100
AcDbLine
 10
-0.5027042640000055
 20
-0.4282571182999991
 30
0.0
 11
0.0040154496000007
 21
-0.7626469598999992
 31
0.0
  0
LINE
  5
F2
330
2
100
AcDbEntity
  8
0
100
AcDbLine
 10
0.0040154496000007
 20
-0.7626469598999992
 30
0.0
 11
0.1062787199999882
 21
-0.830587974299998
 31
0.0
  0
LINE
  5
F3
330
2
100
AcDbEntity
  8
0
100
AcDbLine
 10
-0.6026886560000158
 20
-0.3612014446999967
 30
0.0
 11
-0.5027042640000055
 21
-0.4282571182999991
 31
0.0
  0
LINE
  5
F4
330
2
100
AcDbEntity
  8
0
100
AcDbLine
 10
0.1062787199999882
 20
-0.830587974299998
 30
0.0
 11
0.2084313871999761
 21
-0.8991731710999989
 31
0.0
  0
LWPOLYLINE
  5
F5
330
2
100
AcDbEntity
  8
0
100
AcDbPolyline
 90
       28
 70
     0
 43
0.0
 10
0.2084313871999655
 20
-0.8991731710999957
 10
0.3093784559999904
 20
-0.9679296030999964
 10
0.3590384015999746
 20
-1.002202633499997
 10
0.4079838495999866
 20
-1.036323409499992
 10
0.4560733487999756
 20
-1.070217468699993
 10
0.5031382239999687
 20
-1.103785844699991
 10
0.5489435551999691
 20
-1.136874230299994
 10
0.5932532559999686
 20
-1.169316507099992
 10
0.6358616015999701
 20
-1.200956204699991
 10
0.6768015759999742
 20
-1.231805323099997
 10
0.7162643519999677
 20
-1.261997364699993
 10
0.7544223663999788
 20
-1.291659811099997
 10
0.7913884975999679
 20
-1.320879743899993
 10
0.8269615935999752
 20
-1.349495390299992
 10
0.8609331391999717
 20
-1.377326255899994
 10
0.8931327967999891
 20
-1.404209508699992
 10
0.9232602399999905
 20
-1.429857428699996
 10
0.9507430751999663
 20
-1.453720231899993
 10
0.9751246367999897
 20
-1.475308350299997
 10
0.9964300895999826
 20
-1.494536172699994
 10
1.014999401599965
 20
-1.511609140699995
 10
1.031165590399979
 20
-1.526746879899995
 10
1.044990355199985
 20
-1.539928777499994
 10
1.05645441919998
 20
-1.551057931099997
 10
1.065507228799987
 20
-1.560003985499996
 10
1.072088019199981
 20
-1.566621806299991
 10
1.076252745599987
 20
-1.570881196699993
 10
1.077502382399984
 20
-1.572175937499991
  0
LINE
  5
F6
330
2
100
AcDbEntity
  8
0
100
AcDbLine
 10
-6.303833572800005
 20
9.271982668900005
 30
0.0
 11
-6.303794761600006
 21
9.271945784100001
 31
0.0
  0
LINE
  5
F7
330
2
100
AcDbEntity
  8
0
100
AcDbLine
 10
8.960925193600001
 20
-11.29806956629999
 30
0.0
 11
8.960925193600001
 21
-11.23556956629999
 31
0.0
  0
LINE
  5
F8
330
2
100
AcDbEntity
  8
0
100
AcDbLine
 10
11.3359251936
 20
9.276187473700002
 30
0.0
 11
11.3359251936
 21
9.272556484900004
 31
0.0
  0
LINE
  5
F9
330
2
100
AcDbEntity
  8
0
100
AcDbLine
 10
11.3359251936
 20
7.766483200100001
 30
0.0
 11
11.3359251936
 21
6.246094960099998
 31
0.0
  0
LINE
  5
FB
330
2
100
AcDbEntity
  8
0
100
AcDbLine
 10
11.33591010719997
 20
9.276187476900002
 30
0.0
 11
11.33591699519997
 21
9.277713515300003
 31
0.0
  0
LWPOLYLINE
  5
FC
330
2
100
AcDbEntity
  8
0
100
AcDbPolyline
 90
       32
 70
     0
 43
0.0
 10
10.86091238719998
 20
1.312682328100002
 10
10.87701726719998
 20
1.558226486500004
 10
10.89218165599999
 20
1.779547516900002
 10
10.90678318879997
 20
1.980330734500007
 10
10.92103943359998
 20
2.162754460900004
 10
10.93505712159998
 20
2.327944019300005
 10
10.94886803199997
 20
2.476986412900004
 10
10.96249406079996
 20
2.611108019300004
 10
10.97598872319997
 20
2.731681368100005
 10
10.98941934719997
 20
2.840227179300008
 10
11.00282276479998
 20
2.938211916900002
 10
11.01626384639996
 20
3.026990385700003
 10
11.02981508159996
 20
3.107700752100008
 10
11.04354068639997
 20
3.181246763300002
 10
11.05749905919998
 20
3.248355947300005
 10
11.07174954399997
 20
3.309673747300003
 10
11.08635131039997
 20
3.365720260900005
 10
11.10134958559999
 20
3.416874172900001
 10
11.11678835999998
 20
3.463455513700004
 10
11.13267110239996
 20
3.505598828900005
 10
11.14900454239997
 20
3.543450720100004
 10
11.16576608159997
 20
3.577127233700004
 10
11.18291409279999
 20
3.606695248100002
 10
11.20038647679996
 20
3.632210113700004
 10
11.21806041279998
 20
3.653732848100005
 10
11.23572316159996
 20
3.671358523300007
 10
11.25306953599997
 20
3.685251513700002
 10
11.26986802719997
 20
3.695755872100008
 10
11.28624337439998
 20
3.703401606500001
 10
11.30258204159997
 20
3.708647152100006
 10
11.31916978239996
 20
3.711732398500004
 10
11.33593036959996
 20
3.712739304100004
  0
LWPOLYLINE
  5
FD
330
2
100
AcDbEntity
  8
0
100
AcDbPolyline
 90
       37
 70
     0
 43
0.0
 10
10.11250163999997
 20
2.910093251300004
 10
10.09980848159997
 20
2.737622008100004
 10
10.08498764959998
 20
2.549679526500007
 10
10.06719045439996
 20
2.344458985700008
 10
10.04556141439997
 20
2.119862950500007
 10
10.01910541919997
 20
1.872841979300005
 10
9.986757948799976
 20
1.599474043300006
 10
9.947275081599968
 20
1.295406892900004
 10
9.899197193599974
 20
0.9572344497000031
 10
9.841141854399978
 20
0.5833981697000042
 10
9.776907934399986
 20
0.2026481057000069
 10
9.710303017599983
 20
-0.164532142299997
 10
9.642928129599965
 20
-0.5130761998999916
 10
9.57513855519997
 20
-0.8447264558999947
 10
9.506558812799966
 20
-1.163825031899996
 10
9.436682495999974
 20
-1.474169379099997
 10
9.36549717119999
 20
-1.777206225499995
 10
9.294222654399987
 20
-2.068744369499995
 10
9.225507259199986
 20
-2.339637966299996
 10
9.161195054399968
 20
-2.585011076699991
 10
9.101146591999963
 20
-2.807429947099997
 10
9.043649830399971
 20
-3.014719172699997
 10
8.986744897599976
 20
-3.214652708699993
 10
8.928466871999972
 20
-3.414317287899997
 10
8.868488324799983
 20
-3.614720235099994
 10
8.806961027199974
 20
-3.815264238299995
 10
8.74432356959997
 20
-4.014508262299997
 10
8.680730838399966
 20
-4.211985478299993
 10
8.615303292799978
 20
-4.410386118299996
 10
8.54563046559997
 20
-4.616863591899992
 10
8.468956059199967
 20
-4.839047124699995
 10
8.382696950399974
 20
-5.083348278299993
 10
8.28639706399997
 20
-5.350003956699993
 10
8.17994734719997
 20
-5.638589838299992
 10
8.061949307199967
 20
-6.201577179099992
 10
7.928177231999967
 20
-6.544141043099998
 10
7.771314190399976
 20
-6.920177351899994
  0
LWPOLYLINE
  5
FE
330
2
100
AcDbEntity
  8
0
100
AcDbPolyline
 90
        3
 70
     0
 43
0.0
 10
9.899219419199965
 20
-7.289091233499995
 10
9.92864673599999
 20
-7.107452444699994
 10
9.958737492799969
 20
-6.925029057499997
  0
LWPOLYLINE
  5
FF
330
2
100
AcDbEntity
  8
0
100
AcDbPolyline
 90
       20
 70
     0
 43
0.0
 10
9.958737492799969
 20
-6.925029057499997
 10
9.992443764799986
 20
-6.726690575899993
 10
10.03136366559996
 20
-6.503161044699993
 10
10.07504817439996
 20
-6.254213387099994
 10
10.12305376959997
 20
-5.727948566299993
 10
10.17496663039997
 20
-5.419349393499992
 10
10.23031448639997
 20
-5.071528023899993
 10
10.28872677279997
 20
-4.680340284699994
 10
10.34980599519997
 20
-4.242405903899992
 10
10.41366904319997
 20
-3.750431145499995
 10
10.48055894079996
 20
-3.193696001499993
 10
10.54858839039997
 20
-2.576909612699992
 10
10.61176885919997
 20
-1.949269043099995
 10
10.66517202719998
 20
-1.369292675099991
 10
10.70875844799996
 20
-0.8553186542999924
 10
10.74520565439996
 20
-0.3920964478999949
 10
10.77567945599997
 20
0.0238828161000058
 10
10.80145611199998
 20
0.3975088177000074
 10
10.82371053599996
 20
0.7347616513000049
 10
10.86091238719998
 20
1.312682328100002
  0
LWPOLYLINE
  5
100
330
2
100
AcDbEntity
  8
0
100
AcDbPolyline
 90
       42
 70
     0
 43
0.0
 10
7.771314220799979
 20
-6.920177364699995
 10
7.706419395199986
 20
-7.069827804699997
 10
7.638994342399968
 20
-7.218279455899995
 10
7.569224425599969
 20
-7.364268827099998
 10
7.497273425599985
 20
-7.506602537499993
 10
7.422691940799978
 20
-7.645241396699994
 10
7.344489524799968
 20
-7.781117980699995
 10
7.262026166399977
 20
-7.914592057499994
 10
7.175730412799964
 20
-8.044245006299995
 10
7.085613582399986
 20
-8.169315479899992
 10
6.991807779199973
 20
-8.288795332699997
 10
6.893772745599989
 20
-8.402526361499994
 10
6.790605710399972
 20
-8.510786737499998
 10
6.681785140799973
 20
-8.613607683099992
 10
6.568167358399989
 20
-8.709679244699991
 10
6.458016975999981
 20
-8.792629014299997
 10
6.358901988799971
 20
-8.859242715099995
 10
6.270952313599963
 20
-8.912206561499992
 10
6.192639395199989
 20
-8.954674798299997
 10
6.122524513599984
 20
-8.989065449499996
 10
6.059604887999967
 20
-9.017063875099992
 10
6.002968142399964
 20
-9.039971540699994
 10
5.951847001599986
 20
-9.058797523099997
 10
5.905574695999973
 20
-9.074325451099994
 10
5.863557454399966
 20
-9.087174502299994
 10
5.825291335999963
 20
-9.097835766299994
 10
5.79035802079997
 20
-9.106701246299998
 10
5.758407518399963
 20
-9.114086324699997
 10
5.72913104799997
 20
-9.120248475099991
 10
5.702247550399988
 20
-9.125399180699993
 10
5.677494563199985
 20
-9.129708657499996
 10
5.654643019199966
 20
-9.133318438299994
 10
5.633496606399972
 20
-9.136344260699992
 10
5.613884625599979
 20
-9.138882207899996
 10
5.595619883199987
 20
-9.141011510299996
 10
5.578443593599985
 20
-9.142797489499997
 10
5.562163513599983
 20
-9.144294372699995
 10
5.546649385599977
 20
-9.145549289499996
 10
5.53176571039998
 20
-9.146602987099996
 10
5.517294756799969
 20
-9.147488150299992
 10
5.502742156799968
 20
-9.148225323099993
 10
5.487711545599978
 20
-9.148828878299994
  0
LWPOLYLINE
  5
101
330
2
100
AcDbEntity
  8
0
100
AcDbPolyline
 90
        4
 70
     0
 43
0.0
 10
23.98653425759996
 20
7.631432494500003
 10
24.04978728479997
 20
7.659392497700004
 10
24.10858006079996
 20
7.686315296100005
 10
24.16310825759998
 20
7.712129046500002
  0
LWPOLYLINE
  5
102
330
2
100
AcDbEntity
  8
0
100
AcDbPolyline
 90
       15
 70
     0
 43
0.0
 10
23.98653425759996
 20
7.631432494500003
 10
23.75064534239996
 20
7.533278790500006
 10
23.50017981759998
 20
7.438775955300002
 10
23.23991356799996
 20
7.349301864100006
 10
22.97255152319996
 20
7.265280244900004
 10
22.69955054079997
 20
7.186668025700008
 10
22.42191888319996
 20
7.113299465700002
 10
22.14013850719996
 20
7.044883388900004
 10
21.85121405919997
 20
6.980407670500007
 10
21.55132954079996
 20
6.918810652900006
 10
21.23986628319997
 20
6.859908224100003
 10
20.91744596159998
 20
6.803814947300004
 10
20.58445832959998
 20
6.750600328100006
 10
20.24018300959997
 20
6.700181619300003
 10
19.88325481439997
 20
6.652395440100008
  0
LINE
  5
103
330
2
100
AcDbEntity
  8
0
100
AcDbLine
 10
-6.303775400000024
 20
9.271946748900003
 30
0.0
 11
-6.30384990240002
 21
9.271994256100004
 31
0.0
  0
LWPOLYLINE
  5
104
330
2
100
AcDbEntity
  8
0
100
AcDbPolyline
 90
       38
 70
     0
 43
0.0
 10
12.53733615359996
 20
3.214793508900008
 10
12.55934905759997
 20
2.910092355300008
 10
12.57204225279997
 20
2.737621480100003
 10
12.58686311039997
 20
2.549678849700008
 10
12.60466031839996
 20
2.344457979300003
 10
12.62628937439998
 20
2.119862022500008
 10
12.65274537759998
 20
1.872841422500002
 10
12.68509284959998
 20
1.599472988900004
 10
12.72457570879999
 20
1.295406152100007
 10
12.77265358719998
 20
0.9572335249000047
 10
12.83070889279997
 20
0.5833975745000047
 10
12.89494276319996
 20
0.2026474033000056
 10
12.96154762239999
 20
-0.1645325918999916
 10
13.02892245279997
 20
-0.513076732699993
 10
13.09671199039996
 20
-0.8447272062999928
 10
13.16529167359996
 20
-1.163822811099997
 10
13.23516789439997
 20
-1.474172847899993
 10
13.30635315839998
 20
-1.777205835099991
 10
13.37762775359996
 20
-2.068746959899996
 10
13.44634314079996
 20
-2.339642353499996
 10
13.51065539839999
 20
-2.585016619099995
 10
13.57070366559997
 20
-2.807425710299995
 10
13.62820071519996
 20
-3.014727575899996
 10
13.68510530079999
 20
-3.214649116699995
 10
13.74338351839998
 20
-3.414317911899992
 10
13.80336216959997
 20
-3.614720779099997
 10
13.86488936959997
 20
-3.815264183899998
 10
13.92752689439999
 20
-4.014508548699993
 10
13.99111967679997
 20
-4.211985420699996
 10
14.05654726879999
 20
-4.410386070299992
 10
14.12622003359996
 20
-4.616863863899993
 10
14.20289460799998
 20
-4.839047196699993
 10
14.28915379519998
 20
-5.083348563099995
 10
14.38545351359997
 20
-5.350003998299996
 10
14.49190317119996
 20
-5.638589897499997
 10
14.60990130079997
 20
-6.201577332699997
 10
14.74367305759997
 20
-6.544140601499996
 10
14.90053619839997
 20
-6.920177351899994
  0
LWPOLYLINE
  5
105
330
2
100
AcDbEntity
  8
0
100
AcDbPolyline
 90
       33
 70
     0
 43
0.0
 10
11.84813985279998
 20
0.7347616513000049
 10
11.81093800159996
 20
1.312682328100002
 10
11.79483312319996
 20
1.558226488100004
 10
11.77966873279999
 20
1.779547518500002
 10
11.76506719999997
 20
1.980330736100007
 10
11.75081095679996
 20
2.162754464100004
 10
11.73679326719997
 20
2.327944020900005
 10
11.72298235679997
 20
2.476986414500004
 10
11.70935632959998
 20
2.611108020900005
 10
11.69586166719997
 20
2.731681369700005
 10
11.68243104319998
 20
2.840227180900008
 10
11.66902762399996
 20
2.938211918500002
 10
11.65558654239998
 20
3.026990387300003
 10
11.64203530719998
 20
3.107700753700008
 10
11.62830970239997
 20
3.181246763300002
 10
11.61435132959997
 20
3.248355947300005
 10
11.60010084319998
 20
3.309673747300003
 10
11.58549907839997
 20
3.365720259300005
 10
11.57050080319999
 20
3.416874171300001
 10
11.55506202719996
 20
3.463455512100004
 10
11.53917928479998
 20
3.505598827300005
 10
11.52284584479997
 20
3.543450716900004
 10
11.50608430399998
 20
3.577127230500003
 10
11.48893629279999
 20
3.606695243300002
 10
11.47146390879999
 20
3.632210108900004
 10
11.45378997119996
 20
3.653732843300005
 10
11.43612722239998
 20
3.671358516900006
 10
11.41878084799998
 20
3.685251505700001
 10
11.40198235679997
 20
3.695755862500007
 10
11.38560700959996
 20
3.703401595300007
 10
11.36926820159996
 20
3.708647139300005
 10
11.35268101119999
 20
3.711732369700001
 10
11.33593037439996
 20
3.712738576100008
  0
LINE
  5
106
330
2
100
AcDbEntity
  8
0
100
AcDbLine
 10
24.26876793439999
 20
7.766483200100001
 30
0.0
 11
24.1631082576
 21
7.712129046499999
 31
0.0
  0
LWPOLYLINE
  5
107
330
2
100
AcDbEntity
  8
0
100
AcDbPolyline
 90
       42
 70
     0
 43
0.0
 10
14.90053616799997
 20
-6.920177364699995
 10
14.96543168639996
 20
-7.069829518299997
 10
15.03285935519997
 20
-7.218286873499991
 10
15.10263206559997
 20
-7.364281587099995
 10
15.17458604639998
 20
-7.506620238299994
 10
15.24917088319998
 20
-7.645263847899997
 10
15.32737719679997
 20
-7.781145323099991
 10
15.40984486719997
 20
-7.914624231899992
 10
15.49614502719998
 20
-8.044281257499996
 10
15.58626664799996
 20
-8.169354883099991
 10
15.68007788319997
 20
-8.288837212699995
 10
15.77811860479997
 20
-8.402570295899991
 10
15.88129136479997
 20
-8.510832572699996
 10
15.99011775039997
 20
-8.613654870299995
 10
16.10374064959998
 20
-8.709725265499997
 10
16.21389112159997
 20
-8.792670185499993
 10
16.31300368639998
 20
-8.859277974299992
 10
16.40095143519997
 20
-8.912236518299991
 10
16.47926254719996
 20
-8.954700417499992
 10
16.54937451519998
 20
-8.989087492699994
 10
16.61229054239998
 20
-9.017082859099993
 10
16.66892442399998
 20
-9.039987862299994
 10
16.72004374559998
 20
-9.058811572699994
 10
16.76631427839998
 20
-9.074337580699996
 10
16.80832962559998
 20
-9.087185003099996
 10
16.84659379679996
 20
-9.097844876699994
 10
16.88152525439997
 20
-9.106709163099992
 10
16.91347410399998
 20
-9.114093199899997
 10
16.94274908479997
 20
-9.120254430299993
 10
16.96963119999998
 20
-9.125404331099993
 10
16.99438291999996
 20
-9.129713115099995
 10
17.01723329599997
 20
-9.133322297499994
 10
17.03837861759998
 20
-9.136347606299992
 10
17.05798958399998
 20
-9.138885107099994
 10
17.07625347199999
 20
-9.141014020699998
 10
17.09342914559996
 20
-9.142799660699992
 10
17.10970871999998
 20
-9.144296247899994
 10
17.12522245759998
 20
-9.145550905499995
 10
17.14010587519996
 20
-9.146604387099998
 10
17.15457723999998
 20
-9.147489361499992
 10
17.16913024959998
 20
-9.148226318299997
 10
17.18413884319997
 20
-9.148828878299994
  0
LWPOLYLINE
  5
108
330
2
100
AcDbEntity
  8
0
100
AcDbPolyline
 90
       19
 70
     0
 43
0.0
 10
12.71311289599998
 20
-6.925029057499997
 10
12.67940662399996
 20
-6.726690575899993
 10
12.64048671679998
 20
-6.503161065499995
 10
12.59680221119998
 20
-6.254213398299995
 10
12.54879661599997
 20
-5.727948575899993
 10
12.49688375519997
 20
-5.419349403099992
 10
12.44153589919997
 20
-5.071528031899994
 10
12.38312361279997
 20
-4.680340292699995
 10
12.32204439039998
 20
-4.242405910299993
 10
12.25818134399998
 20
-3.750431151899995
 10
12.19129144639998
 20
-3.193696006299994
 10
12.12326199679998
 20
-2.576909615899992
 10
12.06008152799998
 20
-1.949269046299995
 10
12.00667835999996
 20
-1.369292678299991
 10
11.96309194079998
 20
-0.8553186558999925
 10
11.92664473279998
 20
-0.392096449499995
 10
11.89617093279997
 20
0.0238828161000058
 10
11.87039427519997
 20
0.3975088177000074
 10
11.84813985279998
 20
0.7347616513000049
  0
LINE
  5
109
330
2
100
AcDbEntity
  8
0
100
AcDbLine
 10
12.7432036528
 20
-7.107452444699998
 30
0.0
 11
12.71311289599999
 21
-6.925029057500001
 31
0.0
  0
LINE
  5
10A
330
2
100
AcDbEntity
  8
0
100
AcDbLine
 10
12.82932993759997
 20
-7.6411776015
 30
0.0
 11
12.7432036528
 21
-7.107452444699998
 31
0.0
  0
LINE
  5
10B
330
2
100
AcDbEntity
  8
0
100
AcDbLine
 10
28.9756257888
 20
9.271946748900003
 30
0.0
 11
28.97570029119999
 21
9.271994256100004
 31
0.0
  0
LINE
  5
10C
330
2
100
AcDbEntity
  8
0
100
AcDbLine
 10
-1.596917536000024
 20
7.766483200100001
 30
0.0
 11
-1.491257867200022
 21
7.712129046499999
 31
0.0
  0
LWPOLYLINE
  5
10D
330
2
100
AcDbEntity
  8
0
100
AcDbPolyline
 90
       15
 70
     0
 43
0.0
 10
-1.314683872000017
 20
7.631432492900003
 10
-1.07879495840001
 20
7.533278788900005
 10
-0.8283294336000324
 20
7.438775977700004
 10
-0.5680631728000094
 20
7.349301883300007
 10
-0.3007011520000162
 20
7.265280246500005
 10
-0.0277000016000102
 20
7.186668057700003
 10
0.2499311471999874
 20
7.113299392100003
 10
0.5317119199999639
 20
7.044883404900005
 10
0.8206363391999786
 20
6.980407676900007
 10
1.120520839999983
 20
6.918810635300005
 10
1.431984217599989
 20
6.859908142500003
 10
1.754403932799988
 20
6.803814905700008
 10
2.087393201599979
 20
6.750599939300002
 10
2.431671529599981
 20
6.700180708900006
 10
2.788597876799968
 20
6.652394104100004
  0
LWPOLYLINE
  5
10E
330
2
100
AcDbEntity
  8
0
100
AcDbPolyline
 90
        4
 70
     0
 43
0.0
 10
-1.314683872000017
 20
7.631432492900003
 10
-1.377936897600022
 20
7.659392496100004
 10
-1.436729672000012
 20
7.686315296100005
 10
-1.491257867200033
 20
7.712129046500002
  0
LINE
  5
10F
330
2
100
AcDbEntity
  8
0
100
AcDbLine
 10
17.41876775199999
 20
-11.07659316469999
 30
0.0
 11
17.41876775199999
 21
-11.01409316469999
 31
0.0
  0
LINE
  5
110
330
2
100
AcDbEntity
  8
0
100
AcDbLine
 10
7.180786950399987
 20
-11.09659615669999
 30
0.0
 11
6.828342673600001
 21
-11.44904043509999
 31
0.0
  0
LINE
  5
111
330
2
100
AcDbEntity
  8
0
100
AcDbLine
 10
28.97568397919998
 20
9.271982684899999
 30
0.0
 11
28.97564514879998
 21
9.271945784100001
 31
0.0
  0
LINE
  5
112
330
2
100
AcDbEntity
  8
0
100
AcDbLine
 10
17.9296751936
 20
-11.06321458229999
 30
0.0
 11
17.9296751936
 21
-11.00071458229999
 31
0.0
  0
LWPOLYLINE
  5
113
330
2
100
AcDbEntity
  8
0
100
AcDbPolyline
 90
       26
 70
     0
 43
0.0
 10
11.33592519359999
 20
4.747732816100004
 10
11.24830121279998
 20
4.744774617700002
 10
11.16324531519998
 20
4.736002707300002
 10
11.08165969919997
 20
4.721792984100005
 10
11.00415766239999
 20
4.702552025700008
 10
10.92998660959997
 20
4.678294580900008
 10
10.85736551679997
 20
4.648477161700007
 10
10.78520694399998
 20
4.612487683300003
 10
10.71467350079998
 20
4.570560987300005
 10
10.64645621119999
 20
4.522831121700008
 10
10.58022412319996
 20
4.468664308900002
 10
10.51545793599999
 20
4.407035801700004
 10
10.45209689919997
 20
4.337053532900007
 10
10.39131728799998
 20
4.259152769700001
 10
10.33628642399998
 20
4.176827569700002
 10
10.29153297439998
 20
4.097766998500006
 10
10.25750721759996
 20
4.025576160100001
 10
10.23113652639997
 20
3.955049608100004
 10
10.20972176319997
 20
3.878820291300002
 10
10.19205178079997
 20
3.792249811300003
 10
10.17783215359997
 20
3.695243017700008
 10
10.16587308319998
 20
3.589359555300006
 10
10.15497284479997
 20
3.474315273700007
 10
10.14472774239996
 20
3.349684273700006
 10
10.13451446079997
 20
3.214794307300003
 10
10.11250163999997
 20
2.910093251300004
  0
LWPOLYLINE
  5
114
330
2
100
AcDbEntity
  8
0
100
AcDbPolyline
 90
       25
 70
     0
 43
0.0
 10
11.33592519359999
 20
4.747732816100004
 10
11.42354921599997
 20
4.744773550500006
 10
11.50860509919996
 20
4.736001659300008
 10
11.59019068639997
 20
4.721791916900002
 10
11.66769269279998
 20
4.702550905700007
 10
11.74186371679996
 20
4.678293380900008
 10
11.81448477759997
 20
4.648475868900007
 10
11.88664331839998
 20
4.612486283300007
 10
11.95717672639997
 20
4.570559483300002
 10
12.02539397599997
 20
4.522829534500004
 10
12.09162602079996
 20
4.468662689700003
 10
12.15639216799996
 20
4.407034251300004
 10
12.21975317279998
 20
4.337052209700004
 10
12.28053277279997
 20
4.259151932900003
 10
12.33556364799997
 20
4.176827249700004
 10
12.38031713279997
 20
4.097766990500005
 10
12.41434291999996
 20
4.025576492900007
 10
12.44071367999998
 20
3.955050027300003
 10
12.46212847679998
 20
3.878820926500004
 10
12.47979850719997
 20
3.792250628900006
 10
12.49401819999997
 20
3.695243851300006
 10
12.50597736319997
 20
3.589360035300003
 10
12.51687761599998
 20
3.474315390500002
 10
12.52712283039997
 20
3.349683803300003
 10
12.53733615359996
 20
3.214793508900008
  0
LWPOLYLINE
  5
116
330
2
100
AcDbEntity
  8
0
100
AcDbPolyline
 90
       27
 70
     0
 43
0.0
 10
21.59362443199998
 20
-1.572930598299997
 10
21.59349258399998
 20
-1.573070454299994
 10
21.59475556959998
 20
-1.571752567899991
 10
21.59820999039996
 20
-1.568201662299998
 10
21.60405339519996
 20
-1.562294097499993
 10
21.61235865759997
 20
-1.554042023899995
 10
21.62302413279996
 20
-1.543630654299995
 10
21.63585079999998
 20
-1.531329326299996
 10
21.65089018079999
 20
-1.517159015899991
 10
21.66840683679998
 20
-1.500947852699994
 10
21.68878003039998
 20
-1.482437097499996
 10
21.71241463999996
 20
-1.461369142299993
 10
21.73953932479997
 20
-1.437664167899995
 10
21.76988072799997
 20
-1.411680243099993
 10
21.80287799039996
 20
-1.383990031899998
 10
21.83811638399999
 20
-1.355003119899997
 10
21.87521012159996
 20
-1.325073455899996
 10
21.91371984639997
 20
-1.294569775899994
 10
21.95345443039997
 20
-1.263642065499993
 10
21.99452654719996
 20
-1.232199943899992
 10
22.03701970399998
 20
-1.200182547099991
 10
22.08091662559997
 20
-1.167605327899991
 10
22.12617282879997
 20
-1.134500167899993
 10
22.17265401279996
 20
-1.100958951899997
 10
22.22018502399998
 20
-1.067095345499993
 10
22.26856995839998
 20
-1.033029815899993
 10
22.31764347519998
 20
-0.9988543838999959
  0
LWPOLYLINE
  5
117
330
2
100
AcDbEntity
  8
0
100
AcDbPolyline
 90
        7
 70
     0
 43
0.0
 10
24.15678725759997
 20
0.3048329489000068
 10
24.19792457119999
 20
0.3424247393000073
 10
24.23792977279998
 20
0.3800306721000055
 10
24.27695468319999
 20
0.4178219025000019
 10
24.31516483359996
 20
0.4559900929000023
 10
24.35257814239998
 20
0.4945954033000035
 10
24.38917223679996
 20
0.5336649377000029
  0
LINE
  5
118
330
2
100
AcDbEntity
  8
0
100
AcDbLine
 10
24.11473198719998
 20
0.2674190929000031
 30
0.0
 11
24.15694806239998
 21
0.3049778737000008
 31
0.0
  0
LINE
  5
119
330
2
100
AcDbEntity
  8
0
100
AcDbLine
 10
24.07127963039998
 20
0.2297354705000001
 30
0.0
 11
24.11455811359997
 21
0.267266441699999
 31
0.0
  0
LINE
  5
11A
330
2
100
AcDbEntity
  8
0
100
AcDbLine
 10
24.02699630559997
 20
0.1922495377000044
 30
0.0
 11
24.07146667519999
 21
0.2298956705000035
 31
0.0
  0
LINE
  5
11B
330
2
100
AcDbEntity
  8
0
100
AcDbLine
 10
23.98175454879999
 20
0.1548175713000046
 30
0.0
 11
24.02719654879997
 21
0.1924170721000036
 31
0.0
  0
LINE
  5
11C
330
2
100
AcDbEntity
  8
0
100
AcDbLine
 10
23.93560893599997
 20
0.1174532960999994
 30
0.0
 11
23.98196791839999
 21
0.1549921824999996
 31
0.0
  0
LINE
  5
11D
330
2
100
AcDbEntity
  8
0
100
AcDbLine
 10
23.88861733759999
 20
0.0801710753000049
 30
0.0
 11
23.93583531519997
 21
0.1176347201000039
 31
0.0
  0
LINE
  5
11E
330
2
100
AcDbEntity
  8
0
100
AcDbLine
 10
23.84086397599999
 20
0.0430026897000002
 30
0.0
 11
23.88885656799997
 21
0.0803590545000046
 31
0.0
  0
LINE
  5
11F
330
2
100
AcDbEntity
  8
0
100
AcDbLine
 10
23.79242664799998
 20
0.0059716833000008
 30
0.0
 11
23.84111578399999
 21
0.0431969185000054
 31
0.0
  0
LINE
  5
120
330
2
100
AcDbEntity
  8
0
100
AcDbLine
 10
23.74338648799998
 20
-0.0308978238999944
 30
0.0
 11
23.79269071359997
 21
0.0061718673000013
 31
0.0
  0
LINE
  5
121
330
2
100
AcDbEntity
  8
0
100
AcDbLine
 10
23.69383447519997
 20
-0.0675761070999985
 30
0.0
 11
23.74366241119998
 21
-0.0306920078999968
 31
0.0
  0
LINE
  5
122
330
2
100
AcDbEntity
  8
0
100
AcDbLine
 10
23.64389512799998
 20
-0.1040100511000008
 30
0.0
 11
23.69412157119999
 21
-0.0673651550999952
 31
0.0
  0
LINE
  5
123
330
2
100
AcDbEntity
  8
0
100
AcDbLine
 10
23.59366202079998
 20
-0.1401706094999997
 30
0.0
 11
23.64419266239998
 21
-0.1037944622999976
 31
0.0
  0
LINE
  5
124
330
2
100
AcDbEntity
  8
0
100
AcDbLine
 10
23.54322407679999
 20
-0.1760331358999951
 30
0.0
 11
23.59396941919997
 21
-0.1399507310999968
 31
0.0
  0
LINE
  5
125
330
2
100
AcDbEntity
  8
0
100
AcDbLine
 10
23.49263387679998
 20
-0.2115990286999962
 30
0.0
 11
23.54354074079999
 21
-0.1758092990999986
 31
0.0
  0
LINE
  5
126
330
2
100
AcDbEntity
  8
0
100
AcDbLine
 10
23.44189721599998
 20
-0.2469013886999991
 30
0.0
 11
23.49295977119997
 21
-0.2113711454999989
 31
0.0
  0
LINE
  5
127
330
2
100
AcDbEntity
  8
0
100
AcDbLine
 10
22.31714981439999
 20
-0.9991964366999997
 30
0.0
 11
22.36731063359998
 21
-0.9646078254999995
 31
0.0
  0
LINE
  5
128
330
2
100
AcDbEntity
  8
0
100
AcDbLine
 10
23.39105959039998
 20
-0.2819438142999959
 30
0.0
 11
23.44223245439998
 21
-0.2466692622999989
 31
0.0
  0
LINE
  5
129
330
2
100
AcDbEntity
  8
0
100
AcDbLine
 10
23.28930924959997
 20
-0.3512233278999974
 30
0.0
 11
23.3914032256
 21
-0.2817079806999945
 31
0.0
  0
LINE
  5
12A
330
2
100
AcDbEntity
  8
0
100
AcDbLine
 10
22.36681777439998
 20
-0.9649461071000008
 30
0.0
 11
22.46817489279997
 21
-0.8959595439000015
 31
0.0
  0
LINE
  5
12B
330
2
100
AcDbEntity
  8
0
100
AcDbLine
 10
23.18731953439999
 20
-0.4197317502999982
 30
0.0
 11
23.28966965599998
 21
-0.3509797134999988
 31
0.0
  0
LINE
  5
12C
330
2
100
AcDbEntity
  8
0
100
AcDbLine
 10
22.46768609919997
 20
-0.8962896734999961
 30
0.0
 11
22.57055125439999
 21
-0.8272638622999966
 31
0.0
  0
LINE
  5
12D
330
2
100
AcDbEntity
  8
0
100
AcDbLine
 10
22.57007115039998
 20
-0.8275841487000011
 30
0.0
 11
22.67371122879999
 21
-0.7587587182999971
 31
0.0
  0
LINE
  5
12E
330
2
100
AcDbEntity
  8
0
100
AcDbLine
 10
23.03369719839998
 20
-0.5216840990999958
 30
0.0
 11
23.18769771359999
 21
-0.419479135900001
 31
0.0
  0
LINE
  5
12F
330
2
100
AcDbEntity
  8
0
100
AcDbLine
 10
22.67324516319997
 20
-0.7590669982999958
 30
0.0
 11
23.03410197439999
 21
-0.5214168478999955
 31
0.0
  0
LWPOLYLINE
  5
130
330
2
100
AcDbEntity
  8
0
100
AcDbPolyline
 90
        4
 70
     0
 43
0.0
 10
18.81025210719997
 20
6.532474230500007
 10
19.14042811519996
 20
6.565385209700004
 10
19.50388767999999
 20
6.605666040100004
 10
19.88325481439997
 20
6.652395440100008
  0
LWPOLYLINE
  5
131
330
2
100
AcDbEntity
  8
0
100
AcDbPolyline
 90
        8
 70
     0
 43
0.0
 10
18.81025210719997
 20
6.532474230500007
 10
18.31922953439996
 20
6.487660379300002
 10
17.79493200159999
 20
6.445669172900004
 10
17.23452556639998
 20
6.406760996900004
 10
16.63328562079996
 20
6.371142584100006
 10
15.98422417919997
 20
6.338990985700007
 10
15.27957693119998
 20
6.310640374500003
 10
14.51102049759998
 20
6.286464320100002
  0
LWPOLYLINE
  5
133
330
2
100
AcDbEntity
  8
0
100
AcDbPolyline
 90
        4
 70
     0
 43
0.0
 10
11.33592519359999
 20
6.246086275300008
 10
12.36915330719998
 20
6.249974014500004
 10
13.43119926079998
 20
6.262794624100003
 10
14.51102049759998
 20
6.286464320100002
  0
LWPOLYLINE
  5
134
330
2
100
AcDbEntity
  8
0
100
AcDbPolyline
 90
        4
 70
     0
 43
0.0
 10
11.33592519359999
 20
6.246089254500006
 10
10.30269710079997
 20
6.249975662500006
 10
9.24065116799997
 20
6.262796582500001
 10
8.160829839999991
 20
6.286468638500004
  0
LWPOLYLINE
  5
137
330
2
100
AcDbEntity
  8
0
100
AcDbPolyline
 90
        8
 70
     0
 43
0.0
 10
3.861597862399975
 20
6.532473868900005
 10
4.352623291199989
 20
6.487660417700006
 10
4.876918684799989
 20
6.445669648100007
 10
5.437324220799979
 20
6.406761992100001
 10
6.038564758399985
 20
6.371144075300001
 10
6.68762639359997
 20
6.338992908900003
 10
7.39227346399997
 20
6.310642580900008
 10
8.160829839999991
 20
6.286468638500004
  0
LWPOLYLINE
  5
138
330
2
100
AcDbEntity
  8
0
100
AcDbPolyline
 90
        4
 70
     0
 43
0.0
 10
3.861597862399975
 20
6.532473868900005
 10
3.531416151999962
 20
6.565384958500004
 10
3.167956905599965
 20
6.605665836900001
 10
2.788597876799968
 20
6.652394104100004
  0
LINE
  5
139
330
2
100
AcDbEntity
  8
0
100
AcDbLine
 10
22.22772717919998
 20
-5.179434516699995
 30
0.0
 11
22.21191027839999
 21
-4.288311097499995
 31
0.0
  0
LINE
  5
13A
330
2
100
AcDbEntity
  8
0
100
AcDbLine
 10
22.21191613119999
 20
-4.288655875100001
 30
0.0
 11
22.20845828159998
 21
-4.078036982299995
 31
0.0
  0
LINE
  5
13B
330
2
100
AcDbEntity
  8
0
100
AcDbLine
 10
22.20846422719999
 20
-4.078413590299998
 30
0.0
 11
22.20538964959997
 21
-3.872895665499999
 31
0.0
  0
LINE
  5
13C
330
2
100
AcDbEntity
  8
0
100
AcDbLine
 10
22.20539536959999
 20
-3.873301335899998
 30
0.0
 11
22.20278928
 21
-3.6729929295
 31
0.0
  0
LWPOLYLINE
  5
13D
330
2
100
AcDbEntity
  8
0
100
AcDbPolyline
 90
        5
 70
     0
 43
0.0
 10
22.24164345279999
 20
-6.402000623899994
 10
22.23875951519997
 20
-5.900696932699993
 10
22.23539328959998
 20
-5.654999422299994
 10
22.23167522399998
 20
-5.414656809499994
 10
22.22772717919997
 20
-5.179434516699991
  0
LINE
  5
13E
330
2
100
AcDbEntity
  8
0
100
AcDbLine
 10
22.2027944128
 20
-3.6734248031
 30
0.0
 11
22.20073609439999
 21
-3.478479516699994
 31
0.0
  0
LINE
  5
13F
330
2
100
AcDbEntity
  8
0
100
AcDbLine
 10
22.2007402672
 20
-3.478934099099997
 30
0.0
 11
22.19929586559997
 21
-3.2896239439
 31
0.0
  0
LINE
  5
140
330
2
100
AcDbEntity
  8
0
100
AcDbLine
 10
22.19929871519998
 20
-3.290097219100001
 30
0.0
 11
22.19852470239997
 21
-3.1067391103
 31
0.0
  0
LINE
  5
141
330
2
100
AcDbEntity
  8
0
100
AcDbLine
 10
22.19852586719998
 20
-3.107226745499996
 30
0.0
 11
22.19846894879999
 21
-2.930129611099996
 31
0.0
  0
LINE
  5
142
330
2
100
AcDbEntity
  8
0
100
AcDbLine
 10
22.19846807679997
 20
-2.930627867099996
 30
0.0
 11
22.19916654079999
 21
-2.759617292699995
 31
0.0
  0
LWPOLYLINE
  5
143
330
2
100
AcDbEntity
  8
0
100
AcDbPolyline
 90
        6
 70
     0
 43
0.0
 10
22.24447220959999
 20
-7.576533073499994
 10
22.24510465599996
 20
-7.468509230299993
 10
22.24581582559997
 20
-7.192117183899995
 10
22.24534629599998
 20
-6.922404358299992
 10
22.24389476159998
 20
-6.659129359899992
 10
22.24164352639996
 20
-6.402009239899996
  0
LINE
  5
144
330
2
100
AcDbEntity
  8
0
100
AcDbLine
 10
22.19916326719997
 20
-2.7601264287
 30
0.0
 11
22.20065631039998
 21
-2.594625503900001
 31
0.0
  0
LINE
  5
145
330
2
100
AcDbEntity
  8
0
100
AcDbLine
 10
22.20065022559999
 20
-2.595146547099996
 30
0.0
 11
22.20297800479998
 21
-2.434561876699997
 31
0.0
  0
LINE
  5
146
330
2
100
AcDbEntity
  8
0
100
AcDbLine
 10
22.20296868479997
 20
-2.435096236700001
 30
0.0
 11
22.20617553919999
 21
-2.278842419099997
 31
0.0
  0
LINE
  5
147
330
2
100
AcDbEntity
  8
0
100
AcDbLine
 10
22.2061624848
 20
-2.279391791899999
 30
0.0
 11
22.21030248479997
 21
-2.1269767759
 31
0.0
  0
LINE
  5
148
330
2
100
AcDbEntity
  8
0
100
AcDbLine
 10
22.21028515199999
 20
-2.1275410639
 30
0.0
 11
22.21540385119997
 21
-1.979065209499995
 31
0.0
  0
LINE
  5
149
330
2
100
AcDbEntity
  8
0
100
AcDbLine
 10
22.21538176479999
 20
-1.979640787099998
 30
0.0
 11
22.22151471039999
 21
-1.835371923099994
 31
0.0
  0
LINE
  5
14A
330
2
100
AcDbEntity
  8
0
100
AcDbLine
 10
22.22148740159998
 20
-1.835955555099996
 30
0.0
 11
22.22866441439999
 21
-1.696084878299994
 31
0.0
  0
LINE
  5
14B
330
2
100
AcDbEntity
  8
0
100
AcDbLine
 10
22.22863145119999
 20
-1.696673523099998
 30
0.0
 11
22.23686571039997
 21
-1.561424628699998
 31
0.0
  0
LINE
  5
14C
330
2
100
AcDbEntity
  8
0
100
AcDbLine
 10
22.2368268128
 20
-1.562014249499998
 30
0.0
 11
22.24609967039999
 21
-1.431858476699996
 31
0.0
  0
LINE
  5
14D
330
2
100
AcDbEntity
  8
0
100
AcDbLine
 10
22.24605483359998
 20
-1.432442700699997
 30
0.0
 11
22.25628480799998
 21
-1.308307193499995
 31
0.0
  0
LINE
  5
14E
330
2
100
AcDbEntity
  8
0
100
AcDbLine
 10
22.25623464959998
 20
-1.308875191899996
 30
0.0
 11
22.26725471679999
 21
-1.192041876699998
 31
0.0
  0
LWPOLYLINE
  5
14F
330
2
100
AcDbEntity
  8
0
100
AcDbPolyline
 90
        7
 70
     0
 43
0.0
 10
20.98765857119997
 20
-9.868284393499997
 10
20.99836474719998
 20
-9.764501790299995
 10
21.01142443359998
 20
-9.647363628699991
 10
21.02476299199997
 20
-9.536815222299992
 10
21.03824403519996
 20
-9.433176324699992
 10
21.05173538399998
 20
-9.336667393499993
 10
21.05431352799996
 20
-9.319480649499993
  0
LINE
  5
150
330
2
100
AcDbEntity
  8
0
100
AcDbLine
 10
22.26720042239999
 20
-1.192581763099997
 30
0.0
 11
22.27884271199998
 21
-1.083684553499995
 31
0.0
  0
LINE
  5
151
330
2
100
AcDbEntity
  8
0
100
AcDbLine
 10
22.27878478719999
 20
-1.0841949743
 30
0.0
 11
22.2864247632
 21
-1.0205954991
 31
0.0
  0
LINE
  5
152
330
2
100
AcDbEntity
  8
0
100
AcDbLine
 10
17.12374897119998
 20
-11.60306956629999
 30
0.0
 11
17.39284585279999
 21
-11.13698009269999
 31
0.0
  0
LWPOLYLINE
  5
153
330
2
100
AcDbEntity
  8
0
100
AcDbPolyline
 90
        8
 70
     0
 43
0.0
 10
24.42493509599998
 20
0.5732407633000065
 10
24.45986363999998
 20
0.6133809537000019
 10
24.49401902399998
 20
0.6542283969000025
 10
24.52744555519998
 20
0.6959225233000055
 10
24.56016001439996
 20
0.738587216100008
 10
24.59217878719996
 20
0.7823652641000081
 10
24.62351635039996
 20
0.8274203921000022
 10
24.65418035519997
 20
0.873934425700007
  0
LINE
  5
154
330
2
100
AcDbEntity
  8
0
100
AcDbLine
 10
24.38926891199999
 20
0.5337700257000049
 30
0.0
 11
24.42502253759998
 21
0.5733393457000032
 31
0.0
  0
LINE
  5
155
330
2
100
AcDbEntity
  8
CENTER
 62
     1
 48
4.0
100
AcDbLine
 10
-4.307444722910609
 20
5.611240063027075
 30
0.0
 11
-0.6874603074894381
 21
5.919747553172932
 31
0.0
  0
LINE
  5
158
330
2
100
AcDbEntity
  8
0
100
AcDbLine
 10
28.8378278448
 20
7.771930433700003
 30
0.0
 11
-6.165977456000025
 21
7.771930433700003
 31
0.0
  0
LWPOLYLINE
  5
159
330
2
100
AcDbEntity
  8
0
100
AcDbPolyline
 90
       17
 70
     0
 43
0.0
 10
24.85832539519998
 20
1.286737499300002
 10
24.88605169599998
 20
1.367993140900004
 10
24.91256756959998
 20
1.456813980900008
 10
24.93725797759998
 20
1.552674840100003
 10
24.95953797279998
 20
1.654092891300003
 10
24.97892137919999
 20
1.758198436900002
 10
24.99593135839998
 20
1.866323372900005
 10
25.01235459679998
 20
1.991285787300007
 10
25.02779631039996
 20
2.134569267300001
 10
25.04134405439998
 20
2.289347320100006
 10
25.05261220159997
 20
2.446972473700007
 10
25.06172674719997
 20
2.600353451300001
 10
25.06919603519998
 20
2.748302276900005
 10
25.07544465919997
 20
2.890932808100004
 10
25.08080787359998
 20
3.029151987300004
 10
25.08551845439999
 20
3.163609657700007
 10
25.08978323839997
 20
3.296087329700007
  0
LINE
  5
15A
330
2
100
AcDbEntity
  8
0
100
AcDbLine
 10
18.5678942928
 20
-10.66925003669999
 30
0.0
 11
18.17551997919998
 21
-11.51143733589999
 31
0.0
  0
LWPOLYLINE
  5
15B
330
2
100
AcDbEntity
  8
0
100
AcDbPolyline
 90
        7
 70
     0
 43
0.0
 10
24.68418444959997
 20
0.9221328593000066
 10
24.71365144479998
 20
0.9724782913000069
 10
24.74283370239996
 20
1.025789590500004
 10
24.77186691519998
 20
1.082878928100008
 10
24.80080593119998
 20
1.144643070500002
 10
24.82975507199998
 20
1.212418108900003
 10
24.85832515519996
 20
1.286736864100006
  0
LINE
  5
15C
330
2
100
AcDbEntity
  8
0
100
AcDbLine
 10
24.65421660319999
 20
0.8739909921000016
 30
0.0
 11
24.6842152672
 21
0.9221838945000055
 31
0.0
  0
LINE
  5
16E
330
2
100
AcDbEntity
  8
0
100
AcDbLine
 10
11.3359251936
 20
9.272556484900004
 30
0.0
 11
28.9756257888
 21
9.271946748900003
 31
0.0
  0
LINE
  5
16F
330
2
100
AcDbEntity
  8
0
100
AcDbLine
 10
11.3359251936
 20
9.272556484900004
 30
0.0
 11
-6.303775400000024
 21
9.271946748900003
 31
0.0
  0
LINE
  5
170
330
2
100
AcDbEntity
  8
0
100
AcDbLine
 10
-6.3038276736
 20
9.2719972961
 30
0.0
 11
7.253702948799979
 21
9.275800868900002
 31
0.0
  0
LINE
  5
171
330
2
100
AcDbEntity
  8
0
100
AcDbLine
 10
7.253702948799979
 20
9.275800868900002
 30
0.0
 11
13.4797162592
 21
9.2759157425
 31
0.0
  0
LINE
  5
172
330
2
100
AcDbEntity
  8
0
100
AcDbLine
 10
13.4797162592
 20
9.2759157425
 30
0.0
 11
16.85677197919998
 21
9.275535515300003
 31
0.0
  0
LINE
  5
173
330
2
100
AcDbEntity
  8
0
100
AcDbLine
 10
28.97567806239997
 20
9.2719972961
 30
0.0
 11
16.85677300479998
 21
9.275535515300003
 31
0.0
  0
LINE
  5
186
330
2
100
AcDbEntity
  8
0
100
AcDbLine
 10
28.98934932479998
 20
9.271604830499999
 30
0.0
 11
28.97567449599999
 21
9.271982931299998
 31
0.0
  0
LINE
  5
187
330
2
100
AcDbEntity
  8
0
100
AcDbLine
 10
25.09380628959998
 20
3.429851470500001
 30
0.0
 11
25.11473227839998
 21
4.189550030500004
 31
0.0
  0
LWPOLYLINE
  5
188
330
2
100
AcDbEntity
  8
0
100
AcDbPolyline
 90
       16
 70
     0
 43
0.0
 10
25.11473227839997
 20
4.189550030500008
 10
25.12482056959999
 20
4.538636388900002
 10
25.13050849439997
 20
4.722728483300002
 10
25.13679988159998
 20
4.915621473700007
 10
25.14378978399998
 20
5.117608500900004
 10
25.15153763199998
 20
5.327856129700002
 10
25.16009153119998
 20
5.545532745700008
 10
25.16952054399996
 20
5.770529920100003
 10
25.17991709759996
 20
6.003202697700004
 10
25.19137578879997
 20
6.243818144100004
 10
25.20399753279997
 20
6.492691003300002
 10
25.21789063839998
 20
6.750140441700004
 10
25.23317104319997
 20
7.016488411300002
 10
25.24995438239997
 20
7.292065502500001
 10
25.26835741919998
 20
7.577194760100006
 10
25.28128526239999
 20
7.766483200100005
  0
LINE
  5
189
330
2
100
AcDbEntity
  8
0
100
AcDbLine
 10
25.08978463839998
 20
3.296132440099999
 30
0.0
 11
25.093807584
 21
3.429895723300003
 31
0.0
  0
LINE
  5
18A
330
2
100
AcDbEntity
  8
0
100
AcDbLine
 10
-6.303824107200018
 20
9.271982931299998
 30
0.0
 11
-6.317498921600009
 21
9.271604832099999
 31
0.0
  0
LINE
  5
18B
330
2
100
AcDbEntity
  8
0
100
AcDbLine
 10
29.02077326239999
 20
9.2678687089
 30
0.0
 11
28.98846916959998
 21
9.2716517377
 31
0.0
  0
LINE
  5
18C
330
2
100
AcDbEntity
  8
0
100
AcDbLine
 10
-6.317498921600009
 20
9.271604832099999
 30
0.0
 11
-6.34971246400001
 21
9.267722352100005
 31
0.0
  0
LINE
  5
18E
330
2
100
AcDbEntity
  8
0
100
AcDbLine
 10
29.05231283999999
 20
9.259923854499998
 30
0.0
 11
29.02077326239999
 21
9.2678687089
 31
0.0
  0
LINE
  5
190
330
2
100
AcDbEntity
  8
0
100
AcDbLine
 10
-6.34971246400001
 20
9.267722352100005
 30
0.0
 11
-6.38115186400002
 21
9.259700496099998
 31
0.0
  0
LINE
  5
191
330
2
100
AcDbEntity
  8
0
100
AcDbLine
 10
29.08255406879997
 20
9.247951646500002
 30
0.0
 11
29.05231283999999
 21
9.259923854499998
 31
0.0
  0
LINE
  5
193
330
2
100
AcDbEntity
  8
0
100
AcDbLine
 10
29.22465665279998
 20
9.043735684900003
 30
0.0
 11
29.3359251936
 21
7.771930433700003
 31
0.0
  0
LINE
  5
194
330
2
100
AcDbEntity
  8
0
100
AcDbLine
 10
29.11098508959998
 20
9.232154728100002
 30
0.0
 11
29.08255406879997
 21
9.247951646500002
 31
0.0
  0
LINE
  5
195
330
2
100
AcDbEntity
  8
0
100
AcDbLine
 10
29.22465348639998
 20
9.043771876899999
 30
0.0
 11
29.21972001759998
 21
9.075906651299998
 31
0.0
  0
LINE
  5
196
330
2
100
AcDbEntity
  8
0
100
AcDbLine
 10
29.13712468159998
 20
9.212800475300003
 30
0.0
 11
29.11098508959998
 21
9.232154728100002
 31
0.0
  0
LINE
  5
197
330
2
100
AcDbEntity
  8
0
100
AcDbLine
 10
29.16053041119998
 20
9.190216476900001
 30
0.0
 11
29.13712468159998
 21
9.212800475300003
 31
0.0
  0
LWPOLYLINE
  5
199
330
2
100
AcDbEntity
  8
0
100
AcDbPolyline
 90
        5
 70
     0
 43
0.0
 10
29.21972001759996
 20
9.075906651300002
 10
29.21065351359996
 20
9.107142248100004
 10
29.19760861599996
 20
9.136936456100002
 10
29.18080611679997
 20
9.164784987300002
 10
29.16053041119997
 20
9.190216476900005
  0
ARC
  5
19E
330
2
100
AcDbEntity
  8
0
100
AcDbCircle
 10
17.50109902879999
 20
-11.19948009269999
 30
0.0
 40
0.1875
100
AcDbArc
 50
138.9859794049999
 51
150.0
  0
ARC
  5
19F
330
2
100
AcDbEntity
  8
0
100
AcDbCircle
 10
9.764607769600001
 20
-11.47806956629999
 30
0.0
 40
0.25
100
AcDbArc
 50
210.0
 51
270.0
  0
ARC
  5
1A0
330
2
100
AcDbEntity
  8
0
100
AcDbCircle
 10
16.9072426192
 20
-11.47806956629999
 30
0.0
 40
0.25
100
AcDbArc
 50
270.0
 51
329.9999999816
  0
ARC
  5
1A1
330
2
100
AcDbEntity
  8
0
100
AcDbCircle
 10
9.294818252799995
 20
-11.41436911829999
 30
0.0
 40
0.1249998096
100
AcDbArc
 50
30.0001416115
 51
91.5002967794
  0
ARC
  5
1A2
330
2
100
AcDbEntity
  8
0
100
AcDbCircle
 10
17.50109898559999
 20
-11.19948009429999
 30
0.0
 40
0.1249999872
100
AcDbArc
 50
91.5
 51
149.9999896090999
  0
ARC
  5
1A3
330
2
100
AcDbEntity
  8
0
100
AcDbCircle
 10
6.607371803199992
 20
-11.22806956629999
 30
0.0
 40
0.3125
100
AcDbArc
 50
270.0
 51
315.0
  0
ARC
  5
1A4
330
2
100
AcDbEntity
  8
0
100
AcDbCircle
 10
4.064478585599982
 20
-11.22806956629999
 30
0.0
 40
0.3125
100
AcDbArc
 50
225.0
 51
270.0
  0
ARC
  5
1A5
330
2
100
AcDbEntity
  8
0
100
AcDbCircle
 10
3.34553357279999
 20
-11.2162313247
 30
0.0
 40
0.1875
100
AcDbArc
 50
45.0000001381
 51
82.9833687248
  0
ARC
  5
1A6
330
2
100
AcDbEntity
  8
0
100
AcDbCircle
 10
7.313369955199998
 20
-11.2291781791
 30
0.0
 40
0.1874999984
100
AcDbArc
 50
95.43788971179999
 51
134.9999997504999
  0
ARC
  5
1A7
330
2
100
AcDbEntity
  8
0
100
AcDbCircle
 10
-6.303754422400022
 20
9.021982940899999
 30
0.0
 40
0.25
100
AcDbArc
 50
90.01597052870002
 51
175.0000790107
  0
ARC
  5
1A8
330
2
100
AcDbEntity
  8
0
100
AcDbCircle
 10
28.97560481119999
 20
9.021982940899999
 30
0.0
 40
0.25
100
AcDbArc
 50
4.999920989299999
 51
89.98402947130001
  0
LINE
  5
29F
330
2
100
AcDbEntity
  8
0
100
AcDbLine
 10
28.83782784479994
 20
7.771930433700003
 30
0.0
 11
29.3359251936
 21
7.77193043369999
 31
0.0
  0
LINE
  5
2A4
330
2
100
AcDbEntity
  8
0
100
AcDbLine
 10
-6.165977456000035
 20
7.771930433700006
 30
0.0
 11
-6.664074806399996
 21
7.771930433700023
 31
0.0
  0
LWPOLYLINE
  5
6A6
330
2
100
AcDbEntity
  8
0
  6
HIDDEN
100
AcDbPolyline
 90
      105
 70
     0
 43
0.0
 10
-2.436096995200003
 20
6.407352396899998
 10
-2.256824017599981
 20
6.338363817699995
 10
-2.0782405936
 20
6.271005760099999
 10
-1.900104012799985
 20
6.205366377699998
 10
-1.722171563199978
 20
6.141533825699998
 10
-1.54420053439999
 20
6.079596257699993
 10
-1.365948214399978
 20
6.019641830499995
 10
-1.18717189279998
 20
5.961758696099995
 10
-1.007628854399982
 20
5.906035011299994
 10
-0.8395292447999764
 20
5.856162385699999
 10
-0.6703582560000001
 20
5.808310073699995
 10
-0.4999198799999789
 20
5.762549267299998
 10
-0.3280181103999809
 20
5.718951155299993
 10
-0.3061632543999764
 20
5.713688531299997
 10
-0.2842582415999999
 20
5.709018030499994
 10
-0.2622794448000008
 20
5.705496052899999
 10
-0.2402032383999852
 20
5.703679003299999
 10
-0.2186263631999878
 20
5.703859883299994
 10
-0.1969768591999781
 20
5.705394403299994
 10
-0.1752965951999812
 20
5.707497041699998
 10
-0.09587862879998
 20
5.713897792099995
 10
-0.0165359807999863
 20
5.717810350499998
 10
0.0628052784000062
 20
5.719667944099999
 10
0.1422190784000037
 20
5.719903801699995
 10
0.2217793456000123
 20
5.718951155299993
 10
0.2601944752000094
 20
5.718109657699994
 10
0.2985765295999982
 20
5.716627155299999
 10
0.3368412095999957
 20
5.714038185699994
 10
0.3749042128000184
 20
5.709877288099999
 10
0.4126812399999978
 20
5.703679003299999
 10
0.4536460288000086
 20
5.694119025699993
 10
0.4939847600000036
 20
5.681693152099999
 10
0.5335161872000214
 20
5.666542139299995
 10
0.5720590608000152
 20
5.648806740899996
 10
0.6094321344000236
 20
5.628627712099994
 10
0.6454541616000001
 20
5.606145811299999
 10
0.6799438928000115
 20
5.581501790499995
 10
0.7157285312000142
 20
5.552223414499994
 10
0.7493686800000177
 20
5.520655454499998
 10
0.7807704656000141
 20
5.486927315299997
 10
0.8098400112000234
 20
5.451168403299998
 10
0.8364834464000097
 20
5.413508123299994
 10
0.8589679152000115
 20
5.3769578273
 10
0.879192756800009
 20
5.339044275299993
 10
0.8970712832000202
 20
5.299932142499994
 10
0.9125168080000065
 20
5.259786108899998
 10
0.9254426448000145
 20
5.218770848099996
 10
0.9357621072000057
 20
5.1770510385
 10
0.9433885071999981
 20
5.134791358499999
 10
0.9482472656000169
 20
5.092356072099999
 10
0.9504390512000071
 20
5.049677008099994
 10
0.9500500112000196
 20
5.006881988899994
 10
0.9471662896000196
 20
4.964098835299996
 10
0.9418740368000015
 20
4.921455372899995
 10
0.9342593952000157
 20
4.879079422499994
 10
0.9244085151999996
 20
4.837098806499998
 10
0.9124075424000039
 20
4.795641347299994
 10
0.8983426208000224
 20
4.754834867299994
 10
0.8822999008000209
 20
4.7148071905
 10
0.8721264272000013
 20
4.692126241699998
 10
0.861096782399997
 20
4.669971228899999
 10
0.848985835199997
 20
4.648565643299999
 10
0.8355684512000181
 20
4.628132979299994
 10
0.8206194992000206
 20
4.608896728099995
 10
0.8026289632000072
 20
4.589712929699995
 10
0.7828548288000122
 20
4.572142220899994
 10
0.7615530160000077
 20
4.556149177699996
 10
0.7389794544000239
 20
4.541698384099998
 10
0.7153900640000046
 20
4.528754417699996
 10
0.691040771200008
 20
4.517281859299995
 10
0.6661875024000068
 20
4.507245286499998
 10
0.6357554352000108
 20
4.496875550499996
 10
0.6050746032000092
 20
4.487915889699994
 10
0.574259304000023
 20
4.479726425699997
 10
0.5434238384000168
 20
4.471667283299996
 10
0.4923275983999958
 20
4.457401939299995
 10
0.4413932864000146
 20
4.442216102499994
 10
0.390522729600022
 20
4.426597238499997
 10
0.3396177599999959
 20
4.4110328097
 10
0.2885802063999989
 20
4.396010283299997
 10
0.2373118992000087
 20
4.382017123299998
 10
0.1857146672000027
 20
4.369540795299993
 10
0.1336903392000153
 20
4.359068763299998
 10
0.0896163568000219
 20
4.352126324899995
 10
0.0452730112000239
 20
4.346920555299998
 10
0.0007615328000128
 20
4.343430080099995
 10
-0.0572079087999811
 20
4.341333833699994
 10
-0.1152236143999943
 20
4.341525297699998
 10
-0.1732188191999882
 20
4.343430080099995
 10
-0.2664617023999796
 20
4.348990921699996
 10
-0.3594902992000044
 20
4.357172953699997
 10
-0.4523167055999835
 20
4.367642985699998
 10
-0.5449530191999799
 20
4.380067830499999
 10
-0.6374113359999996
 20
4.394114299299996
 10
-0.729703753599992
 20
4.409449198499995
 10
-0.8218423679999915
 20
4.425739340899998
 10
-0.990492979199999
 20
4.457348504099993
 10
-1.158644104000003
 20
4.4910874481
 10
-1.326273142399983
 20
4.526992548899993
 10
-1.493357497600001
 20
4.565100179299999
 10
-1.659874569599978
 20
4.605446713699993
 10
-1.825801759999976
 20
4.648068528099994
 10
-1.991116470400001
 20
4.693001993699997
 10
-2.142781555199988
 20
4.736453616099996
 10
-2.293890497600003
 20
4.7819245809
  0
LWPOLYLINE
  5
6A7
330
2
100
AcDbEntity
  8
0
  6
HIDDEN
100
AcDbPolyline
 90
       25
 70
     0
 43
0.0
 10
25.08469299679999
 20
6.306583382499997
 10
24.95772458079998
 20
6.268297808099998
 10
24.83122188639999
 20
6.227450068899994
 10
24.70508567519997
 20
6.184487851299994
 10
24.57921670079998
 20
6.139858841699993
 10
24.45351572159999
 20
6.094010726499998
 10
24.32788349439998
 20
6.047391188899997
 10
24.2022207776
 20
6.000447916899997
 10
24.07642832959997
 20
5.953628595299992
 10
23.95040690399998
 20
5.907380910499998
 10
23.82405726079998
 20
5.862152548899995
 10
23.6972801568
 20
5.818391193699998
 10
23.59957025439997
 20
5.786061238499993
 10
23.50150479199997
 20
5.755063196899993
 10
23.40303882239997
 20
5.725599817699997
 10
23.30412739999998
 20
5.697873852899999
 10
23.2047255792
 20
5.672088049699997
 10
23.1047884144
 20
5.648445158499992
 10
23.00427096159999
 20
5.627147928099997
 10
22.90312827519998
 20
5.608399110499998
 10
22.87882759839997
 20
5.604498246499996
 10
22.85443944959997
 20
5.601861572899995
 10
22.83292451999999
 20
5.601241715299995
 10
22.81134530399999
 20
5.601864112099992
 10
22.78974284319998
 20
5.603142694499997
  0
LWPOLYLINE
  5
6A8
330
2
100
AcDbEntity
  8
0
  6
HIDDEN
100
AcDbPolyline
 90
       86
 70
     0
 43
0.0
 10
22.78974284319998
 20
5.603142694499997
 10
22.66048178399999
 20
5.612034643299995
 10
22.59594788159999
 20
5.615870070499997
 10
22.53140197439999
 20
5.618468792099992
 10
22.466786744
 20
5.619208553699994
 10
22.40204487359998
 20
5.617467102499997
 10
22.35622129279998
 20
5.614403833699999
 10
22.31049305279999
 20
5.609583795299993
 10
22.26504735839999
 20
5.602800001699993
 10
22.22007141279997
 20
5.593845465699995
 10
22.17575242239997
 20
5.582513200099999
 10
22.13227758879999
 20
5.568596217699994
 10
22.09709055039998
 20
5.554912369699994
 10
22.06278380639998
 20
5.538934592099995
 10
22.0291957248
 20
5.520584486499995
 10
21.99645771519997
 20
5.500001897699998
 10
21.96470117759998
 20
5.477326675299995
 10
21.93405751839999
 20
5.452698665699994
 10
21.90465813919997
 20
5.426257716899993
 10
21.87663444639998
 20
5.398143676899994
 10
21.85011784319998
 20
5.368496393699995
 10
21.82523973439999
 20
5.337455713699998
 10
21.80213152319999
 20
5.305161484899993
 10
21.78092461279997
 20
5.271753555299998
 10
21.76175040959999
 20
5.237371772899994
 10
21.74474031519998
 20
5.202155985699999
 10
21.73002573599999
 20
5.166246040099995
 10
21.71773807359998
 20
5.129781784099993
 10
21.70800873439999
 20
5.092903065699996
 10
21.70096911999997
 20
5.055749732899993
 10
21.69674770239999
 20
5.019326761699996
 10
21.69492303519997
 20
4.982801827299997
 10
21.695202608
 20
4.946201435299993
 10
21.69729391199997
 20
4.909552088099996
 10
21.70090443519999
 20
4.872880292899996
 10
21.70574166719999
 20
4.836212553699997
 10
21.71156567839998
 20
4.799786339299995
 10
21.71853094719998
 20
4.763554123299993
 10
21.72685409759999
 20
4.727679656099997
 10
21.73675175999998
 20
4.692326686499992
 10
21.74844055999999
 20
4.657658966499997
 10
21.76213712639998
 20
4.623840246499998
 10
21.77805808639997
 20
4.591034275299993
 10
21.79642006719999
 20
4.559404806499994
 10
21.81094582079999
 20
4.537924742499992
 10
21.82679660799997
 20
4.517375579299997
 10
21.84397510559999
 20
4.498021353699993
 10
21.86248398399997
 20
4.480126102499998
 10
21.88232591999998
 20
4.463953859299994
 10
21.90659258559999
 20
4.447788016099995
 10
21.93230010879998
 20
4.433842724899992
 10
21.95914390559998
 20
4.421742001699993
 10
21.98681939519998
 20
4.411109868899995
 10
22.01502199359999
 20
4.401570345699997
 10
22.04344711839997
 20
4.392747452899993
 10
22.1078638064
 20
4.373948075299995
 10
22.17196934559999
 20
4.355942979299992
 10
22.23587622879999
 20
4.337767707299999
 10
22.29047683999997
 20
4.321566195299997
 10
22.3451407136
 20
4.305181942499995
 10
22.39999415519998
 20
4.289262369699994
 10
22.45516346879999
 20
4.274454897699992
 10
22.51077495679997
 20
4.261406948899992
 10
22.5583386592
 20
4.252183795299995
 10
22.60622130879998
 20
4.244965329699997
 10
22.65433318079997
 20
4.240025937699993
 10
22.70553698719997
 20
4.237447460899996
 10
22.7568469584
 20
4.237256131299997
 10
22.80821224319999
 20
4.238964924899992
 10
22.85958198399999
 20
4.242086822499995
 10
22.91090532639999
 20
4.246134798499998
 10
23.02637323519998
 20
4.257071817699998
 10
23.14140410239998
 20
4.270291726499994
 10
23.25605595199998
 20
4.285842392099997
 10
23.36593814719999
 20
4.302989886499997
 10
23.47553869279998
 20
4.322141616099994
 10
23.58487244479998
 20
4.343104660899992
 10
23.69395425439999
 20
4.365686102499996
 10
23.80279897759997
 20
4.389693022499994
 10
23.96672232479998
 20
4.428213240099996
 10
24.13019018079999
 20
4.468879252899998
 10
24.29325367199997
 20
4.511027040099993
 10
24.4559639232
 20
4.553992582499997
 10
24.61837206079998
 20
4.597111864099996
 10
24.7805292112
 20
4.639720865699995
 10
24.94248649919999
 20
4.681155566499999
  0
ENDSEC
  0
SECTION
  2
OBJECTS
  0
DICTIONARY
  5
C
330
0
100
AcDbDictionary
  3
ACAD_COLOR
350
2E
  3
ACAD_GROUP
350
29
  3
ACAD_LAYOUT
350
B
  3
ACAD_MATERIAL
350
2D
  3
ACAD_MLINESTYLE
350
2A
  3
ACAD_PLOTSETTINGS
350
2B
  3
ACAD_PLOTSTYLENAME
350
2C
  3
ACAD_TABLESTYLE
350
2F
  3
ACDBHEADERROUNDTRIPXREC
350
6E4
  3
ACDBVARIABLEDICTIONARY
350
1AA
  0
DICTIONARY
  5
12
330
11
100
AcDbDictionary
280
     1
  3
ACAD_LAYERFILTERS
360
13
  3
ACLYDICTIONARY
360
14
  0
DICTIONARY
  5
3
330
2
100
AcDbDictionary
280
     1
  3
ACAD_LAYOUTSELFREF
360
705
  3
ACAD_SORTENTS
360
1A9
  0
DICTIONARY
  5
211
330
D
100
AcDbDictionary
280
     1
  3
ACAD_LAYOUTSELFREF
360
706
  0
DICTIONARY
  5
2E
102
{ACAD_REACTORS
330
C
102
}
330
C
100
AcDbDictionary
  0
DICTIONARY
  5
29
102
{ACAD_REACTORS
330
C
102
}
330
C
100
AcDbDictionary
  0
DICTIONARY
  5
B
102
{ACAD_REACTORS
330
C
102
}
330
C
100
AcDbDictionary
  0
DICTIONARY
  5
2D
102
{ACAD_REACTORS
330
C
102
}
330
C
100
AcDbDictionary
  0
DICTIONARY
  5
2A
102
{ACAD_REACTORS
330
C
102
}
330
C
100
AcDbDictionary
  3
STANDARD
350
30
  0
DICTIONARY
  5
2B
102
{ACAD_REACTORS
330
C
102
}
330
C
100
AcDbDictionary
  0
ACDBDICTIONARYWDFLT
  5
2C
102
{ACAD_REACTORS
330
C
102
}
330
C
100
AcDbDictionary
281
     1
  3
Normal
350
7
100
AcDbDictionaryWithDefault
340
7
  0
DICTIONARY
  5
2F
102
{ACAD_REACTORS
330
C
102
}
330
C
100
AcDbDictionary
  3
STANDARD
350
31
  0
DICTIONARY
  5
6E4
102
{ACAD_REACTORS
330
C
102
}
330
C
100
AcDbDictionary
  3
CEPSNTYPE
350
6EE
  3
DIMSTYLEDATA
350
6F2
  3
FINGERPRINTGUID
350
6EF
  3
HYPERLINKBASE
350
6E7
  3
INSUNITS
350
6ED
  3
LAYOUTDICT
350
6E9
  3
LWETCUNION
350
6EC
  3
PLOTSETDICT
350
6EA
  3
PLOTSTYLNAMDICT
350
6EB
  3
PSVPSCALE
350
6F1
  3
PUCSBASE
350
6F5
  3
PUCSORGBACK
350
6FB
  3
PUCSORGBOTTOM
350
6F7
  3
PUCSORGFRONT
350
6FA
  3
PUCSORGLEFT
350
6F8
  3
PUCSORGRIGHT
350
6F9
  3
PUCSORGTOP
350
6F6
  3
PUCSORTHOREF
350
6F3
  3
PUCSORTHOVIEW
350
6F4
  3
STYLESHEET
350
6E8
  3
TSTACKALIGN
350
6E5
  3
TSTACKSIZE
350
6E6
  3
UCSBASE
350
6FE
  3
UCSORGBACK
350
704
  3
UCSORGBOTTOM
350
700
  3
UCSORGFRONT
350
703
  3
UCSORGLEFT
350
701
  3
UCSORGRIGHT
350
702
  3
UCSORGTOP
350
6FF
  3
UCSORTHOREF
350
6FC
  3
UCSORTHOVIEW
350
6FD
  3
VERSIONGUID
350
6F0
  0
DICTIONARY
  5
1AA
102
{ACAD_REACTORS
330
C
102
}
330
C
100
AcDbDictionary
  3
CTABLESTYLE
350
1AB
  3
DIMASSOC
350
1BB
  3
HIDETEXT
350
1BA
  3
PROJECTNAME
350
1BC
  0
DICTIONARY
  5
13
102
{ACAD_REACTORS
330
12
102
}
330
12
100
AcDbDictionary
  0
DICTIONARY
  5
14
102
{ACAD_REACTORS
330
12
102
}
330
12
100
AcDbDictionary
1001
ACAD
1000
<All
  0
XRECORD
  5
705
102
{ACAD_REACTORS
330
3
102
}
330
3
100
AcDbXrecord
340
2
  0
SORTENTSTABLE
  5
1A9
102
{ACAD_REACTORS
330
3
102
}
330
3
100
AcDbSortentsTable
330
2
  0
XRECORD
  5
706
102
{ACAD_REACTORS
330
211
102
}
330
211
100
AcDbXrecord
340
D
  0
MLINESTYLE
  5
30
102
{ACAD_REACTORS
330
2A
102
}
330
2A
100
AcDbMlineStyle
  2
STANDARD
 70
     0
  3

 62
   256
 51
90.0
 52
90.0
 71
     2
 49
0.5
 62
   256
  6
BYLAYER
 49
-0.5
 62
   256
  6
BYLAYER
  0
ACDBPLACEHOLDER
  5
7
102
{ACAD_REACTORS
330
2C
102
}
330
0
100
AcDbPlaceHolder
280
     0
  0
ACAD_PROXY_OBJECT
  5
31
102
{ACAD_REACTORS
330
2F
102
}
330
2F
100
AcDbProxyObject
 90
      499
 91
      525
 93
     1841
310
4214DD185B99185C9928B81E85EB51B8AE3F2E07A17AD46E2B8FC02B5E8DC0F42B1CFD028000000C1008070000C3001FDFF8000000C1003FBFF000000182007F7FE00000030400FEFFC00000060801FDFF8000000C1003FBFF00000018200000000000000681FA0B0000001820100E000186003FBFF000000182007F7FE000
310
00030400FEFFC00000060801FDFF8000000C1003FBFF000000182007F7FE000000304000AD7A3703D0AC73F4160000003040201C00030C007F7FE00000030400FEFFC00000060801FDFF8000000C1003FBFF000000182007F7FE00000030400FEFFC000000608000
340
17
340
17
340
17
 94
        0
1001
ACAD
1000
AcadProxyRoundTripData
1071
      524
1071
   851991
1070
     0
  0
XRECORD
  5
6EE
102
{ACAD_REACTORS
330
6E4
102
}
330
6E4
100
AcDbXrecord
 90
        0
  0
XRECORD
  5
6F2
102
{ACAD_REACTORS
330
6E4
102
}
330
6E4
100
AcDbXrecord
1000
DSTYLE
1002
{
1070
   341
340
23
1070
   342
340
23
1002
}
  0
XRECORD
  5
6EF
102
{ACAD_REACTORS
330
6E4
102
}
330
6E4
100
AcDbXrecord
  1
{25A766BB-63D3-4ED1-B5B5-9F1BAF719E9A}
  0
XRECORD
  5
6E7
102
{ACAD_REACTORS
330
6E4
102
}
330
6E4
100
AcDbXrecord
  1

  0
XRECORD
  5
6ED
102
{ACAD_REACTORS
330
6E4
102
}
330
6E4
100
AcDbXrecord
 90
        1
  0
XRECORD
  5
6E9
102
{ACAD_REACTORS
330
6E4
102
}
330
6E4
100
AcDbXrecord
340
B
  0
XRECORD
  5
6EC
102
{ACAD_REACTORS
330
6E4
102
}
330
6E4
100
AcDbXrecord
 90
    10781
  0
XRECORD
  5
6EA
102
{ACAD_REACTORS
330
6E4
102
}
330
6E4
100
AcDbXrecord
340
2B
  0
XRECORD
  5
6EB
102
{ACAD_REACTORS
330
6E4
102
}
330
6E4
100
AcDbXrecord
340
2C
  0
XRECORD
  5
6F1
102
{ACAD_REACTORS
330
6E4
102
}
330
6E4
100
AcDbXrecord
 40
0.0
  0
XRECORD
  5
6F5
102
{ACAD_REACTORS
330
6E4
102
}
330
6E4
100
AcDbXrecord
340
0
  0
XRECORD
  5
6FB
102
{ACAD_REACTORS
330
6E4
102
}
330
6E4
100
AcDbXrecord
 10
0.0
 20
0.0
 30
0.0
  0
XRECORD
  5
6F7
102
{ACAD_REACTORS
330
6E4
102
}
330
6E4
100
AcDbXrecord
 10
0.0
 20
0.0
 30
0.0
  0
XRECORD
  5
6FA
102
{ACAD_REACTORS
330
6E4
102
}
330
6E4
100
AcDbXrecord
 10
0.0
 20
0.0
 30
0.0
  0
XRECORD
  5
6F8
102
{ACAD_REACTORS
330
6E4
102
}
330
6E4
100
AcDbXrecord
 10
0.0
 20
0.0
 30
0.0
  0
XRECORD
  5
6F9
102
{ACAD_REACTORS
330
6E4
102
}
330
6E4
100
AcDbXrecord
 10
0.0
 20
0.0
 30
0.0
  0
XRECORD
  5
6F6
102
{ACAD_REACTORS
330
6E4
102
}
330
6E4
100
AcDbXrecord
 10
0.0
 20
0.0
 30
0.0
  0
XRECORD
  5
6F3
102
{ACAD_REACTORS
330
6E4
102
}
330
6E4
100
AcDbXrecord
340
0
  0
XRECORD
  5
6F4
102
{ACAD_REACTORS
330
6E4
102
}
330
6E4
100
AcDbXrecord
 70
     0
  0
XRECORD
  5
6E8
102
{ACAD_REACTORS
330
6E4
102
}
330
6E4
100
AcDbXrecord
  1

  0
XRECORD
  5
6E5
102
{ACAD_REACTORS
330
6E4
102
}
330
6E4
100
AcDbXrecord
 90
        1
  0
XRECORD
  5
6E6
102
{ACAD_REACTORS
330
6E4
102
}
330
6E4
100
AcDbXrecord
 90
       70
  0
XRECORD
  5
6FE
102
{ACAD_REACTORS
330
6E4
102
}
330
6E4
100
AcDbXrecord
340
0
  0
XRECORD
  5
704
102
{ACAD_REACTORS
330
6E4
102
}
330
6E4
100
AcDbXrecord
 10
0.0
 20
0.0
 30
0.0
  0
XRECORD
  5
700
102
{ACAD_REACTORS
330
6E4
102
}
330
6E4
100
AcDbXrecord
 10
0.0
 20
0.0
 30
0.0
  0
XRECORD
  5
703
102
{ACAD_REACTORS
330
6E4
102
}
330
6E4
100
AcDbXrecord
 10
0.0
 20
0.0
 30
0.0
  0
XRECORD
  5
701
102
{ACAD_REACTORS
330
6E4
102
}
330
6E4
100
AcDbXrecord
 10
0.0
 20
0.0
 30
0.0
  0
XRECORD
  5
702
102
{ACAD_REACTORS
330
6E4
102
}
330
6E4
100
AcDbXrecord
 10
0.0
 20
0.0
 30
0.0
  0
XRECORD
  5
6FF
102
{ACAD_REACTORS
330
6E4
102
}
330
6E4
100
AcDbXrecord
 10
0.0
 20
0.0
 30
0.0
  0
XRECORD
  5
6FC
102
{ACAD_REACTORS
330
6E4
102
}
330
6E4
100
AcDbXrecord
340
0
  0
XRECORD
  5
6FD
102
{ACAD_REACTORS
330
6E4
102
}
330
6E4
100
AcDbXrecord
 70
     0
  0
XRECORD
  5
6F0
102
{ACAD_REACTORS
330
6E4
102
}
330
6E4
100
AcDbXrecord
  1
{45A27265-BF92-40EC-9202-53C1CE28D203}
  0
DICTIONARYVAR
  5
1AB
102
{ACAD_REACTORS
330
1AA
102
}
330
1AA
100
DictionaryVariables
280
     0
  1
STANDARD
  0
DICTIONARYVAR
  5
1BB
102
{ACAD_REACTORS
330
1AA
102
}
330
1AA
100
DictionaryVariables
280
     0
  1
1
  0
DICTIONARYVAR
  5
1BA
102
{ACAD_REACTORS
330
1AA
102
}
330
1AA
100
DictionaryVariables
280
     0
  1
1
  0
DICTIONARYVAR
  5
1BC
102
{ACAD_REACTORS
330
1AA
102
}
330
1AA
100
DictionaryVariables
280
     0
  1

  0
ENDSEC
  0
EOF
