  0
SECTION
  2
HEADER
  9
$ACADVER
  1
AC1014
  9
$ACADMAINTVER
 70
     9
  9
$DWGCODEPAGE
  3
ANSI_1252
  9
$INSBASE
 10
4.964568661999999
 20
7.673019889299999
 30
0.0
  9
$EXTMIN
 10
-30.81536250163461
 20
-11.60291166859929
 30
-0.0015258207003583
  9
$EXTMAX
 10
41.18903202962051
 20
24.39928559702828
 30
0.0000000349246037
  9
$LIMMIN
 10
0.0
 20
0.0
  9
$LIMMAX
 10
17.0
 20
11.0
  9
$ORTHOMODE
 70
     1
  9
$REGENMODE
 70
     1
  9
$FILLMODE
 70
     1
  9
$QTEXTMODE
 70
     0
  9
$MIRRTEXT
 70
     1
  9
$DRAGMODE
 70
     2
  9
$LTSCALE
 40
2.0
  9
$OSMODE
 70
    55
  9
$ATTMODE
 70
     1
  9
$TEXTSIZE
 40
0.2
  9
$TRACEWID
 40
0.05
  9
$TEXTSTYLE
  7
STANDARD
  9
$CLAYER
  8
0
  9
$CELTYPE
  6
BYLAYER
  9
$CECOLOR
 62
   256
  9
$CELTSCALE
 40
1.0
  9
$DELOBJ
 70
     1
  9
$DISPSILH
 70
     0
  9
$DIMSCALE
 40
1.0
  9
$DIMASZ
 40
0.1875
  9
$DIMEXO
 40
0.0625
  9
$DIMDLI
 40
0.38
  9
$DIMRND
 40
0.0
  9
$DIMDLE
 40
0.0
  9
$DIMEXE
 40
0.18
  9
$DIMTP
 40
0.00001
  9
$DIMTM
 40
0.00001
  9
$DIMTXT
 40
0.125
  9
$DIMCEN
 40
0.09
  9
$DIMTSZ
 40
0.0
  9
$DIMTOL
 70
     0
  9
$DIMLIM
 70
     0
  9
$DIMTIH
 70
     1
  9
$DIMTOH
 70
     1
  9
$DIMSE1
 70
     0
  9
$DIMSE2
 70
     0
  9
$DIMTAD
 70
     0
  9
$DIMZIN
 70
     4
  9
$DIMBLK
  1
_FILLED
  9
$DIMASO
 70
     1
  9
$DIMSHO
 70
     1
  9
$DIMPOST
  1

  9
$DIMAPOST
  1

  9
$DIMALT
 70
     0
  9
$DIMALTD
 70
     2
  9
$DIMALTF
 40
25.4
  9
$DIMLFAC
 40
1.0
  9
$DIMTOFL
 70
     0
  9
$DIMTVP
 40
0.0
  9
$DIMTIX
 70
     0
  9
$DIMSOXD
 70
     0
  9
$DIMSAH
 70
     0
  9
$DIMBLK1
  1

  9
$DIMBLK2
  1

  9
$DIMSTYLE
  2
STANDARD
  9
$DIMCLRD
 70
     0
  9
$DIMCLRE
 70
     0
  9
$DIMCLRT
 70
     0
  9
$DIMTFAC
 40
1.0
  9
$DIMGAP
 40
0.09
  9
$DIMJUST
 70
     0
  9
$DIMSD1
 70
     0
  9
$DIMSD2
 70
     0
  9
$DIMTOLJ
 70
     1
  9
$DIMTZIN
 70
     4
  9
$DIMALTZ
 70
     0
  9
$DIMALTTZ
 70
     0
  9
$DIMFIT
 70
     3
  9
$DIMUPT
 70
     0
  9
$DIMUNIT
 70
     2
  9
$DIMDEC
 70
     2
  9
$DIMTDEC
 70
     2
  9
$DIMALTU
 70
     2
  9
$DIMALTTD
 70
     2
  9
$DIMTXSTY
  7
STANDARD
  9
$DIMAUNIT
 70
     0
  9
$LUNITS
 70
     2
  9
$LUPREC
 70
     4
  9
$SKETCHINC
 40
0.1
  9
$FILLETRAD
 40
0.0
  9
$AUNITS
 70
     0
  9
$AUPREC
 70
     0
  9
$MENU
  1
acad
  9
$ELEVATION
 40
0.0
  9
$PELEVATION
 40
0.0
  9
$THICKNESS
 40
0.0
  9
$LIMCHECK
 70
     0
  9
$BLIPMODE
 70
     0
  9
$CHAMFERA
 40
0.0
  9
$CHAMFERB
 40
0.0
  9
$CHAMFERC
 40
0.0
  9
$CHAMFERD
 40
0.0
  9
$SKPOLY
 70
     0
  9
$TDCREATE
 40
2453676.830066007
  9
$TDUPDATE
 40
2453685.535888426
  9
$TDINDWG
 40
0.0188770255
  9
$TDUSRTIMER
 40
0.0188770255
  9
$USRTIMER
 70
     1
  9
$ANGBASE
 50
0.0
  9
$ANGDIR
 70
     0
  9
$PDMODE
 70
     3
  9
$PDSIZE
 40
0.3125
  9
$PLINEWID
 40
0.0
  9
$COORDS
 70
     1
  9
$SPLFRAME
 70
     0
  9
$SPLINETYPE
 70
     6
  9
$SPLINESEGS
 70
     8
  9
$ATTDIA
 70
     0
  9
$ATTREQ
 70
     1
  9
$HANDLING
 70
 22529
  9
$HANDSEED
  5
2E7
  9
$SURFTAB1
 70
     6
  9
$SURFTAB2
 70
     6
  9
$SURFTYPE
 70
     6
  9
$SURFU
 70
     6
  9
$SURFV
 70
     6
  9
$UCSNAME
  2

  9
$UCSORG
 10
0.0
 20
0.0
 30
0.0
  9
$UCSXDIR
 10
1.0
 20
0.0
 30
0.0
  9
$UCSYDIR
 10
0.0
 20
1.0
 30
0.0
  9
$PUCSNAME
  2

  9
$PUCSORG
 10
0.0
 20
0.0
 30
0.0
  9
$PUCSXDIR
 10
1.0
 20
0.0
 30
0.0
  9
$PUCSYDIR
 10
0.0
 20
1.0
 30
0.0
  9
$USERI1
 70
     0
  9
$USERI2
 70
     0
  9
$USERI3
 70
     0
  9
$USERI4
 70
     0
  9
$USERI5
 70
     0
  9
$USERR1
 40
0.0
  9
$USERR2
 40
0.0
  9
$USERR3
 40
0.0
  9
$USERR4
 40
0.0
  9
$USERR5
 40
0.0
  9
$WORLDVIEW
 70
     1
  9
$SHADEDGE
 70
     3
  9
$SHADEDIF
 70
    70
  9
$TILEMODE
 70
     1
  9
$MAXACTVP
 70
    16
  9
$PINSBASE
 10
0.0
 20
0.0
 30
0.0
  9
$PLIMCHECK
 70
     0
  9
$PEXTMIN
 10
1.000000000000000E+20
 20
1.000000000000000E+20
 30
1.000000000000000E+20
  9
$PEXTMAX
 10
-1.000000000000000E+20
 20
-1.000000000000000E+20
 30
-1.000000000000000E+20
  9
$PLIMMIN
 10
0.0
 20
0.0
  9
$PLIMMAX
 10
12.0
 20
9.0
  9
$UNITMODE
 70
     0
  9
$VISRETAIN
 70
     0
  9
$PLINEGEN
 70
     1
  9
$PSLTSCALE
 70
     0
  9
$TREEDEPTH
 70
  3020
  9
$PICKSTYLE
 70
     1
  9
$CMLSTYLE
  2
STANDARD
  9
$CMLJUST
 70
     0
  9
$CMLSCALE
 40
1.0
  9
$PROXYGRAPHICS
 70
     0
  9
$MEASUREMENT
 70
     0
  0
ENDSEC
  0
SECTION
  2
CLASSES
  0
CLASS
  1
ACDBDICTIONARYWDFLT
  2
AcDbDictionaryWithDefault
  3
AutoCAD 2000
 90
        0
280
     0
281
     0
  0
CLASS
  1
ACDBPLACEHOLDER
  2
AcDbPlaceHolder
  3
AutoCAD 2000
 90
        0
280
     0
281
     0
  0
CLASS
  1
LAYOUT
  2
AcDbLayout
  3
AutoCAD 2000
 90
        0
280
     0
281
     0
  0
CLASS
  1
LWPOLYLINE
  2
AcDbPolyline
  3
AutoCAD 2000
 90
        0
280
     0
281
     1
  0
CLASS
  1
IMAGE
  2
AcDbRasterImage
  3
ISM
 90
      127
280
     1
281
     1
  0
CLASS
  1
OLE2FRAME
  2
AcDbOle2Frame
  3
AutoCAD 2000
 90
        0
280
     0
281
     1
  0
CLASS
  1
HATCH
  2
AcDbHatch
  3
AutoCAD 2000
 90
        0
280
     0
281
     1
  0
CLASS
  1
DICTIONARYVAR
  2
AcDbDictionaryVar
  3
AutoCAD 2000
 90
        0
280
     0
281
     0
  0
CLASS
  1
RASTERVARIABLES
  2
AcDbRasterVariables
  3
ISM
 90
        0
280
     1
281
     0
  0
CLASS
  1
IMAGEDEF
  2
AcDbRasterImageDef
  3
ISM
 90
        0
280
     1
281
     0
  0
CLASS
  1
IMAGEDEF_REACTOR
  2
AcDbRasterImageDefReactor
  3
ISM
 90
        1
280
     1
281
     0
  0
CLASS
  1
IDBUFFER
  2
AcDbIdBuffer
  3
AutoCAD 2000
 90
        0
280
     0
281
     0
  0
CLASS
  1
SPATIAL_FILTER
  2
AcDbSpatialFilter
  3
AutoCAD 2000
 90
        0
280
     0
281
     0
  0
CLASS
  1
XRECORD
  2
AcDbXrecord
  3
AutoCAD 2000
 90
        0
280
     0
281
     0
  0
CLASS
  1
SORTENTSTABLE
  2
AcDbSortentsTable
  3
AutoCAD 2000
 90
        0
280
     0
281
     0
  0
CLASS
  1
LAYER_INDEX
  2
AcDbLayerIndex
  3
AutoCAD 2000
 90
        0
280
     0
281
     0
  0
CLASS
  1
SPATIAL_INDEX
  2
AcDbSpatialIndex
  3
AutoCAD 2000
 90
        0
280
     0
281
     0
  0
CLASS
  1
OBJECT_PTR
  2
CAseDLPNTableRecord
  3
ASE-LPNTableRecord
 90
        1
280
     1
281
     0
  0
CLASS
  1
PLOTSETTINGS
  2
AcDbPlotSettings
  3
AutoCAD 2000
 90
        0
280
     0
281
     0
  0
CLASS
  1
VBA_PROJECT
  2
AcDbVbaProject
  3
acadvba
 90
        0
280
     0
281
     0
  0
CLASS
  1
WIPEOUT
  2
AcDbWipeout
  3
"WipeOut|Product Desc: Object Enabler for WipeOut entity^I^I^I^I^I^I|Company: Autodesk, Inc.^I^I^I^I^I^I|WEB Address: www.autodesk.com"
 90
      127
280
     1
281
     1
  0
CLASS
  1
WIPEOUTVARIABLES
  2
AcDbWipeoutVariables
  3
"WipeOut|Product Desc:     WipeOut Dbx Application|Company:          Autodesk, Inc.|WEB Address:      www.autodesk.com"
 90
        0
280
     1
281
     0
  0
CLASS
  1
RTEXT
  2
RText
  3
RText|AutoCAD Express Tool|expresstools@autodesk.com
 90
        0
280
     1
281
     1
  0
CLASS
  1
ARCALIGNEDTEXT
  2
AcDbArcAlignedText
  3
ATEXT|AutoCAD Express Tool|expresstools@autodesk.com
 90
        0
280
     1
281
     1
  0
CLASS
  1
TABLESTYLE
  2
AcDbTableStyle
  3
ObjectDBX Classes
 90
     2047
280
     0
281
     0
  0
CLASS
  1
ACAD_PROXY_OBJECT_WRAPPER
  2
AcDbProxyObjectWrapper
  3
AutoCAD 2000
 90
        0
280
     0
281
     0
  0
CLASS
  1
LONG_TRANSACTION
  2
AcDbLongTransaction
  3
AutoCAD 2000
 90
        0
280
     0
281
     0
  0
CLASS
  1
LWPOLYLINE
  2
AcDbPolyline
  3
AutoCAD 2000
 90
        0
280
     0
281
     1
  0
CLASS
  1
HATCH
  2
AcDbHatch
  3
AutoCAD 2000
 90
        0
280
     0
281
     1
  0
CLASS
  1
XRECORD
  2
AcDbXrecord
  3
AutoCAD 2000
 90
        0
280
     0
281
     0
  0
CLASS
  1
LONG_TRANSACTION
  2
AcDbLongTransaction
  3
AutoCAD 2000
 90
        0
280
     0
281
     0
  0
CLASS
  1
LWPOLYLINE
  2
AcDbPolyline
  3
AutoCAD 2000
 90
        0
280
     0
281
     1
  0
CLASS
  1
HATCH
  2
AcDbHatch
  3
AutoCAD 2000
 90
        0
280
     0
281
     1
  0
CLASS
  1
XRECORD
  2
AcDbXrecord
  3
AutoCAD 2000
 90
        0
280
     0
281
     0
  0
CLASS
  1
LONG_TRANSACTION
  2
AcDbLongTransaction
  3
AutoCAD 2000
 90
        0
280
     0
281
     0
  0
CLASS
  1
LWPOLYLINE
  2
AcDbPolyline
  3
AutoCAD 2000
 90
        0
280
     0
281
     1
  0
CLASS
  1
HATCH
  2
AcDbHatch
  3
AutoCAD 2000
 90
        0
280
     0
281
     1
  0
CLASS
  1
XRECORD
  2
AcDbXrecord
  3
AutoCAD 2000
 90
        0
280
     0
281
     0
  0
ENDSEC
  0
SECTION
  2
TABLES
  0
TABLE
  2
VPORT
  5
1E
330
0
100
AcDbSymbolTable
 70
     3
  0
VPORT
  5
2C3
330
1E
100
AcDbSymbolTableRecord
100
AcDbViewportTableRecord
  2
*ACTIVE
 70
     0
 10
0.0
 20
0.0
 11
1.0
 21
1.0
 12
5.186834634156085
 22
6.39818691965117
 13
0.0
 23
0.0
 14
1.0
 24
1.0
 15
0.0
 25
0.0
 16
0.0
 26
0.0
 36
1.0
 17
0.0
 27
0.0
 37
0.0
 40
46.63591550878406
 41
1.786792452830188
 42
50.0
 43
0.0
 44
0.0
 50
0.0
 51
0.0
 71
     0
 72
   100
 73
     1
 74
     1
 75
     0
 76
     0
 77
     0
 78
     0
  0
ENDTAB
  0
TABLE
  2
LTYPE
  5
19
330
0
100
AcDbSymbolTable
 70
     2
  0
LTYPE
  5
1A
330
19
100
AcDbSymbolTableRecord
100
AcDbLinetypeTableRecord
  2
BYBLOCK
 70
     0
  3

 72
    65
 73
     0
 40
0.0
  0
LTYPE
  5
1B
330
19
100
AcDbSymbolTableRecord
100
AcDbLinetypeTableRecord
  2
BYLAYER
 70
     0
  3

 72
    65
 73
     0
 40
0.0
  0
LTYPE
  5
8
330
19
100
AcDbSymbolTableRecord
100
AcDbLinetypeTableRecord
  2
CONTINUOUS
 70
     0
  3
Solid line
 72
    65
 73
     0
 40
0.0
  0
LTYPE
  5
10D
330
19
100
AcDbSymbolTableRecord
100
AcDbLinetypeTableRecord
  2
CENTER
 70
     0
  3
____ _ ____ _ ____ _ ____ _ ____ _ ____ _ ____
 72
    65
 73
     4
 40
0.6
 49
0.375
 74
     0
 49
-0.075
 74
     0
 49
0.075
 74
     0
 49
-0.075
 74
     0
  0
ENDTAB
  0
TABLE
  2
LAYER
  5
11
102
{ACAD_XDICTIONARY
360
12
102
}
330
0
100
AcDbSymbolTable
 70
     3
  0
LAYER
  5
6
330
11
100
AcDbSymbolTableRecord
100
AcDbLayerTableRecord
  2
0
 70
     0
 62
     7
  6
CONTINUOUS
  0
LAYER
  5
10C
330
11
100
AcDbSymbolTableRecord
100
AcDbLayerTableRecord
  2
CENTER
 70
     0
 62
     1
  6
CENTER
1001
ACAECLAYERSTANDARD
1000

1000

  0
LAYER
  5
200
330
11
100
AcDbSymbolTableRecord
100
AcDbLayerTableRecord
  2
DEFPOINTS
 70
     0
 62
     7
  6
CONTINUOUS
  0
ENDTAB
  0
TABLE
  2
STYLE
  5
16
330
0
100
AcDbSymbolTable
 70
     1
  0
STYLE
  5
17
330
16
100
AcDbSymbolTableRecord
100
AcDbTextStyleTableRecord
  2
STANDARD
 70
     0
 40
0.0
 41
0.8
 50
0.0
 71
     0
 42
0.2
  3
txt
  4

  0
ENDTAB
  0
TABLE
  2
VIEW
  5
1C
330
0
100
AcDbSymbolTable
 70
     0
  0
ENDTAB
  0
TABLE
  2
UCS
  5
1D
330
0
100
AcDbSymbolTable
 70
     0
  0
ENDTAB
  0
TABLE
  2
APPID
  5
20
330
0
100
AcDbSymbolTable
 70
     3
  0
APPID
  5
15
330
20
100
AcDbSymbolTableRecord
100
AcDbRegAppTableRecord
  2
ACAD
 70
     0
  0
APPID
  5
10E
330
20
100
AcDbSymbolTableRecord
100
AcDbRegAppTableRecord
  2
ACAECLAYERSTANDARD
 70
     0
  0
APPID
  5
1F1
330
20
100
AcDbSymbolTableRecord
100
AcDbRegAppTableRecord
  2
DCO15
 70
     0
  0
ENDTAB
  0
TABLE
  2
DIMSTYLE
  5
21
330
0
100
AcDbSymbolTable
 70
     1
  0
DIMSTYLE
105
27
330
21
100
AcDbSymbolTableRecord
100
AcDbDimStyleTableRecord
  2
STANDARD
 70
     0
  3

  4

  5
_FILLED
  6

  7

 40
1.0
 41
0.1875
 42
0.0625
 43
0.38
 44
0.18
 45
0.0
 46
0.0
 47
0.00001
 48
0.00001
140
0.125
141
0.09
142
0.0
143
25.4
144
1.0
145
0.0
146
1.0
147
0.09
 71
     0
 72
     0
 73
     1
 74
     1
 75
     0
 76
     0
 77
     0
 78
     4
170
     0
171
     2
172
     0
173
     0
174
     0
175
     0
176
     0
177
     0
178
     0
270
     2
271
     2
272
     2
273
     2
274
     2
340
17
275
     0
280
     0
281
     0
282
     0
283
     1
284
     4
285
     0
286
     0
287
     3
288
     0
  0
ENDTAB
  0
TABLE
  2
BLOCK_RECORD
  5
1
330
0
100
AcDbSymbolTable
 70
     1
  0
BLOCK_RECORD
  5
2
102
{ACAD_XDICTIONARY
360
3
102
}
330
1
100
AcDbSymbolTableRecord
100
AcDbBlockTableRecord
  2
*MODEL_SPACE
  0
BLOCK_RECORD
  5
D
102
{ACAD_XDICTIONARY
360
23F
102
}
330
1
100
AcDbSymbolTableRecord
100
AcDbBlockTableRecord
  2
*PAPER_SPACE
  0
BLOCK_RECORD
  5
23
330
1
100
AcDbSymbolTableRecord
100
AcDbBlockTableRecord
  2
_FILLED
  0
ENDTAB
  0
ENDSEC
  0
SECTION
  2
BLOCKS
  0
BLOCK
  5
5
330
2
100
AcDbEntity
  8
0
100
AcDbBlockBegin
  2
*MODEL_SPACE
 70
     0
 10
0.0
 20
0.0
 30
0.0
  3
*MODEL_SPACE
  1

  0
ENDBLK
  5
9
330
2
100
AcDbEntity
  8
0
100
AcDbBlockEnd
  0
BLOCK
  5
E
330
D
100
AcDbEntity
 67
     1
  8
0
100
AcDbBlockBegin
  2
*PAPER_SPACE
 70
     0
 10
0.0
 20
0.0
 30
0.0
  3
*PAPER_SPACE
  1

  0
ENDBLK
  5
F
330
D
100
AcDbEntity
 67
     1
  8
0
100
AcDbBlockEnd
  0
BLOCK
  5
24
330
23
100
AcDbEntity
  8
0
100
AcDbBlockBegin
  2
_FILLED
 70
     0
 10
0.0
 20
0.0
 30
0.0
  3
_FILLED
  1

  0
SOLID
  5
25
330
23
100
AcDbEntity
  8
0
  6
BYBLOCK
 62
     0
100
AcDbTrace
 10
0.0
 20
0.0
 30
0.0
 11
-1.0
 21
0.1666666667
 31
0.0
 12
-1.0
 22
-0.1666666667
 32
0.0
 13
-1.0
 23
-0.1666666667
 33
0.0
  0
ENDBLK
  5
26
330
23
100
AcDbEntity
  8
0
  6
BYBLOCK
 62
     0
100
AcDbBlockEnd
  0
ENDSEC
  0
SECTION
  2
ENTITIES
  0
LWPOLYLINE
  5
32
330
2
100
AcDbEntity
  8
0
100
AcDbPolyline
 90
       16
 70
     0
 43
0.0
 10
-27.42326722284512
 20
12.47000307079547
 10
-27.47493612204512
 20
12.34940387559545
 10
-27.52567578604512
 20
12.22840618439546
 10
-27.57548486764512
 20
12.10701947399546
 10
-27.62436201964512
 20
11.98525321799546
 10
-27.67230589324512
 20
11.86311689319545
 10
-27.71956923084512
 20
11.73994951879545
 10
-27.76588587884512
 20
11.61642432359546
 10
-27.81125401644512
 20
11.49254803079544
 10
-27.85567181484512
 20
11.36832736519546
 10
-27.89913745004512
 20
11.24376904999546
 10
-27.94148714604512
 20
11.11936020359546
 10
-27.98288507724512
 20
10.99463104999544
 10
-28.02332615884512
 20
10.86958966919546
 10
-28.06280530124512
 20
10.74424414599546
 10
-28.10131741804512
 20
10.61860256199544
  0
LWPOLYLINE
  5
33
330
2
100
AcDbEntity
  8
0
100
AcDbPolyline
 90
       17
 70
     0
 43
0.0
 10
-27.42326722284512
 20
12.47000307079547
 10
-27.35278855244512
 20
12.63047003399545
 10
-27.28064536204512
 20
12.79020374279546
 10
-27.20683982924512
 20
12.94918055239544
 10
-27.13137412684512
 20
13.10737680999547
 10
-27.05545418604512
 20
13.26234339079546
 10
-26.97792595084512
 20
13.41650937799546
 10
-26.89878828364512
 20
13.56985371879547
 10
-26.81804004204511
 20
13.72235536199546
 10
-26.73749994924512
 20
13.87068237959546
 10
-26.65541401964512
 20
14.01816022279545
 10
-26.57177833964512
 20
14.16476605959546
 10
-26.48658898924512
 20
14.31047706279547
 10
-26.40216378604512
 20
14.45143971719547
 10
-26.31625923244512
 20
14.59150490119545
 10
-26.22887201324512
 20
14.73064476039546
 10
-26.13999881004512
 20
14.86883144199545
  0
LWPOLYLINE
  5
34
330
2
100
AcDbEntity
  8
0
100
AcDbPolyline
 90
       16
 70
     0
 43
0.0
 10
-25.09830595564512
 20
16.27682467399544
 10
-25.17103590764512
 20
16.18959332359544
 10
-25.24304065964512
 20
16.10175697479546
 10
-25.31431993964512
 20
16.01332724359546
 10
-25.38487347564512
 20
15.92431574279545
 10
-25.45470100204512
 20
15.83473408679545
 10
-25.52577996364512
 20
15.74199187559544
 10
-25.59609209004512
 20
15.64866854439545
 10
-25.66563921964512
 20
15.55477411079546
 10
-25.73442319244512
 20
15.46031860039546
 10
-25.80244584684512
 20
15.36531203079546
 10
-25.87155946444512
 20
15.26711265479546
 10
-25.93987127724512
 20
15.16835339559544
 10
-26.00738157644512
 20
15.06904576519547
 10
-26.07409065644512
 20
14.96920127559546
 10
-26.13999881004512
 20
14.86883144199545
  0
LWPOLYLINE
  5
35
330
2
100
AcDbEntity
  8
0
100
AcDbPolyline
 90
       22
 70
     0
 43
0.0
 10
-28.76963403084512
 20
6.398186880395471
 10
-28.76833841324512
 20
6.225355933195444
 10
-28.76445110284512
 20
6.052553713995465
 10
-28.75805574284512
 20
5.879822902795453
 10
-28.74854117484512
 20
5.695376829195467
 10
-28.73633870604512
 20
5.511091625995462
 10
-28.72152856204512
 20
5.326997905995455
 10
-28.70297770924512
 20
5.13121228839546
 10
-28.68163498124512
 20
4.935710145995457
 10
-28.65757432044512
 20
4.740523121995451
 10
-28.62936044524512
 20
4.535245933195454
 10
-28.59827268204512
 20
4.330384304395451
 10
-28.56437225004512
 20
4.125968849995459
 10
-28.52605006924512
 20
3.913102861195454
 10
-28.48478772524511
 20
3.700787029195453
 10
-28.44064296364512
 20
3.489052013195461
 10
-28.39207301644512
 20
3.270973390795461
 10
-28.34053173324512
 20
3.053577080395456
 10
-28.28606189964512
 20
2.836892902795455
 10
-28.22744948684512
 20
2.616355262795451
 10
-28.16585772044512
 20
2.396633912395458
 10
-28.10131741804512
 20
2.177771198795454
  0
LWPOLYLINE
  5
36
330
2
100
AcDbEntity
  8
0
100
AcDbPolyline
 90
       22
 70
     0
 43
0.0
 10
-28.76963403084512
 20
6.398186880395471
 10
-28.76833841324512
 20
6.571017829195469
 10
-28.76445110284512
 20
6.743820046795448
 10
-28.75805574284512
 20
6.91655085799546
 10
-28.74854117484512
 20
7.100996931595446
 10
-28.73633870604512
 20
7.285282134795451
 10
-28.72152856204512
 20
7.469375854795444
 10
-28.70297770924512
 20
7.665161472395467
 10
-28.68163498124512
 20
7.860663614795456
 10
-28.65757432044512
 20
8.055850638795462
 10
-28.62936044524512
 20
8.261127827595444
 10
-28.59827268204512
 20
8.465989456395462
 10
-28.56437225004512
 20
8.670404910795454
 10
-28.52605006924512
 20
8.883270899595444
 10
-28.48478772524511
 20
9.095586731595446
 10
-28.44064296364512
 20
9.307321749195452
 10
-28.39207301644512
 20
9.525400369995466
 10
-28.34053173324512
 20
9.742796680395471
 10
-28.28606189964512
 20
9.959480857995444
 10
-28.22744948684512
 20
10.18001849799544
 10
-28.16585772044512
 20
10.39973984839547
 10
-28.10131741804512
 20
10.61860256199544
  0
LINE
  5
37
330
2
100
AcDbEntity
  8
0
100
AcDbLine
 10
22.18683460115487
 20
-11.23408131320454
 30
0.0
 11
-11.81316540844512
 21
-11.23408131320454
 31
0.0
  0
LINE
  5
38
330
2
100
AcDbEntity
  8
0
100
AcDbLine
 10
22.18683460115487
 20
24.03045507399546
 30
0.0
 11
-11.81316540844512
 21
24.03045507399546
 31
0.0
  0
LWPOLYLINE
  5
39
330
2
100
AcDbEntity
  8
0
100
AcDbPolyline
 90
       17
 70
     0
 43
0.0
 10
-27.42326722284512
 20
0.326370689995457
 10
-27.35278855244512
 20
0.1659037283954632
 10
-27.28064536204512
 20
0.0061700179954585
 10
-27.20683982924512
 20
-0.1528067916045472
 10
-27.13137412684512
 20
-0.3110030492045439
 10
-27.05545418604512
 20
-0.4659696300045369
 10
-26.97792595084512
 20
-0.6201356172045394
 10
-26.89878828364512
 20
-0.7734799580045433
 10
-26.81804004204511
 20
-0.9259816012045405
 10
-26.73749994924512
 20
-1.074308618804536
 10
-26.65541401964512
 20
-1.221786462004544
 10
-26.57177833964512
 20
-1.368392298804536
 10
-26.48658898924512
 20
-1.514103302004542
 10
-26.40216378604512
 20
-1.655065956404541
 10
-26.31625923244512
 20
-1.795131140404535
 10
-26.22887201324512
 20
-1.934270999604535
 10
-26.13999881004512
 20
-2.072457681204539
  0
LWPOLYLINE
  5
3A
330
2
100
AcDbEntity
  8
0
100
AcDbPolyline
 90
       16
 70
     0
 43
0.0
 10
-27.42326722284512
 20
0.326370689995457
 10
-27.47493612204512
 20
0.4469698851954576
 10
-27.52567578604512
 20
0.5679675763954606
 10
-27.57548486764512
 20
0.6893542867954637
 10
-27.62436201964512
 20
0.8111205427954644
 10
-27.67230589324512
 20
0.9332568675954604
 10
-27.71956923084512
 20
1.056424241995458
 10
-27.76588587884512
 20
1.17994943719546
 10
-27.81125401644512
 20
1.303825729995452
 10
-27.85567181484512
 20
1.428046395595458
 10
-27.89913745004512
 20
1.552604710795463
 10
-27.94148714604512
 20
1.677013557195465
 10
-27.98288507724512
 20
1.801742710795451
 10
-28.02332615884512
 20
1.926784091595465
 10
-28.06280530124512
 20
2.052129614795461
 10
-28.10131741804512
 20
2.177771198795454
  0
LWPOLYLINE
  5
3B
330
2
100
AcDbEntity
  8
0
100
AcDbPolyline
 90
       16
 70
     0
 43
0.0
 10
-25.09830595564512
 20
-3.480450913204535
 10
-25.17103590764512
 20
-3.393219562804546
 10
-25.24304065964512
 20
-3.305383214004535
 10
-25.31431993964512
 20
-3.216953482804541
 10
-25.38487347564512
 20
-3.127941982004543
 10
-25.45470100204512
 20
-3.038360326004536
 10
-25.52577996364512
 20
-2.945618114804545
 10
-25.59609209004512
 20
-2.852294783604534
 10
-25.66563921964512
 20
-2.758400350004535
 10
-25.73442319244512
 20
-2.663944839604539
 10
-25.80244584684512
 20
-2.568938270004537
 10
-25.87155946444512
 20
-2.47073889400454
 10
-25.93987127724512
 20
-2.371979634804546
 10
-26.00738157644512
 20
-2.27267200440454
 10
-26.07409065644512
 20
-2.172827514804538
 10
-26.13999881004512
 20
-2.072457681204539
  0
LWPOLYLINE
  5
3C
330
2
100
AcDbEntity
  8
0
100
AcDbPolyline
 90
       16
 70
     0
 43
0.0
 10
35.47198451475487
 20
-3.480443990004545
 10
35.54474933715488
 20
-3.393245057204538
 10
35.61675993075488
 20
-3.305416834804546
 10
35.68802667955488
 20
-3.216979711604537
 10
35.75855996755487
 20
-3.127954081204535
 10
35.82837018035488
 20
-3.038360330804536
 10
35.89944410675487
 20
-2.945612873204538
 10
35.96975963475488
 20
-2.852291314804546
 10
36.03931268275488
 20
-2.758401281204541
 10
36.10809917555488
 20
-2.663948393204535
 10
36.17611502995487
 20
-2.568938276404537
 10
36.24520759635487
 20
-2.470728033204537
 10
36.31349423315488
 20
-2.371954759604534
 10
36.38098717235488
 20
-2.272637961204537
 10
36.44769864435487
 20
-2.172797148404541
 10
36.51364088115487
 20
-2.072451828404538
  0
LWPOLYLINE
  5
3D
330
2
100
AcDbEntity
  8
0
100
AcDbPolyline
 90
       16
 70
     0
 43
0.0
 10
37.79693641395488
 20
0.326370689995457
 10
37.84860531315487
 20
0.4469698851954576
 10
37.89934497715488
 20
0.5679675763954606
 10
37.94915406035487
 20
0.6893542867954637
 10
37.99803121075487
 20
0.8111205427954644
 10
38.04597508435488
 20
0.9332568675954604
 10
38.09323842195487
 20
1.056424241995458
 10
38.13955507155488
 20
1.17994943719546
 10
38.18492320755487
 20
1.303825729995452
 10
38.22934100595487
 20
1.428046395595458
 10
38.27280664115487
 20
1.552604710795463
 10
38.31515633715487
 20
1.677013557195465
 10
38.35655426995488
 20
1.801742710795451
 10
38.39699534995487
 20
1.926784091595465
 10
38.43647449235487
 20
2.052129614795461
 10
38.47498660915488
 20
2.177771198795454
  0
LWPOLYLINE
  5
3E
330
2
100
AcDbEntity
  8
0
100
AcDbPolyline
 90
       17
 70
     0
 43
0.0
 10
37.79693641395488
 20
0.326370689995457
 10
37.72645774355487
 20
0.1659037283954632
 10
37.65431455475487
 20
0.0061700179954585
 10
37.58050902035488
 20
-0.1528067916045472
 10
37.50504331955487
 20
-0.3110030492045439
 10
37.42912337715488
 20
-0.4659696300045369
 10
37.35159514355487
 20
-0.6201356172045394
 10
37.27245747475487
 20
-0.7734799580045433
 10
37.19170923475488
 20
-0.9259816012045405
 10
37.11116914035487
 20
-1.074308618804536
 10
37.02908321235487
 20
-1.221786462004544
 10
36.94544753075487
 20
-1.368392298804536
 10
36.86025818195487
 20
-1.514103302004542
 10
36.77583297715488
 20
-1.655065956404541
 10
36.68992842355487
 20
-1.795131140404535
 10
36.60254120435487
 20
-1.934270999604535
 10
36.51366800115488
 20
-2.072457681204539
  0
LWPOLYLINE
  5
3F
330
2
100
AcDbEntity
  8
0
100
AcDbPolyline
 90
       22
 70
     0
 43
0.0
 10
39.14330322195488
 20
6.398186880395471
 10
39.14200760435487
 20
6.571017829195469
 10
39.13812029395488
 20
6.743820046795448
 10
39.13172493395487
 20
6.91655085799546
 10
39.12221036595487
 20
7.100996931595446
 10
39.11000789715487
 20
7.285282134795451
 10
39.09519775475487
 20
7.469375854795444
 10
39.07664690035487
 20
7.665161472395467
 10
39.05530417395488
 20
7.860663614795456
 10
39.03124351155487
 20
8.055850638795462
 10
39.00302963635488
 20
8.261127827595444
 10
38.97194187315487
 20
8.465989456395462
 10
38.93804144275488
 20
8.670404910795454
 10
38.89971926035487
 20
8.883270899595444
 10
38.85845691635488
 20
9.095586731595446
 10
38.81431215475487
 20
9.307321749195452
 10
38.76574220755488
 20
9.525400369995466
 10
38.71420092435488
 20
9.742796680395471
 10
38.65973109235487
 20
9.959480857995444
 10
38.60111867795487
 20
10.18001849799544
 10
38.53952691315487
 20
10.39973984839547
 10
38.47498660915488
 20
10.61860256199544
  0
LWPOLYLINE
  5
40
330
2
100
AcDbEntity
  8
0
100
AcDbPolyline
 90
       22
 70
     0
 43
0.0
 10
39.14330322195488
 20
6.398186880395471
 10
39.14200760435487
 20
6.225355933195444
 10
39.13812029395488
 20
6.052553713995465
 10
39.13172493395487
 20
5.879822902795453
 10
39.12221036595487
 20
5.695376829195467
 10
39.11000789715487
 20
5.511091625995462
 10
39.09519775475487
 20
5.326997905995455
 10
39.07664690035487
 20
5.13121228839546
 10
39.05530417395488
 20
4.935710145995457
 10
39.03124351155487
 20
4.740523121995451
 10
39.00302963635488
 20
4.535245933195454
 10
38.97194187315487
 20
4.330384304395451
 10
38.93804144275488
 20
4.125968849995459
 10
38.89971926035487
 20
3.913102861195454
 10
38.85845691635488
 20
3.700787029195453
 10
38.81431215475487
 20
3.489052013195461
 10
38.76574220755488
 20
3.270973390795461
 10
38.71420092435488
 20
3.053577080395456
 10
38.65973109235487
 20
2.836892902795455
 10
38.60111867795487
 20
2.616355262795451
 10
38.53952691315487
 20
2.396633912395458
 10
38.47498660915488
 20
2.177771198795454
  0
LWPOLYLINE
  5
41
330
2
100
AcDbEntity
  8
0
100
AcDbPolyline
 90
       17
 70
     0
 43
0.0
 10
37.79693641395488
 20
12.47000307079547
 10
37.72645774355487
 20
12.63047003399545
 10
37.65431455475487
 20
12.79020374279546
 10
37.58050902035488
 20
12.94918055239544
 10
37.50504331955487
 20
13.10737680999547
 10
37.42912337715488
 20
13.26234339079546
 10
37.35159514355487
 20
13.41650937799546
 10
37.27245747475487
 20
13.56985371879547
 10
37.19170923475488
 20
13.72235536199546
 10
37.11116914035487
 20
13.87068237959546
 10
37.02908321235487
 20
14.01816022279545
 10
36.94544753075487
 20
14.16476605959546
 10
36.86025818195487
 20
14.31047706279547
 10
36.77583297715488
 20
14.45143971719547
 10
36.68992842355487
 20
14.59150490119545
 10
36.60254120435487
 20
14.73064476039546
 10
36.51366800115488
 20
14.86883144199545
  0
LWPOLYLINE
  5
42
330
2
100
AcDbEntity
  8
0
100
AcDbPolyline
 90
       16
 70
     0
 43
0.0
 10
37.79693641395488
 20
12.47000307079547
 10
37.84860531315487
 20
12.34940387559545
 10
37.89934497715488
 20
12.22840618439546
 10
37.94915406035487
 20
12.10701947399546
 10
37.99803121075487
 20
11.98525321799546
 10
38.04597508435488
 20
11.86311689319545
 10
38.09323842195487
 20
11.73994951879545
 10
38.13955507155488
 20
11.61642432359546
 10
38.18492320755487
 20
11.49254803079544
 10
38.22934100595487
 20
11.36832736519546
 10
38.27280664115487
 20
11.24376904999546
 10
38.31515633715487
 20
11.11936020359546
 10
38.35655426995488
 20
10.99463104999544
 10
38.39699534995487
 20
10.86958966919546
 10
38.43647449235487
 20
10.74424414599546
 10
38.47498660915488
 20
10.61860256199544
  0
LWPOLYLINE
  5
43
330
2
100
AcDbEntity
  8
0
100
AcDbPolyline
 90
       16
 70
     0
 43
0.0
 10
35.47197514675487
 20
16.27682467399544
 10
35.54470510035487
 20
16.18959332359544
 10
35.61670985075487
 20
16.10175697479546
 10
35.68798913075487
 20
16.01332724359546
 10
35.75854266835488
 20
15.92431574279545
 10
35.82837019315488
 20
15.83473408679545
 10
35.89944915635487
 20
15.74199187559544
 10
35.96976128275487
 20
15.64866854439545
 10
36.03930841235487
 20
15.55477411079546
 10
36.10809238515487
 20
15.46031860039546
 10
36.17611503955487
 20
15.36531203079546
 10
36.24522865555488
 20
15.26711265479546
 10
36.31354046835487
 20
15.16835339559544
 10
36.38105076755488
 20
15.06904576519547
 10
36.44775984755487
 20
14.96920127559546
 10
36.51366800115488
 20
14.86883144199545
  0
LWPOLYLINE
  5
44
330
2
100
AcDbEntity
  8
0
100
AcDbPolyline
 90
       46
 70
     0
 43
0.0
 10
-11.82224976044512
 20
-8.053362782004541
 10
-12.20349093804512
 20
-8.053453607604538
 10
-12.58732425164512
 20
-8.050823791604543
 10
-12.97098127884512
 20
-8.045262634804544
 10
-13.35134102444512
 20
-8.036647722804545
 10
-13.73090619084512
 20
-8.024723426804541
 10
-14.12553225964511
 20
-8.008471700404541
 10
-14.55416227884511
 20
-7.985995241204534
 10
-15.03333664204512
 20
-7.954442367604542
 10
-15.56779056844512
 20
-7.910522548404543
 10
-15.86366493164512
 20
-7.881943018804534
 10
-16.15920644204512
 20
-7.850098858804543
 10
-16.49353960364512
 20
-7.809800151604534
 10
-16.82726040684512
 20
-7.764702735604544
 10
-17.19773674764512
 20
-7.708512263604546
 10
-17.56714912844512
 20
-7.645694897204535
 10
-17.94177684044512
 20
-7.574661665204544
 10
-18.31489168044512
 20
-7.496067172404536
 10
-18.66182711404512
 20
-7.415422698804547
 10
-19.00692461484512
 20
-7.327265068404543
 10
-19.32298800844512
 20
-7.238946268404546
 10
-19.63699239404512
 20
-7.143565430004542
 10
-19.92821191724512
 20
-7.047900823604535
 10
-20.21718501004512
 20
-6.945657609204545
 10
-20.48655821324512
 20
-6.84333453720454
 10
-20.75348307564512
 20
-6.734789454004541
 10
-21.00393379244512
 20
-6.626019172404539
 10
-21.25174600204512
 20
-6.511366713204537
 10
-21.48672139244511
 20
-6.395782055604541
 10
-21.71885655724512
 20
-6.274597222004544
 10
-21.94329983404512
 20
-6.150397889204541
 10
-22.16466413964512
 20
-6.020790820404542
 10
-22.38409946924512
 20
-5.885024831604539
 10
-22.60019496204512
 20
-5.744001513204537
 10
-22.81720636524512
 20
-5.594833996404545
 10
-23.03058912044512
 20
-5.440519817204545
 10
-23.24506013164512
 20
-5.277483151604542
 10
-23.45558877004512
 20
-5.109385879604545
 10
-23.66745060684512
 20
-4.931817492404547
 10
-23.87505986284512
 20
-4.749293458804544
 10
-24.08441641804512
 20
-4.556325015604542
 10
-24.28920693804512
 20
-4.358517937204538
 10
-24.49572702124512
 20
-4.149542297204547
 10
-24.69736179084512
 20
-3.935842127604544
 10
-24.90044440844512
 20
-3.710434482804544
 10
-25.09830595564512
 20
-3.480450913204535
  0
LWPOLYLINE
  5
45
330
2
100
AcDbEntity
  8
0
100
AcDbPolyline
 90
       46
 70
     0
 43
0.0
 10
22.19591895155487
 20
-8.053362782004541
 10
22.57716012915487
 20
-8.053453607604538
 10
22.96099344435488
 20
-8.050823791604543
 10
23.34465047155487
 20
-8.045262634804544
 10
23.72501021555487
 20
-8.036647722804545
 10
24.10457538195487
 20
-8.024723426804541
 10
24.49920145075488
 20
-8.008471700404541
 10
24.92783146995488
 20
-7.985995241204534
 10
25.40700583315488
 20
-7.954442367604542
 10
25.94145975955487
 20
-7.910522548404543
 10
26.23733412435487
 20
-7.881943018804534
 10
26.53287563475487
 20
-7.850098858804543
 10
26.86720879475487
 20
-7.809800151604534
 10
27.20092959795488
 20
-7.764702735604544
 10
27.57140593875488
 20
-7.708512263604546
 10
27.94081831955487
 20
-7.645694897204535
 10
28.31544603155487
 20
-7.574661665204544
 10
28.68856087315488
 20
-7.496067172404536
 10
29.03549630675488
 20
-7.415422698804547
 10
29.38059380755487
 20
-7.327265068404543
 10
29.69665719955488
 20
-7.238946268404546
 10
30.01066158675488
 20
-7.143565430004542
 10
30.30188110835487
 20
-7.047900823604535
 10
30.59085420275488
 20
-6.945657609204545
 10
30.86022740435487
 20
-6.84333453720454
 10
31.12715226675487
 20
-6.734789454004541
 10
31.37760298515487
 20
-6.626019172404539
 10
31.62541519475488
 20
-6.511366713204537
 10
31.86039058515487
 20
-6.395782055604541
 10
32.09252574995487
 20
-6.274597222004544
 10
32.31696902515487
 20
-6.150397889204541
 10
32.53833333075488
 20
-6.020790820404542
 10
32.75776866035488
 20
-5.885024831604539
 10
32.97386415475488
 20
-5.744001513204537
 10
33.19087555795488
 20
-5.594833996404545
 10
33.40425831155488
 20
-5.440519817204545
 10
33.61872932435487
 20
-5.277483151604542
 10
33.82925796115488
 20
-5.109385879604545
 10
34.04111979955487
 20
-4.931817492404547
 10
34.24872905395487
 20
-4.749293458804544
 10
34.45808560915487
 20
-4.556325015604542
 10
34.66287612915488
 20
-4.358517937204538
 10
34.86939621235487
 20
-4.149542297204547
 10
35.07103098195488
 20
-3.935842127604544
 10
35.27411360115488
 20
-3.710434482804544
 10
35.47197514675487
 20
-3.480450913204535
  0
LWPOLYLINE
  5
46
330
2
100
AcDbEntity
  8
0
100
AcDbPolyline
 90
       46
 70
     0
 43
0.0
 10
22.19591895155487
 20
20.84973654279547
 10
22.57716012915487
 20
20.84982736839545
 10
22.96099344435488
 20
20.84719755239545
 10
23.34465047155487
 20
20.84163639559547
 10
23.72501021555487
 20
20.83302148359546
 10
24.10457538195487
 20
20.82109718919546
 10
24.49920145075488
 20
20.80484546119545
 10
24.92783146995488
 20
20.78236900199546
 10
25.40700583315488
 20
20.75081612839547
 10
25.94145975955487
 20
20.70689630919547
 10
26.23733412435487
 20
20.67831677959544
 10
26.53287563475487
 20
20.64647261959545
 10
26.86720879475487
 20
20.60617391239544
 10
27.20092959795488
 20
20.56107649639547
 10
27.57140593875488
 20
20.50488602439544
 10
27.94081831955487
 20
20.44206865799544
 10
28.31544603155487
 20
20.37103542599545
 10
28.68856087315488
 20
20.29244093319546
 10
29.03549630675488
 20
20.21179645959545
 10
29.38059380755487
 20
20.12363882919545
 10
29.69665719955488
 20
20.03532002919546
 10
30.01066158675488
 20
19.93993919079547
 10
30.30188110835487
 20
19.84427458439545
 10
30.59085420275488
 20
19.74203136999544
 10
30.86022740435487
 20
19.63970829799545
 10
31.12715226675487
 20
19.53116321479545
 10
31.37760298515487
 20
19.42239293319546
 10
31.62541519475488
 20
19.30774047399545
 10
31.86039058515487
 20
19.19215581799547
 10
32.09252574995487
 20
19.07097098279545
 10
32.31696902515487
 20
18.94677164999545
 10
32.53833333075488
 20
18.81716458119545
 10
32.75776866035488
 20
18.68139859239546
 10
32.97386415475488
 20
18.54037527399545
 10
33.19087555795488
 20
18.39120775719545
 10
33.40425831155488
 20
18.23689357799544
 10
33.61872932435487
 20
18.07385691239547
 10
33.82925796115488
 20
17.90575964039545
 10
34.04111979955487
 20
17.72819125319544
 10
34.24872905395487
 20
17.54566721959547
 10
34.45808560915487
 20
17.35269877639545
 10
34.66287612915488
 20
17.15489169799546
 10
34.86939621235487
 20
16.94591605799546
 10
35.07103098195488
 20
16.73221588839545
 10
35.27411360115488
 20
16.50680824359547
 10
35.47197514675487
 20
16.27682467399544
  0
LWPOLYLINE
  5
47
330
2
100
AcDbEntity
  8
0
100
AcDbPolyline
 90
       46
 70
     0
 43
0.0
 10
-11.82224976044512
 20
20.84973654279547
 10
-12.20349093804512
 20
20.84982736839545
 10
-12.58732425164512
 20
20.84719755239545
 10
-12.97098127884512
 20
20.84163639559547
 10
-13.35134102444512
 20
20.83302148359546
 10
-13.73090619084512
 20
20.82109718919546
 10
-14.12553225964511
 20
20.80484546119545
 10
-14.55416227884511
 20
20.78236900199546
 10
-15.03333664204512
 20
20.75081612839547
 10
-15.56779056844512
 20
20.70689630919547
 10
-15.86366493164512
 20
20.67831677959544
 10
-16.15920644204512
 20
20.64647261959545
 10
-16.49353960364512
 20
20.60617391239544
 10
-16.82726040684512
 20
20.56107649639547
 10
-17.19773674764512
 20
20.50488602439544
 10
-17.56714912844512
 20
20.44206865799544
 10
-17.94177684044512
 20
20.37103542599545
 10
-18.31489168044512
 20
20.29244093319546
 10
-18.66182711404512
 20
20.21179645959545
 10
-19.00692461484512
 20
20.12363882919545
 10
-19.32298800844512
 20
20.03532002919546
 10
-19.63699239404512
 20
19.93993919079547
 10
-19.92821191724512
 20
19.84427458439545
 10
-20.21718501004512
 20
19.74203136999544
 10
-20.48655821324512
 20
19.63970829799545
 10
-20.75348307564512
 20
19.53116321479545
 10
-21.00393379244512
 20
19.42239293319546
 10
-21.25174600204512
 20
19.30774047399545
 10
-21.48672139244511
 20
19.19215581799547
 10
-21.71885655724512
 20
19.07097098279545
 10
-21.94329983404512
 20
18.94677164999545
 10
-22.16466413964512
 20
18.81716458119545
 10
-22.38409946924512
 20
18.68139859239546
 10
-22.60019496204512
 20
18.54037527399545
 10
-22.81720636524512
 20
18.39120775719545
 10
-23.03058912044512
 20
18.23689357799544
 10
-23.24506013164512
 20
18.07385691239547
 10
-23.45558877004512
 20
17.90575964039545
 10
-23.66745060684512
 20
17.72819125319544
 10
-23.87505986284512
 20
17.54566721959547
 10
-24.08441641804512
 20
17.35269877639545
 10
-24.28920693804512
 20
17.15489169799546
 10
-24.49572702124512
 20
16.94591605799546
 10
-24.69736179084512
 20
16.73221588839545
 10
-24.90044440844512
 20
16.50680824359547
 10
-25.09830595564512
 20
16.27682467399544
  0
LWPOLYLINE
  5
48
330
2
100
AcDbEntity
  8
0
100
AcDbPolyline
 90
       16
 70
     0
 43
0.0
 10
-30.81316540364512
 20
-11.10371577080454
 10
-30.81006978924512
 20
-11.15552896120453
 10
-30.80159964044512
 20
-11.20679849720454
 10
-30.78784097324512
 20
-11.25696723160454
 10
-30.76893728844512
 20
-11.30548891640454
 10
-30.74515107084512
 20
-11.35172602680454
 10
-30.71671058764512
 20
-11.39527230040454
 10
-30.68390715404512
 20
-11.43567742840454
 10
-30.64709080844512
 20
-11.47249978680454
 10
-30.60665497484512
 20
-11.50533613240453
 10
-30.56303208524512
 20
-11.53382567320454
 10
-30.51671538924512
 20
-11.55764167960454
 10
-30.46830139884512
 20
-11.57649468440453
 10
-30.41819548524512
 20
-11.59023755960454
 10
-30.36693413804512
 20
-11.59871156920454
 10
-30.31506805484512
 20
-11.60181311960454
  0
LWPOLYLINE
  5
49
330
2
100
AcDbEntity
  8
0
100
AcDbPolyline
 90
       16
 70
     0
 43
0.0
 10
-30.70189686764512
 20
-10.99244247320454
 10
-30.69898490284512
 20
-11.04447319320453
 10
-30.69067505964512
 20
-11.09590994840454
 10
-30.67706074604512
 20
-11.14619279960453
 10
-30.65829298604512
 20
-11.19477633400454
 10
-30.63457719404512
 20
-11.24113691000454
 10
-30.60617170924512
 20
-11.28477434840454
 10
-30.57338462124512
 20
-11.32521818520454
 10
-30.53657071564511
 20
-11.36203211640453
 10
-30.49612690604512
 20
-11.39481922680454
 10
-30.45248947564512
 20
-11.42322475000453
 10
-30.40612889484512
 20
-11.44694058200454
 10
-30.35754537004512
 20
-11.46570837560453
 10
-30.30726255404512
 20
-11.47932271640453
 10
-30.25582572204512
 20
-11.48763260280453
 10
-30.20379951404512
 20
-11.49054457720454
  0
LWPOLYLINE
  5
4A
330
2
100
AcDbEntity
  8
0
100
AcDbPolyline
 90
       16
 70
     0
 43
0.0
 10
-30.45286603404512
 20
-10.99245583480454
 10
-30.45150237644512
 20
-11.01856248600454
 10
-30.44742840684512
 20
-11.04436258040453
 10
-30.44068996204511
 20
-11.06957399800454
 10
-30.43136180204512
 20
-11.09392272920453
 10
-30.41954604364512
 20
-11.11714647160454
 10
-30.40537141004512
 20
-11.13899464280454
 10
-30.38899164684512
 20
-11.15923170520454
 10
-30.37058399724512
 20
-11.17763934840453
 10
-30.35034692524511
 20
-11.19401910520454
 10
-30.32849873324511
 20
-11.20819373720453
 10
-30.30527496364512
 20
-11.22000949240454
 10
-30.28092622284512
 20
-11.22933764600453
 10
-30.25571476844512
 20
-11.23607607800454
 10
-30.22991471884512
 20
-11.24015005240454
 10
-30.20380784844512
 20
-11.24151371320454
  0
LINE
  5
4B
330
2
100
AcDbEntity
  8
0
100
AcDbLine
 10
-30.81316540364512
 20
-11.10371577080454
 30
0.0
 11
-30.81316540364512
 21
23.90008953159546
 31
0.0
  0
LINE
  5
4C
330
2
100
AcDbEntity
  8
0
100
AcDbLine
 10
-30.70189684844512
 20
23.78881621479545
 30
0.0
 11
-30.70189684844512
 21
-10.99244245400454
 31
0.0
  0
LWPOLYLINE
  5
4D
330
2
100
AcDbEntity
  8
0
100
AcDbPolyline
 90
       16
 70
     0
 43
0.0
 10
-30.45286603404512
 20
23.78882959559545
 10
-30.45150237644512
 20
23.81493624679545
 10
-30.44742840684512
 20
23.84073634119546
 10
-30.44068996204511
 20
23.86594775879545
 10
-30.43136180204512
 20
23.89029648999546
 10
-30.41954604364512
 20
23.91352023239547
 10
-30.40537141004512
 20
23.93536840359546
 10
-30.38899164684512
 20
23.95560546599544
 10
-30.37058399724512
 20
23.97401310919546
 10
-30.35034692524511
 20
23.99039286599544
 10
-30.32849873324511
 20
24.00456749799547
 10
-30.30527496364512
 20
24.01638325319545
 10
-30.28092622284512
 20
24.02571140679545
 10
-30.25571476844512
 20
24.03244983879547
 10
-30.22991471884512
 20
24.03652381319547
 10
-30.20380784844512
 20
24.03788747559547
  0
LWPOLYLINE
  5
4E
330
2
100
AcDbEntity
  8
0
100
AcDbPolyline
 90
       16
 70
     0
 43
0.0
 10
-30.70189686764512
 20
23.78881623399546
 10
-30.69898490284512
 20
23.84084695399546
 10
-30.69067505964512
 20
23.89228370919546
 10
-30.67706074604512
 20
23.94256656039546
 10
-30.65829298604512
 20
23.99115009479545
 10
-30.63457719404512
 20
24.03751067079546
 10
-30.60617170924512
 20
24.08114810919546
 10
-30.57338462124512
 20
24.12159194599546
 10
-30.53657071564511
 20
24.15840587719545
 10
-30.49612690604512
 20
24.19119298919547
 10
-30.45248947564512
 20
24.21959851079545
 10
-30.40612889484512
 20
24.24331434279547
 10
-30.35754537004512
 20
24.26208213639545
 10
-30.30726255404512
 20
24.27569647719546
 10
-30.25582572204512
 20
24.28400636359545
 10
-30.20379951404512
 20
24.28691833799546
  0
LINE
  5
4F
330
2
100
AcDbEntity
  8
0
100
AcDbLine
 10
-30.45347493964512
 20
6.398186880395467
 30
0.0
 11
-30.45286603404512
 21
-10.99245583480454
 31
0.0
  0
LINE
  5
50
330
2
100
AcDbEntity
  8
0
100
AcDbLine
 10
-30.45347493964512
 20
6.398186880395467
 30
0.0
 11
-30.45286603404512
 21
23.78882959559545
 31
0.0
  0
LINE
  5
51
330
2
100
AcDbEntity
  8
0
100
AcDbLine
 10
-28.76963403084512
 20
6.679535862795443
 30
0.0
 11
-28.76963403084512
 21
5.735275832395455
 31
0.0
  0
LWPOLYLINE
  5
52
330
2
100
AcDbEntity
  8
0
100
AcDbPolyline
 90
       57
 70
     0
 43
0.0
 10
-28.87478748524512
 20
6.398186880395471
 10
-28.86820884044512
 20
6.788033701195459
 10
-28.84764785484512
 20
7.198941425995471
 10
-28.81201420684512
 20
7.629601782795461
 10
-28.76038479884512
 20
8.078111688395452
 10
-28.69206624684512
 20
8.541977944395469
 10
-28.60653889324512
 20
9.018789726795446
 10
-28.50355094284512
 20
9.50573121639546
 10
-28.38319137804512
 20
9.999437381195448
 10
-28.24587897004512
 20
10.49627953319544
 10
-28.09210058284512
 20
10.99331652359545
 10
-27.92238999884512
 20
11.48818120839546
 10
-27.73775891084512
 20
11.97769781319546
 10
-27.53942179244512
 20
12.45884097799545
 10
-27.32848983404512
 20
12.92939460519547
 10
-27.10553793644512
 20
13.38869613159546
 10
-26.87181193484512
 20
13.83488073319544
 10
-26.62864964044512
 20
14.26624108999546
 10
-26.37735457644512
 20
14.68142420999545
 10
-26.11850827884512
 20
15.08043700679546
 10
-25.85279784844512
 20
15.46315600839547
 10
-25.58104862924512
 20
15.82929641639545
 10
-25.30408532044512
 20
16.17863882759546
 10
-25.02257590444512
 20
16.51120707239546
 10
-24.73699245164512
 20
16.82726710119545
 10
-24.44779373964512
 20
17.12708390599546
 10
-24.15539016364512
 20
17.41095549159545
 10
-23.86013491724511
 20
17.67921369159545
 10
-23.56226043884512
 20
17.93226849639545
 10
-23.26163669804512
 20
18.17078408999545
 10
-22.95831505164512
 20
18.39520462279544
 10
-22.65239110924512
 20
18.60589146439546
 10
-22.34395741004512
 20
18.80317060519546
 10
-22.03294927724512
 20
18.98742571079544
 10
-21.71413609804512
 20
19.16180350439545
 10
-21.38197110284512
 20
19.32904702599545
 10
-21.03463784364512
 20
19.48946441159544
 10
-20.66997577004511
 20
19.64331767719547
 10
-20.28541313484512
 20
19.79081234279546
 10
-19.87821223564512
 20
19.93197351719546
 10
-19.44658707404512
 20
20.06627895079545
 10
-18.98848302444512
 20
20.19313659719544
 10
-18.50051825484512
 20
20.31211309479546
 10
-17.97694687564512
 20
20.42304170759546
 10
-17.41398773164512
 20
20.52493673799544
 10
-16.80589870124512
 20
20.61684346919544
 10
-16.19044078444512
 20
20.69264508519545
 10
-15.64964659404512
 20
20.74623525159545
 10
-15.17272044364512
 20
20.78405080199546
 10
-14.74926754284512
 20
20.81045121159546
 10
-14.37151447564512
 20
20.82831914119545
 10
-14.03305425484512
 20
20.83986470439545
 10
-13.72838920684512
 20
20.84684754439546
 10
-13.45295284844512
 20
20.85062817159546
 10
-13.20305395084512
 20
20.85226285159545
 10
-12.97565721804512
 20
20.85255780999544
 10
-12.76822958124512
 20
20.85210336839544
  0
LWPOLYLINE
  5
53
330
2
100
AcDbEntity
  8
0
100
AcDbPolyline
 90
       63
 70
     0
 43
0.0
 10
-28.75192273324512
 20
6.398186880395471
 10
-28.74541303244512
 20
6.783934536395449
 10
-28.72506349164512
 20
7.190806704395455
 10
-28.68977788044512
 20
7.617508134795471
 10
-28.63862833004512
 20
8.062132715595467
 10
-28.57091749804512
 20
8.522183515595472
 10
-28.48612275084512
 20
8.995247198795468
 10
-28.38399055564511
 20
9.478505265995451
 10
-28.26460904844512
 20
9.968589385995457
 10
-28.12839679564512
 20
10.46186757959544
 10
-27.97584047724512
 20
10.95539754279546
 10
-27.80747393004512
 20
11.44681272199547
 10
-27.62430960684512
 20
11.93293606119546
 10
-27.42756300204512
 20
12.41074130439547
 10
-27.21834569164512
 20
12.87801327079544
 10
-26.99723227404512
 20
13.33409428839546
 10
-26.76546906604512
 20
13.77712116999545
 10
-26.52439426284512
 20
14.20538833959547
 10
-26.27531115084511
 20
14.61754494759544
 10
-26.01879936364512
 20
15.01360358919545
 10
-25.75554379884512
 20
15.39344577479546
 10
-25.48636742604512
 20
15.75679090119545
 10
-25.21209301004512
 20
16.10342419719545
 10
-24.93338665484512
 20
16.43337344359547
 10
-24.65071510764512
 20
16.74690868199546
 10
-24.36453103724512
 20
17.04429803559544
 10
-24.07523840364512
 20
17.32584210599545
 10
-23.78318373644512
 20
17.59187479079547
 10
-23.48859244524512
 20
17.84280783719545
 10
-23.19132636044512
 20
18.07930744519545
 10
-22.89142894284512
 20
18.30181782119545
 10
-22.58898772684512
 20
18.51069987079545
 10
-22.28408720844512
 20
18.70627864039546
 10
-21.97665598764512
 20
18.88893590599546
 10
-21.66144309804512
 20
19.06183417319546
 10
-21.33288144524512
 20
19.22773097799544
 10
-20.98914464204512
 20
19.38693518599545
 10
-20.62806245964512
 20
19.53971022119544
 10
-20.24705377004512
 20
19.68626420839545
 10
-19.84337267244512
 20
19.82662664039544
 10
-19.41523001804512
 20
19.96028507239545
 10
-18.96056925004512
 20
20.08666768039545
 10
-18.47600509484512
 20
20.20537683079545
 10
-17.95578712684512
 20
20.31631640999545
 10
-17.39613575564512
 20
20.41861826439544
 10
-16.79130884844512
 20
20.51154875879545
 10
-16.17887757484512
 20
20.58924975399544
 10
-15.64056986444511
 20
20.64559665479545
 10
-15.16574636844512
 20
20.68718602279547
 10
-14.74412147724512
 20
20.71862900999546
 10
-14.36795663884512
 20
20.74310370759546
 10
-14.03078806444512
 20
20.76282644999547
 10
-13.72710261004512
 20
20.77927740519545
 10
-13.45234278924512
 20
20.79337178439546
 10
-13.20285516844512
 20
20.80559884199546
 10
-12.97566725164512
 20
20.81616913159546
 10
-12.76831413484512
 20
20.82514862279545
 10
-12.57883030444512
 20
20.83256715879547
 10
-12.40570687564512
 20
20.83847603559546
 10
-12.24754346444512
 20
20.84297683239545
 10
-12.10303721164512
 20
20.84620664199546
 10
-11.97099905164512
 20
20.84832171719544
 10
-11.85108398124512
 20
20.84953079879547
  0
LWPOLYLINE
  5
54
330
2
100
AcDbEntity
  8
0
100
AcDbPolyline
 90
       54
 70
     0
 43
0.0
 10
-23.45677752044512
 20
6.398186880395471
 10
-23.45488179884512
 20
6.296136198795451
 10
-23.44935848364511
 20
6.197752694795454
 10
-23.44051911404512
 20
6.104420913995468
 10
-23.42864647564512
 20
6.016593328395444
 10
-23.41347108044512
 20
5.931503784395445
 10
-23.39459886124512
 20
5.847207637195467
 10
-23.37218364364512
 20
5.765114369995458
 10
-23.34633468684512
 20
5.686163006795467
 10
-23.31660071884512
 20
5.609712345995461
 10
-23.28231535084512
 20
5.535069638795462
 10
-23.24335844524512
 20
5.463154800395457
 10
-23.20202315404512
 20
5.398664657995453
 10
-23.16294746604512
 20
5.347895038795456
 10
-23.12800470444512
 20
5.311205149195458
 10
-23.09302357484511
 20
5.283471421195457
 10
-23.05335382284512
 20
5.261184373195462
 10
-23.00832901804512
 20
5.24384663239546
 10
-22.95878878764512
 20
5.229782091595453
 10
-22.90468958604512
 20
5.217173222795452
 10
-22.84582322284511
 20
5.205294254795461
 10
-22.78180072204512
 20
5.193155205195452
 10
-22.71205451404512
 20
5.180212741195461
 10
-22.63588652524512
 20
5.165706333195458
 10
-22.55253400204512
 20
5.148385614795458
 10
-22.46122803404511
 20
5.126922160395452
 10
-22.36096127244512
 20
5.09991626599546
 10
-22.25023416044512
 20
5.065726006795458
 10
-22.12736073324511
 20
5.022576216395464
 10
-21.99095125484512
 20
4.968144283595464
 10
-21.84187049964512
 20
4.900480765195453
 10
-21.69461734124511
 20
4.824760761995463
 10
-21.55917020364512
 20
4.746638227595454
 10
-21.43631721164512
 20
4.66792780039546
 10
-21.32389198284512
 20
4.58840027079546
 10
-21.21988818444512
 20
4.50724074599546
 10
-21.12415917964512
 20
4.424442046795462
 10
-21.03834774764512
 20
4.341904744395463
 10
-20.96440259724512
 20
4.263625845195463
 10
-20.90182898284512
 20
4.191793297995459
 10
-20.84690501964512
 20
4.124279981195456
 10
-20.79614564844512
 20
4.058040581195456
 10
-20.74686754604512
 20
3.99012751399546
 10
-20.69843794284512
 20
3.919909214795453
 10
-20.65089282924512
 20
3.847683384395452
 10
-20.60448081804512
 20
3.774140541195464
 10
-20.55871584364512
 20
3.698834310795461
 10
-20.51132917004512
 20
3.618280737995462
 10
-20.45977900524512
 20
3.528287739595455
 10
-20.40187183404512
 20
3.425187198795455
 10
-20.33705733804512
 20
3.308336897995459
 10
-20.26485982284512
 20
3.177256065995464
 10
-20.18279903084512
 20
3.027264453195456
 10
-20.08644529324512
 20
2.847344539595454
  0
LWPOLYLINE
  5
55
330
2
100
AcDbEntity
  8
0
100
AcDbPolyline
 90
        5
 70
     0
 43
0.0
 10
-24.11147829324512
 20
6.398186880395471
 10
-24.10086010124512
 20
5.626718808395452
 10
-24.06701597164512
 20
4.84348568359546
 10
-24.00557976524512
 20
4.038744033995456
 10
-23.91367015084512
 20
3.231376958795465
  0
LWPOLYLINE
  5
56
330
2
100
AcDbEntity
  8
0
100
AcDbPolyline
 90
        5
 70
     0
 43
0.0
 10
-24.11147829324512
 20
6.398186880395471
 10
-24.10086010124512
 20
7.169654952395447
 10
-24.06701597164512
 20
7.952888077195453
 10
-24.00557976524512
 20
8.757629726795457
 10
-23.91367015084512
 20
9.564996801995462
  0
LWPOLYLINE
  5
57
330
2
100
AcDbEntity
  8
0
100
AcDbPolyline
 90
       54
 70
     0
 43
0.0
 10
-23.45677752044512
 20
6.398186880395471
 10
-23.45488179884512
 20
6.500237561995461
 10
-23.44935848364511
 20
6.598621065995459
 10
-23.44051911404512
 20
6.691952846795444
 10
-23.42864647564512
 20
6.779780432395469
 10
-23.41347108044512
 20
6.864869976395468
 10
-23.39459886124512
 20
6.949166123595446
 10
-23.37218364364512
 20
7.031259390795455
 10
-23.34633468684512
 20
7.110210753995445
 10
-23.31660071884512
 20
7.186661414795466
 10
-23.28231535084512
 20
7.261304121995451
 10
-23.24335844524512
 20
7.333218960395456
 10
-23.20202315404512
 20
7.397709104395445
 10
-23.16294746604512
 20
7.448478721995471
 10
-23.12800470444512
 20
7.485168611595454
 10
-23.09302357484511
 20
7.51290233959547
 10
-23.05335382284512
 20
7.535189387595451
 10
-23.00832901804512
 20
7.552527128395453
 10
-22.95878878764512
 20
7.56659166919546
 10
-22.90468958604512
 20
7.579200537995447
 10
-22.84582322284511
 20
7.591079507595466
 10
-22.78180072204512
 20
7.603218555595461
 10
-22.71205451404512
 20
7.616161019595452
 10
-22.63588652524512
 20
7.630667427595469
 10
-22.55253400204512
 20
7.647988145995455
 10
-22.46122803404511
 20
7.669451600395447
 10
-22.36096127244512
 20
7.696457494795467
 10
-22.25023416044512
 20
7.730647753995455
 10
-22.12736073324511
 20
7.773797544395463
 10
-21.99095125484512
 20
7.828229477195449
 10
-21.84187049964512
 20
7.895892997195446
 10
-21.69461734124511
 20
7.971612998795464
 10
-21.55917020364512
 20
8.049735533195459
 10
-21.43631721164512
 20
8.128445960395467
 10
-21.32389198284512
 20
8.207973489995467
 10
-21.21988818444512
 20
8.289133014795467
 10
-21.12415917964512
 20
8.371931715595465
 10
-21.03834774764512
 20
8.454469016395464
 10
-20.96440259724512
 20
8.532747915595464
 10
-20.90182898284512
 20
8.604580462795453
 10
-20.84690501964512
 20
8.672093779595471
 10
-20.79614564844512
 20
8.738333179595471
 10
-20.74686754604512
 20
8.806246246795453
 10
-20.69843794284512
 20
8.87646454599546
 10
-20.65089282924512
 20
8.948690376395447
 10
-20.60448081804512
 20
9.022233219595463
 10
-20.55871584364512
 20
9.097539449995466
 10
-20.51132917004512
 20
9.178093022795465
 10
-20.45977900524512
 20
9.268086021195458
 10
-20.40187183404512
 20
9.371186561995457
 10
-20.33705733804512
 20
9.488036862795453
 10
-20.26485982284512
 20
9.619117694795463
 10
-20.18279903084512
 20
9.769109307595456
 10
-20.08644529324512
 20
9.949029221195459
  0
LWPOLYLINE
  5
58
330
2
100
AcDbEntity
  8
0
100
AcDbPolyline
 90
        4
 70
     0
 43
0.0
 10
-22.70638698604512
 20
-1.048933222004535
 10
-22.54201857964512
 20
-1.377168017204539
 10
-22.34449456204512
 20
-1.738431300404542
 10
-22.11786501644512
 20
-2.115449780404546
  0
LWPOLYLINE
  5
59
330
2
100
AcDbEntity
  8
0
100
AcDbPolyline
 90
        8
 70
     0
 43
0.0
 10
-22.70638698604512
 20
-1.048933222004535
 10
-22.92621684364512
 20
-0.560645449204543
 10
-23.13208371884512
 20
-0.0391278940045368
 10
-23.32286959724512
 20
0.5185082995954531
 10
-23.49763992044512
 20
1.117016593995458
 10
-23.65548970764512
 20
1.763382457995462
 10
-23.79491783884512
 20
2.465389291595457
 10
-23.91367015084512
 20
3.231376958795465
  0
LWPOLYLINE
  5
5A
330
2
100
AcDbEntity
  8
0
100
AcDbPolyline
 90
       21
 70
     0
 43
0.0
 10
-21.08579281004512
 20
6.398186883595471
 10
-21.08547435884512
 20
6.456997725195449
 10
-21.08455061164512
 20
6.515610737995459
 10
-21.08304015724512
 20
6.574015017995449
 10
-21.08096065964512
 20
6.632206939595462
 10
-21.07832609164512
 20
6.690211977995446
 10
-21.07514950284512
 20
6.748062881995466
 10
-21.07144369164512
 20
6.805786280395452
 10
-21.06722045004512
 20
6.863384312395467
 10
-21.06249132364511
 20
6.920852993995467
 10
-21.05726731884512
 20
6.978190920395448
 10
-21.05155729644512
 20
7.035407009995466
 10
-21.04536957804512
 20
7.09251275879545
 10
-21.03520950924512
 20
7.177985808395462
 10
-21.02401531564512
 20
7.26325224679546
 10
-21.01180837484512
 20
7.348326453195468
 10
-20.99860773004512
 20
7.43321714119547
 10
-20.98443016204512
 20
7.51793606439547
 10
-20.96928572844512
 20
7.60251276039547
 10
-20.95318339404511
 20
7.686970829195459
 10
-20.93613449164512
 20
7.77129232039546
  0
LWPOLYLINE
  5
5B
330
2
100
AcDbEntity
  8
0
100
AcDbPolyline
 90
       26
 70
     0
 43
0.0
 10
-20.93613449164512
 20
7.77129232039546
 10
-20.92949192044512
 20
7.802932115595453
 10
-20.92252700364512
 20
7.835368840395446
 10
-20.91517815724512
 20
7.86867625639546
 10
-20.90738379564512
 20
7.902928121995458
 10
-20.89908233324512
 20
7.938198200395461
 10
-20.89022580364512
 20
7.974504883595457
 10
-20.88082070764512
 20
8.011645086795468
 10
-20.87088717164512
 20
8.049360360395453
 10
-20.86044531244512
 20
8.08739224839546
 10
-20.84951525484512
 20
8.125482302795447
 10
-20.83517965484511
 20
8.172872131595468
 10
-20.82004907084512
 20
8.219979441995448
 10
-20.80952009164512
 20
8.251168749195457
 10
-20.79877755244512
 20
8.28181318439546
 10
-20.78798949484512
 20
8.311479912395455
 10
-20.77726956044512
 20
8.33988403399546
 10
-20.76651382124512
 20
8.367332398795454
 10
-20.75556395564512
 20
8.394279793995465
 10
-20.73847799724512
 20
8.434589862795448
 10
-20.72035962924512
 20
8.47533160999545
 10
-20.70101821324512
 20
8.516955313995467
 10
-20.68045817324512
 20
8.559569973195451
 10
-20.65873269484512
 20
8.603199270795457
 10
-20.63589496524512
 20
8.647866888395455
 10
-20.61685806284512
 20
8.684376296395456
  0
LWPOLYLINE
  5
5C
330
2
100
AcDbEntity
  8
0
100
AcDbPolyline
 90
       19
 70
     0
 43
0.0
 10
-20.06875501324512
 20
9.980620523595447
 10
-20.05261905804512
 20
10.04967791079546
 10
-20.03627067244512
 20
10.11791020839545
 10
-20.01971765644512
 20
10.18531545159545
 10
-20.00296781004512
 20
10.25189167559544
 10
-19.98602893484512
 20
10.31763691559545
 10
-19.96890882924512
 20
10.38254920999544
 10
-19.95161463404512
 20
10.44662895399547
 10
-19.93415084364512
 20
10.50988598279546
 10
-19.91652128844512
 20
10.57233249319544
 10
-19.89872980364512
 20
10.63398068199545
 10
-19.88078021804512
 20
10.69484274599544
 10
-19.86267636684512
 20
10.75493088039546
 10
-19.84442268204512
 20
10.81425507399545
 10
-19.82602599564512
 20
10.87281647399545
 10
-19.80749374444512
 20
10.93061401799546
 10
-19.78883335884512
 20
10.98764664519545
 10
-19.77005227564512
 20
11.04391329319544
 10
-19.75115792684512
 20
11.09941290279546
  0
LWPOLYLINE
  5
5D
330
2
100
AcDbEntity
  8
0
100
AcDbPolyline
 90
        8
 70
     0
 43
0.0
 10
-22.70638698604512
 20
13.84530698279546
 10
-22.92621684364512
 20
13.35701921159547
 10
-23.13208371884512
 20
12.83550165479546
 10
-23.32286959724512
 20
12.27786546119544
 10
-23.49763992044512
 20
11.67935716679546
 10
-23.65548970764512
 20
11.03299130279545
 10
-23.79491783884512
 20
10.33098446919545
 10
-23.91367015084512
 20
9.564996801995462
  0
LWPOLYLINE
  5
5E
330
2
100
AcDbEntity
  8
0
100
AcDbPolyline
 90
        4
 70
     0
 43
0.0
 10
-22.70638698604512
 20
13.84530698279546
 10
-22.54201857964512
 20
14.17354177799545
 10
-22.34449456204512
 20
14.53480506119545
 10
-22.11786501644512
 20
14.91182354119546
  0
LINE
  5
5F
330
2
100
AcDbEntity
  8
0
100
AcDbLine
 10
-20.47887587244512
 20
3.854310109195449
 30
0.0
 11
-20.57769291244512
 21
4.038238331595461
 31
0.0
  0
LWPOLYLINE
  5
60
330
2
100
AcDbEntity
  8
0
100
AcDbPolyline
 90
       25
 70
     0
 43
0.0
 10
-20.57769291244512
 20
4.038238331595465
 10
-20.61775740044512
 20
4.113712299595462
 10
-20.63679824684512
 20
4.150254046795453
 10
-20.65963076684512
 20
4.194950670795464
 10
-20.68134441324512
 20
4.238607029195463
 10
-20.70189208844511
 20
4.281260771595455
 10
-20.72122669164512
 20
4.322949545995456
 10
-20.73934717804512
 20
4.363789544395459
 10
-20.75643672204512
 20
4.40421114119546
 10
-20.76738590924512
 20
4.431230273995453
 10
-20.77814092684512
 20
4.458755611595464
 10
-20.78886392044512
 20
4.487253128395451
 10
-20.79966096364512
 20
4.517036261195457
 10
-20.81041384844512
 20
4.547808301195459
 10
-20.82094829644512
 20
4.579120001995462
 10
-20.83606345164512
 20
4.626350969995456
 10
-20.85033255884512
 20
4.673674846795464
 10
-20.86378624044512
 20
4.720937544395454
 10
-20.87642734924512
 20
4.767810707595458
 10
-20.88825179724512
 20
4.813922406795455
 10
-20.89925549164512
 20
4.858900717195453
 10
-20.90945237164512
 20
4.902452465995452
 10
-20.91892847084512
 20
4.944599499595454
 10
-20.92778784844512
 20
4.985442413195457
 10
-20.93613456844511
 20
5.025081806795455
  0
LWPOLYLINE
  5
61
330
2
100
AcDbEntity
  8
0
100
AcDbPolyline
 90
       19
 70
     0
 43
0.0
 10
-19.75120701164512
 20
1.697103633995453
 10
-19.77009833964512
 20
1.752597059595458
 10
-19.78887642284512
 20
1.808857325195461
 10
-19.80753383404512
 20
1.865883368395458
 10
-19.82606314124512
 20
1.923674131595461
 10
-19.84445691564512
 20
1.982228550795454
 10
-19.86270772684512
 20
2.041545563595462
 10
-19.88080874444512
 20
2.101626320395453
 10
-19.89875553484512
 20
2.162480803595457
 10
-19.91654426444512
 20
2.224121203595458
 10
-19.93417110124512
 20
2.286559713995458
 10
-19.95163221324512
 20
2.349808523595456
 10
-19.96892376524512
 20
2.413879827595465
 10
-19.98604126284512
 20
2.478783454795461
 10
-20.00297757644512
 20
2.544519803595463
 10
-20.01972491084512
 20
2.611086907595463
 10
-20.03627547404512
 20
2.678482803595457
 10
-20.05262147244512
 20
2.746705528395452
 10
-20.06875511244512
 20
2.815753115595455
  0
LWPOLYLINE
  5
62
330
2
100
AcDbEntity
  8
0
100
AcDbPolyline
 90
       90
 70
     0
 43
0.0
 10
-20.08644346124512
 20
2.847340985995458
 10
-20.04800435724511
 20
2.689051134795462
 10
-20.00743948844512
 20
2.531253141195463
 10
-19.96476915564512
 20
2.374304601995461
 10
-19.92002493004512
 20
2.218552281995457
 10
-19.87326737644512
 20
2.064386656395456
 10
-19.82480649324512
 20
1.912896646795459
 10
-19.77515970764512
 20
1.765566057995457
 10
-19.72458489804512
 20
1.622876664395462
 10
-19.67310333964512
 20
1.484584560395461
 10
-19.62073484844512
 20
1.350466792395465
 10
-19.56750377644512
 20
1.220333389195459
 10
-19.51342898124512
 20
1.093998411595464
 10
-19.45852513964512
 20
0.9712828931954646
 10
-19.40280334444512
 20
0.8520155491954568
 10
-19.34627139404512
 20
0.7360327075954558
 10
-19.28893383724512
 20
0.6231778803954598
 10
-19.23079125804512
 20
0.5132998499954624
 10
-19.17184034924512
 20
0.4062526227954635
 10
-19.11207300044512
 20
0.3018942147954533
 10
-19.05145321804512
 20
0.2000476579954551
 10
-18.98993473964512
 20
0.1005336995954593
 10
-18.92748548844512
 20
0.0032094387954515
 10
-18.86408961644512
 20
-0.0920299324045431
 10
-18.79972401004512
 20
-0.1852912524045393
 10
-18.73435709004512
 20
-0.2766840140045446
 10
-18.66794858924512
 20
-0.3663197436045351
 10
-18.60044845644512
 20
-0.4543125948045344
 10
-18.53179516364512
 20
-0.5407804012045432
 10
-18.46191530284512
 20
-0.6258439452045366
 10
-18.39072071244512
 20
-0.7096292908045428
 10
-18.31810701324512
 20
-0.7922674012045406
 10
-18.24396518444512
 20
-0.8738812428045434
 10
-18.16812922444512
 20
-0.9546394188045468
 10
-18.09025438924512
 20
-1.034875377204542
 10
-18.00998449644512
 20
-1.114903889204541
 10
-17.92707897484512
 20
-1.194892209204539
 10
-17.84132599404512
 20
-1.274964065204542
 10
-17.75228878124512
 20
-1.355419698804539
 10
-17.65799370124512
 20
-1.437856761204542
 10
-17.55562012844512
 20
-1.524448215604536
 10
-17.44316621644512
 20
-1.616520194804536
 10
-17.31992778444512
 20
-1.714249895604538
 10
-17.18879926924512
 20
-1.815091518004535
 10
-17.06410903564512
 20
-1.908371738804547
 10
-16.95430513164512
 20
-1.988655142004546
 10
-16.85532606764512
 20
-2.059674961204535
 10
-16.76377043084512
 20
-2.124317878004546
 10
-16.67787113804512
 20
-2.184107303604534
 10
-16.59640925164512
 20
-2.240079233204539
 10
-16.51855617324512
 20
-2.292937327604548
 10
-16.44370033804512
 20
-2.343197327604542
 10
-16.37137982444512
 20
-2.391246980404545
 10
-16.30123877324512
 20
-2.43738441720454
 10
-16.23301179244512
 20
-2.481834186804547
 10
-16.16646114764512
 20
-2.524793766004535
 10
-16.10171438444512
 20
-2.566216274804546
 10
-16.03873903244512
 20
-2.606152590004541
 10
-15.97651079404512
 20
-2.645259172404536
 10
-15.91371755084512
 20
-2.684348806004535
 10
-15.84985624524512
 20
-2.723701783604539
 10
-15.78491304044512
 20
-2.763289786804534
 10
-15.71878842444512
 20
-2.803134671604539
 10
-15.65138164684512
 20
-2.843255790004548
 10
-15.58258784044512
 20
-2.883671236404538
 10
-15.51229218764512
 20
-2.924400802804541
 10
-15.44037452524512
 20
-2.96546266200454
 10
-15.36670474604512
 20
-3.006875394804538
 10
-15.29114366764512
 20
-3.048656745204539
 10
-15.21353584204512
 20
-3.090826665204545
 10
-15.13372073804512
 20
-3.133400334004548
 10
-15.05150241964512
 20
-3.176402652404547
 10
-14.96644482924511
 20
-3.219971430004534
 10
-14.87820542764512
 20
-3.264180191604538
 10
-14.78662128684512
 20
-3.309003009204545
 10
-14.69136010444512
 20
-3.354483193204544
 10
-14.59202647084512
 20
-3.400674641204545
 10
-14.48817568524512
 20
-3.447630345204544
 10
-14.37927707404512
 20
-3.495413777204547
 10
-14.26470949324512
 20
-3.544093289204539
 10
-14.14371057324512
 20
-3.59375412760454
 10
-14.01540875564512
 20
-3.644472622004542
 10
-13.87833880364512
 20
-3.696485046004539
 10
-13.73219192524512
 20
-3.749515711604544
 10
-13.58059682284512
 20
-3.801936918004543
 10
-13.42680003564512
 20
-3.852493449204544
 10
-13.27092453484512
 20
-3.901104751604535
 10
-13.11258393164512
 20
-3.947850002804543
 10
-12.95154486444512
 20
-3.992746866804537
 10
-12.78756557644512
 20
-4.035805718004539
  0
LWPOLYLINE
  5
63
330
2
100
AcDbEntity
  8
0
100
AcDbPolyline
 90
       21
 70
     0
 43
0.0
 10
-20.06875511244512
 20
2.815753115595455
 10
-20.08708162764512
 20
2.891313163595455
 10
-20.10710287564512
 20
2.966568006795455
 10
-20.12870852204512
 20
3.041178593995454
 10
-20.14592127404512
 20
3.09660419559546
 10
-20.16412740844512
 20
3.151900129995453
 10
-20.18349114924512
 20
3.207489843595453
 10
-20.20417671884512
 20
3.263796779595452
 10
-20.22629504684512
 20
3.321093363595451
 10
-20.24974389964512
 20
3.379047950795452
 10
-20.26607276044511
 20
3.417891353995457
 10
-20.28308125484512
 20
3.457148518795463
 10
-20.30092679244512
 20
3.49715528039546
 10
-20.31970198924512
 20
3.538110845195461
 10
-20.33924026444512
 20
3.579667897995463
 10
-20.35931024364512
 20
3.621342493195456
 10
-20.37967786444512
 20
3.662672403595465
 10
-20.40009831084512
 20
3.703282261195454
 10
-20.42032408044512
 20
3.742818417995465
 10
-20.44016387564512
 20
3.781033219595457
 10
-20.47887587244512
 20
3.854310109195452
  0
LWPOLYLINE
  5
64
330
2
100
AcDbEntity
  8
0
100
AcDbPolyline
 90
       22
 70
     0
 43
0.0
 10
-20.93613456844511
 20
5.025081806795455
 10
-20.95313342444512
 20
5.109149793995456
 10
-20.96916666444512
 20
5.193217157195462
 10
-20.98422529004512
 20
5.277252905995453
 10
-20.99831774444512
 20
5.361361894795464
 10
-21.01145256844512
 20
5.445670864395452
 10
-21.02362125964512
 20
5.530258277195457
 10
-21.03119021324512
 20
5.58683817959546
 10
-21.03831753964512
 20
5.64359592839547
 10
-21.04499667884512
 20
5.70055610599546
 10
-21.05121995564512
 20
5.757737390795469
 10
-21.05697525164512
 20
5.815134832395457
 10
-21.06224933964512
 20
5.872737569995464
 10
-21.06702886284512
 20
5.930532969995468
 10
-21.07129994924512
 20
5.988501296395455
 10
-21.07504860044512
 20
6.046621040395464
 10
-21.07826090764512
 20
6.104874821195451
 10
-21.08092333484512
 20
6.163261769995457
 10
-21.08302243564512
 20
6.221785141195468
 10
-21.08454429964512
 20
6.280447473995465
 10
-21.08547316684512
 20
6.339248411595448
 10
-21.08579281004512
 20
6.398186883595471
  0
LWPOLYLINE
  5
65
330
2
100
AcDbEntity
  8
0
100
AcDbPolyline
 90
       81
 70
     0
 43
0.0
 10
-19.75115791084512
 20
11.09941289799546
 10
-19.68825351724512
 20
11.27680208839545
 10
-19.62168322764512
 20
11.45326020199546
 10
-19.55123689004512
 20
11.62876174599544
 10
-19.47683105004512
 20
11.80295160199544
 10
-19.39840386444512
 20
11.97542657639546
 10
-19.31585328364512
 20
12.14592082119544
 10
-19.22909350604512
 20
12.31416764839546
 10
-19.13814394444512
 20
12.47975970279544
 10
-19.04304601164512
 20
12.64228895399544
 10
-18.94382390284512
 20
12.80148533479545
 10
-18.87541609644512
 20
12.90562730439545
 10
-18.80531996524512
 20
13.00798735239546
 10
-18.73367130924512
 20
13.10836953639547
 10
-18.66058748204512
 20
13.20661789639545
 10
-18.58611205004512
 20
13.30273643559546
 10
-18.51027013324512
 20
13.39676914119546
 10
-18.43300745964512
 20
13.48883608999544
 10
-18.35395220844512
 20
13.57936170439545
 10
-18.27265316844512
 20
13.66884650119546
 10
-18.18869671724512
 20
13.75772731239546
 10
-18.10181958604512
 20
13.84618626439545
 10
-18.01179609644512
 20
13.93434180039547
 10
-17.91851228684512
 20
14.02222385639545
 10
-17.82230108364512
 20
14.10950830599544
 10
-17.72360713004512
 20
14.19578251399546
 10
-17.62306111244512
 20
14.28055964359545
 10
-17.52203788364512
 20
14.36305606599545
 10
-17.42209833324512
 20
14.44241395399545
 10
-17.32458421644512
 20
14.51794346919546
 10
-17.22996072044512
 20
14.58962674119546
 10
-17.13847388844512
 20
14.65761389159546
 10
-17.05031584044512
 20
14.72206623559545
 10
-16.96546297484512
 20
14.78318988519545
 10
-16.88383775884512
 20
14.84120214919546
 10
-16.80533752204512
 20
14.89632536359546
 10
-16.72975905004512
 20
14.94880195879547
 10
-16.65687398764512
 20
14.99887939079546
 10
-16.58645168844512
 20
15.04679894919546
 10
-16.51825235084512
 20
15.09277723719544
 10
-16.45203388204512
 20
15.13702469159547
 10
-16.35588369164512
 20
15.20060188359546
 10
-16.26278648204512
 20
15.26141436039544
 10
-16.17188172204512
 20
15.32010589159544
 10
-16.08230382124512
 20
15.37727058439544
 10
-15.90359332204512
 20
15.48924699559545
 10
-15.81264804844511
 20
15.54506722279545
 10
-15.71949554604512
 20
15.60135343399547
 10
-15.62329257484512
 20
15.65849546119547
 10
-15.52314989964512
 20
15.71685616199546
 10
-15.45376383564511
 20
15.75660578439546
 10
-15.38201508044512
 20
15.79709834919545
 10
-15.30769225164512
 20
15.83837689319544
 10
-15.23058892364512
 20
15.88047618439544
 10
-15.15051850924512
 20
15.92339793159545
 10
-15.06729938284512
 20
15.96713557479545
 10
-14.98073369484512
 20
16.01168565639547
 10
-14.89055871884512
 20
16.05705712679547
 10
-14.79649550284512
 20
16.10326203719544
 10
-14.69825144204512
 20
16.15030956199545
 10
-14.59547929004512
 20
16.19819736359547
 10
-14.48781814124512
 20
16.24692022599545
 10
-14.40364759564512
 20
16.28400129159546
 10
-14.31637668364512
 20
16.32151123879545
 10
-14.22585810924512
 20
16.35941215719545
 10
-14.13194457324512
 20
16.39766614279547
 10
-14.03450567244512
 20
16.43622528679544
 10
-13.93347856044512
 20
16.47500169159546
 10
-13.82881728684512
 20
16.51389746119547
 10
-13.72047589804512
 20
16.55281469639545
 10
-13.60840491084512
 20
16.59165519399546
 10
-13.49254071724512
 20
16.63031951079544
 10
-13.37281617644512
 20
16.66870789959544
 10
-13.24916414764512
 20
16.70672060999545
 10
-13.12157020204512
 20
16.74424612199546
 10
-12.99023075084512
 20
16.78112584679546
 10
-12.85539491884512
 20
16.81718942279546
 10
-12.71731182604512
 20
16.85226648999547
 10
-12.55791485484512
 20
16.89046921159546
 10
-12.39527385004512
 20
16.92702638279546
 10
-12.22996381164512
 20
16.96176607559546
  0
LWPOLYLINE
  5
66
330
2
100
AcDbEntity
  8
0
100
AcDbPolyline
 90
       20
 70
     0
 43
0.0
 10
-20.43944332044512
 20
9.016719067595445
 10
-20.41961744044512
 20
9.054925921995462
 10
-20.39939601484512
 20
9.094476061195464
 10
-20.37897364364512
 20
9.135116000395456
 10
-20.35860262924511
 20
9.17648341799547
 10
-20.33853273324512
 20
9.218193217995448
 10
-20.31900353484512
 20
9.259769182795466
 10
-20.30025206924512
 20
9.300712315595447
 10
-20.28244844844512
 20
9.340665022795448
 10
-20.26549509004512
 20
9.379835310795456
 10
-20.24922748684512
 20
9.418572584395448
 10
-20.22586929324512
 20
9.476357454795461
 10
-20.20383239084512
 20
9.533492649995466
 10
-20.18321377804512
 20
9.589662571595468
 10
-20.16390448684512
 20
9.645135472395466
 10
-20.14574405964512
 20
9.700325563595455
 10
-20.12857204204512
 20
9.75564705959546
 10
-20.10701754604512
 20
9.830110470795446
 10
-20.08704264364511
 20
9.905212185995466
 10
-20.06875501324512
 20
9.980620523595447
  0
LINE
  5
67
330
2
100
AcDbEntity
  8
0
100
AcDbLine
 10
-20.47811101164512
 20
8.943498896395464
 30
0.0
 11
-20.43944332044512
 21
9.016719067595442
 31
0.0
  0
LINE
  5
68
330
2
100
AcDbEntity
  8
0
100
AcDbLine
 10
-20.61685806284512
 20
8.684376296395452
 30
0.0
 11
-20.57682043084512
 21
8.759766054795459
 31
0.0
  0
LINE
  5
69
330
2
100
AcDbEntity
  8
0
100
AcDbLine
 10
-20.57682043084512
 20
8.759766054795459
 30
0.0
 11
-20.47811101164512
 21
8.943498896395464
 31
0.0
  0
LWPOLYLINE
  5
6A
330
2
100
AcDbEntity
  8
0
100
AcDbPolyline
 90
       13
 70
     0
 43
0.0
 10
-17.24944723404512
 20
-6.195303343604535
 10
-17.82192968684512
 20
-5.919914924404537
 10
-18.36773433484512
 20
-5.625600183604547
 10
-18.87682808844512
 20
-5.31979209400454
 10
-19.34792891724512
 20
-5.005537172404544
 10
-19.78206129964512
 20
-4.684673167604543
 10
-20.18125884684512
 20
-4.35824607160454
 10
-20.55283855084512
 20
-4.022186436404538
 10
-20.90427233644512
 20
-3.671175273204539
 10
-21.23701681164511
 20
-3.304563639604538
 10
-21.54971843884512
 20
-2.923715282804536
 10
-21.84284409324511
 20
-2.528063377204546
 10
-22.11786501644512
 20
-2.115449780404546
  0
LWPOLYLINE
  5
6B
330
2
100
AcDbEntity
  8
0
100
AcDbPolyline
 90
       43
 70
     0
 43
0.0
 10
-17.26993076684512
 20
-3.599383119604539
 10
-17.19151624524512
 20
-3.643835030004538
 10
-17.11030020044512
 20
-3.689198945204537
 10
-17.02629291564512
 20
-3.735407537204537
 10
-16.93950466604512
 20
-3.782393476404536
 10
-16.84991885804512
 20
-3.830101082804546
 10
-16.75741140204512
 20
-3.878521276404541
 10
-16.66183133644512
 20
-3.927656626804548
 10
-16.56302769484512
 20
-3.977509705204539
 10
-16.46085750924512
 20
-4.028075447604535
 10
-16.35520979564512
 20
-4.079318255604547
 10
-16.24598156204512
 20
-4.131194894004536
 10
-16.13306981644512
 20
-4.183662130804535
 10
-16.03999857004512
 20
-4.226037177204545
 10
-15.94432814124512
 20
-4.268770874804545
 10
-15.84588271084512
 20
-4.31187155800454
 10
-15.74448646284512
 20
-4.355347567604539
 10
-15.63996357324512
 20
-4.399207238004535
 10
-15.55039423244512
 20
-4.436035578804535
 10
-15.45871968844512
 20
-4.473018121204546
 10
-15.36512810604512
 20
-4.510036846004538
 10
-15.26975401484512
 20
-4.546993543604543
 10
-15.17251736204512
 20
-4.583869250804539
 10
-15.07328445484512
 20
-4.620664815604541
 10
-14.95150724044512
 20
-4.664678068404541
 10
-14.82718531564512
 20
-4.708357617204541
 10
-14.70084109804512
 20
-4.751483948404541
 10
-14.57299700684512
 20
-4.793837542004538
 10
-14.44417545484512
 20
-4.835198881204547
 10
-14.22837039244512
 20
-4.901493462004538
 10
-14.01162436844511
 20
-4.964367185204537
 10
-13.79426042924512
 20
-5.023765222004541
 10
-13.57660957484512
 20
-5.079633711604543
 10
-13.35903464044512
 20
-5.131922668404541
 10
-13.14190641484512
 20
-5.180583070004544
 10
-12.97959560684512
 20
-5.214670775604545
 10
-12.81801598124512
 20
-5.246687961204543
 10
-12.65743887724512
 20
-5.276632745204537
 10
-12.49813563084511
 20
-5.304503242804543
 10
-12.34032401324512
 20
-5.330309169204539
 10
-12.18400751564512
 20
-5.354106633204537
 10
-12.02913606124512
 20
-5.375963342004538
 10
-11.87565957164512
 20
-5.395946998004546
  0
LWPOLYLINE
  5
6C
330
2
100
AcDbEntity
  8
0
100
AcDbPolyline
 90
        6
 70
     0
 43
0.0
 10
24.32916389235487
 20
-7.231863348404544
 10
24.95592037075488
 20
-7.09709522840454
 10
25.55605599955487
 20
-6.942933940404543
 10
26.13187382035488
 20
-6.770123313204535
 10
26.68503597875488
 20
-6.579442615604534
 10
27.21777658835488
 20
-6.371105791604534
  0
LWPOLYLINE
  5
6D
330
2
100
AcDbEntity
  8
0
100
AcDbPolyline
 90
        9
 70
     0
 43
0.0
 10
24.32916389235487
 20
-7.231863348404544
 10
24.26037419315487
 20
-7.24513769560454
 10
24.18613865875487
 20
-7.259091628404547
 10
24.10440123795487
 20
-7.274060134004542
 10
24.01248831315487
 20
-7.290400185204546
 10
23.91023956755488
 20
-7.30797088760454
 10
23.80224101395488
 20
-7.325841954804545
 10
23.69606677715488
 20
-7.342729289204541
 10
23.59387789555488
 20
-7.358351545204541
  0
LINE
  5
6E
330
2
100
AcDbEntity
  8
0
100
AcDbLine
 10
40.68873724755488
 20
-11.60181311960454
 30
0.0
 11
-30.31506805484512
 21
-11.60181311960454
 31
0.0
  0
LINE
  5
6F
330
2
100
AcDbEntity
  8
0
100
AcDbLine
 10
40.57746870515487
 20
-11.49054457720454
 30
0.0
 11
5.186834596354872
 21
-11.49120310840455
 31
0.0
  0
LINE
  5
70
330
2
100
AcDbEntity
  8
0
100
AcDbLine
 10
-30.20379951404512
 20
-11.49054457720454
 30
0.0
 11
5.186834596354872
 21
-11.49120310840455
 31
0.0
  0
LWPOLYLINE
  5
71
330
2
100
AcDbEntity
  8
0
100
AcDbPolyline
 90
        5
 70
     0
 43
0.0
 10
-30.20380784844512
 20
-11.24151371320454
 10
-22.32221505004512
 20
-11.24109842200454
 10
-13.82568433004512
 20
-11.23878339800454
 10
-4.696545802045122
 20
-11.23574283640454
 10
5.18683459635487
 20
-11.23408131320454
  0
LWPOLYLINE
  5
72
330
2
100
AcDbEntity
  8
0
100
AcDbPolyline
 90
        5
 70
     0
 43
0.0
 10
40.57747703955487
 20
-11.24151371320454
 10
32.69588003155488
 20
-11.24109842200454
 10
24.19934445875488
 20
-11.23878339480454
 10
15.07020033075487
 20
-11.23574283160454
 10
5.18683459635487
 20
-11.23408131320454
  0
LWPOLYLINE
  5
73
330
2
100
AcDbEntity
  8
0
100
AcDbPolyline
 90
        9
 70
     0
 43
0.0
 10
-13.95549470124512
 20
-7.231863348404544
 10
-13.88670500204512
 20
-7.24513769560454
 10
-13.81246946764512
 20
-7.259091628404547
 10
-13.73073204684511
 20
-7.274060134004542
 10
-13.63881912044512
 20
-7.290400185204546
 10
-13.53657037484512
 20
-7.30797088760454
 10
-13.42857182284512
 20
-7.325841954804545
 10
-13.32239758604512
 20
-7.342729289204541
 10
-13.22020870444512
 20
-7.358351545204541
  0
LWPOLYLINE
  5
74
330
2
100
AcDbEntity
  8
0
100
AcDbPolyline
 90
        6
 70
     0
 43
0.0
 10
-13.95549470124512
 20
-7.231863348404544
 10
-14.58225117964512
 20
-7.09709522840454
 10
-15.18238680844512
 20
-6.942933940404543
 10
-15.75820462924512
 20
-6.770123313204535
 10
-16.31136678764512
 20
-6.579442615604534
 10
-16.84410739724512
 20
-6.371105791604534
  0
LWPOLYLINE
  5
75
330
2
100
AcDbEntity
  8
0
100
AcDbPolyline
 90
       31
 70
     0
 43
0.0
 10
-13.60567175084512
 20
-6.00073131960454
 10
-13.74754831564512
 20
-5.949513102004544
 10
-13.88884641964511
 20
-5.895850119604546
 10
-14.02953584044512
 20
-5.83973649240454
 10
-14.16957906124512
 20
-5.781170018804544
 10
-14.30890937804512
 20
-5.72016318360454
 10
-14.44745278764512
 20
-5.656732153204544
 10
-14.58513720044512
 20
-5.590893767604541
 10
-14.72189816524512
 20
-5.522667593204545
 10
-14.85767314764512
 20
-5.452073870004539
 10
-14.99239866764511
 20
-5.379134284404543
 10
-15.12600748364512
 20
-5.303876289204538
 10
-15.25843140844512
 20
-5.226328778804543
 10
-15.38958073324512
 20
-5.146538310004544
 10
-15.51927962924511
 20
-5.064622066804545
 10
-15.64733074444512
 20
-4.980714900404535
 10
-15.77353926444511
 20
-4.894959044404544
 10
-15.89772054284512
 20
-4.807526298804546
 10
-16.01969247244512
 20
-4.718595854004547
 10
-16.13928536044512
 20
-4.628345279604545
 10
-16.25637915884512
 20
-4.536945689204543
 10
-16.37086623884512
 20
-4.44456657560454
 10
-16.48264425484511
 20
-4.351378340404536
 10
-16.59163200684512
 20
-4.257555009204537
 10
-16.69775358284512
 20
-4.163271513204534
 10
-16.80092796684512
 20
-4.068714807604536
 10
-16.90105373964512
 20
-3.974119934004548
 10
-16.99802437804512
 20
-3.879733954804535
 10
-17.09177004684512
 20
-3.785769975604537
 10
-17.18236764684512
 20
-3.692305262004538
 10
-17.26993076684512
 20
-3.599383119604539
  0
LWPOLYLINE
  5
76
330
2
100
AcDbEntity
  8
0
100
AcDbPolyline
 90
       43
 70
     0
 43
0.0
 10
-17.26993076684512
 20
16.39575688039546
 10
-17.19151608204511
 20
16.44020888999544
 10
-17.11030041484512
 20
16.48557260999545
 10
-17.02629389964512
 20
16.53178078439545
 10
-16.93950667244512
 20
16.57876616039546
 10
-16.84992209484511
 20
16.62647308999545
 10
-16.75741641644512
 20
16.67489236039544
 10
-16.66183912044512
 20
16.72402635719545
 10
-16.56303968044512
 20
16.77387747399545
 10
-16.46087527564512
 20
16.82444059879544
 10
-16.35523387724512
 20
16.87568060519545
 10
-16.24601115724512
 20
16.92755486439544
 10
-16.13310278284512
 20
16.98002074759544
 10
-16.04003206924512
 20
17.02239573319546
 10
-15.94436093164512
 20
17.06512997639545
 10
-15.84591453644512
 20
17.10823138119546
 10
-15.74451804524512
 20
17.15170784679544
 10
-15.63999662604512
 20
17.19556727559545
 10
-15.55043031084512
 20
17.23239466759547
 10
-15.45875991724512
 20
17.26937582599545
 10
-15.36517287244512
 20
17.30639308519546
 10
-15.26980293164512
 20
17.34334857159545
 10
-15.17256917964512
 20
17.38022360359546
 10
-15.07333702764512
 20
17.41701929159545
 10
-14.95155709644512
 20
17.46103396359545
 10
-14.82722930604512
 20
17.50471599719544
 10
-14.70087729164512
 20
17.54784540839544
 10
-14.57302469164512
 20
17.59020221319546
 10
-14.44419514284512
 20
17.63156642919544
 10
-14.22838069324512
 20
17.69786411559546
 10
-14.01163272044512
 20
17.76073851879546
 10
-13.79427689964511
 20
17.82013461799546
 10
-13.57664552684512
 20
17.87599865479545
 10
-13.35909736044512
 20
17.92828195079546
 10
-13.14199777804512
 20
17.97693709159544
 10
-12.97970635244512
 20
18.01102200519547
 10
-12.81814140524512
 20
18.04303774439544
 10
-12.65757155724512
 20
18.07298264839546
 10
-12.49826543564512
 20
18.10085504679544
 10
-12.34043867564512
 20
18.12666475399545
 10
-12.18409497324512
 20
18.15046748199544
 10
-12.02918503564512
 20
18.17233042119546
 10
-11.87565957164512
 20
18.19232075879544
  0
LWPOLYLINE
  5
77
330
2
100
AcDbEntity
  8
0
100
AcDbPolyline
 90
       13
 70
     0
 43
0.0
 10
-17.24944723404512
 20
18.99167710439546
 10
-17.82192968684512
 20
18.71628868519546
 10
-18.36773433484512
 20
18.42197394439544
 10
-18.87682808844512
 20
18.11616585479545
 10
-19.34792891724512
 20
17.80191093319545
 10
-19.78206129964512
 20
17.48104692839545
 10
-20.18125884684512
 20
17.15461983239545
 10
-20.55283855084512
 20
16.81856019719545
 10
-20.90427233644512
 20
16.46754903399546
 10
-21.23701681164511
 20
16.10093740039546
 10
-21.54971843884512
 20
15.72008904359545
 10
-21.84284409324511
 20
15.32443713799544
 10
-22.11786501644512
 20
14.91182354119546
  0
LINE
  5
78
330
2
100
AcDbEntity
  8
0
100
AcDbLine
 10
23.15979919315488
 20
-4.055048663604541
 30
0.0
 11
23.11917096595487
 21
-4.064140694004539
 31
0.0
  0
LWPOLYLINE
  5
79
330
2
100
AcDbEntity
  8
0
100
AcDbPolyline
 90
       43
 70
     0
 43
0.0
 10
23.11917096595487
 20
-4.064140694004535
 10
23.04789102195488
 20
-4.079586220404536
 10
22.99841489075487
 20
-4.089981340404534
 10
22.93950670035488
 20
-4.102035009204541
 10
22.87094264435488
 20
-4.115643340404545
 10
22.79239827795487
 20
-4.130700431604537
 10
22.70364374035487
 20
-4.147059852404538
 10
22.60461586035488
 20
-4.164526436404543
 10
22.49560334195487
 20
-4.182834441204548
 10
22.37724930835487
 20
-4.201665399604536
 10
22.25048684915488
 20
-4.220677530804536
 10
22.11597458035487
 20
-4.239600058804541
 10
21.97400438515487
 20
-4.258235076404545
 10
21.82496583155487
 20
-4.276387578804545
 10
21.66938091155488
 20
-4.293857418804535
 10
21.50792589555487
 20
-4.310434374004543
 10
21.34105560755487
 20
-4.325951908404547
 10
21.16858054515488
 20
-4.340311718004542
 10
20.99030278995488
 20
-4.353414066804546
 10
20.80611143795488
 20
-4.36516391480454
 10
20.61595990035488
 20
-4.375463201204539
 10
20.41958360595488
 20
-4.38422172440454
 10
20.21641823155488
 20
-4.391349316404543
 10
20.00591143635487
 20
-4.396735246004539
 10
19.78752739155487
 20
-4.40024879800454
 10
19.56091989875487
 20
-4.401740806004539
 10
19.32648546515487
 20
-4.401089487604536
 10
19.08491715635487
 20
-4.398235420404546
 10
18.83692369235487
 20
-4.393154706804537
 10
18.58260281555487
 20
-4.385834639604539
 10
18.32043516755487
 20
-4.376206202804539
 10
18.04866061075488
 20
-4.364148654004537
 10
17.76555849555487
 20
-4.34949391320454
 10
17.46949439475487
 20
-4.33203545560454
 10
17.16182402835487
 20
-4.311739298804539
 10
16.84887726835488
 20
-4.288996167604537
 10
16.53738458835488
 20
-4.264394583604541
 10
16.23391810355487
 20
-4.238652554804545
 10
15.94480618675487
 20
-4.212577823604547
 10
15.67505378675487
 20
-4.186937639604536
 10
15.42494554515488
 20
-4.162064801204536
 10
15.19332068595487
 20
-4.138100614004542
 10
14.97954647155488
 20
-4.115191198004538
  0
LWPOLYLINE
  5
7A
330
2
100
AcDbEntity
  8
0
100
AcDbPolyline
 90
       43
 70
     0
 43
0.0
 10
22.24932876435487
 20
-5.395946998004546
 10
22.40281162995488
 20
-5.375962471604537
 10
22.55768809875488
 20
-5.35410495160454
 10
22.71400814675487
 20
-5.330306801204542
 10
22.87182174515487
 20
-5.304500380404547
 10
23.03112537555488
 20
-5.276629633204535
 10
23.19170154995487
 20
-5.24668483160454
 10
23.35327928595488
 20
-5.214667828404543
 10
23.51558760275487
 20
-5.180580478004543
 10
23.73271215795488
 20
-5.131920745204539
 10
23.95028367795487
 20
-5.079632505204543
 10
24.16793206355487
 20
-5.023764574004545
 10
24.38529501235487
 20
-4.964366769204545
 10
24.60204140915488
 20
-4.901492918004535
 10
24.81784792915488
 20
-4.835197844404547
 10
24.94667074035487
 20
-4.793836049204543
 10
25.07451619475487
 20
-4.751481940404545
 10
25.20086168595487
 20
-4.708355106804546
 10
25.32518460755487
 20
-4.66467513880454
 10
25.44696235475487
 20
-4.620661622004547
 10
25.54619525395487
 20
-4.58386599320454
 10
25.64343157555487
 20
-4.546990338804548
 10
25.73880514355487
 20
-4.51003377560454
 10
25.83239613235487
 20
-4.473015225204548
 10
25.92407011635488
 20
-4.436032855604537
 10
26.01363901875487
 20
-4.399204641204548
 10
26.11816163155488
 20
-4.355345022004541
 10
26.21955779955488
 20
-4.31186898520454
 10
26.31800322355488
 20
-4.268768250804541
 10
26.41367360435488
 20
-4.22603453080454
 10
26.50674464435488
 20
-4.183659542004548
 10
26.61965578995487
 20
-4.131192542004541
 10
26.72888315955488
 20
-4.07931627160454
 10
26.83452991155488
 20
-4.028073887604534
 10
26.93669920275488
 20
-3.977508546804543
 10
27.03550215475488
 20
-3.927655790004536
 10
27.13108172115487
 20
-3.878520682804534
 10
27.22358881395487
 20
-3.83010067480454
 10
27.31317434835487
 20
-3.782393212404542
 10
27.39996237555487
 20
-3.735407393204539
 10
27.48396949555487
 20
-3.689198890804547
 10
27.56518544435488
 20
-3.643835025204538
 10
27.64359995955487
 20
-3.599383119604539
  0
LWPOLYLINE
  5
7B
330
2
100
AcDbEntity
  8
0
100
AcDbPolyline
 90
        3
 70
     0
 43
0.0
 10
22.18683407315488
 20
-7.513880897204543
 10
22.90501102355487
 20
-7.448034938804539
 10
23.59387789555488
 20
-7.358351545204541
  0
LWPOLYLINE
  5
7C
330
2
100
AcDbEntity
  8
0
100
AcDbPolyline
 90
       73
 70
     0
 43
0.0
 10
22.22475317395488
 20
-8.053157036404542
 10
22.34485694515487
 20
-8.051945542004546
 10
22.47711227955487
 20
-8.049825103604547
 10
22.62187796115488
 20
-8.046586154804543
 10
22.78034499635488
 20
-8.042071892404536
 10
22.95382460275487
 20
-8.036144700404534
 10
23.14372359315487
 20
-8.028702863604536
 10
23.35151713235487
 20
-8.019697116404543
 10
23.57871203635487
 20
-8.00912040120454
 10
23.82748525235487
 20
-7.996924194804535
 10
24.10106108595488
 20
-7.982888444404537
 10
24.40332990995488
 20
-7.966515786804535
 10
24.73890893715487
 20
-7.94689640760454
 10
25.11327631955487
 20
-7.922567255604548
 10
25.53284710515487
 20
-7.891339343604542
 10
26.00529865555488
 20
-7.850072737204541
 10
26.54082914995487
 20
-7.794215844404547
 10
27.15140890195488
 20
-7.717067223604544
 10
27.75783449235487
 20
-7.624254054004538
 10
28.31916788755488
 20
-7.521976770804542
 10
28.84085154675487
 20
-7.411021865204546
 10
29.32669305235488
 20
-7.29226465080454
 10
29.78246691475487
 20
-7.165807474804537
 10
30.21160219155487
 20
-7.032046113204543
 10
30.61617671635487
 20
-6.891553903604545
 10
30.99798554835487
 20
-6.744848366004546
 10
31.35978242835487
 20
-6.591903874804543
 10
31.70416125555488
 20
-6.432513084404547
 10
32.03330516755487
 20
-6.266411729204534
 10
32.34900547315487
 20
-6.093315703604545
 10
32.65695744915487
 20
-5.910398206004543
 10
32.96231590355488
 20
-5.714553134004546
 10
33.26521049555488
 20
-5.505363612404536
 10
33.56555254355487
 20
-5.282505663604538
 10
33.86325517715488
 20
-5.045616025204537
 10
34.15827653555487
 20
-4.794246783604535
 10
34.45075367955487
 20
-4.527729820404545
 10
34.74045786995488
 20
-4.245653399604535
 10
35.02704128115488
 20
-3.947681738804547
 10
35.31009738675487
 20
-3.633513500404546
 10
35.58917225555487
 20
-3.302878236404538
 10
35.86379598355488
 20
-2.955505630004537
 10
36.13329336595488
 20
-2.591375876404541
 10
36.39684070035487
 20
-2.210702001204538
 10
36.65360616275488
 20
-1.813774863604535
 10
36.90292299155487
 20
-1.400679894004539
 10
37.14418004595488
 20
-0.9714529692045346
 10
37.37606895475487
 20
-0.527455446004538
 10
37.59724448115487
 20
-0.0704101612045349
 10
37.80646638355487
 20
0.397828187595465
 10
38.00316647795487
 20
0.8766143475954635
 10
38.18620439795488
 20
1.36365473639546
 10
38.35436793555487
 20
1.855912344395463
 10
38.50668481395487
 20
2.350323336395462
 10
38.64150350835487
 20
2.840219041995453
 10
38.74902755635487
 20
3.280114331595456
 10
38.83288583795487
 20
3.666414411595454
 10
38.89860692275488
 20
4.007272881995461
 10
38.95030195475488
 20
4.309484749195462
 10
38.99103229075487
 20
4.578505934795458
 10
39.02313214515487
 20
4.81886635399546
 10
39.04839333875488
 20
5.034306385995463
 10
39.06820581715487
 20
5.227936621195453
 10
39.08366445875488
 20
5.40242680359546
 10
39.09563304915488
 20
5.560031811595465
 10
39.10479975155487
 20
5.702692277195453
 10
39.11171313235488
 20
5.832039169995468
 10
39.11681761075488
 20
5.949540873995445
 10
39.12047051795487
 20
6.056456059595447
 10
39.12296096755487
 20
6.153882467595465
 10
39.12452350195488
 20
6.242781817995464
 10
39.12534888275487
 20
6.324017680395471
 10
39.12559192595487
 20
6.398186880395471
  0
LWPOLYLINE
  5
7D
330
2
100
AcDbEntity
  8
0
100
AcDbPolyline
 90
        3
 70
     0
 43
0.0
 10
22.18626716435487
 20
-8.053329550004548
 10
22.20582812115488
 20
-8.053170180404535
 10
22.34485683315488
 20
-8.052943831604537
  0
LWPOLYLINE
  5
7E
330
2
100
AcDbEntity
  8
0
100
AcDbPolyline
 90
        3
 70
     0
 43
0.0
 10
-11.32130618604512
 20
-8.051979745204548
 10
-11.56914419084512
 20
-8.053444174004539
 10
-11.81259797164512
 20
-8.053329550004548
  0
LWPOLYLINE
  5
7F
330
2
100
AcDbEntity
  8
0
100
AcDbPolyline
 90
       19
 70
     0
 43
0.0
 10
5.186832777154876
 20
-7.249750634804541
 10
5.084374575554875
 20
-7.250182732404539
 10
4.982459127554875
 20
-7.25148084760454
 10
4.882129308354876
 20
-7.253637772404545
 10
4.784240138754881
 20
-7.256638270004543
 10
4.689899786754878
 20
-7.260445444404538
 10
4.600476281154882
 20
-7.264983361204542
 10
4.51740792435487
 20
-7.270127478004539
 10
4.441428945154882
 20
-7.275749817204541
 10
4.372600300354875
 20
-7.281746790004547
 10
4.310963525954875
 20
-7.288004535604542
 10
4.25626887155488
 20
-7.294427606004546
 10
4.208438386754878
 20
-7.300889951604546
 10
4.167100210754881
 20
-7.307292729204547
 10
4.131925673154881
 20
-7.313536294004535
 10
4.10252765715488
 20
-7.319523246004536
 10
4.078418628354882
 20
-7.325167366004535
 10
4.058598962754871
 20
-7.330525710004536
 10
4.054716404354877
 20
-7.331749458804537
  0
LWPOLYLINE
  5
80
330
2
100
AcDbEntity
  8
0
100
AcDbPolyline
 90
       68
 70
     0
 43
0.0
 10
-12.24818130444512
 20
-8.053460924404546
 10
-12.76996736844512
 20
-8.055735522804539
 10
-12.97783573964512
 20
-8.056185647604536
 10
-13.20524001004512
 20
-8.055881234804544
 10
-13.45442374924512
 20
-8.054240052404537
 10
-13.72867270764512
 20
-8.050468705204536
 10
-14.03191485004511
 20
-8.04352291320454
 10
-14.36877673484512
 20
-8.032055473204536
 10
-14.74472188204511
 20
-8.014324276404536
 10
-15.16610893484512
 20
-7.988140871604542
 10
-15.64064856524512
 20
-7.950655401204542
 10
-16.17864643084512
 20
-7.897566095604545
 10
-16.79223581964512
 20
-7.822333726004544
 10
-17.40192540364512
 20
-7.730562758004538
 10
-17.96657121964512
 20
-7.628703130804538
 10
-18.49161290284511
 20
-7.517765922804542
 10
-18.98085973804512
 20
-7.398745526004546
 10
-19.44008180364512
 20
-7.271816194804543
 10
-19.87270459244512
 20
-7.137409734004535
 10
-20.28080404844512
 20
-6.996120108404539
 10
-20.66617209324512
 20
-6.848474668404534
 10
-21.03155426444512
 20
-6.694452353204539
 10
-21.37953506284512
 20
-6.533848377204535
 10
-21.71228768844512
 20
-6.366400042804542
 10
-22.03159367884512
 20
-6.191823809204535
 10
-22.34312770284512
 20
-6.007307679604537
 10
-22.65202432524512
 20
-5.809761186804536
 10
-22.95840630124512
 20
-5.598765710004542
 10
-23.26217713324512
 20
-5.373996178804546
 10
-23.56324176844512
 20
-5.135088937204542
 10
-23.86155041004512
 20
-4.881596071604548
 10
-24.15723200524512
 20
-4.612851570804537
 10
-24.45005070284512
 20
-4.328445412404548
 10
-24.73965203564512
 20
-4.02804389720454
 10
-25.02562301324512
 20
-3.711348310004538
 10
-25.30750357964512
 20
-3.378091326004536
 10
-25.58481853644511
 20
-3.028006764404537
 10
-25.85689082444512
 20
-2.661078762804535
 10
-26.12289478284512
 20
-2.277524982004536
 10
-26.38199626604512
 20
-1.87764051800454
 10
-26.63352618444512
 20
-1.461515766004538
 10
-26.87687170764512
 20
-1.029192274804543
 10
-27.11072411244511
 20
-0.582033404404541
 10
-27.33373873164512
 20
-0.1217638092045377
 10
-27.54467547404512
 20
0.3497603891954526
 10
-27.74296637484512
 20
0.8318887427954564
 10
-27.92747098924512
 20
1.322327144395458
 10
-28.09697842604512
 20
1.818039467595454
 10
-28.25051735404512
 20
2.315964633995463
 10
-28.38642797964512
 20
2.809404265995453
 10
-28.49483590124512
 20
3.252555841995459
 10
-28.57939631084512
 20
3.64178914439546
 10
-28.64567940524512
 20
3.985307312395462
 10
-28.69782679404512
 20
4.289944912395455
 10
-28.73892206604512
 20
4.561187118795459
 10
-28.77131631404512
 20
4.803586963595463
 10
-28.79681458604512
 20
5.020905113995453
 10
-28.81681725484511
 20
5.216268657995456
 10
-28.83242755084512
 20
5.39236142599546
 10
-28.84451600364512
 20
5.551450113995457
 10
-28.85377629804512
 20
5.695485643595461
 10
-28.86076152044512
 20
5.826107589195444
 10
-28.86591987564512
 20
5.944792488395464
 10
-28.86961183724512
 20
6.05280613799546
 10
-28.87212914284512
 20
6.151252678795472
 10
-28.87370853164512
 20
6.241099624395459
 10
-28.87454260844512
 20
6.32321602919545
 10
-28.87478769004512
 20
6.398186880395471
  0
LINE
  5
81
330
2
100
AcDbEntity
  8
0
100
AcDbLine
 10
-7.108374093245116
 20
-8.041545698804544
 30
0.0
 11
-9.56700157644512
 21
-8.04738283000454
 31
0.0
  0
LINE
  5
82
330
2
100
AcDbEntity
  8
0
100
AcDbLine
 10
-5.917817197245126
 20
-8.03917581400454
 30
0.0
 11
-7.108374093245116
 21
-8.041545698804544
 31
0.0
  0
LWPOLYLINE
  5
83
330
2
100
AcDbEntity
  8
0
100
AcDbPolyline
 90
        7
 70
     0
 43
0.0
 10
-9.567001576445122
 20
-8.047382830004536
 10
-9.859086237245122
 20
-8.047830788404539
 10
-10.12444287884511
 20
-8.047655180404547
 10
-10.36590252844512
 20
-8.04675890040454
 10
-10.59779968204512
 20
-8.046682873204545
 10
-10.83351594764512
 20
-8.047817951604542
 10
-11.32130618604512
 20
-8.051979745204548
  0
LWPOLYLINE
  5
84
330
2
100
AcDbEntity
  8
0
100
AcDbPolyline
 90
        6
 70
     0
 43
0.0
 10
-0.5661605924451294
 20
-8.034200134004535
 10
-1.695109211645117
 20
-8.03445679480454
 10
-2.711968922045116
 20
-8.035015063604546
 10
-3.632518838845129
 20
-8.035841489204543
 10
-4.468950792445127
 20
-8.036858481204546
 10
-5.917817197245128
 20
-8.039175814004536
  0
LWPOLYLINE
  5
85
330
2
100
AcDbEntity
  8
0
100
AcDbPolyline
 90
        9
 70
     0
 43
0.0
 10
20.14568646515488
 20
-8.047743402804542
 10
20.42951475155487
 20
-8.047791382004547
 10
20.68501596755487
 20
-8.046954486004537
 10
20.92652564435488
 20
-8.046595073204542
 10
21.17052383155487
 20
-8.047577002804544
 10
21.42053707155487
 20
-8.049548783604535
 10
21.67596177715488
 20
-8.05182594040454
 10
21.93336735955488
 20
-8.053412335604548
 10
22.18626716435487
 20
-8.053329550004548
  0
LINE
  5
86
330
2
100
AcDbEntity
  8
0
100
AcDbLine
 10
11.12199118515488
 20
-8.034221298804542
 30
0.0
 11
-0.5661605924451277
 21
-8.034200134004539
 31
0.0
  0
LWPOLYLINE
  5
87
330
2
100
AcDbEntity
  8
0
100
AcDbPolyline
 90
        4
 70
     0
 43
0.0
 10
11.12199118515488
 20
-8.034221298804538
 10
12.27283708275487
 20
-8.034540634804542
 10
13.30638482675488
 20
-8.035184623604536
 10
14.23938747635487
 20
-8.03610011960454
  0
LINE
  5
88
330
2
100
AcDbEntity
  8
0
100
AcDbLine
 10
22.34485683315488
 20
-8.05294383160454
 30
0.0
 11
22.47710468755486
 21
-8.053045478004538
 31
0.0
  0
LINE
  5
89
330
2
100
AcDbEntity
  8
0
100
AcDbLine
 10
14.23938747635488
 20
-8.036100119604544
 30
0.0
 11
15.84884693395487
 21
-8.038397414004538
 31
0.0
  0
LWPOLYLINE
  5
8A
330
2
100
AcDbEntity
  8
0
100
AcDbPolyline
 90
        4
 70
     0
 43
0.0
 10
-11.83215893004512
 20
-8.053170180404535
 10
-11.97118764044512
 20
-8.052943831604537
 10
-12.10343549644512
 20
-8.053045478004534
 10
-12.24818130444512
 20
-8.053460924404546
  0
LINE
  5
8B
330
2
100
AcDbEntity
  8
0
100
AcDbLine
 10
15.84884693395487
 20
-8.038397414004538
 30
0.0
 11
17.16229494835488
 21
-8.040872006004551
 31
0.0
  0
LWPOLYLINE
  5
8C
330
2
100
AcDbEntity
  8
0
100
AcDbPolyline
 90
       67
 70
     0
 43
0.0
 10
23.14363655955487
 20
-8.055735522804539
 10
23.35150493075487
 20
-8.056185647604536
 10
23.57890920275487
 20
-8.055881234804544
 10
23.82809294195487
 20
-8.054240052404537
 10
24.10234190035487
 20
-8.050468705204536
 10
24.40558404115488
 20
-8.04352291320454
 10
24.74244592595488
 20
-8.032055473204536
 10
25.11839107315488
 20
-8.014324276404536
 10
25.53977812755488
 20
-7.988140871604542
 10
26.01431775635487
 20
-7.950655401204542
 10
26.55231562355487
 20
-7.897566095604545
 10
27.16590501235488
 20
-7.822333726004544
 10
27.77559459635488
 20
-7.730562758004538
 10
28.34024041235487
 20
-7.628703130804538
 10
28.86528209395487
 20
-7.517765922804542
 10
29.35452892915488
 20
-7.398745526004546
 10
29.81375099635488
 20
-7.271816194804543
 10
30.24637378515487
 20
-7.137409734004535
 10
30.65447324115487
 20
-6.996120108404539
 10
31.03984128435488
 20
-6.848474668404534
 10
31.40522345715487
 20
-6.694452353204539
 10
31.75320425395487
 20
-6.533848377204535
 10
32.08595688115487
 20
-6.366400042804542
 10
32.40526287155488
 20
-6.191823809204535
 10
32.71679689395488
 20
-6.007307679604537
 10
33.02569351795487
 20
-5.809761186804536
 10
33.33207549395487
 20
-5.598765710004542
 10
33.63584632435487
 20
-5.373996178804546
 10
33.93691096115488
 20
-5.135088937204542
 10
34.23521960275488
 20
-4.881596071604548
 10
34.53090119635487
 20
-4.612851570804537
 10
34.82371989555487
 20
-4.328445412404548
 10
35.11332122835487
 20
-4.02804389720454
 10
35.39929220595487
 20
-3.711348310004538
 10
35.68117277075488
 20
-3.378091326004536
 10
35.95848772915488
 20
-3.028006764404537
 10
36.23056001715487
 20
-2.661078762804535
 10
36.49656397555487
 20
-2.277524982004536
 10
36.75566545875487
 20
-1.87764051800454
 10
37.00719537555487
 20
-1.461515766004538
 10
37.25054089875488
 20
-1.029192274804543
 10
37.48439330355488
 20
-0.582033404404541
 10
37.70740792435488
 20
-0.1217638092045377
 10
37.91834466675487
 20
0.3497603891954526
 10
38.11663556595488
 20
0.8318887427954564
 10
38.30114018195487
 20
1.322327144395458
 10
38.47064761715488
 20
1.818039467595454
 10
38.62418654515487
 20
2.315964633995463
 10
38.76009717235487
 20
2.809404265995453
 10
38.86850509235488
 20
3.252555841995459
 10
38.95306550355488
 20
3.64178914439546
 10
39.01934859635487
 20
3.985307312395462
 10
39.07149598515488
 20
4.289944912395455
 10
39.11259125875487
 20
4.561187118795459
 10
39.14498550515487
 20
4.803586963595463
 10
39.17048377875487
 20
5.020905113995453
 10
39.19048644755487
 20
5.216268657995456
 10
39.20609674195488
 20
5.39236142599546
 10
39.21818519475488
 20
5.551450113995457
 10
39.22744548915487
 20
5.695485643595461
 10
39.23443071155487
 20
5.826107589195444
 10
39.23958906835487
 20
5.944792488395464
 10
39.24328102995487
 20
6.05280613799546
 10
39.24579833395488
 20
6.151252678795472
 10
39.24737772275488
 20
6.241099624395459
 10
39.24821179955488
 20
6.32321602919545
 10
39.24845688275487
 20
6.398186880395471
  0
LINE
  5
8D
330
2
100
AcDbEntity
  8
0
100
AcDbLine
 10
17.16229494835488
 20
-8.040872006004551
 30
0.0
 11
18.69415019315488
 21
-8.044317308404547
 31
0.0
  0
LINE
  5
8E
330
2
100
AcDbEntity
  8
0
100
AcDbLine
 10
18.69415019315488
 20
-8.044317308404547
 30
0.0
 11
20.14568646515488
 21
-8.047743402804545
 31
0.0
  0
LWPOLYLINE
  5
8F
330
2
100
AcDbEntity
  8
0
100
AcDbPolyline
 90
       21
 70
     0
 43
0.0
 10
5.18683459635487
 20
-7.401109401204536
 10
5.083338145154883
 20
-7.400727577204534
 10
4.98042941235488
 20
-7.39958223640454
 10
4.878728418754874
 20
-7.397674604404542
 10
4.779585090754878
 20
-7.395029466804544
 10
4.685428842754873
 20
-7.391739738804545
 10
4.597351769154883
 20
-7.387902161204536
 10
4.516148191554876
 20
-7.383625866804536
 10
4.442485396354882
 20
-7.379036913204544
 10
4.376539525954882
 20
-7.374251302004537
 10
4.31755458035488
 20
-7.36931671320454
 10
4.264566173954875
 20
-7.364234874804537
 10
4.216728692354877
 20
-7.358980924404548
 10
4.173336777154872
 20
-7.353503172404543
 10
4.134084506754874
 20
-7.347756527604545
 10
4.098832765954881
 20
-7.341677020404546
 10
4.066888621954873
 20
-7.334998561204542
 10
4.039155234754872
 20
-7.327595751604548
 10
4.017539761154878
 20
-7.319520593204543
 10
4.003894332354875
 20
-7.310923034804545
 10
3.99933459635487
 20
-7.302086230004547
  0
LWPOLYLINE
  5
90
330
2
100
AcDbEntity
  8
0
100
AcDbPolyline
 90
       26
 70
     0
 43
0.0
 10
5.18683459635487
 20
-7.187487822004541
 10
5.288477045954877
 20
-7.187913079604541
 10
5.38959856915487
 20
-7.189190775604544
 10
5.489188378754874
 20
-7.191314313204543
 10
5.586405791554881
 20
-7.194269151604544
 10
5.680189127554882
 20
-7.198020833204537
 10
5.769185969154875
 20
-7.202496126004547
 10
5.851985685954872
 20
-7.207575183604546
 10
5.927770353154883
 20
-7.213127594804547
 10
5.996546940354875
 20
-7.219057454004541
 10
6.058307239554878
 20
-7.225259620404543
 10
6.113261074754873
 20
-7.231641577204541
 10
6.161383449154882
 20
-7.238070689204548
 10
6.202997466754879
 20
-7.244440596404544
 10
6.238445162754871
 20
-7.250649642804546
 10
6.268139087554871
 20
-7.256607562804546
 10
6.29255413875488
 20
-7.262229721204548
 10
6.312673541954879
 20
-7.267568903604541
 10
6.32940687795488
 20
-7.27273503960454
 10
6.342753311554872
 20
-7.277594724404536
 10
6.352960141954881
 20
-7.282044366004541
 10
6.360745069954873
 20
-7.286196868404545
 10
6.366678938754873
 20
-7.290233450804535
 10
6.370928469954876
 20
-7.294231638004546
 10
6.373484047554882
 20
-7.298187473204535
 10
6.37433459635487
 20
-7.302086230004547
  0
LINE
  5
91
330
2
100
AcDbEntity
  8
0
100
AcDbLine
 10
22.47710468755486
 20
-8.053045478004538
 30
0.0
 11
23.14363655955487
 21
-8.055735522804543
 31
0.0
  0
LINE
  5
92
330
2
100
AcDbEntity
  8
0
100
AcDbLine
 10
-11.81259797164512
 20
-8.053329550004551
 30
0.0
 11
-11.83215893004512
 21
-8.053170180404539
 31
0.0
  0
LWPOLYLINE
  5
93
330
2
100
AcDbEntity
  8
0
100
AcDbPolyline
 90
       73
 70
     0
 43
0.0
 10
-11.85108398124512
 20
-8.053157036404542
 10
-11.97118775404512
 20
-8.051945542004546
 10
-12.10344308844512
 20
-8.049825103604547
 10
-12.24820876844512
 20
-8.046586154804543
 10
-12.40667580364512
 20
-8.042071892404536
 10
-12.58015541004512
 20
-8.036144700404534
 10
-12.77005440204512
 20
-8.028702863604536
 10
-12.97784794124512
 20
-8.019697116404543
 10
-13.20504284524512
 20
-8.00912040120454
 10
-13.45381606124512
 20
-7.996924194804535
 10
-13.72739189324511
 20
-7.982888444404537
 10
-14.02966071884512
 20
-7.966515786804535
 10
-14.36523974604511
 20
-7.94689640760454
 10
-14.73960712684512
 20
-7.922567255604548
 10
-15.15917791404512
 20
-7.891339343604542
 10
-15.63162946284512
 20
-7.850072737204541
 10
-16.16715995724512
 20
-7.794215844404547
 10
-16.77773970924512
 20
-7.717067223604544
 10
-17.38416529964512
 20
-7.624254054004538
 10
-17.94549869644512
 20
-7.521976770804542
 10
-18.46718235564512
 20
-7.411021865204546
 10
-18.95302385964512
 20
-7.29226465080454
 10
-19.40879772364512
 20
-7.165807474804537
 10
-19.83793300044512
 20
-7.032046113204543
 10
-20.24250752364512
 20
-6.891553903604545
 10
-20.62431635724512
 20
-6.744848366004546
 10
-20.98611323564512
 20
-6.591903874804543
 10
-21.33049206284512
 20
-6.432513084404547
 10
-21.65963597484512
 20
-6.266411729204534
 10
-21.97533628044511
 20
-6.093315703604545
 10
-22.28328825804512
 20
-5.910398206004543
 10
-22.58864671084512
 20
-5.714553134004546
 10
-22.89154130444511
 20
-5.505363612404536
 10
-23.19188335084512
 20
-5.282505663604538
 10
-23.48958598604512
 20
-5.045616025204537
 10
-23.78460734284512
 20
-4.794246783604535
 10
-24.07708448684512
 20
-4.527729820404545
 10
-24.36678867724512
 20
-4.245653399604535
 10
-24.65337208844512
 20
-3.947681738804547
 10
-24.93642819404512
 20
-3.633513500404546
 10
-25.21550306444512
 20
-3.302878236404538
 10
-25.49012679084512
 20
-2.955505630004537
 10
-25.75962417484512
 20
-2.591375876404541
 10
-26.02317150764512
 20
-2.210702001204538
 10
-26.27993697164512
 20
-1.813774863604535
 10
-26.52925379884512
 20
-1.400679894004539
 10
-26.77051085484512
 20
-0.9714529692045346
 10
-27.00239976364512
 20
-0.527455446004538
 10
-27.22357528844512
 20
-0.0704101612045349
 10
-27.43279719244512
 20
0.397828187595465
 10
-27.62949728684512
 20
0.8766143475954635
 10
-27.81253520524512
 20
1.36365473639546
 10
-27.98069874284512
 20
1.855912344395463
 10
-28.13301562284512
 20
2.350323336395462
 10
-28.26783431564512
 20
2.840219041995453
 10
-28.37535836364512
 20
3.280114331595456
 10
-28.45921664524512
 20
3.666414411595454
 10
-28.52493773164512
 20
4.007272881995461
 10
-28.57663276364512
 20
4.309484749195462
 10
-28.61736309964512
 20
4.578505934795458
 10
-28.64946295244512
 20
4.81886635399546
 10
-28.67472414604512
 20
5.034306385995463
 10
-28.69453662604512
 20
5.227936621195453
 10
-28.70999526764512
 20
5.40242680359546
 10
-28.72196385644512
 20
5.560031811595465
 10
-28.73113056044512
 20
5.702692277195453
 10
-28.73804394124512
 20
5.832039169995468
 10
-28.74314841964512
 20
5.949540873995445
 10
-28.74680132524512
 20
6.056456059595447
 10
-28.74929177484512
 20
6.153882467595465
 10
-28.75085431084512
 20
6.242781817995464
 10
-28.75167969004512
 20
6.324017680395471
 10
-28.75192273324512
 20
6.398186880395471
  0
LWPOLYLINE
  5
94
330
2
100
AcDbEntity
  8
0
100
AcDbPolyline
 90
        3
 70
     0
 43
0.0
 10
-11.81316488044512
 20
-7.513880897204543
 10
-12.53134183084512
 20
-7.448034938804539
 10
-13.22020870444512
 20
-7.358351545204541
  0
LWPOLYLINE
  5
95
330
2
100
AcDbEntity
  8
0
100
AcDbPolyline
 90
       32
 70
     0
 43
0.0
 10
-11.87565957164512
 20
-5.395946998004546
 10
-11.64183970124512
 20
-5.42415261400454
 10
-11.41002950284512
 20
-5.450197639604539
 10
-11.18037330124512
 20
-5.474128372404535
 10
-10.95301541484512
 20
-5.495991116404539
 10
-10.72802794764512
 20
-5.515836076404539
 10
-10.50519413164511
 20
-5.53372907640454
 10
-10.28422497804512
 20
-5.549739844404541
 10
-10.06483150284512
 20
-5.563938110004542
 10
-9.774306414845128
 20
-5.580155444404539
 10
-9.485671642045119
 20
-5.593351270004546
 10
-9.198530045245121
 20
-5.603602343604535
 10
-8.912310347645117
 20
-5.610972174004544
 10
-8.625744685245123
 20
-5.615471270004547
 10
-8.337391058045128
 20
-5.617096895604547
 10
-8.119137320445119
 20
-5.616417833204536
 10
-7.898772133245117
 20
-5.614054241204541
 10
-7.676000906045118
 20
-5.609939452404546
 10
-7.450529046845119
 20
-5.604006807604534
 10
-7.22214444044512
 20
-5.596191031604547
 10
-6.990964866045118
 20
-5.586432412404548
 10
-6.757190579645126
 20
-5.574672631604542
 10
-6.521021835645129
 20
-5.560853367604536
 10
-6.202767890045123
 20
-5.53913429240454
 10
-5.881185643645125
 20
-5.513578297204546
 10
-5.556847603645124
 20
-5.484113450804542
 10
-5.230392125245117
 20
-5.450692290804539
 10
-4.902720978045124
 20
-5.413365246004545
 10
-4.574801784445128
 20
-5.372207217204547
 10
-4.247397104445127
 20
-5.327274812404539
 10
-3.920449258045124
 20
-5.278551465204543
 10
-3.593695501245122
 20
-5.226002322804546
  0
LWPOLYLINE
  5
96
330
2
100
AcDbEntity
  8
0
100
AcDbPolyline
 90
       82
 70
     0
 43
0.0
 10
-12.23776345324512
 20
-4.163822238004541
 10
-12.29064558604512
 20
-4.152940097204535
 10
-12.43783649804512
 20
-4.121330641204536
 10
-12.58288381324512
 20
-4.088261246004535
 10
-12.72541103244512
 20
-4.053871042804544
 10
-12.86504166284512
 20
-4.018299159604538
 10
-13.00144122924512
 20
-3.981684910004545
 10
-13.13444334764512
 20
-3.944168332404544
 10
-13.26392365004512
 20
-3.905889647604539
 10
-13.38975777484512
 20
-3.866989076404536
 10
-13.51184737484512
 20
-3.827601318004539
 10
-13.63019819404512
 20
-3.787838983604544
 10
-13.74484199724512
 20
-3.747809166004543
 10
-13.85581054764512
 20
-3.707618956404544
 10
-13.96313873164512
 20
-3.667373646004534
 10
-14.06687393644512
 20
-3.627171342004544
 10
-14.16706666924512
 20
-3.587108354804541
 10
-14.26376743884512
 20
-3.547280990004537
 10
-14.35704193004512
 20
-3.507775519604535
 10
-14.44701654124512
 20
-3.468638058804543
 10
-14.53383284204512
 20
-3.429904681204547
 10
-14.61763240524512
 20
-3.391611463604547
 10
-14.72491037644512
 20
-3.341291950004546
 10
-14.82737190124512
 20
-3.291850972404546
 10
-14.92531193644512
 20
-3.243320426804544
 10
-15.01901792364512
 20
-3.195728591604535
 10
-15.10874722924512
 20
-3.149089274804538
 10
-15.19474970604512
 20
-3.103412668404544
 10
-15.27727064524512
 20
-3.058704569204536
 10
-15.35653710924512
 20
-3.014953198004548
 10
-15.43277159724512
 20
-2.972142386804534
 10
-15.50620956844512
 20
-2.930241802804545
 10
-15.57713831564512
 20
-2.889164494004546
 10
-15.64585808844512
 20
-2.848809350004543
 10
-15.74544976524512
 20
-2.789392025204534
 10
-15.84174246444512
 20
-2.730925895604542
 10
-15.93572911884512
 20
-2.67295429720454
 10
-16.02839175244512
 20
-2.61497859800454
 10
-16.12070146444511
 20
-2.556477582004546
 10
-16.21359652684512
 20
-2.496881649204539
 10
-16.30800409324512
 20
-2.435593754804543
 10
-16.40483964044512
 20
-2.371955457204535
 10
-16.47119680044512
 20
-2.327887150004542
 10
-16.53931265484511
 20
-2.282249532404534
 10
-16.60946120844512
 20
-2.234817382004536
 10
-16.68191061484512
 20
-2.185362308404535
 10
-16.75690559244512
 20
-2.133643246004538
 10
-16.83468500204511
 20
-2.079415966004546
 10
-16.91546778284512
 20
-2.022438425204541
 10
-16.99939317644512
 20
-1.962477326004545
 10
-17.08658049644512
 20
-1.899301556404537
 10
-17.17710865324512
 20
-1.832683970804538
 10
-17.27089493964512
 20
-1.762413289204545
 10
-17.36781624524512
 20
-1.688282193204543
 10
-17.46753614924512
 20
-1.610231214004542
 10
-17.56886501964512
 20
-1.528792244404542
 10
-17.67039991724512
 20
-1.444645025204536
 10
-17.77084780524512
 20
-1.358453183604538
 10
-17.86935526764512
 20
-1.270815922804544
 10
-17.96517878444512
 20
-1.182316334004539
 10
-18.05772519084512
 20
-1.093435049204543
 10
-18.14700270764512
 20
-1.004242863604545
 10
-18.23316990444512
 20
-0.9147081116045399
 10
-18.31643590604512
 20
-0.8247245260045446
 10
-18.39721207244512
 20
-0.7338874236045428
 10
-18.47596031404512
 20
-0.6417175196045406
 10
-18.55307809164512
 20
-0.5477879772045356
 10
-18.62870503084512
 20
-0.4518817228045436
 10
-18.70291630284512
 20
-0.3538341356045436
 10
-18.77575271724512
 20
-0.2535346428045386
 10
-18.84711762444512
 20
-0.1510889004045453
 10
-18.91688001004512
 20
-0.0466566172045475
 10
-19.01830090604511
 20
0.1134317795954587
 10
-19.11579097804511
 20
0.2774789859954581
 10
-19.20930999084512
 20
0.4452893363954616
 10
-19.29877826764512
 20
0.6164907395954629
 10
-19.38413360204512
 20
0.7906985795954569
 10
-19.46542311884512
 20
0.9676545411954577
 10
-19.54271420364512
 20
1.147101513995451
 10
-19.61604594924511
 20
1.328660907595462
 10
-19.68548131724512
 20
1.512001576395462
 10
-19.75120699564511
 20
1.697103640395454
  0
LINE
  5
97
330
2
100
AcDbEntity
  8
0
100
AcDbLine
 10
-12.66531501804512
 20
-4.081476497204551
 30
0.0
 11
-12.74007165644512
 21
-4.065338316404538
 31
0.0
  0
LINE
  5
98
330
2
100
AcDbEntity
  8
0
100
AcDbLine
 10
-12.74007165644512
 20
-4.065338316404538
 30
0.0
 11
-12.78064223564512
 21
-4.056293106804549
 31
0.0
  0
LWPOLYLINE
  5
99
330
2
100
AcDbEntity
  8
0
100
AcDbPolyline
 90
        5
 70
     0
 43
0.0
 10
-12.78756557644512
 20
-4.035805718004539
 10
-12.62056927244512
 20
-4.076985671604546
 10
-12.45048194604512
 20
-4.116238727604539
 10
-12.27701106124512
 20
-4.153563257204538
 10
-12.17508288684512
 20
-4.173921993204544
  0
LWPOLYLINE
  5
9A
330
2
100
AcDbEntity
  8
0
100
AcDbPolyline
 90
       15
 70
     0
 43
0.0
 10
-11.81316523084512
 20
-7.513878380404534
 10
-11.81409053644512
 20
-7.521606374004548
 10
-11.81499330604512
 20
-7.535353470004537
 10
-11.81583794604512
 20
-7.554944431604539
 10
-11.81658906124512
 20
-7.580120482804545
 10
-11.81721582444512
 20
-7.610614135604535
 10
-11.81769060044512
 20
-7.646147169204539
 10
-11.81798506604512
 20
-7.686251730804542
 10
-11.81807325644512
 20
-7.730506647604542
 10
-11.81793209644512
 20
-7.778431410804543
 10
-11.81754069804512
 20
-7.829484041204537
 10
-11.81688177324512
 20
-7.883106854004537
 10
-11.81594008684512
 20
-7.938693950004534
 10
-11.81470350764512
 20
-7.995666674804539
 10
-11.81316522924512
 20
-8.053329367604547
  0
LWPOLYLINE
  5
9B
330
2
100
AcDbEntity
  8
0
100
AcDbPolyline
 90
       31
 70
     0
 43
0.0
 10
-13.60567175084512
 20
18.79710508039546
 10
-13.74754832844512
 20
18.74588685799547
 10
-13.88884643084512
 20
18.69222387559544
 10
-14.02953583564512
 20
18.63611025639547
 10
-14.16957902444512
 20
18.57754379559544
 10
-14.30890929964512
 20
18.51653698119547
 10
-14.44745266764512
 20
18.45310596999546
 10
-14.58513704684512
 20
18.38726760359544
 10
-14.72189798764512
 20
18.31904144519545
 10
-14.85767295244512
 20
18.24844773479544
 10
-14.99239846124512
 20
18.17550816039546
 10
-15.12600727404512
 20
18.10025017159544
 10
-15.25843121004512
 20
18.02270265799545
 10
-15.38958055884512
 20
17.94291217639546
 10
-15.51927947564512
 20
17.86099592519546
 10
-15.64733058924512
 20
17.77708876359547
 10
-15.77353907404512
 20
17.69133293799545
 10
-15.89772030124512
 20
17.60390023559544
 10
-16.01969218924512
 20
17.51496982439546
 10
-16.13928506444512
 20
17.42471926759544
 10
-16.25637887404512
 20
17.33331967559546
 10
-16.37086597484512
 20
17.24094055239545
 10
-16.48264401484512
 20
17.14775230439546
 10
-16.59163179564512
 20
17.05392895559545
 10
-16.69775340524512
 20
16.95964543399544
 10
-16.80092783244512
 20
16.86508869159546
 10
-16.90105365004512
 20
16.77049377799546
 10
-16.99802432844512
 20
16.67610776519545
 10
-17.09177002444512
 20
16.58214376039545
 10
-17.18236763884512
 20
16.48867903079546
 10
-17.26993076684512
 20
16.39575688039546
  0
LINE
  5
9C
330
2
100
AcDbEntity
  8
0
100
AcDbLine
 10
20.47291202675488
 20
-6.599383119604542
 30
0.0
 11
-10.09924283564512
 21
-6.599383119604542
 31
0.0
  0
LWPOLYLINE
  5
9D
330
2
100
AcDbEntity
  8
0
100
AcDbPolyline
 90
       31
 70
     0
 43
0.0
 10
5.18683459635487
 20
-4.499089161204537
 10
5.453118671554875
 20
-4.499754607604543
 10
5.715739922754877
 20
-4.501711230004545
 10
5.97451448915487
 20
-4.504899450804543
 10
6.229377373954875
 20
-4.509263783604538
 10
6.480739044354876
 20
-4.514765100404545
 10
6.729128829954873
 20
-4.521368370804538
 10
6.975042794754884
 20
-4.52904212120454
 10
7.218843921154871
 20
-4.537769130804548
 10
7.460861922754872
 20
-4.547535742004541
 10
7.821307065154883
 20
-4.56411808280454
 10
8.17983632275488
 20
-4.583040994804548
 10
8.537610273154882
 20
-4.604333180404537
 10
8.895014625154871
 20
-4.628009351604546
 10
9.252232765954872
 20
-4.654081206004548
 10
9.609413645954873
 20
-4.682562391604534
 10
9.966604242754883
 20
-4.713458532404544
 10
10.32347806835487
 20
-4.746741185204541
 10
10.67964932915488
 20
-4.782372282804544
 10
11.03486846515487
 20
-4.820309313204546
 10
11.38923046835488
 20
-4.86055013080454
 10
11.74407229235487
 20
-4.903258506804547
 10
11.98169583635487
 20
-4.933204828404541
 10
12.22064620275487
 20
-4.964410954804534
 10
12.46130476755487
 20
-4.996948770804536
 10
12.70409326995488
 20
-5.030901014004541
 10
12.94959493875487
 20
-5.066393830004543
 10
13.19843336755488
 20
-5.103564212404535
 10
13.45108991155487
 20
-5.142530327604546
 10
13.70747696915488
 20
-5.183335025204542
 10
13.96736469395487
 20
-5.226002322804546
  0
LWPOLYLINE
  5
9E
330
2
100
AcDbEntity
  8
0
100
AcDbPolyline
 90
       29
 70
     0
 43
0.0
 10
-10.09924283564512
 20
-6.599383119604539
 10
-10.22712485804511
 20
-6.598608801204548
 10
-10.35479920364512
 20
-6.596291583604539
 10
-10.48223339884512
 20
-6.592440078004543
 10
-10.60939497484512
 20
-6.587062890804546
 10
-10.73625891084512
 20
-6.580168202804543
 10
-10.86282997644512
 20
-6.571762466804543
 10
-10.98912039404512
 20
-6.561851705204546
 10
-11.11514238444512
 20
-6.550441943604539
 10
-11.24091114444512
 20
-6.537537620404535
 10
-11.36645379404512
 20
-6.523136844404547
 10
-11.49180042764512
 20
-6.507236138804543
 10
-11.61698114444511
 20
-6.489832028404535
 10
-11.74202027084512
 20
-6.470921074804536
 10
-11.86691906444512
 20
-6.450499982004544
 10
-11.99167301964511
 20
-6.428565492404544
 10
-12.11627762284512
 20
-6.405114346804538
 10
-12.24073380844512
 20
-6.38014140920454
 10
-12.36506426444512
 20
-6.353634046004543
 10
-12.48929712524512
 20
-6.32557774360454
 10
-12.61346052044512
 20
-6.295957990004538
 10
-12.73757963564512
 20
-6.264759564404542
 10
-12.86166785804512
 20
-6.231964401204535
 10
-12.98573562924512
 20
-6.197553730804543
 10
-13.10979338924512
 20
-6.161508775604545
 10
-13.23384437004512
 20
-6.123812650804538
 10
-13.35786296844512
 20
-6.084456007604543
 10
-13.48181636684512
 20
-6.043431385204542
 10
-13.60567175084512
 20
-6.00073131960454
  0
LWPOLYLINE
  5
9F
330
2
100
AcDbEntity
  8
0
100
AcDbPolyline
 90
       19
 70
     0
 43
0.0
 10
6.318900674754871
 20
-7.33175017560454
 10
6.313281628354872
 20
-7.330007790004543
 10
6.293247052354871
 20
-7.324666433204541
 10
6.268876322754877
 20
-7.319030998004535
 10
6.239280348354881
 20
-7.313069954804547
 10
6.203980789954883
 20
-7.30686515480454
 10
6.162560172354872
 20
-7.300504734004547
 10
6.114639215554873
 20
-7.294080580404539
 10
6.059852122754875
 20
-7.287693569204535
 10
5.998169730754881
 20
-7.281474521204543
 10
5.929367978754882
 20
-7.275519407604548
 10
5.853484845954881
 20
-7.269939562804538
 10
5.77055288595487
 20
-7.264835268404539
 10
5.681383850754883
 20
-7.260337290804542
 10
5.587401701954874
 20
-7.256566652404544
 10
5.48995394835488
 20
-7.253596633204537
 10
5.390121863554881
 20
-7.251462318004541
 10
5.28874283795487
 20
-7.250178082804538
 10
5.186832777154876
 20
-7.249750634804541
  0
LWPOLYLINE
  5
A0
330
2
100
AcDbEntity
  8
0
100
AcDbPolyline
 90
       15
 70
     0
 43
0.0
 10
-11.81316523084512
 20
20.31025214279544
 10
-11.81409053644512
 20
20.31798013479546
 10
-11.81499330604512
 20
20.33172723079546
 10
-11.81583794604512
 20
20.35131819239545
 10
-11.81658906124512
 20
20.37649424359544
 10
-11.81721582444512
 20
20.40698789639545
 10
-11.81769060044512
 20
20.44252092999546
 10
-11.81798506604512
 20
20.48262549159546
 10
-11.81807325644512
 20
20.52688040839545
 10
-11.81793209644512
 20
20.57480517159545
 10
-11.81754069804512
 20
20.62585780199545
 10
-11.81688177324512
 20
20.67948061479545
 10
-11.81594008684512
 20
20.73506771079546
 10
-11.81470350764512
 20
20.79204043559546
 10
-11.81316522924512
 20
20.84970312839546
  0
LINE
  5
A1
330
2
100
AcDbEntity
  8
0
100
AcDbLine
 10
0.1846143291548845
 20
-3.333897238004542
 30
0.0
 11
0.0102038155548758
 21
-3.365957505204551
 31
0.0
  0
LINE
  5
A2
330
2
100
AcDbEntity
  8
0
100
AcDbLine
 10
0.0102038155548758
 20
-3.365957505204551
 30
0.0
 11
-0.1345752500451152
 21
-3.392074364404539
 31
0.0
  0
LINE
  5
A3
330
2
100
AcDbEntity
  8
0
100
AcDbLine
 10
-2.602784917245115
 20
-3.787801886004547
 30
0.0
 11
-1.565796062845121
 21
-3.60349793240454
 31
0.0
  0
LINE
  5
A4
330
2
100
AcDbEntity
  8
0
100
AcDbLine
 10
0.2569865387548749
 20
-3.32099293880454
 30
0.0
 11
0.1846143291548845
 21
-3.333897238004542
 31
0.0
  0
LINE
  5
A5
330
2
100
AcDbEntity
  8
0
100
AcDbLine
 10
-0.1345752500451152
 20
-3.392074364404539
 30
0.0
 11
-0.2851144276451247
 21
-3.418711481204542
 31
0.0
  0
LINE
  5
A6
330
2
100
AcDbEntity
  8
0
100
AcDbLine
 10
-0.2851144276451247
 20
-3.418711481204542
 30
0.0
 11
-0.4805444404451276
 21
-3.452696940404539
 31
0.0
  0
LINE
  5
A7
330
2
100
AcDbEntity
  8
0
100
AcDbLine
 10
0.3316039515548841
 20
-3.308076222004547
 30
0.0
 11
0.2569865387548749
 21
-3.32099293880454
 31
0.0
  0
LWPOLYLINE
  5
A8
330
2
100
AcDbEntity
  8
0
100
AcDbPolyline
 90
       12
 70
     0
 43
0.0
 10
-1.835931632445124
 20
-3.681047484404544
 10
-2.360847750845124
 20
-3.770749030004537
 10
-2.623392478845119
 20
-3.815243726004538
 10
-2.885537461245121
 20
-3.858920823604535
 10
-3.147025462845121
 20
-3.901402090804538
 10
-3.407784717245121
 20
-3.942557950004541
 10
-3.668026918845129
 20
-3.982364452404539
 10
-3.928912102845117
 20
-4.020971564404547
 10
-4.103839843645118
 20
-4.046128454004545
 10
-4.279831056445118
 20
-4.070833265204541
 10
-4.457042498045126
 20
-4.095081014004534
 10
-4.62213767084512
 20
-4.11709492280454
  0
LINE
  5
A9
330
2
100
AcDbEntity
  8
0
100
AcDbLine
 10
-0.4805444404451276
 20
-3.452696940404539
 30
0.0
 11
-0.682482686845118
 21
-3.487287798004548
 31
0.0
  0
LINE
  5
AA
330
2
100
AcDbEntity
  8
0
100
AcDbLine
 10
-1.574279506045114
 20
-3.636668038004547
 30
0.0
 11
-1.835931632445122
 21
-3.681047484404547
 31
0.0
  0
LINE
  5
AB
330
2
100
AcDbEntity
  8
0
100
AcDbLine
 10
-0.682482686845118
 20
-3.487287798004548
 30
0.0
 11
-0.9315360852451259
 21
-3.529404401204548
 31
0.0
  0
LINE
  5
AC
330
2
100
AcDbEntity
  8
0
100
AcDbLine
 10
-0.9315360852451259
 20
-3.529404401204548
 30
0.0
 11
-1.185352157245118
 21
-3.571837985204542
 31
0.0
  0
LINE
  5
AD
330
2
100
AcDbEntity
  8
0
100
AcDbLine
 10
0.4082897179548742
 20
-3.295207180404549
 30
0.0
 11
0.3316039515548841
 21
-3.308076222004547
 31
0.0
  0
LINE
  5
AE
330
2
100
AcDbEntity
  8
0
100
AcDbLine
 10
-1.185352157245118
 20
-3.571837985204542
 30
0.0
 11
-1.574279506045114
 21
-3.636668038004547
 31
0.0
  0
LWPOLYLINE
  5
AF
330
2
100
AcDbEntity
  8
0
100
AcDbPolyline
 90
       31
 70
     0
 43
0.0
 10
-3.593695501245122
 20
-5.226002322804546
 10
-3.331379646845121
 20
-5.182942286004546
 10
-3.072381595645126
 20
-5.141740642804535
 10
-2.816896024445128
 20
-5.102370711604535
 10
-2.564998682045128
 20
-5.064790119604538
 10
-2.316289629245119
 20
-5.028893745204541
 10
-2.070249995645127
 20
-4.994560769204539
 10
-1.826394099645128
 20
-4.961679487604541
 10
-1.584368995645121
 20
-4.930174638004544
 10
-1.343854922045125
 20
-4.899980070004545
 10
-0.9851787300451206
 20
-4.857006662004536
 10
-0.6278709876451245
 20
-4.816647519604543
 10
-0.2707916436451256
 20
-4.778744041204546
 10
0.0865119691548841
 20
-4.743243290804542
 10
0.4443093499548781
 20
-4.710122114804548
 10
0.802824741954879
 20
-4.679370818804542
 10
1.162073237954871
 20
-4.650996394804536
 10
1.521278591554874
 20
-4.625059130804544
 10
1.879538924354875
 20
-4.601618441204536
 10
2.236241204354882
 20
-4.580676986804547
 10
2.591293957954874
 20
-4.562206809204539
 10
2.94640309075487
 20
-4.546114217204547
 10
3.184212933954881
 20
-4.536658526004544
 10
3.423492978754879
 20
-4.528215178804543
 10
3.664730476354876
 20
-4.520788758004542
 10
3.90846402355487
 20
-4.514388865204537
 10
4.155437583554871
 20
-4.50904517080454
 10
4.406446461954871
 20
-4.504792369204537
 10
4.662108060354881
 20
-4.501671185204543
 10
4.922328149954878
 20
-4.499746482804539
 10
5.18683459635487
 20
-4.499089161204537
  0
LINE
  5
B0
330
2
100
AcDbEntity
  8
0
100
AcDbLine
 10
0.4868529755548839
 20
-3.282447463604544
 30
0.0
 11
0.4082897179548742
 21
-3.295207180404549
 31
0.0
  0
LINE
  5
B1
330
2
100
AcDbEntity
  8
0
100
AcDbLine
 10
0.5671979499548759
 20
-3.26984022040455
 30
0.0
 11
0.4868529755548839
 21
-3.282447463604544
 31
0.0
  0
LINE
  5
B2
330
2
100
AcDbEntity
  8
0
100
AcDbLine
 10
0.6492176171548767
 20
-3.257428276404542
 30
0.0
 11
0.5671979499548759
 21
-3.26984022040455
 31
0.0
  0
LINE
  5
B3
330
2
100
AcDbEntity
  8
0
100
AcDbLine
 10
0.7326648811548769
 20
-3.245271660404544
 30
0.0
 11
0.6492176171548767
 21
-3.257428276404542
 31
0.0
  0
LINE
  5
B4
330
2
100
AcDbEntity
  8
0
100
AcDbLine
 10
0.8172946123548729
 20
-3.233428017204548
 30
0.0
 11
0.7326648811548769
 21
-3.245271660404544
 31
0.0
  0
LINE
  5
B5
330
2
100
AcDbEntity
  8
0
100
AcDbLine
 10
0.9030095931548789
 20
-3.221928226804539
 30
0.0
 11
0.8172946123548729
 21
-3.233428017204548
 31
0.0
  0
LWPOLYLINE
  5
B6
330
2
100
AcDbEntity
  8
0
100
AcDbPolyline
 90
        7
 70
     0
 43
0.0
 10
-5.041611934845121
 20
-4.161037719604536
 10
-4.660135581245128
 20
-4.110909511604546
 10
-4.264179312445122
 20
-4.055442002804539
 10
-3.862322683645118
 20
-3.99574312280454
 10
-3.455234656445128
 20
-3.931888759604547
 10
-3.041664898045127
 20
-3.863643790004545
 10
-2.602784917245116
 20
-3.787801886004544
  0
LINE
  5
B7
330
2
100
AcDbEntity
  8
0
100
AcDbLine
 10
0.9897173211548722
 20
-3.210797794804538
 30
0.0
 11
0.9030095931548789
 21
-3.221928226804539
 31
0.0
  0
LINE
  5
B8
330
2
100
AcDbEntity
  8
0
100
AcDbLine
 10
-3.774888520445115
 20
-4.018237281204537
 30
0.0
 11
-3.86127521484512
 21
-4.029037279604541
 31
0.0
  0
LINE
  5
B9
330
2
100
AcDbEntity
  8
0
100
AcDbLine
 10
1.077196209154879
 20
-3.200067511604547
 30
0.0
 11
0.9897173211548722
 21
-3.210797794804538
 31
0.0
  0
LINE
  5
BA
330
2
100
AcDbEntity
  8
0
100
AcDbLine
 10
-3.86127521484512
 20
-4.029037279604541
 30
0.0
 11
-4.021804899645117
 21
-4.048539839604547
 31
0.0
  0
LINE
  5
BB
330
2
100
AcDbEntity
  8
0
100
AcDbLine
 10
-4.021804899645117
 20
-4.048539839604547
 30
0.0
 11
-4.204154347645127
 21
-4.070022735604542
 31
0.0
  0
LINE
  5
BC
330
2
100
AcDbEntity
  8
0
100
AcDbLine
 10
1.165223148354884
 20
-3.18976502840454
 30
0.0
 11
1.077196209154879
 21
-3.200067511604547
 31
0.0
  0
LWPOLYLINE
  5
BD
330
2
100
AcDbEntity
  8
0
100
AcDbPolyline
 90
       51
 70
     0
 43
0.0
 10
-4.204154347645129
 20
-4.070022735604538
 10
-4.426652061245121
 20
-4.095389497204536
 10
-4.549755912445121
 20
-4.109049666804537
 10
-4.679740518845122
 20
-4.123193270004534
 10
-4.816240792445128
 20
-4.137741084404538
 10
-4.958823651645118
 20
-4.152606350004546
 10
-5.10698258924512
 20
-4.16769523320454
 10
-5.260136670845128
 20
-4.18290785880454
 10
-5.417729944445127
 20
-4.198148967604538
 10
-5.579750894845119
 20
-4.213375959604547
 10
-5.746288947645126
 20
-4.228551527604537
 10
-5.917413867645123
 20
-4.243631321204546
 10
-6.093184322045118
 20
-4.258564418804539
 10
-6.273645339645128
 20
-4.273292698804539
 10
-6.458842107645125
 20
-4.287751234804545
 10
-6.649154850045121
 20
-4.301890262004548
 10
-6.845289917245125
 20
-4.315667346804545
 10
-7.047965501245116
 20
-4.329018572404535
 10
-7.257896320445127
 20
-4.341853666804539
 10
-7.475789272445126
 20
-4.354051279604547
 10
-7.701899827645121
 20
-4.365432596404545
 10
-7.934858274045126
 20
-4.375721086004546
 10
-8.172900901245128
 20
-4.38463325240454
 10
-8.414238171645123
 20
-4.391905462004544
 10
-8.657009267645122
 20
-4.397305177204543
 10
-8.898745827645129
 20
-4.400637802804538
 10
-9.136559410045123
 20
-4.401784151604545
 10
-9.367547344445128
 20
-4.400729447604547
 10
-9.58925138604512
 20
-4.397591532404547
 10
-9.801673659645118
 20
-4.392557742004541
 10
-10.00584922284512
 20
-4.385780706804538
 10
-10.20283536044512
 20
-4.377373804404541
 10
-10.39368762764512
 20
-4.367411562804548
 10
-10.57892160364512
 20
-4.355965268404546
 10
-10.75848068524512
 20
-4.343130913204547
 10
-10.93234543404512
 20
-4.329005978804545
 10
-11.10058438764512
 20
-4.313696414004539
 10
-11.26331923564512
 20
-4.297308578804546
 10
-11.42023487724512
 20
-4.279994644404538
 10
-11.57066607884512
 20
-4.261961756404545
 10
-11.71409012844512
 20
-4.243410940404544
 10
-11.85012175244511
 20
-4.224533729204537
 10
-11.97848573644512
 20
-4.205522478004539
 10
-12.09866404044512
 20
-4.186621455604537
 10
-12.20966381324512
 20
-4.168175255604538
 10
-12.31074416364512
 20
-4.150515577204544
 10
-12.40153295884512
 20
-4.133923465204546
 10
-12.48211275724512
 20
-4.118593193204546
 10
-12.55275038764511
 20
-4.104666860404535
 10
-12.61377669964512
 20
-4.092251898804548
 10
-12.66531501804512
 20
-4.081476497204548
  0
LWPOLYLINE
  5
BE
330
2
100
AcDbEntity
  8
0
100
AcDbPolyline
 90
       58
 70
     0
 43
0.0
 10
0.3166820555548782
 20
-3.143764350004545
 10
0.2795822971548745
 20
-3.147933252404541
 10
0.2423904395548817
 20
-3.151167641204537
 10
0.2051266555548779
 20
-3.153465954804545
 10
0.1678139531548766
 20
-3.154826844404539
 10
0.1304755483548803
 20
-3.155249532404539
 10
0.0931347627548718
 20
-3.154733815604544
 10
0.0558144011548762
 20
-3.15328005880454
 10
0.0185392283548822
 20
-3.150889313204544
 10
-0.0186732436451251
 20
-3.147562634804543
 10
-0.0557471828451242
 20
-3.143308516404545
 10
-0.092477419645121
 20
-3.138161193204538
 10
-0.1287532836451248
 20
-3.132157252404539
 10
-0.1645768404451218
 20
-3.125320014004543
 10
-0.1999445444451169
 20
-3.117672425204546
 10
-0.2349057652451165
 20
-3.109222962804537
 10
-0.2694728148451162
 20
-3.099984151604544
 10
-0.3036232564451211
 20
-3.089976622004542
 10
-0.3373571780451243
 20
-3.079214630004543
 10
-0.3706742612451279
 20
-3.067711394804547
 10
-0.4035731012451294
 20
-3.055479434804539
 10
-0.4360525076451296
 20
-3.042530198004541
 10
-0.4681108452451213
 20
-3.028874334004541
 10
-0.4997462516451208
 20
-3.01452166360454
 10
-0.5309565620451196
 20
-2.999481238004534
 10
-0.5617393044451262
 20
-2.983761383604544
 10
-0.5920917012451242
 20
-2.967369727604534
 10
-0.6220106436451261
 20
-2.95031323960454
 10
-0.6514926948451177
 20
-2.932598250804545
 10
-0.6805340916451286
 20
-2.91423047480454
 10
-0.7091306516451255
 20
-2.89521507800454
 10
-0.737277974845128
 20
-2.875556554804546
 10
-0.764970838845116
 20
-2.855259167604543
 10
-0.7922045700451293
 20
-2.83432595000454
 10
-0.8189726804451282
 20
-2.812760476404534
 10
-0.8452637540451206
 20
-2.790569812404541
 10
-0.8710722052451274
 20
-2.767755708404536
 10
-0.8963973188451177
 20
-2.744314246004535
 10
-0.9212321764451161
 20
-2.720245614004539
 10
-0.9455676388451195
 20
-2.695551140404546
 10
-0.969394814845117
 20
-2.67023098200454
 10
-0.9927036580451158
 20
-2.644285508404536
 10
-1.015483461245125
 20
-2.617714820404543
 10
-1.037722638845124
 20
-2.590519022004542
 10
-1.059408710845119
 20
-2.562698271604546
 10
-1.080528320445125
 20
-2.534252815604546
 10
-1.101067221245116
 20
-2.505183042804546
 10
-1.121009034045115
 20
-2.475491418804537
 10
-1.140336797245126
 20
-2.445180558004537
 10
-1.159034854845117
 20
-2.414250001204536
 10
-1.177085734845121
 20
-2.382700884404542
 10
-1.194469837245122
 20
-2.350536978804541
 10
-1.211167270845123
 20
-2.317761737204534
 10
-1.227155838845121
 20
-2.284382409204539
 10
-1.242416235645123
 20
-2.250399255604534
 10
-1.25691329804512
 20
-2.215849132404542
 10
-1.270579504445123
 20
-2.180863231604547
 10
-1.283370437245125
 20
-2.145545342004538
  0
LINE
  5
BF
330
2
100
AcDbEntity
  8
0
100
AcDbLine
 10
1.253697994754874
 20
-3.179900180404548
 30
0.0
 11
1.165223148354884
 21
-3.18976502840454
 31
0.0
  0
LINE
  5
C0
330
2
100
AcDbEntity
  8
0
100
AcDbLine
 10
1.342524109954881
 20
-3.170480607604549
 30
0.0
 11
1.253697994754874
 21
-3.179900180404548
 31
0.0
  0
LINE
  5
C1
330
2
100
AcDbEntity
  8
0
100
AcDbLine
 10
1.431495908354877
 20
-3.161522966004543
 30
0.0
 11
1.342524109954881
 21
-3.170480607604549
 31
0.0
  0
LINE
  5
C2
330
2
100
AcDbEntity
  8
0
100
AcDbLine
 10
1.52040699315488
 20
-3.153042769204549
 30
0.0
 11
1.431495908354877
 21
-3.161522966004543
 31
0.0
  0
LINE
  5
C3
330
2
100
AcDbEntity
  8
0
100
AcDbLine
 10
1.609156671554872
 20
-3.145041956404543
 30
0.0
 11
1.52040699315488
 21
-3.153042769204549
 31
0.0
  0
LWPOLYLINE
  5
C4
330
2
100
AcDbEntity
  8
0
100
AcDbPolyline
 90
        8
 70
     0
 43
0.0
 10
2.419469935554872
 20
-3.08203700280454
 10
2.310796943554876
 20
-3.089619217204543
 10
2.199780172354877
 20
-3.097629956404546
 10
2.086371797954882
 20
-3.106093436404535
 10
1.970581369154871
 20
-3.115037556404544
 10
1.852432778754874
 20
-3.124491135604543
 10
1.731949916354878
 20
-3.134482996404543
 10
1.60915667155487
 20
-3.14504195640454
  0
LINE
  5
C5
330
2
100
AcDbEntity
  8
0
100
AcDbLine
 10
2.630033241154878
 20
-3.068064977204546
 30
0.0
 11
2.419469935554873
 21
-3.082037002804543
 31
0.0
  0
LINE
  5
C6
330
2
100
AcDbEntity
  8
0
100
AcDbLine
 10
2.831964441154882
 20
-3.055528969204548
 30
0.0
 11
2.630033241154878
 21
-3.068064977204546
 31
0.0
  0
LINE
  5
C7
330
2
100
AcDbEntity
  8
0
100
AcDbLine
 10
3.025689661954872
 20
-3.044277249204544
 30
0.0
 11
2.831964441154882
 21
-3.055528969204548
 31
0.0
  0
LINE
  5
C8
330
2
100
AcDbEntity
  8
0
100
AcDbLine
 10
3.211566796354874
 20
-3.034191260404544
 30
0.0
 11
3.025689661954872
 21
-3.044277249204544
 31
0.0
  0
LINE
  5
C9
330
2
100
AcDbEntity
  8
0
100
AcDbLine
 10
3.389914581954885
 20
-3.025160705204545
 30
0.0
 11
3.211566796354874
 21
-3.034191260404544
 31
0.0
  0
LINE
  5
CA
330
2
100
AcDbEntity
  8
0
100
AcDbLine
 10
3.560906972354873
 20
-3.017102521204538
 30
0.0
 11
3.389914581954885
 21
-3.025160705204545
 31
0.0
  0
LINE
  5
CB
330
2
100
AcDbEntity
  8
0
100
AcDbLine
 10
3.744649474754881
 20
-3.009105228404539
 30
0.0
 11
3.560906972354873
 21
-3.017102521204538
 31
0.0
  0
LWPOLYLINE
  5
CC
330
2
100
AcDbEntity
  8
0
100
AcDbPolyline
 90
       45
 70
     0
 43
0.0
 10
5.18683459635487
 20
-1.415426841204535
 10
5.313734461954879
 20
-1.410321694004537
 10
5.437918170754883
 20
-1.395409322804539
 10
5.558227153154874
 20
-1.371468961204541
 10
5.673807197954872
 20
-1.33942253400454
 10
5.784045474754876
 20
-1.300265127604546
 10
5.888799325954877
 20
-1.254875945204545
 10
5.988254908354875
 20
-1.203932334004548
 10
6.082605794754883
 20
-1.148000489204534
 10
6.172553271554875
 20
-1.087182238004544
 10
6.25819335475488
 20
-1.021793185204543
 10
6.339944165954875
 20
-0.9517832572045392
 10
6.418210469954871
 20
-0.8769011388045413
 10
6.493206477954871
 20
-0.7968532172045429
 10
6.565172641154873
 20
-0.7110746172045453
 10
6.634154717954871
 20
-0.618917777204544
 10
6.699957149954883
 20
-0.5197143452045481
 10
6.762221658754882
 20
-0.4126318428045437
 10
6.820118308354878
 20
-0.2971377132045347
 10
6.872587151554881
 20
-0.1724915132045481
 10
6.917560111554877
 20
-0.0399369180045426
 10
6.951949170754872
 20
0.0936782515954633
 10
6.975291578754877
 20
0.2259175315954565
 10
6.98783006195488
 20
0.3560898083954527
 10
6.989876778754876
 20
0.4849434979954595
 10
6.981504509954874
 20
0.6148019427954523
 10
6.96260414675487
 20
0.7450611987954546
 10
6.933131682754876
 20
0.8748203971954637
 10
6.893133418754871
 20
1.003134105995457
 10
6.84275512115488
 20
1.129039717195453
 10
6.782276063554874
 20
1.251517945995459
 10
6.711991983554881
 20
1.369742973195457
 10
6.632264364354881
 20
1.482912560395462
 10
6.543585940354873
 20
1.590164662795459
 10
6.44652928275488
 20
1.690688043595457
 10
6.341729865154874
 20
1.783740029195456
 10
6.229841754754872
 20
1.868674117195453
 10
6.111642793154871
 20
1.944855560395453
 10
5.988027170754875
 20
2.01170458599546
 10
5.860214697154873
 20
2.068643451595463
 10
5.729303282754884
 20
2.115355688395453
 10
5.595846276354876
 20
2.151805465995451
 10
5.460404317954882
 20
2.177928577995459
 10
5.323792890754873
 20
2.193624643595455
 10
5.18683459635487
 20
2.198854462795452
  0
LINE
  5
CD
330
2
100
AcDbEntity
  8
0
100
AcDbLine
 10
3.938246172354881
 20
-3.00143764760455
 30
0.0
 11
3.744649474754881
 21
-3.009105228404539
 31
0.0
  0
LINE
  5
CE
330
2
100
AcDbEntity
  8
0
100
AcDbLine
 10
4.120836997954883
 20
-2.994945812404541
 30
0.0
 11
3.938246172354881
 21
-3.00143764760455
 31
0.0
  0
LINE
  5
CF
330
2
100
AcDbEntity
  8
0
100
AcDbLine
 10
4.292783359554876
 20
-2.98952426200454
 30
0.0
 11
4.120836997954883
 21
-2.994945812404541
 31
0.0
  0
LINE
  5
D0
330
2
100
AcDbEntity
  8
0
100
AcDbLine
 10
4.454690421954881
 20
-2.985072572404551
 30
0.0
 11
4.292783359554876
 21
-2.98952426200454
 31
0.0
  0
LINE
  5
D1
330
2
100
AcDbEntity
  8
0
100
AcDbLine
 10
4.607066220354882
 20
-2.981505372404544
 30
0.0
 11
4.454690421954881
 21
-2.985072572404551
 31
0.0
  0
LINE
  5
D2
330
2
100
AcDbEntity
  8
0
100
AcDbLine
 10
4.750315711554877
 20
-2.978752535604545
 30
0.0
 11
4.607066220354882
 21
-2.981505372404544
 31
0.0
  0
LINE
  5
D3
330
2
100
AcDbEntity
  8
0
100
AcDbLine
 10
4.884950721154881
 20
-2.97675362040454
 30
0.0
 11
4.750315711554877
 21
-2.978752535604545
 31
0.0
  0
LINE
  5
D4
330
2
100
AcDbEntity
  8
0
100
AcDbLine
 10
5.011577178754878
 20
-2.975457657204547
 30
0.0
 11
4.884950721154881
 21
-2.97675362040454
 31
0.0
  0
LINE
  5
D5
330
2
100
AcDbEntity
  8
0
100
AcDbLine
 10
5.130404503554872
 20
-2.974824204404544
 30
0.0
 11
5.011577178754878
 21
-2.975457657204547
 31
0.0
  0
LWPOLYLINE
  5
D6
330
2
100
AcDbEntity
  8
0
100
AcDbPolyline
 90
       21
 70
     0
 43
0.0
 10
5.18683459635487
 20
-2.843315239604535
 10
5.02668920595488
 20
-2.843928721204534
 10
4.855648693954876
 20
-2.845754990004536
 10
4.67440058035487
 20
-2.84877410040454
 10
4.483776615554873
 20
-2.852978804404543
 10
4.280754980354871
 20
-2.858485225204546
 10
4.062397988354874
 20
-2.865489057204541
 10
3.821132321154877
 20
-2.874450673204535
 10
3.543475756354879
 20
-2.886276670004548
 10
3.244946989954883
 20
-2.900693135604541
 10
2.962425229954874
 20
-2.915860956404543
 10
2.69601916915488
 20
-2.931489497204537
 10
2.432205349954884
 20
-2.948256705204542
 10
2.16603762035487
 20
-2.966534166004535
 10
1.899730628354873
 20
-2.986279729204539
 10
1.637102575554877
 20
-3.007304601204538
 10
1.376531453954882
 20
-3.02985417080454
 10
1.109408789954883
 20
-3.054948839604534
 10
0.833415017154877
 20
-3.083301702004547
 10
0.5628285787548748
 20
-3.113762543604536
 10
0.3166820571548783
 20
-3.143764348404545
  0
LINE
  5
D7
330
2
100
AcDbEntity
  8
0
100
AcDbLine
 10
5.243155322754875
 20
-2.974823910004548
 30
0.0
 11
5.130404503554872
 21
-2.974824204404544
 31
0.0
  0
LINE
  5
D8
330
2
100
AcDbEntity
  8
0
100
AcDbLine
 10
5.361721149954876
 20
-2.975454764404549
 30
0.0
 11
5.243155322754875
 21
-2.974823910004548
 31
0.0
  0
LINE
  5
D9
330
2
100
AcDbEntity
  8
0
100
AcDbLine
 10
5.488025607554876
 20
-2.976744913204544
 30
0.0
 11
5.361721149954876
 21
-2.975454764404549
 31
0.0
  0
LINE
  5
DA
330
2
100
AcDbEntity
  8
0
100
AcDbLine
 10
5.622282761154879
 20
-2.978734310004544
 30
0.0
 11
5.488025607554876
 21
-2.976744913204544
 31
0.0
  0
LINE
  5
DB
330
2
100
AcDbEntity
  8
0
100
AcDbLine
 10
5.765111821954876
 20
-2.981473599604544
 30
0.0
 11
5.622282761154879
 21
-2.978734310004544
 31
0.0
  0
LINE
  5
DC
330
2
100
AcDbEntity
  8
0
100
AcDbLine
 10
5.917031852354883
 20
-2.985023017204543
 30
0.0
 11
5.765111821954876
 21
-2.981473599604544
 31
0.0
  0
LINE
  5
DD
330
2
100
AcDbEntity
  8
0
100
AcDbLine
 10
6.078447122754882
 20
-2.989452511604543
 30
0.0
 11
5.917031852354883
 21
-2.985023017204543
 31
0.0
  0
LINE
  5
DE
330
2
100
AcDbEntity
  8
0
100
AcDbLine
 10
6.249830402754882
 20
-2.994845458804551
 30
0.0
 11
6.078447122754882
 21
-2.989452511604543
 31
0.0
  0
LINE
  5
DF
330
2
100
AcDbEntity
  8
0
100
AcDbLine
 10
6.431722084354875
 20
-3.001298652404546
 30
0.0
 11
6.249830402754882
 21
-2.994845458804551
 31
0.0
  0
LINE
  5
E0
330
2
100
AcDbEntity
  8
0
100
AcDbLine
 10
6.624527789954884
 20
-3.008918274804546
 30
0.0
 11
6.431722084354875
 21
-3.001298652404546
 31
0.0
  0
LINE
  5
E1
330
2
100
AcDbEntity
  8
0
100
AcDbLine
 10
6.807606937154874
 20
-3.016868721204549
 30
0.0
 11
6.624527789954884
 21
-3.008918274804546
 31
0.0
  0
LINE
  5
E2
330
2
100
AcDbEntity
  8
0
100
AcDbLine
 10
6.978130477954879
 20
-3.024886222004543
 30
0.0
 11
6.807606937154874
 21
-3.016868721204549
 31
0.0
  0
LINE
  5
E3
330
2
100
AcDbEntity
  8
0
100
AcDbLine
 10
7.156177511554874
 20
-3.033881078004544
 30
0.0
 11
6.978130477954879
 21
-3.024886222004543
 31
0.0
  0
LINE
  5
E4
330
2
100
AcDbEntity
  8
0
100
AcDbLine
 10
7.341966725954877
 20
-3.043940164404549
 30
0.0
 11
7.156177511554874
 21
-3.033881078004544
 31
0.0
  0
LINE
  5
E5
330
2
100
AcDbEntity
  8
0
100
AcDbLine
 10
7.535835561154884
 20
-3.055177042804547
 30
0.0
 11
7.341966725954877
 21
-3.043940164404549
 31
0.0
  0
LINE
  5
E6
330
2
100
AcDbEntity
  8
0
100
AcDbLine
 10
7.73815464115488
 20
-3.067713471604538
 30
0.0
 11
7.535835561154884
 21
-3.055177042804547
 31
0.0
  0
LWPOLYLINE
  5
E7
330
2
100
AcDbEntity
  8
0
100
AcDbPolyline
 90
        8
 70
     0
 43
0.0
 10
8.640785199554883
 20
-3.134404095604537
 10
8.519447519554873
 20
-3.124345362804547
 10
8.400525034754878
 20
-3.11483604440454
 10
8.284043303554881
 20
-3.105846434804547
 10
8.170027877954879
 20
-3.097346823604539
 10
8.058488916354875
 20
-3.089308428404535
 10
7.949374959554873
 20
-3.081706170804537
 10
7.738154641154878
 20
-3.067713471604534
  0
LINE
  5
E8
330
2
100
AcDbEntity
  8
0
100
AcDbLine
 10
8.808862541954882
 20
-3.148982530804548
 30
0.0
 11
8.640785199554885
 21
-3.134404095604541
 31
0.0
  0
LINE
  5
E9
330
2
100
AcDbEntity
  8
0
100
AcDbLine
 10
8.897702207554873
 20
-3.157222854004547
 30
0.0
 11
8.808862541954882
 21
-3.148982530804548
 31
0.0
  0
LINE
  5
EA
330
2
100
AcDbEntity
  8
0
100
AcDbLine
 10
8.986662842754883
 20
-3.165942863604545
 30
0.0
 11
8.897702207554873
 21
-3.157222854004547
 31
0.0
  0
LINE
  5
EB
330
2
100
AcDbEntity
  8
0
100
AcDbLine
 10
9.075590901954884
 20
-3.175133834804544
 30
0.0
 11
8.986662842754883
 21
-3.165942863604545
 31
0.0
  0
LINE
  5
EC
330
2
100
AcDbEntity
  8
0
100
AcDbLine
 10
9.164260271554882
 20
-3.184777562804544
 30
0.0
 11
9.075590901954884
 21
-3.175133834804544
 31
0.0
  0
LINE
  5
ED
330
2
100
AcDbEntity
  8
0
100
AcDbLine
 10
14.97954647155488
 20
-4.115191198004541
 30
0.0
 11
14.69325467475488
 21
-4.083294158004537
 31
0.0
  0
LINE
  5
EE
330
2
100
AcDbEntity
  8
0
100
AcDbLine
 10
9.25251983955488
 20
-3.19486190200455
 30
0.0
 11
9.164260271554882
 21
-3.184777562804544
 31
0.0
  0
LINE
  5
EF
330
2
100
AcDbEntity
  8
0
100
AcDbLine
 10
14.69325467475488
 20
-4.083294158004537
 30
0.0
 11
14.53179258195487
 21
-4.064661260404538
 31
0.0
  0
LINE
  5
F0
330
2
100
AcDbEntity
  8
0
100
AcDbLine
 10
14.53179258195487
 20
-4.064661260404538
 30
0.0
 11
14.39565254995487
 21
-4.048561193204538
 31
0.0
  0
LINE
  5
F1
330
2
100
AcDbEntity
  8
0
100
AcDbLine
 10
9.340292956354874
 20
-3.205380628404544
 30
0.0
 11
9.25251983955488
 21
-3.19486190200455
 31
0.0
  0
LWPOLYLINE
  5
F2
330
2
100
AcDbEntity
  8
0
100
AcDbPolyline
 90
       21
 70
     0
 43
0.0
 10
10.05710608915487
 20
-3.143875631604544
 10
9.81180758355488
 20
-3.113983366004546
 10
9.542416836354874
 20
-3.083650898804535
 10
9.267435420354871
 20
-3.055383057204537
 10
9.000880399554873
 20
-3.030317719604539
 10
8.740897471554873
 20
-3.00779275160454
 10
8.478900465154879
 20
-2.986789033204544
 10
8.212780442754876
 20
-2.967025791604541
 10
7.946554348354879
 20
-2.948712726004544
 10
7.68250815635487
 20
-2.931900033204541
 10
7.415836423554878
 20
-2.916225518004537
 10
7.132790548354876
 20
-2.900998006004542
 10
6.833644221954884
 20
-2.886519106804541
 10
6.55592373715487
 20
-2.874659270004542
 10
6.314666167554875
 20
-2.865669223604541
 10
6.095783445954879
 20
-2.858622119604547
 10
5.892195604354881
 20
-2.853076753204547
 10
5.701021127554881
 20
-2.848838822004537
 10
5.51920114675488
 20
-2.845791423604538
 10
5.347558095554873
 20
-2.843942910004543
 10
5.18683459635487
 20
-2.843315239604535
  0
LINE
  5
F3
330
2
100
AcDbEntity
  8
0
100
AcDbLine
 10
14.39565254995487
 20
-4.048561193204538
 30
0.0
 11
14.24504833235488
 21
-4.03028379480455
 31
0.0
  0
LINE
  5
F4
330
2
100
AcDbEntity
  8
0
100
AcDbLine
 10
14.24504833235488
 20
-4.03028379480455
 30
0.0
 11
14.14911832755487
 21
-4.018308695604549
 31
0.0
  0
LINE
  5
F5
330
2
100
AcDbEntity
  8
0
100
AcDbLine
 10
9.427417996354877
 20
-3.216314999604538
 30
0.0
 11
9.340292956354874
 21
-3.205380628404544
 31
0.0
  0
LINE
  5
F6
330
2
100
AcDbEntity
  8
0
100
AcDbLine
 10
9.513648980354874
 20
-3.22763362840455
 30
0.0
 11
9.427417996354877
 21
-3.216314999604538
 31
0.0
  0
LWPOLYLINE
  5
F7
330
2
100
AcDbEntity
  8
0
100
AcDbPolyline
 90
       13
 70
     0
 43
0.0
 10
14.99540482995487
 20
-4.117042286004547
 10
14.81319309875487
 20
-4.092711831604546
 10
14.55050552435487
 20
-4.056449495604539
 10
14.28929139475488
 20
-4.019036116404535
 10
14.02919078195488
 20
-3.980480545204542
 10
13.76949808435488
 20
-3.940699074804541
 10
13.50956328915488
 20
-3.899617026804534
 10
13.24930442355487
 20
-3.857288356404538
 10
12.98879031795488
 20
-3.81385220440454
 10
12.72812498355487
 20
-3.769659796404539
 10
12.20692972435488
 20
-3.680592138804541
 10
11.94675551475488
 20
-3.636466900404542
 10
11.43167321715488
 20
-3.550604279604542
  0
LINE
  5
F8
330
2
100
AcDbEntity
  8
0
100
AcDbLine
 10
9.598828866754873
 20
-3.23930836920454
 30
0.0
 11
9.513648980354874
 21
-3.22763362840455
 31
0.0
  0
LINE
  5
F9
330
2
100
AcDbEntity
  8
0
100
AcDbLine
 10
9.682888761154872
 20
-3.25131403160454
 30
0.0
 11
9.598828866754873
 21
-3.23930836920454
 31
0.0
  0
LINE
  5
FA
330
2
100
AcDbEntity
  8
0
100
AcDbLine
 10
9.765657490754877
 20
-3.26360635320454
 30
0.0
 11
9.682888761154872
 21
-3.25131403160454
 31
0.0
  0
LINE
  5
FB
330
2
100
AcDbEntity
  8
0
100
AcDbLine
 10
9.846861943554872
 20
-3.276122375604547
 30
0.0
 11
9.765657490754877
 21
-3.26360635320454
 31
0.0
  0
LWPOLYLINE
  5
FC
330
2
100
AcDbEntity
  8
0
100
AcDbPolyline
 90
       32
 70
     0
 43
0.0
 10
13.96736469395487
 20
-5.226002322804546
 10
14.29423432435487
 20
-5.27856928600454
 10
14.62127187795488
 20
-5.327304017204539
 10
14.94873518995487
 20
-5.372241937204535
 10
15.27668022355487
 20
-5.413400414004541
 10
15.60435547155488
 20
-5.450724583604539
 10
15.93080755475487
 20
-5.484141524404535
 10
16.25514558835488
 20
-5.513602452404541
 10
16.57672867155487
 20
-5.539155110004543
 10
16.89497839795487
 20
-5.560871375604534
 10
17.13113978835487
 20
-5.574688822004546
 10
17.36491415475487
 20
-5.586446894004538
 10
17.59611483635487
 20
-5.596203759604534
 10
17.82455517395487
 20
-5.604017586804545
 10
18.05012313235488
 20
-5.609947956404539
 10
18.27300515475488
 20
-5.614060111604544
 10
18.49346231315488
 20
-5.616420711604547
 10
18.71175567635488
 20
-5.617096415604535
 10
19.00004508275488
 20
-5.615466089204545
 10
19.28644827955487
 20
-5.610963761204544
 10
19.57246167795487
 20
-5.603594294004537
 10
19.85940137075488
 20
-5.593348521204546
 10
20.14786214515487
 20
-5.580161153204542
 10
20.43825846355487
 20
-5.563952866804541
 10
20.65759359795487
 20
-5.549760358004547
 10
20.87853567475487
 20
-5.533753922804535
 10
21.10136975475488
 20
-5.515863513204536
 10
21.32638090355488
 20
-5.496019090804537
 10
21.55378279795488
 20
-5.474154465204534
 10
21.78350357235487
 20
-5.450218855604546
 10
22.01539997715487
 20
-5.424165342004542
 10
22.24932876435487
 20
-5.395946998004546
  0
LINE
  5
FD
330
2
100
AcDbEntity
  8
0
100
AcDbLine
 10
9.926325060354885
 20
-3.28881067000454
 30
0.0
 11
9.846861943554872
 21
-3.276122375604547
 31
0.0
  0
LINE
  5
FE
330
2
100
AcDbEntity
  8
0
100
AcDbLine
 10
10.00396748595487
 20
-3.301631599604551
 30
0.0
 11
9.926325060354885
 21
-3.28881067000454
 31
0.0
  0
LINE
  5
FF
330
2
100
AcDbEntity
  8
0
100
AcDbLine
 10
11.43167321715488
 20
-3.550604279604545
 30
0.0
 11
11.17996622035487
 21
-3.508291290804539
 31
0.0
  0
LINE
  5
100
330
2
100
AcDbEntity
  8
0
100
AcDbLine
 10
11.17996622035487
 20
-3.508291290804539
 30
0.0
 11
10.93426545875488
 21
-3.466464822004542
 31
0.0
  0
LINE
  5
101
330
2
100
AcDbEntity
  8
0
100
AcDbLine
 10
10.07964590515487
 20
-3.31453276280455
 30
0.0
 11
10.00396748595487
 21
-3.301631599604551
 31
0.0
  0
LINE
  5
102
330
2
100
AcDbEntity
  8
0
100
AcDbLine
 10
10.93426545875488
 20
-3.466464822004542
 30
0.0
 11
10.73605533235488
 21
-3.432219398004551
 31
0.0
  0
LINE
  5
103
330
2
100
AcDbEntity
  8
0
100
AcDbLine
 10
10.73605533235488
 20
-3.432219398004551
 30
0.0
 11
10.58283766035488
 21
-3.405331076404539
 31
0.0
  0
LINE
  5
104
330
2
100
AcDbEntity
  8
0
100
AcDbLine
 10
10.15315337875488
 20
-3.32744923640455
 30
0.0
 11
10.07964590515487
 21
-3.31453276280455
 31
0.0
  0
LINE
  5
105
330
2
100
AcDbEntity
  8
0
100
AcDbLine
 10
10.58283766035488
 20
-3.405331076404539
 30
0.0
 11
10.43507882995487
 21
-3.378945614004539
 31
0.0
  0
LINE
  5
106
330
2
100
AcDbEntity
  8
0
100
AcDbLine
 10
10.22438861235487
 20
-3.340333297204541
 30
0.0
 11
10.15315337875488
 21
-3.32744923640455
 31
0.0
  0
LWPOLYLINE
  5
107
330
2
100
AcDbEntity
  8
0
100
AcDbPolyline
 90
        3
 70
     0
 43
0.0
 10
10.43507882995487
 20
-3.378945614004535
 10
10.29350014835488
 20
-3.35311755320454
 10
10.22438861235487
 20
-3.340333297204537
  0
LWPOLYLINE
  5
108
330
2
100
AcDbEntity
  8
0
100
AcDbPolyline
 90
       10
 70
     0
 43
0.0
 10
-1.853750448445126
 20
14.93259269959544
 10
-2.096938635645116
 20
14.14433199399546
 10
-2.322095987645127
 20
13.30601676519545
 10
-2.525902858045128
 20
12.42027149639547
 10
-2.704956872445123
 20
11.49152621319545
 10
-2.856355288445129
 20
10.52377600999547
 10
-2.97743733484512
 20
9.522200865995458
 10
-3.065664840445123
 20
8.495154757195464
 10
-3.119351605245128
 20
7.448918262795459
 10
-3.13728675084512
 20
6.398186880395471
  0
LWPOLYLINE
  5
109
330
2
100
AcDbEntity
  8
0
100
AcDbPolyline
 90
       58
 70
     0
 43
0.0
 10
-1.311763915645116
 20
14.96232798759545
 10
-1.299097299645126
 20
14.99770968999546
 10
-1.285555085245121
 20
15.03276953319546
 10
-1.271148205245125
 20
15.06747836999547
 10
-1.255882998845123
 20
15.10182059079546
 10
-1.239784024445128
 20
15.13574322599545
 10
-1.222914630845124
 20
15.16912761959547
 10
-1.205331675645126
 20
15.20189074919547
 10
-1.187062486845121
 20
15.23401604199544
 10
-1.168128773245129
 20
15.26549787559547
 10
-1.148552118845117
 20
15.29633052999547
 10
-1.128352970045128
 20
15.32650978279546
 10
-1.107550674045128
 20
15.35603260039546
 10
-1.086163546045128
 20
15.38489682919545
 10
-1.064209778045125
 20
15.41309990919545
 10
-1.041706838845115
 20
15.44063973159545
 10
-1.018670530045127
 20
15.46751564999546
 10
-0.9951155076451243
 20
15.49372761799544
 10
-0.9710554516451281
 20
15.51927587559545
 10
-0.9465029700451168
 20
15.54416097799544
 10
-0.9214696500451253
 20
15.56838364679545
 10
-0.8959660548451182
 20
15.59194469479545
 10
-0.8700017444451191
 20
15.61484493799547
 10
-0.8435853140451285
 20
15.63708509799546
 10
-0.8167244052451252
 20
15.65866572359546
 10
-0.7894257572451267
 20
15.67958710439545
 10
-0.76169522604512
 20
15.69984920039546
 10
-0.7335378388451233
 20
15.71945155559545
 10
-0.7049578260451171
 20
15.73839323399546
 10
-0.6759586788451202
 20
15.75667274119545
 10
-0.646543187645122
 20
15.77428796199545
 10
-0.616713507645116
 20
15.79123609159545
 10
-0.5864712052451182
 20
15.80751357319546
 10
-0.5558173252451298
 20
15.82311603559544
 10
-0.5247524516451279
 20
15.83803823399544
 10
-0.4932767716451281
 20
15.85227399559546
 10
-0.4613901492451192
 20
15.86581616679545
 10
-0.4290922052451265
 20
15.87865654759546
 10
-0.3963823876451187
 20
15.89078586439545
 10
-0.3632600612451284
 20
15.90219370119545
 10
-0.32972462284512
 20
15.91286845959545
 10
-0.295775470845129
 20
15.92279735559545
 10
-0.2614123780451223
 20
15.93196629479545
 10
-0.2266350324451167
 20
15.94035999239547
 10
-0.1914442612451239
 20
15.94796167239546
 10
-0.1558419684451167
 20
15.95475316679547
 10
-0.1198155108451289
 20
15.96071736999546
 10
-0.0833492548451176
 20
15.96583486279546
 10
-0.0464720420451244
 20
15.97007856359546
 10
-0.0093352820451287
 20
15.97341322599545
 10
0.0278903883548765
 20
15.97581622759544
 10
0.0651538107548788
 20
15.97728362279546
 10
0.1024379147548728
 20
15.97781490439546
 10
0.1397175483548807
 20
15.97740970439547
 10
0.1769697003548742
 20
15.97606830759547
 10
0.2141707627548754
 20
15.97379157959547
 10
0.2512974523548763
 20
15.97058096839545
 10
0.2883293851548814
 20
15.96643813319546
  0
LWPOLYLINE
  5
10A
330
2
100
AcDbEntity
  8
0
100
AcDbPolyline
 90
       19
 70
     0
 43
0.0
 10
-1.565795776445128
 20
16.39987164359546
 10
-1.570846083645122
 20
16.38813857159546
 10
-1.577646178045128
 20
16.36607831239546
 10
-1.586149434045125
 20
16.33384656359545
 10
-1.596295898045127
 20
16.29167048039546
 10
-1.608014046845127
 20
16.23984730119546
 10
-1.621221288445127
 20
16.17874225639546
 10
-1.635824539645128
 20
16.10878598919545
 10
-1.651720872445125
 20
16.03047152999546
 10
-1.668798243645127
 20
15.94435080839547
 10
-1.686936288445124
 20
15.85103077479546
 10
-1.706007166845125
 20
15.75116911079545
 10
-1.725876474045122
 20
15.64546959719545
 10
-1.746404176445125
 20
15.53467716519544
 10
-1.767445595645128
 20
15.41957265159545
 10
-1.788852434045125
 20
15.30096729319545
 10
-1.810473824445125
 20
15.17969699879545
 10
-1.832157386045125
 20
15.05661645959544
 10
-1.853750446845126
 20
14.93259269959544
  0
LWPOLYLINE
  5
10B
330
2
100
AcDbEntity
  8
CENTER
 62
     1
 48
4.0
100
AcDbPolyline
 90
        3
 70
   128
 43
0.0
 10
8.786834596354879
 20
0.3981868803954569
 10
5.18683459635487
 20
0.3981868803954569
 10
1.586834596354876
 20
0.3981868803954569
  0
LWPOLYLINE
  5
10F
330
2
100
AcDbEntity
  8
0
100
AcDbPolyline
 90
       53
 70
     0
 43
0.0
 10
-1.292601093245124
 20
-2.145544265204534
 10
-1.349949731645125
 20
-1.976843769204535
 10
-1.406652478845117
 20
-1.805324167604538
 10
-1.462800322045126
 20
-1.630496988404544
 10
-1.51848425484512
 20
-1.451873756404538
 10
-1.573696171645124
 20
-1.269297284404544
 10
-1.628031586045125
 20
-1.083935534004538
 10
-1.681036382845121
 20
-0.8971833996045432
 10
-1.732454293245126
 20
-0.7100183980045359
 10
-1.782115426045123
 20
-0.5231765692045372
 10
-1.82999754764512
 20
-0.3368454460045456
 10
-1.860905448445123
 20
-0.2130858364045451
 10
-1.890839013245127
 20
-0.0905056508045448
 10
-1.919608054845127
 20
0.0299650755954559
 10
-1.947090846845128
 20
0.1476826467954595
 10
-1.973439533245127
 20
0.2631487379954649
 10
-1.998874723645116
 20
0.3771513683954595
 10
-2.035840509245119
 20
0.547492957195459
 10
-2.071997619645117
 20
0.7199339523954649
 10
-2.107100642045125
 20
0.8933711619954607
 10
-2.140936587645128
 20
1.066709574795453
 10
-2.157566475645126
 20
1.154298949195464
 10
-2.174131338045128
 20
1.243235880395459
 10
-2.190695350845118
 20
1.333937408395456
 10
-2.207223306045122
 20
1.426275664395461
 10
-2.23347975724512
 20
1.57698233959546
 10
-2.259463930045129
 20
1.731442752395452
 10
-2.285149606845124
 20
1.889896696395453
 10
-2.310510565245124
 20
2.052583969995453
 10
-2.33552058764512
 20
2.219744368395453
 10
-2.35606920844512
 20
2.362604838795462
 10
-2.376304309245128
 20
2.508697955595465
 10
-2.396174283645123
 20
2.657983499595459
 10
-2.415636560445122
 20
2.810514819595454
 10
-2.434684706045118
 20
2.966719510795456
 10
-2.453321320445127
 20
3.127118734795459
 10
-2.471528267645126
 20
3.292064093195463
 10
-2.489204454845122
 20
3.461228955595458
 10
-2.506228053245123
 20
3.634117129995459
 10
-2.518492395645125
 20
3.765868717195459
 10
-2.530258899645119
 20
3.898869365195452
 10
-2.541479814845118
 20
4.032719792395454
 10
-2.552165275645123
 20
4.167688363595459
 10
-2.562333795645116
 20
4.304165944395464
 10
-2.571979523645126
 20
4.44236574919546
 10
-2.581082346045121
 20
4.582308515595457
 10
-2.589589462845125
 20
4.723422720395461
 10
-2.604614731645128
 20
5.006335657995464
 10
-2.616842819645128
 20
5.286557592395453
 10
-2.626354058045123
 20
5.563624702795465
 10
-2.633254784445128
 20
5.83870821479546
 10
-2.637628758845124
 20
6.112797462795455
 10
-2.639508574845123
 20
6.385486045195463
  0
LWPOLYLINE
  5
110
330
2
100
AcDbEntity
  8
0
100
AcDbPolyline
 90
       30
 70
     0
 43
0.0
 10
-1.283370325245115
 20
-2.145545270004546
 10
-1.354067979645122
 20
-1.937585650804535
 10
-1.423084810045125
 20
-1.727381446004542
 10
-1.491913643645119
 20
-1.510152470004541
 10
-1.560395283645121
 20
-1.285832833204537
 10
-1.628580838845124
 20
-1.053612921204546
 10
-1.696625966845118
 20
-0.8121720204045459
 10
-1.764827453245118
 20
-0.5594259244045361
 10
-1.833495674045124
 20
-0.2928149516045408
 10
-1.902570608445117
 20
-0.0107633452045377
 10
-1.970443690045115
 20
0.2818420483954611
 10
-2.035520635645127
 20
0.5789991219954516
 10
-2.097869826045126
 20
0.8814120835954639
 10
-2.157320469245121
 20
1.188698555595465
 10
-2.213375310845123
 20
1.498516544395457
 10
-2.265744781245118
 20
1.809064929995457
 10
-2.314444738045125
 20
2.120020521995456
 10
-2.359615326845116
 20
2.43191256359546
 10
-2.401636122045118
 20
2.747428643595455
 10
-2.440404994045124
 20
3.066250893195459
 10
-2.475829968445125
 20
3.38807242279546
 10
-2.507823966845123
 20
3.712550152395465
 10
-2.536333042045129
 20
4.039614701195461
 10
-2.561328952445123
 20
4.369480825995452
 10
-2.582739120445125
 20
4.701815523595456
 10
-2.600497093245124
 20
5.036236161995461
 10
-2.614546954045124
 20
5.372359950795456
 10
-2.624842574845118
 20
5.709781464395447
 10
-2.631348966845123
 20
6.048090797195456
 10
-2.634042410045125
 20
6.386863849995464
  0
LWPOLYLINE
  5
111
330
2
100
AcDbEntity
  8
0
100
AcDbPolyline
 90
       10
 70
     0
 43
0.0
 10
-1.853750442045125
 20
-2.136218961204548
 10
-2.096938373245123
 20
-1.347959156404542
 10
-2.322095523645117
 20
-0.509644846004548
 10
-2.525902475645125
 20
0.376100433995461
 10
-2.704956723645125
 20
1.30484672839546
 10
-2.856355246845126
 20
2.272597405195455
 10
-2.977437315645119
 20
3.274172726795455
 10
-3.065664848445123
 20
4.301219072395454
 10
-3.119351584445126
 20
5.34745488359546
 10
-3.13728675084512
 20
6.398186880395471
  0
LWPOLYLINE
  5
112
330
2
100
AcDbEntity
  8
0
100
AcDbPolyline
 90
       19
 70
     0
 43
0.0
 10
-1.853750152445115
 20
-2.136219817204548
 10
-1.832157574845126
 20
-2.260242713204547
 10
-1.810474237245117
 20
-2.383323233204535
 10
-1.788853091645123
 20
-2.504593505204539
 10
-1.767446514045118
 20
-2.623198849204541
 10
-1.746405365245124
 20
-2.738303358004543
 10
-1.725877933245129
 20
-2.849095802804541
 10
-1.706008886845125
 20
-2.954795346804544
 10
-1.686938246845116
 20
-3.054657049204536
 10
-1.668800414845122
 20
-3.147977114804547
 10
-1.651723211645119
 20
-3.234097854004545
 10
-1.635826989245117
 20
-3.312412318004547
 10
-1.62122377324512
 20
-3.382368577204545
 10
-1.608016477245129
 20
-3.443473602804544
 10
-1.596298165245116
 20
-3.495296746804541
 10
-1.586151414845119
 20
-3.537472775604541
 10
-1.577647731645129
 20
-3.569704444404536
 10
-1.570847051645117
 20
-3.591764598004544
 10
-1.565798499645126
 20
-3.60349797400454
  0
LINE
  5
113
330
2
100
AcDbEntity
  8
0
100
AcDbLine
 10
-2.634042410045124
 20
6.38686384999546
 30
0.0
 11
-2.634066405245119
 21
6.398186880395467
 31
0.0
  0
LINE
  5
114
330
2
100
AcDbEntity
  8
0
100
AcDbLine
 10
-2.639533083645117
 20
6.396807952395459
 30
0.0
 11
-2.639535778045127
 21
6.398186880395467
 31
0.0
  0
LWPOLYLINE
  5
115
330
2
100
AcDbEntity
  8
0
100
AcDbPolyline
 90
       29
 70
     0
 43
0.0
 10
-2.634066405245121
 20
6.398186880395471
 10
-2.632795098045122
 20
6.738065982795447
 10
-2.627616778045123
 20
7.079804552395458
 10
-2.61852486764512
 20
7.420802953995448
 10
-2.605558496445127
 20
7.760238280395455
 10
-2.588662237245117
 20
8.099856397195466
 10
-2.567866318845119
 20
8.438826873995466
 10
-2.543214805245128
 20
8.776535560395458
 10
-2.514742026045126
 20
9.112708592395463
 10
-2.482502267645116
 20
9.44696087239545
 10
-2.446586760445129
 20
9.778718107595452
 10
-2.407069734845123
 20
10.10769988839545
 10
-2.364051040445119
 20
10.43348470599546
 10
-2.317649651645126
 20
10.75561198599545
 10
-2.267970904445121
 20
11.07380172519545
 10
-2.215137013245126
 20
11.38771977479545
 10
-2.159250469245122
 20
11.69719534119546
 10
-2.100361373245121
 20
12.00236791239545
 10
-2.038569051645126
 20
12.30312374279544
 10
-1.974006522045115
 20
12.59920440999546
 10
-1.906791506045124
 20
12.89045182919547
 10
-1.837077437245127
 20
13.17658079399545
 10
-1.765018648445121
 20
13.45734465639544
 10
-1.69077421324512
 20
13.73251469319545
 10
-1.614903344445124
 20
14.00051401959545
 10
-1.537655251645119
 20
14.26107188679544
 10
-1.45865397484512
 20
14.51595798599545
 10
-1.382274901245125
 20
14.75226796039545
 10
-1.311762130045124
 20
14.96232742919547
  0
LWPOLYLINE
  5
116
330
2
100
AcDbEntity
  8
0
100
AcDbPolyline
 90
       45
 70
     0
 43
0.0
 10
-2.639535778045129
 20
6.398186880395471
 10
-2.637914075645127
 20
6.774663187595464
 10
-2.631602501245126
 20
7.148872640395453
 10
-2.620619466045127
 20
7.521207587595469
 10
-2.609343010045122
 20
7.799294297995444
 10
-2.595549355645118
 20
8.075690531595469
 10
-2.579338642045115
 20
8.349539525195453
 10
-2.560811013245128
 20
8.619984515595447
 10
-2.544397014845117
 20
8.833327645195467
 10
-2.526669483645122
 20
9.043587800395457
 10
-2.507733618045122
 20
9.250408899595456
 10
-2.487694619645125
 20
9.453434861195447
 10
-2.466657688445124
 20
9.652309603595469
 10
-2.448437344445125
 20
9.814651977995467
 10
-2.429638998845121
 20
9.973906563595463
 10
-2.410304603645116
 20
10.13011564359546
 10
-2.390492293245117
 20
10.28321456039545
 10
-2.370324952445116
 20
10.43271090279545
 10
-2.349941653245124
 20
10.57800532039546
 10
-2.329454363645126
 20
10.71869189159546
 10
-2.308866643645117
 20
10.85513839719546
 10
-2.288154957245126
 20
10.98790604359545
 10
-2.27251270764512
 20
11.08545915239547
 10
-2.256699728445127
 20
11.18181948359544
 10
-2.240662931645118
 20
11.27736039399546
 10
-2.224487909245127
 20
11.37170507079547
 10
-2.198504914045116
 20
11.51933783399546
 10
-2.172274800445123
 20
11.66362039719545
 10
-2.145596443645118
 20
11.80570967719545
 10
-2.118268720445115
 20
11.94676259239547
 10
-2.090090507645129
 20
12.08793605639546
 10
-2.053461403645115
 20
12.26575521479544
 10
-2.015372733245129
 20
12.44435188039544
 10
-1.975919670845115
 20
12.62294206439544
 10
-1.934843742845117
 20
12.80247996839544
 10
-1.891893453245117
 20
12.98392350759546
 10
-1.847198874045119
 20
13.16650724199546
 10
-1.800941981245117
 20
13.34923583399545
 10
-1.753130814845121
 20
13.53191768039546
 10
-1.686958878845118
 20
13.77526797799545
 10
-1.618208598845129
 20
14.01756037479545
 10
-1.547127789245124
 20
14.25780348359545
 10
-1.473917198845128
 20
14.49520958119545
 10
-1.398589296445123
 20
14.72980563559547
 10
-1.321109478845116
 20
14.96182228839545
  0
LWPOLYLINE
  5
118
330
2
100
AcDbEntity
  8
0
100
AcDbPolyline
 90
       46
 70
     0
 43
0.0
 10
5.18683459635487
 20
2.198854709195458
 10
5.052918831554876
 20
2.193854576395452
 10
4.919317338754879
 20
2.178848053195451
 10
4.78679911475487
 20
2.153869608395453
 10
4.656136229954881
 20
2.119012745995462
 10
4.527860394754881
 20
2.07434027879546
 10
4.402460234754883
 20
2.019875227595463
 10
4.280922133954874
 20
1.955879830795453
 10
4.164400517954874
 20
1.882872683595465
 10
4.053771122754881
 20
1.801395549195461
 10
3.949780236354882
 20
1.712034091595455
 10
3.853055749954876
 20
1.615385720395451
 10
3.76419765075488
 20
1.512123880395463
 10
3.683758346754871
 20
1.402992365195459
 10
3.612223882754875
 20
1.288792150795458
 10
3.54996444755487
 20
1.170287205195464
 10
3.497269948354883
 20
1.048227525195457
 10
3.454416313154879
 20
0.9235152787954632
 10
3.421585724354883
 20
0.797076960395458
 10
3.398856749954873
 20
0.669802726795453
 10
3.386219325954883
 20
0.5425707571954633
 10
3.38359685875487
 20
0.4162530915954648
 10
3.390922505154875
 20
0.2897703555954649
 10
3.40842400275487
 20
0.161481141195452
 10
3.436408116354883
 20
0.0313459123954516
 10
3.474923972354872
 20
-0.0993792332045445
 10
3.522435684354874
 20
-0.2261558204045428
 10
3.576128725954873
 20
-0.3443972076045441
 10
3.634509017154883
 20
-0.4540487020045419
 10
3.696732439554878
 20
-0.5558527900045363
 10
3.762174479554872
 20
-0.6503928060045468
 10
3.830575042754873
 20
-0.7384214748045395
 10
3.901818306754876
 20
-0.8205493196045381
 10
3.97601057235488
 20
-0.8973682956045365
 10
4.05338278835488
 20
-0.9693433708045375
 10
4.134166588354872
 20
-1.036726782004535
 10
4.218761789954882
 20
-1.099723433204545
 10
4.307509218754873
 20
-1.158309321204541
 10
4.400550157954882
 20
-1.212200426804542
 10
4.498532444354879
 20
-1.261264967604546
 10
4.601606074754883
 20
-1.304940228404547
 10
4.709926457154878
 20
-1.342573745204546
 10
4.823323029954877
 20
-1.373327766004535
 10
4.941194831554881
 20
-1.396270116404537
 10
5.062729804354873
 20
-1.410544172404541
 10
5.18683459635487
 20
-1.415427438004542
  0
LINE
  5
119
330
2
100
AcDbEntity
  8
0
100
AcDbLine
 10
33.63882552755487
 20
6.398186880395467
 30
0.0
 11
33.64114628435487
 21
6.398191973195462
 31
0.0
  0
LINE
  5
11C
330
2
100
AcDbEntity
  8
0
100
AcDbLine
 10
13.00773559635487
 20
6.398186880395467
 30
0.0
 11
13.02758184435488
 21
6.398186880395467
 31
0.0
  0
LINE
  5
11D
330
2
100
AcDbEntity
  8
0
100
AcDbLine
 10
-28.87478773964512
 20
6.398171792395441
 30
0.0
 11
-28.75192273324512
 21
6.398186878795467
 31
0.0
  0
LINE
  5
11F
330
2
100
AcDbEntity
  8
0
100
AcDbLine
 10
-23.26515633484512
 20
6.398186880395467
 30
0.0
 11
-23.26747709324512
 21
6.398191973195462
 31
0.0
  0
LINE
  5
120
330
2
100
AcDbEntity
  8
CENTER
 62
     1
 48
4.0
100
AcDbLine
 10
5.186834596354872
 20
-3.17267701162935
 30
0.0
 11
5.186834596354872
 21
3.969050772420256
 31
0.0
  0
LINE
  5
121
330
2
100
AcDbEntity
  8
0
100
AcDbLine
 10
10.08521666195487
 20
15.96632490439544
 30
0.0
 11
10.09633283955487
 21
15.97650624999546
 31
0.0
  0
LWPOLYLINE
  5
122
330
2
100
AcDbEntity
  8
0
100
AcDbPolyline
 90
       26
 70
     0
 43
0.0
 10
3.99933459635487
 20
-7.302086230004547
 10
4.000150273154872
 20
-7.298268761204539
 10
4.002611605954882
 20
-7.29438391000454
 10
4.006703132354871
 20
-7.290462066804536
 10
4.012379031554871
 20
-7.286526310004546
 10
4.019736852354881
 20
-7.282517540404541
 10
4.029282775554875
 20
-7.278253804404542
 10
4.041758554754878
 20
-7.273586079604541
 10
4.057668484354877
 20
-7.268533847604544
 10
4.077256636354874
 20
-7.263195972404545
 10
4.101218210754879
 20
-7.257545834804545
 10
4.130468308354878
 20
-7.25155109240454
 10
4.165527949954878
 20
-7.245291378804537
 10
4.206816428354883
 20
-7.238860505204542
 10
4.254667690754871
 20
-7.232363338804546
 10
4.309441961154874
 20
-7.225904655604537
 10
4.371148183554879
 20
-7.219618273204545
 10
4.43999856275488
 20
-7.213600729204543
 10
4.515997505154871
 20
-7.207959937204535
 10
4.599128671554879
 20
-7.202796462004542
 10
4.688686833154875
 20
-7.198238146804541
 10
4.783220633154883
 20
-7.194411977204538
 10
4.88133952115487
 20
-7.191395810804536
 10
4.981923845954881
 20
-7.189227340404542
 10
5.084105647554878
 20
-7.187922239604546
 10
5.18683459635487
 20
-7.187487822004541
  0
LINE
  5
123
330
2
100
AcDbEntity
  8
0
100
AcDbLine
 10
0.2883293851548831
 20
15.96643813319546
 30
0.0
 11
0.2773363531548814
 21
15.97650624999546
 31
0.0
  0
LINE
  5
124
330
2
100
AcDbEntity
  8
0
100
AcDbLine
 10
10.18905486355487
 20
16.13027099879546
 30
0.0
 11
10.36346537555488
 21
16.16233126599546
 31
0.0
  0
LINE
  5
125
330
2
100
AcDbEntity
  8
0
100
AcDbLine
 10
10.36346537555488
 20
16.16233126599546
 30
0.0
 11
10.50824444115487
 21
16.18844812519544
 31
0.0
  0
LINE
  5
126
330
2
100
AcDbEntity
  8
0
100
AcDbLine
 10
10.11668265235488
 20
16.11736669959544
 30
0.0
 11
10.18905486355487
 21
16.13027099879546
 31
0.0
  0
LINE
  5
127
330
2
100
AcDbEntity
  8
0
100
AcDbLine
 10
10.50824444115487
 20
16.18844812519544
 30
0.0
 11
10.65878361875488
 21
16.21508524199545
 31
0.0
  0
LINE
  5
128
330
2
100
AcDbEntity
  8
0
100
AcDbLine
 10
10.65878361875488
 20
16.21508524199545
 30
0.0
 11
10.85421363315487
 21
16.24907070119546
 31
0.0
  0
LINE
  5
129
330
2
100
AcDbEntity
  8
0
100
AcDbLine
 10
10.04206523955487
 20
16.10444998279545
 30
0.0
 11
10.11668265235488
 21
16.11736669959544
 31
0.0
  0
LWPOLYLINE
  5
12A
330
2
100
AcDbEntity
  8
0
100
AcDbPolyline
 90
       11
 70
     0
 43
0.0
 10
12.21270861235487
 20
16.47795107879547
 10
12.74060522675488
 20
16.56816007239545
 10
13.00463644115487
 20
16.61289152839545
 10
13.26830526355488
 20
16.65679319079545
 10
13.53137619795488
 20
16.69948680199546
 10
13.79375206515487
 20
16.74084104039546
 10
14.05557896275487
 20
16.78082506439547
 10
14.31783779315487
 20
16.81956296679546
 10
14.58158613235487
 20
16.85718606919546
 10
14.84735348115488
 20
16.89369962119546
 10
14.99343297235488
 20
16.91315682599547
  0
LINE
  5
12B
330
2
100
AcDbEntity
  8
0
100
AcDbLine
 10
10.85421363315487
 20
16.24907070119546
 30
0.0
 11
11.05615187795487
 21
16.28366155879545
 31
0.0
  0
LINE
  5
12C
330
2
100
AcDbEntity
  8
0
100
AcDbLine
 10
11.94952020275488
 20
16.43330670279546
 30
0.0
 11
12.21270861235487
 21
16.47795107879546
 31
0.0
  0
LINE
  5
12D
330
2
100
AcDbEntity
  8
0
100
AcDbLine
 10
11.05615187795487
 20
16.28366155879545
 30
0.0
 11
11.30520527795488
 21
16.32577816199547
 31
0.0
  0
LINE
  5
12E
330
2
100
AcDbEntity
  8
0
100
AcDbLine
 10
9.965379474754884
 20
16.09158094119545
 30
0.0
 11
10.04206523955487
 21
16.10444998279545
 31
0.0
  0
LINE
  5
12F
330
2
100
AcDbEntity
  8
0
100
AcDbLine
 10
11.30520527795488
 20
16.32577816199547
 30
0.0
 11
11.55902134835487
 21
16.36821174599544
 31
0.0
  0
LINE
  5
130
330
2
100
AcDbEntity
  8
0
100
AcDbLine
 10
11.55902134835487
 20
16.36821174599544
 30
0.0
 11
11.94952020275488
 21
16.43330670279546
 31
0.0
  0
LINE
  5
131
330
2
100
AcDbEntity
  8
0
100
AcDbLine
 10
9.886816217154875
 20
16.07882122439546
 30
0.0
 11
9.965379474754884
 21
16.09158094119545
 31
0.0
  0
LINE
  5
132
330
2
100
AcDbEntity
  8
0
100
AcDbLine
 10
9.806471242754883
 20
16.06621398119544
 30
0.0
 11
9.886816217154875
 21
16.07882122439546
 31
0.0
  0
LWPOLYLINE
  5
133
330
2
100
AcDbEntity
  8
0
100
AcDbPolyline
 90
        3
 70
     0
 43
0.0
 10
9.68288876115487
 20
16.04768779239545
 10
9.72445157555488
 20
16.05380203719546
 10
9.806471242754881
 20
16.06621398119544
  0
LINE
  5
134
330
2
100
AcDbEntity
  8
0
100
AcDbLine
 10
0.6080117019548812
 20
16.05998011399544
 30
0.0
 11
0.690780431554872
 21
16.04768779239544
 31
0.0
  0
LINE
  5
135
330
2
100
AcDbEntity
  8
0
100
AcDbLine
 10
0.5268072491548726
 20
16.07249613639545
 30
0.0
 11
0.6080117019548812
 21
16.05998011399544
 31
0.0
  0
LINE
  5
136
330
2
100
AcDbEntity
  8
0
100
AcDbLine
 10
0.4473441323548731
 20
16.08518443079544
 30
0.0
 11
0.5268072491548726
 21
16.07249613639545
 31
0.0
  0
LINE
  5
137
330
2
100
AcDbEntity
  8
0
100
AcDbLine
 10
0.369701705154883
 20
16.09800536039544
 30
0.0
 11
0.4473441323548731
 21
16.08518443079544
 31
0.0
  0
LINE
  5
138
330
2
100
AcDbEntity
  8
0
100
AcDbLine
 10
-1.058004026045123
 20
16.34697804039545
 30
0.0
 11
-0.8062970276451277
 21
16.30466505159544
 31
0.0
  0
LINE
  5
139
330
2
100
AcDbEntity
  8
0
100
AcDbLine
 10
-0.8062970276451277
 20
16.30466505159544
 30
0.0
 11
-0.5605962676451224
 21
16.26283858279545
 31
0.0
  0
LINE
  5
13A
330
2
100
AcDbEntity
  8
0
100
AcDbLine
 10
0.2940232875548805
 20
16.11090652359545
 30
0.0
 11
0.369701705154883
 21
16.09800536039544
 31
0.0
  0
LINE
  5
13B
330
2
100
AcDbEntity
  8
0
100
AcDbLine
 10
-0.5605962676451224
 20
16.26283858279545
 30
0.0
 11
-0.3623861396451229
 21
16.22859316039544
 31
0.0
  0
LINE
  5
13C
330
2
100
AcDbEntity
  8
0
100
AcDbLine
 10
-0.3623861396451229
 20
16.22859316039544
 30
0.0
 11
-0.2091684676451262
 21
16.20170483719546
 31
0.0
  0
LINE
  5
13D
330
2
100
AcDbEntity
  8
0
100
AcDbLine
 10
0.2205158139548775
 20
16.12382299719545
 30
0.0
 11
0.2940232875548805
 21
16.11090652359545
 31
0.0
  0
LINE
  5
13E
330
2
100
AcDbEntity
  8
0
100
AcDbLine
 10
-0.2091684676451262
 20
16.20170483719546
 30
0.0
 11
-0.0614096372451183
 21
16.17531937479544
 31
0.0
  0
LINE
  5
13F
330
2
100
AcDbEntity
  8
0
100
AcDbLine
 10
0.1492805803548851
 20
16.13670705799544
 30
0.0
 11
0.2205158139548775
 21
16.12382299719545
 31
0.0
  0
LWPOLYLINE
  5
140
330
2
100
AcDbEntity
  8
0
100
AcDbPolyline
 90
        3
 70
     0
 43
0.0
 10
-0.0614096372451201
 20
16.17531937479545
 10
0.0801690427548749
 20
16.14949131399545
 10
0.1492805803548833
 20
16.13670705799545
  0
LINE
  5
142
330
2
100
AcDbEntity
  8
0
100
AcDbLine
 10
13.01320496915488
 20
6.398186880395467
 30
0.0
 11
13.01320227475487
 21
6.396807952395459
 31
0.0
  0
LINE
  5
143
330
2
100
AcDbEntity
  8
0
100
AcDbLine
 10
13.00773559635487
 20
6.398186880395467
 30
0.0
 11
13.00771160115488
 21
6.38686384999546
 31
0.0
  0
LWPOLYLINE
  5
144
330
2
100
AcDbEntity
  8
0
100
AcDbPolyline
 90
       53
 70
     0
 43
0.0
 10
13.01317776755487
 20
6.385486045195463
 10
13.01129800115488
 20
6.112801873995451
 10
13.00692415795487
 20
5.838717016395449
 10
13.00002363955488
 20
5.563637854795459
 10
12.99051269395488
 20
5.286575110795453
 10
12.97828498515487
 20
5.006357625995462
 10
12.96326018675488
 20
4.723449192395463
 10
12.95475333395488
 20
4.582337184395456
 10
12.94565079155488
 20
4.442396526795462
 10
12.93600535315488
 20
4.304198713995461
 10
12.92583712915487
 20
4.167722997195454
 10
12.91515197075487
 20
4.032756155595464
 10
12.90393136435487
 20
3.898907345995453
 10
12.89216517395487
 20
3.765908222795459
 10
12.87990115155487
 20
3.634158078795465
 10
12.86287798675488
 20
3.461271710795458
 10
12.84520223315487
 20
3.292108507595457
 10
12.82699571635487
 20
3.127164643595463
 10
12.80835952275488
 20
2.966766741195456
 10
12.78931178995488
 20
2.810563224395451
 10
12.76984992115487
 20
2.65803296839546
 10
12.74998035155488
 20
2.508748406795461
 10
12.72974565395488
 20
2.362656201995463
 10
12.70919742995488
 20
2.219796581195453
 10
12.68418788115488
 20
2.05263713479546
 10
12.65882739635488
 20
1.889950771595465
 10
12.63314219955488
 20
1.731497729995453
 10
12.60715851955487
 20
1.577038251595453
 10
12.58090258035487
 20
1.426332577995452
 10
12.56437495635488
 20
1.33399499719546
 10
12.54781128275487
 20
1.243294174795451
 10
12.53124676755487
 20
1.154357971595459
 10
12.51461723315488
 20
1.066769344395453
 10
12.48078200435488
 20
0.8934323811954527
 10
12.44567969235487
 20
0.7199964723954651
 10
12.40952341715487
 20
0.5475572419954631
 10
12.37255856115487
 20
0.377217731595465
 10
12.34712391475487
 20
0.2632160307954621
 10
12.32077560115487
 20
0.1477500675954531
 10
12.29329291795487
 20
0.030031481995465
 10
12.26452365875488
 20
-0.0904416172045473
 10
12.23458959795488
 20
-0.2130252556045349
 10
12.20368100435487
 20
-0.3367889884045354
 10
12.15579760275487
 20
-0.5231268972045485
 10
12.10613490675487
 20
-0.7099761292045344
 10
12.05471515795487
 20
-0.897149082804546
 10
12.00170833715488
 20
-1.083909327604544
 10
11.94737085555487
 20
-1.269278826804537
 10
11.89215706675487
 20
-1.451861967604543
 10
11.83647166835487
 20
-1.630490209204538
 10
11.78032276595487
 20
-1.805320839604547
 10
11.72361931795487
 20
-1.976842609204538
 10
11.66627028435488
 20
-2.145544265204534
  0
LWPOLYLINE
  5
145
330
2
100
AcDbEntity
  8
0
100
AcDbPolyline
 90
       32
 70
     0
 43
0.0
 10
13.00771160115488
 20
6.386863849995464
 10
13.00513075955487
 20
6.056460171595446
 10
12.99892271315488
 20
5.726489648395457
 10
12.98910902675487
 20
5.397342981195464
 10
12.97572154195488
 20
5.069402072395462
 10
12.95880217715487
 20
4.743043617995454
 10
12.93840196275488
 20
4.418626901195452
 10
12.91458064755487
 20
4.096498800395451
 10
12.88740749235488
 20
3.777008433995462
 10
12.85691670515487
 20
3.460043531595459
 10
12.82314571475487
 20
3.14553764039546
 10
12.78617306835488
 20
2.833806801995464
 10
12.74608303635487
 20
2.525144245195463
 10
12.70298876115488
 20
2.219984621195465
 10
12.65668196115487
 20
1.916648678795453
 10
12.60689181715487
 20
1.613597083595465
 10
12.55360210035488
 20
1.31113149159546
 10
12.49688626515487
 20
1.009981024395457
 10
12.43727899955487
 20
0.7129294435954563
 10
12.37501059635488
 20
0.4207504643954536
 10
12.31013341875487
 20
0.1333012675954563
 10
12.24299261715488
 20
-0.1483703324045393
 10
12.17578667635487
 20
-0.4162461756045417
 10
12.10901328275487
 20
-0.6700823292045471
 10
12.04263048595487
 20
-0.9115634156045473
 10
11.97619955635487
 20
-1.143431321204545
 10
11.91004175315487
 20
-1.365497086004538
 10
11.84871822355488
 20
-1.564114268404537
 10
11.79341071795487
 20
-1.737735646004537
 10
11.74345791155488
 20
-1.890345014004537
 10
11.69822087315488
 20
-2.025286978804544
 10
11.65704101555488
 20
-2.145546346804536
  0
LWPOLYLINE
  5
146
330
2
100
AcDbEntity
  8
0
100
AcDbPolyline
 90
       21
 70
     0
 43
0.0
 10
6.37433459635487
 20
-7.302086230004547
 10
6.369826749954881
 20
-7.310873295604537
 10
6.356320869954871
 20
-7.319430846004536
 10
6.33462424435487
 20
-7.327561524404544
 10
6.306189129154873
 20
-7.33513644440454
 10
6.27283976595487
 20
-7.342051615604546
 10
6.235747188354878
 20
-7.348359463604538
 10
6.194796081154876
 20
-7.354247254004548
 10
6.150004921154874
 20
-7.359788489204547
 10
6.101077671554875
 20
-7.365049911604543
 10
6.047616380354881
 20
-7.370070865204539
 10
5.989117079554873
 20
-7.374871092404546
 10
5.924380813954883
 20
-7.379492130804536
 10
5.85221598035487
 20
-7.383928948404545
 10
5.772597668354876
 20
-7.38808031640454
 10
5.685902045954875
 20
-7.39183122200454
 10
5.592619593154878
 20
-7.395074466804544
 10
5.493851105154874
 20
-7.397699270004537
 10
5.392389967554876
 20
-7.399594878004535
 10
5.289881413954873
 20
-7.400730892404538
 10
5.18683459635487
 20
-7.401109401204536
  0
LWPOLYLINE
  5
147
330
2
100
AcDbEntity
  8
0
100
AcDbPolyline
 90
        3
 70
     0
 43
0.0
 10
0.2773363755548814
 20
-3.180132711604542
 10
0.2966481899548796
 20
-3.162395490804541
 10
0.3166820555548782
 20
-3.143764350004545
  0
LWPOLYLINE
  5
148
330
2
100
AcDbEntity
  8
0
100
AcDbPolyline
 90
       32
 70
     0
 43
0.0
 10
13.96736469395487
 20
18.02237608359546
 10
14.29427968915487
 20
18.07494999399544
 10
14.62134740435487
 20
18.12368845319547
 10
14.94882239795487
 20
18.16862715879544
 10
15.27675950515487
 20
18.20978392039545
 10
15.60441465715487
 20
18.24710500839545
 10
15.93084406675487
 20
18.28051880999545
 10
16.25516438035488
 20
18.30997757639546
 10
16.57673401875487
 20
18.33552902119545
 10
16.89497184115488
 20
18.35724472519545
 10
17.13112443155488
 20
18.37106201319547
 10
17.36489273555487
 20
18.38282007719546
 10
17.59609350675488
 20
18.39257703239546
 10
17.82454349555487
 20
18.40039099559545
 10
18.05013211955487
 20
18.40632149959544
 10
18.27303946835488
 20
18.41043376519546
 10
18.49351829395487
 20
18.41279442919547
 10
18.71182134995487
 20
18.41347012999544
 10
19.00009644915488
 20
18.41183973639546
 10
19.28646412755488
 20
18.40733756199544
 10
19.57243565555488
 20
18.39996885319546
 10
19.85933974355488
 20
18.38972465959547
 10
20.14777486675487
 20
18.37653927719544
 10
20.43815693875487
 20
18.36033281159545
 10
20.65748945235488
 20
18.34614125479545
 10
20.87843499955488
 20
18.33013534119545
 10
21.10127750195488
 20
18.31224501639546
 10
21.32630088435488
 20
18.29240022279545
 10
21.55371793075487
 20
18.27053473959544
 10
21.78345686675487
 20
18.24659769479545
 10
22.01537478195487
 20
18.22054204839547
 10
22.24932876435487
 20
18.19232075879544
  0
LINE
  5
149
330
2
100
AcDbEntity
  8
0
100
AcDbLine
 10
9.598828866754873
 20
16.03568213159546
 30
0.0
 11
9.682888761154872
 21
16.04768779239544
 31
0.0
  0
LINE
  5
14A
330
2
100
AcDbEntity
  8
0
100
AcDbLine
 10
9.513648980354874
 20
16.02400738919545
 30
0.0
 11
9.598828866754873
 21
16.03568213159546
 31
0.0
  0
LINE
  5
14B
330
2
100
AcDbEntity
  8
0
100
AcDbLine
 10
9.427417996354877
 20
16.01268876039544
 30
0.0
 11
9.513648980354874
 21
16.02400738919545
 31
0.0
  0
LINE
  5
14C
330
2
100
AcDbEntity
  8
0
100
AcDbLine
 10
9.340292956354874
 20
16.00175438919545
 30
0.0
 11
9.427417996354877
 21
16.01268876039544
 31
0.0
  0
LINE
  5
14D
330
2
100
AcDbEntity
  8
0
100
AcDbLine
 10
14.14857070355488
 20
16.81461269959545
 30
0.0
 11
14.23810335315488
 21
16.82580106919546
 31
0.0
  0
LINE
  5
14E
330
2
100
AcDbEntity
  8
0
100
AcDbLine
 10
14.23810335315488
 20
16.82580106919546
 30
0.0
 11
14.37842607955487
 21
16.84287062279544
 31
0.0
  0
LINE
  5
14F
330
2
100
AcDbEntity
  8
0
100
AcDbLine
 10
9.25251983955488
 20
15.99123566279545
 30
0.0
 11
9.340292956354874
 21
16.00175438919545
 31
0.0
  0
LINE
  5
150
330
2
100
AcDbEntity
  8
0
100
AcDbLine
 10
14.37842607955487
 20
16.84287062279544
 30
0.0
 11
14.57284505395488
 21
16.86581856199545
 31
0.0
  0
LINE
  5
151
330
2
100
AcDbEntity
  8
0
100
AcDbLine
 10
14.57284505395488
 20
16.86581856199545
 30
0.0
 11
14.72977464275487
 21
16.88381639879544
 31
0.0
  0
LINE
  5
152
330
2
100
AcDbEntity
  8
0
100
AcDbLine
 10
9.164260271554882
 20
15.98115132359545
 30
0.0
 11
9.25251983955488
 21
15.99123566279545
 31
0.0
  0
LWPOLYLINE
  5
153
330
2
100
AcDbEntity
  8
0
100
AcDbPolyline
 90
       58
 70
     0
 43
0.0
 10
10.08521666195487
 20
15.96632490439545
 10
10.12228360115487
 20
15.97047119719546
 10
10.15944552435487
 20
15.97368354919545
 10
10.19668196435488
 20
15.97596029159545
 10
10.23396960275488
 20
15.97729998119545
 10
10.27128470515488
 20
15.97770174279544
 10
10.30860438675488
 20
15.97716529639545
 10
10.34590277875487
 20
15.97569103559546
 10
10.38316517235488
 20
15.97327932199546
 10
10.42032476275487
 20
15.96993557159545
 10
10.45720094195488
 20
15.96568475559546
 10
10.49365805715487
 20
15.96056153959544
 10
10.52967519795487
 20
15.95459219879545
 10
10.56526820755488
 20
15.94779611559546
 10
10.60044912115488
 20
15.94019052359546
 10
10.63521634195487
 20
15.93179355239546
 10
10.66956889875487
 20
15.92262204199546
 10
10.70350727475488
 20
15.91269125639546
 10
10.73703172915488
 20
15.90201529959544
 10
10.77014293395487
 20
15.89060695559545
 10
10.80284154515487
 20
15.87847782119546
 10
10.83512825075487
 20
15.86563830439546
 10
10.86700364755488
 20
15.85209768039546
 10
10.89846816755488
 20
15.83786413159545
 10
10.92952199955487
 20
15.82294480519546
 10
10.96016499795487
 20
15.80734585799545
 10
10.99039661875487
 20
15.79107252679544
 10
11.02021585395488
 20
15.77412916679544
 10
11.04962117235487
 20
15.75651932359547
 10
11.07861045395488
 20
15.73824578759546
 10
11.10718093555487
 20
15.71931065959545
 10
11.13532915955487
 20
15.69971541959545
 10
11.16305091955487
 20
15.67946099239544
 10
11.19034121395488
 20
15.65854781959545
 10
11.21719420755488
 20
15.63697593159547
 10
11.24360318515488
 20
15.61474502599544
 10
11.26956051795487
 20
15.59185455239544
 10
11.29505763155488
 20
15.56830377639546
 10
11.32008498355487
 20
15.54409187879547
 10
11.34463202195487
 20
15.51921804199547
 10
11.36868717235488
 20
15.49368154759547
 10
11.39223783795488
 20
15.46748184519545
 10
11.41527035155488
 20
15.44061869799544
 10
11.43777006995488
 20
15.41309215879546
 10
11.45972118035487
 20
15.38490291239544
 10
11.48110618995487
 20
15.35605313959545
 10
11.50190697395487
 20
15.32654534599545
 10
11.52210525555487
 20
15.29638166919546
 10
11.54168172115487
 20
15.26556513959546
 10
11.56061576275487
 20
15.23410029319545
 10
11.57888641395487
 20
15.20199183879545
 10
11.59646982515488
 20
15.16924943879546
 10
11.61334826035488
 20
15.13587078119546
 10
11.62946902515487
 20
15.10192674599547
 10
11.64475707315487
 20
15.06755747719545
 10
11.65918485715488
 20
15.03282225319544
 10
11.67274668755487
 20
14.99773524839547
 10
11.68543059635487
 20
14.96232854919544
  0
LINE
  5
154
330
2
100
AcDbEntity
  8
0
100
AcDbLine
 10
14.72977464275487
 20
16.88381639879544
 30
0.0
 11
14.90995948275487
 21
16.90394188679546
 31
0.0
  0
LWPOLYLINE
  5
155
330
2
100
AcDbEntity
  8
0
100
AcDbPolyline
 90
       40
 70
     0
 43
0.0
 10
14.90995948275487
 20
16.90394188679546
 10
15.13407943955488
 20
16.92820210919545
 10
15.38461747635487
 20
16.95433023079546
 10
15.65689395795487
 20
16.98154078279545
 10
15.94524740755487
 20
17.00899249799546
 10
16.24438888435487
 20
17.03594269799545
 10
16.54954657395487
 20
17.06176414919546
 10
16.85571322515487
 20
17.08588832999545
 10
17.15775970515487
 20
17.10783093799544
 10
17.45074191475487
 20
17.12723343239547
 10
17.73317355155488
 20
17.14406149639545
 10
18.00625603155488
 20
17.15845991079545
 10
18.27130003155487
 20
17.17055217959544
 10
18.52965177875488
 20
17.18042926279547
 10
18.78268777075487
 20
17.18814156519546
 10
19.03146820915488
 20
17.19369322279546
 10
19.27587390515488
 20
17.19704374759546
 10
19.51552781875487
 20
17.19815822599547
 10
19.75006030355487
 20
17.19701847239547
 10
19.97919047955487
 20
17.19365082279544
 10
20.20259110355488
 20
17.18813849159546
 10
20.41997120915488
 20
17.18058003079546
 10
20.63126922675488
 20
17.17107490599546
 10
20.83645044115488
 20
17.15972421959544
 10
21.03552303315487
 20
17.14662824199545
 10
21.22853394995487
 20
17.13188456519544
 10
21.41552046835486
 20
17.11560108359545
 10
21.59587004595488
 20
17.09797208519545
 10
21.76884146195487
 20
17.07923516519547
 10
21.93385493715487
 20
17.05963834439545
 10
22.09048645555488
 20
17.03941871719545
 10
22.23835277395487
 20
17.01881031719544
 10
22.37644818195487
 20
16.99816301799545
 10
22.50376927475487
 20
16.97786929959546
 10
22.61964262355488
 20
16.95830181959546
 10
22.72358064435488
 20
16.93981786599546
 10
22.81538600915487
 20
16.92272481959544
 10
22.89516115795487
 20
16.90726079399546
 10
22.96331245075488
 20
16.89357888999545
 10
23.02046923635488
 20
16.88175284199546
  0
LINE
  5
156
330
2
100
AcDbEntity
  8
0
100
AcDbLine
 10
9.075590901954884
 20
15.97150759559546
 30
0.0
 11
9.164260271554882
 21
15.98115132359545
 31
0.0
  0
LINE
  5
157
330
2
100
AcDbEntity
  8
0
100
AcDbLine
 10
8.986662842754883
 20
15.96231662439545
 30
0.0
 11
9.075590901954884
 21
15.97150759559546
 31
0.0
  0
LINE
  5
158
330
2
100
AcDbEntity
  8
0
100
AcDbLine
 10
8.897702207554873
 20
15.95359661479546
 30
0.0
 11
8.986662842754883
 21
15.96231662439545
 31
0.0
  0
LINE
  5
159
330
2
100
AcDbEntity
  8
0
100
AcDbLine
 10
8.808862541954882
 20
15.94535629159544
 30
0.0
 11
8.897702207554873
 21
15.95359661479546
 31
0.0
  0
LWPOLYLINE
  5
15A
330
2
100
AcDbEntity
  8
0
100
AcDbPolyline
 90
        3
 70
     0
 43
0.0
 10
8.556685772354882
 20
15.92377005639546
 10
8.659464231554878
 20
15.93235981319544
 10
8.80886254195488
 20
15.94535629159544
  0
LINE
  5
15B
330
2
100
AcDbEntity
  8
0
100
AcDbLine
 10
8.358045405954884
 20
15.90789842439546
 30
0.0
 11
8.556685772354883
 21
15.92377005639546
 31
0.0
  0
LINE
  5
15C
330
2
100
AcDbEntity
  8
0
100
AcDbLine
 10
8.168673298754884
 20
15.89361972679544
 30
0.0
 11
8.358045405954884
 21
15.90789842439546
 31
0.0
  0
LINE
  5
15D
330
2
100
AcDbEntity
  8
0
100
AcDbLine
 10
7.988122324354877
 20
15.88075302439544
 30
0.0
 11
8.168673298754884
 21
15.89361972679544
 31
0.0
  0
LINE
  5
15E
330
2
100
AcDbEntity
  8
0
100
AcDbLine
 10
7.815847295554876
 20
15.86912750439544
 30
0.0
 11
7.988122324354877
 21
15.88075302439544
 31
0.0
  0
LINE
  5
15F
330
2
100
AcDbEntity
  8
0
100
AcDbLine
 10
7.651439780354879
 20
15.85861269319546
 30
0.0
 11
7.815847295554876
 21
15.86912750439544
 31
0.0
  0
LINE
  5
160
330
2
100
AcDbEntity
  8
0
100
AcDbLine
 10
7.418726977154877
 20
15.84467316039545
 30
0.0
 11
7.651439780354879
 21
15.85861269319546
 31
0.0
  0
LINE
  5
161
330
2
100
AcDbEntity
  8
0
100
AcDbLine
 10
7.201404978754881
 20
15.83263995239546
 30
0.0
 11
7.418726977154877
 21
15.84467316039545
 31
0.0
  0
LINE
  5
162
330
2
100
AcDbEntity
  8
0
100
AcDbLine
 10
7.064352743554879
 20
15.82553722919545
 30
0.0
 11
7.201404978754881
 21
15.83263995239546
 31
0.0
  0
LINE
  5
163
330
2
100
AcDbEntity
  8
0
100
AcDbLine
 10
6.890697516354878
 20
15.81707664679545
 30
0.0
 11
7.064352743554879
 21
15.82553722919545
 31
0.0
  0
LINE
  5
164
330
2
100
AcDbEntity
  8
0
100
AcDbLine
 10
6.727438508354881
 20
15.80967695719546
 30
0.0
 11
6.890697516354878
 21
15.81707664679545
 31
0.0
  0
LINE
  5
165
330
2
100
AcDbEntity
  8
0
100
AcDbLine
 10
6.502852663554877
 20
15.80039198599545
 30
0.0
 11
6.727438508354881
 21
15.80967695719546
 31
0.0
  0
LINE
  5
166
330
2
100
AcDbEntity
  8
0
100
AcDbLine
 10
6.303018087554876
 20
15.79303012839546
 30
0.0
 11
6.502852663554877
 21
15.80039198599545
 31
0.0
  0
LINE
  5
167
330
2
100
AcDbEntity
  8
0
100
AcDbLine
 10
6.06705029395488
 20
15.78549282119545
 30
0.0
 11
6.303018087554876
 21
15.79303012839546
 31
0.0
  0
LWPOLYLINE
  5
168
330
2
100
AcDbEntity
  8
0
100
AcDbPolyline
 90
       21
 70
     0
 43
0.0
 10
5.18683459635487
 20
15.67245337159546
 10
5.375880114754878
 20
15.67328228359547
 10
5.592469279554876
 20
15.67594845959546
 10
5.83253722995488
 20
15.68059976199545
 10
6.083369453954873
 20
15.68703722119546
 10
6.340933981954876
 20
15.69510110599544
 10
6.609786477954884
 20
15.70493731559547
 10
6.868069570754883
 20
15.71565418439546
 10
7.098220290754881
 20
15.72619771879546
 10
7.317498676354873
 20
15.73710256999545
 10
7.540919069954881
 20
15.74908581479546
 10
7.770047658754876
 20
15.76231358279547
 10
8.006181474754882
 20
15.77697987399547
 10
8.249961541954874
 20
15.79328190919547
 10
8.503464681154881
 20
15.81157200519546
 10
8.766806153154874
 20
15.83214256199546
 10
9.036000351554875
 20
15.85500131399546
 10
9.305167716354873
 20
15.87994204519544
 10
9.569603005954874
 20
15.90676497319545
 10
9.828975380354876
 20
15.93552447559547
 10
10.08521666035487
 20
15.96632489959544
  0
LWPOLYLINE
  5
169
330
2
100
AcDbEntity
  8
0
100
AcDbPolyline
 90
        7
 70
     0
 43
0.0
 10
5.18683459635487
 20
15.77112018279545
 10
5.351565773954874
 20
15.77175081799545
 10
5.517762455554873
 20
15.77350796039546
 10
5.683786876354872
 20
15.77621321799544
 10
5.847910861954872
 20
15.77970415719546
 10
5.929368431554877
 20
15.78171125799546
 10
6.067050293954878
 20
15.78549282119546
  0
LWPOLYLINE
  5
16A
330
2
100
AcDbEntity
  8
0
100
AcDbPolyline
 90
       31
 70
     0
 43
0.0
 10
5.18683459635487
 20
17.29546292199545
 10
5.453105621954875
 20
17.29612830279545
 10
5.715715484354873
 20
17.29808474759546
 10
5.974480405954878
 20
17.30127270919545
 10
6.229335420354871
 20
17.30563672679546
 10
6.480690794754877
 20
17.31113769479544
 10
6.729075613954876
 20
17.31774059399545
 10
6.974985703554878
 20
17.32541396839546
 10
7.218783879554877
 20
17.33414060359545
 10
7.460799701954883
 20
17.34390684999546
 10
7.821242658754883
 20
17.36048866279544
 10
8.179770383554881
 20
17.37941105319545
 10
8.537542828354872
 20
17.40070270119547
 10
8.89494557235487
 20
17.42437830439546
 10
9.252162018754873
 20
17.45044956359545
 10
9.609341223554878
 20
17.47893013319544
 10
9.966530229954884
 20
17.50982564199544
 10
10.32340238195487
 20
17.54310763079546
 10
10.67957174835487
 20
17.57873801959546
 10
11.03478900275487
 20
17.61667431879546
 10
11.38914959155488
 20
17.65691443079545
 10
11.74399142995487
 20
17.69962226119547
 10
11.98161629555487
 20
17.72956838599545
 10
12.22056931955488
 20
17.76077449799545
 10
12.46123208435487
 20
17.79331253479544
 10
12.70402657395487
 20
17.82726528679545
 10
12.94953634835488
 20
17.86275897799545
 10
13.19838536115487
 20
17.89993068839545
 10
13.45105524595487
 20
17.93889865959546
 10
13.70745834835487
 20
17.97970577639544
 10
13.96736469395487
 20
18.02237608359546
  0
LWPOLYLINE
  5
16B
330
2
100
AcDbEntity
  8
0
100
AcDbPolyline
 90
        5
 70
     0
 43
0.0
 10
4.519621530754875
 20
15.77984927399545
 10
4.68536949235488
 20
15.77629878919545
 10
4.852944057154871
 20
15.77354833479545
 10
5.020631644354878
 20
15.77176174919545
 10
5.18683459635487
 20
15.77112018279545
  0
LINE
  5
16C
330
2
100
AcDbEntity
  8
0
100
AcDbLine
 10
4.298932764354875
 20
15.78571770119545
 30
0.0
 11
4.519621530754877
 21
15.77984927399544
 31
0.0
  0
LINE
  5
16D
330
2
100
AcDbEntity
  8
0
100
AcDbLine
 10
4.124319525954875
 20
15.79120311719544
 30
0.0
 11
4.298932764354875
 21
15.78571770119545
 31
0.0
  0
LINE
  5
16E
330
2
100
AcDbEntity
  8
0
100
AcDbLine
 10
3.932839092354884
 20
15.79801470439546
 30
0.0
 11
4.124319525954875
 21
15.79120311719544
 31
0.0
  0
LINE
  5
16F
330
2
100
AcDbEntity
  8
0
100
AcDbLine
 10
3.717902628354879
 20
15.80660016039545
 30
0.0
 11
3.932839092354884
 21
15.79801470439546
 31
0.0
  0
LINE
  5
170
330
2
100
AcDbEntity
  8
0
100
AcDbLine
 10
3.560782065154883
 20
15.81348248199544
 30
0.0
 11
3.717902628354879
 21
15.80660016039545
 31
0.0
  0
LINE
  5
171
330
2
100
AcDbEntity
  8
0
100
AcDbLine
 10
3.393030380354874
 20
15.82138321799545
 30
0.0
 11
3.560782065154883
 21
15.81348248199544
 31
0.0
  0
LINE
  5
172
330
2
100
AcDbEntity
  8
0
100
AcDbLine
 10
3.168679209154875
 20
15.83283082919545
 30
0.0
 11
3.393030380354874
 21
15.82138321799545
 31
0.0
  0
LINE
  5
173
330
2
100
AcDbEntity
  8
0
100
AcDbLine
 10
2.952091431554878
 20
15.84483727079544
 30
0.0
 11
3.168679209154875
 21
15.83283082919545
 31
0.0
  0
LINE
  5
174
330
2
100
AcDbEntity
  8
0
100
AcDbLine
 10
2.799259127554877
 20
15.85387674119546
 30
0.0
 11
2.952091431554878
 21
15.84483727079544
 31
0.0
  0
LINE
  5
175
330
2
100
AcDbEntity
  8
0
100
AcDbLine
 10
2.639143637954875
 20
15.86385660359546
 30
0.0
 11
2.799259127554877
 21
15.85387674119546
 31
0.0
  0
LINE
  5
176
330
2
100
AcDbEntity
  8
0
100
AcDbLine
 10
2.471321090754885
 20
15.87488635239544
 30
0.0
 11
2.639143637954875
 21
15.86385660359546
 31
0.0
  0
LINE
  5
177
330
2
100
AcDbEntity
  8
0
100
AcDbLine
 10
2.295398417154872
 20
15.88708809319545
 30
0.0
 11
2.471321090754885
 21
15.87488635239544
 31
0.0
  0
LINE
  5
178
330
2
100
AcDbEntity
  8
0
100
AcDbLine
 10
2.110881271554875
 20
15.90061400679546
 30
0.0
 11
2.295398417154872
 21
15.88708809319545
 31
0.0
  0
LWPOLYLINE
  5
179
330
2
100
AcDbEntity
  8
0
100
AcDbPolyline
 90
        4
 70
     0
 43
0.0
 10
1.714133561154881
 20
15.93236587399546
 10
1.816820457154875
 20
15.92378347719547
 10
1.917189650754878
 20
15.91564583399547
 10
2.110881271554873
 20
15.90061400679546
  0
LINE
  5
17A
330
2
100
AcDbEntity
  8
0
100
AcDbLine
 10
1.564806649154876
 20
15.94535629159544
 30
0.0
 11
1.714133561154882
 21
15.93236587399546
 31
0.0
  0
LINE
  5
17B
330
2
100
AcDbEntity
  8
0
100
AcDbLine
 10
1.475966983554885
 20
15.95359661479546
 30
0.0
 11
1.564806649154876
 21
15.94535629159544
 31
0.0
  0
LWPOLYLINE
  5
17C
330
2
100
AcDbEntity
  8
0
100
AcDbPolyline
 90
        4
 70
     0
 43
0.0
 10
-5.475015330045124
 20
16.99995812999544
 10
-5.349043942845128
 20
16.98793175719545
 10
-5.224093282045117
 20
16.97573684999547
 10
-5.100886520445129
 20
16.96345536199545
  0
LINE
  5
17D
330
2
100
AcDbEntity
  8
0
100
AcDbLine
 10
1.387006349954875
 20
15.96231662439545
 30
0.0
 11
1.475966983554885
 21
15.95359661479546
 31
0.0
  0
LINE
  5
17E
330
2
100
AcDbEntity
  8
0
100
AcDbLine
 10
-5.100886520445127
 20
16.96345536199545
 30
0.0
 11
-4.862472133245118
 21
16.93897176199545
 31
0.0
  0
LINE
  5
17F
330
2
100
AcDbEntity
  8
0
100
AcDbLine
 10
1.298078289154874
 20
15.97150759559546
 30
0.0
 11
1.387006349954875
 21
15.96231662439545
 31
0.0
  0
LINE
  5
180
330
2
100
AcDbEntity
  8
0
100
AcDbLine
 10
-4.862472133245118
 20
16.93897176199545
 30
0.0
 11
-4.638983557245124
 21
16.91516291399544
 31
0.0
  0
LINE
  5
181
330
2
100
AcDbEntity
  8
0
100
AcDbLine
 10
1.209408919554876
 20
15.98115132359545
 30
0.0
 11
1.298078289154874
 21
15.97150759559546
 31
0.0
  0
LINE
  5
182
330
2
100
AcDbEntity
  8
0
100
AcDbLine
 10
-4.638983557245124
 20
16.91516291399544
 30
0.0
 11
-4.43506243884512
 21
16.89270484359546
 31
0.0
  0
LINE
  5
183
330
2
100
AcDbEntity
  8
0
100
AcDbLine
 10
-4.43506243884512
 20
16.89270484359546
 30
0.0
 11
-4.255889912445125
 21
16.87237491559546
 31
0.0
  0
LINE
  5
184
330
2
100
AcDbEntity
  8
0
100
AcDbLine
 10
1.121149353154878
 20
15.99123566279545
 30
0.0
 11
1.209408919554876
 21
15.98115132359545
 31
0.0
  0
LINE
  5
185
330
2
100
AcDbEntity
  8
0
100
AcDbLine
 10
-4.255889912445125
 20
16.87237491559546
 30
0.0
 11
-4.103992357245116
 21
16.85467784679546
 31
0.0
  0
LWPOLYLINE
  5
186
330
2
100
AcDbEntity
  8
0
100
AcDbPolyline
 90
       22
 70
     0
 43
0.0
 10
0.2883293867548815
 20
15.96643812839546
 10
0.5379071899548791
 20
15.93640873959545
 10
0.7961799147548732
 20
15.90770340839545
 10
1.059106693954873
 20
15.88095454599546
 10
1.325849700354879
 20
15.85615211399546
 10
1.59168224275487
 20
15.83348181639546
 10
1.850169777154874
 20
15.81317964519546
 10
2.097281858754882
 20
15.79522265959546
 10
2.333679289154872
 20
15.77926647559546
 10
2.563706636354879
 20
15.76481305479545
 10
2.78691024115487
 20
15.75174754279545
 10
3.004502935554882
 20
15.73988363239546
 10
3.217096945154878
 20
15.72910196199545
 10
3.436095290754877
 20
15.71881996519546
 10
3.657301178754877
 20
15.70928690119545
 10
3.870352937154876
 20
15.70094182759545
 10
4.093523954754871
 20
15.69313160999546
 10
4.336328245954874
 20
15.68579379879547
 10
4.577584169154874
 20
15.67982828039545
 10
4.806356570754871
 20
15.67558184679545
 10
5.009738970754881
 20
15.67319618279545
 10
5.18683459635487
 20
15.67245337159546
  0
LINE
  5
187
330
2
100
AcDbEntity
  8
0
100
AcDbLine
 10
-4.103992357245116
 20
16.85467784679546
 30
0.0
 11
-3.92447957324512
 21
16.83316366759545
 31
0.0
  0
LINE
  5
188
330
2
100
AcDbEntity
  8
0
100
AcDbLine
 10
1.033376234754884
 20
16.00175438919545
 30
0.0
 11
1.121149353154878
 21
15.99123566279545
 31
0.0
  0
LWPOLYLINE
  5
189
330
2
100
AcDbEntity
  8
0
100
AcDbPolyline
 90
        3
 70
     0
 43
0.0
 10
-3.924479573245122
 20
16.83316366759545
 10
-3.781405309245116
 20
16.81543838439544
 10
-3.776581768445126
 20
16.81482652199547
  0
LINE
  5
18A
330
2
100
AcDbEntity
  8
0
100
AcDbLine
 10
0.9462511963548809
 20
16.01268876039544
 30
0.0
 11
1.033376234754884
 21
16.00175438919545
 31
0.0
  0
LINE
  5
18B
330
2
100
AcDbEntity
  8
0
100
AcDbLine
 10
0.8600202107548842
 20
16.02400738919545
 30
0.0
 11
0.9462511963548809
 21
16.01268876039544
 31
0.0
  0
LWPOLYLINE
  5
18C
330
2
100
AcDbEntity
  8
0
100
AcDbPolyline
 90
       13
 70
     0
 43
0.0
 10
-4.645345920445123
 20
16.91652214439547
 10
-4.445276646845115
 20
16.88986426759545
 10
-4.184046552445124
 20
16.85383546759545
 10
-3.923672157245121
 20
16.81658262439545
 10
-3.663967405245116
 20
16.77812687079544
 10
-3.40425966444512
 20
16.73838391559546
 10
-3.143911454845124
 20
16.69727662919545
 10
-2.882912426045123
 20
16.65486197639545
 10
-2.621412803645128
 20
16.61128468359545
 10
-2.359577966845122
 20
16.56690642919547
 10
-1.835772699645119
 20
16.47739415079546
 10
-1.574325070845119
 20
16.43304944839546
 10
-1.058004026045125
 20
16.34697804039545
  0
LINE
  5
18D
330
2
100
AcDbEntity
  8
0
100
AcDbLine
 10
0.7748403259548855
 20
16.03568212999546
 30
0.0
 11
0.8600202107548842
 21
16.02400738919545
 31
0.0
  0
LINE
  5
18E
330
2
100
AcDbEntity
  8
0
100
AcDbLine
 10
0.690780431554872
 20
16.04768779239544
 30
0.0
 11
0.7748403259548855
 21
16.03568212999546
 31
0.0
  0
LWPOLYLINE
  5
18F
330
2
100
AcDbEntity
  8
0
100
AcDbPolyline
 90
       31
 70
     0
 43
0.0
 10
-3.593695501245122
 20
18.02237608359546
 10
-3.331391536445124
 20
17.97931796839544
 10
-3.072403496445119
 20
17.93811783079546
 10
-2.816925950845117
 20
17.89874900839545
 10
-2.565034613245117
 20
17.86116915559544
 10
-2.316329765245129
 20
17.82527320519547
 10
-2.070292832445119
 20
17.79094040679545
 10
-1.826438406845127
 20
17.75805911879545
 10
-1.584413741245128
 20
17.72655412039545
 10
-1.343899256445126
 20
17.69635929479547
 10
-0.9852212884451176
 20
17.65338537639546
 10
-0.6279110852451169
 20
17.61302567399546
 10
-0.270829274045127
 20
17.57512166759546
 10
0.0864766891548783
 20
17.53962043719546
 10
0.4442763339548748
 20
17.50649881959545
 10
0.8027939723548769
 20
17.47574711399546
 10
1.162044748354873
 20
17.44737231079547
 10
1.521252335554876
 20
17.42143469799545
 10
1.879514789954882
 20
17.39799369799546
 10
2.236219172354878
 20
17.37705196839546
 10
2.591274122754882
 20
17.35858153479544
 10
2.946385605954873
 20
17.34248871239545
 10
3.18419711795488
 20
17.33303288039546
 10
3.42347891155488
 20
17.32458940519545
 10
3.664718231554871
 20
17.31716286919545
 10
3.90845366835488
 20
17.31076287399547
 10
4.155429181954872
 20
17.30541909319545
 10
4.406440074754883
 20
17.30116622279545
 10
4.662103743554879
 20
17.29804498919544
 10
4.922325962754882
 20
17.29612025479546
 10
5.18683459635487
 20
17.29546292199545
  0
LWPOLYLINE
  5
190
330
2
100
AcDbEntity
  8
0
100
AcDbPolyline
 90
       29
 70
     0
 43
0.0
 10
11.68542881555487
 20
14.96232799399545
 10
11.75940837555488
 20
14.74175231399546
 10
11.83829198995488
 20
14.49708442599545
 10
11.91799712435488
 20
14.23902308679545
 10
11.99523191955488
 20
13.97748916199545
 10
12.07066256915487
 20
13.70997488039545
 10
12.14451670515487
 20
13.43515668679545
 10
12.21617920275487
 20
13.15481967879544
 10
12.28549380115487
 20
12.86919149639546
 10
12.35231162515488
 20
12.57850536679545
 10
12.41648820595487
 20
12.28301313319546
 10
12.47790384115488
 20
11.98288552679547
 10
12.53642347795488
 20
11.67839773959546
 10
12.59195648275488
 20
11.36962351879545
 10
12.64445160915487
 20
11.05643385319545
 10
12.69380296755487
 20
10.73902604839544
 10
12.73989330195488
 20
10.41770959879546
 10
12.78261644435487
 20
10.09277632519545
 10
12.82185352915488
 20
9.764696283595455
 10
12.85750835155488
 20
9.433869881995448
 10
12.88950733715488
 20
9.100578001995458
 10
12.91776018675487
 20
8.765394853195445
 10
12.94221431475487
 20
8.42869465799545
 10
12.96283565715488
 20
8.090753035595454
 10
12.97958008435488
 20
7.752198117195447
 10
12.99242039155487
 20
7.413800133195465
 10
13.00141015635488
 20
7.073833585995444
 10
13.00650118515487
 20
6.734121728395464
 10
13.00773559635487
 20
6.398186880395471
  0
LWPOLYLINE
  5
191
330
2
100
AcDbEntity
  8
0
100
AcDbPolyline
 90
       45
 70
     0
 43
0.0
 10
11.69477866995487
 20
14.96182228839545
 10
11.77225782355488
 20
14.72980765639546
 10
11.84758491475487
 20
14.49521425319547
 10
11.92079452915487
 20
14.25781159879547
 10
11.99187420115487
 20
14.01757278919545
 10
12.06062328915487
 20
13.77528522439546
 10
12.12679410195487
 20
13.53193988039545
 10
12.17460453875487
 20
13.34926159879545
 10
12.22086081075487
 20
13.16653638439545
 10
12.26555488275488
 20
12.98395576199546
 10
12.30850483155487
 20
12.80251479719545
 10
12.34958062515487
 20
12.62297869479546
 10
12.38903371475487
 20
12.44438968839544
 10
12.42712252115487
 20
12.26579374759545
 10
12.46375187155487
 20
12.08797476679545
 10
12.49193037075487
 20
11.94680097319546
 10
12.51925843955487
 20
11.80574738919544
 10
12.54593717715488
 20
11.66365721159546
 10
12.57216768755488
 20
11.51937363559547
 10
12.59815107155488
 20
11.37173985479545
 10
12.61432632435487
 20
11.27739457959545
 10
12.63036334675487
 20
11.18185306599546
 10
12.64617655475487
 20
11.08549209639547
 10
12.66181903315487
 20
10.98793832359545
 10
12.68253101875487
 20
10.85516979239547
 10
12.70311902675487
 20
10.71872243079546
 10
12.72360659155488
 20
10.57803505639544
 10
12.74399015315488
 20
10.43273990599546
 10
12.76415774195487
 20
10.28324288039546
 10
12.78397029555488
 20
10.13014329479544
 10
12.80330493075487
 20
9.973933531595449
 10
12.82210351155487
 20
9.814678235595451
 10
12.84032408915487
 20
9.652335113995448
 10
12.86136129715487
 20
9.453459422795461
 10
12.88140056915487
 20
9.250432441995471
 10
12.90033670195487
 20
9.043610246795466
 10
12.91806449235487
 20
8.833348915595465
 10
12.93447874035487
 20
8.620004518795454
 10
12.95300666675487
 20
8.349557806795459
 10
12.96921765555487
 20
8.07570691079546
 10
12.98301155955488
 20
7.79930856679546
 10
12.99428823155487
 20
7.521219509195461
 10
13.00527149875488
 20
7.148881024395464
 10
13.01158322035488
 20
6.774667587595459
 10
13.01320496915488
 20
6.398186880395471
  0
LWPOLYLINE
  5
192
330
2
100
AcDbEntity
  8
0
100
AcDbPolyline
 90
       10
 70
     0
 43
0.0
 10
12.22741963955488
 20
14.93259269959544
 10
12.47060782835487
 20
14.14433199399546
 10
12.69576517875488
 20
13.30601676519545
 10
12.89957204915488
 20
12.42027149639547
 10
13.07862606355487
 20
11.49152621319545
 10
13.23002447955487
 20
10.52377600999547
 10
13.35110652595487
 20
9.522200865995458
 10
13.43933403315487
 20
8.495154757195464
 10
13.49302079795488
 20
7.448918262795459
 10
13.51095594195487
 20
6.398186880395471
  0
LWPOLYLINE
  5
193
330
2
100
AcDbEntity
  8
0
100
AcDbPolyline
 90
       19
 70
     0
 43
0.0
 10
12.22741934355487
 20
-2.136219817204548
 10
12.20582676755488
 20
-2.260242713204547
 10
12.18414342995487
 20
-2.383323233204535
 10
12.16252228435487
 20
-2.504593505204539
 10
12.14111570515487
 20
-2.623198849204541
 10
12.12007455635488
 20
-2.738303358004543
 10
12.09954712595487
 20
-2.849095802804541
 10
12.07967807795488
 20
-2.954795346804544
 10
12.06060743955487
 20
-3.054657049204536
 10
12.04246960595487
 20
-3.147977114804547
 10
12.02539240275487
 20
-3.234097854004545
 10
12.00949618035487
 20
-3.312412318004547
 10
11.99489296595487
 20
-3.382368577204545
 10
11.98168566835487
 20
-3.443473602804544
 10
11.96996735795487
 20
-3.495296746804541
 10
11.95982060595487
 20
-3.537472775604541
 10
11.95131692435487
 20
-3.569704444404536
 10
11.94451624435487
 20
-3.591764598004544
 10
11.93946769075488
 20
-3.60349797400454
  0
LWPOLYLINE
  5
194
330
2
100
AcDbEntity
  8
0
100
AcDbPolyline
 90
       10
 70
     0
 43
0.0
 10
12.22741963475488
 20
-2.136218961204548
 10
12.47060756435487
 20
-1.347959156404542
 10
12.69576471635487
 20
-0.509644846004548
 10
12.89957166675488
 20
0.376100433995461
 10
13.07862591475488
 20
1.30484672839546
 10
13.23002443795488
 20
2.272597405195455
 10
13.35110650675487
 20
3.274172726795455
 10
13.43933404115488
 20
4.301219072395454
 10
13.49302077555488
 20
5.34745488359546
 10
13.51095594195487
 20
6.398186880395471
  0
LWPOLYLINE
  5
195
330
2
100
AcDbEntity
  8
0
100
AcDbPolyline
 90
       58
 70
     0
 43
0.0
 10
11.65704112915487
 20
-2.145546417204542
 10
11.64426460435487
 20
-2.180843814004546
 10
11.63061195635488
 20
-2.215814260404542
 10
11.61611945235488
 20
-2.250371761204547
 10
11.60085694035487
 20
-2.28437572760454
 10
11.58486643155487
 20
-2.317772950004538
 10
11.56816614995487
 20
-2.350565686004543
 10
11.55077864755487
 20
-2.382746065204543
 10
11.53272377555487
 20
-2.414310826804538
 10
11.51402112755488
 20
-2.445256281204535
 10
11.49468821875487
 20
-2.475581297204541
 10
11.47474069075487
 20
-2.505286409204543
 10
11.45419567155487
 20
-2.534368823604538
 10
11.43306960755488
 20
-2.562826044404545
 10
11.41137664115487
 20
-2.590657889204535
 10
11.38913025715487
 20
-2.617863999604537
 10
11.36634293715488
 20
-2.64444426040454
 10
11.34302633235488
 20
-2.670398550004534
 10
11.31919118675487
 20
-2.69572677080454
 10
11.29484760595487
 20
-2.72042854040454
 10
11.27000451155487
 20
-2.744503718004537
 10
11.24467111475488
 20
-2.767950956404547
 10
11.21885450675488
 20
-2.790769966004546
 10
11.19255535475487
 20
-2.81296476120454
 10
11.16577925715488
 20
-2.834533633204543
 10
11.13853766195487
 20
-2.855469534004541
 10
11.11083710835487
 20
-2.875768900404537
 10
11.08268240755488
 20
-2.895428647604546
 10
11.05407878835487
 20
-2.914444566004547
 10
11.02503072275487
 20
-2.932812164404538
 10
10.99554243475488
 20
-2.950526303604547
 10
10.96561773715487
 20
-2.967581297204546
 10
10.93526011475488
 20
-2.983970841204538
 10
10.90447271795487
 20
-2.999688002804546
 10
10.87325837235488
 20
-3.014725182004539
 10
10.84161958515487
 20
-3.029074097204542
 10
10.80955856915487
 20
-3.042725730804548
 10
10.77707720275488
 20
-3.055670313204544
 10
10.74417723475487
 20
-3.067897210804545
 10
10.71085967635487
 20
-3.079395098804539
 10
10.67712654675487
 20
-3.090151318004544
 10
10.64297677075487
 20
-3.100153134004543
 10
10.60841291955487
 20
-3.109385598004536
 10
10.57345591795487
 20
-3.117828618804537
 10
10.53809124915487
 20
-3.125470190004534
 10
10.50227285235487
 20
-3.132301137204535
 10
10.46600173395488
 20
-3.138299062004534
 10
10.42928493555487
 20
-3.143439447604535
 10
10.39223017875487
 20
-3.147686673204546
 10
10.35503968115487
 20
-3.151007188404534
 10
10.31779133235487
 20
-3.153392601204544
 10
10.28049676115488
 20
-3.154842369204544
 10
10.24318217555487
 20
-3.155355354804541
 10
10.20586993235487
 20
-3.154931212404534
 10
10.16858340435487
 20
-3.153570140404539
 10
10.13134575155487
 20
-3.151272921204537
 10
10.09417993235487
 20
-3.148040898804538
 10
10.05710608915487
 20
-3.143875633204544
  0
LINE
  5
196
330
2
100
AcDbEntity
  8
0
100
AcDbLine
 10
-12.78585545164511
 20
16.85148508199544
 30
0.0
 11
-12.77377127244512
 21
16.85421601479545
 31
0.0
  0
LINE
  5
197
330
2
100
AcDbEntity
  8
0
100
AcDbLine
 10
-12.77377127244512
 20
16.85421601479545
 30
0.0
 11
-12.72847275884512
 21
16.86425806119545
 31
0.0
  0
LWPOLYLINE
  5
198
330
2
100
AcDbEntity
  8
0
100
AcDbPolyline
 90
       36
 70
     0
 43
0.0
 10
-12.72847275884512
 20
16.86425806119545
 10
-12.64587317324512
 20
16.88194726759546
 10
-12.58883618604512
 20
16.89374354119546
 10
-12.52081690124511
 20
16.90739411079546
 10
-12.44200917324512
 20
16.92266920199544
 10
-12.35282611084512
 20
16.93928642599546
 10
-12.25338985164512
 20
16.95701260679546
 10
-12.14391304844512
 20
16.97559264359544
 10
-12.02477867884512
 20
16.99474433959547
 10
-11.89584476364512
 20
17.01427186279546
 10
-11.75664970444512
 20
17.03401564039545
 10
-11.60687490604512
 20
17.05377971239546
 10
-11.44644129004512
 20
17.07332912999545
 10
-11.27562187724512
 20
17.09237906439544
 10
-11.09486229004512
 20
17.11061788999545
 10
-10.90396815404512
 20
17.12780166119545
 10
-10.70234117644512
 20
17.14370553639547
 10
-10.48955775084512
 20
17.15808412519545
 10
-10.26604547244512
 20
17.17064953799545
 10
-10.03360041004512
 20
17.18108275239545
 10
-9.794218494845125
 20
17.18914256679546
 10
-9.549162558845125
 20
17.19469053319547
 10
-9.298598514045124
 20
17.19765037319545
 10
-9.042532006845121
 20
17.19796690599547
 10
-8.780993182845122
 20
17.19565193959546
 10
-8.514081550845119
 20
17.19074002919545
 10
-8.241898531645119
 20
17.18327252359545
 10
-7.964546709245126
 20
17.17329678919544
 10
-7.682129725245118
 20
17.16086490919546
 10
-7.394535499645115
 20
17.14601410759546
 10
-7.100396691645116
 20
17.12869461639546
 10
-6.797941802045116
 20
17.10879094759546
 10
-6.485470779645126
 20
17.08614784039546
 10
-6.161442923645125
 20
17.06058196679545
 10
-5.824829896445123
 20
17.03191184359546
 10
-5.475015330045124
 20
16.99995812999544
  0
LWPOLYLINE
  5
199
330
2
100
AcDbEntity
  8
0
100
AcDbPolyline
 90
       32
 70
     0
 43
0.0
 10
-11.87565957164512
 20
18.19232075879544
 10
-11.64181358124512
 20
18.22052942279545
 10
-11.40998160044512
 20
18.24657659559547
 10
-11.18030777964512
 20
18.27050870279545
 10
-10.95293626284512
 20
18.29237216839546
 10
-10.72793912204512
 20
18.31221731239544
 10
-10.50510011244512
 20
18.33011001959546
 10
-10.28413091244512
 20
18.34612007239546
 10
-10.06474319884512
 20
18.36031724999544
 10
-9.774235515645116
 20
18.37653271399544
 10
-9.485628454845127
 20
18.38972663399546
 10
-9.198523672445119
 20
18.39997629959545
 10
-8.912346240445117
 20
18.40734559079545
 10
-8.625814846845116
 20
18.41184474919545
 10
-8.337471589245126
 20
18.41347060199545
 10
-8.119203002045125
 20
18.41279159239546
 10
-7.898809586045118
 20
18.41042790599546
 10
-7.676005752445121
 20
18.40631288519544
 10
-7.450505915645123
 20
18.40037986919544
 10
-7.222104960445122
 20
18.39256360839546
 10
-6.990919646845128
 20
18.38280448359545
 10
-6.757147205245118
 20
18.37104428679545
 10
-6.520984867645125
 20
18.35722481159545
 10
-6.202742822845124
 20
18.33550597159545
 10
-5.88117699724512
 20
18.30995109639546
 10
-5.556861686845124
 20
18.28048857159545
 10
-5.230434963645123
 20
18.24707096359544
 10
-4.902790030845125
 20
18.20974754599545
 10
-4.574883877245127
 20
18.16859176679547
 10
-4.247470803645128
 20
18.12365897639544
 10
-3.92049438284512
 20
18.07493212999544
 10
-3.593695501245122
 20
18.02237608359546
  0
LWPOLYLINE
  5
19A
330
2
100
AcDbEntity
  8
0
100
AcDbPolyline
 90
       29
 70
     0
 43
0.0
 10
-10.09924283564512
 20
19.39575688039546
 10
-10.22712485804511
 20
19.39498256199546
 10
-10.35479920364512
 20
19.39266534439546
 10
-10.48223339884512
 20
19.38881383879545
 10
-10.60939497644512
 20
19.38343665159545
 10
-10.73625891244512
 20
19.37654196359547
 10
-10.86282997804512
 20
19.36813622759545
 10
-10.98912039724512
 20
19.35822546599546
 10
-11.11514238604512
 20
19.34681570439546
 10
-11.24091114764512
 20
19.33391138119544
 10
-11.36645379724512
 20
19.31951060359544
 10
-11.49180043084512
 20
19.30360989959545
 10
-11.61698114764512
 20
19.28620578919544
 10
-11.74202027404512
 20
19.26729483559545
 10
-11.86691906924512
 20
19.24687374279547
 10
-11.99167302284511
 20
19.22493925319547
 10
-12.11627762764512
 20
19.20148810599546
 10
-12.24073381164512
 20
19.17651516999545
 10
-12.36506426924512
 20
19.15000780679547
 10
-12.48929713004512
 20
19.12195150279545
 10
-12.61346052524512
 20
19.09233175079545
 10
-12.73757963884512
 20
19.06113332359545
 10
-12.86166786124512
 20
19.02833816199544
 10
-12.98573563084512
 20
18.99392748999547
 10
-13.10979339084512
 20
18.95788253639544
 10
-13.23384437324512
 20
18.92018641159545
 10
-13.35786297004512
 20
18.88082976839545
 10
-13.48181636684512
 20
18.83980514599547
 10
-13.60567175084512
 20
18.79710508039546
  0
LWPOLYLINE
  5
19B
330
2
100
AcDbEntity
  8
0
100
AcDbPolyline
 90
        4
 70
     0
 43
0.0
 10
22.62118634835488
 20
20.84983224199545
 10
22.47669948435488
 20
20.84941846599547
 10
22.34466842515487
 20
20.84931768679545
 10
22.20582812115488
 20
20.84954394279545
  0
LINE
  5
19C
330
2
100
AcDbEntity
  8
0
100
AcDbLine
 10
16.53903709235487
 20
20.83601017799544
 30
0.0
 11
18.23372219155487
 21
20.83960191079544
 31
0.0
  0
LWPOLYLINE
  5
19D
330
2
100
AcDbEntity
  8
0
100
AcDbPolyline
 90
       10
 70
     0
 43
0.0
 10
18.23372219155487
 20
20.83960191079545
 10
20.14568646515488
 20
20.84411716359547
 10
20.42951475155487
 20
20.84416514279546
 10
20.68501596755487
 20
20.84332824679545
 10
20.92652564435488
 20
20.84296883399546
 10
21.17052383155487
 20
20.84395076359546
 10
21.42053707155487
 20
20.84592254439546
 10
21.67596177715488
 20
20.84819970119546
 10
21.93336735955488
 20
20.84978609639545
 10
22.18626716435487
 20
20.84970331079544
  0
LWPOLYLINE
  5
19E
330
2
100
AcDbEntity
  8
0
100
AcDbPolyline
 90
        6
 70
     0
 43
0.0
 10
11.12199118515488
 20
20.83059505959546
 10
12.27283708275487
 20
20.83091439719545
 10
13.30638482675488
 20
20.83155838439544
 10
14.23938747635487
 20
20.83247388039545
 10
15.08443085395487
 20
20.83357152519546
 10
16.53903709235487
 20
20.83601017799544
  0
LINE
  5
19F
330
2
100
AcDbEntity
  8
0
100
AcDbLine
 10
20.47291202675488
 20
19.39575688039546
 30
0.0
 11
-10.09924283564512
 21
19.39575688039546
 31
0.0
  0
LINE
  5
1A0
330
2
100
AcDbEntity
  8
0
100
AcDbLine
 10
-0.5661605924451277
 20
20.83057389479544
 30
0.0
 11
11.12199118515488
 21
20.83059505959546
 31
0.0
  0
LWPOLYLINE
  5
1A1
330
2
100
AcDbEntity
  8
0
100
AcDbPolyline
 90
        4
 70
     0
 43
0.0
 10
-0.5661605924451294
 20
20.83057389479545
 10
-1.695109211645117
 20
20.83083055559545
 10
-2.711968922045116
 20
20.83138882439546
 10
-3.632518838845129
 20
20.83221524999545
  0
LINE
  5
1A2
330
2
100
AcDbEntity
  8
0
100
AcDbLine
 10
-12.10303029324511
 20
20.84941846599546
 30
0.0
 11
-11.97099923244512
 21
20.84931768679545
 31
0.0
  0
LINE
  5
1A3
330
2
100
AcDbEntity
  8
0
100
AcDbLine
 10
-3.632518838845127
 20
20.83221524999545
 30
0.0
 11
-5.228805498045117
 21
20.83436398599546
 31
0.0
  0
LWPOLYLINE
  5
1A4
330
2
100
AcDbEntity
  8
0
100
AcDbPolyline
 90
        6
 70
     0
 43
0.0
 10
-9.567001576445122
 20
20.84375659079545
 10
-9.859086237245122
 20
20.84420454919545
 10
-10.12444287884511
 20
20.84402894119544
 10
-10.36590252844512
 20
20.84313266119547
 10
-10.59779968204512
 20
20.84305663399546
 10
-10.83351594764512
 20
20.84419171239547
  0
LINE
  5
1A5
330
2
100
AcDbEntity
  8
0
100
AcDbLine
 10
-5.228805498045117
 20
20.83436398599546
 30
0.0
 11
-6.542275909245118
 21
20.83674477799545
 31
0.0
  0
LINE
  5
1A6
330
2
100
AcDbEntity
  8
0
100
AcDbLine
 10
-6.542275909245118
 20
20.83674477799545
 30
0.0
 11
-8.087432242045123
 21
20.84013492359547
 31
0.0
  0
LINE
  5
1A7
330
2
100
AcDbEntity
  8
0
100
AcDbLine
 10
-8.087432242045123
 20
20.84013492359547
 30
0.0
 11
-9.56700157644512
 21
20.84375659079544
 31
0.0
  0
LINE
  5
1A8
330
2
100
AcDbEntity
  8
0
100
AcDbLine
 10
-12.76822958124512
 20
20.85210336839544
 30
0.0
 11
-12.10303029324511
 21
20.84941846599546
 31
0.0
  0
LWPOLYLINE
  5
1A9
330
2
100
AcDbEntity
  8
0
100
AcDbPolyline
 90
        4
 70
     0
 43
0.0
 10
-10.83351594764512
 20
20.84419171239547
 10
-11.32130618604512
 20
20.84835350599546
 10
-11.56914419084512
 20
20.84981793479546
 10
-11.81259797164512
 20
20.84970331079544
  0
LWPOLYLINE
  5
1AA
330
2
100
AcDbEntity
  8
0
100
AcDbPolyline
 90
       43
 70
     0
 43
0.0
 10
22.24932876435487
 20
18.19232075879544
 10
22.40284751635488
 20
18.17233133639545
 10
22.55775218195488
 20
18.15046925159545
 10
22.71409216435487
 20
18.12666724359546
 10
22.87191686515487
 20
18.10085805159546
 10
23.03122261555488
 20
18.07298590759545
 10
23.19179348115487
 20
18.04304101639546
 10
23.35336046355487
 20
18.01102507239546
 10
23.51565456115487
 20
17.97693977319546
 10
23.73275806835488
 20
17.92828391079545
 10
23.95030987955487
 20
17.87599984359546
 10
24.16794387955488
 20
17.82013520359545
 10
24.38530074195488
 20
17.76073885639546
 10
24.60204831955488
 20
17.69786458439544
 10
24.81786125395487
 20
17.63156740039546
 10
24.94668950995488
 20
17.59020364999544
 10
25.07454071955487
 20
17.54784736839546
 10
25.20089143475487
 20
17.50471846759545
 10
25.32521821075488
 20
17.46103685799546
 10
25.44699760115487
 20
17.41702245319545
 10
25.54622975955487
 20
17.38022682919545
 10
25.64346384595488
 20
17.34335174119546
 10
25.73883431795488
 20
17.30639611719546
 10
25.83242196275488
 20
17.26937867879546
 10
25.92409292435488
 20
17.23239734439546
 10
26.01365968115487
 20
17.19556982279546
 10
26.11818137395488
 20
17.15171034439545
 10
26.21957793875488
 20
17.10823390759544
 10
26.31802433235488
 20
17.06513255719547
 10
26.41369550995487
 20
17.02239833799545
 10
26.50676643155488
 20
16.98002329479545
 10
26.61967541075488
 20
16.92755716839546
 10
26.72889901075487
 20
16.87568253319544
 10
26.83454138515488
 20
16.82444209639545
 10
26.93670668595487
 20
16.77387856679546
 10
27.03550680435488
 20
16.72402713319546
 10
27.13108458195488
 20
16.67489290279546
 10
27.22359059475488
 20
16.62647346119546
 10
27.31317542195488
 20
16.57876639719545
 10
27.39996285395487
 20
16.53178091079546
 10
27.48396952115487
 20
16.48557265319546
 10
27.56518527475488
 20
16.44020888839544
 10
27.64359995955487
 20
16.39575688039546
  0
LWPOLYLINE
  5
1AB
330
2
100
AcDbEntity
  8
0
100
AcDbPolyline
 90
       82
 70
     0
 43
0.0
 10
22.61095069715487
 20
16.96029428359544
 10
22.66040841715488
 20
16.95012603879546
 10
22.80759009555487
 20
16.91856985319545
 10
22.95267906515488
 20
16.88554318759544
 10
23.09529733555487
 20
16.85118288039545
 10
23.23506692115488
 20
16.81562577319546
 10
23.37164955475488
 20
16.77900989959546
 10
23.50486587635488
 20
16.74147808199545
 10
23.63457624595487
 20
16.70317433159546
 10
23.76064102675488
 20
16.66424266279544
 10
23.88294958835487
 20
16.62482087559546
 10
24.00150732595487
 20
16.58502191079544
 10
24.11634864275487
 20
16.54495249799545
 10
24.22750794515488
 20
16.50471936199546
 10
24.33502149875488
 20
16.46442790919546
 10
24.43893302835488
 20
16.42417826279545
 10
24.53928812755488
 20
16.38406922279544
 10
24.63613238515488
 20
16.34419959079546
 10
24.72952798355487
 20
16.30465758119545
 10
24.81960346995487
 20
16.26548906119545
 10
24.90650398515487
 20
16.22672931719544
 10
24.99037466515487
 20
16.18841363079546
 10
25.09773327795487
 20
16.13806848999546
 10
25.20026710035487
 20
16.08860337479545
 10
25.29827968435488
 20
16.04004614759544
 10
25.39206545555487
 20
15.99242178439546
 10
25.48188231155488
 20
15.94574370759547
 10
25.56797901875488
 20
15.90002244999546
 10
25.65059870195487
 20
15.85526484999546
 10
25.72996191635488
 20
15.81146296359544
 10
25.80628357235487
 20
15.76860515719546
 10
25.87979235955488
 20
15.72666525479546
 10
25.95077205715488
 20
15.68555892199545
 10
26.01952021875487
 20
15.64518728519546
 10
26.11911023795487
 20
15.58577110119544
 10
26.21535906195487
 20
15.52733185159546
 10
26.30927374995488
 20
15.46940545319545
 10
26.40184856915487
 20
15.41148611879545
 10
26.49406848595488
 20
15.35304406439546
 10
26.58689406355488
 20
15.29349522599547
 10
26.68127314035487
 20
15.23222884679545
 10
26.77812703315487
 20
15.16858169159546
 10
26.84452212435488
 20
15.12449026279544
 10
26.91269007795487
 20
15.07881967239545
 10
26.98289730995488
 20
15.03134948359546
 10
27.05540577555487
 20
14.98185525319546
 10
27.13045958675488
 20
14.93009652679545
 10
27.20829839955487
 20
14.87582884359547
 10
27.28914534195487
 20
14.81880712519545
 10
27.37315744755487
 20
14.75878379559544
 10
27.46047522835488
 20
14.69551065959545
 10
27.55118770515487
 20
14.62875185479545
 10
27.64517794515487
 20
14.55832086759547
 10
27.74227752755487
 20
14.48404352199544
 10
27.84211579795487
 20
14.40588522919544
 10
27.94351316755488
 20
14.32436976199547
 10
28.04508781555488
 20
14.24016047719546
 10
28.14555936275488
 20
14.15391307559547
 10
28.24405321075487
 20
14.06625262439546
 10
28.33979620275488
 20
13.97779652359547
 10
28.43218039475488
 20
13.88904435559545
 10
28.52125870035488
 20
13.80002440999545
 10
28.60724923955487
 20
13.71064715239545
 10
28.69040596755488
 20
13.62076231879545
 10
28.77112617075488
 20
13.52997672359545
 10
28.84984296275487
 20
13.43783645319545
 10
28.92692968275487
 20
13.34393642759546
 10
29.00252054035488
 20
13.24806691079545
 10
29.07668996915488
 20
13.15006699719545
 10
29.14947876435488
 20
13.04982840999547
 10
29.22079318035487
 20
12.94745336039547
 10
29.29050583955488
 20
12.84309668519544
 10
29.39186014835488
 20
12.68312133799544
 10
29.48929753075488
 20
12.51917736039546
 10
29.58278070835487
 20
12.35145204039547
 10
29.67222877715487
 20
12.18031520359547
 10
29.75757779315488
 20
12.00614959879546
 10
29.83887528915487
 20
11.82920710119545
 10
29.91618922515488
 20
11.64973776999546
 10
29.98955776595487
 20
11.46811527399545
 10
30.05904232435487
 20
11.28466716039547
 10
30.12482710355488
 20
11.09941289799546
  0
LINE
  5
1AC
330
2
100
AcDbEntity
  8
0
100
AcDbLine
 10
23.02046923635488
 20
16.88175284199546
 30
0.0
 11
23.10304180115487
 21
16.86406112359544
 31
0.0
  0
LINE
  5
1AD
330
2
100
AcDbEntity
  8
0
100
AcDbLine
 10
23.10304180115487
 20
16.86406112359544
 30
0.0
 11
23.14763987475487
 21
16.85417116999546
 31
0.0
  0
LINE
  5
1AE
330
2
100
AcDbEntity
  8
0
100
AcDbLine
 10
23.14763987475487
 20
16.85417116999546
 30
0.0
 11
23.15931262515488
 21
16.85153314759544
 31
0.0
  0
LWPOLYLINE
  5
1AF
330
2
100
AcDbEntity
  8
0
100
AcDbPolyline
 90
       19
 70
     0
 43
0.0
 10
11.93946496755488
 20
16.39987164359546
 10
11.94451527475487
 20
16.38813857159546
 10
11.95131537075488
 20
16.36607831239546
 10
11.95981862515488
 20
16.33384656359545
 10
11.96996508915488
 20
16.29167048039546
 10
11.98168323795488
 20
16.23984730119546
 10
11.99489047955488
 20
16.17874225639546
 10
12.00949373075488
 20
16.10878598919545
 10
12.02539006355488
 20
16.03047152999546
 10
12.04246743635488
 20
15.94435080839547
 10
12.06060547955488
 20
15.85103077479546
 10
12.07967635955488
 20
15.75116911079545
 10
12.09954566675487
 20
15.64546959719545
 10
12.12007336755488
 20
15.53467716519544
 10
12.14111478675488
 20
15.41957265159545
 10
12.16252162515488
 20
15.30096729319545
 10
12.18414301555488
 20
15.17969699879545
 10
12.20582657875488
 20
15.05661645959544
 10
12.22741963795488
 20
14.93259269959544
  0
LWPOLYLINE
  5
1B0
330
2
100
AcDbEntity
  8
0
100
AcDbPolyline
 90
        9
 70
     0
 43
0.0
 10
-13.95549470124512
 20
20.02823710919544
 10
-13.88670500204512
 20
20.04151145639546
 10
-13.81246946764512
 20
20.05546538919544
 10
-13.73073204684511
 20
20.07043389479547
 10
-13.63881912044512
 20
20.08677394599545
 10
-13.53657037484512
 20
20.10434464839546
 10
-13.42857182284512
 20
20.12221571559546
 10
-13.32239758604512
 20
20.13910304999545
 10
-13.22020870444512
 20
20.15472530599545
  0
LWPOLYLINE
  5
1B1
330
2
100
AcDbEntity
  8
0
100
AcDbPolyline
 90
        3
 70
     0
 43
0.0
 10
-11.81316488044512
 20
20.31025465799545
 10
-12.53134183084512
 20
20.24440869959546
 10
-13.22020870444512
 20
20.15472530599545
  0
LWPOLYLINE
  5
1B2
330
2
100
AcDbEntity
  8
0
100
AcDbPolyline
 90
        3
 70
     0
 43
0.0
 10
-11.81259797164512
 20
20.84970331079544
 10
-11.83215893004512
 20
20.84954394279545
 10
-11.97099923244512
 20
20.84931768679545
  0
LINE
  5
1B3
330
2
100
AcDbEntity
  8
0
100
AcDbLine
 10
22.18626716435487
 20
20.84970331079544
 30
0.0
 11
22.20582812115488
 21
20.84954394279544
 31
0.0
  0
LWPOLYLINE
  5
1B4
330
2
100
AcDbEntity
  8
0
100
AcDbPolyline
 90
        3
 70
     0
 43
0.0
 10
22.18683407315488
 20
20.31025465799545
 10
22.90501102355487
 20
20.24440869959546
 10
23.59387789555488
 20
20.15472530599545
  0
LWPOLYLINE
  5
1B5
330
2
100
AcDbEntity
  8
0
100
AcDbPolyline
 90
        9
 70
     0
 43
0.0
 10
24.32916389235487
 20
20.02823710919544
 10
24.26037419315487
 20
20.04151145639546
 10
24.18613865875487
 20
20.05546538919544
 10
24.10440123795487
 20
20.07043389479547
 10
24.01248831315487
 20
20.08677394599545
 10
23.91023956755488
 20
20.10434464839546
 10
23.80224101395488
 20
20.12221571559546
 10
23.69606677715488
 20
20.13910304999545
 10
23.59387789555488
 20
20.15472530599545
  0
LWPOLYLINE
  5
1B6
330
2
100
AcDbEntity
  8
0
100
AcDbPolyline
 90
       15
 70
     0
 43
0.0
 10
22.18683442195487
 20
20.31025214279544
 10
22.18775972755487
 20
20.31798013479546
 10
22.18866249715488
 20
20.33172723079546
 10
22.18950713715487
 20
20.35131819239545
 10
22.19025825235488
 20
20.37649424359544
 10
22.19088501715488
 20
20.40698789639545
 10
22.19135979155487
 20
20.44252092999546
 10
22.19165425875488
 20
20.48262549159546
 10
22.19174244755487
 20
20.52688040839545
 10
22.19160128915487
 20
20.57480517159545
 10
22.19120988915487
 20
20.62585780199545
 10
22.19055096435488
 20
20.67948061479545
 10
22.18960927795487
 20
20.73506771079546
 10
22.18837269875487
 20
20.79204043559546
 10
22.18683442035488
 20
20.84970312839546
  0
LWPOLYLINE
  5
1B7
330
2
100
AcDbEntity
  8
0
100
AcDbPolyline
 90
        6
 70
     0
 43
0.0
 10
-13.95549470124512
 20
20.02823710919544
 10
-14.58225117964512
 20
19.89346899079545
 10
-15.18238680844512
 20
19.73930770119547
 10
-15.75820462924512
 20
19.56649707399544
 10
-16.31136678764512
 20
19.37581637639546
 10
-16.84410739724512
 20
19.16747955239545
  0
LWPOLYLINE
  5
1B8
330
2
100
AcDbEntity
  8
0
100
AcDbPolyline
 90
        5
 70
     0
 43
0.0
 10
40.57747703955487
 20
24.03788747559547
 10
32.69588003155488
 20
24.03747218279546
 10
24.19934445875488
 20
24.03515715559545
 10
15.07020033075487
 20
24.03211659399547
 10
5.18683459635487
 20
24.03045507399546
  0
LWPOLYLINE
  5
1B9
330
2
100
AcDbEntity
  8
0
100
AcDbPolyline
 90
        3
 70
     0
 43
0.0
 10
40.57746870515487
 20
24.28691833799546
 10
24.19942924115487
 20
24.28715767719545
 10
-4.696621019645121
 20
24.28742769959545
  0
LWPOLYLINE
  5
1BA
330
2
100
AcDbEntity
  8
0
100
AcDbPolyline
 90
        3
 70
     0
 43
0.0
 10
-30.20379951404512
 20
24.28691833799546
 10
-13.82576912844512
 20
24.28715767559545
 10
-4.696621019645121
 20
24.28742769959545
  0
LINE
  5
1BB
330
2
100
AcDbEntity
  8
0
100
AcDbLine
 10
-30.31506805484512
 20
24.39818688039546
 30
0.0
 11
40.68873724755488
 21
24.39818688039546
 31
0.0
  0
LWPOLYLINE
  5
1BC
330
2
100
AcDbEntity
  8
0
100
AcDbPolyline
 90
        5
 70
     0
 43
0.0
 10
-30.20380784844512
 20
24.03788747559547
 10
-22.32221505004512
 20
24.03747218279546
 10
-13.82568433004512
 20
24.03515715879545
 10
-4.696545802045122
 20
24.03211659719547
 10
5.18683459635487
 20
24.03045507399546
  0
LWPOLYLINE
  5
1BD
330
2
100
AcDbEntity
  8
0
100
AcDbPolyline
 90
        6
 70
     0
 43
0.0
 10
24.32916389235487
 20
20.02823710919544
 10
24.95592037075488
 20
19.89346899079545
 10
25.55605599955487
 20
19.73930770119547
 10
26.13187382035488
 20
19.56649707399544
 10
26.68503597875488
 20
19.37581637639546
 10
27.21777658835488
 20
19.16747955239545
  0
LWPOLYLINE
  5
1BE
330
2
100
AcDbEntity
  8
0
100
AcDbPolyline
 90
       29
 70
     0
 43
0.0
 10
23.97934094355487
 20
18.79710508039546
 10
23.85548555955487
 20
18.83980514599547
 10
23.73153216115487
 20
18.88082976839545
 10
23.60751356435487
 20
18.92018641159545
 10
23.48346258195488
 20
18.95788253639544
 10
23.35940482195488
 20
18.99392748999547
 10
23.23533705235488
 20
19.02833816199544
 10
23.11124882995487
 20
19.06113332359545
 10
22.98712971635487
 20
19.09233175079545
 10
22.86296631955487
 20
19.12195150439545
 10
22.73873345875487
 20
19.15000780679547
 10
22.61440300275488
 20
19.17651516999545
 10
22.48994681715487
 20
19.20148810759546
 10
22.36534221395487
 20
19.22493925319547
 10
22.24058825875488
 20
19.24687374279547
 10
22.11568946355487
 20
19.26729483559545
 10
21.99065033715487
 20
19.28620578919544
 10
21.86546962195487
 20
19.30360989959545
 10
21.74012298675488
 20
19.31951060519544
 10
21.61458033715487
 20
19.33391138119544
 10
21.48881157555487
 20
19.34681570439546
 10
21.36278958675487
 20
19.35822546599546
 10
21.23649916915488
 20
19.36813622759545
 10
21.10992810355488
 20
19.37654196359547
 10
20.98306416755487
 20
19.38343665159545
 10
20.85590258995487
 20
19.38881383879545
 10
20.72846839475488
 20
19.39266534439546
 10
20.60079405075487
 20
19.39498256199546
 10
20.47291202675488
 20
19.39575688039546
  0
LWPOLYLINE
  5
1BF
330
2
100
AcDbEntity
  8
0
100
AcDbPolyline
 90
       15
 70
     0
 43
0.0
 10
22.18683442195487
 20
-7.513878380404534
 10
22.18775972755487
 20
-7.521606374004548
 10
22.18866249715488
 20
-7.535353470004537
 10
22.18950713715487
 20
-7.554944431604539
 10
22.19025825235488
 20
-7.580120482804545
 10
22.19088501715488
 20
-7.610614135604535
 10
22.19135979155487
 20
-7.646147169204539
 10
22.19165425875488
 20
-7.686251730804542
 10
22.19174244755487
 20
-7.730506647604542
 10
22.19160128915487
 20
-7.778431410804543
 10
22.19120988915487
 20
-7.829484041204537
 10
22.19055096435488
 20
-7.883106854004537
 10
22.18960927795487
 20
-7.938693950004534
 10
22.18837269875487
 20
-7.995666674804539
 10
22.18683442035488
 20
-8.053329367604547
  0
LWPOLYLINE
  5
1C0
330
2
100
AcDbEntity
  8
0
100
AcDbPolyline
 90
       16
 70
     0
 43
0.0
 10
-30.31506805484512
 20
24.39818688039547
 10
-30.36693413804512
 20
24.39508532999546
 10
-30.41819548524512
 20
24.38661132039546
 10
-30.46830139884512
 20
24.37286844519546
 10
-30.51671538924512
 20
24.35401544039546
 10
-30.56303208524512
 20
24.33019943399544
 10
-30.60665497484512
 20
24.30170989319545
 10
-30.64709080844512
 20
24.26887354759545
 10
-30.68390715404512
 20
24.23205118919544
 10
-30.71671058764512
 20
24.19164606119547
 10
-30.74515107084512
 20
24.14809978759545
 10
-30.76893728844512
 20
24.10186267719545
 10
-30.78784097324512
 20
24.05334099239546
 10
-30.80159964044512
 20
24.00317225799544
 10
-30.81006978924512
 20
23.95190272199546
 10
-30.81316540364512
 20
23.90008953159547
  0
LWPOLYLINE
  5
1C1
330
2
100
AcDbEntity
  8
0
100
AcDbPolyline
 90
       13
 70
     0
 43
0.0
 10
27.62311642515487
 20
18.99167710439546
 10
28.19559887955488
 20
18.71628868519546
 10
28.74140352595487
 20
18.42197394439544
 10
29.25049728115487
 20
18.11616585479545
 10
29.72159810835488
 20
17.80191093319545
 10
30.15573049235487
 20
17.48104692839545
 10
30.55492803795488
 20
17.15461983239545
 10
30.92650774195488
 20
16.81856019719545
 10
31.27794152755487
 20
16.46754903399546
 10
31.61068600275487
 20
16.10093740039546
 10
31.92338763155487
 20
15.72008904359545
 10
32.21651328435487
 20
15.32443713799544
 10
32.49153420755487
 20
14.91182354119546
  0
LWPOLYLINE
  5
1C2
330
2
100
AcDbEntity
  8
0
100
AcDbPolyline
 90
       29
 70
     0
 43
0.0
 10
23.97934094355487
 20
-6.00073131960454
 10
23.85548555955487
 20
-6.043431385204542
 10
23.73153216115487
 20
-6.084456007604543
 10
23.60751356275487
 20
-6.123812650804538
 10
23.48346258195488
 20
-6.161508775604545
 10
23.35940482195488
 20
-6.197553729204543
 10
23.23533705075488
 20
-6.231964401204535
 10
23.11124882835487
 20
-6.264759564404542
 10
22.98712971475487
 20
-6.295957990004538
 10
22.86296631795487
 20
-6.32557774360454
 10
22.73873345875487
 20
-6.353634046004543
 10
22.61440300115488
 20
-6.38014140920454
 10
22.48994681715487
 20
-6.405114346804538
 10
22.36534221235487
 20
-6.428565492404544
 10
22.24058825875488
 20
-6.450499982004544
 10
22.11568946355487
 20
-6.470921074804536
 10
21.99065033715487
 20
-6.489832028404535
 10
21.86546962195487
 20
-6.507236138804543
 10
21.74012298675488
 20
-6.523136842804547
 10
21.61458033715487
 20
-6.537537620404535
 10
21.48881157715487
 20
-6.550441943604539
 10
21.36278958835487
 20
-6.561851705204546
 10
21.23649917075488
 20
-6.571762466804543
 10
21.10992810355488
 20
-6.580168202804543
 10
20.98306416755487
 20
-6.587062890804546
 10
20.85590259155488
 20
-6.592440078004543
 10
20.72846839475488
 20
-6.596291583604539
 10
20.60079405075487
 20
-6.598608801204548
 10
20.47291202675488
 20
-6.599383119604539
  0
LWPOLYLINE
  5
1C3
330
2
100
AcDbEntity
  8
0
100
AcDbPolyline
 90
       31
 70
     0
 43
0.0
 10
27.64359995955487
 20
16.39575688039546
 10
27.55603683155487
 20
16.48867903079546
 10
27.46543921395488
 20
16.58214376039545
 10
27.37169351955488
 20
16.67610776519545
 10
27.27472284115488
 20
16.77049377959547
 10
27.17459702195488
 20
16.86508869479546
 10
27.07142259475487
 20
16.95964543559544
 10
26.96530098355488
 20
17.05392895719545
 10
26.85631320435487
 20
17.14775230759546
 10
26.74453516435487
 20
17.24094055559545
 10
26.63004806195488
 20
17.33331967879546
 10
26.51295425235487
 20
17.42471926919544
 10
26.39336137875487
 20
17.51496982599546
 10
26.27138949235487
 20
17.60390023559544
 10
26.14720826515487
 20
17.69133293959545
 10
26.02099978035487
 20
17.77708876359547
 10
25.89294866675487
 20
17.86099592519546
 10
25.76324974995488
 20
17.94291217799546
 10
25.63210040115487
 20
18.02270265959545
 10
25.49967646355487
 20
18.10025017159544
 10
25.36606765075487
 20
18.17550816199546
 10
25.23134214195488
 20
18.24844773639545
 10
25.09556717715487
 20
18.31904144519545
 10
24.95880623635487
 20
18.38726760519544
 10
24.82112185875488
 20
18.45310596999546
 10
24.68257849075488
 20
18.51653698119547
 10
24.54324821555488
 20
18.57754379559544
 10
24.40320502675487
 20
18.63611025639547
 10
24.26251562195487
 20
18.69222387559544
 10
24.12121751955487
 20
18.74588685799547
 10
23.97934094355487
 20
18.79710508039546
  0
LINE
  5
1C4
330
2
100
AcDbEntity
  8
0
100
AcDbLine
 10
30.85254528275487
 20
8.942063241995452
 30
0.0
 11
30.95136227315487
 21
8.758135115595461
 31
0.0
  0
LWPOLYLINE
  5
1C5
330
2
100
AcDbEntity
  8
0
100
AcDbPolyline
 90
       25
 70
     0
 43
0.0
 10
30.95136227315487
 20
8.758135115595464
 10
30.99142673875488
 20
8.682661181195456
 10
31.01046757555488
 20
8.646119451595453
 10
31.03330008115487
 20
8.601422846795472
 10
31.05501371635488
 20
8.557766504395445
 10
31.07556138035488
 20
8.515112779595469
 10
31.09489597235487
 20
8.473424019595469
 10
31.11301644915488
 20
8.432584032395467
 10
31.13010598515488
 20
8.392162446795467
 10
31.14105516755488
 20
8.365143320395461
 10
31.15181018035487
 20
8.337617989195464
 10
31.16253316755488
 20
8.309120480395463
 10
31.17333020755488
 20
8.279337353995444
 10
31.18408308755488
 20
8.248565320395456
 10
31.19461753075488
 20
8.217253627595468
 10
31.20973268115487
 20
8.170022670795461
 10
31.22400178195488
 20
8.122698806795469
 10
31.23745545875488
 20
8.075436121995451
 10
31.25009656275487
 20
8.028562973195462
 10
31.26192100435487
 20
7.982451288395466
 10
31.27292469715488
 20
7.937472992395456
 10
31.28312157235487
 20
7.893921257995472
 10
31.29259766835487
 20
7.851774237195471
 10
31.30145704275487
 20
7.810931336395455
 10
31.30980375955488
 20
7.771291953995458
  0
LWPOLYLINE
  5
1C6
330
2
100
AcDbEntity
  8
0
100
AcDbPolyline
 90
       20
 70
     0
 43
0.0
 10
30.81311245875487
 20
3.779654590795459
 10
30.79328657715487
 20
3.741447731595457
 10
30.77306515155487
 20
3.701897589195453
 10
30.75264277715487
 20
3.661257646795462
 10
30.73227176275487
 20
3.619890224395462
 10
30.71220186675488
 20
3.578180421195455
 10
30.69267266835487
 20
3.536604454795451
 10
30.67392120435488
 20
3.495661318795455
 10
30.65611758355487
 20
3.455708609995454
 10
30.63916422675487
 20
3.41653832039546
 10
30.62289662355488
 20
3.377801043595454
 10
30.59953843315487
 20
3.320016171595455
 10
30.57750153235487
 20
3.262880974795464
 10
30.55688291315488
 20
3.206711051595462
 10
30.53757361555487
 20
3.151238150795464
 10
30.51941319155487
 20
3.09604805639546
 10
30.50224118835487
 20
3.040726552395454
 10
30.48068674035488
 20
2.966263126795453
 10
30.46071189235488
 20
2.89116139399546
 10
30.44242428915487
 20
2.815753045195464
  0
LINE
  5
1C7
330
2
100
AcDbEntity
  8
0
100
AcDbLine
 10
30.85178015315487
 20
3.852874769995448
 30
0.0
 11
30.81311245875487
 21
3.779654590795455
 31
0.0
  0
LINE
  5
1C8
330
2
100
AcDbEntity
  8
0
100
AcDbLine
 10
30.99052722035487
 20
4.111997400395448
 30
0.0
 11
30.95048958515488
 21
4.036607633995455
 31
0.0
  0
LINE
  5
1C9
330
2
100
AcDbEntity
  8
0
100
AcDbLine
 10
30.95048958515488
 20
4.036607633995455
 30
0.0
 11
30.85178015315487
 21
3.852874769995448
 31
0.0
  0
LWPOLYLINE
  5
1CA
330
2
100
AcDbEntity
  8
0
100
AcDbPolyline
 90
       31
 70
     0
 43
0.0
 10
27.64359995955487
 20
-3.599383119604539
 10
27.55603683955488
 20
-3.692305262004538
 10
27.46543923795488
 20
-3.785769975604537
 10
27.37169357075487
 20
-3.879733954804535
 10
27.27472293235488
 20
-3.974119932404548
 10
27.17459715955488
 20
-4.068714806004535
 10
27.07142277555488
 20
-4.163271511604534
 10
26.96530119955487
 20
-4.257555007604537
 10
26.85631344755488
 20
-4.351378338804536
 10
26.74453543155488
 20
-4.44456657560454
 10
26.63004835155487
 20
-4.536945689204543
 10
26.51295455315488
 20
-4.628345279604545
 10
26.39336166515487
 20
-4.718595852404547
 10
26.27138973555487
 20
-4.807526298804546
 10
26.14720845555487
 20
-4.894959044404544
 10
26.02099993555488
 20
-4.980714900404535
 10
25.89294882035487
 20
-5.064622068404545
 10
25.76324992435488
 20
-5.146538310004544
 10
25.63210060115487
 20
-5.226328778804543
 10
25.49967667635488
 20
-5.303876289204538
 10
25.36606786035487
 20
-5.379134284404543
 10
25.23134234035487
 20
-5.452073870004539
 10
25.09556735795487
 20
-5.522667593204545
 10
24.95880639315487
 20
-5.590893767604541
 10
24.82112198035487
 20
-5.656732151604543
 10
24.68257857075487
 20
-5.72016318360454
 10
24.54324825395487
 20
-5.781170018804544
 10
24.40320503155487
 20
-5.83973649400454
 10
24.26251561075487
 20
-5.895850119604546
 10
24.12121750675487
 20
-5.949513102004544
 10
23.97934094355487
 20
-6.00073131960454
  0
LWPOLYLINE
  5
1CB
330
2
100
AcDbEntity
  8
0
100
AcDbPolyline
 90
       13
 70
     0
 43
0.0
 10
27.62311642515487
 20
-6.195303343604535
 10
28.19559887955488
 20
-5.919914924404537
 10
28.74140352595487
 20
-5.625600183604547
 10
29.25049728115487
 20
-5.31979209400454
 10
29.72159810835488
 20
-5.005537172404544
 10
30.15573049235487
 20
-4.684673167604543
 10
30.55492803795488
 20
-4.35824607160454
 10
30.92650774195488
 20
-4.022186436404538
 10
31.27794152755487
 20
-3.671175273204539
 10
31.61068600275487
 20
-3.304563639604538
 10
31.92338763155487
 20
-2.923715282804536
 10
32.21651328435487
 20
-2.528063377204546
 10
32.49153420755487
 20
-2.115449780404546
  0
LWPOLYLINE
  5
1CC
330
2
100
AcDbEntity
  8
0
100
AcDbPolyline
 90
       19
 70
     0
 43
0.0
 10
30.12482711795488
 20
11.09941290279546
 10
30.14372148435488
 20
11.04391324039546
 10
30.16250258355488
 20
10.98764654279544
 10
30.18116298195488
 20
10.93061387079545
 10
30.19969524595487
 20
10.87281628679547
 10
30.21809194035488
 20
10.81425485479546
 10
30.23634563315488
 20
10.75493063719547
 10
30.25444948755488
 20
10.69484248519545
 10
30.27239907475487
 20
10.63398040839546
 10
30.29019056275487
 20
10.57233220999545
 10
30.30782011795487
 20
10.50988568999547
 10
30.32528390995487
 20
10.44662864679544
 10
30.34257810835487
 20
10.38254888199544
 10
30.35969821875487
 20
10.31763655719545
 10
30.37663710355488
 20
10.25189127719546
 10
30.39338695795487
 20
10.18531500519544
 10
30.40993998515487
 20
10.11790970599544
 10
30.42628838355487
 20
10.04967734759544
 10
30.44242435155487
 20
9.980619891595452
  0
LWPOLYLINE
  5
1CD
330
2
100
AcDbEntity
  8
0
100
AcDbPolyline
 90
       21
 70
     0
 43
0.0
 10
30.44242435155487
 20
9.980619891595452
 10
30.46075090035488
 20
9.905059877195455
 10
30.48077220915487
 20
9.829805070795444
 10
30.50237790995487
 20
9.755194515595448
 10
30.51959068275488
 20
9.699768933195471
 10
30.53779682515487
 20
9.644473013195451
 10
30.55716056595487
 20
9.588883310795452
 10
30.57784613555488
 20
9.532576384395454
 10
30.59996446995488
 20
9.475279808395455
 10
30.62341333235487
 20
9.417325230795469
 10
30.63974219795487
 20
9.378481833995451
 10
30.65675069555487
 20
9.339224677195446
 10
30.67459623635487
 20
9.299217923595463
 10
30.69337143315488
 20
9.258262369995449
 10
30.71290970835487
 20
9.216705331595463
 10
30.73297968755487
 20
9.175030750795471
 10
30.75334730675487
 20
9.133700856395464
 10
30.77376774835487
 20
9.093091014795462
 10
30.79399351315487
 20
9.053554875595452
 10
30.81383330355487
 20
9.015340091595462
 10
30.85254528275487
 20
8.942063241995455
  0
LWPOLYLINE
  5
1CE
330
2
100
AcDbEntity
  8
0
100
AcDbPolyline
 90
       22
 70
     0
 43
0.0
 10
31.30980375955488
 20
7.771291953995458
 10
31.32680261075488
 20
7.687223990795459
 10
31.34283584755488
 20
7.603156654795455
 10
31.35789446995487
 20
7.519120928395452
 10
31.37198692115487
 20
7.435011961995471
 10
31.38512174355487
 20
7.350703009995456
 10
31.39729043315488
 20
7.266115609995452
 10
31.40485938835487
 20
7.209535712395464
 10
31.41198671635487
 20
7.152777965195454
 10
31.41866585555487
 20
7.095817785995464
 10
31.42488913395487
 20
7.038636497995454
 10
31.43064443155488
 20
6.981239053195466
 10
31.43591852115487
 20
6.923636310795458
 10
31.44069804595487
 20
6.865840907595455
 10
31.44496913395487
 20
6.807872574795467
 10
31.44871778515488
 20
6.749752824395457
 10
31.45193009555487
 20
6.691499033995469
 10
31.45459252435488
 20
6.633112075595462
 10
31.45669162515487
 20
6.574588689995451
 10
31.45821349075487
 20
6.515926341195452
 10
31.45914235795487
 20
6.457125381195467
 10
31.45946200275487
 20
6.398186883595471
  0
LWPOLYLINE
  5
1CF
330
2
100
AcDbEntity
  8
0
100
AcDbPolyline
 90
       21
 70
     0
 43
0.0
 10
31.45946200275487
 20
6.398186883595471
 10
31.45914355155487
 20
6.339376081995467
 10
31.45821980595488
 20
6.280763102795461
 10
31.45670935155488
 20
6.222358848395444
 10
31.45462985715487
 20
6.164166945995461
 10
31.45199529075488
 20
6.10616192039545
 10
31.44881870355487
 20
6.048311024395459
 10
31.44511289235487
 20
5.990587629195445
 10
31.44088965395488
 20
5.932989595595458
 10
31.43616052755487
 20
5.875520910795458
 10
31.43093652435487
 20
5.818182979595448
 10
31.42522650195488
 20
5.760966883595457
 10
31.41903878355488
 20
5.703861126795445
 10
31.40887871475487
 20
5.61838806439546
 10
31.39768452115487
 20
5.533121609995461
 10
31.38547757875487
 20
5.448047390795451
 10
31.37227693395487
 20
5.363156688395463
 10
31.35809936435487
 20
5.278437749195461
 10
31.34295492595487
 20
5.19386103719546
 10
31.32685258835488
 20
5.109402950795455
 10
31.30980368435487
 20
5.025081441995453
  0
LWPOLYLINE
  5
1D0
330
2
100
AcDbEntity
  8
0
100
AcDbPolyline
 90
       26
 70
     0
 43
0.0
 10
31.30980368435487
 20
5.025081441995453
 10
31.30316111155487
 20
4.99344164359546
 10
31.29619619475488
 20
4.961004915595452
 10
31.28884734835487
 20
4.927697497995453
 10
31.28105298515487
 20
4.893445629195454
 10
31.27275152275487
 20
4.858175547595465
 10
31.26389499155488
 20
4.821868862795454
 10
31.25448989555488
 20
4.784728656395458
 10
31.24455635795488
 20
4.747013381195458
 10
31.23411449875487
 20
4.708981489995451
 10
31.22318443955487
 20
4.670891433995464
 10
31.20884883795487
 20
4.623501601995457
 10
31.19371825235488
 20
4.576394288395462
 10
31.18318927315488
 20
4.545204979595453
 10
31.17244673235487
 20
4.514560542795464
 10
31.16165867315487
 20
4.484893814795455
 10
31.15093873715487
 20
4.456489691595464
 10
31.14018299795488
 20
4.429041323595455
 10
31.12923313235488
 20
4.402093926795458
 10
31.11214717075488
 20
4.361783856395462
 10
31.09402879955487
 20
4.321042105995459
 10
31.07468738195487
 20
4.279418398795456
 10
31.05412733875488
 20
4.236803736395458
 10
31.03240185875488
 20
4.193174433995451
 10
31.00956412595488
 20
4.148506811595453
 10
30.99052722035487
 20
4.111997400395452
  0
LWPOLYLINE
  5
1D1
330
2
100
AcDbEntity
  8
0
100
AcDbPolyline
 90
       19
 70
     0
 43
0.0
 10
30.44242428915487
 20
2.815753045195464
 10
30.42629064755487
 20
2.74670545959546
 10
30.40994465075488
 20
2.678482737995452
 10
30.39339408755488
 20
2.611086845195458
 10
30.37664675315487
 20
2.544519745995458
 10
30.35971044115487
 20
2.478783401995457
 10
30.34259294355488
 20
2.413879777995461
 10
30.32530139315487
 20
2.349808480395452
 10
30.30784028275488
 20
2.286559675595455
 10
30.29021344755487
 20
2.224121171595456
 10
30.27242471795487
 20
2.162480777995455
 10
30.25447792915487
 20
2.101626299595451
 10
30.23637691475487
 20
2.041545547595461
 10
30.21812610355488
 20
1.982228537995453
 10
30.19973233075488
 20
1.92367412199546
 10
30.18120302355487
 20
1.865883363595457
 10
30.16254561395487
 20
1.808857321995461
 10
30.14376753075487
 20
1.752597057995458
 10
30.12487620435488
 20
1.697103633995453
  0
LWPOLYLINE
  5
1D2
330
2
100
AcDbEntity
  8
0
100
AcDbPolyline
 90
       81
 70
     0
 43
0.0
 10
30.12487618835487
 20
1.697103640395454
 10
30.06207883795487
 20
1.519998613195454
 10
29.99561406995488
 20
1.343786163595453
 10
29.92527037235487
 20
1.168492022795462
 10
29.85096330515487
 20
0.9944731795954595
 10
29.77263036435488
 20
0.8221354563954577
 10
29.69016970835487
 20
0.651748766795464
 10
29.60349554035487
 20
0.4835834739954521
 10
29.51262558675487
 20
0.3180476739954656
 10
29.41760000115488
 20
0.1555507011954518
 10
29.31844514675488
 20
-0.0036308860045438
 10
29.25008092915487
 20
-0.1077688028045429
 10
29.18002890835487
 20
-0.2101264636045386
 10
29.10842632755488
 20
-0.3105052764045411
 10
29.03539244275488
 20
-0.4087465708045386
 10
28.96097455795488
 20
-0.504851361204544
 10
28.88520198515488
 20
-0.598860583604548
 10
28.80802028915488
 20
-0.6908953724045404
 10
28.72904003475487
 20
-0.7813976908045391
 10
28.64778803635488
 20
-0.8708897020045469
 10
28.56383840595488
 20
-0.9598201980045359
 10
28.47695444115487
 20
-1.048344487604538
 10
28.38694673715487
 20
-1.13654450840454
 10
28.29372824755488
 20
-1.224423198004544
 10
28.19762136595487
 20
-1.311667505204539
 10
28.09905084755488
 20
-1.397885377204545
 10
27.99863199155487
 20
-1.482605884404534
 10
27.89774228115487
 20
-1.565042585204537
 10
27.79794974515488
 20
-1.644330159604535
 10
27.70059901235487
 20
-1.719774921204546
 10
27.60614110195487
 20
-1.791369711604545
 10
27.51480362675488
 20
-1.859279002804541
 10
27.42676449875487
 20
-1.923675130804539
 10
27.34200278515487
 20
-1.984761865204546
 10
27.26044785235487
 20
-2.042750833204536
 10
27.18200370515488
 20
-2.097859049204544
 10
27.10647293875487
 20
-2.150325070004541
 10
27.03363278995488
 20
-2.200392834804546
 10
26.96325640115488
 20
-2.248301308404535
 10
26.89510052435487
 20
-2.294269530804541
 10
26.82891781555487
 20
-2.338511569204541
 10
26.73279700275488
 20
-2.402095958004537
 10
26.63969225555487
 20
-2.462938521204534
 10
26.54874191475487
 20
-2.521683295604546
 10
26.45910584115488
 20
-2.578908679604538
 10
26.28035237395488
 20
-2.69096235160454
 10
26.18946054835487
 20
-2.746778182004547
 10
26.09642499795488
 20
-2.803025345204545
 10
26.00040938995488
 20
-2.860091777204544
 10
25.90053641555488
 20
-2.918336806004546
 10
25.83138032275488
 20
-2.957986318004543
 10
25.75989542515488
 20
-2.998365340404546
 10
25.68586177555488
 20
-3.039523039604546
 10
25.60906551155487
 20
-3.08149958680454
 10
25.52931712595487
 20
-3.124299175604548
 10
25.44643320275487
 20
-3.167917001204543
 10
25.36021640755487
 20
-3.212350284404536
 10
25.27041375635488
 20
-3.25760433880454
 10
25.17675835315488
 20
-3.303686498804538
 10
25.07896853555488
 20
-3.350602148404547
 10
24.97670359155488
 20
-3.398348857204538
 10
24.86960804435487
 20
-3.446922241204546
 10
24.78590195795487
 20
-3.483886769204545
 10
24.69912571955487
 20
-3.521279713204535
 10
24.60912634515487
 20
-3.559066954804535
 10
24.51575085395488
 20
-3.597214372404536
 10
24.41886344275488
 20
-3.635677511604541
 10
24.31839703635488
 20
-3.674370586804542
 10
24.21430173875488
 20
-3.713197476404545
 10
24.10652765555487
 20
-3.75206206360454
 10
23.99502080595488
 20
-3.790867954804539
 10
23.87971087635488
 20
-3.829517665204548
 10
23.76052346515487
 20
-3.867913433204535
 10
23.63738417075487
 20
-3.90595750200454
 10
23.51026877075487
 20
-3.943540374004541
 10
23.37935376435487
 20
-3.98050559640454
 10
23.24486582515487
 20
-4.016684978804548
 10
23.10703162995487
 20
-4.051910334004546
 10
22.94266896915488
 20
-4.091512374004537
 10
22.77474650515487
 20
-4.129388250804538
 10
22.60393431155488
 20
-4.165333426804536
  0
LWPOLYLINE
  5
1D3
330
2
100
AcDbEntity
  8
0
100
AcDbPolyline
 90
        4
 70
     0
 43
0.0
 10
33.08005617715487
 20
13.84530698279546
 10
32.91568777075487
 20
14.17354177799545
 10
32.71816375315488
 20
14.53480506119545
 10
32.49153420755487
 20
14.91182354119546
  0
LWPOLYLINE
  5
1D4
330
2
100
AcDbEntity
  8
0
100
AcDbPolyline
 90
        8
 70
     0
 43
0.0
 10
33.08005617715487
 20
13.84530698279546
 10
33.29988603635487
 20
13.35701921159547
 10
33.50575290995488
 20
12.83550165479546
 10
33.69653878835487
 20
12.27786546119544
 10
33.87130911315487
 20
11.67935716679546
 10
34.02915889875487
 20
11.03299130279545
 10
34.16858702995487
 20
10.33098446919545
 10
34.28733934355487
 20
9.564996801995462
  0
LWPOLYLINE
  5
1D5
330
2
100
AcDbEntity
  8
0
100
AcDbPolyline
 90
       54
 70
     0
 43
0.0
 10
33.83044671315487
 20
6.398186880395471
 10
33.82855098995487
 20
6.500237561995461
 10
33.82302767475488
 20
6.598621065995459
 10
33.81418830675487
 20
6.691952846795444
 10
33.80231566835488
 20
6.779780432395469
 10
33.78714027155487
 20
6.864869976395468
 10
33.76826805235488
 20
6.949166123595446
 10
33.74585283475487
 20
7.031259390795455
 10
33.72000387955488
 20
7.110210753995445
 10
33.69026991155488
 20
7.186661414795466
 10
33.65598454355488
 20
7.261304121995451
 10
33.61702763795487
 20
7.333218960395456
 10
33.57569234515487
 20
7.397709104395445
 10
33.53661665875488
 20
7.448478721995471
 10
33.50167389715487
 20
7.485168611595454
 10
33.46669276595487
 20
7.51290233959547
 10
33.42702301395488
 20
7.535189387595451
 10
33.38199821075487
 20
7.552527128395453
 10
33.33245797875487
 20
7.56659166919546
 10
33.27835877715488
 20
7.579200537995447
 10
33.21949241395488
 20
7.591079507595466
 10
33.15546991475487
 20
7.603218555595461
 10
33.08572370515487
 20
7.616161019595452
 10
33.00955571635488
 20
7.630667427595469
 10
32.92620319475487
 20
7.647988145995455
 10
32.83489722675487
 20
7.669451600395447
 10
32.73463046355487
 20
7.696457494795467
 10
32.62390335315487
 20
7.730647753995455
 10
32.50102992435488
 20
7.773797544395463
 10
32.36462044755488
 20
7.828229477195449
 10
32.21553969075488
 20
7.895892997195446
 10
32.06828653235487
 20
7.971612998795464
 10
31.93283939475488
 20
8.049735533195459
 10
31.80998640275487
 20
8.128445960395467
 10
31.69756117555488
 20
8.207973489995467
 10
31.59355737555488
 20
8.289133014795467
 10
31.49782837235487
 20
8.371931715595465
 10
31.41201693875487
 20
8.454469016395464
 10
31.33807178835488
 20
8.532747915595464
 10
31.27549817395487
 20
8.604580462795453
 10
31.22057421235487
 20
8.672093779595471
 10
31.16981483955487
 20
8.738333179595471
 10
31.12053673715488
 20
8.806246246795453
 10
31.07210713395487
 20
8.87646454599546
 10
31.02456202035487
 20
8.948690376395447
 10
30.97815000915487
 20
9.022233219595463
 10
30.93238503635487
 20
9.097539449995466
 10
30.88499836275487
 20
9.178093022795465
 10
30.83344819635488
 20
9.268086021195458
 10
30.77554102675488
 20
9.371186561995457
 10
30.71072653075488
 20
9.488036862795453
 10
30.63852901555488
 20
9.619117694795463
 10
30.55646822195487
 20
9.769109307595456
 10
30.46011448595487
 20
9.949029221195459
  0
LWPOLYLINE
  5
1D6
330
2
100
AcDbEntity
  8
0
100
AcDbPolyline
 90
        5
 70
     0
 43
0.0
 10
34.48514748595488
 20
6.398186880395471
 10
34.47452929235487
 20
7.169654952395447
 10
34.44068516435487
 20
7.952888077195453
 10
34.37924895795487
 20
8.757629726795457
 10
34.28733934355487
 20
9.564996801995462
  0
LWPOLYLINE
  5
1D7
330
2
100
AcDbEntity
  8
0
100
AcDbPolyline
 90
        5
 70
     0
 43
0.0
 10
34.48514748595488
 20
6.398186880395471
 10
34.47452929235487
 20
5.626718808395452
 10
34.44068516435487
 20
4.84348568359546
 10
34.37924895795487
 20
4.038744033995456
 10
34.28733934355487
 20
3.231376958795465
  0
LWPOLYLINE
  5
1D8
330
2
100
AcDbEntity
  8
0
100
AcDbPolyline
 90
       54
 70
     0
 43
0.0
 10
33.83044671315487
 20
6.398186880395471
 10
33.82855098995487
 20
6.296136198795451
 10
33.82302767475488
 20
6.197752694795454
 10
33.81418830675487
 20
6.104420913995468
 10
33.80231566835488
 20
6.016593328395444
 10
33.78714027155487
 20
5.931503784395445
 10
33.76826805235488
 20
5.847207637195467
 10
33.74585283475487
 20
5.765114369995458
 10
33.72000387955488
 20
5.686163006795467
 10
33.69026991155488
 20
5.609712345995461
 10
33.65598454355488
 20
5.535069638795462
 10
33.61702763795487
 20
5.463154800395457
 10
33.57569234515487
 20
5.398664657995453
 10
33.53661665875488
 20
5.347895038795456
 10
33.50167389715487
 20
5.311205149195458
 10
33.46669276595487
 20
5.283471421195457
 10
33.42702301395488
 20
5.261184373195462
 10
33.38199821075487
 20
5.24384663239546
 10
33.33245797875487
 20
5.229782091595453
 10
33.27835877715488
 20
5.217173222795452
 10
33.21949241395488
 20
5.205294254795461
 10
33.15546991475487
 20
5.193155205195452
 10
33.08572370515487
 20
5.180212741195461
 10
33.00955571635488
 20
5.165706333195458
 10
32.92620319475487
 20
5.148385614795458
 10
32.83489722675487
 20
5.126922160395452
 10
32.73463046355487
 20
5.09991626599546
 10
32.62390335315487
 20
5.065726006795458
 10
32.50102992435488
 20
5.022576216395464
 10
32.36462044755488
 20
4.968144283595464
 10
32.21553969075488
 20
4.900480765195453
 10
32.06828653235487
 20
4.824760761995463
 10
31.93283939475488
 20
4.746638227595454
 10
31.80998640275487
 20
4.66792780039546
 10
31.69756117555488
 20
4.58840027079546
 10
31.59355737555488
 20
4.50724074599546
 10
31.49782837235487
 20
4.424442046795462
 10
31.41201693875487
 20
4.341904744395463
 10
31.33807178835488
 20
4.263625845195463
 10
31.27549817395487
 20
4.191793297995459
 10
31.22057421235487
 20
4.124279981195456
 10
31.16981483955487
 20
4.058040581195456
 10
31.12053673715488
 20
3.99012751399546
 10
31.07210713395487
 20
3.919909214795453
 10
31.02456202035487
 20
3.847683384395452
 10
30.97815000915487
 20
3.774140541195464
 10
30.93238503635487
 20
3.698834310795461
 10
30.88499836275487
 20
3.618280737995462
 10
30.83344819635488
 20
3.528287739595455
 10
30.77554102675488
 20
3.425187198795455
 10
30.71072653075488
 20
3.308336897995459
 10
30.63852901555488
 20
3.177256065995464
 10
30.55646822195487
 20
3.027264453195456
 10
30.46011448595487
 20
2.847344539595454
  0
LWPOLYLINE
  5
1D9
330
2
100
AcDbEntity
  8
0
100
AcDbPolyline
 90
        8
 70
     0
 43
0.0
 10
33.08005617715487
 20
-1.048933222004535
 10
33.29988603635487
 20
-0.560645449204543
 10
33.50575290995488
 20
-0.0391278940045368
 10
33.69653878835487
 20
0.5185082995954531
 10
33.87130911315487
 20
1.117016593995458
 10
34.02915889875487
 20
1.763382457995462
 10
34.16858702995487
 20
2.465389291595457
 10
34.28733934355487
 20
3.231376958795465
  0
LWPOLYLINE
  5
1DA
330
2
100
AcDbEntity
  8
0
100
AcDbPolyline
 90
        4
 70
     0
 43
0.0
 10
33.08005617715487
 20
-1.048933222004535
 10
32.91568777075487
 20
-1.377168017204539
 10
32.71816375315488
 20
-1.738431300404542
 10
32.49153420755487
 20
-2.115449780404546
  0
LWPOLYLINE
  5
1DB
330
2
100
AcDbEntity
  8
0
100
AcDbPolyline
 90
       16
 70
     0
 43
0.0
 10
40.82653522675487
 20
23.78882959559545
 10
40.82517156755487
 20
23.81493624679545
 10
40.82109759955487
 20
23.84073634119546
 10
40.81435915315488
 20
23.86594775879545
 10
40.80503099315487
 20
23.89029648999546
 10
40.79321523635488
 20
23.91352023239547
 10
40.77904060275487
 20
23.93536840359546
 10
40.76266083795488
 20
23.95560546599544
 10
40.74425318835487
 20
23.97401310919546
 10
40.72401611635487
 20
23.99039286599544
 10
40.70216792595488
 20
24.00456749799547
 10
40.67894415635487
 20
24.01638325319545
 10
40.65459541555488
 20
24.02571140679545
 10
40.62938395955487
 20
24.03244983879547
 10
40.60358390995488
 20
24.03652381319547
 10
40.57747703955487
 20
24.03788747559547
  0
LWPOLYLINE
  5
1DC
330
2
100
AcDbEntity
  8
0
100
AcDbPolyline
 90
       63
 70
     0
 43
0.0
 10
39.12559192595487
 20
6.398186880395471
 10
39.11908222515488
 20
6.783934536395449
 10
39.09873268435487
 20
7.190806704395455
 10
39.06344707315487
 20
7.617508134795471
 10
39.01229752115487
 20
8.062132715595467
 10
38.94458668915487
 20
8.522183515595472
 10
38.85979194195488
 20
8.995247198795468
 10
38.75765974835488
 20
9.478505265995451
 10
38.63827823955487
 20
9.968589385995457
 10
38.50206598675487
 20
10.46186757959544
 10
38.34950966995488
 20
10.95539754279546
 10
38.18114312115487
 20
11.44681272199547
 10
37.99797879795487
 20
11.93293606119546
 10
37.80123219475487
 20
12.41074130439547
 10
37.59201488275488
 20
12.87801327079544
 10
37.37090146675487
 20
13.33409428839546
 10
37.13913825715488
 20
13.77712116999545
 10
36.89806345395487
 20
14.20538833959547
 10
36.64898034355488
 20
14.61754494759544
 10
36.39246855635487
 20
15.01360358919545
 10
36.12921298995487
 20
15.39344577479546
 10
35.86003661875487
 20
15.75679090119545
 10
35.58576220275488
 20
16.10342419719545
 10
35.30705584755487
 20
16.43337344359547
 10
35.02438429875488
 20
16.74690868199546
 10
34.73820022835488
 20
17.04429803559544
 10
34.44890759475487
 20
17.32584210599545
 10
34.15685292755488
 20
17.59187479079547
 10
33.86226163795487
 20
17.84280783719545
 10
33.56499555315487
 20
18.07930744519545
 10
33.26509813395488
 20
18.30181782119545
 10
32.96265691955487
 20
18.51069987079545
 10
32.65775640115487
 20
18.70627864039546
 10
32.35032517875487
 20
18.88893590599546
 10
32.03511229075488
 20
19.06183417319546
 10
31.70655063795488
 20
19.22773097799544
 10
31.36281383475487
 20
19.38693518599545
 10
31.00173165075487
 20
19.53971022119544
 10
30.62072296115488
 20
19.68626420839545
 10
30.21704186355488
 20
19.82662664039544
 10
29.78889920915488
 20
19.96028507239545
 10
29.33423844275488
 20
20.08666768039545
 10
28.84967428755487
 20
20.20537683079545
 10
28.32945631795487
 20
20.31631640999545
 10
27.76980494835487
 20
20.41861826439544
 10
27.16497803955488
 20
20.51154875879545
 10
26.55254676755487
 20
20.58924975399544
 10
26.01423905555488
 20
20.64559665479545
 10
25.53941556115488
 20
20.68718602279547
 10
25.11779066995487
 20
20.71862900999546
 10
24.74162583155487
 20
20.74310370759546
 10
24.40445725555487
 20
20.76282644999547
 10
24.10077180115488
 20
20.77927740519545
 10
23.82601198195487
 20
20.79337178439546
 10
23.57652435955488
 20
20.80559884199546
 10
23.34933644275487
 20
20.81616913159546
 10
23.14198332595488
 20
20.82514862279545
 10
22.95249949555487
 20
20.83256715879547
 10
22.77937606675487
 20
20.83847603559546
 10
22.62121265715486
 20
20.84297683239545
 10
22.47670640435487
 20
20.84620664199546
 10
22.34466824435487
 20
20.84832171719544
 10
22.22475317395488
 20
20.84953079879547
  0
LWPOLYLINE
  5
1DD
330
2
100
AcDbEntity
  8
0
100
AcDbPolyline
 90
       58
 70
     0
 43
0.0
 10
39.24845667635487
 20
6.398186880395471
 10
39.24187803315487
 20
6.788033701195459
 10
39.22131704755488
 20
7.198941425995471
 10
39.18568339795487
 20
7.629601782795461
 10
39.13405399155488
 20
8.078111688395452
 10
39.06573543795487
 20
8.541977944395469
 10
38.98020808435487
 20
9.018789726795446
 10
38.87722013395487
 20
9.50573121639546
 10
38.75686056915488
 20
9.999437381195448
 10
38.61954816115488
 20
10.49627953319544
 10
38.46576977395487
 20
10.99331652359545
 10
38.29605918995487
 20
11.48818120839546
 10
38.11142810355487
 20
11.97769781319546
 10
37.91309098515488
 20
12.45884097799545
 10
37.70215902515488
 20
12.92939460519547
 10
37.47920712915487
 20
13.38869613159546
 10
37.24548112755488
 20
13.83488073319544
 10
37.00231883155487
 20
14.26624108999546
 10
36.75102376915488
 20
14.68142420999545
 10
36.49217747155488
 20
15.08043700679546
 10
36.22646704115487
 20
15.46315600839547
 10
35.95471782195487
 20
15.82929641639545
 10
35.67775451315488
 20
16.17863882759546
 10
35.39624509555487
 20
16.51120707239546
 10
35.11066164435487
 20
16.82726710119545
 10
34.82146293235487
 20
17.12708390599546
 10
34.52905935475488
 20
17.41095549159545
 10
34.23380410995487
 20
17.67921369159545
 10
33.93592962995487
 20
17.93226849639545
 10
33.63530589075487
 20
18.17078408999545
 10
33.33198424275487
 20
18.39520462279544
 10
33.02606030195487
 20
18.60589146439546
 10
32.71762660115487
 20
18.80317060519546
 10
32.40661846995488
 20
18.98742571079544
 10
32.08780529075487
 20
19.16180350439545
 10
31.75564029555488
 20
19.32904702599545
 10
31.40830703475488
 20
19.48946441159544
 10
31.04364496115488
 20
19.64331767719547
 10
30.65908232755488
 20
19.79081234279546
 10
30.25188142835487
 20
19.93197351719546
 10
29.82025626675488
 20
20.06627895079545
 10
29.36215221555487
 20
20.19313659719544
 10
28.87418744755487
 20
20.31211309479546
 10
28.35061606835488
 20
20.42304170759546
 10
27.78765692275487
 20
20.52493673799544
 10
27.17956789235488
 20
20.61684346919544
 10
26.56410997555487
 20
20.69264508519545
 10
26.02331578515487
 20
20.74623525159545
 10
25.54638963475487
 20
20.78405080199546
 10
25.12293673395487
 20
20.81045121159546
 10
24.74518366675488
 20
20.82831914119545
 10
24.40672344755488
 20
20.83986470439545
 10
24.10205839795487
 20
20.84684754439546
 10
23.82662203955487
 20
20.85062817159546
 10
23.57672314195487
 20
20.85226285159545
 10
23.34932641075488
 20
20.85255780999544
 10
23.14189877395488
 20
20.85210336839544
 10
22.62118634835488
 20
20.84983224199545
  0
LINE
  5
1DE
330
2
100
AcDbEntity
  8
0
100
AcDbLine
 10
40.82714413235487
 20
6.398186880395467
 30
0.0
 11
40.82653522675487
 21
23.78882959559545
 31
0.0
  0
LINE
  5
1DF
330
2
100
AcDbEntity
  8
0
100
AcDbLine
 10
40.82714413235487
 20
6.398186880395467
 30
0.0
 11
40.82653522675487
 21
-10.99245583480454
 31
0.0
  0
LINE
  5
1E0
330
2
100
AcDbEntity
  8
0
100
AcDbLine
 10
41.07556603955487
 20
-10.99244245400454
 30
0.0
 11
41.07556603955487
 21
23.78881621479545
 31
0.0
  0
LINE
  5
1E1
330
2
100
AcDbEntity
  8
0
100
AcDbLine
 10
41.18683459635486
 20
23.90008953159546
 30
0.0
 11
41.18683459635486
 21
-11.10371577080454
 31
0.0
  0
LWPOLYLINE
  5
1E2
330
2
100
AcDbEntity
  8
0
100
AcDbPolyline
 90
       16
 70
     0
 43
0.0
 10
41.18683459635486
 20
23.90008953159547
 10
41.18373898195487
 20
23.95190272199546
 10
41.17526883315487
 20
24.00317225799544
 10
41.16151016595487
 20
24.05334099239546
 10
41.14260648115487
 20
24.10186267719545
 10
41.11882026355488
 20
24.14809978759545
 10
41.09037977875487
 20
24.19164606119547
 10
41.05757634675486
 20
24.23205118919544
 10
41.02075999955488
 20
24.26887354759545
 10
40.98032416755488
 20
24.30170989319545
 10
40.93670127795488
 20
24.33019943399544
 10
40.89038458035488
 20
24.35401544039546
 10
40.84197059155488
 20
24.37286844519546
 10
40.79186467635487
 20
24.38661132039546
 10
40.74060332915488
 20
24.39508532999546
 10
40.68873724755488
 20
24.39818688039547
  0
LWPOLYLINE
  5
1E3
330
2
100
AcDbEntity
  8
0
100
AcDbPolyline
 90
       16
 70
     0
 43
0.0
 10
41.07556605875487
 20
23.78881623399546
 10
41.07265409395488
 20
23.84084695399546
 10
41.06434425075486
 20
23.89228370919546
 10
41.05072993875488
 20
23.94256656039546
 10
41.03196217715487
 20
23.99115009479545
 10
41.00824638515487
 20
24.03751067079546
 10
40.97984090195487
 20
24.08114810919546
 10
40.94705381395487
 20
24.12159194599546
 10
40.91023990675488
 20
24.15840587719545
 10
40.86979609875487
 20
24.19119298919547
 10
40.82615866675488
 20
24.21959851079545
 10
40.77979808755488
 20
24.24331434279547
 10
40.73121456115487
 20
24.26208213639545
 10
40.68093174515488
 20
24.27569647719546
 10
40.62949491315487
 20
24.28400636359545
 10
40.57746870515487
 20
24.28691833799546
  0
LWPOLYLINE
  5
1E4
330
2
100
AcDbEntity
  8
0
100
AcDbPolyline
 90
       16
 70
     0
 43
0.0
 10
40.82653522675487
 20
-10.99245583480454
 10
40.82517156755487
 20
-11.01856248600454
 10
40.82109759955487
 20
-11.04436258040453
 10
40.81435915315488
 20
-11.06957399800454
 10
40.80503099315487
 20
-11.09392272920453
 10
40.79321523635488
 20
-11.11714647160454
 10
40.77904060275487
 20
-11.13899464280454
 10
40.76266083795488
 20
-11.15923170520454
 10
40.74425318835487
 20
-11.17763934840453
 10
40.72401611635487
 20
-11.19401910520454
 10
40.70216792595488
 20
-11.20819373720453
 10
40.67894415635487
 20
-11.22000949240454
 10
40.65459541555488
 20
-11.22933764600453
 10
40.62938395955487
 20
-11.23607607800454
 10
40.60358390995488
 20
-11.24015005240454
 10
40.57747703955487
 20
-11.24151371320454
  0
LWPOLYLINE
  5
1E5
330
2
100
AcDbEntity
  8
0
100
AcDbPolyline
 90
       16
 70
     0
 43
0.0
 10
41.07556605875487
 20
-10.99244247320454
 10
41.07265409395488
 20
-11.04447319320453
 10
41.06434425075486
 20
-11.09590994840454
 10
41.05072993875488
 20
-11.14619279960453
 10
41.03196217715487
 20
-11.19477633400454
 10
41.00824638515487
 20
-11.24113691000454
 10
40.97984090195487
 20
-11.28477434840454
 10
40.94705381395487
 20
-11.32521818520454
 10
40.91023990675488
 20
-11.36203211640453
 10
40.86979609875487
 20
-11.39481922680454
 10
40.82615866675488
 20
-11.42322475000453
 10
40.77979808755488
 20
-11.44694058200454
 10
40.73121456115487
 20
-11.46570837560453
 10
40.68093174515488
 20
-11.47932271640453
 10
40.62949491315487
 20
-11.48763260280453
 10
40.57746870515487
 20
-11.49054457720454
  0
LWPOLYLINE
  5
1E6
330
2
100
AcDbEntity
  8
0
100
AcDbPolyline
 90
       16
 70
     0
 43
0.0
 10
41.18683459635486
 20
-11.10371577080454
 10
41.18373898195487
 20
-11.15552896120453
 10
41.17526883315487
 20
-11.20679849720454
 10
41.16151016595487
 20
-11.25696723160454
 10
41.14260648115487
 20
-11.30548891640454
 10
41.11882026355488
 20
-11.35172602680454
 10
41.09037977875487
 20
-11.39527230040454
 10
41.05757634675486
 20
-11.43567742840454
 10
41.02075999955488
 20
-11.47249978680454
 10
40.98032416755488
 20
-11.50533613240453
 10
40.93670127795488
 20
-11.53382567320454
 10
40.89038458035488
 20
-11.55764167960454
 10
40.84197059155488
 20
-11.57649468440453
 10
40.79186467635487
 20
-11.59023755960454
 10
40.74060332915488
 20
-11.59871156920454
 10
40.68873724755488
 20
-11.60181311960454
  0
CIRCLE
  5
1E7
330
2
100
AcDbEntity
  8
0
100
AcDbCircle
 10
5.186834596354872
 20
0.3981868803954533
 30
0.0
 40
1.2714466096
  0
ENDSEC
  0
SECTION
  2
OBJECTS
  0
DICTIONARY
  5
C
330
0
100
AcDbDictionary
  3
ACAD_COLOR
350
2E
  3
ACAD_GROUP
350
29
  3
ACAD_LAYOUT
350
B
  3
ACAD_MATERIAL
350
2D
  3
ACAD_MLINESTYLE
350
2A
  3
ACAD_PLOTSETTINGS
350
2B
  3
ACAD_PLOTSTYLENAME
350
2C
  3
ACAD_TABLESTYLE
350
2F
  3
ACDBHEADERROUNDTRIPXREC
350
2C4
  3
ACDBVARIABLEDICTIONARY
350
1E9
  0
DICTIONARY
  5
12
330
11
100
AcDbDictionary
280
     1
  3
ACAD_LAYERFILTERS
360
13
  3
ACLYDICTIONARY
360
14
  0
DICTIONARY
  5
3
330
2
100
AcDbDictionary
280
     1
  3
ACAD_LAYOUTSELFREF
360
2E5
  3
ACAD_SORTENTS
360
1E8
  0
DICTIONARY
  5
23F
330
D
100
AcDbDictionary
280
     1
  3
ACAD_LAYOUTSELFREF
360
2E6
  0
DICTIONARY
  5
2E
102
{ACAD_REACTORS
330
C
102
}
330
C
100
AcDbDictionary
  0
DICTIONARY
  5
29
102
{ACAD_REACTORS
330
C
102
}
330
C
100
AcDbDictionary
  0
DICTIONARY
  5
B
102
{ACAD_REACTORS
330
C
102
}
330
C
100
AcDbDictionary
  0
DICTIONARY
  5
2D
102
{ACAD_REACTORS
330
C
102
}
330
C
100
AcDbDictionary
  0
DICTIONARY
  5
2A
102
{ACAD_REACTORS
330
C
102
}
330
C
100
AcDbDictionary
  3
STANDARD
350
30
  0
DICTIONARY
  5
2B
102
{ACAD_REACTORS
330
C
102
}
330
C
100
AcDbDictionary
  0
ACDBDICTIONARYWDFLT
  5
2C
102
{ACAD_REACTORS
330
C
102
}
330
C
100
AcDbDictionary
281
     1
  3
Normal
350
7
100
AcDbDictionaryWithDefault
340
7
  0
DICTIONARY
  5
2F
102
{ACAD_REACTORS
330
C
102
}
330
C
100
AcDbDictionary
  3
STANDARD
350
31
  0
DICTIONARY
  5
2C4
102
{ACAD_REACTORS
330
C
102
}
330
C
100
AcDbDictionary
  3
CEPSNTYPE
350
2CE
  3
DIMSTYLEDATA
350
2D2
  3
FINGERPRINTGUID
350
2CF
  3
HYPERLINKBASE
350
2C7
  3
INSUNITS
350
2CD
  3
LAYOUTDICT
350
2C9
  3
LWETCUNION
350
2CC
  3
PLOTSETDICT
350
2CA
  3
PLOTSTYLNAMDICT
350
2CB
  3
PSVPSCALE
350
2D1
  3
PUCSBASE
350
2D5
  3
PUCSORGBACK
350
2DB
  3
PUCSORGBOTTOM
350
2D7
  3
PUCSORGFRONT
350
2DA
  3
PUCSORGLEFT
350
2D8
  3
PUCSORGRIGHT
350
2D9
  3
PUCSORGTOP
350
2D6
  3
PUCSORTHOREF
350
2D3
  3
PUCSORTHOVIEW
350
2D4
  3
STYLESHEET
350
2C8
  3
TSTACKALIGN
350
2C5
  3
TSTACKSIZE
350
2C6
  3
UCSBASE
350
2DE
  3
UCSORGBACK
350
2E4
  3
UCSORGBOTTOM
350
2E0
  3
UCSORGFRONT
350
2E3
  3
UCSORGLEFT
350
2E1
  3
UCSORGRIGHT
350
2E2
  3
UCSORGTOP
350
2DF
  3
UCSORTHOREF
350
2DC
  3
UCSORTHOVIEW
350
2DD
  3
VERSIONGUID
350
2D0
  0
DICTIONARY
  5
1E9
102
{ACAD_REACTORS
330
C
102
}
330
C
100
AcDbDictionary
  3
CTABLESTYLE
350
1EA
  3
DIMASSOC
350
1FA
  3
HIDETEXT
350
1F9
  3
PROJECTNAME
350
1FB
  0
DICTIONARY
  5
13
102
{ACAD_REACTORS
330
12
102
}
330
12
100
AcDbDictionary
  0
DICTIONARY
  5
14
102
{ACAD_REACTORS
330
12
102
}
330
12
100
AcDbDictionary
1001
ACAD
1000
<All
  0
XRECORD
  5
2E5
102
{ACAD_REACTORS
330
3
102
}
330
3
100
AcDbXrecord
340
2
  0
SORTENTSTABLE
  5
1E8
102
{ACAD_REACTORS
330
3
102
}
330
3
100
AcDbSortentsTable
330
2
  0
XRECORD
  5
2E6
102
{ACAD_REACTORS
330
23F
102
}
330
23F
100
AcDbXrecord
340
D
  0
MLINESTYLE
  5
30
102
{ACAD_REACTORS
330
2A
102
}
330
2A
100
AcDbMlineStyle
  2
STANDARD
 70
     0
  3

 62
   256
 51
90.0
 52
90.0
 71
     2
 49
0.5
 62
   256
  6
BYLAYER
 49
-0.5
 62
   256
  6
BYLAYER
  0
ACDBPLACEHOLDER
  5
7
102
{ACAD_REACTORS
330
2C
102
}
330
0
100
AcDbPlaceHolder
280
     0
  0
ACAD_PROXY_OBJECT
  5
31
102
{ACAD_REACTORS
330
2F
102
}
330
2F
100
AcDbProxyObject
 90
      499
 91
      525
 93
     1841
310
4214DD185B99185C9928B81E85EB51B8AE3F2E07A17AD46E2B8FC02B5E8DC0F42B1CFD028000000C1008070000C3001FDFF8000000C1003FBFF000000182007F7FE00000030400FEFFC00000060801FDFF8000000C1003FBFF00000018200000000000000681FA0B0000001820100E000186003FBFF000000182007F7FE000
310
00030400FEFFC00000060801FDFF8000000C1003FBFF000000182007F7FE000000304000AD7A3703D0AC73F4160000003040201C00030C007F7FE00000030400FEFFC00000060801FDFF8000000C1003FBFF000000182007F7FE00000030400FEFFC000000608018
340
17
340
17
340
17
 94
        0
1001
ACAD
1000
AcadProxyRoundTripData
1071
      524
1071
   851991
1070
     0
  0
XRECORD
  5
2CE
102
{ACAD_REACTORS
330
2C4
102
}
330
2C4
100
AcDbXrecord
 90
        0
  0
XRECORD
  5
2D2
102
{ACAD_REACTORS
330
2C4
102
}
330
2C4
100
AcDbXrecord
1000
DSTYLE
1002
{
1070
   341
340
23
1070
   342
340
23
1002
}
  0
XRECORD
  5
2CF
102
{ACAD_REACTORS
330
2C4
102
}
330
2C4
100
AcDbXrecord
  1
{38D1D9EF-27F4-4DCE-A156-BBB03F2C3928}
  0
XRECORD
  5
2C7
102
{ACAD_REACTORS
330
2C4
102
}
330
2C4
100
AcDbXrecord
  1

  0
XRECORD
  5
2CD
102
{ACAD_REACTORS
330
2C4
102
}
330
2C4
100
AcDbXrecord
 90
        1
  0
XRECORD
  5
2C9
102
{ACAD_REACTORS
330
2C4
102
}
330
2C4
100
AcDbXrecord
340
B
  0
XRECORD
  5
2CC
102
{ACAD_REACTORS
330
2C4
102
}
330
2C4
100
AcDbXrecord
 90
    10781
  0
XRECORD
  5
2CA
102
{ACAD_REACTORS
330
2C4
102
}
330
2C4
100
AcDbXrecord
340
2B
  0
XRECORD
  5
2CB
102
{ACAD_REACTORS
330
2C4
102
}
330
2C4
100
AcDbXrecord
340
2C
  0
XRECORD
  5
2D1
102
{ACAD_REACTORS
330
2C4
102
}
330
2C4
100
AcDbXrecord
 40
0.0
  0
XRECORD
  5
2D5
102
{ACAD_REACTORS
330
2C4
102
}
330
2C4
100
AcDbXrecord
340
0
  0
XRECORD
  5
2DB
102
{ACAD_REACTORS
330
2C4
102
}
330
2C4
100
AcDbXrecord
 10
0.0
 20
0.0
 30
0.0
  0
XRECORD
  5
2D7
102
{ACAD_REACTORS
330
2C4
102
}
330
2C4
100
AcDbXrecord
 10
0.0
 20
0.0
 30
0.0
  0
XRECORD
  5
2DA
102
{ACAD_REACTORS
330
2C4
102
}
330
2C4
100
AcDbXrecord
 10
0.0
 20
0.0
 30
0.0
  0
XRECORD
  5
2D8
102
{ACAD_REACTORS
330
2C4
102
}
330
2C4
100
AcDbXrecord
 10
0.0
 20
0.0
 30
0.0
  0
XRECORD
  5
2D9
102
{ACAD_REACTORS
330
2C4
102
}
330
2C4
100
AcDbXrecord
 10
0.0
 20
0.0
 30
0.0
  0
XRECORD
  5
2D6
102
{ACAD_REACTORS
330
2C4
102
}
330
2C4
100
AcDbXrecord
 10
0.0
 20
0.0
 30
0.0
  0
XRECORD
  5
2D3
102
{ACAD_REACTORS
330
2C4
102
}
330
2C4
100
AcDbXrecord
340
0
  0
XRECORD
  5
2D4
102
{ACAD_REACTORS
330
2C4
102
}
330
2C4
100
AcDbXrecord
 70
     0
  0
XRECORD
  5
2C8
102
{ACAD_REACTORS
330
2C4
102
}
330
2C4
100
AcDbXrecord
  1

  0
XRECORD
  5
2C5
102
{ACAD_REACTORS
330
2C4
102
}
330
2C4
100
AcDbXrecord
 90
        1
  0
XRECORD
  5
2C6
102
{ACAD_REACTORS
330
2C4
102
}
330
2C4
100
AcDbXrecord
 90
       70
  0
XRECORD
  5
2DE
102
{ACAD_REACTORS
330
2C4
102
}
330
2C4
100
AcDbXrecord
340
0
  0
XRECORD
  5
2E4
102
{ACAD_REACTORS
330
2C4
102
}
330
2C4
100
AcDbXrecord
 10
0.0
 20
0.0
 30
0.0
  0
XRECORD
  5
2E0
102
{ACAD_REACTORS
330
2C4
102
}
330
2C4
100
AcDbXrecord
 10
0.0
 20
0.0
 30
0.0
  0
XRECORD
  5
2E3
102
{ACAD_REACTORS
330
2C4
102
}
330
2C4
100
AcDbXrecord
 10
0.0
 20
0.0
 30
0.0
  0
XRECORD
  5
2E1
102
{ACAD_REACTORS
330
2C4
102
}
330
2C4
100
AcDbXrecord
 10
0.0
 20
0.0
 30
0.0
  0
XRECORD
  5
2E2
102
{ACAD_REACTORS
330
2C4
102
}
330
2C4
100
AcDbXrecord
 10
0.0
 20
0.0
 30
0.0
  0
XRECORD
  5
2DF
102
{ACAD_REACTORS
330
2C4
102
}
330
2C4
100
AcDbXrecord
 10
0.0
 20
0.0
 30
0.0
  0
XRECORD
  5
2DC
102
{ACAD_REACTORS
330
2C4
102
}
330
2C4
100
AcDbXrecord
340
0
  0
XRECORD
  5
2DD
102
{ACAD_REACTORS
330
2C4
102
}
330
2C4
100
AcDbXrecord
 70
     0
  0
XRECORD
  5
2D0
102
{ACAD_REACTORS
330
2C4
102
}
330
2C4
100
AcDbXrecord
  1
{15130616-203C-4028-B331-AB8379BA1F92}
  0
DICTIONARYVAR
  5
1EA
102
{ACAD_REACTORS
330
1E9
102
}
330
1E9
100
DictionaryVariables
280
     0
  1
STANDARD
  0
DICTIONARYVAR
  5
1FA
102
{ACAD_REACTORS
330
1E9
102
}
330
1E9
100
DictionaryVariables
280
     0
  1
1
  0
DICTIONARYVAR
  5
1F9
102
{ACAD_REACTORS
330
1E9
102
}
330
1E9
100
DictionaryVariables
280
     0
  1
1
  0
DICTIONARYVAR
  5
1FB
102
{ACAD_REACTORS
330
1E9
102
}
330
1E9
100
DictionaryVariables
280
     0
  1

  0
ENDSEC
  0
EOF
