  0
SECTION
  2
HEADER
  9
$ACADVER
  1
AC1014
  9
$ACADMAINTVER
 70
     9
  9
$DWGCODEPAGE
  3
ANSI_1252
  9
$INSBASE
 10
4.16602731
 20
1.9795914026
 30
0.0
  9
$EXTMIN
 10
-39.20126694857992
 20
-18.31651467488675
 30
0.0
  9
$EXTMAX
 10
40.2909915087002
 20
13.63937357794609
 30
0.0
  9
$LIMMIN
 10
0.0
 20
0.0
  9
$LIMMAX
 10
17.0
 20
11.0
  9
$ORTHOMODE
 70
     1
  9
$REGENMODE
 70
     1
  9
$FILLMODE
 70
     1
  9
$QTEXTMODE
 70
     0
  9
$MIRRTEXT
 70
     1
  9
$DRAGMODE
 70
     2
  9
$LTSCALE
 40
2.0
  9
$OSMODE
 70
    55
  9
$ATTMODE
 70
     1
  9
$TEXTSIZE
 40
0.2
  9
$TRACEWID
 40
0.05
  9
$TEXTSTYLE
  7
STANDARD
  9
$CLAYER
  8
0
  9
$CELTYPE
  6
BYLAYER
  9
$CECOLOR
 62
   256
  9
$CELTSCALE
 40
1.0
  9
$DELOBJ
 70
     1
  9
$DISPSILH
 70
     0
  9
$DIMSCALE
 40
1.0
  9
$DIMASZ
 40
0.1875
  9
$DIMEXO
 40
0.0625
  9
$DIMDLI
 40
0.38
  9
$DIMRND
 40
0.0
  9
$DIMDLE
 40
0.0
  9
$DIMEXE
 40
0.18
  9
$DIMTP
 40
0.0
  9
$DIMTM
 40
0.0
  9
$DIMTXT
 40
0.125
  9
$DIMCEN
 40
0.09
  9
$DIMTSZ
 40
0.0
  9
$DIMTOL
 70
     0
  9
$DIMLIM
 70
     0
  9
$DIMTIH
 70
     1
  9
$DIMTOH
 70
     1
  9
$DIMSE1
 70
     0
  9
$DIMSE2
 70
     0
  9
$DIMTAD
 70
     0
  9
$DIMZIN
 70
     4
  9
$DIMBLK
  1
_FILLED
  9
$DIMASO
 70
     1
  9
$DIMSHO
 70
     1
  9
$DIMPOST
  1

  9
$DIMAPOST
  1
cm
  9
$DIMALT
 70
     1
  9
$DIMALTD
 70
     2
  9
$DIMALTF
 40
2.54
  9
$DIMLFAC
 40
1.0
  9
$DIMTOFL
 70
     0
  9
$DIMTVP
 40
0.0
  9
$DIMTIX
 70
     0
  9
$DIMSOXD
 70
     0
  9
$DIMSAH
 70
     0
  9
$DIMBLK1
  1

  9
$DIMBLK2
  1

  9
$DIMSTYLE
  2
STANDARD
  9
$DIMCLRD
 70
     0
  9
$DIMCLRE
 70
     0
  9
$DIMCLRT
 70
     0
  9
$DIMTFAC
 40
1.0
  9
$DIMGAP
 40
0.09
  9
$DIMJUST
 70
     0
  9
$DIMSD1
 70
     0
  9
$DIMSD2
 70
     0
  9
$DIMTOLJ
 70
     1
  9
$DIMTZIN
 70
     4
  9
$DIMALTZ
 70
     0
  9
$DIMALTTZ
 70
     0
  9
$DIMFIT
 70
     3
  9
$DIMUPT
 70
     0
  9
$DIMUNIT
 70
     5
  9
$DIMDEC
 70
     4
  9
$DIMTDEC
 70
     4
  9
$DIMALTU
 70
     2
  9
$DIMALTTD
 70
     2
  9
$DIMTXSTY
  7
STANDARD
  9
$DIMAUNIT
 70
     0
  9
$LUNITS
 70
     2
  9
$LUPREC
 70
     4
  9
$SKETCHINC
 40
0.1
  9
$FILLETRAD
 40
0.0
  9
$AUNITS
 70
     0
  9
$AUPREC
 70
     0
  9
$MENU
  1
acad
  9
$ELEVATION
 40
0.0
  9
$PELEVATION
 40
0.0
  9
$THICKNESS
 40
0.0
  9
$LIMCHECK
 70
     0
  9
$BLIPMODE
 70
     0
  9
$CHAMFERA
 40
0.0
  9
$CHAMFERB
 40
0.0
  9
$CHAMFERC
 40
0.0
  9
$CHAMFERD
 40
0.0
  9
$SKPOLY
 70
     0
  9
$TDCREATE
 40
2453675.440412859
  9
$TDUPDATE
 40
2453685.429782847
  9
$TDINDWG
 40
0.0287992477
  9
$TDUSRTIMER
 40
0.0287992477
  9
$USRTIMER
 70
     1
  9
$ANGBASE
 50
0.0
  9
$ANGDIR
 70
     0
  9
$PDMODE
 70
     3
  9
$PDSIZE
 40
0.3125
  9
$PLINEWID
 40
0.0
  9
$COORDS
 70
     1
  9
$SPLFRAME
 70
     0
  9
$SPLINETYPE
 70
     6
  9
$SPLINESEGS
 70
     8
  9
$ATTDIA
 70
     0
  9
$ATTREQ
 70
     1
  9
$HANDLING
 70
 22529
  9
$HANDSEED
  5
4AA
  9
$SURFTAB1
 70
     6
  9
$SURFTAB2
 70
     6
  9
$SURFTYPE
 70
     6
  9
$SURFU
 70
     6
  9
$SURFV
 70
     6
  9
$UCSNAME
  2

  9
$UCSORG
 10
0.0
 20
0.0
 30
0.0
  9
$UCSXDIR
 10
1.0
 20
0.0
 30
0.0
  9
$UCSYDIR
 10
0.0
 20
1.0
 30
0.0
  9
$PUCSNAME
  2

  9
$PUCSORG
 10
0.0
 20
0.0
 30
0.0
  9
$PUCSXDIR
 10
1.0
 20
0.0
 30
0.0
  9
$PUCSYDIR
 10
0.0
 20
1.0
 30
0.0
  9
$USERI1
 70
     0
  9
$USERI2
 70
     0
  9
$USERI3
 70
     0
  9
$USERI4
 70
     0
  9
$USERI5
 70
     0
  9
$USERR1
 40
0.0
  9
$USERR2
 40
0.0
  9
$USERR3
 40
0.0
  9
$USERR4
 40
0.0
  9
$USERR5
 40
0.0
  9
$WORLDVIEW
 70
     1
  9
$SHADEDGE
 70
     3
  9
$SHADEDIF
 70
    70
  9
$TILEMODE
 70
     1
  9
$MAXACTVP
 70
    16
  9
$PINSBASE
 10
0.0
 20
0.0
 30
0.0
  9
$PLIMCHECK
 70
     0
  9
$PEXTMIN
 10
1.000000000000000E+20
 20
1.000000000000000E+20
 30
1.000000000000000E+20
  9
$PEXTMAX
 10
-1.000000000000000E+20
 20
-1.000000000000000E+20
 30
-1.000000000000000E+20
  9
$PLIMMIN
 10
0.0
 20
0.0
  9
$PLIMMAX
 10
12.0
 20
9.0
  9
$UNITMODE
 70
     0
  9
$VISRETAIN
 70
     0
  9
$PLINEGEN
 70
     1
  9
$PSLTSCALE
 70
     0
  9
$TREEDEPTH
 70
  3020
  9
$PICKSTYLE
 70
     1
  9
$CMLSTYLE
  2
STANDARD
  9
$CMLJUST
 70
     0
  9
$CMLSCALE
 40
1.0
  9
$PROXYGRAPHICS
 70
     0
  9
$MEASUREMENT
 70
     0
  0
ENDSEC
  0
SECTION
  2
CLASSES
  0
CLASS
  1
ACDBDICTIONARYWDFLT
  2
AcDbDictionaryWithDefault
  3
AutoCAD 2000
 90
        0
280
     0
281
     0
  0
CLASS
  1
ACDBPLACEHOLDER
  2
AcDbPlaceHolder
  3
AutoCAD 2000
 90
        0
280
     0
281
     0
  0
CLASS
  1
LAYOUT
  2
AcDbLayout
  3
AutoCAD 2000
 90
        0
280
     0
281
     0
  0
CLASS
  1
LWPOLYLINE
  2
AcDbPolyline
  3
AutoCAD 2000
 90
        0
280
     0
281
     1
  0
CLASS
  1
IMAGE
  2
AcDbRasterImage
  3
ISM
 90
      127
280
     1
281
     1
  0
CLASS
  1
OLE2FRAME
  2
AcDbOle2Frame
  3
AutoCAD 2000
 90
        0
280
     0
281
     1
  0
CLASS
  1
HATCH
  2
AcDbHatch
  3
AutoCAD 2000
 90
        0
280
     0
281
     1
  0
CLASS
  1
DICTIONARYVAR
  2
AcDbDictionaryVar
  3
AutoCAD 2000
 90
        0
280
     0
281
     0
  0
CLASS
  1
RASTERVARIABLES
  2
AcDbRasterVariables
  3
ISM
 90
        0
280
     1
281
     0
  0
CLASS
  1
IMAGEDEF
  2
AcDbRasterImageDef
  3
ISM
 90
        0
280
     1
281
     0
  0
CLASS
  1
IMAGEDEF_REACTOR
  2
AcDbRasterImageDefReactor
  3
ISM
 90
        1
280
     1
281
     0
  0
CLASS
  1
IDBUFFER
  2
AcDbIdBuffer
  3
AutoCAD 2000
 90
        0
280
     0
281
     0
  0
CLASS
  1
SPATIAL_FILTER
  2
AcDbSpatialFilter
  3
AutoCAD 2000
 90
        0
280
     0
281
     0
  0
CLASS
  1
XRECORD
  2
AcDbXrecord
  3
AutoCAD 2000
 90
        0
280
     0
281
     0
  0
CLASS
  1
SORTENTSTABLE
  2
AcDbSortentsTable
  3
AutoCAD 2000
 90
        0
280
     0
281
     0
  0
CLASS
  1
LAYER_INDEX
  2
AcDbLayerIndex
  3
AutoCAD 2000
 90
        0
280
     0
281
     0
  0
CLASS
  1
SPATIAL_INDEX
  2
AcDbSpatialIndex
  3
AutoCAD 2000
 90
        0
280
     0
281
     0
  0
CLASS
  1
OBJECT_PTR
  2
CAseDLPNTableRecord
  3
ASE-LPNTableRecord
 90
        1
280
     1
281
     0
  0
CLASS
  1
PLOTSETTINGS
  2
AcDbPlotSettings
  3
AutoCAD 2000
 90
        0
280
     0
281
     0
  0
CLASS
  1
VBA_PROJECT
  2
AcDbVbaProject
  3
acadvba
 90
        0
280
     0
281
     0
  0
CLASS
  1
WIPEOUT
  2
AcDbWipeout
  3
"WipeOut|Product Desc: Object Enabler for WipeOut entity^I^I^I^I^I^I|Company: Autodesk, Inc.^I^I^I^I^I^I|WEB Address: www.autodesk.com"
 90
      127
280
     1
281
     1
  0
CLASS
  1
WIPEOUTVARIABLES
  2
AcDbWipeoutVariables
  3
"WipeOut|Product Desc:     WipeOut Dbx Application|Company:          Autodesk, Inc.|WEB Address:      www.autodesk.com"
 90
        0
280
     1
281
     0
  0
CLASS
  1
RTEXT
  2
RText
  3
RText|AutoCAD Express Tool|expresstools@autodesk.com
 90
        0
280
     1
281
     1
  0
CLASS
  1
ARCALIGNEDTEXT
  2
AcDbArcAlignedText
  3
ATEXT|AutoCAD Express Tool|expresstools@autodesk.com
 90
        0
280
     1
281
     1
  0
CLASS
  1
TABLESTYLE
  2
AcDbTableStyle
  3
ObjectDBX Classes
 90
     2047
280
     0
281
     0
  0
CLASS
  1
ACAD_PROXY_OBJECT_WRAPPER
  2
AcDbProxyObjectWrapper
  3
AutoCAD 2000
 90
        0
280
     0
281
     0
  0
CLASS
  1
LONG_TRANSACTION
  2
AcDbLongTransaction
  3
AutoCAD 2000
 90
        0
280
     0
281
     0
  0
CLASS
  1
LWPOLYLINE
  2
AcDbPolyline
  3
AutoCAD 2000
 90
        0
280
     0
281
     1
  0
CLASS
  1
HATCH
  2
AcDbHatch
  3
AutoCAD 2000
 90
        0
280
     0
281
     1
  0
CLASS
  1
XRECORD
  2
AcDbXrecord
  3
AutoCAD 2000
 90
        0
280
     0
281
     0
  0
CLASS
  1
LONG_TRANSACTION
  2
AcDbLongTransaction
  3
AutoCAD 2000
 90
        0
280
     0
281
     0
  0
CLASS
  1
LWPOLYLINE
  2
AcDbPolyline
  3
AutoCAD 2000
 90
        0
280
     0
281
     1
  0
CLASS
  1
HATCH
  2
AcDbHatch
  3
AutoCAD 2000
 90
        0
280
     0
281
     1
  0
CLASS
  1
XRECORD
  2
AcDbXrecord
  3
AutoCAD 2000
 90
        0
280
     0
281
     0
  0
CLASS
  1
LONG_TRANSACTION
  2
AcDbLongTransaction
  3
AutoCAD 2000
 90
        0
280
     0
281
     0
  0
CLASS
  1
LWPOLYLINE
  2
AcDbPolyline
  3
AutoCAD 2000
 90
        0
280
     0
281
     1
  0
CLASS
  1
HATCH
  2
AcDbHatch
  3
AutoCAD 2000
 90
        0
280
     0
281
     1
  0
CLASS
  1
XRECORD
  2
AcDbXrecord
  3
AutoCAD 2000
 90
        0
280
     0
281
     0
  0
ENDSEC
  0
SECTION
  2
TABLES
  0
TABLE
  2
VPORT
  5
1B
330
0
100
AcDbSymbolTable
 70
     4
  0
VPORT
  5
486
330
1B
100
AcDbSymbolTableRecord
100
AcDbViewportTableRecord
  2
*ACTIVE
 70
     0
 10
0.0
 20
0.0
 11
1.0
 21
1.0
 12
4.97119786210424
 22
-2.934659007195591
 13
0.0
 23
0.0
 14
1.0
 24
1.0
 15
0.0
 25
0.0
 16
0.0
 26
0.0
 36
1.0
 17
0.0
 27
0.0
 37
0.0
 40
45.76609580304203
 41
1.786792452830188
 42
50.0
 43
0.0
 44
0.0
 50
0.0
 51
0.0
 71
     0
 72
   100
 73
     1
 74
     1
 75
     0
 76
     0
 77
     0
 78
     0
  0
ENDTAB
  0
TABLE
  2
LTYPE
  5
16
330
0
100
AcDbSymbolTable
 70
     3
  0
LTYPE
  5
17
330
16
100
AcDbSymbolTableRecord
100
AcDbLinetypeTableRecord
  2
BYBLOCK
 70
     0
  3

 72
    65
 73
     0
 40
0.0
  0
LTYPE
  5
18
330
16
100
AcDbSymbolTableRecord
100
AcDbLinetypeTableRecord
  2
BYLAYER
 70
     0
  3

 72
    65
 73
     0
 40
0.0
  0
LTYPE
  5
A
330
16
100
AcDbSymbolTableRecord
100
AcDbLinetypeTableRecord
  2
CONTINUOUS
 70
     0
  3
Solid line
 72
    65
 73
     0
 40
0.0
  0
LTYPE
  5
2BA
330
16
100
AcDbSymbolTableRecord
100
AcDbLinetypeTableRecord
  2
CENTER
 70
     0
  3
____ _ ____ _ ____ _ ____ _ ____ _ ____ _ ____
 72
    65
 73
     4
 40
0.6
 49
0.375
 74
     0
 49
-0.075
 74
     0
 49
0.075
 74
     0
 49
-0.075
 74
     0
  0
LTYPE
  5
32B
330
16
100
AcDbSymbolTableRecord
100
AcDbLinetypeTableRecord
  2
HIDDEN
 70
     0
  3
Hidden __ __ __ __ __ __ __ __ __ __ __ __ __ _
 72
    65
 73
     2
 40
0.375
 49
0.25
 74
     0
 49
-0.125
 74
     0
  0
ENDTAB
  0
TABLE
  2
LAYER
  5
12
330
0
100
AcDbSymbolTable
 70
     3
  0
LAYER
  5
6
330
12
100
AcDbSymbolTableRecord
100
AcDbLayerTableRecord
  2
0
 70
     0
 62
     7
  6
CONTINUOUS
  0
LAYER
  5
2B9
330
12
100
AcDbSymbolTableRecord
100
AcDbLayerTableRecord
  2
CENTER
 70
     0
 62
     1
  6
CENTER
  0
LAYER
  5
2ED
330
12
100
AcDbSymbolTableRecord
100
AcDbLayerTableRecord
  2
DEFPOINTS
 70
     0
 62
     7
  6
CONTINUOUS
  0
ENDTAB
  0
TABLE
  2
STYLE
  5
13
330
0
100
AcDbSymbolTable
 70
     1
  0
STYLE
  5
14
330
13
100
AcDbSymbolTableRecord
100
AcDbTextStyleTableRecord
  2
STANDARD
 70
     0
 40
0.0
 41
0.8
 50
0.0
 71
     0
 42
0.2
  3
txt
  4

  0
ENDTAB
  0
TABLE
  2
VIEW
  5
19
330
0
100
AcDbSymbolTable
 70
     0
  0
ENDTAB
  0
TABLE
  2
UCS
  5
1A
330
0
100
AcDbSymbolTable
 70
     0
  0
ENDTAB
  0
TABLE
  2
APPID
  5
1D
330
0
100
AcDbSymbolTable
 70
     2
  0
APPID
  5
1E
330
1D
100
AcDbSymbolTableRecord
100
AcDbRegAppTableRecord
  2
ACAD
 70
     0
  0
APPID
  5
2C4
330
1D
100
AcDbSymbolTableRecord
100
AcDbRegAppTableRecord
  2
ACAD_DSTYLE_DIMTEXT_FILL
 70
     0
  0
ENDTAB
  0
TABLE
  2
DIMSTYLE
  5
1F
330
0
100
AcDbSymbolTable
 70
     1
  0
DIMSTYLE
105
20
330
1F
100
AcDbSymbolTableRecord
100
AcDbDimStyleTableRecord
  2
STANDARD
 70
     0
  3

  4
cm
  5
_FILLED
  6

  7

 40
1.0
 41
0.1875
 42
0.0625
 43
0.38
 44
0.18
 45
0.0
 46
0.0
 47
0.0
 48
0.0
140
0.125
141
0.09
142
0.0
143
2.54
144
16.0
145
0.0
146
1.0
147
0.09
 71
     0
 72
     0
 73
     1
 74
     1
 75
     0
 76
     0
 77
     0
 78
     4
170
     1
171
     2
172
     0
173
     0
174
     0
175
     0
176
     0
177
     0
178
     0
270
     5
271
     4
272
     4
273
     2
274
     2
340
14
275
     0
280
     0
281
     0
282
     0
283
     1
284
     4
285
     0
286
     0
287
     3
288
     0
  0
ENDTAB
  0
TABLE
  2
BLOCK_RECORD
  5
1
330
0
100
AcDbSymbolTable
 70
     4
  0
BLOCK_RECORD
  5
2
102
{ACAD_XDICTIONARY
360
3
102
}
330
1
100
AcDbSymbolTableRecord
100
AcDbBlockTableRecord
  2
*MODEL_SPACE
  0
BLOCK_RECORD
  5
E
102
{ACAD_XDICTIONARY
360
35B
102
}
330
1
100
AcDbSymbolTableRecord
100
AcDbBlockTableRecord
  2
*PAPER_SPACE
  0
BLOCK_RECORD
  5
21
330
1
100
AcDbSymbolTableRecord
100
AcDbBlockTableRecord
  2
_FILLED
  0
BLOCK_RECORD
  5
3E1
330
1
100
AcDbSymbolTableRecord
100
AcDbBlockTableRecord
  2
*D1
  0
BLOCK_RECORD
  5
3FB
330
1
100
AcDbSymbolTableRecord
100
AcDbBlockTableRecord
  2
*D2
  0
BLOCK_RECORD
  5
409
330
1
100
AcDbSymbolTableRecord
100
AcDbBlockTableRecord
  2
*D3
  0
ENDTAB
  0
ENDSEC
  0
SECTION
  2
BLOCKS
  0
BLOCK
  5
5
330
2
100
AcDbEntity
  8
0
100
AcDbBlockBegin
  2
*MODEL_SPACE
 70
     0
 10
0.0
 20
0.0
 30
0.0
  3
*MODEL_SPACE
  1

  0
ENDBLK
  5
B
330
2
100
AcDbEntity
  8
0
100
AcDbBlockEnd
  0
BLOCK
  5
F
330
E
100
AcDbEntity
 67
     1
  8
0
100
AcDbBlockBegin
  2
*PAPER_SPACE
 70
     0
 10
0.0
 20
0.0
 30
0.0
  3
*PAPER_SPACE
  1

  0
ENDBLK
  5
10
330
E
100
AcDbEntity
 67
     1
  8
0
100
AcDbBlockEnd
  0
BLOCK
  5
22
330
21
100
AcDbEntity
  8
0
100
AcDbBlockBegin
  2
_FILLED
 70
     0
 10
0.0
 20
0.0
 30
0.0
  3
_FILLED
  1

  0
SOLID
  5
23
330
21
100
AcDbEntity
  8
0
  6
BYBLOCK
 62
     0
100
AcDbTrace
 10
0.0
 20
0.0
 30
0.0
 11
-1.0
 21
0.1666666667
 31
0.0
 12
-1.0
 22
-0.1666666667
 32
0.0
 13
-1.0
 23
-0.1666666667
 33
0.0
  0
ENDBLK
  5
24
330
21
100
AcDbEntity
  8
0
  6
BYBLOCK
 62
     0
100
AcDbBlockEnd
  0
BLOCK
  5
3EC
330
3E1
100
AcDbEntity
  8
0
100
AcDbBlockBegin
  2
*D1
 70
     1
 10
0.0
 20
0.0
 30
0.0
  3
*D1
  1

  0
LINE
  5
3EE
330
3E1
100
AcDbEntity
  8
0
 62
     0
100
AcDbLine
 10
4.165991508699987
 20
0.4208868579132492
 30
0.0
 11
4.165991508699987
 21
13.63937357794609
 31
0.0
  0
LINE
  5
3EF
330
3E1
100
AcDbEntity
  8
0
 62
     0
100
AcDbLine
 10
40.2909915087002
 20
4.771871215599993
 30
0.0
 11
40.2909915087002
 21
13.63937357794609
 31
0.0
  0
LINE
  5
3F0
330
3E1
100
AcDbEntity
  8
0
 62
     0
100
AcDbLine
 10
4.353491508699987
 20
13.4593735779461
 30
0.0
 11
21.55099150870009
 21
13.4593735779461
 31
0.0
  0
LINE
  5
3F1
330
3E1
100
AcDbEntity
  8
0
 62
     0
100
AcDbLine
 10
40.1034915087002
 20
13.4593735779461
 30
0.0
 11
22.90599150870009
 21
13.4593735779461
 31
0.0
  0
INSERT
  5
3F2
330
3E1
100
AcDbEntity
  8
0
 62
     0
100
AcDbBlockReference
  2
_FILLED
 10
4.165991508699987
 20
13.4593735779461
 30
0.0
 41
0.1875
 42
0.1875
 43
0.1875
 50
180.0
  0
INSERT
  5
3F3
330
3E1
100
AcDbEntity
  8
0
 62
     0
100
AcDbBlockReference
  2
_FILLED
 10
40.2909915087002
 20
13.4593735779461
 30
0.0
 41
0.1875
 42
0.1875
 43
0.1875
  0
MTEXT
  5
3F4
330
3E1
100
AcDbEntity
  8
0
 62
     0
100
AcDbMText
 10
22.22849150870009
 20
13.4593735779461
 30
0.0
 40
0.125
 41
0.0
 71
     5
 72
     1
  1
\A1;36{\H1.000000x;\S1/8;} [91.76cm]
1001
ACAD
1000
MTEXTBEGIN
1070
    73
1070
     1
1070
    44
1040
1.0
1070
    74
1070
     1
1000
MTEXTEND
  0
POINT
  5
3F5
330
3E1
100
AcDbEntity
  8
DEFPOINTS
 62
     0
100
AcDbPoint
 10
4.165991508699987
 20
0.3583868579132492
 30
0.0
  0
POINT
  5
3F6
330
3E1
100
AcDbEntity
  8
DEFPOINTS
 62
     0
100
AcDbPoint
 10
40.2909915087002
 20
4.709371215599993
 30
0.0
  0
POINT
  5
3F7
330
3E1
100
AcDbEntity
  8
DEFPOINTS
 62
     0
100
AcDbPoint
 10
40.2909915087002
 20
13.4593735779461
 30
0.0
  0
ENDBLK
  5
3ED
330
3E1
100
AcDbEntity
  8
0
100
AcDbBlockEnd
  0
BLOCK
  5
406
330
3FB
100
AcDbEntity
  8
0
100
AcDbBlockBegin
  2
*D2
 70
     1
 10
0.0
 20
0.0
 30
0.0
  3
*D2
  1

  0
LINE
  5
3FC
330
3FB
100
AcDbEntity
  8
0
 62
     0
100
AcDbLine
 10
4.165991508699987
 20
0.4208868579132492
 30
0.0
 11
4.165991508699987
 21
13.13762593455647
 31
0.0
  0
LINE
  5
3FD
330
3FB
100
AcDbEntity
  8
0
 62
     0
100
AcDbLine
 10
-31.9590084912998
 20
4.771871215599997
 30
0.0
 11
-31.9590084912998
 21
13.13762593455647
 31
0.0
  0
LINE
  5
3FE
330
3FB
100
AcDbEntity
  8
0
 62
     0
100
AcDbLine
 10
3.978491508699987
 20
12.95762593455647
 30
0.0
 11
-13.2190084912999
 21
12.95762593455647
 31
0.0
  0
LINE
  5
3FF
330
3FB
100
AcDbEntity
  8
0
 62
     0
100
AcDbLine
 10
-31.7715084912998
 20
12.95762593455647
 30
0.0
 11
-14.5740084912999
 21
12.95762593455647
 31
0.0
  0
INSERT
  5
400
330
3FB
100
AcDbEntity
  8
0
 62
     0
100
AcDbBlockReference
  2
_FILLED
 10
4.165991508699987
 20
12.95762593455647
 30
0.0
 41
0.1875
 42
0.1875
 43
0.1875
  0
INSERT
  5
401
330
3FB
100
AcDbEntity
  8
0
 62
     0
100
AcDbBlockReference
  2
_FILLED
 10
-31.9590084912998
 20
12.95762593455647
 30
0.0
 41
0.1875
 42
0.1875
 43
0.1875
 50
180.0
  0
MTEXT
  5
402
330
3FB
100
AcDbEntity
  8
0
 62
     0
100
AcDbMText
 10
-13.8965084912999
 20
12.95762593455647
 30
0.0
 40
0.125
 41
0.0
 71
     5
 72
     1
  1
\A1;36{\H1.000000x;\S1/8;} [91.76cm]
1001
ACAD
1000
MTEXTBEGIN
1070
    73
1070
     1
1070
    44
1040
1.0
1070
    74
1070
     1
1000
MTEXTEND
  0
POINT
  5
403
330
3FB
100
AcDbEntity
  8
DEFPOINTS
 62
     0
100
AcDbPoint
 10
4.165991508699987
 20
0.3583868579132492
 30
0.0
  0
POINT
  5
404
330
3FB
100
AcDbEntity
  8
DEFPOINTS
 62
     0
100
AcDbPoint
 10
-31.9590084912998
 20
4.709371215599997
 30
0.0
  0
POINT
  5
405
330
3FB
100
AcDbEntity
  8
DEFPOINTS
 62
     0
100
AcDbPoint
 10
-31.9590084912998
 20
12.95762593455647
 30
0.0
  0
ENDBLK
  5
407
330
3FB
100
AcDbEntity
  8
0
100
AcDbBlockEnd
  0
BLOCK
  5
414
330
409
100
AcDbEntity
  8
0
100
AcDbBlockBegin
  2
*D3
 70
     1
 10
0.0
 20
0.0
 30
0.0
  3
*D3
  1

  0
LINE
  5
40A
330
409
100
AcDbEntity
  8
0
 62
     0
100
AcDbLine
 10
-13.1956584912998
 20
-15.40312878439999
 30
0.0
 11
-38.81043361524659
 21
-15.40312878439999
 31
0.0
  0
LINE
  5
40B
330
409
100
AcDbEntity
  8
0
 62
     0
100
AcDbLine
 10
-32.0215084912998
 20
4.709371215599997
 30
0.0
 11
-38.81043361524659
 21
4.709371215599999
 31
0.0
  0
LINE
  5
40C
330
409
100
AcDbEntity
  8
0
 62
     0
100
AcDbLine
 10
-38.63043361524658
 20
-15.21562878439999
 30
0.0
 11
-38.63043361524658
 21
-5.561878784399996
 31
0.0
  0
LINE
  5
40D
330
409
100
AcDbEntity
  8
0
 62
     0
100
AcDbLine
 10
-38.63043361524658
 20
4.521871215599999
 30
0.0
 11
-38.63043361524658
 21
-5.131878784399996
 31
0.0
  0
INSERT
  5
40E
330
409
100
AcDbEntity
  8
0
 62
     0
100
AcDbBlockReference
  2
_FILLED
 10
-38.63043361524658
 20
-15.40312878439999
 30
0.0
 41
0.1875
 42
0.1875
 43
0.1875
 50
270.0
  0
INSERT
  5
40F
330
409
100
AcDbEntity
  8
0
 62
     0
100
AcDbBlockReference
  2
_FILLED
 10
-38.63043361524658
 20
4.709371215599999
 30
0.0
 41
0.1875
 42
0.1875
 43
0.1875
 50
90.0
  0
MTEXT
  5
410
330
409
100
AcDbEntity
  8
0
 62
     0
100
AcDbMText
 10
-38.63043361524658
 20
-5.346878784400001
 30
0.0
 40
0.125
 41
0.0
 71
     5
 72
     1
  1
\A1;20{\H1.000000x;\S1/8;} [51.09cm]
1001
ACAD
1000
MTEXTBEGIN
1070
    73
1070
     1
1070
    44
1040
1.0
1070
    74
1070
     1
1000
MTEXTEND
  0
POINT
  5
411
330
409
100
AcDbEntity
  8
DEFPOINTS
 62
     0
100
AcDbPoint
 10
-13.1331584912998
 20
-15.40312878439999
 30
0.0
  0
POINT
  5
412
330
409
100
AcDbEntity
  8
DEFPOINTS
 62
     0
100
AcDbPoint
 10
-31.9590084912998
 20
4.709371215599997
 30
0.0
  0
POINT
  5
413
330
409
100
AcDbEntity
  8
DEFPOINTS
 62
     0
100
AcDbPoint
 10
-38.63043361524658
 20
4.709371215599999
 30
0.0
  0
ENDBLK
  5
415
330
409
100
AcDbEntity
  8
0
100
AcDbBlockEnd
  0
ENDSEC
  0
SECTION
  2
ENTITIES
  0
LWPOLYLINE
  5
34
330
2
100
AcDbEntity
  8
0
  6
HIDDEN
 62
     9
 48
0.125
100
AcDbPolyline
 90
        5
 70
     0
 43
0.0
 10
-6.7122483664998
 20
1.658072821999994
 10
-6.720376142499802
 20
1.685441913199994
 10
-6.728464576099803
 20
1.712822666799993
 10
-6.736540752099806
 20
1.740307025199996
 10
-6.744577553699805
 20
1.767802916399993
  0
LWPOLYLINE
  5
35
330
2
100
AcDbEntity
  8
0
  6
HIDDEN
 62
     9
 48
0.125
100
AcDbPolyline
 90
       70
 70
     0
 43
0.0
 10
-6.744577553699805
 20
1.767802916399993
 10
-6.749093760099803
 20
1.783990794799997
 10
-6.753230752099803
 20
1.800282037999991
 10
-6.7569802480998
 20
1.816667373999997
 10
-6.7602383840998
 20
1.832637548399993
 10
-6.7631175552998
 20
1.848679730799993
 10
-6.765610956899806
 20
1.864786172399995
 10
-6.767655590499806
 20
1.880471705199994
 10
-6.769324505699806
 20
1.896201756399996
 10
-6.770611756899803
 20
1.911967618799991
 10
-6.771491899299803
 20
1.927323746799991
 10
-6.772000723299804
 20
1.942696581999996
 10
-6.772133398499804
 20
1.958077207599991
 10
-6.771896129699804
 20
1.973071701999991
 10
-6.771293020899804
 20
1.988055917999993
 10
-6.770320379299803
 20
2.003020647599996
 10
-6.769010019299805
 20
2.017611761199994
 10
-6.767341001699804
 20
2.032166178799997
 10
-6.765310846499801
 20
2.046674589999994
 10
-6.762966608099802
 20
2.060850897199998
 10
-6.760271321699804
 20
2.074964650799998
 10
-6.757223744099803
 20
2.089006509999997
 10
-6.753882481699804
 20
2.102734874799992
 10
-6.750199406499802
 20
2.116375493999996
 10
-6.746174539299801
 20
2.129919165999993
 10
-6.741869169699803
 20
2.143176521199997
 10
-6.737232459299804
 20
2.156321647599995
 10
-6.732265697699801
 20
2.169345626799994
 10
-6.727015523299805
 20
2.182133500399991
 10
-6.721444548899803
 20
2.194784914799996
 10
-6.715555323299803
 20
2.207291330799996
 10
-6.709388019299801
 20
2.219572085999992
 10
-6.702912475299804
 20
2.231693140399997
 10
-6.696132448099803
 20
2.243646527599992
 10
-6.689055203299801
 20
2.255419044399992
 10
-6.681682443299806
 20
2.267008794799991
 10
-6.674019099299805
 20
2.278408482799996
 10
-6.666038816099806
 20
2.289654129199995
 10
-6.657776696099801
 20
2.300694389999996
 10
-6.6492387808998
 20
2.311522772399996
 10
-6.640369379299805
 20
2.322205618799998
 10
-6.631233510499804
 20
2.332661527599995
 10
-6.621838208099802
 20
2.342884964399992
 10
-6.6120568848998
 20
2.353005559599992
 10
-6.602024190499804
 20
2.362877073199996
 10
-6.5917481120998
 20
2.372494988399992
 10
-6.581065272099806
 20
2.382003844399996
 10
-6.570148152099804
 20
2.391242829999995
 10
-6.559005523299802
 20
2.400208586799998
 10
-6.5474059408998
 20
2.409077050799993
 10
-6.535589904099801
 20
2.417655074799995
 10
-6.523566864099805
 20
2.425940522799997
 10
-6.5110237264998
 20
2.434136730799991
 10
-6.498282598499805
 20
2.442021740399994
 10
-6.485353520099806
 20
2.449594700399991
 10
-6.471871675299802
 20
2.457056621999996
 10
-6.4582121040998
 20
2.464188103599994
 10
-6.444385240099805
 20
2.470989639599991
 10
-6.429916120099804
 20
2.477679415599993
 10
-6.415289867299804
 20
2.484018466799994
 10
-6.4005172160998
 20
2.490008655599993
 10
-6.385070731299805
 20
2.495848353199995
 10
-6.369489651299801
 20
2.501318887599992
 10
-6.353784969699802
 20
2.506423474799994
 10
-6.337329776099807
 20
2.511348455599993
 10
-6.3207632304998
 20
2.515885644399993
 10
-6.304095824099803
 20
2.520039709999991
 10
-6.286625198499805
 20
2.523967292399994
 10
-6.269068851299806
 20
2.527489245999994
 10
-6.251439264099801
 20
2.530611199599995
  0
LWPOLYLINE
  5
36
330
2
100
AcDbEntity
  8
0
100
AcDbPolyline
 90
       49
 70
     0
 43
0.0
 10
-20.9306811296998
 20
-4.816627200400006
 10
-20.9108565984998
 20
-4.765118659600005
 10
-20.8895224480998
 20
-4.714816058000003
 10
-20.8666251968998
 20
-4.665689694800008
 10
-20.8421184048998
 20
-4.617720763600004
 10
-20.8159838144998
 20
-4.570934034000003
 10
-20.7882102128998
 20
-4.525365173200007
 10
-20.7587840128998
 20
-4.481042110800004
 10
-20.7276821280998
 20
-4.437961861200001
 10
-20.6948790960998
 20
-4.396113702800008
 10
-20.6603561552998
 20
-4.355493797200004
 10
-20.6241213296998
 20
-4.316125824400003
 10
-20.5861893408998
 20
-4.278040347600004
 10
-20.5465693424998
 20
-4.241259464400002
 10
-20.5052482160998
 20
-4.205771418000004
 10
-20.4622072768998
 20
-4.171555992400001
 10
-20.4174290960998
 20
-4.138593786000008
 10
-20.3709013024998
 20
-4.106868653200002
 10
-20.3226127840998
 20
-4.076365264400003
 10
-20.2725485936998
 20
-4.047066096400001
 10
-20.2206784672998
 20
-4.018944866000005
 10
-20.1669683040998
 20
-3.991973093200002
 10
-20.1113834368998
 20
-3.966122507600005
 10
-20.0538869168998
 20
-3.941365659600002
 10
-19.9944412352998
 20
-3.917675301200006
 10
-19.9330086400998
 20
-3.895023190800003
 10
-19.8695504480998
 20
-3.873377078800004
 10
-19.8040277360998
 20
-3.852703717200007
 10
-19.7364038272998
 20
-3.832969152400004
 10
-19.6666510112998
 20
-3.814136618000006
 10
-19.5947438176998
 20
-3.796168645200005
 10
-19.5206653664998
 20
-3.779026710800003
 10
-19.4444331072998
 20
-3.762668102800006
 10
-19.3660730784998
 20
-3.747049056400001
 10
-19.2856075952998
 20
-3.732121318800004
 10
-19.2030440784998
 20
-3.717818674000007
 10
-19.1183862288998
 20
-3.704070416400007
 10
-19.0316530016998
 20
-3.690812206800003
 10
-18.9429243664998
 20
-3.678005178000006
 10
-18.8522955568998
 20
-3.665616832400004
 10
-18.7598526016998
 20
-3.653613115600002
 10
-18.6656447568998
 20
-3.641953733200004
 10
-18.5697120800998
 20
-3.630596838800002
 10
-18.4721089968998
 20
-3.619500744400006
 10
-18.3729474128998
 20
-3.608624421200005
 10
-18.2723535968998
 20
-3.597927005200006
 10
-18.1704342384998
 20
-3.587365464400008
 10
-18.0672176736998
 20
-3.576888102800005
 10
-17.9627126528998
 20
-3.566441061200002
  0
LWPOLYLINE
  5
37
330
2
100
AcDbEntity
  8
0
  6
HIDDEN
 62
     9
100
AcDbPolyline
 90
       30
 70
     0
 43
0.0
 10
-2.888391532899802
 20
2.521553522799997
 10
-2.798740940899804
 20
2.469839228399997
 10
-2.706393033699804
 20
2.426072837999996
 10
-2.6117489296998
 20
2.389259538799997
 10
-2.515209747299806
 20
2.358404516399993
 10
-2.4171766016998
 20
2.332512959599995
 10
-2.253254278499802
 20
2.298002997999994
 10
-2.059809683299803
 20
2.266450122799994
 10
-1.865166254499804
 20
2.242930269999995
 10
-1.669729340899806
 20
2.226815970799997
 10
-1.473904289699802
 20
2.217479751599995
 10
-1.234929787299805
 20
2.213774716399996
 10
-0.9959660224998003
 20
2.214594933999997
 10
0.7247283471001964
 20
2.223190727599991
 10
2.445466622300202
 20
2.227689012399991
 10
4.16607793910019
 20
2.229412556399992
 10
5.9559860879002
 20
2.229166069999998
 10
7.746028305500189
 20
2.225733065199996
 10
9.536661027100194
 20
2.217498677999998
 10
9.733372937500192
 20
2.216798077999996
 10
9.929996540700201
 20
2.219412004399991
 10
10.1264308959002
 20
2.228732389999997
 10
10.27914684150019
 20
2.242626188399995
 10
10.43122873590019
 20
2.263129975599994
 10
10.58221852630019
 20
2.290729004399992
 10
10.73165815990019
 20
2.325908524399991
 10
10.87908958550019
 20
2.369153788399998
 10
10.99306610710019
 20
2.409167906799993
 10
11.10449363830019
 20
2.455109257199993
 10
11.21234515670019
 20
2.507628108399991
  0
LWPOLYLINE
  5
38
330
2
100
AcDbEntity
  8
0
  6
HIDDEN
 62
     9
 48
0.125
100
AcDbPolyline
 90
       42
 70
     0
 43
0.0
 10
-6.313132942499805
 20
1.301118919599993
 10
-6.321968371299803
 20
1.303528548399995
 10
-6.330767403299802
 20
1.306067863599992
 10
-6.345390006499805
 20
1.310599655599993
 10
-6.3598976096998
 20
1.315487090799997
 10
-6.3742819648998
 20
1.320726207599996
 10
-6.388559094499804
 20
1.326323004399995
 10
-6.4026959056998
 20
1.332265298799995
 10
-6.416684022499801
 20
1.338549671599992
 10
-6.430520536099805
 20
1.345175497199996
 10
-6.444191112099801
 20
1.352137226799996
 10
-6.457687009699803
 20
1.359431834799991
 10
-6.470887579299805
 20
1.366990465199997
 10
-6.483898712099801
 20
1.374870658799991
 10
-6.496711304099804
 20
1.383069681199998
 10
-6.509081232099802
 20
1.391421898799997
 10
-6.521241892899801
 20
1.400075892399996
 10
-6.533183932899802
 20
1.409029106799998
 10
-6.544612355299804
 20
1.418047762799993
 10
-6.555814323299806
 20
1.427346125999996
 10
-6.566780270499805
 20
1.436921653999995
 10
-6.577232758499803
 20
1.446519556399998
 10
-6.587442073699804
 20
1.456375657199991
 10
-6.597398374499803
 20
1.466487229999998
 10
-6.606800396899807
 20
1.476532077999998
 10
-6.615945342499806
 20
1.486811442799996
 10
-6.624823222499806
 20
1.497322263599997
 10
-6.633120350499801
 20
1.507672311599996
 10
-6.641149990499805
 20
1.518231141999997
 10
-6.648902193699804
 20
1.528995233199992
 10
-6.6560981440998
 20
1.539555012399993
 10
-6.663017606499806
 20
1.550297935599992
 10
-6.6696507760998
 20
1.561219945199994
 10
-6.675748465699804
 20
1.571884785199998
 10
-6.681562948899802
 20
1.582706511599994
 10
-6.6870846736998
 20
1.593680249199998
 10
-6.692101102499805
 20
1.604353268399997
 10
-6.696830030499803
 20
1.615156855599991
 10
-6.701262556899806
 20
1.626085975599991
 10
-6.705215209699801
 20
1.636648189999995
 10
-6.7088800448998
 20
1.647312997999996
 10
-6.7122483664998
 20
1.658072821999994
  0
LWPOLYLINE
  5
39
330
2
100
AcDbEntity
  8
0
  6
HIDDEN
 62
     9
100
AcDbPolyline
 90
       35
 70
     0
 43
0.0
 10
-6.314797907299805
 20
1.301613629999998
 10
-5.9776651168998
 20
1.198290332399992
 10
-5.636839728099801
 20
1.109418482799995
 10
-5.292865889699804
 20
1.034465753199995
 10
-4.946287745699805
 20
0.972899809199994
 10
-4.5807872240998
 20
0.9221541499999972
 10
-4.213649732899803
 20
0.8849199963999936
 10
-3.845502030499801
 20
0.8605841947999977
 10
-3.437730475299801
 20
0.8473959963999959
 10
-3.029682683299803
 20
0.8450854683999935
 10
-2.621551625699801
 20
0.8494974091999978
 10
-1.661682192099803
 20
0.8706167387999954
 10
-0.7022047072998064
 20
0.8998585947999941
 10
0.2570961215001972
 20
0.9311357627999967
 10
1.216435583900199
 20
0.9583610251999914
 10
2.297984164700196
 20
0.9782761771999943
 10
3.379776539100191
 20
0.986749183599997
 10
4.461733915100197
 20
0.9852187995999983
 10
5.543777499100201
 20
0.9751237851999974
 10
6.625828499100194
 20
0.957902895599993
 10
7.707808124700193
 20
0.9349948859999983
 10
8.789637579100201
 20
0.9078385163999982
 10
10.5133787151002
 20
0.8576904555999931
 10
10.98050213750019
 20
0.8442700203999962
 10
11.34748122710018
 20
0.8398887643999941
 10
11.71472496950019
 20
0.8432173083999927
 10
12.08175904630019
 20
0.8554148747999974
 10
12.44810914550019
 20
0.8776406875999924
 10
12.8133009519002
 20
0.9110539659999972
 10
13.1768601471002
 20
0.956813935599996
 10
13.48006451990019
 20
1.005539466799994
 10
13.7815083759002
 20
1.064441682799994
 10
14.08091218870019
 20
1.134203743599996
 10
14.3779964319002
 20
1.215508807599995
 10
14.67248158070019
 20
1.309040037999992
  0
LWPOLYLINE
  5
3A
330
2
100
AcDbEntity
  8
0
100
AcDbPolyline
 90
       49
 70
     0
 43
0.0
 10
25.6480120927002
 20
-3.566441061200002
 10
25.75251711350019
 20
-3.576888102800005
 10
25.85573367990019
 20
-3.587365464400008
 10
25.95765303830019
 20
-3.597927005200006
 10
26.05824685270019
 20
-3.608624421200005
 10
26.15740843830019
 20
-3.619500744400006
 10
26.25501152150019
 20
-3.630596838800002
 10
26.3509441983002
 20
-3.641953733200004
 10
26.44515204310019
 20
-3.653613115600002
 10
26.53759499670019
 20
-3.665616832400004
 10
26.6282238079002
 20
-3.678005178000006
 10
26.71695244150019
 20
-3.690812205200003
 10
26.80368567030019
 20
-3.704070416400007
 10
26.88834351990019
 20
-3.717818674000007
 10
26.97090703510019
 20
-3.732121318800004
 10
27.0513725183002
 20
-3.747049056400001
 10
27.12973254710019
 20
-3.762668102800006
 10
27.2059648063002
 20
-3.779026710800003
 10
27.28004325910019
 20
-3.796168643600005
 10
27.35195045110019
 20
-3.814136618000006
 10
27.4217032671002
 20
-3.832969152400004
 10
27.4893271775002
 20
-3.852703717200007
 10
27.55484988790019
 20
-3.873377078800004
 10
27.6183080815002
 20
-3.895023190800003
 10
27.67974067510019
 20
-3.917675301200006
 10
27.7391863583002
 20
-3.941365658000002
 10
27.7966828767002
 20
-3.966122507600005
 10
27.8522677455002
 20
-3.991973093200002
 10
27.90597790870019
 20
-4.018944866000005
 10
27.9578480351002
 20
-4.047066096400001
 10
28.00791222390019
 20
-4.076365264400003
 10
28.05620074390019
 20
-4.106868653200002
 10
28.10272853750019
 20
-4.138593786000008
 10
28.14750671670019
 20
-4.171555992400001
 10
28.19054765750019
 20
-4.205771418000004
 10
28.2318687823002
 20
-4.241259464400002
 10
28.27148878070019
 20
-4.278040347600004
 10
28.30942076950019
 20
-4.316125824400003
 10
28.3456555967002
 20
-4.355493797200004
 10
28.3801785375002
 20
-4.396113702800008
 10
28.41298156790019
 20
-4.437961859600008
 10
28.4440834527002
 20
-4.481042110800004
 10
28.4735096527002
 20
-4.525365173200007
 10
28.50128325430019
 20
-4.570934034000003
 10
28.52741784470019
 20
-4.617720763600004
 10
28.55192463670019
 20
-4.665689694800008
 10
28.5748218895002
 20
-4.714816058000003
 10
28.59615603830019
 20
-4.765118659600005
 10
28.61598057110019
 20
-4.816627200400006
  0
LWPOLYLINE
  5
3B
330
2
100
AcDbEntity
  8
0
100
AcDbPolyline
 90
       20
 70
     0
 43
0.0
 10
14.98764971990019
 20
-2.071062723600007
 10
15.1434782111002
 20
-2.087847592400002
 10
15.30104791350019
 20
-2.105083061200005
 10
15.46064546710019
 20
-2.122802784400008
 10
15.6223658943002
 20
-2.141017405200003
 10
15.78553773910019
 20
-2.159645530000005
 10
15.94929792310018
 20
-2.178582757200004
 10
16.11283008950019
 20
-2.197727790800001
 10
16.2755047519002
 20
-2.216991770000007
 10
16.43673914550019
 20
-2.236288942800001
 10
16.5959570751002
 20
-2.255533312400004
 10
16.7526086495002
 20
-2.274637902800002
 10
16.90615055030019
 20
-2.293515491600004
 10
17.05622891190019
 20
-2.312102701200004
 10
17.2032476719002
 20
-2.330431534800005
 10
17.34780022230019
 20
-2.348557832400004
 10
17.5612551727002
 20
-2.375488502800003
 10
17.77221233430019
 20
-2.402270466000004
 10
17.9823892687002
 20
-2.429086675600004
 10
18.19350956630019
 20
-2.456126506000003
  0
LWPOLYLINE
  5
3C
330
2
100
AcDbEntity
  8
0
100
AcDbPolyline
 90
       29
 70
     0
 43
0.0
 10
20.4732716159002
 20
-2.746600872400001
 10
20.74815192950019
 20
-2.781109011600001
 10
21.02384012470019
 20
-2.818007014800002
 10
21.3001830063002
 20
-2.857251922000003
 10
21.57691756790019
 20
-2.898690750800007
 10
21.85376565750019
 20
-2.942131798800005
 10
22.13049833590019
 20
-2.987338525200001
 10
22.4068972335002
 20
-3.034053301200003
 10
22.6827370223002
 20
-3.081978994000003
 10
22.95766543350019
 20
-3.130773269200005
 10
23.2308294047002
 20
-3.179952483600004
 10
23.41147984310019
 20
-3.212692590800003
 10
23.5906482047002
 20
-3.245197715600006
 10
23.76807138870019
 20
-3.277292442000003
 10
23.94347228310019
 20
-3.308798531600004
 10
24.1165177311002
 20
-3.339526438800007
 10
24.28686056150019
 20
-3.369283789200004
 10
24.41264053430019
 20
-3.390851496400003
 10
24.53659026550019
 20
-3.411697971600005
 10
24.65859501750019
 20
-3.431756131600003
 10
24.77854005430019
 20
-3.450958893200002
 10
24.89630084150019
 20
-3.469239219600005
 10
25.01171365110019
 20
-3.486530248400008
 10
25.12460495510019
 20
-3.502765163600003
 10
25.23480122710019
 20
-3.517877152400004
 10
25.34217342070019
 20
-3.531810046800003
 10
25.4467703983002
 20
-3.544550277200002
 10
25.5486855087002
 20
-3.556094922000006
 10
25.6480120927002
 20
-3.566441061200002
  0
LWPOLYLINE
  5
3D
330
2
100
AcDbEntity
  8
0
100
AcDbPolyline
 90
       12
 70
     0
 43
0.0
 10
18.19350956630019
 20
-2.456126506000003
 10
18.4795482863002
 20
-2.492874789200001
 10
18.62580425430019
 20
-2.511699104400001
 10
18.77482433110019
 20
-2.530893750800004
 10
18.92633639030019
 20
-2.550415926800006
 10
19.07989727510019
 20
-2.570200368400001
 10
19.3130925791002
 20
-2.600218093200005
 10
19.54829599510019
 20
-2.630411288400004
 10
19.7837770527002
 20
-2.660489851600004
 10
20.01730192470019
 20
-2.690074440400003
 10
20.24703934230019
 20
-2.718819122000006
 10
20.4732716159002
 20
-2.746600872400001
  0
LWPOLYLINE
  5
3E
330
2
100
AcDbEntity
  8
0
  6
HIDDEN
 62
     9
 48
0.125
100
AcDbPolyline
 90
       10
 70
     0
 43
0.0
 10
14.58342228150019
 20
2.530611199599995
 10
14.2889610415002
 20
2.578653565999992
 10
13.9942777807002
 20
2.625325079599996
 10
13.69938006710019
 20
2.670623924399997
 10
13.4044586943002
 20
2.714521481199994
 10
13.1093363807002
 20
2.757044887599995
 10
12.81401881590019
 20
2.798192770799992
 10
12.51868162390019
 20
2.837941306799997
 10
12.2231627231002
 20
2.876313033199991
 10
11.92746975670019
 20
2.913306461999994
  0
LWPOLYLINE
  5
3F
330
2
100
AcDbEntity
  8
0
  6
HIDDEN
 62
     9
 48
0.125
100
AcDbPolyline
 90
       70
 70
     0
 43
0.0
 10
14.58342228150019
 20
2.530611199599995
 10
14.60105186710019
 20
2.527489247599994
 10
14.61860821430019
 20
2.523967293999994
 10
14.63607883990019
 20
2.520039711599991
 10
14.65274624630019
 20
2.515885644399993
 10
14.66931279190019
 20
2.511348455599993
 10
14.68576798710019
 20
2.506423474799994
 10
14.70147266870019
 20
2.501318887599992
 10
14.71705374870019
 20
2.495848353199995
 10
14.73250023350018
 20
2.490008655599993
 10
14.74727288630019
 20
2.484018466799994
 10
14.76189913910019
 20
2.477679415599993
 10
14.77636825750019
 20
2.470989639599991
 10
14.79019512310019
 20
2.464188105199994
 10
14.8038546943002
 20
2.457056621999996
 10
14.81733653910019
 20
2.449594700399991
 10
14.8302656175002
 20
2.442021741999994
 10
14.84300674390019
 20
2.434136732399991
 10
14.85554988310019
 20
2.425940522799997
 10
14.86757292310019
 20
2.417655076399995
 10
14.87938895990019
 20
2.409077052399993
 10
14.89098854070019
 20
2.400208588399998
 10
14.90213116950019
 20
2.391242831599996
 10
14.91304829110019
 20
2.382003845999996
 10
14.92373112950019
 20
2.372494989999992
 10
14.93400720950019
 20
2.362877074799996
 10
14.94403990230019
 20
2.353005561199992
 10
14.95382122710019
 20
2.342884965999992
 10
14.9632165295002
 20
2.332661529199995
 10
14.9723523983002
 20
2.322205620399998
 10
14.98122179990019
 20
2.311522775599996
 10
14.98975971350019
 20
2.300694391599996
 10
14.99802183350019
 20
2.289654130799995
 10
15.0060021167002
 20
2.278408484399996
 10
15.01366546230019
 20
2.267008796399991
 10
15.02103822230019
 20
2.255419047599993
 10
15.02811546710019
 20
2.243646530799992
 10
15.0348954943002
 20
2.231693141999997
 10
15.04137103830019
 20
2.219572087599992
 10
15.0475383423002
 20
2.207291332399996
 10
15.0534275679002
 20
2.194784916399996
 10
15.0589985423002
 20
2.182133501999992
 10
15.06424871670019
 20
2.169345628399995
 10
15.06921547830019
 20
2.156321649199995
 10
15.0738521887002
 20
2.143176524399997
 10
15.07815755830019
 20
2.129919169199993
 10
15.08218242550019
 20
2.116375497199996
 10
15.08586550230019
 20
2.102734877999992
 10
15.08920676310019
 20
2.089006513199997
 10
15.09225434230019
 20
2.074964653999991
 10
15.09494962870019
 20
2.060850901999998
 10
15.09729386550019
 20
2.046674594799995
 10
15.09932402230019
 20
2.032166183599997
 10
15.1009930383002
 20
2.017611765999994
 10
15.10230339990019
 20
2.003020653999996
 10
15.10327603990019
 20
1.988055924399994
 10
15.1038791487002
 20
1.973071709999992
 10
15.10411641910019
 20
1.958077215599992
 10
15.1039837423002
 20
1.942696591599997
 10
15.10347491830019
 20
1.927323756399992
 10
15.1025947759002
 20
1.911967629999992
 10
15.10130752630018
 20
1.896201769199997
 10
15.09963861110019
 20
1.880471717999995
 10
15.09759397750019
 20
1.864786186799996
 10
15.09510057590019
 20
1.848679745199994
 10
15.09222140470019
 20
1.832637562799995
 10
15.08896326870019
 20
1.816667389999992
 10
15.0852137727002
 20
1.800282045999992
 10
15.0810767775002
 20
1.783990794799997
 10
15.0765605679002
 20
1.767802908399993
  0
LWPOLYLINE
  5
41
330
2
100
AcDbEntity
  8
0
  6
HIDDEN
 62
     9
 48
0.125
100
AcDbPolyline
 90
        5
 70
     0
 43
0.0
 10
15.0765605679002
 20
1.767802908399993
 10
15.0685237695002
 20
1.740307025199996
 10
15.0604475967002
 20
1.712822674799994
 10
15.05235916790019
 20
1.685441940399996
 10
15.04423139670019
 20
1.658072865199997
  0
LWPOLYLINE
  5
42
330
2
100
AcDbEntity
  8
0
  6
HIDDEN
 62
     9
 48
0.125
100
AcDbPolyline
 90
       40
 70
     0
 43
0.0
 10
15.04423139670019
 20
1.658072865199997
 10
15.04086306390019
 20
1.647313005999997
 10
15.03719821590019
 20
1.636648162799993
 10
15.03324554870019
 20
1.626085914799993
 10
15.02881301110019
 20
1.615156772399991
 10
15.02408407030019
 20
1.604353164399995
 10
15.0190676287002
 20
1.593680122799995
 10
15.01354588790019
 20
1.582706364399996
 10
15.00773139030019
 20
1.571884617199998
 10
15.00163368150019
 20
1.561219756399992
 10
14.9950004959002
 20
1.550297729199996
 10
14.98808101430019
 20
1.539554788399996
 10
14.9808850447002
 20
1.528994991599994
 10
14.9731328207002
 20
1.518230885999997
 10
14.96510315990019
 20
1.507672041199995
 10
14.95680600950019
 20
1.497321980399995
 10
14.94792810550019
 20
1.486811148399993
 10
14.93878313590019
 20
1.476531770799994
 10
14.92938108950019
 20
1.466486911599993
 10
14.91942475830019
 20
1.456375325999992
 10
14.90921541270019
 20
1.446519212399998
 10
14.89876289430019
 20
1.436921300399994
 10
14.88779690870019
 20
1.427345756399994
 10
14.87659490230019
 20
1.418047381999997
 10
14.86516643990019
 20
1.409028713199994
 10
14.85322435350019
 20
1.400075484399998
 10
14.8410636431002
 20
1.391421479599998
 10
14.82869366550019
 20
1.383069250799998
 10
14.81588102870019
 20
1.374870223599991
 10
14.80286985110019
 20
1.366990026799996
 10
14.78966923510019
 20
1.359431394799997
 10
14.77617330870019
 20
1.352136796399996
 10
14.76250270230019
 20
1.345175077999996
 10
14.74866616150019
 20
1.338549265199993
 10
14.7346780431002
 20
1.332264916399992
 10
14.72054123190019
 20
1.326322647599994
 10
14.70626410070019
 20
1.320725874799997
 10
14.6950777551002
 20
1.316617399599998
 10
14.6838156175002
 20
1.312721497199994
 10
14.67248158070019
 20
1.309040037999992
  0
LWPOLYLINE
  5
43
330
2
100
AcDbEntity
  8
0
100
AcDbPolyline
 90
       23
 70
     0
 43
0.0
 10
3.842649719900194
 20
-1.400279872400005
 10
4.192929046300193
 20
-1.401017354000003
 10
4.538019519900203
 20
-1.403176101200003
 10
4.877686513500194
 20
-1.406675565200004
 10
5.211851835100191
 20
-1.411440390800002
 10
5.541063019100192
 20
-1.417415962000006
 10
5.866024035100195
 20
-1.424552859600005
 10
6.346889366300203
 20
-1.437341189200004
 10
6.821269284700193
 20
-1.452546176400005
 10
7.290728220700202
 20
-1.470099693200005
 10
7.7571141983002
 20
-1.490001565200003
 10
8.221984801500198
 20
-1.512254334800005
 10
8.685452251100201
 20
-1.536803464400001
 10
9.14718225110019
 20
-1.563569957200002
 10
9.606499799900191
 20
-1.592434093200004
 10
10.06283709270019
 20
-1.623274638800005
 10
10.51639582070019
 20
-1.656005064400005
 10
10.96759025270019
 20
-1.690550270800002
 10
11.41691544950019
 20
-1.726846214800005
 10
12.31175144950019
 20
-1.804424950800004
 10
13.20360256630019
 20
-1.888144656400001
 10
14.09477531510019
 20
-1.977335506000002
 10
14.98764971990019
 20
-2.071062723600007
  0
LWPOLYLINE
  5
45
330
2
100
AcDbEntity
  8
0
  6
HIDDEN
 62
     9
 48
0.125
100
AcDbPolyline
 90
       52
 70
     0
 43
0.0
 10
11.21234515670019
 20
2.507628108399991
 10
11.22254861590019
 20
2.525232063599993
 10
11.2331291535002
 20
2.542611951599994
 10
11.24408448630019
 20
2.559758031599997
 10
11.25519690230019
 20
2.576346354799994
 10
11.2666658767002
 20
2.592690140399994
 10
11.27848926870019
 20
2.608779364399993
 10
11.29042057110019
 20
2.624293370799996
 10
11.30268806870019
 20
2.639542871599992
 10
11.3152894815002
 20
2.654517581999996
 10
11.3279024847002
 20
2.668851620399998
 10
11.34082846870019
 20
2.682904007599994
 10
11.35406478870019
 20
2.696664410799996
 10
11.36721963510019
 20
2.709744276399995
 10
11.38066178230019
 20
2.722528633199992
 10
11.39438806870019
 20
2.735007356399997
 10
11.4080312991002
 20
2.746861337199995
 10
11.4219374095002
 20
2.758405738799993
 10
11.43610256950019
 20
2.769630706799993
 10
11.45015232790019
 20
2.780252969199992
 10
11.4644398927002
 20
2.790553081199995
 10
11.47896068310019
 20
2.800521621999997
 10
11.49331485430019
 20
2.809897671599998
 10
11.50788035670019
 20
2.818941850799994
 10
11.52265187190019
 20
2.827645389999993
 10
11.53722641110019
 20
2.835783725999995
 10
11.5519851951002
 20
2.843582881199992
 10
11.56692222070019
 20
2.851034895599994
 10
11.58172925910019
 20
2.857994273199992
 10
11.59669502070019
 20
2.864605369199992
 10
11.61181276630019
 20
2.870861025199992
 10
11.62678293270019
 20
2.876645122799992
 10
11.64188548150019
 20
2.882074105199997
 10
11.65711304150019
 20
2.887141748399997
 10
11.6721558527002
 20
2.891753282799996
 10
11.68730388150019
 20
2.896006372399995
 10
11.70254928150019
 20
2.899895852399993
 10
11.7175848735002
 20
2.903351730799997
 10
11.73269838390019
 20
2.906448997999994
 10
11.7478816607002
 20
2.909183602799991
 10
11.7629148015002
 20
2.911521362799994
 10
11.7779994703002
 20
2.913499538799996
 10
11.79312727990019
 20
2.915115164399992
 10
11.80812040630019
 20
2.916353514799993
 10
11.82313883190019
 20
2.917232588399997
 10
11.83817387030019
 20
2.917750514799998
 10
11.8531155087002
 20
2.917905761199996
 10
11.86805671830019
 20
2.917701996399998
 10
11.88298925110019
 20
2.917138348399994
 10
11.8978465423002
 20
2.916218453999995
 10
11.91267679350019
 20
2.914941020399993
 10
11.92746975670019
 20
2.913306461999994
  0
LINE
  5
46
330
2
100
AcDbEntity
  8
0
100
AcDbLine
 10
-11.2294838432998
 20
-2.548927256400002
 30
0.0
 11
-10.7800164224998
 21
-2.491043952400001
 31
0.0
  0
LWPOLYLINE
  5
47
330
2
100
AcDbEntity
  8
0
100
AcDbPolyline
 90
       20
 70
     0
 43
0.0
 10
-10.7800164224998
 20
-2.491043952400005
 10
-10.4928419552998
 20
-2.454155314000004
 10
-10.2812201344998
 20
-2.427057954000005
 10
-10.0708462800998
 20
-2.400225645200002
 10
-9.860001627299801
 20
-2.373469382800003
 10
-9.646970696099806
 20
-2.346605942800003
 10
-9.502875035299801
 20
-2.328547341200007
 10
-9.356455432099807
 20
-2.310304469200005
 10
-9.207121689699803
 20
-2.291821474000002
 10
-9.054468761699801
 20
-2.273065776400002
 10
-8.8988321632998
 20
-2.254097846800007
 10
-8.7407325600998
 20
-2.235001426000003
 10
-8.5001258704998
 20
-2.206298334800003
 10
-8.257037548899802
 20
-2.177772882000006
 10
-8.094577440099804
 20
-2.158995034000007
 10
-7.932682131299806
 20
-2.140520213200005
 10
-7.772179971299806
 20
-2.122448794000007
 10
-7.613715400099806
 20
-2.104859077200003
 10
-7.457197208099806
 20
-2.087741074000007
 10
-7.302350280099801
 20
-2.071062723600007
  0
LWPOLYLINE
  5
48
330
2
100
AcDbEntity
  8
0
  6
HIDDEN
 62
     9
 48
0.125
100
AcDbPolyline
 90
       10
 70
     0
 43
0.0
 10
-3.595486739299801
 20
2.913306461999994
 10
-3.891179705699805
 20
2.876313033199991
 10
-4.186698606499803
 20
2.837941306799997
 10
-4.482035798499801
 20
2.798192770799992
 10
-4.777353363299802
 20
2.757044887599995
 10
-5.072475675299806
 20
2.714521481199994
 10
-5.367397049699803
 20
2.670623924399997
 10
-5.662294763299804
 20
2.625325079599996
 10
-5.956978024099804
 20
2.578653565999992
 10
-6.251439264099801
 20
2.530611199599995
  0
LWPOLYLINE
  5
49
330
2
100
AcDbEntity
  8
0
100
AcDbPolyline
 90
        9
 70
     0
 43
0.0
 10
-12.7879721744998
 20
-2.746600872400001
 10
-12.6365299360998
 20
-2.728070450000004
 10
-12.4835864560998
 20
-2.709091173200008
 10
-12.3288910368998
 20
-2.689682370000006
 10
-12.1723564688998
 20
-2.669880718800001
 10
-12.0145494976998
 20
-2.649792302800001
 10
-11.8562003568998
 20
-2.629540555600001
 10
-11.6191257520998
 20
-2.599103533200008
 10
-11.2294838432998
 20
-2.548927256400006
  0
LWPOLYLINE
  5
4A
330
2
100
AcDbEntity
  8
0
  6
HIDDEN
 62
     9
 48
0.125
100
AcDbPolyline
 90
       51
 70
     0
 43
0.0
 10
-3.595486739299801
 20
2.913306461999994
 10
-3.580693776099806
 20
2.914941020399993
 10
-3.565863524899803
 20
2.916218453999995
 10
-3.551006232099801
 20
2.917138348399994
 10
-3.536073700899805
 20
2.917701996399998
 10
-3.521132489699802
 20
2.917905761199996
 10
-3.506190851299805
 20
2.917750514799998
 10
-3.491155814499805
 20
2.917232588399997
 10
-3.4761373888998
 20
2.916353514799993
 10
-3.4611442608998
 20
2.915115164399992
 10
-3.446016451299804
 20
2.913499538799996
 10
-3.430931784099804
 20
2.911521362799994
 10
-3.415898641699804
 20
2.909183602799991
 10
-3.400715366499802
 20
2.906448997999994
 10
-3.385601856099803
 20
2.903351730799997
 10
-3.370566264099807
 20
2.899895852399993
 10
-3.355320862499802
 20
2.896006372399995
 10
-3.340172833699803
 20
2.891753282799996
 10
-3.325130024099806
 20
2.887141748399997
 10
-3.309902464099806
 20
2.882074105199997
 10
-3.294799915299805
 20
2.876645122799992
 10
-3.2798297488998
 20
2.870861025199992
 10
-3.264712001699805
 20
2.864605369199992
 10
-3.249746241699803
 20
2.857994273199992
 10
-3.234939203299802
 20
2.851034895599994
 10
-3.220002177699804
 20
2.843582881199992
 10
-3.205243393699802
 20
2.835783725999995
 10
-3.190668854499804
 20
2.827645389999993
 10
-3.175897339299801
 20
2.818941850799994
 10
-3.161331835299804
 20
2.809897671599998
 10
-3.1469776656998
 20
2.800521621999997
 10
-3.132456875299801
 20
2.790553081199995
 10
-3.118169310499801
 20
2.780252969199992
 10
-3.104119550499802
 20
2.769630706799993
 10
-3.089954392099805
 20
2.758405738799993
 10
-3.076048281699804
 20
2.746861337199995
 10
-3.062405051299805
 20
2.735007356399997
 10
-3.048678764899804
 20
2.722528633199992
 10
-3.035236617699801
 20
2.709744276399995
 10
-3.022081769699802
 20
2.696664410799996
 10
-3.008845451299805
 20
2.682904007599994
 10
-2.995919467299806
 20
2.668851620399998
 10
-2.983306464099804
 20
2.654517583599997
 10
-2.970705051299802
 20
2.639542871599992
 10
-2.958437553699802
 20
2.624293370799996
 10
-2.946506251299801
 20
2.608779364399993
 10
-2.934682859299805
 20
2.592690140399994
 10
-2.923213884899801
 20
2.576346354799994
 10
-2.912101468899805
 20
2.559758031599997
 10
-2.900017537699802
 20
2.540797895599993
 10
-2.888391532899802
 20
2.521553522799997
  0
LWPOLYLINE
  5
4B
330
2
100
AcDbEntity
  8
0
100
AcDbPolyline
 90
       23
 70
     0
 43
0.0
 10
-7.302350280099801
 20
-2.071062723600007
 10
-6.405492841699803
 20
-1.976926155600004
 10
-5.507272195299805
 20
-1.887073363600002
 10
-4.608572880099806
 20
-1.802809363600005
 10
-3.710358508899801
 20
-1.725087645200005
 10
-3.261336563299806
 20
-1.688902299600002
 10
-2.811403356899802
 20
-1.654541878800003
 10
-2.359517800099801
 20
-1.622016219600006
 10
-1.9048471808998
 20
-1.591368590800001
 10
-1.446896404899803
 20
-1.562665944400002
 10
-0.9863124784998049
 20
-1.536036494800008
 10
-0.523923609699807
 20
-1.511611579600007
 10
-0.0601407328998036
 20
-1.489473739600008
 10
0.405100212700198
 20
-1.469678606800002
 10
0.8733460031001953
 20
-1.452222971600008
 10
1.346440745500196
 20
-1.437105901200006
 10
1.8259351999002
 20
-1.424394424400006
 10
2.149926585500196
 20
-1.417302003600006
 10
2.478117259100201
 20
-1.411364768400005
 10
2.811205559900201
 20
-1.406631408400002
 10
3.149734646300203
 20
-1.403155739600002
 10
3.493626950300196
 20
-1.401012080400008
 10
3.842649719900194
 20
-1.400279872400005
  0
LWPOLYLINE
  5
4C
330
2
100
AcDbEntity
  8
0
100
AcDbPolyline
 90
       29
 70
     0
 43
0.0
 10
-17.9627126528998
 20
-3.566441061200002
 10
-17.8633860608998
 20
-3.556094922000006
 10
-17.7614709456998
 20
-3.544550275600002
 10
-17.6568739632998
 20
-3.531810045200003
 10
-17.5495017680998
 20
-3.517877149200003
 10
-17.4393054928998
 20
-3.502765160400002
 10
-17.3264141888998
 20
-3.486530245200007
 10
-17.2110013792998
 20
-3.469239216400005
 10
-17.0932405920998
 20
-3.450958890000002
 10
-16.9732955552998
 20
-3.431756128400003
 10
-16.8512908032998
 20
-3.411697966800005
 10
-16.7273410736998
 20
-3.390851491600002
 10
-16.6015611024998
 20
-3.369283786000003
 10
-16.4312182752998
 20
-3.339526435600006
 10
-16.2581728304998
 20
-3.308798530000004
 10
-16.0827719376998
 20
-3.277292440400003
 10
-15.9053487552998
 20
-3.245197714000006
 10
-15.7261803952998
 20
-3.212692589200003
 10
-15.5455299584998
 20
-3.179952482000004
 10
-15.2723659872998
 20
-3.130773267600005
 10
-14.9974375776998
 20
-3.081978992400003
 10
-14.7215977904998
 20
-3.034053299600003
 10
-14.4451988928998
 20
-2.987338525200001
 10
-14.1684662144998
 20
-2.942131798800005
 10
-13.8916181264998
 20
-2.898690750800007
 10
-13.6148835648998
 20
-2.857251922000003
 10
-13.3385406832998
 20
-2.818007014800002
 10
-13.0628524880998
 20
-2.781109011600001
 10
-12.7879721744998
 20
-2.746600872400001
  0
LINE
  5
4E
330
2
100
AcDbEntity
  8
0
100
AcDbLine
 10
-31.9590084912998
 20
4.709371215599997
 30
0.0
 11
-31.8039961408998
 21
6.481170481199999
 31
0.0
  0
LWPOLYLINE
  5
4F
330
2
100
AcDbEntity
  8
0
100
AcDbPolyline
 90
       28
 70
     0
 43
0.0
 10
-30.6280917584998
 20
7.243880253999996
 10
-30.6384604576998
 20
7.146613972399997
 10
-30.6430804640998
 20
7.104182799599996
 10
-30.6474417200998
 20
7.065341666799994
 10
-30.6516002608998
 20
7.029743850799995
 10
-30.6555968672998
 20
6.997090103599994
 10
-30.6594590944998
 20
6.967143116399995
 10
-30.6632069408998
 20
6.939696618799992
 10
-30.6668570320998
 20
6.914554812399991
 10
-30.6704236896998
 20
6.891533949999995
 10
-30.6739197936998
 20
6.870462729199992
 10
-30.6773559712998
 20
6.851190343599995
 10
-30.6807447328998
 20
6.833565506799992
 10
-30.6840993376998
 20
6.817448066799997
 10
-30.6874307296998
 20
6.802724685999997
 10
-30.6907489488998
 20
6.789299559599996
 10
-30.6940646000998
 20
6.777087789999995
 10
-30.6973895856998
 20
6.766014017199992
 10
-30.7007375456998
 20
6.756013023599997
 10
-30.7041243600998
 20
6.747030833199993
 10
-30.7075688800998
 20
6.739026074799994
 10
-30.7110931552998
 20
6.731973513199996
 10
-30.7147215216998
 20
6.725869673199994
 10
-30.7184919328998
 20
6.720721961199991
 10
-30.7224226864998
 20
6.716599188399996
 10
-30.7264827904998
 20
6.713617149999997
 10
-30.7305408416998
 20
6.711876220399993
 10
-30.7345082944998
 20
6.711320023599995
  0
LWPOLYLINE
  5
50
330
2
100
AcDbEntity
  8
0
100
AcDbPolyline
 90
        8
 70
     0
 43
0.0
 10
-24.3205202912998
 20
-0.4371101380000085
 10
-24.3495807680998
 20
-0.2491897428000058
 10
-24.3694297584998
 20
-0.051688014800007
 10
-24.3902329232998
 20
0.1167783515999972
 10
-24.4170981136998
 20
0.2625660619999977
 10
-24.4447594640998
 20
0.386097743599997
 10
-24.4760748656998
 20
0.5089844347999915
 10
-24.5065038288998
 20
0.5986272923999963
  0
LWPOLYLINE
  5
51
330
2
100
AcDbEntity
  8
0
100
AcDbPolyline
 90
       16
 70
     0
 43
0.0
 10
-23.0920296496998
 20
-4.383444856400004
 10
-23.1464461504998
 20
-4.168795858000002
 10
-23.2651154976998
 20
-3.720557518800006
 10
-23.3764001856998
 20
-3.316418450000007
 10
-23.47860494889979
 20
-2.951222496400006
 10
-23.5739138416998
 20
-2.614771317200002
 10
-23.6641964528998
 20
-2.307735739600005
 10
-23.7499304096998
 20
-2.030921558800002
 10
-23.8322646400998
 20
-1.780624238800001
 10
-23.9123870656998
 20
-1.554580645200005
 10
-23.9908237760998
 20
-1.351697968400003
 10
-24.0665911376998
 20
-1.166777706000004
 10
-24.1368243392998
 20
-0.9959731876000077
 10
-24.1995456016998
 20
-0.8367111572000069
 10
-24.2527225728998
 20
-0.6871840020000022
 10
-24.2948959152998
 20
-0.5462327364000075
  0
LINE
  5
52
330
2
100
AcDbEntity
  8
0
100
AcDbLine
 10
-23.0920296496998
 20
-4.3834448564
 30
0.0
 11
-23.02598034569979
 21
-4.653692266000003
 31
0.0
  0
LWPOLYLINE
  5
53
330
2
100
AcDbEntity
  8
0
100
AcDbPolyline
 90
       18
 70
     0
 43
0.0
 10
-21.2200056384998
 20
-10.7104197412
 10
-21.1815849472998
 20
-10.8685999364
 10
-21.13240275849979
 20
-11.025548986
 10
-21.0726394160998
 20
-11.1800928148
 10
-21.0022923008998
 20
-11.3316501492
 10
-20.9211653888998
 20
-11.4800990596
 10
-20.8289463856998
 20
-11.6254450484
 10
-20.7255967456998
 20
-11.767084474
 10
-20.6111027360998
 20
-11.9043127108
 10
-20.4851371088998
 20
-12.0367681316
 10
-20.3474680480998
 20
-12.16390441
 10
-20.1973552704998
 20
-12.2855411172
 10
-20.0338165344998
 20
-12.4015163812
 10
-19.8564483312998
 20
-12.5111050724
 10
-19.6650167312998
 20
-12.6133784836
 10
-19.4616767760998
 20
-12.7062348564
 10
-19.2605914160998
 20
-12.7840234052
 10
-19.0727734720998
 20
-12.8456164356
  0
LINE
  5
54
330
2
100
AcDbEntity
  8
0
100
AcDbLine
 10
-24.3204954224998
 20
-0.4372131588000024
 30
0.0
 11
-24.3205202912998
 21
-0.4371101380000049
 31
0.0
  0
LWPOLYLINE
  5
55
330
2
100
AcDbEntity
  8
0
100
AcDbPolyline
 90
       19
 70
     0
 43
0.0
 10
-23.0259799728998
 20
-4.653693790800005
 10
-22.9543257728998
 20
-4.959378888400003
 10
-22.8834447648998
 20
-5.274827602000002
 10
-22.8136221008998
 20
-5.598848989200007
 10
-22.7450667776998
 20
-5.930745131600005
 10
-22.6779773728998
 20
-6.269993114000001
 10
-22.6125952848998
 20
-6.616205816400004
 10
-22.5493714928998
 20
-6.968608621200004
 10
-22.4891495120998
 20
-7.324356970000003
 10
-22.4326864016998
 20
-7.680925512400001
 10
-22.3807799040998
 20
-8.035418781200007
 10
-22.3343152976998
 20
-8.446741208400005
 10
-22.2941609536998
 20
-8.785989504400006
 10
-22.2606137408998
 20
-9.116848181200005
 10
-22.2346224576998
 20
-9.436017826000004
 10
-22.2167616720998
 20
-9.739903642000001
 10
-22.2025719440998
 20
-10.0310392404
 10
-22.1843503952998
 20
-10.2519070228
 10
-22.1542277680998
 20
-10.5250952132
  0
LWPOLYLINE
  5
56
330
2
100
AcDbEntity
  8
0
100
AcDbPolyline
 90
        4
 70
     0
 43
0.0
 10
-24.3205202912998
 20
-0.4371101380000085
 10
-24.3129594912998
 20
-0.4725226164000063
 10
-24.3044246032998
 20
-0.5088966004000071
 10
-24.2948959152998
 20
-0.5462327364000075
  0
LWPOLYLINE
  5
57
330
2
100
AcDbEntity
  8
0
100
AcDbPolyline
 90
        4
 70
     0
 43
0.0
 10
-21.3066582336998
 20
-10.300680202
 10
-21.2777928384998
 20
-10.4379502148
 10
-21.2489020704998
 20
-10.57465029
 10
-21.2200056352998
 20
-10.7104197332
  0
LINE
  5
58
330
2
100
AcDbEntity
  8
0
100
AcDbLine
 10
-21.3641627424998
 20
-10.0885293412
 30
0.0
 11
-21.3066582336998
 21
-10.30068020199999
 31
0.0
  0
LWPOLYLINE
  5
59
330
2
100
AcDbEntity
  8
0
100
AcDbPolyline
 90
        7
 70
     0
 43
0.0
 10
-21.7291522560998
 20
-8.326429579600002
 10
-21.6215059488998
 20
-8.850284338000001
 10
-21.5742925984998
 20
-9.079548229200007
 10
-21.5310883424998
 20
-9.288283432400007
 10
-21.4917856752998
 20
-9.477237696400003
 10
-21.4561609600998
 20
-9.648072778000006
 10
-21.3641627424998
 20
-10.0885293412
  0
LINE
  5
5A
330
2
100
AcDbEntity
  8
0
100
AcDbLine
 10
-22.1542277680998
 20
-10.52509521319999
 30
0.0
 11
-22.1200203120998
 21
-10.7211538596
 31
0.0
  0
LWPOLYLINE
  5
5C
330
2
100
AcDbEntity
  8
0
100
AcDbPolyline
 90
       10
 70
     0
 43
0.0
 10
-25.4269024576998
 20
2.655580149999991
 10
-25.5285903184998
 20
2.867277807599997
 10
-25.6355087936998
 20
3.086463930799993
 10
-25.7494035072998
 20
3.316407127599994
 10
-25.8697598288998
 20
3.556027498799991
 10
-25.9983092080998
 20
3.809048572399994
 10
-26.1352667600998
 20
4.075995671599997
 10
-26.2801099280998
 20
4.355709645999993
 10
-26.4310742848998
 20
4.644675775599992
 10
-26.46516001141857
 20
4.709371215599998
  0
LWPOLYLINE
  5
5D
330
2
100
AcDbEntity
  8
0
100
AcDbPolyline
 90
        4
 70
     0
 43
0.0
 10
-25.4269106800998
 20
2.655608253999993
 10
-25.0756797696998
 20
1.900884225199995
 10
-24.77246371369981
 20
1.219756029999992
 10
-24.5065031952998
 20
0.5986255547999946
  0
LINE
  5
5E
330
2
100
AcDbEntity
  8
0
100
AcDbLine
 10
-24.5065038288998
 20
0.5986272923999998
 30
0.0
 11
-24.4860246256998
 21
0.5522419931999956
 31
0.0
  0
LINE
  5
5F
330
2
100
AcDbEntity
  8
0
100
AcDbLine
 10
-24.4860246256998
 20
0.5522419931999956
 30
0.0
 11
-24.4615987488998
 21
0.4965418268000015
 31
0.0
  0
LWPOLYLINE
  5
60
330
2
100
AcDbEntity
  8
0
100
AcDbPolyline
 90
       41
 70
     0
 43
0.0
 10
-24.4615987488998
 20
0.496541826799998
 10
-24.4268625280998
 20
0.4167725755999925
 10
-24.4057691792998
 20
0.368021052399996
 10
-24.3818455040998
 20
0.3124517499999939
 10
-24.3547685120998
 20
0.2492158667999931
 10
-24.3243611424998
 20
0.1777717195999955
 10
-24.2910613456998
 20
0.0990022043999943
 10
-24.2572645296998
 20
0.018467159599993
 10
-24.2260195712998
 20
-0.056534646800003
 10
-24.1966142640998
 20
-0.1276808564000049
 10
-24.1667166080998
 20
-0.2006442676000049
 10
-24.1341008864998
 20
-0.2809482884000047
 10
-24.0975466400998
 20
-0.3717668948000039
 10
-24.0570225488998
 20
-0.4733176564000062
 10
-24.0130124192998
 20
-0.5844677380000079
 10
-23.9654847712998
 20
-0.7054550628000058
 10
-23.9143503824998
 20
-0.8366812740000071
 10
-23.8593437168998
 20
-0.9790460996000049
 10
-23.8001183008998
 20
-1.133719040400002
 10
-23.7362798176998
 20
-1.302062811600002
 10
-23.6674080496998
 20
-1.485587731600006
 10
-23.5929704240998
 20
-1.686246965200005
 10
-23.5123914048998
 20
-1.906235427600002
 10
-23.4248931728998
 20
-2.148459658000007
 10
-23.3294899312998
 20
-2.416833670800002
 10
-23.2248877472998
 20
-2.716463531600005
 10
-23.1107141088998
 20
-3.050508024400002
 10
-22.9880964832998
 20
-3.418112230800005
 10
-22.8664989872998
 20
-3.792731242000002
 10
-22.7519359056998
 20
-4.156500307600005
 10
-22.6456882448998
 20
-4.504533568400006
 10
-22.5457929152998
 20
-4.842717442000008
 10
-22.4480820608998
 20
-5.186608882000001
 10
-22.3470104656998
 20
-5.559060350800002
 10
-22.2386603168998
 20
-5.979628291600008
 10
-22.1298827536998
 20
-6.426000674000007
 10
-22.0282868816998
 20
-6.864837123600004
 10
-21.9384608768998
 20
-7.269794214800008
 10
-21.8602280208998
 20
-7.634407877200004
 10
-21.7911257152998
 20
-7.964160150800005
 10
-21.7291522560998
 20
-8.326429579600002
  0
LINE
  5
61
330
2
100
AcDbEntity
  8
0
100
AcDbLine
 10
-15.9581435392998
 20
-13.1007095668
 30
0.0
 11
-15.9581435392998
 21
-13.1406287844
 31
0.0
  0
LINE
  5
62
330
2
100
AcDbEntity
  8
0
100
AcDbLine
 10
-14.9263830560998
 20
-15.1251859252
 30
0.0
 11
-14.9115867376998
 21
-15.1353628468
 31
0.0
  0
LINE
  5
64
330
2
100
AcDbEntity
  8
0
100
AcDbLine
 10
-15.3816023456998
 20
-13.4262844052
 30
0.0
 11
-14.9263830560998
 21
-15.1251859252
 31
0.0
  0
LINE
  5
68
330
2
100
AcDbEntity
  8
0
100
AcDbLine
 10
-31.5549586368998
 20
6.709381545199999
 30
0.0
 11
-31.5554038352998
 21
6.709828649199994
 31
0.0
  0
LINE
  5
6A
330
2
100
AcDbEntity
  8
0
100
AcDbLine
 10
-10.9331174832998
 20
-13.6069262884
 30
0.0
 11
-10.9337814384998
 21
-13.5774104004
 31
0.0
  0
LINE
  5
6B
330
2
100
AcDbEntity
  8
0
100
AcDbLine
 10
-11.8110670208998
 20
-13.24200795399999
 30
0.0
 11
-11.8110670208998
 21
-13.2854478868
 31
0.0
  0
LWPOLYLINE
  5
6C
330
2
100
AcDbEntity
  8
0
100
AcDbPolyline
 90
       10
 70
     0
 43
0.0
 10
27.4047499759002
 20
-12.8456191108
 10
27.23383527350019
 20
-12.893238546
 10
27.07715917430019
 20
-12.9303395236
 10
26.93340000950019
 20
-12.9592092932
 10
26.8012109567002
 20
-12.9815779604
 10
26.67960565590019
 20
-12.998722442
 10
26.5678554767002
 20
-13.0115973764
 10
26.46545593270019
 20
-13.020935562
 10
26.37181913750019
 20
-13.0273303492
 10
26.2882905215002
 20
-13.03115685
  0
LWPOLYLINE
  5
6F
330
2
100
AcDbEntity
  8
0
100
AcDbPolyline
 90
       10
 70
     0
 43
0.0
 10
-19.0727734720998
 20
-12.8456164356
 10
-18.9018635920998
 20
-12.8932345764
 10
-18.7451892048998
 20
-12.93033565
 10
-18.6014294560998
 20
-12.9592061828
 10
-18.4692383728998
 20
-12.9815758052
 10
-18.3476303472998
 20
-12.998721154
 10
-18.2358773168998
 20
-13.0115967428
 10
-18.1334752816998
 20
-13.02093533
 10
-18.0398367776998
 20
-13.027330306
 10
-17.9563074048998
 20
-13.0311568548
  0
LINE
  5
74
330
2
100
AcDbEntity
  8
0
100
AcDbLine
 10
-10.3081734432998
 20
-13.289506234
 30
0.0
 11
-10.3081734432998
 21
-13.3379300868
 31
0.0
  0
LWPOLYLINE
  5
7C
330
2
100
AcDbEntity
  8
0
100
AcDbPolyline
 90
       27
 70
     0
 43
0.0
 10
11.28454369910019
 20
-14.626067738
 10
11.31718523510019
 20
-14.6226173124
 10
11.3516250863002
 20
-14.6186426068
 10
11.38403539830019
 20
-14.6145414068
 10
11.4147937135002
 20
-14.610274578
 10
11.44420307190019
 20
-14.60579949
 10
11.4725360111002
 20
-14.6010657316
 10
11.50008784790019
 20
-14.5960042708
 10
11.52717840310019
 20
-14.5905213492
 10
11.5541846479002
 20
-14.5844829492
 10
11.5814544655002
 20
-14.5777228948
 10
11.60934752790019
 20
-14.5700249716
 10
11.63827677430019
 20
-14.5610944676
 10
11.66871193430019
 20
-14.5505275524
 10
11.70113038390019
 20
-14.5377887204
 10
11.73591082070019
 20
-14.5222115172
 10
11.7732079199002
 20
-14.5030284836
 10
11.81292656790019
 20
-14.4793821252
 10
11.85466176470019
 20
-14.45037483240001
 10
11.89760921910018
 20
-14.4151894068
 10
11.9405139647002
 20
-14.3732783012
 10
11.9818422127002
 20
-14.3244328628
 10
12.02002513910019
 20
-14.2686971716
 10
12.05348652950019
 20
-14.2064454068
 10
12.08077652630019
 20
-14.138264466
 10
12.10059862550019
 20
-14.0648541844
 10
12.11063646230019
 20
-13.9994211204
  0
LINE
  5
97
330
2
100
AcDbEntity
  8
0
100
AcDbLine
 10
2.894546447900195
 20
-15.4156287844
 30
0.0
 11
2.895690540700199
 21
-15.4156287844
 31
0.0
  0
LINE
  5
98
330
2
100
AcDbEntity
  8
0
100
AcDbLine
 10
2.895690540700199
 20
-15.4156287844
 30
0.0
 11
5.437438118300191
 21
-15.4156287844
 31
0.0
  0
LINE
  5
99
330
2
100
AcDbEntity
  8
0
100
AcDbLine
 10
22.89614388790019
 20
-15.40312878439999
 30
0.0
 11
20.03413912950019
 21
-15.40312878439999
 31
0.0
  0
LINE
  5
9A
330
2
100
AcDbEntity
  8
0
100
AcDbLine
 10
-11.7021561120998
 20
-15.40312878439999
 30
0.0
 11
-14.5641608704998
 21
-15.40312878439999
 31
0.0
  0
LWPOLYLINE
  5
B6
330
2
100
AcDbEntity
  8
0
100
AcDbPolyline
 90
       22
 70
     0
 43
0.0
 10
-2.952645137699803
 20
-14.626059538
 10
-2.825117148899806
 20
-14.6389996244
 10
-2.681462766499805
 20
-14.6534969764
 10
-2.542944232099806
 20
-14.667289722
 10
-2.402436819299801
 20
-14.6810379124
 10
-2.252357798499801
 20
-14.6954214996
 10
-2.086376744099801
 20
-14.7109350324
 10
-1.9035311296998
 20
-14.7275019396
 10
-1.704627486499802
 20
-14.744874162
 10
-1.4911262992998
 20
-14.7627579524
 10
-1.265013336099805
 20
-14.7807917044
 10
-1.027640360099802
 20
-14.798620906
 10
-0.7783099712998052
 20
-14.8160064788
 10
-0.5160184416998064
 20
-14.8326885092
 10
-0.2419177344998005
 20
-14.8483975924
 10
0.038185689500196
 20
-14.8627628468
 10
0.3149354735001992
 20
-14.8753835668
 10
0.5790418783001954
 20
-14.8860455028
 10
0.8265830703001952
 20
-14.8948666452
 10
1.060377667100198
 20
-14.902194186
 10
1.283935127900193
 20
-14.9083018804
 10
1.515325497500199
 20
-14.913669418
  0
LINE
  5
C5
330
2
100
AcDbEntity
  8
0
100
AcDbLine
 10
-10.9331176912998
 20
-13.6069270676
 30
0.0
 11
-11.3399339264998
 21
-15.1251859252
 31
0.0
  0
LINE
  5
C6
330
2
100
AcDbEntity
  8
0
100
AcDbLine
 10
12.44716168150018
 20
-13.5034821684
 30
0.0
 11
12.46711798550019
 21
-13.5012935252
 31
0.0
  0
LINE
  5
CB
330
2
100
AcDbEntity
  8
0
100
AcDbLine
 10
12.46644121430018
 20
-13.5013677492
 30
0.0
 11
12.48526982390019
 21
-13.5002355652
 31
0.0
  0
LINE
  5
DC
330
2
100
AcDbEntity
  8
0
100
AcDbLine
 10
6.069469422300199
 20
-14.94056752519999
 30
0.0
 11
6.098451212700195
 21
-14.939257274
 31
0.0
  0
LWPOLYLINE
  5
DD
330
2
100
AcDbEntity
  8
0
100
AcDbPolyline
 90
       10
 70
     0
 43
0.0
 10
3.13382008470019
 20
-14.933651242
 10
3.052153636700197
 20
-14.9371614564
 10
2.973776049500202
 20
-14.940359722
 10
2.898388343900194
 20
-14.9431788228
 10
2.825740548700196
 20
-14.9455525444
 10
2.755651369500199
 20
-14.9474130388
 10
2.687986804700202
 20
-14.948690818
 10
2.622675868700198
 20
-14.949312626
 10
2.559758479900196
 20
-14.9492006148
 10
2.504540956700196
 20
-14.9483909108
  0
LWPOLYLINE
  5
E1
330
2
100
AcDbEntity
  8
0
100
AcDbPolyline
 90
       24
 70
     0
 43
0.0
 10
27.79289387350019
 20
-12.9818097092
 10
27.8691216447002
 20
-12.9789519012
 10
28.04996494550019
 20
-12.9679662324
 10
28.2386377727002
 20
-12.9466474324
 10
28.41795174230019
 20
-12.9152948068
 10
28.58430994710019
 20
-12.875362962
 10
28.73903975990019
 20
-12.827564362
 10
28.8843191615002
 20
-12.772081634
 10
29.0219350639002
 20
-12.708858634
 10
29.15361133910019
 20
-12.6374217876
 10
29.28076558870019
 20
-12.5570417508
 10
29.40435644630019
 20
-12.4669423508
 10
29.5251037071002
 20
-12.3661353044
 10
29.6438524655002
 20
-12.2532417348
 10
29.76045330230019
 20
-12.127386458
 10
29.8734485823002
 20
-11.9889839092
 10
29.98105117110019
 20
-11.8392024788
 10
30.08152618390019
 20
-11.6796305908
 10
30.17335132310019
 20
-11.5120176788
 10
30.2555957631002
 20
-11.3375598644
 10
30.3274961119002
 20
-11.1576316884
 10
30.38767317430019
 20
-10.975996186
 10
30.43606171990019
 20
-10.79359869
 10
30.45200270710019
 20
-10.7211568596
  0
LINE
  5
E2
330
2
100
AcDbEntity
  8
0
100
AcDbLine
 10
23.9506145439002
 20
-13.11263081
 30
0.0
 11
24.3315621775002
 21
-13.099253874
 31
0.0
  0
LWPOLYLINE
  5
E3
330
2
100
AcDbEntity
  8
0
100
AcDbPolyline
 90
        3
 70
     0
 43
0.0
 10
24.3315621775002
 20
-13.099253874
 10
24.36924885430019
 20
-13.09793165
 10
24.4649843759002
 20
-13.0945723604
  0
LINE
  5
E5
330
2
100
AcDbEntity
  8
0
100
AcDbLine
 10
18.64015646070019
 20
-13.3379300868
 30
0.0
 11
24.2901265567002
 21
-13.1406287844
 31
0.0
  0
LINE
  5
E6
330
2
100
AcDbEntity
  8
0
100
AcDbLine
 10
24.6884591103002
 20
-13.0867389428
 30
0.0
 11
24.78678092150019
 21
-13.08329830919999
 31
0.0
  0
LINE
  5
E7
330
2
100
AcDbEntity
  8
0
100
AcDbLine
 10
24.3294021695002
 20
-13.0993313412
 30
0.0
 11
25.01606313750019
 21
-13.075290546
 31
0.0
  0
LINE
  5
E8
330
2
100
AcDbEntity
  8
0
100
AcDbLine
 10
24.91436521750019
 20
-13.0788392196
 30
0.0
 11
25.1464596479002
 21
-13.0707503764
 31
0.0
  0
LINE
  5
E9
330
2
100
AcDbEntity
  8
0
100
AcDbLine
 10
25.0149199791002
 20
-13.075331402
 30
0.0
 11
25.5836195855002
 21
-13.0555768052
 31
0.0
  0
LINE
  5
EA
330
2
100
AcDbEntity
  8
0
100
AcDbLine
 10
26.2882905215002
 20
-13.03115684999999
 30
0.0
 11
26.47041491830019
 21
-13.02484469159999
 31
0.0
  0
LINE
  5
EB
330
2
100
AcDbEntity
  8
0
100
AcDbLine
 10
25.5061362431002
 20
-13.0582624564
 30
0.0
 11
25.58349343990019
 21
-13.05558053
 31
0.0
  0
LINE
  5
EC
330
2
100
AcDbEntity
  8
0
100
AcDbLine
 10
25.58349343990019
 20
-13.05558053
 30
0.0
 11
26.2873657935002
 21
-13.031188434
 31
0.0
  0
LINE
  5
ED
330
2
100
AcDbEntity
  8
0
100
AcDbLine
 10
26.47041491830019
 20
-13.02484469159999
 30
0.0
 11
26.5829162239002
 21
-13.02094798119999
 31
0.0
  0
LINE
  5
EE
330
2
100
AcDbEntity
  8
0
100
AcDbLine
 10
26.5829162239002
 20
-13.02094798119999
 30
0.0
 11
26.6219485327002
 21
-13.0195969204
 31
0.0
  0
LINE
  5
EF
330
2
100
AcDbEntity
  8
0
100
AcDbLine
 10
26.6219485327002
 20
-13.0195969204
 30
0.0
 11
26.77876836630019
 21
-13.0141769348
 31
0.0
  0
LINE
  5
F0
330
2
100
AcDbEntity
  8
0
100
AcDbLine
 10
26.2882905215002
 20
-13.03115684999999
 30
0.0
 11
26.2873657935002
 21
-13.031188434
 31
0.0
  0
LINE
  5
F1
330
2
100
AcDbEntity
  8
0
100
AcDbLine
 10
26.77876836630019
 20
-13.0141769348
 30
0.0
 11
26.91208820790019
 21
-13.0095871412
 31
0.0
  0
LINE
  5
F2
330
2
100
AcDbEntity
  8
0
100
AcDbLine
 10
26.91208820790019
 20
-13.0095871412
 30
0.0
 11
26.93532580630019
 21
-13.0087897876
 31
0.0
  0
LINE
  5
F3
330
2
100
AcDbEntity
  8
0
100
AcDbLine
 10
26.93532580630019
 20
-13.0087897876
 30
0.0
 11
26.9458872527002
 21
-13.0084276964
 31
0.0
  0
LINE
  5
F4
330
2
100
AcDbEntity
  8
0
100
AcDbLine
 10
26.9458872527002
 20
-13.0084276964
 30
0.0
 11
26.94887577750019
 21
-13.0083252724
 31
0.0
  0
LINE
  5
F5
330
2
100
AcDbEntity
  8
0
100
AcDbLine
 10
26.94887577750019
 20
-13.0083252724
 30
0.0
 11
27.04358696630019
 21
-13.0050870436
 31
0.0
  0
LINE
  5
F6
330
2
100
AcDbEntity
  8
0
100
AcDbLine
 10
27.04358696630019
 20
-13.0050870436
 30
0.0
 11
27.09800291990019
 21
-13.00323309639999
 31
0.0
  0
LINE
  5
F7
330
2
100
AcDbEntity
  8
0
100
AcDbLine
 10
12.48526982550019
 20
-13.5002355652
 30
0.0
 11
18.64015646070019
 21
-13.2910610964
 31
0.0
  0
LINE
  5
F8
330
2
100
AcDbEntity
  8
0
100
AcDbLine
 10
27.09800319510019
 20
-13.0032411988
 30
0.0
 11
27.34081639670019
 21
-12.99515197159999
 31
0.0
  0
LINE
  5
FA
330
2
100
AcDbEntity
  8
0
100
AcDbLine
 10
26.3151432703002
 20
-13.0302258644
 30
0.0
 11
27.47219287830019
 21
-12.9909513652
 31
0.0
  0
LWPOLYLINE
  5
FB
330
2
100
AcDbEntity
  8
0
100
AcDbPolyline
 90
       11
 70
     0
 43
0.0
 10
6.129229500700191
 20
-14.9401575364
 10
6.192719919900198
 20
-14.9381383252
 10
6.255664395100197
 20
-14.9360425364
 10
6.31805799830019
 20
-14.933874858
 10
6.379901244700192
 20
-14.9316403492
 10
6.441198737500201
 20
-14.9293439908
 10
6.501953580700202
 20
-14.9269906516
 10
6.5621673503002
 20
-14.9245850884
 10
6.62184019670019
 20
-14.9221319476
 10
6.680970918300189
 20
-14.9196357476
 10
6.819087712669414
 20
-14.9145307828
  0
LWPOLYLINE
  5
FC
330
2
100
AcDbEntity
  8
0
100
AcDbPolyline
 90
       10
 70
     0
 43
0.0
 10
18.64103664495743
 20
-13.29109296910697
 10
19.37720371350019
 20
-13.2664800052
 10
19.97242065430019
 20
-13.2475135828
 10
20.5370671327002
 20
-13.2292032708
 10
21.08679077590019
 20
-13.211075818
 10
21.62517947030019
 20
-13.1930403396
 10
22.14522399990019
 20
-13.1753740772
 10
22.63989584630019
 20
-13.158370674
 10
23.1062238895002
 20
-13.1421883268
 10
23.9506145439002
 20
-13.11263081
  0
LINE
  5
FD
330
2
100
AcDbEntity
  8
0
100
AcDbLine
 10
27.34081639670019
 20
-12.99515197159999
 30
0.0
 11
27.4181243423002
 21
-12.9926975076
 31
0.0
  0
LINE
  5
FE
330
2
100
AcDbEntity
  8
0
100
AcDbLine
 10
27.43101235990019
 20
-12.99230293639999
 30
0.0
 11
27.53234966870019
 21
-12.98918677
 31
0.0
  0
LINE
  5
FF
330
2
100
AcDbEntity
  8
0
100
AcDbLine
 10
27.73666928150019
 20
-12.98355225639999
 30
0.0
 11
27.79289387350019
 21
-12.9818097092
 31
0.0
  0
LINE
  5
100
330
2
100
AcDbEntity
  8
0
100
AcDbLine
 10
27.47219287830019
 20
-12.9909513652
 30
0.0
 11
27.52342315990019
 21
-12.9893927412
 31
0.0
  0
LINE
  5
101
330
2
100
AcDbEntity
  8
0
100
AcDbLine
 10
27.52342315990019
 20
-12.9893927412
 30
0.0
 11
27.5323475359002
 21
-12.9891334468
 31
0.0
  0
LINE
  5
102
330
2
100
AcDbEntity
  8
0
100
AcDbLine
 10
6.057086692700194
 20
-14.9423282036
 30
0.0
 11
6.129229500700189
 21
-14.9401575364
 31
0.0
  0
LWPOLYLINE
  5
103
330
2
100
AcDbEntity
  8
0
100
AcDbPolyline
 90
       21
 70
     0
 43
0.0
 10
7.048085340700197
 20
-14.9083008916
 10
7.271645631900199
 20
-14.9021929668
 10
7.505444156700193
 20
-14.89486513
 10
7.752990699100195
 20
-14.886043586
 10
8.017103644700199
 20
-14.8753811268
 10
8.293858582300202
 20
-14.8627598516
 10
8.573964054300191
 20
-14.8483941268
 10
8.848062406300201
 20
-14.8326847988
 10
9.110347947100194
 20
-14.8160027844
 10
9.359670699100192
 20
-14.79861745
 10
9.597035987100198
 20
-14.7807886132
 10
9.823142244700193
 20
-14.7627552436
 10
10.03663765270019
 20
-14.7448718276
 10
10.23553584470019
 20
-14.7275000004
 10
10.41837626070019
 20
-14.7109335092
 10
10.58435269590019
 20
-14.6954203716
 10
10.73442825430019
 20
-14.6810370964
 10
10.87493327350019
 20
-14.6672891268
 10
11.01344984950019
 20
-14.6534965684
 10
11.1571022751002
 20
-14.63899941
 10
11.2846280815002
 20
-14.6260595444
  0
LWPOLYLINE
  5
104
330
2
100
AcDbEntity
  8
0
100
AcDbPolyline
 90
        3
 70
     0
 43
0.0
 10
5.935550729500192
 20
-14.9457085108
 10
6.000637953500202
 20
-14.9439474068
 10
6.057086692700195
 20
-14.9423282036
  0
LINE
  5
105
330
2
100
AcDbEntity
  8
0
100
AcDbLine
 10
27.5813297919002
 20
-12.987761626
 30
0.0
 11
27.73666928150019
 21
-12.98355225639999
 31
0.0
  0
LINE
  5
106
330
2
100
AcDbEntity
  8
0
100
AcDbLine
 10
5.834602639900195
 20
-14.9482251588
 30
0.0
 11
5.935550729500191
 21
-14.94570851079999
 31
0.0
  0
LINE
  5
107
330
2
100
AcDbEntity
  8
0
100
AcDbLine
 10
5.827386190300201
 20
-14.9483921172
 30
0.0
 11
5.834606769500195
 21
-14.9482292548
 31
0.0
  0
LINE
  5
109
330
2
100
AcDbEntity
  8
0
100
AcDbLine
 10
6.816639785500198
 20
-14.9136696772
 30
0.0
 11
7.048085340700195
 21
-14.9083008916
 31
0.0
  0
LWPOLYLINE
  5
110
330
2
100
AcDbEntity
  8
0
100
AcDbPolyline
 90
       10
 70
     0
 43
0.0
 10
4.166000905500197
 20
-14.9039007396
 10
4.048838350300201
 20
-14.9043875844
 10
3.932791139100203
 20
-14.9058060756
 10
3.81906051190019
 20
-14.9080412084
 10
3.708597998300191
 20
-14.9109452452
 10
3.6020070303002
 20
-14.9143532532
 10
3.499670902300195
 20
-14.9180971796
 10
3.40181252150019
 20
-14.9220205364
 10
3.3083922383002
 20
-14.92599065
 10
3.13382008470019
 20
-14.933651242
  0
LWPOLYLINE
  5
111
330
2
100
AcDbEntity
  8
0
100
AcDbPolyline
 90
        3
 70
     0
 43
0.0
 10
10.6335246543002
 20
-13.5075653524
 10
10.74840972470019
 20
-13.5070973652
 10
11.77178927190019
 20
-13.5028316836
  0
LINE
  5
112
330
2
100
AcDbEntity
  8
0
100
AcDbLine
 10
11.77178927190018
 20
-13.5028316836
 30
0.0
 11
11.85608695830019
 21
-13.502488074
 31
0.0
  0
LINE
  5
113
330
2
100
AcDbEntity
  8
0
100
AcDbLine
 10
11.85608695830019
 20
-13.502488074
 30
0.0
 11
12.0120852287002
 21
-13.5018671092
 31
0.0
  0
LINE
  5
114
330
2
100
AcDbEntity
  8
0
100
AcDbLine
 10
12.0120852287002
 20
-13.5018671092
 30
0.0
 11
12.14985257430019
 21
-13.5013410916
 31
0.0
  0
LINE
  5
115
330
2
100
AcDbEntity
  8
0
100
AcDbLine
 10
12.14985257430019
 20
-13.5013410916
 30
0.0
 11
12.26690384470019
 21
-13.5009174292
 31
0.0
  0
LINE
  5
116
330
2
100
AcDbEntity
  8
0
100
AcDbLine
 10
12.26690384470019
 20
-13.5009174292
 30
0.0
 11
12.47153359190019
 21
-13.5002672436
 31
0.0
  0
LINE
  5
118
330
2
100
AcDbEntity
  8
0
100
AcDbLine
 10
12.47153359190019
 20
-13.5002672436
 30
0.0
 11
12.48526982550019
 21
-13.5002355652
 31
0.0
  0
LINE
  5
11C
330
2
100
AcDbEntity
  8
0
100
AcDbLine
 10
-3.934920827299807
 20
-13.5009174292
 30
0.0
 11
-4.153286808099808
 21
-13.5002355652
 31
0.0
  0
LINE
  5
11D
330
2
100
AcDbEntity
  8
0
100
AcDbLine
 10
-3.604249190499801
 20
-13.50216626919999
 30
0.0
 11
-3.934920827299807
 21
-13.5009174292
 31
0.0
  0
LWPOLYLINE
  5
11E
330
2
100
AcDbEntity
  8
0
100
AcDbPolyline
 90
        9
 70
     0
 43
0.0
 10
4.166000905500197
 20
-14.9039005444
 10
4.283141502300196
 20
-14.9043875764
 10
4.399186852700196
 20
-14.9058060068
 10
4.512918211100199
 20
-14.9080410948
 10
4.6233809263002
 20
-14.9109450852
 10
4.729972063900191
 20
-14.9143530676
 10
4.832308299100191
 20
-14.9180969972
 10
4.930166737500201
 20
-14.9220203988
 10
5.023587323100201
 20
-14.9259905204
  0
LWPOLYLINE
  5
11F
330
2
100
AcDbEntity
  8
0
100
AcDbPolyline
 90
        3
 70
     0
 43
0.0
 10
-2.301541636899806
 20
-13.5075653524
 10
-2.416426705699805
 20
-13.5070973652
 10
-3.439806254499806
 20
-13.5028316836
  0
LINE
  5
120
330
2
100
AcDbEntity
  8
0
100
AcDbLine
 10
-3.439806254499808
 20
-13.5028316836
 30
0.0
 11
-3.604249190499801
 21
-13.50216626919999
 31
0.0
  0
LINE
  5
12D
330
2
100
AcDbEntity
  8
0
100
AcDbLine
 10
2.504540956700195
 20
-14.9483909108
 30
0.0
 11
2.497374833500201
 21
-14.9482292212
 31
0.0
  0
LWPOLYLINE
  5
12F
330
2
100
AcDbEntity
  8
0
100
AcDbPolyline
 90
        4
 70
     0
 43
0.0
 10
2.322334127900191
 20
-14.9436951652
 10
2.382351227100201
 20
-14.9453366212
 10
2.442945113500201
 20
-14.9469007316
 10
2.4973789295002
 20
-14.9482251076
  0
LINE
  5
131
330
2
100
AcDbEntity
  8
0
100
AcDbLine
 10
-19.4329171648998
 20
-12.9827064772
 30
0.0
 11
-19.3967302320998
 21
-12.9837648244
 31
0.0
  0
LINE
  5
132
330
2
100
AcDbEntity
  8
0
100
AcDbLine
 10
-19.3967302320998
 20
-12.9837648244
 30
0.0
 11
-19.2536075712998
 21
-12.98764569
 31
0.0
  0
LINE
  5
133
330
2
100
AcDbEntity
  8
0
100
AcDbLine
 10
2.203955177500189
 20
-14.9401948324
 30
0.0
 11
2.322334127900189
 21
-14.9436951652
 31
0.0
  0
LINE
  5
134
330
2
100
AcDbEntity
  8
0
100
AcDbLine
 10
-19.1139828768998
 20
-12.9918011876
 30
0.0
 11
-19.1945626624998
 21
-12.989364922
 31
0.0
  0
LWPOLYLINE
  5
136
330
2
100
AcDbEntity
  8
0
100
AcDbPolyline
 90
        3
 70
     0
 43
0.0
 10
-11.2116956960998
 20
-13.2612093364
 10
-10.5914145936998
 20
-13.2807171172
 10
-10.3663378032998
 20
-13.2877088052
  0
LINE
  5
137
330
2
100
AcDbEntity
  8
0
100
AcDbLine
 10
-19.1945607184998
 20
-12.9893016996
 30
0.0
 11
-19.1398220256998
 21
-12.9909636612
 31
0.0
  0
LINE
  5
138
330
2
100
AcDbEntity
  8
0
100
AcDbLine
 10
-19.4608706496998
 20
-12.9818110452
 30
0.0
 11
-19.4329171648998
 21
-12.9827064772
 31
0.0
  0
LINE
  5
13A
330
2
100
AcDbEntity
  8
0
100
AcDbLine
 10
-18.9836699856998
 20
-12.995969986
 30
0.0
 11
-19.0990293424998
 21
-12.99230293639999
 31
0.0
  0
LINE
  5
13B
330
2
100
AcDbEntity
  8
0
100
AcDbLine
 10
-19.1398220256998
 20
-12.9909636612
 30
0.0
 11
-19.0994561824998
 21
-12.99228843399999
 31
0.0
  0
LINE
  5
13C
330
2
100
AcDbEntity
  8
0
100
AcDbLine
 10
-4.153286808099808
 20
-13.5002355652
 30
0.0
 11
-10.3081734432998
 21
-13.2910610964
 31
0.0
  0
LINE
  5
13D
330
2
100
AcDbEntity
  8
0
100
AcDbLine
 10
-17.9834896784998
 20
-13.0302146676
 30
0.0
 11
-19.0990293424998
 21
-12.99230293639999
 31
0.0
  0
LINE
  5
13E
330
2
100
AcDbEntity
  8
0
100
AcDbLine
 10
-19.0990293424998
 20
-12.99230293639999
 30
0.0
 11
-19.0994561824998
 21
-12.99228843399999
 31
0.0
  0
LINE
  5
13F
330
2
100
AcDbEntity
  8
0
100
AcDbLine
 10
-18.7117129920998
 20
-13.0050833444
 30
0.0
 11
-18.9836699856998
 21
-12.995969986
 31
0.0
  0
LINE
  5
140
330
2
100
AcDbEntity
  8
0
100
AcDbLine
 10
-18.4208047584998
 20
-13.01507373
 30
0.0
 11
-18.4476545184998
 21
-13.01414700359999
 31
0.0
  0
LINE
  5
141
330
2
100
AcDbEntity
  8
0
100
AcDbLine
 10
-18.7640947152998
 20
-13.0032985476
 30
0.0
 11
-18.4208047584998
 21
-13.01507373
 31
0.0
  0
LINE
  5
142
330
2
100
AcDbEntity
  8
0
100
AcDbLine
 10
-17.0163446336998
 20
-13.0637363988
 30
0.0
 11
-17.0936725456998
 21
-13.0610535428
 31
0.0
  0
LINE
  5
143
330
2
100
AcDbEntity
  8
0
100
AcDbLine
 10
-18.1401416400998
 20
-13.0247854708
 30
0.0
 11
-17.9563074048998
 21
-13.03115685479999
 31
0.0
  0
LINE
  5
144
330
2
100
AcDbEntity
  8
0
100
AcDbLine
 10
-17.9553847312998
 20
-13.03118836519999
 30
0.0
 11
-17.9563074048998
 21
-13.03115685479999
 31
0.0
  0
LINE
  5
145
330
2
100
AcDbEntity
  8
0
100
AcDbLine
 10
-18.4208047584998
 20
-13.01507373
 30
0.0
 11
-18.1401416400998
 21
-13.0247854708
 31
0.0
  0
LINE
  5
147
330
2
100
AcDbEntity
  8
0
100
AcDbLine
 10
-15.9581435392998
 20
-13.1406287844
 30
0.0
 11
-10.3081734432998
 21
-13.3379300868
 31
0.0
  0
LINE
  5
148
330
2
100
AcDbEntity
  8
0
100
AcDbLine
 10
-17.9553847312998
 20
-13.03118836519999
 30
0.0
 11
-16.4030325504998
 21
-13.085110242
 31
0.0
  0
LINE
  5
149
330
2
100
AcDbEntity
  8
0
100
AcDbLine
 10
-16.7246676592998
 20
-13.0738761604
 30
0.0
 11
-16.8144756768998
 21
-13.0707504228
 31
0.0
  0
LWPOLYLINE
  5
14A
330
2
100
AcDbEntity
  8
0
100
AcDbPolyline
 90
       11
 70
     0
 43
0.0
 10
-16.0564258224998
 20
-13.0972586116
 10
-15.6835078384998
 20
-13.1103527652
 10
-15.2855747648998
 20
-13.1243157444
 10
-14.8594266176998
 20
-13.1392187412
 10
-14.4042275376998
 20
-13.1550395764
 10
-13.9211189456998
 20
-13.171681722
 10
-13.4122020352998
 20
-13.1890179092
 10
-12.8836837152998
 20
-13.206783498
 10
-12.3428835392998
 20
-13.2246871332
 10
-11.7900390144998
 20
-13.242692818
 10
-11.2116956960998
 20
-13.2612093364
  0
LWPOLYLINE
  5
14B
330
2
100
AcDbEntity
  8
0
100
AcDbPolyline
 90
        5
 70
     0
 43
0.0
 10
-16.0372657488998
 20
-13.0979316516
 10
-16.1330012496998
 20
-13.09457236680001
 10
-16.2318325264998
 20
-13.0911065492
 10
-16.3376047280998
 20
-13.0874002404
 10
-16.5823869536998
 20
-13.0788389812
  0
LINE
  5
14C
330
2
100
AcDbEntity
  8
0
100
AcDbLine
 10
-16.7246676592998
 20
-13.0738761604
 30
0.0
 11
-16.0538832768998
 21
-13.0973494292
 31
0.0
  0
LWPOLYLINE
  5
14D
330
2
100
AcDbEntity
  8
0
100
AcDbPolyline
 90
        6
 70
     0
 43
0.0
 10
1.917393871900202
 20
-14.9303506756
 10
1.973620118300189
 20
-14.9324281268
 10
2.030390207900197
 20
-14.9344554964
 10
2.087705697500197
 20
-14.9364285396
 10
2.145563398300197
 20
-14.9383429972
 10
2.203955177500191
 20
-14.9401948324
  0
LWPOLYLINE
  5
14E
330
2
100
AcDbEntity
  8
0
100
AcDbPolyline
 90
       24
 70
     0
 43
0.0
 10
-19.4608708784998
 20
-12.9818110372
 10
-19.5371386272998
 20
-12.9789519012
 10
-19.7179819280998
 20
-12.9679662324
 10
-19.9066547552998
 20
-12.9466474324
 10
-20.0859687248998
 20
-12.9152948068
 10
-20.2523269296998
 20
-12.875362962
 10
-20.4070567424998
 20
-12.827564362
 10
-20.5523361440998
 20
-12.772081634
 10
-20.6899520464998
 20
-12.708858634
 10
-20.8216283216998
 20
-12.6374217876
 10
-20.9487825712998
 20
-12.5570417508
 10
-21.0723734288998
 20
-12.4669423508
 10
-21.1931206896998
 20
-12.3661353044
 10
-21.3118694480998
 20
-12.2532417348
 10
-21.4284702848998
 20
-12.127386458
 10
-21.5414655648998
 20
-11.9889839092
 10
-21.6490681520998
 20
-11.8392024788
 10
-21.7495431664998
 20
-11.6796305908
 10
-21.8413683056998
 20
-11.5120176788
 10
-21.9236127456998
 20
-11.3375598644
 10
-21.9955130944998
 20
-11.1576316884
 10
-22.0556901568998
 20
-10.975996186
 10
-22.1040787024998
 20
-10.79359869
 10
-22.1200196896998
 20
-10.7211568596
  0
LINE
  5
150
330
2
100
AcDbEntity
  8
0
100
AcDbLine
 10
1.806570292700198
 20
-14.92606199879999
 30
0.0
 11
1.9173938719002
 21
-14.9303506756
 31
0.0
  0
LINE
  5
152
330
2
100
AcDbEntity
  8
0
100
AcDbLine
 10
1.697921971100198
 20
-14.9216213316
 30
0.0
 11
1.806570292700198
 21
-14.92606199879999
 31
0.0
  0
LINE
  5
154
330
2
100
AcDbEntity
  8
0
100
AcDbLine
 10
1.591459977500191
 20
-14.9170585124
 30
0.0
 11
1.697921971100198
 21
-14.9216213316
 31
0.0
  0
LWPOLYLINE
  5
155
330
2
100
AcDbEntity
  8
0
100
AcDbPolyline
 90
       11
 70
     0
 43
0.0
 10
5.023587323100201
 20
-14.9259905204
 10
5.198160011100199
 20
-14.9336511156
 10
5.27982660630019
 20
-14.9371613364
 10
5.358204321500195
 20
-14.9403596148
 10
5.433592142300199
 20
-14.9431787316
 10
5.506240044700192
 20
-14.9455524708
 10
5.576329332700197
 20
-14.947412986
 10
5.64399401110019
 20
-14.948690786
 10
5.709305060700202
 20
-14.949312618
 10
5.7722225583002
 20
-14.9492006324
 10
5.827386190300202
 20
-14.9483921172
  0
LINE
  5
156
330
2
100
AcDbEntity
  8
0
100
AcDbLine
 10
1.487194031900193
 20
-14.9124003508
 30
0.0
 11
1.591459977500191
 21
-14.9170585124
 31
0.0
  0
LINE
  5
169
330
2
100
AcDbEntity
  8
0
100
AcDbLine
 10
-4.153286803299808
 20
-13.5002355652
 30
0.0
 11
-4.135232374499802
 21
-13.5012854884
 31
0.0
  0
LINE
  5
173
330
2
100
AcDbEntity
  8
0
100
AcDbLine
 10
-4.135232374499802
 20
-13.5012854884
 30
0.0
 11
-4.114861518499802
 21
-13.503538322
 31
0.0
  0
LWPOLYLINE
  5
175
330
2
100
AcDbEntity
  8
0
100
AcDbPolyline
 90
       18
 70
     0
 43
0.0
 10
-4.1148615184998
 20
-13.503538322
 10
-4.094465033699805
 20
-13.5069100708
 10
-4.072964019299803
 20
-13.5117495204
 10
-4.050904563299802
 20
-13.518126306
 10
-4.028432651299802
 20
-13.5261730372
 10
-4.005722272099802
 20
-13.5360083108
 10
-3.982963156899806
 20
-13.547736818
 10
-3.960360888099806
 20
-13.5614466932
 10
-3.938137278499802
 20
-13.577206042
 10
-3.9165287536998
 20
-13.5950599908
 10
-3.895783315299802
 20
-13.6150287924
 10
-3.876130985699802
 20
-13.6371388068
 10
-3.8577890976998
 20
-13.6614395012
 10
-3.841006176099803
 20
-13.687967178
 10
-3.826066116899802
 20
-13.7167356436
 10
-3.813288972899805
 20
-13.7477280068
 10
-3.803030563299806
 20
-13.7808873076
 10
-3.795737556899801
 20
-13.8158327636
  0
LWPOLYLINE
  5
176
330
2
100
AcDbEntity
  8
0
100
AcDbPolyline
 90
        3
 70
     0
 43
0.0
 10
2.264491652700201
 20
-14.9420267012
 10
2.273062916700197
 20
-14.949505858
 10
2.274644214300195
 20
-14.9510583972
  0
LINE
  5
177
330
2
100
AcDbEntity
  8
0
100
AcDbLine
 10
2.629379855900195
 20
-15.305793826
 30
0.0
 11
2.274675707100199
 21
-14.9510896772
 31
0.0
  0
LINE
  5
17C
330
2
100
AcDbEntity
  8
0
100
AcDbLine
 10
-3.778654004899808
 20
-13.99941554919999
 30
0.0
 11
-3.779122510499805
 21
-13.99457419079999
 31
0.0
  0
LINE
  5
17D
330
2
100
AcDbEntity
  8
0
100
AcDbLine
 10
-3.792450920099804
 20
-13.8423358484
 30
0.0
 11
-3.779122510499805
 21
-13.99457419079999
 31
0.0
  0
LINE
  5
17E
330
2
100
AcDbEntity
  8
0
100
AcDbLine
 10
-3.779431291299802
 20
-13.9911510932
 30
0.0
 11
-3.779435222499808
 21
-13.9911051668
 31
0.0
  0
LWPOLYLINE
  5
184
330
2
100
AcDbEntity
  8
0
100
AcDbPolyline
 90
       31
 70
     0
 43
0.0
 10
-28.7723304752998
 20
8.647830881199993
 10
-28.8113791536998
 20
8.674863034799997
 10
-28.8886642576998
 20
8.719169431599993
 10
-28.9707934112998
 20
8.756312573999991
 10
-29.0589400800998
 20
8.786470389999998
 10
-29.1548497648998
 20
8.809534781999992
 10
-29.2594979072998
 20
8.824796444399993
 10
-29.3703560880998
 20
8.831052047599996
 10
-29.4827231600998
 20
8.827494351599995
 10
-29.5926779952998
 20
8.814258116399997
 10
-29.6970771312998
 20
8.792139957999992
 10
-29.7936004336998
 20
8.762369322799997
 10
-29.8821951040998
 20
8.725739729199993
 10
-29.9660533552998
 20
8.681299047599992
 10
-30.0481731296998
 20
8.627425673199994
 10
-30.1286626288998
 20
8.563346857199995
 10
-30.2066924736998
 20
8.488787884399997
 10
-30.2810609440998
 20
8.403891114799996
 10
-30.3499615008998
 20
8.309807172399992
 10
-30.4074036064998
 20
8.215516319599991
 10
-30.4528848768998
 20
8.122561506799996
 10
-30.4915967856998
 20
8.020460692399993
 10
-30.5259197216998
 20
7.901276079599995
 10
-30.5521943024998
 20
7.783360695599995
 10
-30.5711468672998
 20
7.679410033199992
 10
-30.5857106960998
 20
7.586727482799993
 10
-30.5973694896998
 20
7.503638874799996
 10
-30.6069840304998
 20
7.428801780399993
 10
-30.6150928944998
 20
7.361101754799996
 10
-30.6220419568998
 20
7.299702868399997
 10
-30.6280917584998
 20
7.243880253999996
  0
LWPOLYLINE
  5
185
330
2
100
AcDbEntity
  8
0
100
AcDbPolyline
 90
       27
 70
     0
 43
0.0
 10
-3.778654004899806
 20
-13.9994155492
 10
-3.768418030499802
 20
-14.065804946
 10
-3.748498969699802
 20
-14.1391414596
 10
-3.721131841699801
 20
-14.2072373524
 10
-3.6876138432998
 20
-14.2693974964
 10
-3.649394849699802
 20
-14.325039226
 10
-3.6080497312998
 20
-14.3737928772
 10
-3.565144920099804
 20
-14.4156180756
 10
-3.522212168099805
 20
-14.4507254484
 10
-3.480501772899806
 20
-14.4796651748
 10
-3.440814176099806
 20
-14.503254898
 10
-3.4035497664998
 20
-14.5223923044
 10
-3.368800699299804
 20
-14.5379336612
 10
-3.336410708899805
 20
-14.5506447252
 10
-3.305999355299803
 20
-14.5611905924
 10
-3.277087942499804
 20
-14.5701055204
 10
-3.249207404899806
 20
-14.5777918276
 10
-3.221947412899801
 20
-14.5845426948
 10
-3.194948128099802
 20
-14.5905738756
 10
-3.167859534499804
 20
-14.596051522
 10
-3.140308884899802
 20
-14.60110845
 10
-3.111974904099803
 20
-14.6058385604
 10
-3.082561152099806
 20
-14.6103108196
 10
-3.051799123299801
 20
-14.6145749428
 10
-3.019382468899806
 20
-14.6186739732
 10
-2.984935259299803
 20
-14.6226467252
 10
-2.952552467299803
 20
-14.6260685716
  0
LINE
  5
186
330
2
100
AcDbEntity
  8
0
100
AcDbLine
 10
-3.795737556899803
 20
-13.8158327636
 30
0.0
 11
-3.792450918499804
 21
-13.8423358484
 31
0.0
  0
LINE
  5
189
330
2
100
AcDbEntity
  8
0
100
AcDbLine
 10
-11.3655390112998
 20
-15.1628954804
 30
0.0
 11
-11.3399339264998
 21
-15.1251859252
 31
0.0
  0
LWPOLYLINE
  5
194
330
2
100
AcDbEntity
  8
0
100
AcDbPolyline
 90
        5
 70
     0
 43
0.0
 10
-28.7176351696998
 20
8.622270388399996
 10
-28.7358985296998
 20
8.630092581999996
 10
-28.7512530560998
 20
8.637360333999993
 10
-28.7634039632998
 20
8.643656386799996
 10
-28.7719099888998
 20
8.648438285999993
  0
LINE
  5
195
330
2
100
AcDbEntity
  8
0
100
AcDbLine
 10
2.978891167900199
 20
3.1767876812
 30
0.0
 11
2.978682910300191
 21
3.198932212399999
 31
0.0
  0
LWPOLYLINE
  5
196
330
2
100
AcDbEntity
  8
0
100
AcDbPolyline
 90
       20
 70
     0
 43
0.0
 10
2.978682910300193
 20
3.198932212399995
 10
2.983369641500189
 20
3.304157665199994
 10
2.997320196700201
 20
3.407937367599991
 10
3.019985902300192
 20
3.508480273199992
 10
3.050116935900192
 20
3.603307135599997
 10
3.086295793500198
 20
3.691256127599991
 10
3.127554404700191
 20
3.772638618799994
 10
3.173513894300199
 20
3.848399412399992
 10
3.224246473500201
 20
3.919508721199996
 10
3.2801999455002
 20
3.986808607599996
 10
3.341726737500195
 20
4.050517325999997
 10
3.409529084700196
 20
4.110847455599994
 10
3.484284820700196
 20
4.167597911599997
 10
3.56647769910019
 20
4.220132399599997
 10
3.656035628700195
 20
4.267336234799998
 10
3.751930553500201
 20
4.307738817199997
 10
3.852249164700197
 20
4.339956700399994
 10
3.9555203023002
 20
4.363269980399998
 10
4.060546774300192
 20
4.377330677999992
 10
4.165991508700201
 20
4.382005101999993
  0
LWPOLYLINE
  5
199
330
2
100
AcDbEntity
  8
0
100
AcDbPolyline
 90
        3
 70
     0
 43
0.0
 10
-28.6659495456998
 20
8.603697258799996
 10
-28.6962921280998
 20
8.614087692399998
 10
-28.7176351696998
 20
8.622270388399996
  0
LINE
  5
19A
330
2
100
AcDbEntity
  8
0
100
AcDbLine
 10
5.353300107100194
 20
3.198932212399999
 30
0.0
 11
5.353091799900196
 21
3.176786719599999
 31
0.0
  0
LWPOLYLINE
  5
19B
330
2
100
AcDbEntity
  8
0
100
AcDbPolyline
 90
       24
 70
     0
 43
0.0
 10
5.353091799900198
 20
3.176786719599995
 10
5.352130070300191
 20
3.146664580399992
 10
5.348586523100195
 20
3.093917441199991
 10
5.342702207900202
 20
3.041461837999996
 10
5.33462763190019
 20
2.990069762799997
 10
5.324321678300194
 20
2.939139925999995
 10
5.310990468700197
 20
2.885775823599992
 10
5.293193399900189
 20
2.827006449199991
 10
5.268917038300202
 20
2.760510970799991
 10
5.236789747100189
 20
2.687325493999992
 10
5.196353763100191
 20
2.610442437999992
 10
5.148220299100202
 20
2.533486311599993
 10
5.095050315100195
 20
2.461344066799995
 10
5.0387056383002
 20
2.395757039599992
 10
4.978458103900194
 20
2.335142266799998
 10
4.912623393500197
 20
2.277934364399996
 10
4.839873673500193
 20
2.223729741999996
 10
4.759233663900189
 20
2.172950471599996
 10
4.670719699100189
 20
2.126883119599995
 10
4.575600095900199
 20
2.087275343599998
 10
4.476244340700191
 20
2.055743711599994
 10
4.374173241500201
 20
2.032974161199994
 10
4.270392836700196
 20
2.019238540399996
 10
4.165991508700201
 20
2.014659551599997
  0
LWPOLYLINE
  5
19C
330
2
100
AcDbEntity
  8
0
100
AcDbPolyline
 90
       20
 70
     0
 43
0.0
 10
5.352732558300189
 20
3.176805868399995
 10
5.348956913500202
 20
3.105972458799996
 10
5.335410662300191
 20
3.003581713199992
 10
5.312902444700199
 20
2.902570004399997
 10
5.281615647900196
 20
2.803900313199996
 10
5.242298780700195
 20
2.709428234799993
 10
5.196644300700199
 20
2.621673066799992
 10
5.146169355100198
 20
2.541485234799992
 10
5.091730358300196
 20
2.468444927599996
 10
5.034019169500197
 20
2.402142887599993
 10
4.973421764700191
 20
2.342035471599992
 10
4.907610081500195
 20
2.285615895599995
 10
4.835105070300201
 20
2.232283618799996
 10
4.755125806300199
 20
2.182517572399994
 10
4.667608548700201
 20
2.137447868399995
 10
4.573582308700196
 20
2.098639765999998
 10
4.474416161500201
 20
2.067411340399992
 10
4.372599059100195
 20
2.044886788399992
 10
4.2695856495002
 20
2.031372565999994
 10
4.165991508700201
 20
2.026868666799991
  0
LWPOLYLINE
  5
1AD
330
2
100
AcDbEntity
  8
0
100
AcDbPolyline
 90
       20
 70
     0
 43
0.0
 10
4.165991508700201
 20
2.026868666799991
 10
4.062524284700202
 20
2.031361516399996
 10
3.959657547100192
 20
2.044838732399995
 10
3.858058673500195
 20
2.067279853999991
 10
3.758967318300193
 20
2.098433924399998
 10
3.66466733110019
 20
2.137312121199997
 10
3.576565491100197
 20
2.182683479599994
 10
3.495911259100196
 20
2.232940383599995
 10
3.422845731100196
 20
2.286833217199998
 10
3.35673989750019
 20
2.343719829999997
 10
3.296129820700201
 20
2.404102663599992
 10
3.238639161500202
 20
2.470448500399996
 10
3.184554187100189
 20
2.543322281199998
 10
3.134480958300201
 20
2.623167981999998
 10
3.089187878300194
 20
2.710490069999991
 10
3.050070942300195
 20
2.804710865199993
 10
3.018889993500195
 20
2.903278319599998
 10
2.99646576950019
 20
3.004184245999994
 10
2.982991907100199
 20
3.106362018799991
 10
2.979246825500197
 20
3.176806589999998
  0
LWPOLYLINE
  5
1AE
330
2
100
AcDbEntity
  8
0
100
AcDbPolyline
 90
       24
 70
     0
 43
0.0
 10
4.165991508700201
 20
2.014659551599997
 10
4.061433068700196
 20
2.019252373999997
 10
3.957529302300201
 20
2.033023860399993
 10
3.855357132700191
 20
2.055846789999996
 10
3.755902646300199
 20
2.087451319599992
 10
3.660683459100198
 20
2.127154988399993
 10
3.572074169500197
 20
2.173339023599993
 10
3.491341276700197
 20
2.224258125999995
 10
3.418499361500195
 20
2.278628613999991
 10
3.352617062300197
 20
2.335993346799995
 10
3.292425785500199
 20
2.396678426799994
 10
3.23623208150019
 20
2.462223850799993
 10
3.183232003100201
 20
2.534267487599997
 10
3.135216804700192
 20
2.611162045999996
 10
3.094859363100198
 20
2.688020802799996
 10
3.062788843100193
 20
2.761206730799997
 10
3.038563897500196
 20
2.827688473199998
 10
3.020821140700192
 20
2.886400569199992
 10
3.00754139830019
 20
2.939673189999993
 10
2.997279499100201
 20
2.990492732399992
 10
2.9892388943002
 20
3.041773788399993
 10
2.983377751900192
 20
3.094126871599996
 10
2.9798481583002
 20
3.146772748399996
 10
2.978891167900201
 20
3.176787681199996
  0
LWPOLYLINE
  5
1B5
330
2
100
AcDbEntity
  8
0
100
AcDbPolyline
 90
       50
 70
     0
 43
0.0
 10
37.10830808310019
 20
8.651111687599993
 10
37.1059973423002
 20
8.649687917999997
 10
37.09990833750019
 20
8.646151626799998
 10
37.09058060470019
 20
8.641100380399997
 10
37.07843098390019
 20
8.635010525999994
 10
37.0637558831002
 20
8.628252601199996
 10
37.04673844790019
 20
8.621109505199996
 10
37.02702139030019
 20
8.613634709999992
 10
36.99952511670019
 20
8.604218066799994
 10
36.9637848687002
 20
8.592994682799997
 10
36.92106339510019
 20
8.580538533999991
 10
36.8726265631002
 20
8.567275367599997
 10
36.81970259190019
 20
8.553525338799992
 10
36.76334337270019
 20
8.539506762799994
 10
36.70414873590019
 20
8.525301340399991
 10
36.64246782230019
 20
8.510927549999998
 10
36.57846385270019
 20
8.496364551599995
 10
36.5121403551002
 20
8.481561349999992
 10
36.44353168950019
 20
8.466479663599997
 10
36.3728542015002
 20
8.451124436399993
 10
36.30045371190019
 20
8.435532644399998
 10
36.2268698095002
 20
8.419811602799995
 10
36.02718853910019
 20
8.403987442799994
 10
35.9514597263002
 20
8.388077941999995
 10
35.87472845590019
 20
8.372099153199997
 10
35.79703489590019
 20
8.356065461999996
 10
35.71841417910019
 20
8.339989647599992
 10
35.63890714390019
 20
8.323885132399993
 10
35.55857750070019
 20
8.307769391599997
 10
35.47748833750019
 20
8.291659105199997
 10
35.39570081430019
 20
8.275569937199996
 10
35.31327407030019
 20
8.259516546799993
 10
35.23026512470019
 20
8.243512621999997
 10
35.14672881270019
 20
8.227570887599995
 10
35.06271772790019
 20
8.211703151599998
 10
34.97828217750019
 20
8.195920314799991
 10
34.89346801750019
 20
8.180232004399996
 10
34.80825664790019
 20
8.164632140399994
 10
34.7226756031002
 20
8.149115594799994
 10
34.6367752239002
 20
8.133681069999994
 10
34.55059989750019
 20
8.118326877999997
 10
34.46418944150019
 20
8.103051161199992
 10
34.37757946870019
 20
8.087851941999993
 10
34.2908017119002
 20
8.072727149999991
 10
34.20388434390019
 20
8.057674665199996
 10
34.1168522863002
 20
8.042692338799994
 10
34.02972839190019
 20
8.027778204399993
 10
33.9425394143002
 20
8.012931809199997
 10
33.85530824630019
 20
7.998152847599996
 10
33.76805427350019
 20
7.983440855599994
  0
LINE
  5
1B6
330
2
100
AcDbEntity
  8
0
100
AcDbLine
 10
33.76805427350019
 20
7.983440855599997
 30
0.0
 11
33.5936392271002
 21
7.954231897199999
 31
0.0
  0
LINE
  5
1B7
330
2
100
AcDbEntity
  8
0
100
AcDbLine
 10
33.5936392271002
 20
7.954231897199999
 30
0.0
 11
33.41983731990019
 21
7.925372938799998
 31
0.0
  0
LINE
  5
1B8
330
2
100
AcDbEntity
  8
0
100
AcDbLine
 10
33.41983731990019
 20
7.925372938799998
 30
0.0
 11
33.24726398870019
 21
7.896947993199997
 31
0.0
  0
LINE
  5
1B9
330
2
100
AcDbEntity
  8
0
100
AcDbLine
 10
33.24726398870019
 20
7.896947993199997
 30
0.0
 11
33.07656045590019
 21
7.869049481199997
 31
0.0
  0
LINE
  5
1BA
330
2
100
AcDbEntity
  8
0
100
AcDbLine
 10
33.07656045590019
 20
7.869049481199997
 30
0.0
 11
32.9077651007002
 21
7.841686481199996
 31
0.0
  0
LINE
  5
1BB
330
2
100
AcDbEntity
  8
0
100
AcDbLine
 10
32.9077651007002
 20
7.841686481199996
 30
0.0
 11
32.74075986390019
 21
7.8148527164
 31
0.0
  0
LINE
  5
1BC
330
2
100
AcDbEntity
  8
0
100
AcDbLine
 10
32.74075986390019
 20
7.8148527164
 30
0.0
 11
32.57587624950019
 21
7.788607873199996
 31
0.0
  0
LINE
  5
1BD
330
2
100
AcDbEntity
  8
0
100
AcDbLine
 10
32.57587624950019
 20
7.788607873199996
 30
0.0
 11
32.41349790870019
 21
7.763012919599997
 31
0.0
  0
LINE
  5
1BE
330
2
100
AcDbEntity
  8
0
100
AcDbLine
 10
32.41349790870019
 20
7.763012919599997
 30
0.0
 11
32.25405075830019
 21
7.7381291228
 31
0.0
  0
LINE
  5
1BF
330
2
100
AcDbEntity
  8
0
100
AcDbLine
 10
32.25405075830019
 20
7.7381291228
 30
0.0
 11
32.0979782303002
 21
7.7140148364
 31
0.0
  0
LINE
  5
1C0
330
2
100
AcDbEntity
  8
0
100
AcDbLine
 10
32.0979782303002
 20
7.7140148364
 30
0.0
 11
31.9455507871002
 21
7.690697249199995
 31
0.0
  0
LINE
  5
1C1
330
2
100
AcDbEntity
  8
0
100
AcDbLine
 10
31.9455507871002
 20
7.690697249199995
 30
0.0
 11
31.79641499350019
 21
7.668106498799996
 31
0.0
  0
LINE
  5
1C2
330
2
100
AcDbEntity
  8
0
100
AcDbLine
 10
31.79641499350019
 20
7.668106498799996
 30
0.0
 11
31.65005532150019
 21
7.646149746799995
 31
0.0
  0
LINE
  5
1C3
330
2
100
AcDbEntity
  8
0
100
AcDbLine
 10
31.65005532150019
 20
7.646149746799995
 30
0.0
 11
31.50591940150019
 21
7.6247310876
 31
0.0
  0
LINE
  5
1C4
330
2
100
AcDbEntity
  8
0
100
AcDbLine
 10
31.50591940150019
 20
7.6247310876
 30
0.0
 11
31.36342261430019
 21
7.603753369199996
 31
0.0
  0
LINE
  5
1C5
330
2
100
AcDbEntity
  8
0
100
AcDbLine
 10
31.36342261430019
 20
7.603753369199996
 30
0.0
 11
31.22196099030019
 21
7.583121314799999
 31
0.0
  0
LINE
  5
1C6
330
2
100
AcDbEntity
  8
0
100
AcDbLine
 10
31.22196099030019
 20
7.583121314799999
 30
0.0
 11
31.08127107190019
 21
7.562791348400001
 31
0.0
  0
LINE
  5
1C7
330
2
100
AcDbEntity
  8
0
100
AcDbLine
 10
31.08127107190019
 20
7.562791348400001
 30
0.0
 11
30.9413393887002
 21
7.542756132399997
 31
0.0
  0
LINE
  5
1C8
330
2
100
AcDbEntity
  8
0
100
AcDbLine
 10
30.9413393887002
 20
7.542756132399997
 30
0.0
 11
30.8021535055002
 21
7.523007844399995
 31
0.0
  0
LINE
  5
1C9
330
2
100
AcDbEntity
  8
0
100
AcDbLine
 10
30.8021535055002
 20
7.523007844399995
 30
0.0
 11
30.66369680470019
 21
7.5035375452
 31
0.0
  0
LINE
  5
1CA
330
2
100
AcDbEntity
  8
0
100
AcDbLine
 10
30.66369680470019
 20
7.5035375452
 30
0.0
 11
30.52594848630019
 21
7.4843352876
 31
0.0
  0
LINE
  5
1CB
330
2
100
AcDbEntity
  8
0
100
AcDbLine
 10
30.52594848630019
 20
7.4843352876
 30
0.0
 11
30.38888457910019
 21
7.465390361199997
 31
0.0
  0
LINE
  5
1CC
330
2
100
AcDbEntity
  8
0
100
AcDbLine
 10
30.38888457910019
 20
7.465390361199997
 30
0.0
 11
30.2524765663002
 21
7.446691193199999
 31
0.0
  0
LINE
  5
1CD
330
2
100
AcDbEntity
  8
0
100
AcDbLine
 10
30.2524765663002
 20
7.446691193199999
 30
0.0
 11
30.11669124150019
 21
7.428225396399998
 31
0.0
  0
LINE
  5
1CE
330
2
100
AcDbEntity
  8
0
100
AcDbLine
 10
30.11669124150019
 20
7.428225396399998
 30
0.0
 11
29.98149143510019
 21
7.409979948399996
 31
0.0
  0
LINE
  5
1CF
330
2
100
AcDbEntity
  8
0
100
AcDbLine
 10
29.98149143510019
 20
7.409979948399996
 30
0.0
 11
29.84683614550019
 21
7.391941258799999
 31
0.0
  0
LINE
  5
1D0
330
2
100
AcDbEntity
  8
0
100
AcDbLine
 10
29.84683614550019
 20
7.391941258799999
 30
0.0
 11
29.7127101951002
 21
7.374099169199997
 31
0.0
  0
LINE
  5
1D1
330
2
100
AcDbEntity
  8
0
100
AcDbLine
 10
29.7127101951002
 20
7.374099169199997
 30
0.0
 11
29.57918214230019
 21
7.356455561199997
 31
0.0
  0
LINE
  5
1D2
330
2
100
AcDbEntity
  8
0
100
AcDbLine
 10
29.57918214230019
 20
7.356455561199997
 30
0.0
 11
29.44634368150019
 21
7.339019701999998
 31
0.0
  0
LINE
  5
1D3
330
2
100
AcDbEntity
  8
0
100
AcDbLine
 10
29.44634368150019
 20
7.339019701999998
 30
0.0
 11
29.31427947190019
 21
7.321801310000001
 31
0.0
  0
LINE
  5
1D4
330
2
100
AcDbEntity
  8
0
100
AcDbLine
 10
29.31427947190019
 20
7.321801310000001
 30
0.0
 11
29.18307150390019
 21
7.304809951599995
 31
0.0
  0
LINE
  5
1D5
330
2
100
AcDbEntity
  8
0
100
AcDbLine
 10
29.18307150390019
 20
7.304809951599995
 30
0.0
 11
29.05279923190019
 21
7.288054974000001
 31
0.0
  0
LINE
  5
1D6
330
2
100
AcDbEntity
  8
0
100
AcDbLine
 10
29.05279923190019
 20
7.288054974000001
 30
0.0
 11
28.9235396783002
 21
7.271545455600001
 31
0.0
  0
LINE
  5
1D7
330
2
100
AcDbEntity
  8
0
100
AcDbLine
 10
28.9235396783002
 20
7.271545455600001
 30
0.0
 11
28.7953675327002
 21
7.255290161199997
 31
0.0
  0
LINE
  5
1D8
330
2
100
AcDbEntity
  8
0
100
AcDbLine
 10
28.7953675327002
 20
7.255290161199997
 30
0.0
 11
28.66835522390019
 21
7.239297495599995
 31
0.0
  0
LINE
  5
1D9
330
2
100
AcDbEntity
  8
0
100
AcDbLine
 10
28.66835522390019
 20
7.239297495599995
 30
0.0
 11
28.5425729951002
 21
7.223575466799996
 31
0.0
  0
LINE
  5
1DA
330
2
100
AcDbEntity
  8
0
100
AcDbLine
 10
28.5425729951002
 20
7.223575466799996
 30
0.0
 11
28.4180889663002
 21
7.208131650799995
 31
0.0
  0
LINE
  5
1DB
330
2
100
AcDbEntity
  8
0
100
AcDbLine
 10
28.4180889663002
 20
7.208131650799995
 30
0.0
 11
28.29496916790019
 21
7.192973167599998
 31
0.0
  0
LINE
  5
1DC
330
2
100
AcDbEntity
  8
0
100
AcDbLine
 10
28.29496916790019
 20
7.192973167599998
 30
0.0
 11
28.1732773999002
 21
7.178106629999998
 31
0.0
  0
LINE
  5
1DD
330
2
100
AcDbEntity
  8
0
100
AcDbLine
 10
28.1732773999002
 20
7.178106629999998
 30
0.0
 11
28.0530814575002
 21
7.16353887
 31
0.0
  0
LINE
  5
1DE
330
2
100
AcDbEntity
  8
0
100
AcDbLine
 10
28.0530814575002
 20
7.16353887
 30
0.0
 11
27.93444984630019
 21
7.149276505199996
 31
0.0
  0
LINE
  5
1DF
330
2
100
AcDbEntity
  8
0
100
AcDbLine
 10
27.93444984630019
 20
7.149276505199996
 30
0.0
 11
27.81744964470019
 21
7.135325650799995
 31
0.0
  0
LINE
  5
1E0
330
2
100
AcDbEntity
  8
0
100
AcDbLine
 10
27.81744964470019
 20
7.135325650799995
 30
0.0
 11
27.70214650390019
 21
7.121691905199998
 31
0.0
  0
LINE
  5
1E1
330
2
100
AcDbEntity
  8
0
100
AcDbLine
 10
27.70214650390019
 20
7.121691905199998
 30
0.0
 11
27.58860429110019
 21
7.108380287599995
 31
0.0
  0
LINE
  5
1E2
330
2
100
AcDbEntity
  8
0
100
AcDbLine
 10
27.58860429110019
 20
7.108380287599995
 30
0.0
 11
27.47688531990019
 21
7.0953952684
 31
0.0
  0
LINE
  5
1E3
330
2
100
AcDbEntity
  8
0
100
AcDbLine
 10
27.47688531990019
 20
7.0953952684
 30
0.0
 11
27.3670341839002
 21
7.0827389196
 31
0.0
  0
LINE
  5
1E4
330
2
100
AcDbEntity
  8
0
100
AcDbLine
 10
27.3670341839002
 20
7.0827389196
 30
0.0
 11
27.2590401791002
 21
7.070406733999998
 31
0.0
  0
LINE
  5
1E5
330
2
100
AcDbEntity
  8
0
100
AcDbLine
 10
27.2590401791002
 20
7.070406733999998
 30
0.0
 11
27.15288003510019
 21
7.058392716399996
 31
0.0
  0
LINE
  5
1E6
330
2
100
AcDbEntity
  8
0
100
AcDbLine
 10
27.15288003510019
 20
7.058392716399996
 30
0.0
 11
27.04852897110019
 21
7.046690689200001
 31
0.0
  0
LINE
  5
1E7
330
2
100
AcDbEntity
  8
0
100
AcDbLine
 10
27.04852897110019
 20
7.046690689200001
 30
0.0
 11
26.94596080150019
 21
7.035294313200001
 31
0.0
  0
LINE
  5
1E8
330
2
100
AcDbEntity
  8
0
100
AcDbLine
 10
26.94596080150019
 20
7.035294313200001
 30
0.0
 11
26.84514802870019
 21
7.024197103599998
 31
0.0
  0
LINE
  5
1E9
330
2
100
AcDbEntity
  8
0
100
AcDbLine
 10
26.84514802870019
 20
7.024197103599998
 30
0.0
 11
26.7460619295002
 21
7.013392463599995
 31
0.0
  0
LINE
  5
1EA
330
2
100
AcDbEntity
  8
0
100
AcDbLine
 10
26.7460619295002
 20
7.013392463599995
 30
0.0
 11
26.6486726335002
 21
7.002873692399997
 31
0.0
  0
LINE
  5
1EB
330
2
100
AcDbEntity
  8
0
100
AcDbLine
 10
26.6486726335002
 20
7.002873692399997
 30
0.0
 11
26.5529500991002
 21
6.9926341084
 31
0.0
  0
LINE
  5
1EC
330
2
100
AcDbEntity
  8
0
100
AcDbLine
 10
26.5529500991002
 20
6.9926341084
 30
0.0
 11
26.45886830550018
 21
6.9826674908
 31
0.0
  0
LINE
  5
1ED
330
2
100
AcDbEntity
  8
0
100
AcDbLine
 10
26.45886830550018
 20
6.9826674908
 30
0.0
 11
26.36640210230019
 21
6.972967745199998
 31
0.0
  0
LINE
  5
1EE
330
2
100
AcDbEntity
  8
0
100
AcDbLine
 10
26.36640210230019
 20
6.972967745199998
 30
0.0
 11
26.27552557430019
 21
6.963528722799996
 31
0.0
  0
LINE
  5
1EF
330
2
100
AcDbEntity
  8
0
100
AcDbLine
 10
26.27552557430019
 20
6.963528722799996
 30
0.0
 11
26.1862120879002
 21
6.954344247600001
 31
0.0
  0
LINE
  5
1F0
330
2
100
AcDbEntity
  8
0
100
AcDbLine
 10
26.1862120879002
 20
6.954344247600001
 30
0.0
 11
26.09843433270019
 21
6.945408121199999
 31
0.0
  0
LINE
  5
1F1
330
2
100
AcDbEntity
  8
0
100
AcDbLine
 10
26.09843433270019
 20
6.945408121199999
 30
0.0
 11
26.01216450230019
 21
6.936714148399996
 31
0.0
  0
LINE
  5
1F2
330
2
100
AcDbEntity
  8
0
100
AcDbLine
 10
26.01216450230019
 20
6.936714148399996
 30
0.0
 11
25.88557920790019
 21
6.924119066799999
 31
0.0
  0
LINE
  5
1F3
330
2
100
AcDbEntity
  8
0
100
AcDbLine
 10
25.88557920790019
 20
6.924119066799999
 30
0.0
 11
25.76247212310019
 21
6.912058002799998
 31
0.0
  0
LINE
  5
1F4
330
2
100
AcDbEntity
  8
0
100
AcDbLine
 10
25.76247212310019
 20
6.912058002799998
 30
0.0
 11
25.6429586655002
 21
6.900529863599995
 31
0.0
  0
LINE
  5
1F5
330
2
100
AcDbEntity
  8
0
100
AcDbLine
 10
25.6429586655002
 20
6.900529863599995
 30
0.0
 11
25.52715506870019
 21
6.889532599599998
 31
0.0
  0
LINE
  5
1F6
330
2
100
AcDbEntity
  8
0
100
AcDbLine
 10
25.52715506870019
 20
6.889532599599998
 30
0.0
 11
25.4151792591002
 21
6.879063343599998
 31
0.0
  0
LINE
  5
1F7
330
2
100
AcDbEntity
  8
0
100
AcDbLine
 10
25.4151792591002
 20
6.879063343599998
 30
0.0
 11
25.3072054415002
 21
6.869123764399997
 31
0.0
  0
LINE
  5
1F8
330
2
100
AcDbEntity
  8
0
100
AcDbLine
 10
25.3072054415002
 20
6.869123764399997
 30
0.0
 11
25.20365889590019
 21
6.859737287600001
 31
0.0
  0
LINE
  5
1F9
330
2
100
AcDbEntity
  8
0
100
AcDbLine
 10
25.20365889590019
 20
6.859737287600001
 30
0.0
 11
25.1050241967002
 21
6.850930506800001
 31
0.0
  0
LINE
  5
1FA
330
2
100
AcDbEntity
  8
0
100
AcDbLine
 10
25.1050241967002
 20
6.850930506800001
 30
0.0
 11
25.01151883670019
 21
6.842704513200001
 31
0.0
  0
LINE
  5
1FB
330
2
100
AcDbEntity
  8
0
100
AcDbLine
 10
25.01151883670019
 20
6.842704513200001
 30
0.0
 11
24.92305778070019
 21
6.835033798000001
 31
0.0
  0
LINE
  5
1FC
330
2
100
AcDbEntity
  8
0
100
AcDbLine
 10
24.92305778070019
 20
6.835033798000001
 30
0.0
 11
24.8126080943002
 21
6.8256107644
 31
0.0
  0
LINE
  5
1FD
330
2
100
AcDbEntity
  8
0
100
AcDbLine
 10
24.8126080943002
 20
6.8256107644
 30
0.0
 11
24.7083272367002
 21
6.816873773999997
 31
0.0
  0
LINE
  5
1FE
330
2
100
AcDbEntity
  8
0
100
AcDbLine
 10
24.7083272367002
 20
6.816873773999997
 30
0.0
 11
24.60670554550019
 21
6.808511298799995
 31
0.0
  0
LINE
  5
1FF
330
2
100
AcDbEntity
  8
0
100
AcDbLine
 10
24.60670554550019
 20
6.808511298799995
 30
0.0
 11
24.50653147990019
 21
6.8004169244
 31
0.0
  0
LINE
  5
200
330
2
100
AcDbEntity
  8
0
100
AcDbLine
 10
24.50653147990019
 20
6.8004169244
 30
0.0
 11
24.40776004790019
 21
6.792583071599995
 31
0.0
  0
LINE
  5
201
330
2
100
AcDbEntity
  8
0
100
AcDbLine
 10
24.40776004790019
 20
6.792583071599995
 30
0.0
 11
24.35888874230019
 21
6.788761745199995
 31
0.0
  0
LINE
  5
203
330
2
100
AcDbEntity
  8
0
100
AcDbLine
 10
39.7928941599002
 20
4.709371215599997
 30
0.0
 11
-31.4609111424998
 21
4.709371215599997
 31
0.0
  0
LWPOLYLINE
  5
204
330
2
100
AcDbEntity
  8
0
100
AcDbPolyline
 90
       20
 70
     0
 43
0.0
 10
4.165991508700201
 20
4.382005101999993
 10
4.271598747100199
 20
4.377315951599996
 10
4.376530211100202
 20
4.363258401199992
 10
4.479506220700201
 20
4.340016441199992
 10
4.579450353500192
 20
4.307963437999994
 10
4.674966895900197
 20
4.267799700399997
 10
4.764258668700193
 20
4.220857682799994
 10
4.846370425500197
 20
4.168522869999996
 10
4.921199718300201
 20
4.111880154799997
 10
4.989209908700189
 20
4.051525205999993
 10
5.051024204700198
 20
3.987653897199997
 10
5.107305622300202
 20
3.920067324399994
 10
5.158311782300202
 20
3.848641138799997
 10
5.204442055900202
 20
3.772613351599993
 10
5.245766974300195
 20
3.691086205999994
 10
5.281938915100198
 20
3.603106825199994
 10
5.312026948700193
 20
3.508369529199995
 10
5.334658526300202
 20
3.407959501999997
 10
5.348605097500197
 20
3.304250132399992
 10
5.353300107100196
 20
3.198932212399995
  0
LINE
  5
205
330
2
100
AcDbEntity
  8
0
100
AcDbLine
 10
-16.0202816368998
 20
6.788246613999998
 30
0.0
 11
-16.1013335152998
 21
6.794595881199999
 31
0.0
  0
LINE
  5
206
330
2
100
AcDbEntity
  8
0
100
AcDbLine
 10
-16.1013335152998
 20
6.794595881199999
 30
0.0
 11
-16.1833269280998
 21
6.801120276399995
 31
0.0
  0
LINE
  5
207
330
2
100
AcDbEntity
  8
0
100
AcDbLine
 10
-16.1833269280998
 20
6.801120276399995
 30
0.0
 11
-16.2662839920998
 21
6.807823700399996
 31
0.0
  0
LINE
  5
208
330
2
100
AcDbEntity
  8
0
100
AcDbLine
 10
-16.2662839920998
 20
6.807823700399996
 30
0.0
 11
-16.3502263776998
 21
6.814710133999998
 31
0.0
  0
LINE
  5
209
330
2
100
AcDbEntity
  8
0
100
AcDbLine
 10
-16.3502263776998
 20
6.814710133999998
 30
0.0
 11
-16.4353522144998
 21
6.821798447599999
 31
0.0
  0
LINE
  5
20A
330
2
100
AcDbEntity
  8
0
100
AcDbLine
 10
-16.4353522144998
 20
6.821798447599999
 30
0.0
 11
-16.5234165120998
 21
6.829241022000001
 31
0.0
  0
LINE
  5
20B
330
2
100
AcDbEntity
  8
0
100
AcDbLine
 10
-16.5234165120998
 20
6.829241022000001
 30
0.0
 11
-16.6168440048998
 21
6.837257047600001
 31
0.0
  0
LINE
  5
20C
330
2
100
AcDbEntity
  8
0
100
AcDbLine
 10
-16.6168440048998
 20
6.837257047600001
 30
0.0
 11
-16.7165578624998
 21
6.845947073199997
 31
0.0
  0
LINE
  5
20D
330
2
100
AcDbEntity
  8
0
100
AcDbLine
 10
-16.7165578624998
 20
6.845947073199997
 30
0.0
 11
-16.8225432768998
 21
6.855333879599999
 31
0.0
  0
LINE
  5
20E
330
2
100
AcDbEntity
  8
0
100
AcDbLine
 10
-16.8225432768998
 20
6.855333879599999
 30
0.0
 11
-16.9346565776998
 21
6.865429383599998
 31
0.0
  0
LINE
  5
20F
330
2
100
AcDbEntity
  8
0
100
AcDbLine
 10
-16.9346565776998
 20
6.865429383599998
 30
0.0
 11
-17.0523648256998
 21
6.876209468399995
 31
0.0
  0
LINE
  5
210
330
2
100
AcDbEntity
  8
0
100
AcDbLine
 10
-17.0523648256998
 20
6.876209468399995
 30
0.0
 11
-17.1750861184998
 21
6.887642674799995
 31
0.0
  0
LINE
  5
211
330
2
100
AcDbEntity
  8
0
100
AcDbLine
 10
-17.1750861184998
 20
6.887642674799995
 30
0.0
 11
-17.2595290560998
 21
6.895623063599995
 31
0.0
  0
LINE
  5
212
330
2
100
AcDbEntity
  8
0
100
AcDbLine
 10
-17.2595290560998
 20
6.895623063599995
 30
0.0
 11
-17.3460180528998
 21
6.903891351599998
 31
0.0
  0
LINE
  5
213
330
2
100
AcDbEntity
  8
0
100
AcDbLine
 10
-17.3460180528998
 20
6.903891351599998
 30
0.0
 11
-17.4345044736998
 21
6.912448434800001
 31
0.0
  0
LINE
  5
214
330
2
100
AcDbEntity
  8
0
100
AcDbLine
 10
-17.4345044736998
 20
6.912448434800001
 30
0.0
 11
-17.5249407552998
 21
6.921294945199999
 31
0.0
  0
LINE
  5
215
330
2
100
AcDbEntity
  8
0
100
AcDbLine
 10
-17.5249407552998
 20
6.921294945199999
 30
0.0
 11
-17.6172793904998
 21
6.930431223599999
 31
0.0
  0
LINE
  5
216
330
2
100
AcDbEntity
  8
0
100
AcDbLine
 10
-17.6172793904998
 20
6.930431223599999
 30
0.0
 11
-17.7114726304998
 21
6.939857322799998
 31
0.0
  0
LINE
  5
217
330
2
100
AcDbEntity
  8
0
100
AcDbLine
 10
-17.7114726304998
 20
6.939857322799998
 30
0.0
 11
-17.8074926304998
 21
6.949575047599996
 31
0.0
  0
LINE
  5
218
330
2
100
AcDbEntity
  8
0
100
AcDbLine
 10
-17.8074926304998
 20
6.949575047599996
 30
0.0
 11
-17.9053680224998
 21
6.959591810799995
 31
0.0
  0
LINE
  5
219
330
2
100
AcDbEntity
  8
0
100
AcDbLine
 10
-17.9053680224998
 20
6.959591810799995
 30
0.0
 11
-18.0051365072998
 21
6.969916023599996
 31
0.0
  0
LINE
  5
21A
330
2
100
AcDbEntity
  8
0
100
AcDbLine
 10
-18.0051365072998
 20
6.969916023599996
 30
0.0
 11
-18.1068348112998
 21
6.980556076399995
 31
0.0
  0
LINE
  5
21B
330
2
100
AcDbEntity
  8
0
100
AcDbLine
 10
-18.1068348112998
 20
6.980556076399995
 30
0.0
 11
-18.2104986080998
 21
6.991520316399995
 31
0.0
  0
LINE
  5
21C
330
2
100
AcDbEntity
  8
0
100
AcDbLine
 10
-18.2104986080998
 20
6.991520316399995
 30
0.0
 11
-18.3161624384998
 21
7.002817029999999
 31
0.0
  0
LINE
  5
21D
330
2
100
AcDbEntity
  8
0
100
AcDbLine
 10
-18.3161624384998
 20
7.002817029999999
 30
0.0
 11
-18.4238617200998
 21
7.014454636399999
 31
0.0
  0
LINE
  5
21E
330
2
100
AcDbEntity
  8
0
100
AcDbLine
 10
-18.4238617200998
 20
7.014454636399999
 30
0.0
 11
-18.5336368336998
 21
7.026442140399996
 31
0.0
  0
LINE
  5
21F
330
2
100
AcDbEntity
  8
0
100
AcDbLine
 10
-18.5336368336998
 20
7.026442140399996
 30
0.0
 11
-18.6455277504998
 21
7.038788553199996
 31
0.0
  0
LINE
  5
220
330
2
100
AcDbEntity
  8
0
100
AcDbLine
 10
-18.6455277504998
 20
7.038788553199996
 30
0.0
 11
-18.7595727120998
 21
7.051502729199999
 31
0.0
  0
LINE
  5
221
330
2
100
AcDbEntity
  8
0
100
AcDbLine
 10
-18.7595727120998
 20
7.051502729199999
 30
0.0
 11
-18.8758080944998
 21
7.064593337199998
 31
0.0
  0
LINE
  5
222
330
2
100
AcDbEntity
  8
0
100
AcDbLine
 10
-18.8758080944998
 20
7.064593337199998
 30
0.0
 11
-18.9942682576998
 21
7.078068821999995
 31
0.0
  0
LINE
  5
223
330
2
100
AcDbEntity
  8
0
100
AcDbLine
 10
-18.9942682576998
 20
7.078068821999995
 30
0.0
 11
-19.1149853952998
 21
7.0919373692
 31
0.0
  0
LINE
  5
224
330
2
100
AcDbEntity
  8
0
100
AcDbLine
 10
-19.1149853952998
 20
7.0919373692
 30
0.0
 11
-19.2379832640998
 21
7.106206157999995
 31
0.0
  0
LINE
  5
225
330
2
100
AcDbEntity
  8
0
100
AcDbLine
 10
-19.2379832640998
 20
7.106206157999995
 30
0.0
 11
-19.3632190304998
 21
7.12087447
 31
0.0
  0
LINE
  5
226
330
2
100
AcDbEntity
  8
0
100
AcDbLine
 10
-19.3632190304998
 20
7.12087447
 30
0.0
 11
-19.4906093584998
 21
7.135936413999996
 31
0.0
  0
LINE
  5
227
330
2
100
AcDbEntity
  8
0
100
AcDbLine
 10
-19.4906093584998
 20
7.135936413999996
 30
0.0
 11
-19.6200681104998
 21
7.151385226799998
 31
0.0
  0
LINE
  5
228
330
2
100
AcDbEntity
  8
0
100
AcDbLine
 10
-19.6200681104998
 20
7.151385226799998
 30
0.0
 11
-19.7515065664998
 21
7.167213289199995
 31
0.0
  0
LINE
  5
229
330
2
100
AcDbEntity
  8
0
100
AcDbLine
 10
-19.7515065664998
 20
7.167213289199995
 30
0.0
 11
-19.8848338688998
 21
7.183412217199997
 31
0.0
  0
LINE
  5
22A
330
2
100
AcDbEntity
  8
0
100
AcDbLine
 10
-19.8848338688998
 20
7.183412217199997
 30
0.0
 11
-20.0199572736998
 21
7.199972917999996
 31
0.0
  0
LINE
  5
22B
330
2
100
AcDbEntity
  8
0
100
AcDbLine
 10
-20.0199572736998
 20
7.199972917999996
 30
0.0
 11
-20.1567881504998
 21
7.2168863644
 31
0.0
  0
LINE
  5
22C
330
2
100
AcDbEntity
  8
0
100
AcDbLine
 10
-20.1567881504998
 20
7.2168863644
 30
0.0
 11
-20.2952391168998
 21
7.234143306799996
 31
0.0
  0
LINE
  5
22D
330
2
100
AcDbEntity
  8
0
100
AcDbLine
 10
-20.2952391168998
 20
7.234143306799996
 30
0.0
 11
-20.4352193264998
 21
7.251733754799996
 31
0.0
  0
LINE
  5
22E
330
2
100
AcDbEntity
  8
0
100
AcDbLine
 10
-20.4352193264998
 20
7.251733754799996
 30
0.0
 11
-20.5766347984998
 21
7.2696470572
 31
0.0
  0
LINE
  5
22F
330
2
100
AcDbEntity
  8
0
100
AcDbLine
 10
-20.5766347984998
 20
7.2696470572
 30
0.0
 11
-20.7193883104998
 21
7.287871966
 31
0.0
  0
LINE
  5
230
330
2
100
AcDbEntity
  8
0
100
AcDbLine
 10
-20.7193883104998
 20
7.287871966
 30
0.0
 11
-20.86337929129979
 21
7.306396685999995
 31
0.0
  0
LINE
  5
231
330
2
100
AcDbEntity
  8
0
100
AcDbLine
 10
-20.86337929129979
 20
7.306396685999995
 30
0.0
 11
-21.0085036848998
 21
7.3252089532
 31
0.0
  0
LINE
  5
232
330
2
100
AcDbEntity
  8
0
100
AcDbLine
 10
-21.0085036848998
 20
7.3252089532
 30
0.0
 11
-21.1546537984998
 21
7.344296108399998
 31
0.0
  0
LINE
  5
233
330
2
100
AcDbEntity
  8
0
100
AcDbLine
 10
-21.1546537984998
 20
7.344296108399998
 30
0.0
 11
-21.3017181216998
 21
7.363645193199996
 31
0.0
  0
LINE
  5
234
330
2
100
AcDbEntity
  8
0
100
AcDbLine
 10
-21.3017181216998
 20
7.363645193199996
 30
0.0
 11
-21.4495795024998
 21
7.383242986799995
 31
0.0
  0
LINE
  5
235
330
2
100
AcDbEntity
  8
0
100
AcDbLine
 10
-21.4495795024998
 20
7.383242986799995
 30
0.0
 11
-21.5981195632998
 21
7.403080454000001
 31
0.0
  0
LINE
  5
236
330
2
100
AcDbEntity
  8
0
100
AcDbLine
 10
-21.5981195632998
 20
7.403080454000001
 30
0.0
 11
-21.7473089824998
 21
7.423164519599996
 31
0.0
  0
LINE
  5
237
330
2
100
AcDbEntity
  8
0
100
AcDbLine
 10
-21.7473089824998
 20
7.423164519599996
 30
0.0
 11
-21.8971998272998
 21
7.443513089199999
 31
0.0
  0
LINE
  5
238
330
2
100
AcDbEntity
  8
0
100
AcDbLine
 10
-21.8971998272998
 20
7.443513089199999
 30
0.0
 11
-22.0478434240998
 21
7.4641439132
 31
0.0
  0
LINE
  5
239
330
2
100
AcDbEntity
  8
0
100
AcDbLine
 10
-22.0478434240998
 20
7.4641439132
 30
0.0
 11
-22.1992852160998
 21
7.485073804399998
 31
0.0
  0
LINE
  5
23A
330
2
100
AcDbEntity
  8
0
100
AcDbLine
 10
-22.1992852160998
 20
7.485073804399998
 30
0.0
 11
-22.3515637392998
 21
7.50631839
 31
0.0
  0
LINE
  5
23B
330
2
100
AcDbEntity
  8
0
100
AcDbLine
 10
-22.3515637392998
 20
7.50631839
 30
0.0
 11
-22.5047110304998
 21
7.5278920364
 31
0.0
  0
LINE
  5
23C
330
2
100
AcDbEntity
  8
0
100
AcDbLine
 10
-22.5047110304998
 20
7.5278920364
 30
0.0
 11
-22.6587540560998
 21
7.549807910000001
 31
0.0
  0
LINE
  5
23D
330
2
100
AcDbEntity
  8
0
100
AcDbLine
 10
-22.6587540560998
 20
7.549807910000001
 30
0.0
 11
-22.8137135296998
 21
7.572077625199998
 31
0.0
  0
LINE
  5
23E
330
2
100
AcDbEntity
  8
0
100
AcDbLine
 10
-22.8137135296998
 20
7.572077625199998
 30
0.0
 11
-22.9696039760998
 21
7.594711073199999
 31
0.0
  0
LINE
  5
23F
330
2
100
AcDbEntity
  8
0
100
AcDbLine
 10
-22.9696039760998
 20
7.594711073199999
 30
0.0
 11
-23.1265530928998
 21
7.6177338028
 31
0.0
  0
LINE
  5
240
330
2
100
AcDbEntity
  8
0
100
AcDbLine
 10
-23.1265530928998
 20
7.6177338028
 30
0.0
 11
-23.2852530784998
 21
7.641255050800001
 31
0.0
  0
LWPOLYLINE
  5
241
330
2
100
AcDbEntity
  8
0
100
AcDbPolyline
 90
       17
 70
     0
 43
0.0
 10
-23.2852530784998
 20
7.641255050799998
 10
-23.4465095072998
 20
7.665406458799992
 10
-23.5283336336998
 20
7.677759191599996
 10
-23.6110750448998
 20
7.690317844399991
 10
-23.6948193712998
 20
7.703097962799994
 10
-23.7796486576998
 20
7.716114743599995
 10
-23.8656122416998
 20
7.729378493999995
 10
-23.9526554016998
 20
7.742883372399994
 10
-24.0407018368998
 20
7.756619807599996
 10
-24.1296765968998
 20
7.770577970799998
 10
-24.2195063632998
 20
7.784747778799996
 10
-24.3101196064998
 20
7.799118879599994
 10
-24.4014461696998
 20
7.813680551599993
 10
-24.4934243440998
 20
7.828422789999997
 10
-24.5859967184998
 20
7.843335625199998
 10
-24.6791090416998
 20
7.858408908399994
 10
-24.7727153568998
 20
7.873633111599993
  0
LWPOLYLINE
  5
242
330
2
100
AcDbEntity
  8
0
100
AcDbPolyline
 90
       44
 70
     0
 43
0.0
 10
-24.7727153568998
 20
7.873633111599993
 10
-24.9618468704998
 20
7.904595935599992
 10
-25.0572409104998
 20
7.920314116399993
 10
-25.1530433328998
 20
7.936169389999996
 10
-25.2491493968998
 20
7.952147169199996
 10
-25.3454557680998
 20
7.968233463599993
 10
-25.4418601696998
 20
7.984414805999996
 10
-25.5382711392998
 20
8.000679901999994
 10
-25.6346504368998
 20
8.017026871599995
 10
-25.7309709872998
 20
8.033456314799991
 10
-25.8271994800998
 20
8.049968521199993
 10
-25.9233021264998
 20
8.066565055599994
 10
-26.0192471424998
 20
8.083248801199992
 10
-26.1149981136998
 20
8.100022636399998
 10
-26.2105134672998
 20
8.116889375599996
 10
-26.3057459392998
 20
8.133851708399994
 10
-26.4006420368998
 20
8.150912141999995
 10
-26.4951414560998
 20
8.168072941999994
 10
-26.5891742624998
 20
8.185335639599998
 10
-26.6827372800998
 20
8.202711172399993
 10
-26.7758156816998
 20
8.220197447599993
 10
-26.8683432080998
 20
8.237780362799995
 10
-26.9602501632998
 20
8.255444495599995
 10
-27.05146349449981
 20
8.273173057199997
 10
-27.1419068608998
 20
8.290947849199994
 10
-27.2315007552998
 20
8.308749218799995
 10
-27.3201626448998
 20
8.326556023599998
 10
-27.4078068112998
 20
8.344345535599991
 10
-27.4943528992998
 20
8.362095127599992
 10
-27.57975146089981
 20
8.379787615599994
 10
-27.6639521760998
 20
8.397404839599992
 10
-27.7468972992998
 20
8.414926199599996
 10
-27.8285218960998
 20
8.432328561199994
 10
-27.9087391712998
 20
8.449583005999997
 10
-27.9869348240998
 20
8.466564010799991
 10
-28.0626022736998
 20
8.483210853999992
 10
-28.1354679568998
 20
8.499521105199995
 10
-28.2055076944998
 20
8.515552541999994
 10
-28.3976686192998
 20
8.531365409199992
 10
-28.4616364112998
 20
8.546968489199997
 10
-28.5218026912998
 20
8.562303791599994
 10
-28.5770022544998
 20
8.577157730799996
 10
-28.6256178752998
 20
8.591136319599996
 10
-28.6659495456998
 20
8.603697258799996
  0
LINE
  5
244
330
2
100
AcDbEntity
  8
0
100
AcDbLine
 10
12.11119828950019
 20
-13.9935672628
 30
0.0
 11
12.12443393750019
 21
-13.8423358484
 31
0.0
  0
LINE
  5
245
330
2
100
AcDbEntity
  8
0
100
AcDbLine
 10
12.11140608310019
 20
-13.9912412372
 30
0.0
 11
12.11141225270019
 21
-13.9911743396
 31
0.0
  0
LINE
  5
246
330
2
100
AcDbEntity
  8
0
100
AcDbLine
 10
12.11063646230019
 20
-13.9994211204
 30
0.0
 11
12.11140608310019
 21
-13.9912412372
 31
0.0
  0
LWPOLYLINE
  5
247
330
2
100
AcDbEntity
  8
0
100
AcDbPolyline
 90
       19
 70
     0
 43
0.0
 10
12.1244339375002
 20
-13.8423358484
 10
12.12751996470019
 20
-13.8170158292
 10
12.13479832310019
 20
-13.7817213332
 10
12.14499998870019
 20
-13.7484842852
 10
12.15773408470019
 20
-13.7174140708
 10
12.17264350550019
 20
-13.6885691284
 10
12.18940691350019
 20
-13.6619675188
 10
12.2077391711002
 20
-13.6375963316
 10
12.2273905759002
 20
-13.61541993
 10
12.24814268950019
 20
-13.5953893476
 10
12.2697644479002
 20
-13.5774786756
 10
12.29200680950019
 20
-13.5616680452
 10
12.31463233590019
 20
-13.5479125572
 10
12.3374182351002
 20
-13.5361441924
 10
12.36015801430019
 20
-13.52627477
 10
12.38266111350019
 20
-13.5181994356
 10
12.40475283830019
 20
-13.5117993252
 10
12.42628641910019
 20
-13.5069415284
 10
12.44716168150019
 20
-13.5034821684
  0
LINE
  5
249
330
2
100
AcDbEntity
  8
0
100
AcDbLine
 10
6.057307310300201
 20
-14.9510896772
 30
0.0
 11
5.70260316150019
 21
-15.305793826
 31
0.0
  0
LWPOLYLINE
  5
24A
330
2
100
AcDbEntity
  8
0
100
AcDbPolyline
 90
        4
 70
     0
 43
0.0
 10
6.057338566300202
 20
-14.9510586356
 10
6.058299708700189
 20
-14.950108186
 10
6.0673171759002
 20
-14.9421342116
 10
6.0674645439002
 20
-14.942026938
  0
LWPOLYLINE
  5
24B
330
2
100
AcDbEntity
  8
0
100
AcDbPolyline
 90
       32
 70
     0
 43
0.0
 10
37.10854932310019
 20
8.650763210799993
 10
37.14336217110019
 20
8.674863034799997
 10
37.22064727670019
 20
8.719169431599993
 10
37.30277642870019
 20
8.756312573999991
 10
37.39092309750019
 20
8.786470389999998
 10
37.4868327823002
 20
8.809534781999992
 10
37.59148092470019
 20
8.824796444399993
 10
37.7023391055002
 20
8.831052047599996
 10
37.8147061775002
 20
8.827494351599995
 10
37.9246610127002
 20
8.814258116399997
 10
38.0290601487002
 20
8.792139957999992
 10
38.12558345110019
 20
8.762369322799997
 10
38.21417812150019
 20
8.725739729199993
 10
38.29803637270019
 20
8.681299047599992
 10
38.38015614710019
 20
8.627425673199994
 10
38.46064564630019
 20
8.563346857199995
 10
38.53867549110019
 20
8.488787884399997
 10
38.61304396310019
 20
8.403891114799996
 10
38.68194451830019
 20
8.309807172399992
 10
38.7393866239002
 20
8.215516319599991
 10
38.78486789430019
 20
8.122561506799996
 10
38.8235798047002
 20
8.020460692399993
 10
38.8579027391002
 20
7.901276079599995
 10
38.8841773199002
 20
7.783360695599995
 10
38.90312988470019
 20
7.679410033199992
 10
38.9176937135002
 20
7.586727482799993
 10
38.92935250870019
 20
7.503638874799996
 10
38.93896704790019
 20
7.428801780399993
 10
38.94707591190019
 20
7.361101754799996
 10
38.95402497430019
 20
7.299702868399997
 10
38.96007477590019
 20
7.243880253999996
 10
38.9704434751002
 20
7.146613972399997
  0
LINE
  5
24C
330
2
100
AcDbEntity
  8
0
100
AcDbLine
 10
24.35888874230019
 20
6.788761745199995
 30
0.0
 11
24.26215121430018
 21
6.781306202799999
 31
0.0
  0
LINE
  5
24D
330
2
100
AcDbEntity
  8
0
100
AcDbLine
 10
24.26215121430018
 20
6.781306202799999
 30
0.0
 11
24.16672138230019
 21
6.774094837999999
 31
0.0
  0
LINE
  5
24E
330
2
100
AcDbEntity
  8
0
100
AcDbLine
 10
24.16672138230019
 20
6.774094837999999
 30
0.0
 11
24.07255951830019
 21
6.767121500399998
 31
0.0
  0
LINE
  5
24F
330
2
100
AcDbEntity
  8
0
100
AcDbLine
 10
24.07255951830019
 20
6.767121500399998
 30
0.0
 11
23.97962509750019
 21
6.760380301999997
 31
0.0
  0
LINE
  5
250
330
2
100
AcDbEntity
  8
0
100
AcDbLine
 10
23.97962509750019
 20
6.760380301999997
 30
0.0
 11
23.88787709110019
 21
6.753865673199999
 31
0.0
  0
LINE
  5
251
330
2
100
AcDbEntity
  8
0
100
AcDbLine
 10
23.88787709110019
 20
6.753865673199999
 30
0.0
 11
23.7972743983002
 21
6.747572405999999
 31
0.0
  0
LINE
  5
252
330
2
100
AcDbEntity
  8
0
100
AcDbLine
 10
23.7972743983002
 20
6.747572405999999
 30
0.0
 11
23.70777649910019
 21
6.741495726
 31
0.0
  0
LINE
  5
253
330
2
100
AcDbEntity
  8
0
100
AcDbLine
 10
23.70777649910019
 20
6.741495726
 30
0.0
 11
23.61934432790019
 21
6.735631365999996
 31
0.0
  0
LINE
  5
254
330
2
100
AcDbEntity
  8
0
100
AcDbLine
 10
23.61934432790019
 20
6.735631365999996
 30
0.0
 11
23.53194144630019
 21
6.729975661999997
 31
0.0
  0
LINE
  5
255
330
2
100
AcDbEntity
  8
0
100
AcDbLine
 10
23.53194144630019
 20
6.729975661999997
 30
0.0
 11
23.44553555030019
 21
6.7245256492
 31
0.0
  0
LINE
  5
256
330
2
100
AcDbEntity
  8
0
100
AcDbLine
 10
23.44553555030019
 20
6.7245256492
 30
0.0
 11
23.36010027190019
 21
6.719279209199999
 31
0.0
  0
LINE
  5
257
330
2
100
AcDbEntity
  8
0
100
AcDbLine
 10
23.36010027190019
 20
6.719279209199999
 30
0.0
 11
23.27561699830019
 21
6.714235167599998
 31
0.0
  0
LINE
  5
258
330
2
100
AcDbEntity
  8
0
100
AcDbLine
 10
23.27561699830019
 20
6.714235167599998
 30
0.0
 11
23.19224467830019
 21
6.709402887599996
 31
0.0
  0
LINE
  5
259
330
2
100
AcDbEntity
  8
0
100
AcDbLine
 10
23.19224467830019
 20
6.709402887599996
 30
0.0
 11
23.1493095247002
 21
6.706972954799997
 31
0.0
  0
LWPOLYLINE
  5
25A
330
2
100
AcDbEntity
  8
0
100
AcDbPolyline
 90
        4
 70
     0
 43
0.0
 10
35.8391202543002
 20
6.709290626799997
 10
35.45751391510019
 20
6.708423575599994
 10
35.00101015990018
 20
6.707223834799997
 10
34.4291279439002
 20
6.705517930799992
  0
LINE
  5
25B
330
2
100
AcDbEntity
  8
0
100
AcDbLine
 10
-30.7345082944998
 20
6.711320023599999
 30
0.0
 11
-31.5554038352998
 21
6.709828649199994
 31
0.0
  0
LINE
  5
25C
330
2
100
AcDbEntity
  8
0
100
AcDbLine
 10
36.4117452463002
 20
6.710138601199997
 30
0.0
 11
35.83912006550019
 21
6.7093712492
 31
0.0
  0
LWPOLYLINE
  5
25D
330
2
100
AcDbEntity
  8
0
100
AcDbPolyline
 90
        5
 70
     0
 43
0.0
 10
37.7411584255002
 20
6.711472593199992
 10
37.4487980831002
 20
6.711327306799994
 10
37.13005193110019
 20
6.711074725999992
 10
36.78461223830019
 20
6.710688399599995
 10
36.4117452463002
 20
6.710138601199993
  0
LWPOLYLINE
  5
25E
330
2
100
AcDbEntity
  8
0
100
AcDbPolyline
 90
        4
 70
     0
 43
0.0
 10
4.165991508700201
 20
6.703282345199994
 10
16.9436049983002
 20
6.705356748399992
 10
28.6867729647002
 20
6.708415124399998
 10
34.42911587190019
 20
6.709282636399997
  0
LWPOLYLINE
  5
25F
330
2
100
AcDbEntity
  8
0
100
AcDbPolyline
 90
        4
 70
     0
 43
0.0
 10
34.42911585750019
 20
6.709224450799993
 10
26.6317927023002
 20
6.707975068399996
 10
14.84186253430019
 20
6.704860857199996
 10
4.165962275100199
 20
6.703366199599997
  0
LINE
  5
260
330
2
100
AcDbEntity
  8
0
100
AcDbLine
 10
34.42911587190019
 20
6.709282636400001
 30
0.0
 11
35.83912007190019
 21
6.7093712492
 31
0.0
  0
LINE
  5
261
330
2
100
AcDbEntity
  8
0
100
AcDbLine
 10
-27.5071370528998
 20
6.7093712492
 30
0.0
 11
-31.5549586368998
 21
6.709381545199999
 31
0.0
  0
LINE
  5
262
330
2
100
AcDbEntity
  8
0
100
AcDbLine
 10
35.83912007190019
 20
6.7093712492
 30
0.0
 11
39.8869416559002
 21
6.709381545199999
 31
0.0
  0
LWPOLYLINE
  5
263
330
2
100
AcDbEntity
  8
0
100
AcDbPolyline
 90
        5
 70
     0
 43
0.0
 10
39.06649131350019
 20
6.711320023599995
 10
38.99409414070019
 20
6.711265209199993
 10
38.9063498383002
 20
6.711300735599998
 10
38.7863874975002
 20
6.711360437999992
 10
38.24477615190019
 20
6.711534633199995
  0
LINE
  5
264
330
2
100
AcDbEntity
  8
0
100
AcDbLine
 10
38.24477615190019
 20
6.711534633199999
 30
0.0
 11
37.7411584255002
 21
6.711472593199996
 31
0.0
  0
LWPOLYLINE
  5
265
330
2
100
AcDbEntity
  8
0
100
AcDbPolyline
 90
        4
 70
     0
 43
0.0
 10
4.165991508700201
 20
6.703282345199994
 10
-8.611621980899805
 20
6.705356748399992
 10
-20.3547899472998
 20
6.708415124399998
 10
-26.0971328528998
 20
6.709282636399997
  0
LWPOLYLINE
  5
266
330
2
100
AcDbEntity
  8
0
100
AcDbPolyline
 90
        4
 70
     0
 43
0.0
 10
4.165962275100199
 20
6.703366199599997
 10
-6.509920433699804
 20
6.704860866799997
 10
-18.2998310576998
 20
6.707975073199996
 10
-26.0971328400998
 20
6.709224450799993
  0
LINE
  5
267
330
2
100
AcDbEntity
  8
0
100
AcDbLine
 10
-26.0971328528998
 20
6.709282636400001
 30
0.0
 11
-27.5071370528998
 21
6.7093712492
 31
0.0
  0
LWPOLYLINE
  5
268
330
2
100
AcDbEntity
  8
0
100
AcDbPolyline
 90
        7
 70
     0
 43
0.0
 10
-29.9127931344998
 20
6.711534633199995
 10
-29.4091754080998
 20
6.711472593199992
 10
-29.1168150656998
 20
6.711327306799994
 10
-28.7980689120998
 20
6.711074725999992
 10
-28.4526292208998
 20
6.710688399599995
 10
-27.9547622272998
 20
6.710138601199993
 10
-27.5337357024998
 20
6.709388793199991
  0
LINE
  5
269
330
2
100
AcDbEntity
  8
0
100
AcDbLine
 10
39.06649131350019
 20
6.711320023599999
 30
0.0
 11
39.8873868543002
 21
6.709828649199994
 31
0.0
  0
LWPOLYLINE
  5
26A
330
2
100
AcDbEntity
  8
0
100
AcDbPolyline
 90
        3
 70
     0
 43
0.0
 10
-27.5071372368998
 20
6.709290626799997
 10
-27.1255308976998
 20
6.708423575599994
 10
-26.6690271424998
 20
6.707223834799997
  0
LINE
  5
26B
330
2
100
AcDbEntity
  8
0
100
AcDbLine
 10
-30.7345082944998
 20
6.711320023599999
 30
0.0
 11
-29.9127931344998
 21
6.711534633199999
 31
0.0
  0
LINE
  5
26C
330
2
100
AcDbEntity
  8
0
100
AcDbLine
 10
-26.6690271424998
 20
6.7072238348
 30
0.0
 11
-26.0971449264998
 21
6.705517930799995
 31
0.0
  0
LINE
  5
26D
330
2
100
AcDbEntity
  8
0
100
AcDbLine
 10
-14.8187823952998
 20
6.707055583599998
 30
0.0
 11
-14.90158328169981
 21
6.711779501999995
 31
0.0
  0
LINE
  5
26E
330
2
100
AcDbEntity
  8
0
100
AcDbLine
 10
-14.90158328169981
 20
6.711779501999995
 30
0.0
 11
-14.9712661280998
 21
6.715868871599997
 31
0.0
  0
LINE
  5
26F
330
2
100
AcDbEntity
  8
0
100
AcDbLine
 10
-14.9712661280998
 20
6.715868871599997
 30
0.0
 11
-15.0415763888998
 21
6.720096127599997
 31
0.0
  0
LINE
  5
270
330
2
100
AcDbEntity
  8
0
100
AcDbLine
 10
-15.0415763888998
 20
6.720096127599997
 30
0.0
 11
-15.1125217792998
 21
6.7244614988
 31
0.0
  0
LINE
  5
271
330
2
100
AcDbEntity
  8
0
100
AcDbLine
 10
-15.1125217792998
 20
6.7244614988
 30
0.0
 11
-15.2081255984998
 21
6.730498129199997
 31
0.0
  0
LINE
  5
272
330
2
100
AcDbEntity
  8
0
100
AcDbLine
 10
-15.2081255984998
 20
6.730498129199997
 30
0.0
 11
-15.3049201552998
 21
6.736784532399997
 31
0.0
  0
LINE
  5
273
330
2
100
AcDbEntity
  8
0
100
AcDbLine
 10
-15.3049201552998
 20
6.736784532399997
 30
0.0
 11
-15.4029531104998
 21
6.743324902000001
 31
0.0
  0
LINE
  5
274
330
2
100
AcDbEntity
  8
0
100
AcDbLine
 10
-15.4029531104998
 20
6.743324902000001
 30
0.0
 11
-15.5022777120998
 21
6.750124465199998
 31
0.0
  0
LINE
  5
275
330
2
100
AcDbEntity
  8
0
100
AcDbLine
 10
-15.5022777120998
 20
6.750124465199998
 30
0.0
 11
-15.6029504592998
 21
6.757189317999998
 31
0.0
  0
LINE
  5
276
330
2
100
AcDbEntity
  8
0
100
AcDbLine
 10
-15.6029504592998
 20
6.757189317999998
 30
0.0
 11
-15.7050293456998
 21
6.764526285999995
 31
0.0
  0
LINE
  5
277
330
2
100
AcDbEntity
  8
0
100
AcDbLine
 10
-15.7050293456998
 20
6.764526285999995
 30
0.0
 11
-15.8085726080998
 21
6.7721427948
 31
0.0
  0
LINE
  5
278
330
2
100
AcDbEntity
  8
0
100
AcDbLine
 10
-15.8085726080998
 20
6.7721427948
 30
0.0
 11
-15.9136378752998
 21
6.780046781999995
 31
0.0
  0
LWPOLYLINE
  5
279
330
2
100
AcDbEntity
  8
0
100
AcDbPolyline
 90
        3
 70
     0
 43
0.0
 10
-15.9136378752998
 20
6.780046781999992
 10
-15.9934696768998
 20
6.786168449199998
 10
-16.0202816368998
 20
6.788246613999994
  0
LINE
  5
27D
330
2
100
AcDbEntity
  8
0
100
AcDbLine
 10
19.2651007103002
 20
-13.6069270676
 30
0.0
 11
19.6719169439002
 21
-15.1251859252
 31
0.0
  0
LINE
  5
27F
330
2
100
AcDbEntity
  8
0
100
AcDbLine
 10
18.64015646070019
 20
-13.3379300868
 30
0.0
 11
18.64015646070019
 21
-13.2895063252
 31
0.0
  0
LINE
  5
286
330
2
100
AcDbEntity
  8
0
100
AcDbLine
 10
24.2901265567002
 20
-13.1007075684
 30
0.0
 11
24.2901265567002
 21
-13.1406287844
 31
0.0
  0
LINE
  5
28A
330
2
100
AcDbEntity
  8
0
100
AcDbLine
 10
39.8869416559002
 20
6.709381545199999
 30
0.0
 11
39.8873868543002
 21
6.709828649199994
 31
0.0
  0
LINE
  5
28D
330
2
100
AcDbEntity
  8
0
100
AcDbLine
 10
23.71358536310019
 20
-13.4262844052
 30
0.0
 11
23.25836607350019
 21
-15.1251859252
 31
0.0
  0
LWPOLYLINE
  5
290
330
2
100
AcDbEntity
  8
0
100
AcDbPolyline
 90
       41
 70
     0
 43
0.0
 10
32.75884554550019
 20
0.4167725739999924
 10
32.7377521967002
 20
0.368021052399996
 10
32.71382852150019
 20
0.3124517499999939
 10
32.6867515295002
 20
0.2492158667999931
 10
32.6563441615002
 20
0.1777717195999955
 10
32.62304436310019
 20
0.0990022043999943
 10
32.5892475487002
 20
0.018467159599993
 10
32.55800258870019
 20
-0.0565346484000031
 10
32.52859728150019
 20
-0.1276808580000051
 10
32.49869962550019
 20
-0.200644269200005
 10
32.4660839055002
 20
-0.2809482884000047
 10
32.42952965750019
 20
-0.371766896400004
 10
32.38900556790019
 20
-0.4733176564000062
 10
32.3449954367002
 20
-0.5844677380000079
 10
32.2974677887002
 20
-0.7054550628000058
 10
32.24633339990019
 20
-0.8366812740000071
 10
32.19132673430019
 20
-0.9790461012000051
 10
32.1321013167002
 20
-1.133719042000002
 10
32.0682628351002
 20
-1.302062814800002
 10
31.99939106550019
 20
-1.485587733200006
 10
31.92495344150019
 20
-1.686246965200005
 10
31.84437442230019
 20
-1.906235429200002
 10
31.75687619030019
 20
-2.148459659600007
 10
31.66147294870019
 20
-2.416833672400002
 10
31.55687076470019
 20
-2.716463533200005
 10
31.4426971263002
 20
-3.050508026000002
 10
31.3200795007002
 20
-3.418112230800005
 10
31.19848200470019
 20
-3.792731243600002
 10
31.0839189231002
 20
-4.156500309200005
 10
30.97767126070019
 20
-4.504533574800007
 10
30.87777594070018
 20
-4.842717413200006
 10
30.7800650767002
 20
-5.186608891600002
 10
30.6789934863002
 20
-5.559060342800002
 10
30.5706433343002
 20
-5.979628296400008
 10
30.46186577110019
 20
-6.426000675600008
 10
30.3602699007002
 20
-6.864837115600003
 10
30.2704438943002
 20
-7.269794213200007
 10
30.1922110383002
 20
-7.634407875600004
 10
30.1231087327002
 20
-7.964160150800005
 10
30.0611352735002
 20
-8.326429578000002
 10
29.95348896790019
 20
-8.850284333200008
  0
LINE
  5
291
330
2
100
AcDbEntity
  8
0
100
AcDbLine
 10
32.79358176470019
 20
0.4965418252000014
 30
0.0
 11
32.75884554550019
 21
0.4167725739999959
 31
0.0
  0
LWPOLYLINE
  5
292
330
2
100
AcDbEntity
  8
0
100
AcDbPolyline
 90
        3
 70
     0
 43
0.0
 10
32.8384868463002
 20
0.5986272923999963
 10
32.8371150911002
 20
0.5955373515999938
 10
32.79358176470019
 20
0.4965418251999978
  0
LWPOLYLINE
  5
293
330
2
100
AcDbEntity
  8
0
100
AcDbPolyline
 90
        4
 70
     0
 43
0.0
 10
33.75889369270019
 20
2.655608234799991
 10
33.40766278550019
 20
1.900884225199995
 10
33.10444673110019
 20
1.219756031599992
 10
32.83848621110019
 20
0.5986255515999943
  0
LWPOLYLINE
  5
294
330
2
100
AcDbEntity
  8
0
100
AcDbPolyline
 90
       10
 70
     0
 43
0.0
 10
33.7588854751002
 20
2.655580149999991
 10
33.8605733375002
 20
2.867277807599997
 10
33.9674918127002
 20
3.086463930799993
 10
34.08138652470019
 20
3.316407127599994
 10
34.20174284790019
 20
3.556027498799991
 10
34.3302922271002
 20
3.809048572399994
 10
34.4672497775002
 20
4.075995671599997
 10
34.61209294710019
 20
4.355709645999993
 10
34.76305730230019
 20
4.644675775599992
 10
34.79714302881896
 20
4.709371215599998
  0
LWPOLYLINE
  5
295
330
2
100
AcDbEntity
  8
0
100
AcDbPolyline
 90
       19
 70
     0
 43
0.0
 10
30.48621078550019
 20
-10.5250952132
 10
30.51633341270019
 20
-10.2519070228
 10
30.53455496150019
 20
-10.0310392404
 10
30.5487446895002
 20
-9.739903642000001
 10
30.56660547670019
 20
-9.436017826000004
 10
30.59259675990019
 20
-9.116848181200005
 10
30.62614397270019
 20
-8.785989504400006
 10
30.66629831670019
 20
-8.446741208400005
 10
30.7127629215002
 20
-8.035418781200007
 10
30.7646694191002
 20
-7.680925512400001
 10
30.82113253110019
 20
-7.324356970000003
 10
30.88135451030019
 20
-6.968608621200004
 10
30.9445783023002
 20
-6.616205816400004
 10
31.00996039030019
 20
-6.269993114000001
 10
31.07704979510019
 20
-5.930745131600005
 10
31.14560511830019
 20
-5.598848989200007
 10
31.21542778230019
 20
-5.274827602000002
 10
31.28630879030019
 20
-4.959378888400003
 10
31.35796299030019
 20
-4.653693790800005
  0
LWPOLYLINE
  5
296
330
2
100
AcDbEntity
  8
0
100
AcDbPolyline
 90
        8
 70
     0
 43
0.0
 10
32.65250330870019
 20
-0.4371101380000085
 10
32.6815637855002
 20
-0.2491897428000058
 10
32.70141277590019
 20
-0.051688014800007
 10
32.72221594070019
 20
0.1167783515999972
 10
32.74908113110019
 20
0.2625660619999977
 10
32.77674248150019
 20
0.386097743599997
 10
32.80805788310019
 20
0.5089844347999915
 10
32.8384868463002
 20
0.5986272923999963
  0
LINE
  5
297
330
2
100
AcDbEntity
  8
0
100
AcDbLine
 10
30.4520033295002
 20
-10.7211538596
 30
0.0
 11
30.48621078550019
 21
-10.52509521319999
 31
0.0
  0
LWPOLYLINE
  5
298
330
2
100
AcDbEntity
  8
0
100
AcDbPolyline
 90
        4
 70
     0
 43
0.0
 10
29.95348896790019
 20
-8.850284333200008
 10
29.9062756175002
 20
-9.079548229200007
 10
29.86307136150019
 20
-9.288283432400007
 10
29.82376869270019
 20
-9.477237696400003
  0
LINE
  5
299
330
2
100
AcDbEntity
  8
0
100
AcDbLine
 10
29.82376869270019
 20
-9.477237696399999
 30
0.0
 11
29.75560801110019
 21
-9.803923725200004
 31
0.0
  0
LWPOLYLINE
  5
29A
330
2
100
AcDbEntity
  8
0
100
AcDbPolyline
 90
        6
 70
     0
 43
0.0
 10
29.75560801110019
 20
-9.803923725200007
 10
29.66741047190019
 20
-10.1634170836
 10
29.63864125110019
 20
-10.300680202
 10
29.60977585750019
 20
-10.4379502148
 10
29.58088508790019
 20
-10.57465029
 10
29.5519886543002
 20
-10.7104197332
  0
LWPOLYLINE
  5
29B
330
2
100
AcDbEntity
  8
0
100
AcDbPolyline
 90
        4
 70
     0
 43
0.0
 10
32.65250330870019
 20
-0.4371101380000085
 10
32.64494250870019
 20
-0.4725226164000063
 10
32.6364076207002
 20
-0.5088966004000071
 10
32.62687893270019
 20
-0.5462327364000075
  0
LINE
  5
29C
330
2
100
AcDbEntity
  8
0
100
AcDbLine
 10
32.65247843990019
 20
-0.4372131588000024
 30
0.0
 11
32.65250330870019
 21
-0.4371101380000049
 31
0.0
  0
LWPOLYLINE
  5
29D
330
2
100
AcDbEntity
  8
0
100
AcDbPolyline
 90
       18
 70
     0
 43
0.0
 10
29.5519886559002
 20
-10.7104197412
 10
29.5135679679002
 20
-10.8685996916
 10
29.46438587990019
 20
-11.0255482388
 10
29.40462263510019
 20
-11.1800918468
 10
29.33427545270019
 20
-11.3316495508
 10
29.25314821270019
 20
-11.4800993652
 10
29.16092895990018
 20
-11.6254458596
 10
29.05757960470019
 20
-11.7670847044
 10
28.94308651030019
 20
-11.9043114932
 10
28.81712130230019
 20
-12.0367664724
 10
28.67945142070019
 20
-12.163903954
 10
28.52933802070019
 20
-12.2855415924
 10
28.36580224470019
 20
-12.4015144996
 10
28.1884408895002
 20
-12.5110983172
 10
27.99701418550019
 20
-12.6133692788
 10
27.79367107830019
 20
-12.706228594
 10
27.59257636950019
 20
-12.78402249
 10
27.4047499759002
 20
-12.8456191108
  0
LINE
  5
29E
330
2
100
AcDbEntity
  8
0
100
AcDbLine
 10
31.35796336310019
 20
-4.653692266000003
 30
0.0
 11
31.4240126671002
 21
-4.3834448564
 31
0.0
  0
LWPOLYLINE
  5
29F
330
2
100
AcDbEntity
  8
0
100
AcDbPolyline
 90
       16
 70
     0
 43
0.0
 10
31.4240126671002
 20
-4.383444856400004
 10
31.4784291679002
 20
-4.168795858000002
 10
31.5970985151002
 20
-3.720557518800006
 10
31.7083832047002
 20
-3.316418450000007
 10
31.81058796790019
 20
-2.951222496400006
 10
31.90589686070019
 20
-2.614771317200002
 10
31.99617947030019
 20
-2.307735739600005
 10
32.08191342710019
 20
-2.030921558800002
 10
32.16424765750019
 20
-1.780624238800001
 10
32.24437008470019
 20
-1.554580645200005
 10
32.32280679350019
 20
-1.351697968400003
 10
32.39857415510019
 20
-1.166777706000004
 10
32.4688073583002
 20
-0.9959731876000077
 10
32.5315286207002
 20
-0.8367111572000069
 10
32.5847055903002
 20
-0.6871840020000022
 10
32.62687893270019
 20
-0.5462327364000075
  0
LWPOLYLINE
  5
2A0
330
2
100
AcDbEntity
  8
0
100
AcDbPolyline
 90
       27
 70
     0
 43
0.0
 10
38.9704434751002
 20
7.146613972399997
 10
38.9750634831002
 20
7.104182799599996
 10
38.97942473750019
 20
7.065341666799994
 10
38.9835832799002
 20
7.029743850799995
 10
38.98757988470019
 20
6.997090103599994
 10
38.99144211190019
 20
6.967143116399995
 10
38.9951899583002
 20
6.939696618799992
 10
38.9988400495002
 20
6.914554812399991
 10
39.00240670710019
 20
6.891533949999995
 10
39.00590281110019
 20
6.870462729199992
 10
39.00933898870019
 20
6.851190343599995
 10
39.0127277503002
 20
6.833565506799992
 10
39.01608235510019
 20
6.817448066799997
 10
39.0194137471002
 20
6.802724685999997
 10
39.02273196630019
 20
6.789299559599996
 10
39.02604761750019
 20
6.777087789999995
 10
39.0293726031002
 20
6.766014017199992
 10
39.0327205631002
 20
6.756013023599997
 10
39.0361073775002
 20
6.747030833199993
 10
39.0395518975002
 20
6.739026074799994
 10
39.04307617270019
 20
6.731973513199996
 10
39.04670453910019
 20
6.725869673199994
 10
39.0504749503002
 20
6.720721961199991
 10
39.0544057039002
 20
6.716599188399996
 10
39.05846580950019
 20
6.713617149999997
 10
39.06252385910019
 20
6.711876220399993
 10
39.06649131350019
 20
6.711320023599995
  0
LINE
  5
2A1
330
2
100
AcDbEntity
  8
0
100
AcDbLine
 10
40.1359791599002
 20
6.481170481199999
 30
0.0
 11
40.2909915087002
 21
4.709371215599997
 31
0.0
  0
ARC
  5
2A7
330
2
100
AcDbEntity
  8
0
100
AcDbCircle
 10
-15.7438097936998
 20
-13.5233420628
 30
0.0
 40
0.3749929488
100
AcDbArc
 50
15.0006587533
 51
88.0022530517
  0
ARC
  5
2A8
330
2
100
AcDbEntity
  8
0
100
AcDbCircle
 10
-10.5709014384998
 20
-13.703984002
 30
0.0
 40
0.3749971088
100
AcDbArc
 50
88.0
 51
164.9997960014
  0
ARC
  5
2A9
330
2
100
AcDbEntity
  8
0
100
AcDbCircle
 10
-14.5641608704998
 20
-15.0281287844
 30
0.0
 40
0.375
100
AcDbArc
 50
195.0
 51
270.0
  0
ARC
  5
2AA
330
2
100
AcDbEntity
  8
0
100
AcDbCircle
 10
-11.7021561120998
 20
-15.0281287844
 30
0.0
 40
0.375
100
AcDbArc
 50
270.0
 51
345.0
  0
ARC
  5
2AC
330
2
100
AcDbEntity
  8
0
100
AcDbCircle
 10
24.0757928111002
 20
-13.5233420628
 30
0.0
 40
0.3749929488
100
AcDbArc
 50
91.99999999999999
 51
164.9993412466999
  0
ARC
  5
2AD
330
2
100
AcDbEntity
  8
0
100
AcDbCircle
 10
18.90288445590019
 20
-13.703984002
 30
0.0
 40
0.3749971088
100
AcDbArc
 50
15.0002039986
 51
92.0009068435
  0
ARC
  5
2AE
330
2
100
AcDbEntity
  8
0
100
AcDbCircle
 10
22.89614388790019
 20
-15.0281287844
 30
0.0
 40
0.375
100
AcDbArc
 50
270.0
 51
345.0
  0
ARC
  5
2AF
330
2
100
AcDbEntity
  8
0
100
AcDbCircle
 10
20.03413912950019
 20
-15.0281287844
 30
0.0
 40
0.375
100
AcDbArc
 50
195.0
 51
270.0
  0
ARC
  5
2B0
330
2
100
AcDbEntity
  8
0
100
AcDbCircle
 10
12.4980068879002
 20
-13.87501919239999
 30
0.0
 40
0.375
100
AcDbArc
 50
91.94645393920001
 51
175.0
  0
ARC
  5
2B1
330
2
100
AcDbEntity
  8
0
100
AcDbCircle
 10
39.8868913247002
 20
6.4598291404
 30
0.0
 40
0.25
100
AcDbArc
 50
5.0000000001
 51
89.88643316580001
  0
ARC
  5
2B2
330
2
100
AcDbEntity
  8
0
100
AcDbCircle
 10
-31.5549083072998
 20
6.4598291404
 30
0.0
 40
0.25
100
AcDbArc
 50
90.1135668342
 51
174.9999999999
  0
ARC
  5
2B3
330
2
100
AcDbEntity
  8
0
100
AcDbCircle
 10
-4.166023868899808
 20
-13.87501919239999
 30
0.0
 40
0.375
100
AcDbArc
 50
5.0
 51
88.05354606079999
  0
ARC
  5
2B4
330
2
100
AcDbEntity
  8
0
100
AcDbCircle
 10
39.8869304847002
 20
6.459381545199999
 30
0.0
 40
0.25
100
AcDbArc
 50
5.0
 51
89.99743992029999
  0
ARC
  5
2B5
330
2
100
AcDbEntity
  8
0
100
AcDbCircle
 10
2.894544899100194
 20
-15.0406287844
 30
0.0
 40
0.375
100
AcDbArc
 50
225.0
 51
270.0
  0
ARC
  5
2B6
330
2
100
AcDbEntity
  8
0
100
AcDbCircle
 10
-31.5549474672998
 20
6.459381545199999
 30
0.0
 40
0.25
100
AcDbArc
 50
90.0025600797
 51
175.0
  0
ARC
  5
2B7
330
2
100
AcDbEntity
  8
0
100
AcDbCircle
 10
5.437438118300191
 20
-15.0406287844
 30
0.0
 40
0.375
100
AcDbArc
 50
270.0
 51
315.0
  0
LWPOLYLINE
  5
2B8
330
2
100
AcDbEntity
  8
CENTER
  6
CENTER
 48
4.0
100
AcDbPolyline
 90
        3
 70
   128
 43
0.0
 10
6.777994910000089
 20
3.146772748399996
 10
4.165991508699988
 20
3.146772748399996
 10
1.542609707169404
 20
3.146772748399996
  0
LINE
  5
2BB
330
2
100
AcDbEntity
  8
CENTER
  6
CENTER
 48
4.0
100
AcDbLine
 10
4.165991508699987
 20
5.93515863888675
 30
0.0
 11
4.165991508699987
 21
0.3583868579132492
 31
0.0
  0
LINE
  5
2BC
330
2
100
AcDbEntity
  8
CENTER
  6
CENTER
 48
4.0
100
AcDbLine
 10
4.166564329500202
 20
-12.73974289391325
 30
0.0
 11
4.166564329500202
 21
-18.31651467488675
 31
0.0
  0
LINE
  5
3F8
330
2
100
AcDbEntity
  8
0
100
AcDbLine
 10
39.7928941599002
 20
4.709371215599993
 30
0.0
 11
40.2909915087002
 21
4.709371215599997
 31
0.0
  0
LINE
  5
3F9
330
2
100
AcDbEntity
  8
0
100
AcDbLine
 10
-31.46091114249979
 20
4.709371215599997
 30
0.0
 11
-31.9590084912998
 21
4.709371215599997
 31
0.0
  0
ENDSEC
  0
SECTION
  2
OBJECTS
  0
DICTIONARY
  5
9
330
0
100
AcDbDictionary
  3
ACAD_COLOR
350
2E
  3
ACAD_GROUP
350
2A
  3
ACAD_LAYOUT
350
D
  3
ACAD_MATERIAL
350
2D
  3
ACAD_MLINESTYLE
350
2B
  3
ACAD_PLOTSETTINGS
350
2C
  3
ACAD_PLOTSTYLENAME
350
8
  3
ACAD_TABLESTYLE
350
2F
  3
ACDBHEADERROUNDTRIPXREC
350
487
  3
ACDBVARIABLEDICTIONARY
350
2BE
  0
DICTIONARY
  5
3
330
2
100
AcDbDictionary
280
     1
  3
ACAD_LAYOUTSELFREF
360
4A8
  3
ACAD_SORTENTS
360
2BD
  0
DICTIONARY
  5
35B
330
E
100
AcDbDictionary
280
     1
  3
ACAD_LAYOUTSELFREF
360
4A9
  0
DICTIONARY
  5
2E
102
{ACAD_REACTORS
330
9
102
}
330
9
100
AcDbDictionary
  0
DICTIONARY
  5
2A
102
{ACAD_REACTORS
330
9
102
}
330
9
100
AcDbDictionary
  0
DICTIONARY
  5
D
102
{ACAD_REACTORS
330
9
102
}
330
9
100
AcDbDictionary
  0
DICTIONARY
  5
2D
102
{ACAD_REACTORS
330
9
102
}
330
9
100
AcDbDictionary
  0
DICTIONARY
  5
2B
102
{ACAD_REACTORS
330
9
102
}
330
9
100
AcDbDictionary
  3
STANDARD
350
30
  0
DICTIONARY
  5
2C
102
{ACAD_REACTORS
330
9
102
}
330
9
100
AcDbDictionary
  0
ACDBDICTIONARYWDFLT
  5
8
102
{ACAD_REACTORS
330
9
102
}
330
9
100
AcDbDictionary
281
     1
  3
Normal
350
7
100
AcDbDictionaryWithDefault
340
7
  0
DICTIONARY
  5
2F
102
{ACAD_REACTORS
330
9
102
}
330
9
100
AcDbDictionary
  3
STANDARD
350
31
  0
DICTIONARY
  5
487
102
{ACAD_REACTORS
330
9
102
}
330
9
100
AcDbDictionary
  3
CEPSNTYPE
350
491
  3
DIMSTYLEDATA
350
495
  3
FINGERPRINTGUID
350
492
  3
HYPERLINKBASE
350
48A
  3
INSUNITS
350
490
  3
LAYOUTDICT
350
48C
  3
LWETCUNION
350
48F
  3
PLOTSETDICT
350
48D
  3
PLOTSTYLNAMDICT
350
48E
  3
PSVPSCALE
350
494
  3
PUCSBASE
350
498
  3
PUCSORGBACK
350
49E
  3
PUCSORGBOTTOM
350
49A
  3
PUCSORGFRONT
350
49D
  3
PUCSORGLEFT
350
49B
  3
PUCSORGRIGHT
350
49C
  3
PUCSORGTOP
350
499
  3
PUCSORTHOREF
350
496
  3
PUCSORTHOVIEW
350
497
  3
STYLESHEET
350
48B
  3
TSTACKALIGN
350
488
  3
TSTACKSIZE
350
489
  3
UCSBASE
350
4A1
  3
UCSORGBACK
350
4A7
  3
UCSORGBOTTOM
350
4A3
  3
UCSORGFRONT
350
4A6
  3
UCSORGLEFT
350
4A4
  3
UCSORGRIGHT
350
4A5
  3
UCSORGTOP
350
4A2
  3
UCSORTHOREF
350
49F
  3
UCSORTHOVIEW
350
4A0
  3
VERSIONGUID
350
493
  0
DICTIONARY
  5
2BE
102
{ACAD_REACTORS
330
9
102
}
330
9
100
AcDbDictionary
  3
CTABLESTYLE
350
2BF
  3
DIMASSOC
350
30C
  3
HIDETEXT
350
30B
  3
PROJECTNAME
350
30D
  0
XRECORD
  5
4A8
102
{ACAD_REACTORS
330
3
102
}
330
3
100
AcDbXrecord
340
2
  0
SORTENTSTABLE
  5
2BD
102
{ACAD_REACTORS
330
3
102
}
330
3
100
AcDbSortentsTable
330
2
  0
XRECORD
  5
4A9
102
{ACAD_REACTORS
330
35B
102
}
330
35B
100
AcDbXrecord
340
E
  0
MLINESTYLE
  5
30
102
{ACAD_REACTORS
330
2B
102
}
330
2B
100
AcDbMlineStyle
  2
STANDARD
 70
     0
  3

 62
   256
 51
90.0
 52
90.0
 71
     2
 49
0.5
 62
   256
  6
BYLAYER
 49
-0.5
 62
   256
  6
BYLAYER
  0
ACDBPLACEHOLDER
  5
7
102
{ACAD_REACTORS
330
8
102
}
330
8
100
AcDbPlaceHolder
280
     0
  0
ACAD_PROXY_OBJECT
  5
31
102
{ACAD_REACTORS
330
2F
102
}
330
2F
100
AcDbProxyObject
 90
      499
 91
      525
 93
     1841
310
4214DD185B99185C9928B81E85EB51B8AE3F2E07A17AD46E2B8FC02B5E8DC0F42B1CFD028000000C1008070000C3001FDFF8000000C1003FBFF000000182007F7FE00000030400FEFFC00000060801FDFF8000000C1003FBFF00000018200000000000000681FA0B0000001820100E000186003FBFF000000182007F7FE000
310
00030400FEFFC00000060801FDFF8000000C1003FBFF000000182007F7FE000000304000AD7A3703D0AC73F4160000003040201C00030C007F7FE00000030400FEFFC00000060801FDFF8000000C1003FBFF000000182007F7FE00000030400FEFFC000000608018
340
14
340
14
340
14
 94
        0
1001
ACAD
1000
AcadProxyRoundTripData
1071
      524
1071
   851991
1070
     0
  0
XRECORD
  5
491
102
{ACAD_REACTORS
330
487
102
}
330
487
100
AcDbXrecord
 90
        0
  0
XRECORD
  5
495
102
{ACAD_REACTORS
330
487
102
}
330
487
100
AcDbXrecord
1000
DSTYLE
1002
{
1070
   276
 70
     1
1070
   277
 70
     5
1070
   341
340
21
1070
   342
340
21
1002
}
  0
XRECORD
  5
492
102
{ACAD_REACTORS
330
487
102
}
330
487
100
AcDbXrecord
  1
{386BF208-9524-4557-AFDE-0D11FDC7A190}
  0
XRECORD
  5
48A
102
{ACAD_REACTORS
330
487
102
}
330
487
100
AcDbXrecord
  1

  0
XRECORD
  5
490
102
{ACAD_REACTORS
330
487
102
}
330
487
100
AcDbXrecord
 90
        1
  0
XRECORD
  5
48C
102
{ACAD_REACTORS
330
487
102
}
330
487
100
AcDbXrecord
340
D
  0
XRECORD
  5
48F
102
{ACAD_REACTORS
330
487
102
}
330
487
100
AcDbXrecord
 90
    10781
  0
XRECORD
  5
48D
102
{ACAD_REACTORS
330
487
102
}
330
487
100
AcDbXrecord
340
2C
  0
XRECORD
  5
48E
102
{ACAD_REACTORS
330
487
102
}
330
487
100
AcDbXrecord
340
8
  0
XRECORD
  5
494
102
{ACAD_REACTORS
330
487
102
}
330
487
100
AcDbXrecord
 40
0.0
  0
XRECORD
  5
498
102
{ACAD_REACTORS
330
487
102
}
330
487
100
AcDbXrecord
340
0
  0
XRECORD
  5
49E
102
{ACAD_REACTORS
330
487
102
}
330
487
100
AcDbXrecord
 10
0.0
 20
0.0
 30
0.0
  0
XRECORD
  5
49A
102
{ACAD_REACTORS
330
487
102
}
330
487
100
AcDbXrecord
 10
0.0
 20
0.0
 30
0.0
  0
XRECORD
  5
49D
102
{ACAD_REACTORS
330
487
102
}
330
487
100
AcDbXrecord
 10
0.0
 20
0.0
 30
0.0
  0
XRECORD
  5
49B
102
{ACAD_REACTORS
330
487
102
}
330
487
100
AcDbXrecord
 10
0.0
 20
0.0
 30
0.0
  0
XRECORD
  5
49C
102
{ACAD_REACTORS
330
487
102
}
330
487
100
AcDbXrecord
 10
0.0
 20
0.0
 30
0.0
  0
XRECORD
  5
499
102
{ACAD_REACTORS
330
487
102
}
330
487
100
AcDbXrecord
 10
0.0
 20
0.0
 30
0.0
  0
XRECORD
  5
496
102
{ACAD_REACTORS
330
487
102
}
330
487
100
AcDbXrecord
340
0
  0
XRECORD
  5
497
102
{ACAD_REACTORS
330
487
102
}
330
487
100
AcDbXrecord
 70
     0
  0
XRECORD
  5
48B
102
{ACAD_REACTORS
330
487
102
}
330
487
100
AcDbXrecord
  1

  0
XRECORD
  5
488
102
{ACAD_REACTORS
330
487
102
}
330
487
100
AcDbXrecord
 90
        1
  0
XRECORD
  5
489
102
{ACAD_REACTORS
330
487
102
}
330
487
100
AcDbXrecord
 90
       70
  0
XRECORD
  5
4A1
102
{ACAD_REACTORS
330
487
102
}
330
487
100
AcDbXrecord
340
0
  0
XRECORD
  5
4A7
102
{ACAD_REACTORS
330
487
102
}
330
487
100
AcDbXrecord
 10
0.0
 20
0.0
 30
0.0
  0
XRECORD
  5
4A3
102
{ACAD_REACTORS
330
487
102
}
330
487
100
AcDbXrecord
 10
0.0
 20
0.0
 30
0.0
  0
XRECORD
  5
4A6
102
{ACAD_REACTORS
330
487
102
}
330
487
100
AcDbXrecord
 10
0.0
 20
0.0
 30
0.0
  0
XRECORD
  5
4A4
102
{ACAD_REACTORS
330
487
102
}
330
487
100
AcDbXrecord
 10
0.0
 20
0.0
 30
0.0
  0
XRECORD
  5
4A5
102
{ACAD_REACTORS
330
487
102
}
330
487
100
AcDbXrecord
 10
0.0
 20
0.0
 30
0.0
  0
XRECORD
  5
4A2
102
{ACAD_REACTORS
330
487
102
}
330
487
100
AcDbXrecord
 10
0.0
 20
0.0
 30
0.0
  0
XRECORD
  5
49F
102
{ACAD_REACTORS
330
487
102
}
330
487
100
AcDbXrecord
340
0
  0
XRECORD
  5
4A0
102
{ACAD_REACTORS
330
487
102
}
330
487
100
AcDbXrecord
 70
     0
  0
XRECORD
  5
493
102
{ACAD_REACTORS
330
487
102
}
330
487
100
AcDbXrecord
  1
{57969DDD-BC7F-470D-A5F5-CACC4204769A}
  0
DICTIONARYVAR
  5
2BF
102
{ACAD_REACTORS
330
2BE
102
}
330
2BE
100
DictionaryVariables
280
     0
  1
STANDARD
  0
DICTIONARYVAR
  5
30C
102
{ACAD_REACTORS
330
2BE
102
}
330
2BE
100
DictionaryVariables
280
     0
  1
1
  0
DICTIONARYVAR
  5
30B
102
{ACAD_REACTORS
330
2BE
102
}
330
2BE
100
DictionaryVariables
280
     0
  1
1
  0
DICTIONARYVAR
  5
30D
102
{ACAD_REACTORS
330
2BE
102
}
330
2BE
100
DictionaryVariables
280
     0
  1

  0
ENDSEC
  0
EOF
